  0
SECTION
  2
HEADER
  9
$ACADVER
  1
AC1009
  9
$INSBASE
 10
0.0
 20
0.0
 30
0.0
  9
$EXTMIN
 10
-1186.2487562306339
 20
-600.92466602908087
 30
-0.0015258207003583
  9
$EXTMAX
 10
1647.6745771333519
 20
880.99366374196507
 30
0.0000000349246037
  9
$LIMMIN
 10
-4200.0
 20
-2970.0
  9
$LIMMAX
 10
4200.0
 20
2970.0
  9
$ORTHOMODE
 70
     0
  9
$REGENMODE
 70
     1
  9
$FILLMODE
 70
     1
  9
$QTEXTMODE
 70
     0
  9
$MIRRTEXT
 70
     0
  9
$DRAGMODE
 70
     2
  9
$LTSCALE
 40
20.0
  9
$OSMODE
 70
   431
  9
$ATTMODE
 70
     1
  9
$TEXTSIZE
 40
64.0
  9
$TRACEWID
 40
0.05
  9
$TEXTSTYLE
  7
STANDARD
  9
$CLAYER
  8
SYMBOLLINE
  9
$CELTYPE
  6
CONTINUOUS
  9
$CECOLOR
 62
     7
  9
$DIMSCALE
 40
1.0
  9
$DIMASZ
 40
10.0
  9
$DIMEXO
 40
20.0
  9
$DIMDLI
 40
200.0
  9
$DIMRND
 40
0.0
  9
$DIMDLE
 40
0.0
  9
$DIMEXE
 40
30.0
  9
$DIMTP
 40
0.0
  9
$DIMTM
 40
0.0
  9
$DIMTXT
 40
55.0
  9
$DIMCEN
 40
0.0
  9
$DIMTSZ
 40
0.0
  9
$DIMTOL
 70
     0
  9
$DIMLIM
 70
     0
  9
$DIMTIH
 70
     0
  9
$DIMTOH
 70
     0
  9
$DIMSE1
 70
     0
  9
$DIMSE2
 70
     0
  9
$DIMTAD
 70
     1
  9
$DIMZIN
 70
     8
  9
$DIMBLK
  1

  9
$DIMASO
 70
     1
  9
$DIMSHO
 70
     0
  9
$DIMPOST
  1

  9
$DIMAPOST
  1

  9
$DIMALT
 70
     0
  9
$DIMALTD
 70
     2
  9
$DIMALTF
 40
25.399999999999999
  9
$DIMLFAC
 40
1.0
  9
$DIMTOFL
 70
     1
  9
$DIMTVP
 40
0.0
  9
$DIMTIX
 70
     1
  9
$DIMSOXD
 70
     0
  9
$DIMSAH
 70
     0
  9
$DIMBLK1
  1

  9
$DIMBLK2
  1

  9
$DIMSTYLE
  2
STANDARD
  9
$DIMCLRD
 70
     0
  9
$DIMCLRE
 70
     0
  9
$DIMCLRT
 70
     0
  9
$DIMTFAC
 40
1.0
  9
$DIMGAP
 40
0.09
  9
$LUNITS
 70
     2
  9
$LUPREC
 70
     4
  9
$SKETCHINC
 40
0.1
  9
$FILLETRAD
 40
0.0
  9
$AUNITS
 70
     1
  9
$AUPREC
 70
     3
  9
$MENU
  1
ACAD
  9
$ELEVATION
 40
0.0
  9
$PELEVATION
 40
0.0
  9
$THICKNESS
 40
0.0
  9
$LIMCHECK
 70
     0
  9
$BLIPMODE
 70
     0
  9
$CHAMFERA
 40
0.0
  9
$CHAMFERB
 40
0.0
  9
$SKPOLY
 70
     0
  9
$TDCREATE
 40
2449761.4936226849
  9
$TDUPDATE
 40
2455250.6193125579
  9
$TDINDWG
 40
5.0420500230999998
  9
$TDUSRTIMER
 40
5.0420480324000003
  9
$USRTIMER
 70
     1
  9
$ANGBASE
 50
0.0
  9
$ANGDIR
 70
     0
  9
$PDMODE
 70
    35
  9
$PDSIZE
 40
100.0
  9
$PLINEWID
 40
0.0
  9
$COORDS
 70
     0
  9
$SPLFRAME
 70
     0
  9
$SPLINETYPE
 70
     6
  9
$SPLINESEGS
 70
     8
  9
$ATTDIA
 70
     0
  9
$ATTREQ
 70
     1
  9
$HANDLING
 70
     1
  9
$HANDSEED
  5
F7B
  9
$SURFTAB1
 70
     6
  9
$SURFTAB2
 70
     6
  9
$SURFTYPE
 70
     6
  9
$SURFU
 70
     6
  9
$SURFV
 70
     6
  9
$UCSNAME
  2

  9
$UCSORG
 10
0.0
 20
0.0
 30
0.0
  9
$UCSXDIR
 10
1.0
 20
0.0
 30
0.0
  9
$UCSYDIR
 10
0.0
 20
1.0
 30
0.0
  9
$PUCSNAME
  2

  9
$PUCSORG
 10
0.0
 20
0.0
 30
0.0
  9
$PUCSXDIR
 10
1.0
 20
0.0
 30
0.0
  9
$PUCSYDIR
 10
0.0
 20
1.0
 30
0.0
  9
$USERI1
 70
     0
  9
$USERI2
 70
     0
  9
$USERI3
 70
     0
  9
$USERI4
 70
     0
  9
$USERI5
 70
     0
  9
$USERR1
 40
20.0
  9
$USERR2
 40
0.0
  9
$USERR3
 40
0.0
  9
$USERR4
 40
0.0
  9
$USERR5
 40
0.0
  9
$WORLDVIEW
 70
     1
  9
$SHADEDGE
 70
     3
  9
$SHADEDIF
 70
    70
  9
$TILEMODE
 70
     1
  9
$MAXACTVP
 70
    64
  9
$PLIMCHECK
 70
     0
  9
$PEXTMIN
 10
1.0000000000000000E+020
 20
1.0000000000000000E+020
 30
1.0000000000000000E+020
  9
$PEXTMAX
 10
-1.0000000000000000E+020
 20
-1.0000000000000000E+020
 30
-1.0000000000000000E+020
  9
$PLIMMIN
 10
0.0
 20
0.0
  9
$PLIMMAX
 10
12.0
 20
9.0
  9
$UNITMODE
 70
     0
  9
$VISRETAIN
 70
     1
  9
$PLINEGEN
 70
     0
  9
$PSLTSCALE
 70
     1
  0
ENDSEC
  0
SECTION
  2
TABLES
  0
TABLE
  2
VPORT
 70
     1
  0
VPORT
  2
*ACTIVE
 70
     0
 10
0.0
 20
0.0
 11
1.0
 21
1.0
 12
0.0000000000001705
 22
0.0
 13
0.0
 23
0.0
 14
50.0
 24
50.0
 15
100.0
 25
100.0
 16
0.0
 26
0.0
 36
1.0
 17
0.0
 27
0.0
 37
0.0
 40
5985.0568900126418
 41
1.5481012658227851
 42
50.0
 43
0.0
 44
0.0
 50
0.0
 51
0.0
 71
     0
 72
  1000
 73
     1
 74
     0
 75
     0
 76
     0
 77
     0
 78
     0
  0
ENDTAB
  0
TABLE
  2
LTYPE
 70
     3
  0
LTYPE
  2
CONTINUOUS
 70
     0
  3
実線
 72
    65
 73
     0
 40
0.0
  0
LTYPE
  2
DASHDOT
 70
     0
  3
____ _ ____ _ ____ _ ____ _ ____ _ ____ _ ____
 72
    65
 73
     4
 40
5.5
 49
4.0
 49
-0.6
 49
0.3
 49
-0.6
  0
ENDTAB
  0
TABLE
  2
LAYER
 70
    13
  0
LAYER
  2
0
 70
     0
 62
     7
  6
CONTINUOUS
  0
LAYER
  2
OUTLINE
 70
     0
 62
     3
  6
CONTINUOUS
  0
LAYER
  2
DETAIL
 70
     0
 62
     5
  6
CONTINUOUS
  0
LAYER
  2
BASIS
 70
     0
 62
     6
  6
DASHDOT
  0
LAYER
  2
SIZE
 70
     0
 62
    30
  6
CONTINUOUS
  0
LAYER
  2
NOTE
 70
     0
 62
     4
  6
CONTINUOUS
  0
LAYER
  2
ARRANGE
 70
     0
 62
     1
  6
CONTINUOUS
  0
LAYER
  2
FIX
 70
     0
 62
    11
  6
CONTINUOUS
  0
LAYER
  2
SERVICESPACE
 70
     0
 62
     2
  6
DASHDOT
  0
LAYER
  2
ETC
 70
     0
 62
    61
  6
CONTINUOUS
  0
LAYER
  2
SYMBOLLINE
 70
     0
 62
    15
  6
CONTINUOUS
  0
LAYER
  2
DEFPOINTS
 70
     0
 62
     7
  6
CONTINUOUS
  0
ENDTAB
  0
TABLE
  2
STYLE
 70
     3
  0
STYLE
  2
STANDARD
 70
     0
 40
0.0
 41
0.9
 50
0.0
 71
     0
 42
64.0
  3
SIMPLEX
  4
BIGFONT
  0
STYLE
  2
ANNOTATIVE
 70
     0
 40
0.0
 41
1.0
 50
0.0
 71
     0
 42
0.2
  3
txt
  4

  0
STYLE
  2
STANDARD1
 70
     0
 40
0.0
 41
1.0
 50
0.0
 71
     0
 42
3.5
  3
MONOTXT
  4
BIGFONT
  0
ENDTAB
  0
TABLE
  2
VIEW
 70
     7
  0
VIEW
  2
ALL
 70
     0
 40
6056.2300320000013
 10
0.0
 20
58.11501599999999
 41
8400.0
 11
0.0
 21
0.0
 31
1.0
 12
0.0
 22
0.0
 32
0.0
 42
50.0
 43
0.0
 44
0.0
 50
0.0
 71
     0
  0
ENDTAB
  0
TABLE
  2
UCS
 70
     0
  0
ENDTAB
  0
TABLE
  2
APPID
 70
     4
  0
APPID
  2
ACAD
 70
     0
  0
APPID
  2
ACADANNOTATIVE
 70
     0
  0
APPID
  2
ACAD_MLEADERVER
 70
     0
  0
APPID
  2
ACAECLAYERSTANDARD
 70
     0
  0
ENDTAB
  0
TABLE
  2
DIMSTYLE
 70
     3
  0
DIMSTYLE
  2
STANDARD
 70
     0
  3

  4

  5

  6

  7

 40
1.0
 41
0.18
 42
0.0625
 43
0.38
 44
0.18
 45
0.0
 46
0.0
 47
0.0
 48
0.0
140
0.18
141
0.09
142
0.0
143
25.399999999999999
144
1.0
145
0.0
146
1.0
147
0.09
 71
     0
 72
     0
 73
     1
 74
     1
 75
     0
 76
     0
 77
     0
 78
     0
170
     0
171
     2
172
     0
173
     0
174
     0
175
     0
176
     0
177
     0
178
     0
  0
DIMSTYLE
  2
ANNOTATIVE
 70
     0
  3

  4

  5

  6

  7

 40
1.0
 41
0.18
 42
0.0625
 43
0.38
 44
0.18
 45
0.0
 46
0.0
 47
0.0
 48
0.0
140
0.18
141
0.09
142
0.0
143
25.399999999999999
144
1.0
145
0.0
146
1.0
147
0.09
 71
     0
 72
     0
 73
     1
 74
     1
 75
     0
 76
     0
 77
     0
 78
     0
170
     0
171
     2
172
     0
173
     0
174
     0
175
     0
176
     0
177
     0
178
     0
  0
ENDTAB
  0
ENDSEC
  0
SECTION
  2
BLOCKS
  0
BLOCK
  8
0
  2
$MODEL_SPACE
 70
     0
 10
0.0
 20
0.0
 30
0.0
  3
$MODEL_SPACE
  1

  0
ENDBLK
  5
76
  8
0
  0
BLOCK
 67
     1
  8
0
  2
$PAPER_SPACE
 70
     0
 10
0.0
 20
0.0
 30
0.0
  3
$PAPER_SPACE
  1

  0
ENDBLK
  5
72
 67
     1
  8
0
  0
ENDSEC
  0
SECTION
  2
ENTITIES
  0
LINE
  5
8A
  8
DETAIL
  6
CONTINUOUS
 62
     5
 10
823.91898709938914
 20
-379.99999999999358
 30
0.0
 11
9.0027201049269898
 21
-379.99999999999358
 31
0.0
  0
LINE
  5
8D
  8
DETAIL
  6
CONTINUOUS
 62
     5
 10
9.0027201049269898
 20
380.0000000000054
 30
0.0
 11
823.91898709858572
 21
380.0000000000054
 31
0.0
  0
LINE
  5
B1
  8
DETAIL
  6
CONTINUOUS
 62
     5
 10
-9.0027201041302742
 20
-379.99999999999358
 30
0.0
 11
-823.91901569058609
 21
-379.99999999999358
 31
0.0
  0
LINE
  5
CE
  8
DETAIL
  6
CONTINUOUS
 62
     5
 10
-823.91898709869918
 20
380.0000000000054
 30
0.0
 11
-9.0027201041302742
 21
380.0000000000054
 31
0.0
  0
CIRCLE
  5
D9
  8
DETAIL
  6
CONTINUOUS
 62
     5
 10
-427.14583409320772
 20
-0.0000000000695763
 30
0.0
 40
361.10910641502051
  0
LINE
  5
DA
  8
DETAIL
  6
CONTINUOUS
 62
     5
 10
-874.9999999996013
 20
-328.91898709909083
 30
0.0
 11
-874.9999999996013
 21
328.91898709819321
 31
0.0
  0
LINE
  5
E1
  8
DETAIL
  6
CONTINUOUS
 62
     5
 10
-873.82825152557405
 20
-331.7478177910188
 30
0.0
 11
-826.74781779062675
 21
-378.82825152598298
 31
0.0
  0
ARC
  5
E2
  8
DETAIL
  6
CONTINUOUS
 62
     5
 10
-870.99944963513155
 20
-328.91898709909083
 30
0.0
 40
4.0005503644646367
 50
179.99970832144891
 51
225.000291678509
  0
ARC
  5
E3
  8
DETAIL
  6
CONTINUOUS
 62
     5
 10
-427.14583409320772
 20
-0.0000000000695763
 30
0.0
 40
460.13902756484561
 50
215.14907851914469
 51
224.8501416438105
  0
ARC
  5
E4
  8
DETAIL
  6
CONTINUOUS
 62
     5
 10
-427.14583409320772
 20
-0.0000000000695763
 30
0.0
 40
440.1329828881133
 50
215.15668874460641
 51
224.84416359887931
  0
ARC
  5
E5
  8
DETAIL
  6
CONTINUOUS
 62
     5
 10
-823.91898709778854
 20
-375.99944963363032
 30
0.0
 40
4.0005503664654931
 50
224.9997083331715
 51
270.0
  0
LINE
  5
E6
  8
DETAIL
  6
CONTINUOUS
 62
     5
 10
-751.66336617358149
 20
-324.51753208044141
 30
0.0
 11
-739.21448122092818
 21
-312.0686471277736
 31
0.0
  0
ARC
  5
E7
  8
DETAIL
  6
CONTINUOUS
 62
     5
 10
-752.51215076489655
 20
-323.66874748912682
 30
0.0
 40
1.200362680603495
 50
224.85014164384731
 51
315.0
  0
ARC
  5
E8
  8
DETAIL
  6
CONTINUOUS
 62
     5
 10
-740.063265812243
 20
-311.21986253646082
 30
0.0
 40
1.2003626806036951
 50
315.0
 51
44.844163598768809
  0
LINE
  5
E9
  8
DETAIL
  6
CONTINUOUS
 62
     5
 10
-781.35451391845424
 20
-245.96437429057681
 30
0.0
 11
-815.75051183070002
 21
-225.08069710933981
 31
0.0
  0
LINE
  5
EA
  8
DETAIL
  6
CONTINUOUS
 62
     5
 10
-786.69704273617231
 20
-251.76046666431131
 30
0.0
 11
-781.28898471419768
 21
-247.97370367020349
 31
0.0
  0
LINE
  5
EB
  8
DETAIL
  6
CONTINUOUS
 62
     5
 10
-817.56435581718858
 20
-226.25738229957369
 30
0.0
 11
-812.33908824909656
 21
-267.56662476284731
 31
0.0
  0
LINE
  5
EC
  8
DETAIL
  6
CONTINUOUS
 62
     5
 10
-810.45971505833586
 20
-268.39926895224062
 30
0.0
 11
-805.05165952012339
 21
-264.61250769737069
 31
0.0
  0
ARC
  5
ED
  8
DETAIL
  6
CONTINUOUS
 62
     5
 10
-816.37348237509173
 20
-226.10674694523269
 30
0.0
 40
1.200362680603229
 50
58.73579030560208
 51
187.209142134563
  0
ARC
  5
EE
  8
DETAIL
  6
CONTINUOUS
 62
     5
 10
-811.14821480698458
 20
-267.41598940850639
 30
0.0
 40
1.2003626806040291
 50
187.2091421345695
 51
304.99999999999397
  0
ARC
  5
EF
  8
DETAIL
  6
CONTINUOUS
 62
     5
 10
-804.36315977147569
 20
-265.59578724104261
 30
0.0
 40
1.200362680603912
 50
35.149078519144823
 51
124.999999999994
  0
ARC
  5
F0
  8
DETAIL
  6
CONTINUOUS
 62
     5
 10
-786.00854298752415
 20
-252.74374620798329
 30
0.0
 40
1.200362680603329
 50
124.999999999994
 51
215.15668874449111
  0
ARC
  5
F3
  8
DETAIL
  6
CONTINUOUS
 62
     5
 10
-781.97748446284652
 20
-246.99042412656081
 30
0.0
 40
1.2003626806031951
 50
304.99999999999397
 51
58.735790305646617
  0
LINE
  5
1B7
  8
NOTE
  6
CONTINUOUS
 62
     4
 10
-839.1145195526434
 20
299.99999999999631
 30
0.0
 11
-872.88548044644517
 21
299.99999999999631
 31
0.0
  0
LINE
  5
1B8
  8
DETAIL
  6
CONTINUOUS
 62
     5
 10
-826.74781779062675
 20
378.82825152584201
 30
0.0
 11
-873.82825152557405
 21
331.74781779102972
 31
0.0
  0
CIRCLE
  5
1B9
  8
DETAIL
  6
CONTINUOUS
 62
     5
 10
-855.99999999954355
 20
299.99999999999631
 30
0.0
 40
12.5
  0
ARC
  5
1BA
  8
DETAIL
  6
CONTINUOUS
 62
     5
 10
-870.99944963313101
 20
328.91898709819321
 30
0.0
 40
4.0005503664648252
 50
134.99970833317141
 51
180.00029166677399
  0
CIRCLE
  5
1BB
  8
DETAIL
  6
CONTINUOUS
 62
     5
 10
-855.99999999954355
 20
299.99999999999631
 30
0.0
 40
4.599999999999997
  0
ARC
  5
1BF
  8
DETAIL
  6
CONTINUOUS
 62
     5
 10
-823.91898709869918
 20
375.99944963552252
 30
0.0
 40
4.0005503644636891
 50
90.0
 51
135.00029167847219
  0
LINE
  5
615
  8
DETAIL
  6
CONTINUOUS
 62
     5
 10
122.9187054698485
 20
-245.96437429057681
 30
0.0
 11
88.522707557602189
 21
-225.08069710933981
 31
0.0
  0
ARC
  5
632
  8
DETAIL
  6
CONTINUOUS
 62
     5
 10
477.12738529509448
 20
-0.0000000000695763
 30
0.0
 40
460.13902756484561
 50
215.14907851914469
 51
224.8501416438105
  0
LINE
  5
64C
  8
DETAIL
  6
CONTINUOUS
 62
     5
 10
9.0027201049269898
 20
-379.99999999999358
 30
0.0
 11
-9.0027201041302742
 21
-379.99999999999358
 31
0.0
  0
ARC
  5
64D
  8
DETAIL
  6
CONTINUOUS
 62
     5
 10
9.0027201049269898
 20
-375.99879106465141
 30
0.0
 40
4.0012089353465203
 50
180.0
 51
270.0
  0
ARC
  5
64E
  8
DETAIL
  6
CONTINUOUS
 62
     5
 10
-9.0027201041302742
 20
-375.99879106465141
 30
0.0
 40
4.0012089353464031
 50
270.0
 51
0.0
  0
LINE
  5
64F
  8
DETAIL
  6
CONTINUOUS
 62
     5
 10
86.708863571113383
 20
-226.25738229957369
 30
0.0
 11
91.934131139220867
 21
-267.56662476284731
 31
0.0
  0
LINE
  5
650
  8
DETAIL
  6
CONTINUOUS
 62
     5
 10
93.813504329966207
 20
-268.39926895224062
 30
0.0
 11
99.221559868194205
 21
-264.61250769737069
 31
0.0
  0
ARC
  5
651
  8
DETAIL
  6
CONTINUOUS
 62
     5
 10
93.125004581318507
 20
-267.41598940850639
 30
0.0
 40
1.200362680603962
 50
187.2091421345695
 51
304.99999999999397
  0
ARC
  5
652
  8
DETAIL
  6
CONTINUOUS
 62
     5
 10
99.910059616842801
 20
-265.59578724104261
 30
0.0
 40
1.200362680603962
 50
35.149078519144823
 51
124.999999999994
  0
ARC
  5
653
  8
DETAIL
  6
CONTINUOUS
 62
     5
 10
87.899737013210157
 20
-226.10674694523269
 30
0.0
 40
1.2003626806037611
 50
58.73579030560208
 51
187.2091421345695
  0
ARC
  5
705
  8
DETAIL
  6
CONTINUOUS
 62
     5
 10
477.12738529509448
 20
-0.0000000000695763
 30
0.0
 40
440.1329828881133
 50
215.15668874460641
 51
224.84416359887931
  0
LINE
  5
707
  8
DETAIL
  6
CONTINUOUS
 62
     5
 10
152.6098532147206
 20
-324.51753208044141
 30
0.0
 11
165.0587381673738
 21
-312.0686471277736
 31
0.0
  0
ARC
  5
708
  8
DETAIL
  6
CONTINUOUS
 62
     5
 10
151.7610686234064
 20
-323.66874748912682
 30
0.0
 40
1.200362680604129
 50
224.85014164373681
 51
315.0
  0
ARC
  5
709
  8
DETAIL
  6
CONTINUOUS
 62
     5
 10
164.20995357605889
 20
-311.21986253646082
 30
0.0
 40
1.2003626806030621
 50
315.0
 51
44.844163598768809
  0
LINE
  5
721
  8
DETAIL
  6
CONTINUOUS
 62
     5
 10
117.5761766521299
 20
-251.76046666431131
 30
0.0
 11
122.9842346741042
 21
-247.97370367020349
 31
0.0
  0
ARC
  5
722
  8
DETAIL
  6
CONTINUOUS
 62
     5
 10
118.2646764007785
 20
-252.74374620798329
 30
0.0
 40
1.200362680603245
 50
124.999999999994
 51
215.15668874449111
  0
ARC
  5
723
  8
DETAIL
  6
CONTINUOUS
 62
     5
 10
122.2957349254565
 20
-246.99042412656081
 30
0.0
 40
1.2003626806037611
 50
305.00000000003678
 51
58.73579030560208
  0
ARC
  5
8BB
  8
DETAIL
  6
CONTINUOUS
 62
     5
 10
-427.14583409320772
 20
-0.0000000000695763
 30
0.0
 40
460.13902756484657
 50
35.149078519144823
 51
44.850141643810723
  0
ARC
  5
8BC
  8
DETAIL
  6
CONTINUOUS
 62
     5
 10
-427.14583409320772
 20
-0.0000000000695763
 30
0.0
 40
440.1329828881141
 50
35.156688744606491
 51
44.844163598879469
  0
LINE
  5
8CA
  8
DETAIL
  6
CONTINUOUS
 62
     5
 10
-43.831953127973961
 20
268.39926895213227
 30
0.0
 11
-49.240008666201902
 21
264.61250769726121
 31
0.0
  0
LINE
  5
8CB
  8
DETAIL
  6
CONTINUOUS
 62
     5
 10
-67.594625450137741
 20
251.76046666420319
 30
0.0
 11
-73.002683472112039
 21
247.9737036700962
 31
0.0
  0
LINE
  5
8CC
  8
DETAIL
  6
CONTINUOUS
 62
     5
 10
-36.727312369120227
 20
226.25738229946629
 30
0.0
 11
-41.952579937319562
 21
267.5666247628314
 31
0.0
  0
LINE
  5
8CD
  8
DETAIL
  6
CONTINUOUS
 62
     5
 10
-72.937154267855476
 20
245.96437429055999
 30
0.0
 11
-38.541156355609921
 21
225.08069710923201
 31
0.0
  0
ARC
  5
8CE
  8
DETAIL
  6
CONTINUOUS
 62
     5
 10
-37.918185811217867
 20
226.10674694512539
 30
0.0
 40
1.200362680603879
 50
238.7357903056465
 51
7.209142134459614
  0
ARC
  5
8CF
  8
DETAIL
  6
CONTINUOUS
 62
     5
 10
-43.143453379325372
 20
267.4159894084886
 30
0.0
 40
1.2003626806048451
 50
7.2091421345630096
 51
124.999999999994
  0
ARC
  5
8D0
  8
DETAIL
  6
CONTINUOUS
 62
     5
 10
-49.928508414849588
 20
265.5957872410263
 30
0.0
 40
1.2003626806037291
 50
215.14907851902939
 51
304.99999999999397
  0
ARC
  5
8D1
  8
DETAIL
  6
CONTINUOUS
 62
     5
 10
-68.283125198785456
 20
252.7437462079674
 30
0.0
 40
1.2003626806038461
 50
304.99999999999397
 51
35.156688744491277
  0
ARC
  5
8D2
  8
DETAIL
  6
CONTINUOUS
 62
     5
 10
-72.314183723463401
 20
246.99042412645301
 30
0.0
 40
1.2003626806034271
 50
124.999999999994
 51
238.73579030560191
  0
LINE
  5
8D3
  8
DETAIL
  6
CONTINUOUS
 62
     5
 10
-102.6283020127284
 20
324.51753208042493
 30
0.0
 11
-115.0771869653808
 21
312.06864712775808
 31
0.0
  0
ARC
  5
8D4
  8
DETAIL
  6
CONTINUOUS
 62
     5
 10
-101.7795174214133
 20
323.66874748911039
 30
0.0
 40
1.2003626806049601
 50
44.850141643847458
 51
134.99999999996299
  0
ARC
  5
8D5
  8
DETAIL
  6
CONTINUOUS
 62
     5
 10
-114.2284023740666
 20
311.21986253635259
 30
0.0
 40
1.2003626806035621
 50
135.0
 51
224.8441635987688
  0
LINE
  5
8D6
  8
DETAIL
  6
CONTINUOUS
 62
     5
 10
5.0015111695847709
 20
375.9987910646314
 30
0.0
 11
5.0015111695847709
 21
-375.99879106465141
 31
0.0
  0
LINE
  5
8D7
  8
DETAIL
  6
CONTINUOUS
 62
     5
 10
-5.0015111687880562
 20
-375.99879106465141
 30
0.0
 11
-5.0015111687880562
 21
375.9987910646314
 31
0.0
  0
LINE
  5
8D8
  8
DETAIL
  6
CONTINUOUS
 62
     5
 10
-9.0027201041302742
 20
380.0000000000054
 30
0.0
 11
9.0027201049269898
 21
380.0000000000054
 31
0.0
  0
ARC
  5
8D9
  8
DETAIL
  6
CONTINUOUS
 62
     5
 10
9.0027201049269898
 20
375.9987910646314
 30
0.0
 40
4.001208935346634
 50
90.0
 51
180.0
  0
ARC
  5
8DA
  8
DETAIL
  6
CONTINUOUS
 62
     5
 10
-9.0027201041302742
 20
375.9987910646314
 30
0.0
 40
4.0012089353465203
 50
0.0
 51
90.0
  0
LINE
  5
9F1
  8
DETAIL
  6
CONTINUOUS
 62
     5
 10
875.00000000039824
 20
328.91898709898248
 30
0.0
 11
875.00000000039824
 21
-328.91898709830372
 31
0.0
  0
LINE
  5
B3C
  8
DETAIL
  6
CONTINUOUS
 62
     5
 10
826.74781779142245
 20
-378.82825152598298
 30
0.0
 11
873.82825152626549
 21
-331.7478177910188
 31
0.0
  0
ARC
  5
B3D
  8
DETAIL
  6
CONTINUOUS
 62
     5
 10
823.91898709938914
 20
-375.99944963553969
 30
0.0
 40
4.0005503644636891
 50
270.0
 51
315.00029167847219
  0
ARC
  5
B3E
  8
DETAIL
  6
CONTINUOUS
 62
     5
 10
870.9994496339275
 20
-328.91898709830372
 30
0.0
 40
4.0005503664648252
 50
314.99970833317161
 51
0.0002916667741873
  0
LINE
  5
D4F
  8
DETAIL
  6
CONTINUOUS
 62
     5
 10
781.32095342861624
 20
245.96437429055999
 30
0.0
 11
815.71695134086144
 21
225.08069710923201
 31
0.0
  0
ARC
  5
D50
  8
DETAIL
  6
CONTINUOUS
 62
     5
 10
427.11227360326302
 20
-0.0000000000695763
 30
0.0
 40
460.13902756484657
 50
35.149078519144823
 51
44.850141643810723
  0
ARC
  5
D51
  8
DETAIL
  6
CONTINUOUS
 62
     5
 10
427.11227360326302
 20
-0.0000000000695763
 30
0.0
 40
440.1329828881141
 50
35.156688744606491
 51
44.844163598879469
  0
LINE
  5
D75
  8
DETAIL
  6
CONTINUOUS
 62
     5
 10
786.66348224633396
 20
251.76046666420319
 30
0.0
 11
781.25542422435944
 21
247.9737036700962
 31
0.0
  0
ARC
  5
D77
  8
DETAIL
  6
CONTINUOUS
 62
     5
 10
785.97498249768614
 20
252.7437462079674
 30
0.0
 40
1.2003626806038461
 50
304.99999999999397
 51
35.156688744491277
  0
ARC
  5
D78
  8
DETAIL
  6
CONTINUOUS
 62
     5
 10
781.94392397300726
 20
246.99042412645301
 30
0.0
 40
1.2003626806034611
 50
124.999999999994
 51
238.73579030560191
  0
LINE
  5
D79
  8
DETAIL
  6
CONTINUOUS
 62
     5
 10
751.62980568374303
 20
324.51753208042493
 30
0.0
 11
739.18092073109074
 21
312.06864712775808
 31
0.0
  0
ARC
  5
D7A
  8
DETAIL
  6
CONTINUOUS
 62
     5
 10
752.47859027505694
 20
323.66874748911039
 30
0.0
 40
1.2003626806049601
 50
44.850141643847458
 51
134.99999999996299
  0
ARC
  5
D7B
  8
DETAIL
  6
CONTINUOUS
 62
     5
 10
740.02970532240511
 20
311.21986253635259
 30
0.0
 40
1.2003626806035621
 50
135.0
 51
224.84416359887931
  0
LINE
  5
D7C
  8
DETAIL
  6
CONTINUOUS
 62
     5
 10
810.42615456849751
 20
268.39926895213227
 30
0.0
 11
805.01809903028516
 21
264.61250769726121
 31
0.0
  0
LINE
  5
D7D
  8
DETAIL
  6
CONTINUOUS
 62
     5
 10
817.53079532736592
 20
226.25738229946629
 30
0.0
 11
812.3055277591518
 21
267.5666247628314
 31
0.0
  0
ARC
  5
D7E
  8
DETAIL
  6
CONTINUOUS
 62
     5
 10
816.33992188525372
 20
226.10674694512539
 30
0.0
 40
1.200362680603879
 50
238.7357903056465
 51
7.209142134459614
  0
ARC
  5
D7F
  8
DETAIL
  6
CONTINUOUS
 62
     5
 10
811.11465431714521
 20
267.4159894084886
 30
0.0
 40
1.200362680604913
 50
7.2091421345630096
 51
124.999999999994
  0
ARC
  5
D80
  8
DETAIL
  6
CONTINUOUS
 62
     5
 10
804.32959928163643
 20
265.5957872410263
 30
0.0
 40
1.200362680603678
 50
215.14907851902939
 51
304.99999999999397
  0
LINE
  5
D81
  8
DETAIL
  6
CONTINUOUS
 62
     5
 10
873.82825152626549
 20
331.74781779102972
 30
0.0
 11
826.74781779142245
 21
378.82825152584201
 31
0.0
  0
ARC
  5
D82
  8
DETAIL
  6
CONTINUOUS
 62
     5
 10
823.91898709858572
 20
375.99944963351982
 30
0.0
 40
4.0005503664638082
 50
44.999708333208453
 51
90.0
  0
ARC
  5
D83
  8
DETAIL
  6
CONTINUOUS
 62
     5
 10
870.99944963592839
 20
328.91898709898248
 30
0.0
 40
4.0005503644636891
 50
359.99970832144891
 51
45.000291678509029
  0
LINE
  5
D84
  8
NOTE
  6
CONTINUOUS
 62
     4
 10
-855.99999999954446
 20
316.885480446896
 30
0.0
 11
-855.99999999954446
 21
283.11451955309428
 31
0.0
  0
LINE
  5
D85
  8
SIZE
  6
CONTINUOUS
 62
    30
 10
843.91898709938914
 20
-380.00000000000449
 30
0.0
 11
1378.288755629286
 21
-380.00000000000472
 31
0.0
  0
LINE
  5
D86
  8
SIZE
  6
CONTINUOUS
 62
    30
 10
843.91898709858515
 20
380.0000000000054
 30
0.0
 11
1378.288755629286
 21
380.00000000000529
 31
0.0
  0
LINE
  5
D87
  8
SIZE
  6
CONTINUOUS
 62
    30
 10
1348.2887556292869
 20
-370.00000000000472
 30
0.0
 11
1348.2887556292869
 21
370.00000000000529
 31
0.0
  0
CIRCLE
  5
D88
  8
SIZE
  6
CONTINUOUS
 62
    30
 10
1348.2887556292869
 20
-380.00000000000472
 30
0.0
 40
5.0
  0
LINE
  5
D89
  8
SIZE
  6
CONTINUOUS
 62
    30
 10
1348.2887556292869
 20
-375.00000000000472
 30
0.0
 11
1348.2887556292869
 21
-370.00000000000472
 31
0.0
  0
CIRCLE
  5
D8A
  8
SIZE
  6
CONTINUOUS
 62
    30
 10
1348.2887556292869
 20
380.00000000000529
 30
0.0
 40
5.0
  0
LINE
  5
D8B
  8
SIZE
  6
CONTINUOUS
 62
    30
 10
1348.2887556292869
 20
375.00000000000529
 30
0.0
 11
1348.2887556292869
 21
370.00000000000529
 31
0.0
  0
TEXT
  5
D8C
  8
SIZE
  6
CONTINUOUS
 62
    30
 10
1333.288755629286
 20
-63.642857142856641
 30
0.0
 40
55.0
  1
760
 50
90.0
 41
0.9
 72
     1
 11
1333.288755629286
 21
0.0000000000004894
 31
0.0
  0
POINT
  5
D8D
  8
DEFPOINTS
  6
CONTINUOUS
 62
     7
 10
823.91898709938914
 20
-380.00000000000449
 30
0.0
  0
POINT
  5
D8E
  8
DEFPOINTS
  6
CONTINUOUS
 62
     7
 10
823.91898709858572
 20
380.0000000000054
 30
0.0
  0
POINT
  5
D8F
  8
DEFPOINTS
  6
CONTINUOUS
 62
     7
 10
1348.2887556292869
 20
380.00000000000529
 30
0.0
  0
LINE
  5
D90
  8
SIZE
  6
CONTINUOUS
 62
    30
 10
875.00000000034015
 20
348.91896673317751
 30
0.0
 11
875.00000000034015
 21
746.54322665339214
 31
0.0
  0
LINE
  5
D91
  8
SIZE
  6
CONTINUOUS
 62
    30
 10
-874.99999999954434
 20
348.9189667332102
 30
0.0
 11
-874.99999999954434
 21
746.54322665339214
 31
0.0
  0
LINE
  5
D92
  8
SIZE
  6
CONTINUOUS
 62
    30
 10
865.00000000034015
 20
716.54322665339214
 30
0.0
 11
-864.99999999954434
 21
716.54322665339214
 31
0.0
  0
CIRCLE
  5
D93
  8
SIZE
  6
CONTINUOUS
 62
    30
 10
875.00000000034015
 20
716.54322665339214
 30
0.0
 40
5.0
  0
LINE
  5
D94
  8
SIZE
  6
CONTINUOUS
 62
    30
 10
870.00000000034015
 20
716.54322665339214
 30
0.0
 11
865.00000000034015
 21
716.54322665339214
 31
0.0
  0
CIRCLE
  5
D95
  8
SIZE
  6
CONTINUOUS
 62
    30
 10
-874.99999999954434
 20
716.54322665339214
 30
0.0
 40
5.0
  0
LINE
  5
D96
  8
SIZE
  6
CONTINUOUS
 62
    30
 10
-869.99999999954423
 20
716.54322665339214
 30
0.0
 11
-864.99999999954434
 21
716.54322665339214
 31
0.0
  0
TEXT
  5
D97
  8
SIZE
  6
CONTINUOUS
 62
    30
 10
-82.49999999960211
 20
731.54322665339214
 30
0.0
 40
55.0
  1
1750
 41
0.9
 72
     1
 11
0.0000000003979039
 21
731.54322665339214
 31
0.0
  0
POINT
  5
D98
  8
DEFPOINTS
  6
CONTINUOUS
 62
     7
 10
875.00000000034015
 20
328.91896673317751
 30
0.0
  0
POINT
  5
D99
  8
DEFPOINTS
  6
CONTINUOUS
 62
     7
 10
-874.99999999954434
 20
328.9189667332102
 30
0.0
  0
POINT
  5
D9A
  8
DEFPOINTS
  6
CONTINUOUS
 62
     7
 10
-874.99999999954434
 20
716.54322665339214
 30
0.0
  0
LINE
  5
D9B
  8
NOTE
  6
CONTINUOUS
 62
     4
 10
-839.1145195526434
 20
149.9999999999954
 30
0.0
 11
-872.88548044644517
 21
149.9999999999954
 31
0.0
  0
CIRCLE
  5
D9C
  8
DETAIL
  6
CONTINUOUS
 62
     5
 10
-855.99999999954355
 20
149.9999999999954
 30
0.0
 40
12.5
  0
CIRCLE
  5
D9D
  8
DETAIL
  6
CONTINUOUS
 62
     5
 10
-855.99999999954355
 20
149.9999999999954
 30
0.0
 40
4.599999999999997
  0
LINE
  5
D9E
  8
NOTE
  6
CONTINUOUS
 62
     4
 10
-855.99999999954446
 20
166.885480446896
 30
0.0
 11
-855.99999999954446
 21
133.11451955309431
 31
0.0
  0
LINE
  5
D9F
  8
NOTE
  6
CONTINUOUS
 62
     4
 10
-839.1145195526434
 20
-0.0000000000045475
 30
0.0
 11
-872.88548044644517
 21
-0.0000000000045475
 31
0.0
  0
CIRCLE
  5
DA0
  8
DETAIL
  6
CONTINUOUS
 62
     5
 10
-855.99999999954355
 20
-0.0000000000045475
 30
0.0
 40
12.5
  0
CIRCLE
  5
DA1
  8
DETAIL
  6
CONTINUOUS
 62
     5
 10
-855.99999999954355
 20
-0.0000000000045475
 30
0.0
 40
4.599999999999997
  0
LINE
  5
DA2
  8
NOTE
  6
CONTINUOUS
 62
     4
 10
-855.99999999954446
 20
16.88548044689605
 30
0.0
 11
-855.99999999954446
 21
-16.8854804469056
 31
0.0
  0
LINE
  5
DA3
  8
NOTE
  6
CONTINUOUS
 62
     4
 10
-839.1145195526434
 20
-150.00000000000441
 30
0.0
 11
-872.88548044644517
 21
-150.00000000000441
 31
0.0
  0
CIRCLE
  5
DA4
  8
DETAIL
  6
CONTINUOUS
 62
     5
 10
-855.99999999954355
 20
-150.00000000000441
 30
0.0
 40
12.5
  0
CIRCLE
  5
DA5
  8
DETAIL
  6
CONTINUOUS
 62
     5
 10
-855.99999999954355
 20
-150.00000000000441
 30
0.0
 40
4.599999999999997
  0
LINE
  5
DA6
  8
NOTE
  6
CONTINUOUS
 62
     4
 10
-855.99999999954446
 20
-133.1145195531038
 30
0.0
 11
-855.99999999954446
 21
-166.8854804469056
 31
0.0
  0
LINE
  5
DA7
  8
NOTE
  6
CONTINUOUS
 62
     4
 10
-839.1145195526434
 20
-300.00000000000449
 30
0.0
 11
-872.88548044644517
 21
-300.00000000000449
 31
0.0
  0
CIRCLE
  5
DA8
  8
DETAIL
  6
CONTINUOUS
 62
     5
 10
-855.99999999954355
 20
-300.00000000000449
 30
0.0
 40
12.5
  0
CIRCLE
  5
DA9
  8
DETAIL
  6
CONTINUOUS
 62
     5
 10
-855.99999999954355
 20
-300.00000000000449
 30
0.0
 40
4.599999999999997
  0
LINE
  5
DAA
  8
NOTE
  6
CONTINUOUS
 62
     4
 10
-855.99999999954446
 20
-283.11451955310389
 30
0.0
 11
-855.99999999954446
 21
-316.88548044690572
 31
0.0
  0
LINE
  5
DAB
  8
NOTE
  6
CONTINUOUS
 62
     4
 10
872.88548044724098
 20
299.99999999999631
 30
0.0
 11
839.11451955343875
 21
299.99999999999631
 31
0.0
  0
CIRCLE
  5
DAC
  8
DETAIL
  6
CONTINUOUS
 62
     5
 10
856.00000000034106
 20
299.99999999999631
 30
0.0
 40
12.5
  0
CIRCLE
  5
DAD
  8
DETAIL
  6
CONTINUOUS
 62
     5
 10
856.00000000034106
 20
299.99999999999631
 30
0.0
 40
4.599999999999997
  0
LINE
  5
DAE
  8
NOTE
  6
CONTINUOUS
 62
     4
 10
856.00000000034015
 20
316.885480446896
 30
0.0
 11
856.00000000034015
 21
283.11451955309428
 31
0.0
  0
LINE
  5
DAF
  8
NOTE
  6
CONTINUOUS
 62
     4
 10
872.88548044724098
 20
149.9999999999954
 30
0.0
 11
839.11451955343875
 21
149.9999999999954
 31
0.0
  0
CIRCLE
  5
DB0
  8
DETAIL
  6
CONTINUOUS
 62
     5
 10
856.00000000034106
 20
149.9999999999954
 30
0.0
 40
12.5
  0
CIRCLE
  5
DB1
  8
DETAIL
  6
CONTINUOUS
 62
     5
 10
856.00000000034106
 20
149.9999999999954
 30
0.0
 40
4.599999999999997
  0
LINE
  5
DB2
  8
NOTE
  6
CONTINUOUS
 62
     4
 10
856.00000000034015
 20
166.885480446896
 30
0.0
 11
856.00000000034015
 21
133.11451955309431
 31
0.0
  0
LINE
  5
DB3
  8
NOTE
  6
CONTINUOUS
 62
     4
 10
872.88548044724098
 20
-0.0000000000045475
 30
0.0
 11
839.11451955343875
 21
-0.0000000000045475
 31
0.0
  0
CIRCLE
  5
DB4
  8
DETAIL
  6
CONTINUOUS
 62
     5
 10
856.00000000034106
 20
-0.0000000000045475
 30
0.0
 40
12.5
  0
CIRCLE
  5
DB5
  8
DETAIL
  6
CONTINUOUS
 62
     5
 10
856.00000000034106
 20
-0.0000000000045475
 30
0.0
 40
4.599999999999997
  0
LINE
  5
DB6
  8
NOTE
  6
CONTINUOUS
 62
     4
 10
856.00000000034015
 20
16.88548044689605
 30
0.0
 11
856.00000000034015
 21
-16.8854804469056
 31
0.0
  0
LINE
  5
DB7
  8
NOTE
  6
CONTINUOUS
 62
     4
 10
872.88548044724098
 20
-150.00000000000441
 30
0.0
 11
839.11451955343875
 21
-150.00000000000441
 31
0.0
  0
CIRCLE
  5
DB8
  8
DETAIL
  6
CONTINUOUS
 62
     5
 10
856.00000000034106
 20
-150.00000000000441
 30
0.0
 40
12.5
  0
CIRCLE
  5
DB9
  8
DETAIL
  6
CONTINUOUS
 62
     5
 10
856.00000000034106
 20
-150.00000000000441
 30
0.0
 40
4.599999999999997
  0
LINE
  5
DBA
  8
NOTE
  6
CONTINUOUS
 62
     4
 10
856.00000000034015
 20
-133.1145195531038
 30
0.0
 11
856.00000000034015
 21
-166.8854804469056
 31
0.0
  0
LINE
  5
DBB
  8
NOTE
  6
CONTINUOUS
 62
     4
 10
872.88548044724098
 20
-300.00000000000449
 30
0.0
 11
839.11451955343875
 21
-300.00000000000449
 31
0.0
  0
CIRCLE
  5
DBC
  8
DETAIL
  6
CONTINUOUS
 62
     5
 10
856.00000000034106
 20
-300.00000000000449
 30
0.0
 40
12.5
  0
CIRCLE
  5
DBD
  8
DETAIL
  6
CONTINUOUS
 62
     5
 10
856.00000000034106
 20
-300.00000000000449
 30
0.0
 40
4.599999999999997
  0
LINE
  5
DBE
  8
NOTE
  6
CONTINUOUS
 62
     4
 10
856.00000000034015
 20
-283.11451955310389
 30
0.0
 11
856.00000000034015
 21
-316.88548044690572
 31
0.0
  0
LINE
  5
DBF
  8
NOTE
  6
CONTINUOUS
 62
     4
 10
41.8854804472412
 20
299.99999999999631
 30
0.0
 11
8.114519553439095
 21
299.99999999999631
 31
0.0
  0
CIRCLE
  5
DC0
  8
DETAIL
  6
CONTINUOUS
 62
     5
 10
25.000000000341061
 20
299.99999999999631
 30
0.0
 40
12.5
  0
CIRCLE
  5
DC1
  8
DETAIL
  6
CONTINUOUS
 62
     5
 10
25.000000000341061
 20
299.99999999999631
 30
0.0
 40
4.599999999999997
  0
LINE
  5
DC2
  8
NOTE
  6
CONTINUOUS
 62
     4
 10
25.000000000340151
 20
316.885480446896
 30
0.0
 11
25.000000000340151
 21
283.11451955309428
 31
0.0
  0
LINE
  5
DC3
  8
NOTE
  6
CONTINUOUS
 62
     4
 10
41.8854804472412
 20
149.9999999999954
 30
0.0
 11
8.114519553439095
 21
149.9999999999954
 31
0.0
  0
CIRCLE
  5
DC4
  8
DETAIL
  6
CONTINUOUS
 62
     5
 10
25.000000000341061
 20
149.9999999999954
 30
0.0
 40
12.5
  0
CIRCLE
  5
DC5
  8
DETAIL
  6
CONTINUOUS
 62
     5
 10
25.000000000341061
 20
149.9999999999954
 30
0.0
 40
4.599999999999997
  0
LINE
  5
DC6
  8
NOTE
  6
CONTINUOUS
 62
     4
 10
25.000000000340151
 20
166.885480446896
 30
0.0
 11
25.000000000340151
 21
133.11451955309431
 31
0.0
  0
LINE
  5
DC7
  8
NOTE
  6
CONTINUOUS
 62
     4
 10
41.8854804472412
 20
-150.00000000000441
 30
0.0
 11
8.114519553439095
 21
-150.00000000000441
 31
0.0
  0
CIRCLE
  5
DC8
  8
DETAIL
  6
CONTINUOUS
 62
     5
 10
25.000000000341061
 20
-150.00000000000441
 30
0.0
 40
12.5
  0
CIRCLE
  5
DC9
  8
DETAIL
  6
CONTINUOUS
 62
     5
 10
25.000000000341061
 20
-150.00000000000441
 30
0.0
 40
4.599999999999997
  0
LINE
  5
DCA
  8
NOTE
  6
CONTINUOUS
 62
     4
 10
25.000000000340151
 20
-133.1145195531038
 30
0.0
 11
25.000000000340151
 21
-166.8854804469056
 31
0.0
  0
LINE
  5
DCB
  8
NOTE
  6
CONTINUOUS
 62
     4
 10
41.8854804472412
 20
-300.00000000000449
 30
0.0
 11
8.114519553439095
 21
-300.00000000000449
 31
0.0
  0
CIRCLE
  5
DCC
  8
DETAIL
  6
CONTINUOUS
 62
     5
 10
25.000000000341061
 20
-300.00000000000449
 30
0.0
 40
12.5
  0
CIRCLE
  5
DCD
  8
DETAIL
  6
CONTINUOUS
 62
     5
 10
25.000000000341061
 20
-300.00000000000449
 30
0.0
 40
4.599999999999997
  0
LINE
  5
DCE
  8
NOTE
  6
CONTINUOUS
 62
     4
 10
25.000000000340151
 20
-283.11451955310389
 30
0.0
 11
25.000000000340151
 21
-316.88548044690572
 31
0.0
  0
LINE
  5
DCF
  8
NOTE
  6
CONTINUOUS
 62
     4
 10
-8.1145195526432872
 20
299.99999999999631
 30
0.0
 11
-41.885480446445371
 21
299.99999999999631
 31
0.0
  0
CIRCLE
  5
DD0
  8
DETAIL
  6
CONTINUOUS
 62
     5
 10
-24.99999999954343
 20
299.99999999999631
 30
0.0
 40
12.5
  0
CIRCLE
  5
DD1
  8
DETAIL
  6
CONTINUOUS
 62
     5
 10
-24.99999999954343
 20
299.99999999999631
 30
0.0
 40
4.599999999999997
  0
LINE
  5
DD2
  8
NOTE
  6
CONTINUOUS
 62
     4
 10
-24.99999999954434
 20
316.885480446896
 30
0.0
 11
-24.99999999954434
 21
283.11451955309428
 31
0.0
  0
LINE
  5
DD3
  8
NOTE
  6
CONTINUOUS
 62
     4
 10
-8.1145195526432872
 20
149.9999999999954
 30
0.0
 11
-41.885480446445371
 21
149.9999999999954
 31
0.0
  0
CIRCLE
  5
DD4
  8
DETAIL
  6
CONTINUOUS
 62
     5
 10
-24.99999999954343
 20
149.9999999999954
 30
0.0
 40
12.5
  0
CIRCLE
  5
DD5
  8
DETAIL
  6
CONTINUOUS
 62
     5
 10
-24.99999999954343
 20
149.9999999999954
 30
0.0
 40
4.599999999999997
  0
LINE
  5
DD6
  8
NOTE
  6
CONTINUOUS
 62
     4
 10
-24.99999999954434
 20
166.885480446896
 30
0.0
 11
-24.99999999954434
 21
133.11451955309431
 31
0.0
  0
LINE
  5
DD7
  8
NOTE
  6
CONTINUOUS
 62
     4
 10
-8.1145195526432872
 20
-150.00000000000441
 30
0.0
 11
-41.885480446445371
 21
-150.00000000000441
 31
0.0
  0
CIRCLE
  5
DD8
  8
DETAIL
  6
CONTINUOUS
 62
     5
 10
-24.99999999954343
 20
-150.00000000000441
 30
0.0
 40
12.5
  0
CIRCLE
  5
DD9
  8
DETAIL
  6
CONTINUOUS
 62
     5
 10
-24.99999999954343
 20
-150.00000000000441
 30
0.0
 40
4.599999999999997
  0
LINE
  5
DDA
  8
NOTE
  6
CONTINUOUS
 62
     4
 10
-24.99999999954434
 20
-133.1145195531038
 30
0.0
 11
-24.99999999954434
 21
-166.8854804469056
 31
0.0
  0
LINE
  5
DDB
  8
NOTE
  6
CONTINUOUS
 62
     4
 10
-8.1145195526432872
 20
-300.00000000000449
 30
0.0
 11
-41.885480446445371
 21
-300.00000000000449
 31
0.0
  0
CIRCLE
  5
DDC
  8
DETAIL
  6
CONTINUOUS
 62
     5
 10
-24.99999999954343
 20
-300.00000000000449
 30
0.0
 40
12.5
  0
CIRCLE
  5
DDD
  8
DETAIL
  6
CONTINUOUS
 62
     5
 10
-24.99999999954343
 20
-300.00000000000449
 30
0.0
 40
4.599999999999997
  0
LINE
  5
DDE
  8
NOTE
  6
CONTINUOUS
 62
     4
 10
-24.99999999954434
 20
-283.11451955310389
 30
0.0
 11
-24.99999999954434
 21
-316.88548044690572
 31
0.0
  0
LINE
  5
DDF
  8
SIZE
  6
CONTINUOUS
 62
    30
 10
843.91898709858515
 20
-380.00000000009538
 30
0.0
 11
1246.444819798563
 21
-380.00000000009561
 31
0.0
  0
LINE
  5
DE0
  8
SIZE
  6
CONTINUOUS
 62
    30
 10
892.885480447242
 20
-300.00000000000449
 30
0.0
 11
1246.444819798563
 21
-300.0000000000046
 31
0.0
  0
LINE
  5
DE1
  8
SIZE
  6
CONTINUOUS
 62
    30
 10
1216.444819798563
 20
-310.0000000000046
 30
0.0
 11
1216.444819798563
 21
-370.00000000009561
 31
0.0
  0
LINE
  5
DE2
  8
SIZE
  6
CONTINUOUS
 62
    30
 10
1216.444819798563
 20
-380.00000000009561
 30
0.0
 11
1216.444819798563
 21
-500.14285714295272
 31
0.0
  0
CIRCLE
  5
DE3
  8
SIZE
  6
CONTINUOUS
 62
    30
 10
1216.444819798563
 20
-300.0000000000046
 30
0.0
 40
5.0
  0
LINE
  5
DE4
  8
SIZE
  6
CONTINUOUS
 62
    30
 10
1216.444819798563
 20
-305.0000000000046
 30
0.0
 11
1216.444819798563
 21
-310.0000000000046
 31
0.0
  0
CIRCLE
  5
DE5
  8
SIZE
  6
CONTINUOUS
 62
    30
 10
1216.444819798563
 20
-380.00000000009561
 30
0.0
 40
5.0
  0
LINE
  5
DE6
  8
SIZE
  6
CONTINUOUS
 62
    30
 10
1216.444819798563
 20
-375.00000000009561
 30
0.0
 11
1216.444819798563
 21
-370.00000000009561
 31
0.0
  0
TEXT
  5
DE7
  8
SIZE
  6
CONTINUOUS
 62
    30
 10
1201.444819798563
 20
-485.14285714295249
 30
0.0
 40
55.0
  1
80
 50
90.0
 41
0.9
 72
     1
 11
1201.444819798563
 21
-445.071428571524
 31
0.0
  0
POINT
  5
DE8
  8
DEFPOINTS
  6
CONTINUOUS
 62
     7
 10
823.91898709858572
 20
-380.00000000009538
 30
0.0
  0
POINT
  5
DE9
  8
DEFPOINTS
  6
CONTINUOUS
 62
     7
 10
872.88548044724166
 20
-300.00000000000449
 30
0.0
  0
POINT
  5
DEA
  8
DEFPOINTS
  6
CONTINUOUS
 62
     7
 10
1216.444819798563
 20
-300.0000000000046
 30
0.0
  0
LINE
  5
DEB
  8
SIZE
  6
CONTINUOUS
 62
    30
 10
892.885480447242
 20
-300.00000000000449
 30
0.0
 11
1246.444819798565
 21
-300.0000000000046
 31
0.0
  0
LINE
  5
DEC
  8
SIZE
  6
CONTINUOUS
 62
    30
 10
892.885480447242
 20
-150.00000000000441
 30
0.0
 11
1246.444819798565
 21
-150.0000000000046
 31
0.0
  0
LINE
  5
DED
  8
SIZE
  6
CONTINUOUS
 62
    30
 10
1216.444819798565
 20
-290.0000000000046
 30
0.0
 11
1216.444819798565
 21
-160.0000000000046
 31
0.0
  0
CIRCLE
  5
DEE
  8
SIZE
  6
CONTINUOUS
 62
    30
 10
1216.444819798565
 20
-300.0000000000046
 30
0.0
 40
5.0
  0
LINE
  5
DEF
  8
SIZE
  6
CONTINUOUS
 62
    30
 10
1216.444819798565
 20
-295.0000000000046
 30
0.0
 11
1216.444819798565
 21
-290.0000000000046
 31
0.0
  0
CIRCLE
  5
DF0
  8
SIZE
  6
CONTINUOUS
 62
    30
 10
1216.444819798565
 20
-150.0000000000046
 30
0.0
 40
5.0
  0
LINE
  5
DF1
  8
SIZE
  6
CONTINUOUS
 62
    30
 10
1216.444819798565
 20
-155.0000000000046
 30
0.0
 11
1216.444819798565
 21
-160.0000000000046
 31
0.0
  0
TEXT
  5
DF2
  8
SIZE
  6
CONTINUOUS
 62
    30
 10
1201.444819798565
 20
-283.92857142857588
 30
0.0
 40
55.0
  1
150
 50
90.0
 41
0.9
 72
     1
 11
1201.444819798565
 21
-225.00000000000441
 31
0.0
  0
POINT
  5
DF3
  8
DEFPOINTS
  6
CONTINUOUS
 62
     7
 10
872.88548044724166
 20
-300.00000000000449
 30
0.0
  0
POINT
  5
DF4
  8
DEFPOINTS
  6
CONTINUOUS
 62
     7
 10
872.88548044724166
 20
-150.00000000000441
 30
0.0
  0
POINT
  5
DF5
  8
DEFPOINTS
  6
CONTINUOUS
 62
     7
 10
1216.444819798565
 20
-150.0000000000046
 30
0.0
  0
LINE
  5
DF6
  8
SIZE
  6
CONTINUOUS
 62
    30
 10
892.885480447242
 20
-150.00000000000441
 30
0.0
 11
1131.980180470028
 21
-150.0000000000046
 31
0.0
  0
LINE
  5
DF7
  8
SIZE
  6
CONTINUOUS
 62
    30
 10
892.885480447242
 20
-0.0000000000045531
 30
0.0
 11
1131.980180470028
 21
-0.0000000000046209
 31
0.0
  0
LINE
  5
DF8
  8
SIZE
  6
CONTINUOUS
 62
    30
 10
1101.980180470028
 20
-140.0000000000046
 30
0.0
 11
1101.980180470028
 21
-10.00000000000461
 31
0.0
  0
CIRCLE
  5
DF9
  8
SIZE
  6
CONTINUOUS
 62
    30
 10
1101.980180470028
 20
-150.0000000000046
 30
0.0
 40
5.0
  0
LINE
  5
DFA
  8
SIZE
  6
CONTINUOUS
 62
    30
 10
1101.980180470028
 20
-145.0000000000046
 30
0.0
 11
1101.980180470028
 21
-140.0000000000046
 31
0.0
  0
CIRCLE
  5
DFB
  8
SIZE
  6
CONTINUOUS
 62
    30
 10
1101.980180470028
 20
-0.0000000000046124
 30
0.0
 40
5.0
  0
LINE
  5
DFC
  8
SIZE
  6
CONTINUOUS
 62
    30
 10
1101.980180470028
 20
-5.0000000000046123
 30
0.0
 11
1101.980180470028
 21
-10.00000000000461
 31
0.0
  0
TEXT
  5
DFD
  8
SIZE
  6
CONTINUOUS
 62
    30
 10
1086.980180470028
 20
-133.92857142857579
 30
0.0
 40
55.0
  1
150
 50
90.0
 41
0.9
 72
     1
 11
1086.980180470028
 21
-75.000000000004434
 31
0.0
  0
POINT
  5
DFE
  8
DEFPOINTS
  6
CONTINUOUS
 62
     7
 10
872.88548044724166
 20
-150.00000000000441
 30
0.0
  0
POINT
  5
DFF
  8
DEFPOINTS
  6
CONTINUOUS
 62
     7
 10
872.88548044724166
 20
-0.0000000000045475
 30
0.0
  0
POINT
  5
E00
  8
DEFPOINTS
  6
CONTINUOUS
 62
     7
 10
1101.980180470028
 20
-0.0000000000046124
 30
0.0
  0
LINE
  5
E01
  8
SIZE
  6
CONTINUOUS
 62
    30
 10
892.885480447242
 20
-0.0000000000045531
 30
0.0
 11
1131.980180470028
 21
-0.0000000000046209
 31
0.0
  0
LINE
  5
E02
  8
SIZE
  6
CONTINUOUS
 62
    30
 10
892.885480447242
 20
149.9999999999954
 30
0.0
 11
1131.980180470028
 21
149.99999999999531
 31
0.0
  0
LINE
  5
E03
  8
SIZE
  6
CONTINUOUS
 62
    30
 10
1101.980180470028
 20
9.999999999995385
 30
0.0
 11
1101.980180470028
 21
139.99999999999531
 31
0.0
  0
CIRCLE
  5
E04
  8
SIZE
  6
CONTINUOUS
 62
    30
 10
1101.980180470028
 20
-0.0000000000046124
 30
0.0
 40
5.0
  0
LINE
  5
E05
  8
SIZE
  6
CONTINUOUS
 62
    30
 10
1101.980180470028
 20
4.9999999999953868
 30
0.0
 11
1101.980180470028
 21
9.999999999995385
 31
0.0
  0
CIRCLE
  5
E06
  8
SIZE
  6
CONTINUOUS
 62
    30
 10
1101.980180470028
 20
149.99999999999531
 30
0.0
 40
5.0
  0
LINE
  5
E07
  8
SIZE
  6
CONTINUOUS
 62
    30
 10
1101.980180470028
 20
144.99999999999531
 30
0.0
 11
1101.980180470028
 21
139.99999999999531
 31
0.0
  0
TEXT
  5
E08
  8
SIZE
  6
CONTINUOUS
 62
    30
 10
1086.980180470028
 20
16.071428571424129
 30
0.0
 40
55.0
  1
150
 50
90.0
 41
0.9
 72
     1
 11
1086.980180470028
 21
74.999999999995552
 31
0.0
  0
POINT
  5
E09
  8
DEFPOINTS
  6
CONTINUOUS
 62
     7
 10
872.88548044724166
 20
-0.0000000000045475
 30
0.0
  0
POINT
  5
E0A
  8
DEFPOINTS
  6
CONTINUOUS
 62
     7
 10
872.88548044724166
 20
149.9999999999954
 30
0.0
  0
POINT
  5
E0B
  8
DEFPOINTS
  6
CONTINUOUS
 62
     7
 10
1101.980180470028
 20
149.99999999999531
 30
0.0
  0
LINE
  5
E0C
  8
SIZE
  6
CONTINUOUS
 62
    30
 10
892.885480447242
 20
149.9999999999954
 30
0.0
 11
1246.444819798565
 21
149.99999999999531
 31
0.0
  0
LINE
  5
E0D
  8
SIZE
  6
CONTINUOUS
 62
    30
 10
892.885480447242
 20
299.99999999999631
 30
0.0
 11
1246.444819798565
 21
299.99999999999619
 31
0.0
  0
LINE
  5
E0E
  8
SIZE
  6
CONTINUOUS
 62
    30
 10
1216.444819798565
 20
159.99999999999531
 30
0.0
 11
1216.444819798565
 21
289.99999999999619
 31
0.0
  0
CIRCLE
  5
E0F
  8
SIZE
  6
CONTINUOUS
 62
    30
 10
1216.444819798565
 20
149.99999999999531
 30
0.0
 40
5.0
  0
LINE
  5
E10
  8
SIZE
  6
CONTINUOUS
 62
    30
 10
1216.444819798565
 20
154.99999999999531
 30
0.0
 11
1216.444819798565
 21
159.99999999999531
 31
0.0
  0
CIRCLE
  5
E11
  8
SIZE
  6
CONTINUOUS
 62
    30
 10
1216.444819798565
 20
299.99999999999619
 30
0.0
 40
5.0
  0
LINE
  5
E12
  8
SIZE
  6
CONTINUOUS
 62
    30
 10
1216.444819798565
 20
294.99999999999619
 30
0.0
 11
1216.444819798565
 21
289.99999999999619
 31
0.0
  0
TEXT
  5
E13
  8
SIZE
  6
CONTINUOUS
 62
    30
 10
1201.444819798565
 20
166.0714285714246
 30
0.0
 40
55.0
  1
150
 50
90.0
 41
0.9
 72
     1
 11
1201.444819798565
 21
224.99999999999599
 31
0.0
  0
POINT
  5
E14
  8
DEFPOINTS
  6
CONTINUOUS
 62
     7
 10
872.88548044724166
 20
149.9999999999954
 30
0.0
  0
POINT
  5
E15
  8
DEFPOINTS
  6
CONTINUOUS
 62
     7
 10
872.88548044724166
 20
299.99999999999631
 30
0.0
  0
POINT
  5
E16
  8
DEFPOINTS
  6
CONTINUOUS
 62
     7
 10
1216.444819798565
 20
299.99999999999619
 30
0.0
  0
LINE
  5
E17
  8
NOTE
  6
CONTINUOUS
 62
     4
 10
953.31888169057424
 20
-227.6486051590345
 30
0.0
 11
953.31888169057424
 21
-252.65616100495069
 31
0.0
  0
LINE
  5
E18
  8
NOTE
  6
CONTINUOUS
 62
     4
 10
903.40775606265277
 20
-202.64104931311971
 30
0.0
 11
953.31888169057424
 21
-252.65616100495069
 31
0.0
  0
TEXT
  5
E19
  8
NOTE
  6
CONTINUOUS
 62
     4
 10
916.16064053997138
 20
14.99320583050485
 30
0.0
 40
55.0
  1
空気
 50
0.0000025045208121
 41
0.630952371610266
  7
STANDARD1
  0
LINE
  5
E1A
  8
NOTE
  6
CONTINUOUS
 62
     4
 10
953.31888169057424
 20
-177.63349346720361
 30
0.0
 11
994.01726582437254
 21
-177.63349346720361
 31
0.0
  0
LINE
  5
E1B
  8
NOTE
  6
CONTINUOUS
 62
     4
 10
953.31888169057424
 20
-227.6486051590345
 30
0.0
 11
994.01726582437254
 21
-227.6486051590345
 31
0.0
  0
TEXT
  5
E1C
  8
NOTE
  6
CONTINUOUS
 62
     4
 10
916.16064053997138
 20
-68.76420758186849
 30
0.0
 40
55.0
  1
吸込
 50
0.0000025045208121
 41
0.630952371610266
  7
STANDARD1
  0
LINE
  5
E1D
  8
NOTE
  6
CONTINUOUS
 62
     4
 10
953.31888169057424
 20
-152.62593762128739
 30
0.0
 11
903.40775606265277
 21
-202.64104931311971
 31
0.0
  0
LINE
  5
E1E
  8
NOTE
  6
CONTINUOUS
 62
     4
 10
953.31888169057424
 20
-152.62593762128739
 30
0.0
 11
953.31888169057424
 21
-177.63349346720361
 31
0.0
  0
LINE
  5
E1F
  8
NOTE
  6
CONTINUOUS
 62
     4
 10
994.01726582437254
 20
-227.6486051590345
 30
0.0
 11
994.01726582437254
 21
-177.63349346720361
 31
0.0
  0
LINE
  5
E20
  8
NOTE
  6
CONTINUOUS
 62
     4
 10
989.79492967449539
 20
178.3869069397783
 30
0.0
 11
989.79492967449539
 21
228.4020186316092
 31
0.0
  0
LINE
  5
E21
  8
NOTE
  6
CONTINUOUS
 62
     4
 10
899.18541991277561
 20
203.39446278569309
 30
0.0
 11
949.09654554069766
 21
153.37935109386211
 31
0.0
  0
LINE
  5
E22
  8
NOTE
  6
CONTINUOUS
 62
     4
 10
949.09654554069766
 20
178.3869069397783
 30
0.0
 11
989.79492967449539
 21
178.3869069397783
 31
0.0
  0
LINE
  5
E23
  8
NOTE
  6
CONTINUOUS
 62
     4
 10
949.09654554069766
 20
178.3869069397783
 30
0.0
 11
949.09654554069766
 21
153.37935109386211
 31
0.0
  0
LINE
  5
E24
  8
NOTE
  6
CONTINUOUS
 62
     4
 10
949.09654554069766
 20
253.40957447752541
 30
0.0
 11
899.18541991277561
 21
203.39446278569309
 31
0.0
  0
LINE
  5
E25
  8
NOTE
  6
CONTINUOUS
 62
     4
 10
949.09654554069766
 20
228.4020186316092
 30
0.0
 11
989.79492967449539
 21
228.4020186316092
 31
0.0
  0
LINE
  5
E26
  8
NOTE
  6
CONTINUOUS
 62
     4
 10
949.09654554069766
 20
253.40957447752541
 30
0.0
 11
949.09654554069766
 21
228.4020186316092
 31
0.0
  0
LINE
  5
E27
  8
NOTE
  6
CONTINUOUS
 62
     4
 10
-993.92162284650396
 20
-168.61179636298351
 30
0.0
 11
-993.92162284650396
 21
-118.59668467115171
 31
0.0
  0
LINE
  5
E28
  8
NOTE
  6
CONTINUOUS
 62
     4
 10
-903.31211308478396
 20
-143.60424051706741
 30
0.0
 11
-953.22323871270589
 21
-193.61935220889831
 31
0.0
  0
LINE
  5
E29
  8
NOTE
  6
CONTINUOUS
 62
     4
 10
-953.22323871270589
 20
-168.61179636298351
 30
0.0
 11
-993.92162284650396
 21
-168.61179636298351
 31
0.0
  0
LINE
  5
E2A
  8
NOTE
  6
CONTINUOUS
 62
     4
 10
-953.22323871270589
 20
-168.61179636298351
 30
0.0
 11
-953.22323871270589
 21
-193.61935220889831
 31
0.0
  0
LINE
  5
E2B
  8
NOTE
  6
CONTINUOUS
 62
     4
 10
-953.22323871270589
 20
-93.589128825235534
 30
0.0
 11
-903.31211308478396
 21
-143.60424051706741
 31
0.0
  0
LINE
  5
E2C
  8
NOTE
  6
CONTINUOUS
 62
     4
 10
-907.55566086763565
 20
143.0536596942633
 30
0.0
 11
-957.46678649555713
 21
93.038548002431995
 31
0.0
  0
LINE
  5
E2D
  8
NOTE
  6
CONTINUOUS
 62
     4
 10
-957.46678649555713
 20
193.06877138609431
 30
0.0
 11
-907.55566086763565
 21
143.0536596942633
 31
0.0
  0
TEXT
  5
E2E
  8
NOTE
  6
CONTINUOUS
 62
     4
 10
-991.1900122950999
 20
13.23927161797064
 30
0.0
 40
55.0
  1
空気
 50
0.0000025045208121
 41
0.630952371610266
  7
STANDARD1
  0
TEXT
  5
E2F
  8
NOTE
  6
CONTINUOUS
 62
     4
 10
-991.1900122950999
 20
-68.351434755241826
 30
0.0
 40
55.0
  1
吸込
 50
0.0000025045208121
 41
0.630952371610266
  7
STANDARD1
  0
LINE
  5
E30
  8
NOTE
  6
CONTINUOUS
 62
     4
 10
-953.22323871270589
 20
-118.59668467115171
 30
0.0
 11
-993.92162284650396
 21
-118.59668467115171
 31
0.0
  0
LINE
  5
E31
  8
NOTE
  6
CONTINUOUS
 62
     4
 10
-953.22323871270589
 20
-93.589128825235534
 30
0.0
 11
-953.22323871270589
 21
-118.59668467115171
 31
0.0
  0
LINE
  5
E32
  8
NOTE
  6
CONTINUOUS
 62
     4
 10
-998.16517062935588
 20
118.0461038483472
 30
0.0
 11
-998.16517062935588
 21
168.0612155401794
 31
0.0
  0
LINE
  5
E33
  8
NOTE
  6
CONTINUOUS
 62
     4
 10
-957.46678649555713
 20
118.0461038483472
 30
0.0
 11
-998.16517062935588
 21
118.0461038483472
 31
0.0
  0
LINE
  5
E34
  8
NOTE
  6
CONTINUOUS
 62
     4
 10
-957.46678649555713
 20
118.0461038483472
 30
0.0
 11
-957.46678649555713
 21
93.038548002431995
 31
0.0
  0
LINE
  5
E35
  8
NOTE
  6
CONTINUOUS
 62
     4
 10
-957.46678649555713
 20
168.0612155401794
 30
0.0
 11
-998.16517062935588
 21
168.0612155401794
 31
0.0
  0
LINE
  5
E36
  8
NOTE
  6
CONTINUOUS
 62
     4
 10
-957.46678649555713
 20
193.06877138609431
 30
0.0
 11
-957.46678649555713
 21
168.0612155401794
 31
0.0
  0
LINE
  5
E37
  8
SIZE
  6
CONTINUOUS
 62
    30
 10
61.8854804472412
 20
-150.00000000000441
 30
0.0
 11
1246.444819798565
 21
-150.00000000000489
 31
0.0
  0
LINE
  5
E38
  8
SIZE
  6
CONTINUOUS
 62
    30
 10
61.8854804472412
 20
149.9999999999954
 30
0.0
 11
1246.444819798565
 21
149.999999999995
 31
0.0
  0
LINE
  5
E39
  8
SIZE
  6
CONTINUOUS
 62
    30
 10
1216.444819798565
 20
-140.00000000000489
 30
0.0
 11
1216.444819798565
 21
139.999999999995
 31
0.0
  0
CIRCLE
  5
E3A
  8
SIZE
  6
CONTINUOUS
 62
    30
 10
1216.444819798565
 20
-150.00000000000489
 30
0.0
 40
5.0
  0
LINE
  5
E3B
  8
SIZE
  6
CONTINUOUS
 62
    30
 10
1216.444819798565
 20
-145.00000000000489
 30
0.0
 11
1216.444819798565
 21
-140.00000000000489
 31
0.0
  0
CIRCLE
  5
E3C
  8
SIZE
  6
CONTINUOUS
 62
    30
 10
1216.444819798565
 20
149.999999999995
 30
0.0
 40
5.0
  0
LINE
  5
E3D
  8
SIZE
  6
CONTINUOUS
 62
    30
 10
1216.444819798565
 20
144.999999999995
 30
0.0
 11
1216.444819798565
 21
139.999999999995
 31
0.0
  0
TEXT
  5
E3E
  8
SIZE
  6
CONTINUOUS
 62
    30
 10
1201.444819798565
 20
-63.642857142861828
 30
0.0
 40
55.0
  1
300
 50
90.0
 41
0.9
 72
     1
 11
1201.444819798565
 21
-0.0000000000047037
 31
0.0
  0
POINT
  5
E3F
  8
DEFPOINTS
  6
CONTINUOUS
 62
     7
 10
41.8854804472412
 20
-150.00000000000441
 30
0.0
  0
POINT
  5
E40
  8
DEFPOINTS
  6
CONTINUOUS
 62
     7
 10
41.8854804472412
 20
149.9999999999954
 30
0.0
  0
POINT
  5
E41
  8
DEFPOINTS
  6
CONTINUOUS
 62
     7
 10
1216.444819798565
 20
149.999999999995
 30
0.0
  0
LINE
  5
E42
  8
NOTE
  6
CONTINUOUS
 62
     4
 10
-251.32315812709561
 20
-229.9999999999786
 30
0.0
 11
-318.67684187209392
 21
-229.9999999999786
 31
0.0
  0
LINE
  5
E43
  8
NOTE
  6
CONTINUOUS
 62
     4
 10
-284.9999999996017
 20
-196.32315812750079
 30
0.0
 11
-284.9999999996017
 21
-263.67684187248562
 31
0.0
  0
LINE
  5
E44
  8
NOTE
  6
CONTINUOUS
 62
     4
 10
-168.32315812709561
 20
-234.9999999999786
 30
0.0
 11
-235.67684187209389
 21
-234.9999999999786
 31
0.0
  0
LINE
  5
E45
  8
NOTE
  6
CONTINUOUS
 62
     4
 10
-201.9999999996015
 20
-201.32315812750079
 30
0.0
 11
-201.9999999996015
 21
-268.676841872485
 31
0.0
  0
LINE
  5
E46
  8
SIZE
  6
CONTINUOUS
 62
    30
 10
-874.99999999954434
 20
-348.91896673328569
 30
0.0
 11
-874.99999999954434
 21
-555.25252272402645
 31
0.0
  0
LINE
  5
E47
  8
SIZE
  6
CONTINUOUS
 62
    30
 10
-284.9999999996017
 20
-283.6768418724854
 30
0.0
 11
-284.9999999996017
 21
-555.25252272402645
 31
0.0
  0
LINE
  5
E48
  8
SIZE
  6
CONTINUOUS
 62
    30
 10
-864.99999999954434
 20
-525.25252272402656
 30
0.0
 11
-294.99999999960158
 21
-525.25252272402656
 31
0.0
  0
CIRCLE
  5
E49
  8
SIZE
  6
CONTINUOUS
 62
    30
 10
-874.99999999954434
 20
-525.25252272402656
 30
0.0
 40
5.0
  0
LINE
  5
E4A
  8
SIZE
  6
CONTINUOUS
 62
    30
 10
-869.99999999954423
 20
-525.25252272402656
 30
0.0
 11
-864.99999999954434
 21
-525.25252272402656
 31
0.0
  0
CIRCLE
  5
E4B
  8
SIZE
  6
CONTINUOUS
 62
    30
 10
-284.9999999996017
 20
-525.25252272402656
 30
0.0
 40
5.0
  0
LINE
  5
E4C
  8
SIZE
  6
CONTINUOUS
 62
    30
 10
-289.99999999960158
 20
-525.25252272402656
 30
0.0
 11
-294.99999999960158
 21
-525.25252272402656
 31
0.0
  0
TEXT
  5
E4D
  8
SIZE
  6
CONTINUOUS
 62
    30
 10
-643.6428571424301
 20
-510.25252272402662
 30
0.0
 40
55.0
  1
590
 41
0.9
 72
     1
 11
-579.99999999957299
 21
-510.25252272402662
 31
0.0
  0
POINT
  5
E4E
  8
DEFPOINTS
  6
CONTINUOUS
 62
     7
 10
-874.99999999954434
 20
-328.91896673328569
 30
0.0
  0
POINT
  5
E50
  8
DEFPOINTS
  6
CONTINUOUS
 62
     7
 10
-284.9999999996017
 20
-525.25252272402656
 30
0.0
  0
LINE
  5
E51
  8
SIZE
  6
CONTINUOUS
 62
    30
 10
-284.9999999996017
 20
-283.6768418724854
 30
0.0
 11
-284.9999999996017
 21
-555.25252272402645
 31
0.0
  0
LINE
  5
E52
  8
SIZE
  6
CONTINUOUS
 62
    30
 10
-201.9999999996015
 20
-288.676841872485
 30
0.0
 11
-201.9999999996015
 21
-555.25252272402645
 31
0.0
  0
LINE
  5
E53
  8
SIZE
  6
CONTINUOUS
 62
    30
 10
-294.99999999960158
 20
-525.25252272402656
 30
0.0
 11
-304.99999999960158
 21
-525.25252272402656
 31
0.0
  0
LINE
  5
E54
  8
SIZE
  6
CONTINUOUS
 62
    30
 10
-191.9999999996015
 20
-525.25252272402656
 30
0.0
 11
-181.9999999996015
 21
-525.25252272402656
 31
0.0
  0
LINE
  5
E55
  8
SIZE
  6
CONTINUOUS
 62
    30
 10
-284.9999999996017
 20
-525.25252272402656
 30
0.0
 11
-201.9999999996015
 21
-525.25252272402656
 31
0.0
  0
CIRCLE
  5
E56
  8
SIZE
  6
CONTINUOUS
 62
    30
 10
-284.9999999996017
 20
-525.25252272402656
 30
0.0
 40
5.0
  0
LINE
  5
E57
  8
SIZE
  6
CONTINUOUS
 62
    30
 10
-289.99999999960158
 20
-525.25252272402656
 30
0.0
 11
-294.99999999960158
 21
-525.25252272402656
 31
0.0
  0
CIRCLE
  5
E58
  8
SIZE
  6
CONTINUOUS
 62
    30
 10
-201.9999999996015
 20
-525.25252272402656
 30
0.0
 40
5.0
  0
LINE
  5
E59
  8
SIZE
  6
CONTINUOUS
 62
    30
 10
-196.9999999996015
 20
-525.25252272402656
 30
0.0
 11
-191.9999999996015
 21
-525.25252272402656
 31
0.0
  0
TEXT
  5
E5A
  8
SIZE
  6
CONTINUOUS
 62
    30
 10
-283.57142857103008
 20
-510.25252272402662
 30
0.0
 40
55.0
  1
83
 41
0.9
 72
     1
 11
-243.4999999996015
 21
-510.25252272402662
 31
0.0
  0
POINT
  5
E5D
  8
DEFPOINTS
  6
CONTINUOUS
 62
     7
 10
-201.9999999996015
 20
-525.25252272402656
 30
0.0
  0
LINE
  5
E5E
  8
SIZE
  6
CONTINUOUS
 62
    30
 10
-843.91898709778854
 20
-379.9999999999913
 30
0.0
 11
-1055.478019580572
 21
-379.9999999999913
 31
0.0
  0
LINE
  5
E5F
  8
SIZE
  6
CONTINUOUS
 62
    30
 10
-255.67684187209389
 20
-234.9999999999786
 30
0.0
 11
-1055.478019580572
 21
-234.9999999999784
 31
0.0
  0
LINE
  5
E60
  8
SIZE
  6
CONTINUOUS
 62
    30
 10
-1025.478019580572
 20
-389.9999999999913
 30
0.0
 11
-1025.478019580572
 21
-399.99999999999119
 31
0.0
  0
LINE
  5
E61
  8
SIZE
  6
CONTINUOUS
 62
    30
 10
-1025.478019580572
 20
-224.9999999999784
 30
0.0
 11
-1025.478019580572
 21
-214.9999999999784
 31
0.0
  0
LINE
  5
E62
  8
SIZE
  6
CONTINUOUS
 62
    30
 10
-1025.478019580572
 20
-379.9999999999913
 30
0.0
 11
-1025.478019580572
 21
-234.9999999999784
 31
0.0
  0
CIRCLE
  5
E63
  8
SIZE
  6
CONTINUOUS
 62
    30
 10
-1025.478019580572
 20
-379.9999999999913
 30
0.0
 40
5.0
  0
LINE
  5
E64
  8
SIZE
  6
CONTINUOUS
 62
    30
 10
-1025.478019580572
 20
-384.9999999999913
 30
0.0
 11
-1025.478019580572
 21
-389.9999999999913
 31
0.0
  0
CIRCLE
  5
E65
  8
SIZE
  6
CONTINUOUS
 62
    30
 10
-1025.478019580572
 20
-234.9999999999784
 30
0.0
 40
5.0
  0
LINE
  5
E66
  8
SIZE
  6
CONTINUOUS
 62
    30
 10
-1025.478019580572
 20
-229.9999999999784
 30
0.0
 11
-1025.478019580572
 21
-224.9999999999784
 31
0.0
  0
TEXT
  5
E67
  8
SIZE
  6
CONTINUOUS
 62
    30
 10
-1040.478019580572
 20
-366.42857142855632
 30
0.0
 40
55.0
  1
145
 50
90.0
 41
0.9
 72
     1
 11
-1040.478019580572
 21
-307.49999999998499
 31
0.0
  0
POINT
  5
E68
  8
DEFPOINTS
  6
CONTINUOUS
 62
     7
 10
-823.91898709778854
 20
-379.9999999999913
 30
0.0
  0
POINT
  5
E6A
  8
DEFPOINTS
  6
CONTINUOUS
 62
     7
 10
-1025.478019580572
 20
-234.9999999999784
 30
0.0
  0
LINE
  5
E6B
  8
SIZE
  6
CONTINUOUS
 62
    30
 10
-843.91898709778854
 20
-379.9999999999913
 30
0.0
 11
-1145.683199225494
 21
-379.9999999999913
 31
0.0
  0
LINE
  5
E6C
  8
SIZE
  6
CONTINUOUS
 62
    30
 10
-338.67684187209392
 20
-229.9999999999786
 30
0.0
 11
-1145.683199225494
 21
-229.99999999997829
 31
0.0
  0
LINE
  5
E6D
  8
SIZE
  6
CONTINUOUS
 62
    30
 10
-1115.683199225494
 20
-369.9999999999913
 30
0.0
 11
-1115.683199225494
 21
-239.99999999997829
 31
0.0
  0
CIRCLE
  5
E6E
  8
SIZE
  6
CONTINUOUS
 62
    30
 10
-1115.683199225494
 20
-379.9999999999913
 30
0.0
 40
5.0
  0
LINE
  5
E6F
  8
SIZE
  6
CONTINUOUS
 62
    30
 10
-1115.683199225494
 20
-374.9999999999913
 30
0.0
 11
-1115.683199225494
 21
-369.9999999999913
 31
0.0
  0
CIRCLE
  5
E70
  8
SIZE
  6
CONTINUOUS
 62
    30
 10
-1115.683199225494
 20
-229.99999999997829
 30
0.0
 40
5.0
  0
LINE
  5
E71
  8
SIZE
  6
CONTINUOUS
 62
    30
 10
-1115.683199225494
 20
-234.99999999997829
 30
0.0
 11
-1115.683199225494
 21
-239.99999999997829
 31
0.0
  0
TEXT
  5
E72
  8
SIZE
  6
CONTINUOUS
 62
    30
 10
-1130.6831992254949
 20
-363.92857142855638
 30
0.0
 40
55.0
  1
150
 50
90.0
 41
0.9
 72
     1
 11
-1130.6831992254949
 21
-304.99999999998488
 31
0.0
  0
POINT
  5
E73
  8
DEFPOINTS
  6
CONTINUOUS
 62
     7
 10
-823.91898709778854
 20
-379.9999999999913
 30
0.0
  0
POINT
  5
E75
  8
DEFPOINTS
  6
CONTINUOUS
 62
     7
 10
-1115.683199225494
 20
-229.99999999997829
 30
0.0
  0
LINE
  5
E76
  8
SIZE
  6
CONTINUOUS
 62
    30
 10
875.00000000034095
 20
348.91896673331843
 30
0.0
 11
875.00000000034095
 21
569.18990020500019
 31
0.0
  0
LINE
  5
E77
  8
SIZE
  6
CONTINUOUS
 62
    30
 10
856.00000000034015
 20
336.88548044690378
 30
0.0
 11
856.00000000034015
 21
569.18990020500019
 31
0.0
  0
LINE
  5
E78
  8
SIZE
  6
CONTINUOUS
 62
    30
 10
846.00000000033992
 20
539.18990020500041
 30
0.0
 11
836.00000000034015
 21
539.18990020500041
 31
0.0
  0
LINE
  5
E79
  8
SIZE
  6
CONTINUOUS
 62
    30
 10
885.00000000034095
 20
539.18990020500041
 30
0.0
 11
993.35714285748395
 21
539.18990020500041
 31
0.0
  0
LINE
  5
E7A
  8
SIZE
  6
CONTINUOUS
 62
    30
 10
856.00000000034015
 20
539.18990020500041
 30
0.0
 11
875.00000000034095
 21
539.18990020500041
 31
0.0
  0
CIRCLE
  5
E7B
  8
SIZE
  6
CONTINUOUS
 62
    30
 10
856.00000000034015
 20
539.18990020500041
 30
0.0
 40
5.0
  0
LINE
  5
E7C
  8
SIZE
  6
CONTINUOUS
 62
    30
 10
851.00000000034015
 20
539.18990020500041
 30
0.0
 11
846.00000000034004
 21
539.18990020500041
 31
0.0
  0
CIRCLE
  5
E7D
  8
SIZE
  6
CONTINUOUS
 62
    30
 10
875.00000000034095
 20
539.18990020500041
 30
0.0
 40
5.0
  0
LINE
  5
E7E
  8
SIZE
  6
CONTINUOUS
 62
    30
 10
880.00000000034106
 20
539.18990020500041
 30
0.0
 11
885.00000000034095
 21
539.18990020500041
 31
0.0
  0
TEXT
  5
E7F
  8
SIZE
  6
CONTINUOUS
 62
    30
 10
910.00000000034117
 20
554.18990020500019
 30
0.0
 40
55.0
  1
19
 41
0.9
 72
     1
 11
944.17857142891262
 21
554.18990020500019
 31
0.0
  0
POINT
  5
E80
  8
DEFPOINTS
  6
CONTINUOUS
 62
     7
 10
875.00000000034095
 20
328.91896673331848
 30
0.0
  0
POINT
  5
E81
  8
DEFPOINTS
  6
CONTINUOUS
 62
     7
 10
856.00000000034015
 20
316.88548044690378
 30
0.0
  0
POINT
  5
E82
  8
DEFPOINTS
  6
CONTINUOUS
 62
     7
 10
856.00000000034015
 20
539.18990020500041
 30
0.0
  0
LINE
  5
E83
  8
SIZE
  6
CONTINUOUS
 62
    30
 10
-855.99999999954446
 20
336.88548044690378
 30
0.0
 11
-855.99999999954446
 21
569.18990020500019
 31
0.0
  0
LINE
  5
E84
  8
SIZE
  6
CONTINUOUS
 62
    30
 10
-24.99999999954434
 20
336.88548044690378
 30
0.0
 11
-24.999999999544318
 21
569.18990020500019
 31
0.0
  0
LINE
  5
E85
  8
SIZE
  6
CONTINUOUS
 62
    30
 10
-845.999999999544
 20
539.18990020500041
 30
0.0
 11
-34.999999999544322
 21
539.18990020500041
 31
0.0
  0
CIRCLE
  5
E86
  8
SIZE
  6
CONTINUOUS
 62
    30
 10
-855.99999999954446
 20
539.18990020500041
 30
0.0
 40
5.0
  0
LINE
  5
E87
  8
SIZE
  6
CONTINUOUS
 62
    30
 10
-850.99999999954434
 20
539.18990020500041
 30
0.0
 11
-845.99999999954423
 21
539.18990020500041
 31
0.0
  0
CIRCLE
  5
E88
  8
SIZE
  6
CONTINUOUS
 62
    30
 10
-24.999999999544318
 20
539.18990020500041
 30
0.0
 40
5.0
  0
LINE
  5
E89
  8
SIZE
  6
CONTINUOUS
 62
    30
 10
-29.999999999544318
 20
539.18990020500041
 30
0.0
 11
-34.999999999544322
 21
539.18990020500041
 31
0.0
  0
TEXT
  5
E8A
  8
SIZE
  6
CONTINUOUS
 62
    30
 10
-493.53571428525851
 20
554.18990020500019
 30
0.0
 40
55.0
  1
831
 41
0.9
 72
     1
 11
-440.49999999954429
 21
554.18990020500019
 31
0.0
  0
POINT
  5
E8B
  8
DEFPOINTS
  6
CONTINUOUS
 62
     7
 10
-855.99999999954446
 20
316.88548044690378
 30
0.0
  0
POINT
  5
E8C
  8
DEFPOINTS
  6
CONTINUOUS
 62
     7
 10
-24.99999999954434
 20
316.88548044690378
 30
0.0
  0
POINT
  5
E8D
  8
DEFPOINTS
  6
CONTINUOUS
 62
     7
 10
-24.999999999544318
 20
539.18990020500041
 30
0.0
  0
LINE
  5
E8E
  8
SIZE
  6
CONTINUOUS
 62
    30
 10
-24.99999999954434
 20
336.88548044690378
 30
0.0
 11
-24.999999999544318
 21
569.18990020500019
 31
0.0
  0
LINE
  5
E8F
  8
SIZE
  6
CONTINUOUS
 62
    30
 10
25.000000000340151
 20
336.88548044690378
 30
0.0
 11
25.000000000340151
 21
569.18990020500019
 31
0.0
  0
LINE
  5
E90
  8
SIZE
  6
CONTINUOUS
 62
    30
 10
-34.999999999544322
 20
539.18990020500041
 30
0.0
 11
-44.999999999544322
 21
539.18990020500041
 31
0.0
  0
LINE
  5
E91
  8
SIZE
  6
CONTINUOUS
 62
    30
 10
35.000000000340151
 20
539.18990020500041
 30
0.0
 11
45.000000000340158
 21
539.18990020500041
 31
0.0
  0
LINE
  5
E92
  8
SIZE
  6
CONTINUOUS
 62
    30
 10
0.0000000003979146
 20
539.18990020500041
 30
0.0
 11
-14.845488474504229
 21
619.65497429202719
 31
0.0
  0
LINE
  5
E93
  8
SIZE
  6
CONTINUOUS
 62
    30
 10
-14.845488474504229
 20
619.65497429202719
 30
0.0
 11
95.297368668352917
 21
619.65497429202719
 31
0.0
  0
TEXT
  5
E94
  8
SIZE
  6
CONTINUOUS
 62
    30
 10
0.1545115254957565
 20
634.6549742920273
 30
0.0
 40
55.0
  1
50
 41
0.9
 72
     1
 11
40.225940096924319
 21
634.6549742920273
 31
0.0
  0
LINE
  5
E95
  8
SIZE
  6
CONTINUOUS
 62
    30
 10
-24.999999999544318
 20
539.18990020500041
 30
0.0
 11
25.000000000340151
 21
539.18990020500041
 31
0.0
  0
LINE
  5
E96
  8
SIZE
  6
CONTINUOUS
 62
    30
 10
-24.999999999544318
 20
539.18990020500041
 30
0.0
 11
25.000000000340151
 21
539.18990020500041
 31
0.0
  0
CIRCLE
  5
E97
  8
SIZE
  6
CONTINUOUS
 62
    30
 10
-24.999999999544318
 20
539.18990020500041
 30
0.0
 40
5.0
  0
LINE
  5
E98
  8
SIZE
  6
CONTINUOUS
 62
    30
 10
-29.999999999544318
 20
539.18990020500041
 30
0.0
 11
-34.999999999544322
 21
539.18990020500041
 31
0.0
  0
CIRCLE
  5
E99
  8
SIZE
  6
CONTINUOUS
 62
    30
 10
25.000000000340151
 20
539.18990020500041
 30
0.0
 40
5.0
  0
LINE
  5
E9A
  8
SIZE
  6
CONTINUOUS
 62
    30
 10
30.000000000340151
 20
539.18990020500041
 30
0.0
 11
35.000000000340151
 21
539.18990020500041
 31
0.0
  0
POINT
  5
E9B
  8
DEFPOINTS
  6
CONTINUOUS
 62
     7
 10
-24.99999999954434
 20
316.88548044690378
 30
0.0
  0
POINT
  5
E9C
  8
DEFPOINTS
  6
CONTINUOUS
 62
     7
 10
25.000000000340151
 20
316.88548044690378
 30
0.0
  0
POINT
  5
E9D
  8
DEFPOINTS
  6
CONTINUOUS
 62
     7
 10
25.000000000340151
 20
539.18990020500041
 30
0.0
  0
LINE
  5
E9E
  8
SIZE
  6
CONTINUOUS
 62
    30
 10
25.000000000340151
 20
336.88548044690378
 30
0.0
 11
25.000000000340151
 21
569.18990020500019
 31
0.0
  0
LINE
  5
E9F
  8
SIZE
  6
CONTINUOUS
 62
    30
 10
856.00000000034015
 20
336.88548044690378
 30
0.0
 11
856.00000000034015
 21
569.18990020500019
 31
0.0
  0
LINE
  5
EA0
  8
SIZE
  6
CONTINUOUS
 62
    30
 10
35.000000000340151
 20
539.18990020500041
 30
0.0
 11
846.00000000033992
 21
539.18990020500041
 31
0.0
  0
CIRCLE
  5
EA1
  8
SIZE
  6
CONTINUOUS
 62
    30
 10
25.000000000340151
 20
539.18990020500041
 30
0.0
 40
5.0
  0
LINE
  5
EA2
  8
SIZE
  6
CONTINUOUS
 62
    30
 10
30.000000000340151
 20
539.18990020500041
 30
0.0
 11
35.000000000340151
 21
539.18990020500041
 31
0.0
  0
CIRCLE
  5
EA3
  8
SIZE
  6
CONTINUOUS
 62
    30
 10
856.00000000034015
 20
539.18990020500041
 30
0.0
 40
5.0
  0
LINE
  5
EA4
  8
SIZE
  6
CONTINUOUS
 62
    30
 10
851.00000000034015
 20
539.18990020500041
 30
0.0
 11
846.00000000034004
 21
539.18990020500041
 31
0.0
  0
TEXT
  5
EA5
  8
SIZE
  6
CONTINUOUS
 62
    30
 10
387.4642857146257
 20
554.18990020500019
 30
0.0
 40
55.0
  1
831
 41
0.9
 72
     1
 11
440.50000000033998
 21
554.18990020500019
 31
0.0
  0
POINT
  5
EA6
  8
DEFPOINTS
  6
CONTINUOUS
 62
     7
 10
25.000000000340151
 20
316.88548044690378
 30
0.0
  0
POINT
  5
EA7
  8
DEFPOINTS
  6
CONTINUOUS
 62
     7
 10
856.00000000034015
 20
316.88548044690378
 30
0.0
  0
POINT
  5
EA8
  8
DEFPOINTS
  6
CONTINUOUS
 62
     7
 10
856.00000000034015
 20
539.18990020500041
 30
0.0
  0
LINE
  5
EA9
  8
SIZE
  6
CONTINUOUS
 62
    30
 10
-855.99999999954446
 20
336.88548044690378
 30
0.0
 11
-855.99999999954446
 21
569.18990020500019
 31
0.0
  0
LINE
  5
EAA
  8
SIZE
  6
CONTINUOUS
 62
    30
 10
-874.99999999954434
 20
348.91896673328432
 30
0.0
 11
-874.99999999954434
 21
569.18990020500019
 31
0.0
  0
LINE
  5
EAB
  8
SIZE
  6
CONTINUOUS
 62
    30
 10
-845.999999999544
 20
539.18990020500041
 30
0.0
 11
-835.99999999954434
 21
539.18990020500041
 31
0.0
  0
LINE
  5
EAC
  8
SIZE
  6
CONTINUOUS
 62
    30
 10
-884.99999999954434
 20
539.18990020500041
 30
0.0
 11
-993.35714285668735
 21
539.18990020500041
 31
0.0
  0
LINE
  5
EAD
  8
SIZE
  6
CONTINUOUS
 62
    30
 10
-855.99999999954446
 20
539.18990020500041
 30
0.0
 11
-874.99999999954434
 21
539.18990020500041
 31
0.0
  0
CIRCLE
  5
EAE
  8
SIZE
  6
CONTINUOUS
 62
    30
 10
-855.99999999954446
 20
539.18990020500041
 30
0.0
 40
5.0
  0
LINE
  5
EAF
  8
SIZE
  6
CONTINUOUS
 62
    30
 10
-850.99999999954434
 20
539.18990020500041
 30
0.0
 11
-845.99999999954423
 21
539.18990020500041
 31
0.0
  0
CIRCLE
  5
EB0
  8
SIZE
  6
CONTINUOUS
 62
    30
 10
-874.99999999954434
 20
539.18990020500041
 30
0.0
 40
5.0
  0
LINE
  5
EB1
  8
SIZE
  6
CONTINUOUS
 62
    30
 10
-879.99999999954446
 20
539.18990020500041
 30
0.0
 11
-884.99999999954434
 21
539.18990020500041
 31
0.0
  0
TEXT
  5
EB2
  8
SIZE
  6
CONTINUOUS
 62
    30
 10
-978.35714285668735
 20
554.18990020500019
 30
0.0
 40
55.0
  1
19
 41
0.9
 72
     1
 11
-944.1785714281159
 21
554.18990020500019
 31
0.0
  0
POINT
  5
EB3
  8
DEFPOINTS
  6
CONTINUOUS
 62
     7
 10
-855.99999999954446
 20
316.88548044690378
 30
0.0
  0
POINT
  5
EB4
  8
DEFPOINTS
  6
CONTINUOUS
 62
     7
 10
-874.99999999954434
 20
328.91896673328438
 30
0.0
  0
POINT
  5
EB5
  8
DEFPOINTS
  6
CONTINUOUS
 62
     7
 10
-874.99999999954434
 20
539.18990020500041
 30
0.0
  0
LINE
  5
EB6
  8
NOTE
  6
CONTINUOUS
 62
     4
 10
-576.78663904370012
 20
465.43592813925852
 30
0.0
 11
-576.78663904370012
 21
506.13431227307109
 31
0.0
  0
LINE
  5
EB7
  8
NOTE
  6
CONTINUOUS
 62
     4
 10
-626.80175073553039
 20
465.43592813925852
 30
0.0
 11
-626.80175073553039
 21
506.13431227307109
 31
0.0
  0
LINE
  5
EB8
  8
NOTE
  6
CONTINUOUS
 62
     4
 10
-576.78663904370012
 20
506.13431227307109
 30
0.0
 11
-626.80175073553039
 21
506.13431227307109
 31
0.0
  0
LINE
  5
EB9
  8
NOTE
  6
CONTINUOUS
 62
     4
 10
-651.80930658144644
 20
465.43592813925852
 30
0.0
 11
-601.79419488961503
 21
415.52480251133642
 31
0.0
  0
LINE
  5
EBA
  8
NOTE
  6
CONTINUOUS
 62
     4
 10
-651.80930658144644
 20
465.43592813925852
 30
0.0
 11
-626.80175073553039
 21
465.43592813925852
 31
0.0
  0
LINE
  5
EBB
  8
NOTE
  6
CONTINUOUS
 62
     4
 10
-601.79419488961503
 20
415.52480251133642
 30
0.0
 11
-551.77908319778419
 21
465.43592813925852
 31
0.0
  0
LINE
  5
EBC
  8
NOTE
  6
CONTINUOUS
 62
     4
 10
-576.78663904370012
 20
465.43592813925852
 30
0.0
 11
-551.77908319778419
 21
465.43592813925852
 31
0.0
  0
LINE
  5
EBD
  8
NOTE
  6
CONTINUOUS
 62
     4
 10
-243.46919361849439
 20
465.43592813925852
 30
0.0
 11
-243.46919361849439
 21
506.13431227307109
 31
0.0
  0
LINE
  5
EBE
  8
NOTE
  6
CONTINUOUS
 62
     4
 10
-293.484305310325
 20
465.43592813925852
 30
0.0
 11
-293.484305310325
 21
506.13431227307109
 31
0.0
  0
LINE
  5
EBF
  8
NOTE
  6
CONTINUOUS
 62
     4
 10
-293.484305310325
 20
506.13431227307109
 30
0.0
 11
-243.46919361849439
 21
506.13431227307109
 31
0.0
  0
TEXT
  5
EC0
  8
NOTE
  6
CONTINUOUS
 62
     4
 10
-514.77084050024018
 20
432.65451459640911
 30
0.0
 40
55.0
  1
空気吸込
 50
359.99999749547902
 41
0.630952371610266
  7
STANDARD1
  0
LINE
  5
EC1
  8
NOTE
  6
CONTINUOUS
 62
     4
 10
-268.47674946441009
 20
415.52480251133642
 30
0.0
 11
-318.49186115624059
 21
465.43592813925852
 31
0.0
  0
LINE
  5
EC2
  8
NOTE
  6
CONTINUOUS
 62
     4
 10
-293.484305310325
 20
465.43592813925852
 30
0.0
 11
-318.49186115624059
 21
465.43592813925852
 31
0.0
  0
LINE
  5
EC3
  8
NOTE
  6
CONTINUOUS
 62
     4
 10
-218.4616377725788
 20
465.43592813925852
 30
0.0
 11
-243.46919361849439
 21
465.43592813925852
 31
0.0
  0
LINE
  5
EC4
  8
NOTE
  6
CONTINUOUS
 62
     4
 10
-218.4616377725788
 20
465.43592813925852
 30
0.0
 11
-268.47674946441009
 21
415.52480251133642
 31
0.0
  0
LINE
  5
EC5
  8
NOTE
  6
CONTINUOUS
 62
     4
 10
277.4714686527704
 20
465.43592813925852
 30
0.0
 11
277.4714686527704
 21
506.13431227307109
 31
0.0
  0
LINE
  5
EC6
  8
NOTE
  6
CONTINUOUS
 62
     4
 10
227.4563569609397
 20
465.43592813925852
 30
0.0
 11
227.4563569609397
 21
506.13431227307109
 31
0.0
  0
LINE
  5
EC7
  8
NOTE
  6
CONTINUOUS
 62
     4
 10
277.4714686527704
 20
506.13431227307109
 30
0.0
 11
227.4563569609397
 21
506.13431227307109
 31
0.0
  0
LINE
  5
EC8
  8
NOTE
  6
CONTINUOUS
 62
     4
 10
202.44880111502411
 20
465.43592813925852
 30
0.0
 11
252.4639128068554
 21
415.52480251133642
 31
0.0
  0
LINE
  5
EC9
  8
NOTE
  6
CONTINUOUS
 62
     4
 10
202.44880111502411
 20
465.43592813925852
 30
0.0
 11
227.4563569609397
 21
465.43592813925852
 31
0.0
  0
LINE
  5
ECA
  8
NOTE
  6
CONTINUOUS
 62
     4
 10
252.4639128068554
 20
415.52480251133642
 30
0.0
 11
302.47902449868599
 21
465.43592813925852
 31
0.0
  0
LINE
  5
ECB
  8
NOTE
  6
CONTINUOUS
 62
     4
 10
277.4714686527704
 20
465.43592813925852
 30
0.0
 11
302.47902449868599
 21
465.43592813925852
 31
0.0
  0
LINE
  5
ECC
  8
NOTE
  6
CONTINUOUS
 62
     4
 10
610.78891407797619
 20
465.43592813925852
 30
0.0
 11
610.78891407797619
 21
506.13431227307109
 31
0.0
  0
LINE
  5
ECD
  8
NOTE
  6
CONTINUOUS
 62
     4
 10
560.77380238614569
 20
465.43592813925852
 30
0.0
 11
560.77380238614569
 21
506.13431227307109
 31
0.0
  0
LINE
  5
ECE
  8
NOTE
  6
CONTINUOUS
 62
     4
 10
560.77380238614569
 20
506.13431227307109
 30
0.0
 11
610.78891407797619
 21
506.13431227307109
 31
0.0
  0
TEXT
  5
ECF
  8
NOTE
  6
CONTINUOUS
 62
     4
 10
339.48726719623022
 20
432.65451459640911
 30
0.0
 40
55.0
  1
空気吸込
 50
359.99999749547902
 41
0.630952371610266
  7
STANDARD1
  0
LINE
  5
ED0
  8
NOTE
  6
CONTINUOUS
 62
     4
 10
585.78135823206026
 20
415.52480251133642
 30
0.0
 11
535.76624654022999
 21
465.43592813925852
 31
0.0
  0
LINE
  5
ED1
  8
NOTE
  6
CONTINUOUS
 62
     4
 10
560.77380238614569
 20
465.43592813925852
 30
0.0
 11
535.76624654022999
 21
465.43592813925852
 31
0.0
  0
LINE
  5
ED2
  8
NOTE
  6
CONTINUOUS
 62
     4
 10
635.79646992389189
 20
465.43592813925852
 30
0.0
 11
610.78891407797619
 21
465.43592813925852
 31
0.0
  0
LINE
  5
ED3
  8
NOTE
  6
CONTINUOUS
 62
     4
 10
635.79646992389189
 20
465.43592813925852
 30
0.0
 11
585.78135823206026
 21
415.52480251133642
 31
0.0
  0
LINE
  5
ED4
  8
BASIS
  6
DASHDOT
 62
     6
 10
-930.0
 20
-0.0000000000009095
 30
0.0
 11
930.0
 21
-0.0000000000009095
 31
0.0
  0
LINE
  5
ED5
  8
BASIS
  6
DASHDOT
 62
     6
 10
0.0
 20
450.0
 30
0.0
 11
0.0
 21
-450.0
 31
0.0
  0
LINE
  5
ED6
  8
ARRANGE
  6
CONTINUOUS
 62
     1
 10
-37.897321081807611
 20
-37.897321081807142
 30
0.0
 11
37.897321081807597
 21
37.897321081807142
 31
0.0
  0
LINE
  5
ED7
  8
ARRANGE
  6
CONTINUOUS
 62
     1
 10
-37.897321081807611
 20
37.897321081807142
 30
0.0
 11
37.897321081807597
 21
-37.897321081811683
 31
0.0
  0
CIRCLE
  5
ED8
  8
ARRANGE
  6
CONTINUOUS
 62
     1
 10
0.0
 20
-0.0000000000009095
 30
0.0
 40
34.449674114384848
  0
TEXT
  5
ED9
  8
NOTE
  6
CONTINUOUS
 62
     4
 10
-105.28543068837629
 20
-587.96042358515842
 30
0.0
 40
55.0
  1
RL %%C12.7
 50
0.0000025044165917
 41
0.630952371610266
  7
STANDARD1
  0
LINE
  5
EDA
  8
NOTE
  6
CONTINUOUS
 62
     4
 10
-114.82501762958501
 20
-600.52393324751472
 30
0.0
 11
148.78305452151011
 21
-600.52393324751472
 31
0.0
  0
TEXT
  5
EDB
  8
NOTE
  6
CONTINUOUS
 62
     4
 10
-79.070031136679958
 20
-490.21459234207668
 30
0.0
 40
55.0
  1
RG %%C28.58
 50
0.0000025044165917
 41
0.630952371610266
  7
STANDARD1
  0
LINE
  5
EDC
  8
NOTE
  6
CONTINUOUS
 62
     4
 10
-87.120416483913687
 20
-506.15709632166772
 30
0.0
 11
226.48765566718151
 21
-506.15709632166772
 31
0.0
  0
LINE
  5
EDD
  8
NOTE
  6
CONTINUOUS
 62
     4
 10
-284.9999999996017
 20
-229.99999999999309
 30
0.0
 11
-114.82501762958501
 21
-600.52393324751472
 31
0.0
  0
LINE
  5
EDE
  8
NOTE
  6
CONTINUOUS
 62
     4
 10
-201.99999999959431
 20
-234.9999999999786
 30
0.0
 11
-87.120416483913687
 21
-506.15709632166772
 31
0.0
  0
TEXT
  5
EDF
  8
NOTE
  6
CONTINUOUS
 62
     4
 10
1024.22339568083
 20
426.70476764153852
 30
0.0
 40
55.0
  1
＜防雪ﾌ-ﾄﾞ（別売品）取付用穴＞
 50
359.99999749547902
 41
0.638664588406537
  7
STANDARD1
  0
TEXT
  5
EE0
  8
NOTE
  6
CONTINUOUS
 62
     4
 10
1040.138963089908
 20
504.6685556284923
 30
0.0
 40
55.0
  1
(樹脂部の開口加工必要）
 50
359.99999749547902
 41
0.693661939237321
  7
STANDARD1
  0
TEXT
  5
EE1
  8
NOTE
  6
CONTINUOUS
 62
     4
 10
1033.3614114557331
 20
575.60792553194324
 30
0.0
 40
55.0
  1
2X9-%%c4.6
 50
359.99999749547902
 41
0.603058486986669
  7
STANDARD1
  0
LINE
  5
EE2
  8
NOTE
  6
CONTINUOUS
 62
     4
 10
1647.4726888536561
 20
494.16413855646113
 30
0.0
 11
1019.51538944744
 21
494.16413855646113
 31
0.0
  0
LINE
  5
EE3
  8
NOTE
  6
CONTINUOUS
 62
     4
 10
1019.51538944744
 20
494.16413855646113
 30
0.0
 11
856.00000000034015
 21
299.99999999999631
 31
0.0
  0
LINE
  5
EE4
  8
NOTE
  6
CONTINUOUS
 62
     4
 10
-201.99999999961881
 20
-234.99999999996041
 30
0.0
 11
-196.97734978814421
 21
-267.95275613759162
 31
0.0
  0
LINE
  5
EE5
  8
NOTE
  6
CONTINUOUS
 62
     4
 10
-201.99999999961881
 20
-234.99999999996041
 30
0.0
 11
-181.1738788741385
 21
-261.02659853068047
 31
0.0
  0
LINE
  5
EE6
  8
NOTE
  6
CONTINUOUS
 62
     4
 10
-284.9999999996225
 20
-229.99999999998039
 30
0.0
 11
-278.74460163573792
 21
-262.74112312552552
 31
0.0
  0
LINE
  5
EE7
  8
NOTE
  6
CONTINUOUS
 62
     4
 10
-284.9999999996225
 20
-229.99999999998039
 30
0.0
 11
-263.21210417538248
 21
-255.2269448757356
 31
0.0
  0
LINE
  5
EE8
  8
NOTE
  6
CONTINUOUS
 62
     4
 10
856.00000000034015
 20
299.99999999999631
 30
0.0
 11
883.52755359379353
 21
318.7974717813949
 31
0.0
  0
LINE
  5
EE9
  8
NOTE
  6
CONTINUOUS
 62
     4
 10
856.00000000034015
 20
299.99999999999631
 30
0.0
 11
870.44082438787609
 21
330.04286509673187
 31
0.0
  0
LINE
  5
EEA
  8
OUTLINE
  6
CONTINUOUS
 62
     3
 10
823.91898709984514
 20
-379.99999999999358
 30
0.0
 11
-823.91901569013055
 21
-379.99999999999358
 31
0.0
  0
LINE
  5
EEB
  8
OUTLINE
  6
CONTINUOUS
 62
     3
 10
-823.91898709824363
 20
380.0000000000054
 30
0.0
 11
823.91898709904115
 21
380.0000000000054
 31
0.0
  0
LINE
  5
EEC
  8
OUTLINE
  6
CONTINUOUS
 62
     3
 10
-874.9999999991461
 20
-328.91898709909083
 30
0.0
 11
-874.9999999991461
 21
328.91898709819321
 31
0.0
  0
LINE
  5
EED
  8
OUTLINE
  6
CONTINUOUS
 62
     3
 10
-873.8282515251185
 20
-331.7478177910188
 30
0.0
 11
-826.74781779017076
 21
-378.82825152598298
 31
0.0
  0
ARC
  5
EEE
  8
OUTLINE
  6
CONTINUOUS
 62
     3
 10
-870.99944963467613
 20
-328.91898709909083
 30
0.0
 40
4.0005503644646367
 50
179.99970832144891
 51
225.00029167861959
  0
ARC
  5
EEF
  8
OUTLINE
  6
CONTINUOUS
 62
     3
 10
-823.918987097333
 20
-375.99944963363032
 30
0.0
 40
4.0005503664654931
 50
224.9997083331715
 51
270.0
  0
LINE
  5
EF0
  8
OUTLINE
  6
CONTINUOUS
 62
     3
 10
-826.74781779017076
 20
378.82825152584201
 30
0.0
 11
-873.8282515251185
 21
331.74781779102972
 31
0.0
  0
ARC
  5
EF1
  8
OUTLINE
  6
CONTINUOUS
 62
     3
 10
-870.99944963267535
 20
328.91898709819321
 30
0.0
 40
4.0005503664648252
 50
134.99970833317141
 51
180.00029166677399
  0
ARC
  5
EF2
  8
OUTLINE
  6
CONTINUOUS
 62
     3
 10
-823.91898709824363
 20
375.99944963552252
 30
0.0
 40
4.0005503644636891
 50
90.0
 51
135.00029167847219
  0
LINE
  5
EF3
  8
OUTLINE
  6
CONTINUOUS
 62
     3
 10
875.00000000085311
 20
328.91898709898248
 30
0.0
 11
875.00000000085311
 21
-328.91898709830372
 31
0.0
  0
LINE
  5
EF4
  8
OUTLINE
  6
CONTINUOUS
 62
     3
 10
826.74781779187822
 20
-378.82825152598298
 30
0.0
 11
873.82825152672183
 21
-331.7478177910188
 31
0.0
  0
ARC
  5
EF5
  8
OUTLINE
  6
CONTINUOUS
 62
     3
 10
823.91898709984514
 20
-375.99944963553969
 30
0.0
 40
4.0005503644636891
 50
270.0
 51
315.00029167847219
  0
ARC
  5
EF6
  8
OUTLINE
  6
CONTINUOUS
 62
     3
 10
870.99944963438418
 20
-328.91898709830372
 30
0.0
 40
4.0005503664648252
 50
314.99970833317161
 51
0.0002916667741873
  0
LINE
  5
EF7
  8
OUTLINE
  6
CONTINUOUS
 62
     3
 10
873.82825152672183
 20
331.74781779102972
 30
0.0
 11
826.74781779187822
 21
378.82825152584201
 31
0.0
  0
ARC
  5
EF8
  8
OUTLINE
  6
CONTINUOUS
 62
     3
 10
823.91898709904115
 20
375.99944963351982
 30
0.0
 40
4.0005503664638082
 50
44.999708333318992
 51
90.0
  0
ARC
  5
EF9
  8
OUTLINE
  6
CONTINUOUS
 62
     3
 10
870.99944963638507
 20
328.91898709898248
 30
0.0
 40
4.0005503644636891
 50
359.99970832144891
 51
45.00029167861959
  0
TEXT
  5
EFA
  8
ETC
  6
CONTINUOUS
 62
    61
 10
783.29021162913966
 20
815.92527520714793
 30
0.0
 40
65.0
  1
PUHY-P450CM-E3_1
 50
0.0000025044165917
 41
0.8
  7
STANDARD1
  0
CIRCLE
  5
F11
  8
DETAIL
  6
CONTINUOUS
 62
     5
 10
427.11227360326302
 20
-0.0000000000695763
 30
0.0
 40
361.10910641502051
  0
ENDSEC
  0
EOF
