  0
SECTION
  2
HEADER
  9
$ACADVER
  1
AC1009
  9
$INSBASE
 10
0.0
 20
0.0
 30
0.0
  9
$EXTMIN
 10
-1051.6662365427071
 20
-521.16392374872885
 30
-0.0000000349181948
  9
$EXTMAX
 10
1188.812271911665
 20
2091.0003790177871
 30
0.0000000814935747
  9
$LIMMIN
 10
-4200.0
 20
-2970.0
  9
$LIMMAX
 10
4200.0
 20
2970.0
  9
$ORTHOMODE
 70
     0
  9
$REGENMODE
 70
     1
  9
$FILLMODE
 70
     1
  9
$QTEXTMODE
 70
     0
  9
$MIRRTEXT
 70
     0
  9
$DRAGMODE
 70
     2
  9
$LTSCALE
 40
20.0
  9
$OSMODE
 70
   431
  9
$ATTMODE
 70
     1
  9
$TEXTSIZE
 40
64.0
  9
$TRACEWID
 40
0.05
  9
$TEXTSTYLE
  7
STANDARD
  9
$CLAYER
  8
SYMBOLLINE
  9
$CELTYPE
  6
CONTINUOUS
  9
$CECOLOR
 62
     7
  9
$DIMSCALE
 40
1.0
  9
$DIMASZ
 40
10.0
  9
$DIMEXO
 40
20.0
  9
$DIMDLI
 40
200.0
  9
$DIMRND
 40
0.0
  9
$DIMDLE
 40
0.0
  9
$DIMEXE
 40
30.0
  9
$DIMTP
 40
0.0
  9
$DIMTM
 40
0.0
  9
$DIMTXT
 40
55.0
  9
$DIMCEN
 40
0.0
  9
$DIMTSZ
 40
0.0
  9
$DIMTOL
 70
     0
  9
$DIMLIM
 70
     0
  9
$DIMTIH
 70
     0
  9
$DIMTOH
 70
     0
  9
$DIMSE1
 70
     0
  9
$DIMSE2
 70
     0
  9
$DIMTAD
 70
     1
  9
$DIMZIN
 70
     8
  9
$DIMBLK
  1

  9
$DIMASO
 70
     1
  9
$DIMSHO
 70
     0
  9
$DIMPOST
  1

  9
$DIMAPOST
  1

  9
$DIMALT
 70
     0
  9
$DIMALTD
 70
     2
  9
$DIMALTF
 40
25.399999999999999
  9
$DIMLFAC
 40
1.0
  9
$DIMTOFL
 70
     1
  9
$DIMTVP
 40
0.0
  9
$DIMTIX
 70
     1
  9
$DIMSOXD
 70
     0
  9
$DIMSAH
 70
     0
  9
$DIMBLK1
  1

  9
$DIMBLK2
  1

  9
$DIMSTYLE
  2
STANDARD
  9
$DIMCLRD
 70
     0
  9
$DIMCLRE
 70
     0
  9
$DIMCLRT
 70
     0
  9
$DIMTFAC
 40
1.0
  9
$DIMGAP
 40
0.09
  9
$LUNITS
 70
     2
  9
$LUPREC
 70
     4
  9
$SKETCHINC
 40
0.1
  9
$FILLETRAD
 40
0.0
  9
$AUNITS
 70
     1
  9
$AUPREC
 70
     3
  9
$MENU
  1
ACAD
  9
$ELEVATION
 40
0.0
  9
$PELEVATION
 40
0.0
  9
$THICKNESS
 40
0.0
  9
$LIMCHECK
 70
     0
  9
$BLIPMODE
 70
     0
  9
$CHAMFERA
 40
0.0
  9
$CHAMFERB
 40
0.0
  9
$SKPOLY
 70
     0
  9
$TDCREATE
 40
2449761.4936226849
  9
$TDUPDATE
 40
2455250.7021056018
  9
$TDINDWG
 40
5.0452231480999998
  9
$TDUSRTIMER
 40
5.0452209722000001
  9
$USRTIMER
 70
     1
  9
$ANGBASE
 50
0.0
  9
$ANGDIR
 70
     0
  9
$PDMODE
 70
    35
  9
$PDSIZE
 40
100.0
  9
$PLINEWID
 40
0.0
  9
$COORDS
 70
     0
  9
$SPLFRAME
 70
     0
  9
$SPLINETYPE
 70
     6
  9
$SPLINESEGS
 70
     8
  9
$ATTDIA
 70
     0
  9
$ATTREQ
 70
     1
  9
$HANDLING
 70
     1
  9
$HANDSEED
  5
1131
  9
$SURFTAB1
 70
     6
  9
$SURFTAB2
 70
     6
  9
$SURFTYPE
 70
     6
  9
$SURFU
 70
     6
  9
$SURFV
 70
     6
  9
$UCSNAME
  2

  9
$UCSORG
 10
0.0
 20
0.0
 30
0.0
  9
$UCSXDIR
 10
1.0
 20
0.0
 30
0.0
  9
$UCSYDIR
 10
0.0
 20
1.0
 30
0.0
  9
$PUCSNAME
  2

  9
$PUCSORG
 10
0.0
 20
0.0
 30
0.0
  9
$PUCSXDIR
 10
1.0
 20
0.0
 30
0.0
  9
$PUCSYDIR
 10
0.0
 20
1.0
 30
0.0
  9
$USERI1
 70
     0
  9
$USERI2
 70
     0
  9
$USERI3
 70
     0
  9
$USERI4
 70
     0
  9
$USERI5
 70
     0
  9
$USERR1
 40
20.0
  9
$USERR2
 40
0.0
  9
$USERR3
 40
0.0
  9
$USERR4
 40
0.0
  9
$USERR5
 40
0.0
  9
$WORLDVIEW
 70
     1
  9
$SHADEDGE
 70
     3
  9
$SHADEDIF
 70
    70
  9
$TILEMODE
 70
     1
  9
$MAXACTVP
 70
    64
  9
$PLIMCHECK
 70
     0
  9
$PEXTMIN
 10
1.0000000000000000E+020
 20
1.0000000000000000E+020
 30
1.0000000000000000E+020
  9
$PEXTMAX
 10
-1.0000000000000000E+020
 20
-1.0000000000000000E+020
 30
-1.0000000000000000E+020
  9
$PLIMMIN
 10
0.0
 20
0.0
  9
$PLIMMAX
 10
12.0
 20
9.0
  9
$UNITMODE
 70
     0
  9
$VISRETAIN
 70
     1
  9
$PLINEGEN
 70
     0
  9
$PSLTSCALE
 70
     1
  0
ENDSEC
  0
SECTION
  2
TABLES
  0
TABLE
  2
VPORT
 70
     1
  0
VPORT
  2
*ACTIVE
 70
     0
 10
0.0
 20
0.0
 11
1.0
 21
1.0
 12
0.0000000000001705
 22
0.0
 13
0.0
 23
0.0
 14
50.0
 24
50.0
 15
100.0
 25
100.0
 16
0.0
 26
0.0
 36
1.0
 17
0.0
 27
0.0
 37
0.0
 40
5985.0568900126418
 41
1.5481012658227851
 42
50.0
 43
0.0
 44
0.0
 50
0.0
 51
0.0
 71
     0
 72
  1000
 73
     1
 74
     0
 75
     0
 76
     0
 77
     0
 78
     0
  0
ENDTAB
  0
TABLE
  2
LTYPE
 70
     3
  0
LTYPE
  2
CONTINUOUS
 70
     0
  3
実線
 72
    65
 73
     0
 40
0.0
  0
LTYPE
  2
DASHDOT
 70
     0
  3
____ _ ____ _ ____ _ ____ _ ____ _ ____ _ ____
 72
    65
 73
     4
 40
5.5
 49
4.0
 49
-0.6
 49
0.3
 49
-0.6
  0
ENDTAB
  0
TABLE
  2
LAYER
 70
    12
  0
LAYER
  2
0
 70
     0
 62
     7
  6
CONTINUOUS
  0
LAYER
  2
SYMBOLLINE
 70
     0
 62
    15
  6
CONTINUOUS
  0
LAYER
  2
OUTLINE
 70
     0
 62
     3
  6
CONTINUOUS
  0
LAYER
  2
DETAIL
 70
     0
 62
     5
  6
CONTINUOUS
  0
LAYER
  2
BASIS
 70
     0
 62
     6
  6
DASHDOT
  0
LAYER
  2
SIZE
 70
     0
 62
    30
  6
CONTINUOUS
  0
LAYER
  2
NOTE
 70
     0
 62
     4
  6
CONTINUOUS
  0
LAYER
  2
ARRANGE
 70
     0
 62
     1
  6
CONTINUOUS
  0
LAYER
  2
FIX
 70
     0
 62
    11
  6
CONTINUOUS
  0
LAYER
  2
SERVICESPACE
 70
     0
 62
     2
  6
DASHDOT
  0
LAYER
  2
ETC
 70
     0
 62
    61
  6
CONTINUOUS
  0
LAYER
  2
DEFPOINTS
 70
     0
 62
     7
  6
CONTINUOUS
  0
ENDTAB
  0
TABLE
  2
STYLE
 70
     3
  0
STYLE
  2
STANDARD
 70
     0
 40
0.0
 41
0.9
 50
0.0
 71
     0
 42
64.0
  3
SIMPLEX
  4
BIGFONT
  0
STYLE
  2
ANNOTATIVE
 70
     0
 40
0.0
 41
1.0
 50
0.0
 71
     0
 42
0.2
  3
txt
  4

  0
STYLE
  2
STANDARD1
 70
     0
 40
0.0
 41
1.0
 50
0.0
 71
     0
 42
3.5
  3
MONOTXT
  4
BIGFONT
  0
ENDTAB
  0
TABLE
  2
VIEW
 70
     3
  0
VIEW
  2
ALL
 70
     0
 40
6056.2300320000013
 10
0.0
 20
58.11501599999999
 41
8400.0
 11
0.0
 21
0.0
 31
1.0
 12
0.0
 22
0.0
 32
0.0
 42
50.0
 43
0.0
 44
0.0
 50
0.0
 71
     0
  0
ENDTAB
  0
TABLE
  2
UCS
 70
     0
  0
ENDTAB
  0
TABLE
  2
APPID
 70
     4
  0
APPID
  2
ACAD
 70
     0
  0
APPID
  2
ACADANNOTATIVE
 70
     0
  0
APPID
  2
ACAD_MLEADERVER
 70
     0
  0
APPID
  2
ACAD_EXEMPT_FROM_CAD_STANDARDS
 70
     0
  0
ENDTAB
  0
TABLE
  2
DIMSTYLE
 70
     3
  0
DIMSTYLE
  2
STANDARD
 70
     0
  3

  4

  5

  6

  7

 40
1.0
 41
0.18
 42
0.0625
 43
0.38
 44
0.18
 45
0.0
 46
0.0
 47
0.0
 48
0.0
140
0.18
141
0.09
142
0.0
143
25.399999999999999
144
1.0
145
0.0
146
1.0
147
0.09
 71
     0
 72
     0
 73
     1
 74
     1
 75
     0
 76
     0
 77
     0
 78
     0
170
     0
171
     2
172
     0
173
     0
174
     0
175
     0
176
     0
177
     0
178
     0
  0
DIMSTYLE
  2
ANNOTATIVE
 70
     0
  3

  4

  5

  6

  7

 40
1.0
 41
0.18
 42
0.0625
 43
0.38
 44
0.18
 45
0.0
 46
0.0
 47
0.0
 48
0.0
140
0.18
141
0.09
142
0.0
143
25.399999999999999
144
1.0
145
0.0
146
1.0
147
0.09
 71
     0
 72
     0
 73
     1
 74
     1
 75
     0
 76
     0
 77
     0
 78
     0
170
     0
171
     2
172
     0
173
     0
174
     0
175
     0
176
     0
177
     0
178
     0
  0
ENDTAB
  0
ENDSEC
  0
SECTION
  2
BLOCKS
  0
BLOCK
  8
0
  2
$MODEL_SPACE
 70
     0
 10
0.0
 20
0.0
 30
0.0
  3
$MODEL_SPACE
  1

  0
ENDBLK
  5
10DB
  8
0
  0
BLOCK
 67
     1
  8
0
  2
$PAPER_SPACE
 70
     0
 10
0.0
 20
0.0
 30
0.0
  3
$PAPER_SPACE
  1

  0
ENDBLK
  5
10D7
 67
     1
  8
0
  0
ENDSEC
  0
SECTION
  2
ENTITIES
  0
LINE
  5
8A
  8
DETAIL
  6
CONTINUOUS
 62
     5
 10
-329.74109294763861
 20
83.525236525273343
 30
0.0
 11
-329.74109294763861
 21
1369.913909239167
 31
0.0
  0
LINE
  5
8B
  8
DETAIL
  6
CONTINUOUS
 62
     5
 10
375.61348880519881
 20
58.517680679358598
 30
0.0
 11
375.61348880519881
 21
1369.913909239167
 31
0.0
  0
LINE
  5
8C
  8
DETAIL
  6
CONTINUOUS
 62
     5
 10
329.74109294672593
 20
58.517680679358598
 30
0.0
 11
329.74109294672593
 21
1369.913909239167
 31
0.0
  0
LINE
  5
8D
  8
DETAIL
  6
CONTINUOUS
 62
     5
 10
307.59293690431008
 20
1289.889730532248
 30
0.0
 11
307.59293690431008
 21
78.523725356103341
 31
0.0
  0
LINE
  5
97
  8
DETAIL
  6
CONTINUOUS
 62
     5
 10
-172.55213533727101
 20
83.525236525273343
 30
0.0
 11
-172.55213533727101
 21
1289.889730532248
 31
0.0
  0
LINE
  5
99
  8
DETAIL
  6
CONTINUOUS
 62
     5
 10
-375.61348880611081
 20
1369.913909239167
 30
0.0
 11
-375.61348880611081
 21
58.517680679358598
 31
0.0
  0
LINE
  5
A2
  8
DETAIL
  6
CONTINUOUS
 62
     5
 10
300.5493568549868
 20
83.525236525273343
 30
0.0
 11
-164.508253054108
 21
83.525236525273343
 31
0.0
  0
LINE
  5
A3
  8
DETAIL
  6
CONTINUOUS
 62
     5
 10
-287.58133705052882
 20
45.997579965566487
 30
0.0
 11
282.579825880432
 21
45.997579965566487
 31
0.0
  0
LINE
  5
A5
  8
DETAIL
  6
CONTINUOUS
 62
     5
 10
308.59323913815382
 20
78.523725356103341
 30
0.0
 11
308.59323913815382
 21
63.519191848529559
 31
0.0
  0
ARC
  5
A6
  8
DETAIL
  6
CONTINUOUS
 62
     5
 10
366.61076837767172
 20
64.014597560466171
 30
0.0
 40
8.0024178706924562
 50
273.73139931697978
 51
316.60278230335012
  0
LINE
  5
A7
  8
DETAIL
  6
CONTINUOUS
 62
     5
 10
375.61348880519881
 20
58.517680679358598
 30
0.0
 11
313.59475030732779
 21
58.517680679346419
 31
0.0
  0
LINE
  5
A9
  8
DETAIL
  6
CONTINUOUS
 62
     5
 10
294.13032115997288
 20
53.999997836281871
 30
0.0
 11
328.5992837777207
 21
54.000000483988302
 31
0.0
  0
LINE
  5
AA
  8
DETAIL
  6
CONTINUOUS
 62
     5
 10
367.13155915240708
 20
56.02914398871031
 30
0.0
 11
328.59928377771752
 21
54.000000483988302
 31
0.0
  0
ARC
  5
AC
  8
DETAIL
  6
CONTINUOUS
 62
     5
 10
313.59475030732398
 20
63.519191848529559
 30
0.0
 40
5.0015111691831251
 50
180.0
 51
270.0
  0
LINE
  5
AD
  8
DETAIL
  6
CONTINUOUS
 62
     5
 10
305.74707973076511
 20
78.523725356103341
 30
0.0
 11
308.59323913815382
 21
78.523725356103341
 31
0.0
  0
LINE
  5
AF
  8
DETAIL
  6
CONTINUOUS
 62
     5
 10
302.281931146852
 20
82.524934291445547
 30
0.0
 11
304.01450543880901
 21
79.52402758993118
 31
0.0
  0
ARC
  5
B0
  8
DETAIL
  6
CONTINUOUS
 62
     5
 10
305.74707973076511
 20
80.52432982375899
 30
0.0
 40
2.0006044676731922
 50
210.00000000001029
 51
270.0
  0
ARC
  5
B1
  8
DETAIL
  6
CONTINUOUS
 62
     5
 10
300.5493568549868
 20
81.524632057586814
 30
0.0
 40
2.0006044676731922
 50
30.000000000010321
 51
90.0
  0
LINE
  5
B2
  8
DETAIL
  6
CONTINUOUS
 62
     5
 10
286.91126161034521
 20
48.498335550151523
 30
0.0
 11
288.06631113820998
 21
50.498940017838088
 31
0.0
  0
ARC
  5
B3
  8
DETAIL
  6
CONTINUOUS
 62
     5
 10
294.13032115997288
 20
46.997882199425248
 30
0.0
 40
7.002115636856467
 50
90.0
 51
149.9999999999896
  0
ARC
  5
B4
  8
DETAIL
  6
CONTINUOUS
 62
     5
 10
282.579825880432
 20
50.999091134768371
 30
0.0
 40
5.0015111691832059
 50
270.0
 51
329.99999999998971
  0
LINE
  5
B8
  8
DETAIL
  6
CONTINUOUS
 62
     5
 10
292.58840339676681
 20
83.525236525273343
 30
0.0
 11
292.58840339676681
 21
1289.889730532248
 31
0.0
  0
LINE
  5
CB
  8
DETAIL
  6
CONTINUOUS
 62
     5
 10
-176.55334427261499
 20
58.517680679358598
 30
0.0
 11
-375.61348880611081
 21
58.517680679359508
 31
0.0
  0
LINE
  5
CC
  8
DETAIL
  6
CONTINUOUS
 62
     5
 10
-172.55213533727101
 20
83.525236525273343
 30
0.0
 11
-375.61348880611081
 21
83.525236525273343
 31
0.0
  0
LINE
  5
CD
  8
DETAIL
  6
CONTINUOUS
 62
     5
 10
-173.5524375710992
 20
61.518587380872958
 30
0.0
 11
-173.5524375710992
 21
83.525236525273343
 31
0.0
  0
ARC
  5
CE
  8
DETAIL
  6
CONTINUOUS
 62
     5
 10
-176.55334427261499
 20
61.518587380872958
 30
0.0
 40
3.000906701509495
 50
270.0
 51
0.000000000000007
  0
LINE
  5
CF
  8
DETAIL
  6
CONTINUOUS
 62
     5
 10
-173.5524375710992
 20
78.523725356103341
 30
0.0
 11
-172.55307296336099
 21
78.523725356103341
 31
0.0
  0
LINE
  5
D0
  8
DETAIL
  6
CONTINUOUS
 62
     5
 10
-173.5524375710992
 20
78.523725356103341
 30
0.0
 11
-169.70597592989989
 21
78.523725356103341
 31
0.0
  0
LINE
  5
D1
  8
DETAIL
  6
CONTINUOUS
 62
     5
 10
-167.9734016379297
 20
79.52402758993118
 30
0.0
 11
-166.2408273459732
 21
82.524934291445547
 31
0.0
  0
LINE
  5
D3
  8
DETAIL
  6
CONTINUOUS
 62
     5
 10
-157.54760182971401
 20
83.525236525273343
 30
0.0
 11
-157.54760182971401
 21
1289.889730532248
 31
0.0
  0
ARC
  5
D4
  8
DETAIL
  6
CONTINUOUS
 62
     5
 10
-164.508253054108
 20
81.524632057586814
 30
0.0
 40
2.0006044676732602
 50
90.0
 51
149.9999999999896
  0
ARC
  5
D5
  8
DETAIL
  6
CONTINUOUS
 62
     5
 10
-169.70597592989989
 20
80.52432982375899
 30
0.0
 40
2.00060446767286
 50
270.0
 51
329.99999999998971
  0
LINE
  5
DC
  8
DETAIL
  6
CONTINUOUS
 62
     5
 10
-297.9767807722842
 20
53.999999999912461
 30
0.0
 11
-328.59928381579618
 21
53.999999999912461
 31
0.0
  0
LINE
  5
DE
  8
DETAIL
  6
CONTINUOUS
 62
     5
 10
-300.00000000045611
 20
5.0015111690834191
 30
0.0
 11
-300.00000000045611
 21
53.999999999912461
 31
0.0
  0
ARC
  5
DF
  8
DETAIL
  6
CONTINUOUS
 62
     5
 10
-305.00151116964111
 20
5.0015111690834191
 30
0.0
 40
5.0015111691832921
 50
270.0
 51
0.000000000000007
  0
LINE
  5
E0
  8
DETAIL
  6
CONTINUOUS
 62
     5
 10
-291.91277278042799
 20
48.498335550151523
 30
0.0
 11
-293.64534707229308
 21
51.499242251666821
 31
0.0
  0
ARC
  5
E1
  8
DETAIL
  6
CONTINUOUS
 62
     5
 10
-287.58133660889678
 20
50.999091899702542
 30
0.0
 40
5.0015098942980281
 50
210.00000505897091
 51
270.0
  0
ARC
  5
E2
  8
DETAIL
  6
CONTINUOUS
 62
     5
 10
-297.9767807722842
 20
48.998490183037347
 30
0.0
 40
5.001509816874715
 50
29.99997674602923
 51
90.0
  0
LINE
  5
E3
  8
DETAIL
  6
CONTINUOUS
 62
     5
 10
-325.00000000045611
 20
46.814144543480978
 30
0.0
 11
-328.00090670197091
 21
46.814144543480978
 31
0.0
  0
LINE
  5
E4
  8
DETAIL
  6
CONTINUOUS
 62
     5
 10
-328.00090670197091
 20
7.2021760835475597
 30
0.0
 11
-328.00090670197091
 21
46.814144543480978
 31
0.0
  0
LINE
  5
E5
  8
DETAIL
  6
CONTINUOUS
 62
     5
 10
-325.00000000045611
 20
53.999999999912461
 30
0.0
 11
-325.00000000045611
 21
-0.0000000000875317
 31
0.0
  0
LINE
  5
E6
  8
DETAIL
  6
CONTINUOUS
 62
     5
 10
-325.00000000045611
 20
7.2021760835475597
 30
0.0
 11
-328.00090670197091
 21
7.2021760835475597
 31
0.0
  0
LINE
  5
E7
  8
DETAIL
  6
CONTINUOUS
 62
     5
 10
-380.000000000456
 20
2.3006951377508398
 30
0.0
 11
-325.00000000045611
 21
2.3006951377508398
 31
0.0
  0
LINE
  5
E8
  8
DETAIL
  6
CONTINUOUS
 62
     5
 10
-305.00151116964417
 20
-0.0000000000998721
 30
0.0
 11
-380.000000000456
 21
-0.0000000000875317
 31
0.0
  0
LINE
  5
E9
  8
DETAIL
  6
CONTINUOUS
 62
     5
 10
-380.000000000456
 20
-0.0000000000875317
 30
0.0
 11
-380.000000000456
 21
2.3006951377508398
 31
0.0
  0
ARC
  5
EA
  8
DETAIL
  6
CONTINUOUS
 62
     5
 10
-366.61076870156683
 20
64.014597581572843
 30
0.0
 40
8.0024178706930051
 50
223.38576755306659
 51
266.26860300079431
  0
LINE
  5
EB
  8
DETAIL
  6
CONTINUOUS
 62
     5
 10
-367.13155915331799
 20
56.02914398871031
 30
0.0
 11
-328.59928381577907
 21
53.999999999911559
 31
0.0
  0
LINE
  5
EC
  8
DETAIL
  6
CONTINUOUS
 62
     5
 10
-375.41342835933398
 20
53.216078840035841
 30
0.0
 11
-368.41131272247497
 21
53.216078840035841
 31
0.0
  0
LINE
  5
ED
  8
DETAIL
  6
CONTINUOUS
 62
     5
 10
-373.78893753159002
 20
54.016320627086102
 30
0.0
 11
-368.41131272247497
 21
54.016320627086102
 31
0.0
  0
LINE
  5
EF
  8
DETAIL
  6
CONTINUOUS
 62
     5
 10
-368.41131272247497
 20
54.016320627086102
 30
0.0
 11
-368.41131272247497
 21
53.216078840035841
 31
0.0
  0
LINE
  5
F1
  8
DETAIL
  6
CONTINUOUS
 62
     5
 10
-373.78893753159002
 20
54.016320627086102
 30
0.0
 11
-373.78893753159002
 21
58.517680679358598
 31
0.0
  0
LINE
  5
F2
  8
DETAIL
  6
CONTINUOUS
 62
     5
 10
-375.41342835933398
 20
53.216078840035841
 30
0.0
 11
-375.41342835933398
 21
58.517680679358598
 31
0.0
  0
LINE
  5
108
  8
DETAIL
  6
CONTINUOUS
 62
     5
 10
308.59323913815382
 20
1369.913909239167
 30
0.0
 11
308.59323913815382
 21
1289.889730532248
 31
0.0
  0
LINE
  5
109
  8
DETAIL
  6
CONTINUOUS
 62
     5
 10
-173.5524375710992
 20
1369.913909239167
 30
0.0
 11
-173.5524375710992
 21
1289.889730532248
 31
0.0
  0
LINE
  5
10A
  8
DETAIL
  6
CONTINUOUS
 62
     5
 10
-173.5524375710992
 20
1289.889730532248
 30
0.0
 11
308.59323913815382
 21
1289.889730532248
 31
0.0
  0
TEXT
  5
115
  8
NOTE
  6
CONTINUOUS
 62
     4
 10
467.1091359975137
 20
934.8346851245102
 30
0.0
 40
55.0
  1
吸込
 50
359.99999749547902
 41
0.630952371610266
  7
STANDARD1
  0
LINE
  5
117
  8
NOTE
  6
CONTINUOUS
 62
     4
 10
498.93043521848972
 20
890.97887934477183
 30
0.0
 11
449.01930959058382
 21
840.96376765294065
 31
0.0
  0
LINE
  5
118
  8
NOTE
  6
CONTINUOUS
 62
     4
 10
539.62881935228916
 20
815.95621180702494
 30
0.0
 11
539.62881935228916
 21
865.97132349885635
 31
0.0
  0
LINE
  5
119
  8
NOTE
  6
CONTINUOUS
 62
     4
 10
498.93043521848972
 20
815.95621180702494
 30
0.0
 11
539.62881935228916
 21
815.95621180702494
 31
0.0
  0
LINE
  5
11A
  8
NOTE
  6
CONTINUOUS
 62
     4
 10
498.93043521848972
 20
815.95621180702494
 30
0.0
 11
498.93043521848972
 21
790.94865596110935
 31
0.0
  0
LINE
  5
11B
  8
NOTE
  6
CONTINUOUS
 62
     4
 10
449.01930959058382
 20
840.96376765294065
 30
0.0
 11
498.93043521848972
 21
790.94865596110935
 31
0.0
  0
LINE
  5
11C
  8
NOTE
  6
CONTINUOUS
 62
     4
 10
498.93043521848972
 20
865.97132349885635
 30
0.0
 11
539.62881935228916
 21
865.97132349885635
 31
0.0
  0
LINE
  5
11D
  8
NOTE
  6
CONTINUOUS
 62
     4
 10
498.93043521848972
 20
890.97887934477183
 30
0.0
 11
498.93043521848972
 21
865.97132349885635
 31
0.0
  0
LINE
  5
127
  8
NOTE
  6
CONTINUOUS
 62
     4
 10
537.6187183536822
 20
1127.632661402899
 30
0.0
 11
537.6187183536822
 21
1177.6477730947299
 31
0.0
  0
LINE
  5
128
  8
NOTE
  6
CONTINUOUS
 62
     4
 10
447.00920859197907
 20
1152.640217248814
 30
0.0
 11
496.92033421988498
 21
1102.625105556983
 31
0.0
  0
TEXT
  5
129
  8
NOTE
  6
CONTINUOUS
 62
     4
 10
467.1091359975137
 20
1009.857352662257
 30
0.0
 40
55.0
  1
空気
 50
359.99999749547902
 41
0.630952371610266
  7
STANDARD1
  0
LINE
  5
12A
  8
NOTE
  6
CONTINUOUS
 62
     4
 10
496.92033421988498
 20
1127.632661402899
 30
0.0
 11
537.6187183536822
 21
1127.632661402899
 31
0.0
  0
LINE
  5
12B
  8
NOTE
  6
CONTINUOUS
 62
     4
 10
496.92033421988498
 20
1127.632661402899
 30
0.0
 11
496.92033421988498
 21
1102.625105556983
 31
0.0
  0
LINE
  5
12C
  8
NOTE
  6
CONTINUOUS
 62
     4
 10
496.92033421988498
 20
1177.6477730947299
 30
0.0
 11
537.6187183536822
 21
1177.6477730947299
 31
0.0
  0
LINE
  5
12D
  8
NOTE
  6
CONTINUOUS
 62
     4
 10
496.92033421988498
 20
1202.6553289406461
 30
0.0
 11
496.92033421988498
 21
1177.6477730947299
 31
0.0
  0
LINE
  5
12E
  8
NOTE
  6
CONTINUOUS
 62
     4
 10
496.92033421988498
 20
1202.6553289406461
 30
0.0
 11
447.00920859197907
 21
1152.640217248814
 31
0.0
  0
LINE
  5
16B
  8
DETAIL
  6
CONTINUOUS
 62
     5
 10
-380.000000000456
 20
1369.913909239167
 30
0.0
 11
379.99999999954338
 21
1369.913909239167
 31
0.0
  0
LINE
  5
16C
  8
DETAIL
  6
CONTINUOUS
 62
     5
 10
379.99999999954338
 20
1409.9999672647759
 30
0.0
 11
-380.000000000456
 21
1409.9999672647759
 31
0.0
  0
LINE
  5
171
  8
DETAIL
  6
CONTINUOUS
 62
     5
 10
-338.79671706154522
 20
1549.9817153796989
 30
0.0
 11
338.79671706084252
 21
1549.9817153796989
 31
0.0
  0
LINE
  5
172
  8
DETAIL
  6
CONTINUOUS
 62
     5
 10
161.76403983791479
 20
1640.509067671954
 30
0.0
 11
162.769289818771
 21
1640.3049404655339
 31
0.0
  0
LINE
  5
174
  8
DETAIL
  6
CONTINUOUS
 62
     5
 10
158.74716834116131
 20
1640.509067671954
 30
0.0
 11
164.36290127575191
 21
1640.509067671954
 31
0.0
  0
LINE
  5
175
  8
DETAIL
  6
CONTINUOUS
 62
     5
 10
320.09671482737389
 20
1641.609399999121
 30
0.0
 11
-320.0967148280738
 21
1641.609399999121
 31
0.0
  0
LINE
  5
176
  8
DETAIL
  6
CONTINUOUS
 62
     5
 10
300.09067015062777
 20
1642.3096115628271
 30
0.0
 11
-300.09067015134491
 21
1642.3096115628271
 31
0.0
  0
LINE
  5
177
  8
DETAIL
  6
CONTINUOUS
 62
     5
 10
280.08462547389848
 20
1643.009823126504
 30
0.0
 11
-280.08462547459879
 21
1643.009823126504
 31
0.0
  0
LINE
  5
178
  8
DETAIL
  6
CONTINUOUS
 62
     5
 10
260.0785807971701
 20
1643.7100346901809
 30
0.0
 11
-260.07858079787002
 21
1643.7100346901809
 31
0.0
  0
LINE
  5
179
  8
DETAIL
  6
CONTINUOUS
 62
     5
 10
240.07253612044079
 20
1644.4102462538581
 30
0.0
 11
-240.07253612113979
 21
1644.4102462538581
 31
0.0
  0
LINE
  5
17A
  8
DETAIL
  6
CONTINUOUS
 62
     5
 10
220.0664914437111
 20
1645.1104578175641
 30
0.0
 11
-220.0664914444109
 21
1645.1104578175641
 31
0.0
  0
LINE
  5
17B
  8
DETAIL
  6
CONTINUOUS
 62
     5
 10
200.0604467669659
 20
1645.810669381241
 30
0.0
 11
-200.06044676768209
 21
1645.810669381241
 31
0.0
  0
LINE
  5
17C
  8
DETAIL
  6
CONTINUOUS
 62
     5
 10
180.05440209023789
 20
1646.510880944918
 30
0.0
 11
-180.0544020909378
 21
1646.510880944918
 31
0.0
  0
LINE
  5
17D
  8
NOTE
  6
CONTINUOUS
 62
     4
 10
178.47965502486471
 20
1736.4780491351651
 30
0.0
 11
178.47965502486471
 21
1695.779665001352
 31
0.0
  0
LINE
  5
17E
  8
NOTE
  6
CONTINUOUS
 62
     4
 10
228.49476671669609
 20
1736.4780491351651
 30
0.0
 11
228.49476671669609
 21
1695.779665001352
 31
0.0
  0
LINE
  5
17F
  8
DETAIL
  6
CONTINUOUS
 62
     5
 10
366.93105967748528
 20
1416.6236587626611
 30
0.0
 11
361.10910641456888
 21
1549.9817153796989
 31
0.0
  0
LINE
  5
180
  8
DETAIL
  6
CONTINUOUS
 62
     5
 10
367.66762464388421
 20
1413.788779213811
 30
0.0
 11
368.05236695300073
 21
1413.11713725661
 31
0.0
  0
LINE
  5
181
  8
DETAIL
  6
CONTINUOUS
 62
     5
 10
368.05236695300073
 20
1413.11713725661
 30
0.0
 11
368.5088903035051
 21
1412.4920644669489
 31
0.0
  0
LINE
  5
182
  8
DETAIL
  6
CONTINUOUS
 62
     5
 10
368.5088903035051
 20
1412.4920644669489
 30
0.0
 11
369.03161609809462
 21
1411.921199071634
 31
0.0
  0
LINE
  5
183
  8
DETAIL
  6
CONTINUOUS
 62
     5
 10
369.03161609809462
 20
1411.921199071634
 30
0.0
 11
369.61415676340351
 21
1411.411516895665
 31
0.0
  0
LINE
  5
184
  8
DETAIL
  6
CONTINUOUS
 62
     5
 10
369.61415676340351
 20
1411.411516895665
 30
0.0
 11
370.24939381282582
 21
1410.969246114581
 31
0.0
  0
LINE
  5
185
  8
DETAIL
  6
CONTINUOUS
 62
     5
 10
370.24939381282582
 20
1410.969246114581
 30
0.0
 11
370.9295648285173
 21
1410.5997911569009
 31
0.0
  0
LINE
  5
186
  8
DETAIL
  6
CONTINUOUS
 62
     5
 10
370.9295648285173
 20
1410.5997911569009
 30
0.0
 11
371.6463582832921
 21
1410.3076666760901
 31
0.0
  0
LINE
  5
187
  8
DETAIL
  6
CONTINUOUS
 62
     5
 10
371.6463582832921
 20
1410.3076666760901
 30
0.0
 11
372.39101510027052
 21
1410.0964423660459
 31
0.0
  0
LINE
  5
188
  8
DETAIL
  6
CONTINUOUS
 62
     5
 10
372.39101510027052
 20
1410.0964423660459
 30
0.0
 11
372.96757158173881
 21
1409.9999672647759
 31
0.0
  0
LINE
  5
189
  8
DETAIL
  6
CONTINUOUS
 62
     5
 10
366.93110199347569
 20
1416.6226888397821
 30
0.0
 11
366.9863794528469
 21
1415.998809370589
 31
0.0
  0
LINE
  5
18A
  8
DETAIL
  6
CONTINUOUS
 62
     5
 10
366.9863794528469
 20
1415.998809370589
 30
0.0
 11
367.1313543532342
 21
1415.2384727065421
 31
0.0
  0
LINE
  5
18B
  8
DETAIL
  6
CONTINUOUS
 62
     5
 10
367.1313543532342
 20
1415.2384727065421
 30
0.0
 11
367.35936482618479
 21
1414.498783050238
 31
0.0
  0
LINE
  5
18C
  8
DETAIL
  6
CONTINUOUS
 62
     5
 10
367.35936482618479
 20
1414.498783050238
 30
0.0
 11
367.66762464388421
 21
1413.788779213811
 31
0.0
  0
LINE
  5
18D
  8
DETAIL
  6
CONTINUOUS
 62
     5
 10
328.79754631551288
 20
1369.913909239167
 30
0.0
 11
328.79754631551288
 21
1409.9999672647759
 31
0.0
  0
LINE
  5
196
  8
DETAIL
  6
CONTINUOUS
 62
     5
 10
298.9077933563658
 20
1638.7215691891599
 30
0.0
 11
300.2872438872127
 21
1637.4069474192329
 31
0.0
  0
LINE
  5
197
  8
DETAIL
  6
CONTINUOUS
 62
     5
 10
299.15817941823292
 20
1640.3049404655339
 30
0.0
 11
300.91990178316013
 21
1639.7008899113771
 31
0.0
  0
LINE
  5
198
  8
DETAIL
  6
CONTINUOUS
 62
     5
 10
298.54207502849692
 20
1640.509067671954
 30
0.0
 11
300.3787581361612
 21
1640.3049404655339
 31
0.0
  0
LINE
  5
199
  8
DETAIL
  6
CONTINUOUS
 62
     5
 10
258.07889271187781
 20
1640.509067671954
 30
0.0
 11
305.94589473423508
 21
1640.509067671954
 31
0.0
  0
LINE
  5
19D
  8
DETAIL
  6
CONTINUOUS
 62
     5
 10
324.12058667674501
 20
1625.9949815576169
 30
0.0
 11
328.93023067529111
 21
1615.8300858848329
 31
0.0
  0
LINE
  5
19F
  8
DETAIL
  6
CONTINUOUS
 62
     5
 10
327.5434576528973
 20
1625.9949815576169
 30
0.0
 11
332.40471086728968
 21
1615.8300858848329
 31
0.0
  0
LINE
  5
1A0
  8
DETAIL
  6
CONTINUOUS
 62
     5
 10
326.71629566459018
 20
1625.9949815576169
 30
0.0
 11
331.57754887898079
 21
1615.8300858848329
 31
0.0
  0
LINE
  5
1A1
  8
DETAIL
  6
CONTINUOUS
 62
     5
 10
330.56726738009309
 20
1625.9949815576169
 30
0.0
 11
335.47420712211891
 21
1615.8300858848329
 31
0.0
  0
LINE
  5
1A2
  8
DETAIL
  6
CONTINUOUS
 62
     5
 10
329.84128234233918
 20
1625.9949815576169
 30
0.0
 11
334.74822208438081
 21
1615.8300858848329
 31
0.0
  0
LINE
  5
1A3
  8
DETAIL
  6
CONTINUOUS
 62
     5
 10
333.18833181200159
 20
1625.9949815576169
 30
0.0
 11
338.134979731356
 21
1615.8300858848329
 31
0.0
  0
LINE
  5
1A4
  8
DETAIL
  6
CONTINUOUS
 62
     5
 10
332.56440822565901
 20
1625.9949815576169
 30
0.0
 11
337.5110561451188
 21
1615.8300858848329
 31
0.0
  0
LINE
  5
1A5
  8
DETAIL
  6
CONTINUOUS
 62
     5
 10
335.4034575852815
 20
1625.9949815576169
 30
0.0
 11
340.38378695364008
 21
1615.8300858848329
 31
0.0
  0
LINE
  5
1A6
  8
DETAIL
  6
CONTINUOUS
 62
     5
 10
334.8823556052098
 20
1625.9949815576169
 30
0.0
 11
339.86268497356969
 21
1615.8300858848329
 31
0.0
  0
LINE
  5
1A7
  8
DETAIL
  6
CONTINUOUS
 62
     5
 10
337.2099459105101
 20
1625.9949815576169
 30
0.0
 11
342.21788896343958
 21
1615.8300858848329
 31
0.0
  0
LINE
  5
1A8
  8
DETAIL
  6
CONTINUOUS
 62
     5
 10
336.79230041915793
 20
1625.9949815576169
 30
0.0
 11
341.8002434721779
 21
1615.8300858848329
 31
0.0
  0
LINE
  5
1A9
  8
DETAIL
  6
CONTINUOUS
 62
     5
 10
338.60559585980388
 20
1625.9949815576169
 30
0.0
 11
343.63505119030373
 21
1615.8300858848329
 31
0.0
  0
LINE
  5
1AA
  8
DETAIL
  6
CONTINUOUS
 62
     5
 10
338.29191569389189
 20
1625.9949815576169
 30
0.0
 11
343.32137102439083
 21
1615.8300858848329
 31
0.0
  0
LINE
  5
1AB
  8
DETAIL
  6
CONTINUOUS
 62
     5
 10
339.5887070486919
 20
1625.9949815576169
 30
0.0
 11
344.63354704016092
 21
1615.8300858848329
 31
0.0
  0
LINE
  5
1AC
  8
DETAIL
  6
CONTINUOUS
 62
     5
 10
339.3793743791893
 20
1625.9949815576169
 30
0.0
 11
344.42421437065781
 21
1615.8300858848329
 31
0.0
  0
LINE
  5
1AD
  8
DETAIL
  6
CONTINUOUS
 62
     5
 10
340.15808170778968
 20
1625.9949815576169
 30
0.0
 11
345.21215999963169
 21
1615.8300858848329
 31
0.0
  0
LINE
  5
1AE
  8
DETAIL
  6
CONTINUOUS
 62
     5
 10
340.05335157425679
 20
1625.9949815576169
 30
0.0
 11
345.10742986611598
 21
1615.8300858848329
 31
0.0
  0
ARC
  5
1B6
  8
DETAIL
  6
CONTINUOUS
 62
     5
 10
186.1963138677296
 20
1542.9795997428409
 30
0.0
 40
175.0528909214085
 50
2.292442771676483
 51
32.025931703319529
  0
LINE
  5
1B9
  8
DETAIL
  6
CONTINUOUS
 62
     5
 10
328.28205863846591
 20
1594.6250189737059
 30
0.0
 11
331.05992072000288
 21
1583.674045476979
 31
0.0
  0
LINE
  5
1BA
  8
DETAIL
  6
CONTINUOUS
 62
     5
 10
331.05992072000288
 20
1583.674045476979
 30
0.0
 11
333.17375650587331
 21
1572.551893428031
 31
0.0
  0
LINE
  5
1BB
  8
DETAIL
  6
CONTINUOUS
 62
     5
 10
333.17375650587331
 20
1572.551893428031
 30
0.0
 11
334.61467428261261
 21
1561.3053474396979
 31
0.0
  0
LINE
  5
1BC
  8
DETAIL
  6
CONTINUOUS
 62
     5
 10
334.61467428261261
 20
1561.3053474396979
 30
0.0
 11
335.37661292296423
 21
1549.9817153796989
 31
0.0
  0
LINE
  5
1BD
  8
DETAIL
  6
CONTINUOUS
 62
     5
 10
325.05499966503828
 20
1615.8300858848329
 30
0.0
 11
329.17799913237877
 21
1605.3587493570401
 31
0.0
  0
LINE
  5
1BE
  8
DETAIL
  6
CONTINUOUS
 62
     5
 10
329.17799913237877
 20
1605.3587493570401
 30
0.0
 11
332.65447996426201
 21
1594.6250189737059
 31
0.0
  0
LINE
  5
1BF
  8
DETAIL
  6
CONTINUOUS
 62
     5
 10
332.65447996426201
 20
1594.6250189737059
 30
0.0
 11
335.46981856915312
 21
1583.674045476979
 31
0.0
  0
LINE
  5
1C0
  8
DETAIL
  6
CONTINUOUS
 62
     5
 10
335.46981856915312
 20
1583.674045476979
 30
0.0
 11
337.61217240733998
 21
1572.551893428031
 31
0.0
  0
LINE
  5
1C1
  8
DETAIL
  6
CONTINUOUS
 62
     5
 10
337.61217240733998
 20
1572.551893428031
 30
0.0
 11
339.07252980610519
 21
1561.3053474396979
 31
0.0
  0
LINE
  5
1C2
  8
DETAIL
  6
CONTINUOUS
 62
     5
 10
339.07252980610519
 20
1561.3053474396979
 30
0.0
 11
339.84474786651879
 21
1549.9817153796989
 31
0.0
  0
LINE
  5
1C4
  8
DETAIL
  6
CONTINUOUS
 62
     5
 10
328.15162859220072
 20
1605.3587493570401
 30
0.0
 11
331.62810942417258
 21
1594.6250189737059
 31
0.0
  0
LINE
  5
1C5
  8
DETAIL
  6
CONTINUOUS
 62
     5
 10
331.62810942417258
 20
1594.6250189737059
 30
0.0
 11
334.44344802897518
 21
1583.674045476979
 31
0.0
  0
LINE
  5
1C6
  8
DETAIL
  6
CONTINUOUS
 62
     5
 10
334.44344802897518
 20
1583.674045476979
 30
0.0
 11
336.58580186716279
 21
1572.551893428031
 31
0.0
  0
LINE
  5
1C7
  8
DETAIL
  6
CONTINUOUS
 62
     5
 10
336.58580186716279
 20
1572.551893428031
 30
0.0
 11
338.04615926592481
 21
1561.3053474396979
 31
0.0
  0
LINE
  5
1C8
  8
DETAIL
  6
CONTINUOUS
 62
     5
 10
338.04615926592481
 20
1561.3053474396979
 30
0.0
 11
338.81837732633892
 21
1549.9817153796989
 31
0.0
  0
LINE
  5
1C9
  8
DETAIL
  6
CONTINUOUS
 62
     5
 10
328.93023067529111
 20
1615.8300858848329
 30
0.0
 11
333.10309042045287
 21
1605.3587493570401
 31
0.0
  0
LINE
  5
1CA
  8
DETAIL
  6
CONTINUOUS
 62
     5
 10
333.10309042045287
 20
1605.3587493570401
 30
0.0
 11
336.62161304774361
 21
1594.6250189737059
 31
0.0
  0
LINE
  5
1CB
  8
DETAIL
  6
CONTINUOUS
 62
     5
 10
336.62161304774361
 20
1594.6250189737059
 30
0.0
 11
339.47099811952768
 21
1583.674045476979
 31
0.0
  0
LINE
  5
1CC
  8
DETAIL
  6
CONTINUOUS
 62
     5
 10
339.47099811952768
 20
1583.674045476979
 30
0.0
 11
341.6392598818947
 21
1572.551893428031
 31
0.0
  0
LINE
  5
1CD
  8
DETAIL
  6
CONTINUOUS
 62
     5
 10
341.6392598818947
 20
1572.551893428031
 30
0.0
 11
343.11727768210989
 21
1561.3053474396979
 31
0.0
  0
LINE
  5
1CE
  8
DETAIL
  6
CONTINUOUS
 62
     5
 10
343.11727768210989
 20
1561.3053474396979
 30
0.0
 11
343.89883433380419
 21
1549.9817153796989
 31
0.0
  0
LINE
  5
1CF
  8
DETAIL
  6
CONTINUOUS
 62
     5
 10
328.00289950591872
 20
1615.8300858848329
 30
0.0
 11
332.175759251172
 21
1605.3587493570401
 31
0.0
  0
LINE
  5
1D0
  8
DETAIL
  6
CONTINUOUS
 62
     5
 10
332.175759251172
 20
1605.3587493570401
 30
0.0
 11
335.69428187846268
 21
1594.6250189737059
 31
0.0
  0
LINE
  5
1D1
  8
DETAIL
  6
CONTINUOUS
 62
     5
 10
335.69428187846268
 20
1594.6250189737059
 30
0.0
 11
338.5436669502468
 21
1583.674045476979
 31
0.0
  0
LINE
  5
1D2
  8
DETAIL
  6
CONTINUOUS
 62
     5
 10
338.5436669502468
 20
1583.674045476979
 30
0.0
 11
340.71192871261189
 21
1572.551893428031
 31
0.0
  0
LINE
  5
1D3
  8
DETAIL
  6
CONTINUOUS
 62
     5
 10
340.71192871261189
 20
1572.551893428031
 30
0.0
 11
342.18994651273709
 21
1561.3053474396979
 31
0.0
  0
LINE
  5
1D4
  8
DETAIL
  6
CONTINUOUS
 62
     5
 10
342.18994651273709
 20
1561.3053474396979
 30
0.0
 11
342.9715031645373
 21
1549.9817153796989
 31
0.0
  0
LINE
  5
1D5
  8
DETAIL
  6
CONTINUOUS
 62
     5
 10
332.40471086728968
 20
1615.8300858848329
 30
0.0
 11
336.6223469034756
 21
1605.3587493570401
 31
0.0
  0
LINE
  5
1D6
  8
DETAIL
  6
CONTINUOUS
 62
     5
 10
336.6223469034756
 20
1605.3587493570401
 30
0.0
 11
340.17862454835682
 21
1594.6250189737059
 31
0.0
  0
LINE
  5
1D7
  8
DETAIL
  6
CONTINUOUS
 62
     5
 10
340.17862454835682
 20
1594.6250189737059
 30
0.0
 11
343.05858455022047
 21
1583.674045476979
 31
0.0
  0
LINE
  5
1D8
  8
DETAIL
  6
CONTINUOUS
 62
     5
 10
343.05858455022047
 20
1583.674045476979
 30
0.0
 11
345.25011254381792
 21
1572.551893428031
 31
0.0
  0
LINE
  5
1D9
  8
DETAIL
  6
CONTINUOUS
 62
     5
 10
345.25011254381792
 20
1572.551893428031
 30
0.0
 11
346.74399000840918
 21
1561.3053474396979
 31
0.0
  0
LINE
  5
1DA
  8
DETAIL
  6
CONTINUOUS
 62
     5
 10
346.74399000840918
 20
1561.3053474396979
 30
0.0
 11
347.5339330449919
 21
1549.9817153796989
 31
0.0
  0
LINE
  5
1DB
  8
DETAIL
  6
CONTINUOUS
 62
     5
 10
331.57754887898079
 20
1615.8300858848329
 30
0.0
 11
335.79518491516859
 21
1605.3587493570401
 31
0.0
  0
LINE
  5
1DC
  8
DETAIL
  6
CONTINUOUS
 62
     5
 10
335.79518491516859
 20
1605.3587493570401
 30
0.0
 11
339.35146256015469
 21
1594.6250189737059
 31
0.0
  0
LINE
  5
1DD
  8
DETAIL
  6
CONTINUOUS
 62
     5
 10
339.35146256015469
 20
1594.6250189737059
 30
0.0
 11
342.23142256201822
 21
1583.674045476979
 31
0.0
  0
LINE
  5
1DE
  8
DETAIL
  6
CONTINUOUS
 62
     5
 10
342.23142256201822
 20
1583.674045476979
 30
0.0
 11
344.42295055559998
 21
1572.551893428031
 31
0.0
  0
LINE
  5
1DF
  8
DETAIL
  6
CONTINUOUS
 62
     5
 10
344.42295055559998
 20
1572.551893428031
 30
0.0
 11
345.91682802009922
 21
1561.3053474396979
 31
0.0
  0
LINE
  5
1E0
  8
DETAIL
  6
CONTINUOUS
 62
     5
 10
345.91682802009922
 20
1561.3053474396979
 30
0.0
 11
346.70677105678971
 21
1549.9817153796989
 31
0.0
  0
LINE
  5
1E1
  8
DETAIL
  6
CONTINUOUS
 62
     5
 10
335.47420712211891
 20
1615.8300858848329
 30
0.0
 11
339.73148090944642
 21
1605.3587493570401
 31
0.0
  0
LINE
  5
1E2
  8
DETAIL
  6
CONTINUOUS
 62
     5
 10
339.73148090944642
 20
1605.3587493570401
 30
0.0
 11
343.32118079542198
 21
1594.6250189737059
 31
0.0
  0
LINE
  5
1E3
  8
DETAIL
  6
CONTINUOUS
 62
     5
 10
343.32118079542198
 20
1594.6250189737059
 30
0.0
 11
346.22820693982112
 21
1583.674045476979
 31
0.0
  0
LINE
  5
1E4
  8
DETAIL
  6
CONTINUOUS
 62
     5
 10
334.74822208438081
 20
1615.8300858848329
 30
0.0
 11
339.00549587170821
 21
1605.3587493570401
 31
0.0
  0
LINE
  5
1E5
  8
DETAIL
  6
CONTINUOUS
 62
     5
 10
339.00549587170821
 20
1605.3587493570401
 30
0.0
 11
342.59519575766888
 21
1594.6250189737059
 31
0.0
  0
LINE
  5
1E6
  8
DETAIL
  6
CONTINUOUS
 62
     5
 10
342.59519575766888
 20
1594.6250189737059
 30
0.0
 11
345.50222190206881
 21
1583.674045476979
 31
0.0
  0
LINE
  5
1E7
  8
DETAIL
  6
CONTINUOUS
 62
     5
 10
345.50222190206881
 20
1583.674045476979
 30
0.0
 11
347.71434608754669
 21
1572.551893428031
 31
0.0
  0
LINE
  5
1E8
  8
DETAIL
  6
CONTINUOUS
 62
     5
 10
347.71434608754669
 20
1572.551893428031
 30
0.0
 11
349.22226315689971
 21
1561.3053474396979
 31
0.0
  0
LINE
  5
1E9
  8
DETAIL
  6
CONTINUOUS
 62
     5
 10
349.22226315689971
 20
1561.3053474396979
 30
0.0
 11
350.01963015457289
 21
1549.9817153796989
 31
0.0
  0
LINE
  5
1EA
  8
DETAIL
  6
CONTINUOUS
 62
     5
 10
338.134979731356
 20
1615.8300858848329
 30
0.0
 11
342.42670443757788
 21
1605.3587493570401
 31
0.0
  0
LINE
  5
1EB
  8
DETAIL
  6
CONTINUOUS
 62
     5
 10
342.42670443757788
 20
1605.3587493570401
 30
0.0
 11
346.0454530683059
 21
1594.6250189737059
 31
0.0
  0
LINE
  5
1EC
  8
DETAIL
  6
CONTINUOUS
 62
     5
 10
346.0454530683059
 20
1594.6250189737059
 30
0.0
 11
348.97600359161743
 21
1583.674045476979
 31
0.0
  0
LINE
  5
1ED
  8
DETAIL
  6
CONTINUOUS
 62
     5
 10
348.97600359161743
 20
1583.674045476979
 30
0.0
 11
351.20602883646768
 21
1572.551893428031
 31
0.0
  0
LINE
  5
1EE
  8
DETAIL
  6
CONTINUOUS
 62
     5
 10
351.20602883646768
 20
1572.551893428031
 30
0.0
 11
352.7261483458928
 21
1561.3053474396979
 31
0.0
  0
LINE
  5
1EF
  8
DETAIL
  6
CONTINUOUS
 62
     5
 10
352.7261483458928
 20
1561.3053474396979
 30
0.0
 11
353.52996783574372
 21
1549.9817153796989
 31
0.0
  0
LINE
  5
1F0
  8
DETAIL
  6
CONTINUOUS
 62
     5
 10
337.5110561451188
 20
1615.8300858848329
 30
0.0
 11
341.80278085123291
 21
1605.3587493570401
 31
0.0
  0
LINE
  5
1F1
  8
DETAIL
  6
CONTINUOUS
 62
     5
 10
341.80278085123291
 20
1605.3587493570401
 30
0.0
 11
345.42152948196087
 21
1594.6250189737059
 31
0.0
  0
LINE
  5
1F2
  8
DETAIL
  6
CONTINUOUS
 62
     5
 10
345.42152948196087
 20
1594.6250189737059
 30
0.0
 11
348.352080005272
 21
1583.674045476979
 31
0.0
  0
LINE
  5
1F3
  8
DETAIL
  6
CONTINUOUS
 62
     5
 10
348.352080005272
 20
1583.674045476979
 30
0.0
 11
350.58210525012322
 21
1572.551893428031
 31
0.0
  0
LINE
  5
1F4
  8
DETAIL
  6
CONTINUOUS
 62
     5
 10
350.58210525012322
 20
1572.551893428031
 30
0.0
 11
352.102224759656
 21
1561.3053474396979
 31
0.0
  0
LINE
  5
1F5
  8
DETAIL
  6
CONTINUOUS
 62
     5
 10
352.102224759656
 20
1561.3053474396979
 30
0.0
 11
352.9060442495047
 21
1549.9817153796989
 31
0.0
  0
LINE
  5
1F6
  8
DETAIL
  6
CONTINUOUS
 62
     5
 10
340.38378695364008
 20
1615.8300858848329
 30
0.0
 11
344.7047337730948
 21
1605.3587493570401
 31
0.0
  0
LINE
  5
1F7
  8
DETAIL
  6
CONTINUOUS
 62
     5
 10
344.7047337730948
 20
1605.3587493570401
 30
0.0
 11
348.34812226077003
 21
1594.6250189737059
 31
0.0
  0
LINE
  5
1F8
  8
DETAIL
  6
CONTINUOUS
 62
     5
 10
348.34812226077003
 20
1594.6250189737059
 30
0.0
 11
351.29862673862272
 21
1583.674045476979
 31
0.0
  0
LINE
  5
1F9
  8
DETAIL
  6
CONTINUOUS
 62
     5
 10
351.29862673862272
 20
1583.674045476979
 30
0.0
 11
353.5438361005381
 21
1572.551893428031
 31
0.0
  0
LINE
  5
1FA
  8
DETAIL
  6
CONTINUOUS
 62
     5
 10
353.5438361005381
 20
1572.551893428031
 30
0.0
 11
355.07430601877007
 21
1561.3053474396979
 31
0.0
  0
LINE
  5
1FB
  8
DETAIL
  6
CONTINUOUS
 62
     5
 10
355.07430601877007
 20
1561.3053474396979
 30
0.0
 11
355.88359867048968
 21
1549.9817153796989
 31
0.0
  0
LINE
  5
1FC
  8
DETAIL
  6
CONTINUOUS
 62
     5
 10
339.86268497356969
 20
1615.8300858848329
 30
0.0
 11
344.18363179303878
 21
1605.3587493570401
 31
0.0
  0
LINE
  5
1FD
  8
DETAIL
  6
CONTINUOUS
 62
     5
 10
344.18363179303878
 20
1605.3587493570401
 30
0.0
 11
347.8270202806998
 21
1594.6250189737059
 31
0.0
  0
LINE
  5
1FE
  8
DETAIL
  6
CONTINUOUS
 62
     5
 10
347.8270202806998
 20
1594.6250189737059
 30
0.0
 11
350.77752475856681
 21
1583.674045476979
 31
0.0
  0
LINE
  5
1FF
  8
DETAIL
  6
CONTINUOUS
 62
     5
 10
350.77752475856681
 20
1583.674045476979
 30
0.0
 11
353.02273412046583
 21
1572.551893428031
 31
0.0
  0
LINE
  5
200
  8
DETAIL
  6
CONTINUOUS
 62
     5
 10
353.02273412046583
 20
1572.551893428031
 30
0.0
 11
354.55320403871377
 21
1561.3053474396979
 31
0.0
  0
LINE
  5
201
  8
DETAIL
  6
CONTINUOUS
 62
     5
 10
354.55320403871377
 20
1561.3053474396979
 30
0.0
 11
355.36249669043627
 21
1549.9817153796989
 31
0.0
  0
LINE
  5
202
  8
DETAIL
  6
CONTINUOUS
 62
     5
 10
342.21788896343958
 20
1615.8300858848329
 30
0.0
 11
346.56279348823989
 21
1605.3587493570401
 31
0.0
  0
LINE
  5
203
  8
DETAIL
  6
CONTINUOUS
 62
     5
 10
346.56279348823989
 20
1605.3587493570401
 30
0.0
 11
350.22638292518099
 21
1594.6250189737059
 31
0.0
  0
LINE
  5
204
  8
DETAIL
  6
CONTINUOUS
 62
     5
 10
350.22638292518099
 20
1594.6250189737059
 30
0.0
 11
353.19324662235522
 21
1583.674045476979
 31
0.0
  0
LINE
  5
205
  8
DETAIL
  6
CONTINUOUS
 62
     5
 10
353.19324662235522
 20
1583.674045476979
 30
0.0
 11
355.45090465963591
 21
1572.551893428031
 31
0.0
  0
LINE
  5
206
  8
DETAIL
  6
CONTINUOUS
 62
     5
 10
355.45090465963591
 20
1572.551893428031
 30
0.0
 11
356.9898603446818
 21
1561.3053474396979
 31
0.0
  0
LINE
  5
207
  8
DETAIL
  6
CONTINUOUS
 62
     5
 10
356.9898603446818
 20
1561.3053474396979
 30
0.0
 11
357.80364015987283
 21
1549.9817153796989
 31
0.0
  0
LINE
  5
208
  8
DETAIL
  6
CONTINUOUS
 62
     5
 10
341.8002434721779
 20
1615.8300858848329
 30
0.0
 11
346.14514799697957
 21
1605.3587493570401
 31
0.0
  0
LINE
  5
209
  8
DETAIL
  6
CONTINUOUS
 62
     5
 10
346.14514799697957
 20
1605.3587493570401
 30
0.0
 11
349.8087374338138
 21
1594.6250189737059
 31
0.0
  0
LINE
  5
20A
  8
DETAIL
  6
CONTINUOUS
 62
     5
 10
349.8087374338138
 20
1594.6250189737059
 30
0.0
 11
352.77560113098917
 21
1583.674045476979
 31
0.0
  0
LINE
  5
20B
  8
DETAIL
  6
CONTINUOUS
 62
     5
 10
352.77560113098917
 20
1583.674045476979
 30
0.0
 11
355.0332591682689
 21
1572.551893428031
 31
0.0
  0
LINE
  5
20C
  8
DETAIL
  6
CONTINUOUS
 62
     5
 10
355.0332591682689
 20
1572.551893428031
 30
0.0
 11
356.57221485333167
 21
1561.3053474396979
 31
0.0
  0
LINE
  5
20D
  8
DETAIL
  6
CONTINUOUS
 62
     5
 10
356.57221485333167
 20
1561.3053474396979
 30
0.0
 11
357.38599466861382
 21
1549.9817153796989
 31
0.0
  0
LINE
  5
20E
  8
DETAIL
  6
CONTINUOUS
 62
     5
 10
343.63505119030373
 20
1615.8300858848329
 30
0.0
 11
347.99861982342549
 21
1605.3587493570401
 31
0.0
  0
LINE
  5
20F
  8
DETAIL
  6
CONTINUOUS
 62
     5
 10
347.99861982342549
 20
1605.3587493570401
 30
0.0
 11
351.67794669020799
 21
1594.6250189737059
 31
0.0
  0
LINE
  5
210
  8
DETAIL
  6
CONTINUOUS
 62
     5
 10
351.67794669020799
 20
1594.6250189737059
 30
0.0
 11
354.65755494034693
 21
1583.674045476979
 31
0.0
  0
LINE
  5
211
  8
DETAIL
  6
CONTINUOUS
 62
     5
 10
354.65755494034693
 20
1583.674045476979
 30
0.0
 11
356.92491104443519
 21
1572.551893428031
 31
0.0
  0
LINE
  5
212
  8
DETAIL
  6
CONTINUOUS
 62
     5
 10
356.92491104443519
 20
1572.551893428031
 30
0.0
 11
358.47047751578788
 21
1561.3053474396979
 31
0.0
  0
LINE
  5
213
  8
DETAIL
  6
CONTINUOUS
 62
     5
 10
358.47047751578788
 20
1561.3053474396979
 30
0.0
 11
359.28775302916711
 21
1549.9817153796989
 31
0.0
  0
LINE
  5
214
  8
DETAIL
  6
CONTINUOUS
 62
     5
 10
343.32137102439083
 20
1615.8300858848329
 30
0.0
 11
347.68493965751298
 21
1605.3587493570401
 31
0.0
  0
LINE
  5
215
  8
DETAIL
  6
CONTINUOUS
 62
     5
 10
347.68493965751298
 20
1605.3587493570401
 30
0.0
 11
351.36426652429458
 21
1594.6250189737059
 31
0.0
  0
LINE
  5
216
  8
DETAIL
  6
CONTINUOUS
 62
     5
 10
351.36426652429458
 20
1594.6250189737059
 30
0.0
 11
354.34387477443261
 21
1583.674045476979
 31
0.0
  0
LINE
  5
217
  8
DETAIL
  6
CONTINUOUS
 62
     5
 10
354.34387477443261
 20
1583.674045476979
 30
0.0
 11
356.61123087851951
 21
1572.551893428031
 31
0.0
  0
LINE
  5
218
  8
DETAIL
  6
CONTINUOUS
 62
     5
 10
356.61123087851951
 20
1572.551893428031
 30
0.0
 11
358.15679734987538
 21
1561.3053474396979
 31
0.0
  0
LINE
  5
219
  8
DETAIL
  6
CONTINUOUS
 62
     5
 10
358.15679734987538
 20
1561.3053474396979
 30
0.0
 11
358.97407286325091
 21
1549.9817153796989
 31
0.0
  0
LINE
  5
21A
  8
DETAIL
  6
CONTINUOUS
 62
     5
 10
344.63354704016092
 20
1615.8300858848329
 30
0.0
 11
349.01046344551088
 21
1605.3587493570401
 31
0.0
  0
LINE
  5
21B
  8
DETAIL
  6
CONTINUOUS
 62
     5
 10
349.01046344551088
 20
1605.3587493570401
 30
0.0
 11
352.701045049122
 21
1594.6250189737059
 31
0.0
  0
LINE
  5
21C
  8
DETAIL
  6
CONTINUOUS
 62
     5
 10
352.701045049122
 20
1594.6250189737059
 30
0.0
 11
355.68976765840301
 21
1583.674045476979
 31
0.0
  0
LINE
  5
21D
  8
DETAIL
  6
CONTINUOUS
 62
     5
 10
355.68976765840301
 20
1583.674045476979
 30
0.0
 11
357.96405940513517
 21
1572.551893428031
 31
0.0
  0
LINE
  5
21E
  8
DETAIL
  6
CONTINUOUS
 62
     5
 10
357.96405940513517
 20
1572.551893428031
 30
0.0
 11
359.51435362823759
 21
1561.3053474396979
 31
0.0
  0
LINE
  5
21F
  8
DETAIL
  6
CONTINUOUS
 62
     5
 10
359.51435362823759
 20
1561.3053474396979
 30
0.0
 11
360.3341291154756
 21
1549.9817153796989
 31
0.0
  0
LINE
  5
220
  8
DETAIL
  6
CONTINUOUS
 62
     5
 10
344.42421437065781
 20
1615.8300858848329
 30
0.0
 11
348.80113077590289
 21
1605.3587493570401
 31
0.0
  0
LINE
  5
221
  8
DETAIL
  6
CONTINUOUS
 62
     5
 10
348.80113077590289
 20
1605.3587493570401
 30
0.0
 11
352.4917123796331
 21
1594.6250189737059
 31
0.0
  0
LINE
  5
222
  8
DETAIL
  6
CONTINUOUS
 62
     5
 10
352.4917123796331
 20
1594.6250189737059
 30
0.0
 11
355.48043498890002
 21
1583.674045476979
 31
0.0
  0
LINE
  5
223
  8
DETAIL
  6
CONTINUOUS
 62
     5
 10
355.48043498890002
 20
1583.674045476979
 30
0.0
 11
357.75472673564889
 21
1572.551893428031
 31
0.0
  0
LINE
  5
224
  8
DETAIL
  6
CONTINUOUS
 62
     5
 10
357.75472673564889
 20
1572.551893428031
 30
0.0
 11
359.30502095874908
 21
1561.3053474396979
 31
0.0
  0
LINE
  5
225
  8
DETAIL
  6
CONTINUOUS
 62
     5
 10
359.30502095874908
 20
1561.3053474396979
 30
0.0
 11
360.12479644597261
 21
1549.9817153796989
 31
0.0
  0
LINE
  5
226
  8
DETAIL
  6
CONTINUOUS
 62
     5
 10
345.21215999963169
 20
1615.8300858848329
 30
0.0
 11
349.59709157871521
 21
1605.3587493570401
 31
0.0
  0
LINE
  5
227
  8
DETAIL
  6
CONTINUOUS
 62
     5
 10
349.59709157871521
 20
1605.3587493570401
 30
0.0
 11
353.29443151400108
 21
1594.6250189737059
 31
0.0
  0
LINE
  5
228
  8
DETAIL
  6
CONTINUOUS
 62
     5
 10
353.29443151400108
 20
1594.6250189737059
 30
0.0
 11
356.2886271844277
 21
1583.674045476979
 31
0.0
  0
LINE
  5
229
  8
DETAIL
  6
CONTINUOUS
 62
     5
 10
356.2886271844277
 20
1583.674045476979
 30
0.0
 11
358.5670836996282
 21
1572.551893428031
 31
0.0
  0
LINE
  5
22A
  8
DETAIL
  6
CONTINUOUS
 62
     5
 10
358.5670836996282
 20
1572.551893428031
 30
0.0
 11
360.12021687980081
 21
1561.3053474396979
 31
0.0
  0
LINE
  5
22B
  8
DETAIL
  6
CONTINUOUS
 62
     5
 10
360.12021687980081
 20
1561.3053474396979
 30
0.0
 11
360.9414935705945
 21
1549.9817153796989
 31
0.0
  0
LINE
  5
22C
  8
DETAIL
  6
CONTINUOUS
 62
     5
 10
345.10742986611598
 20
1615.8300858848329
 30
0.0
 11
349.49236144517999
 21
1605.3587493570401
 31
0.0
  0
LINE
  5
22D
  8
DETAIL
  6
CONTINUOUS
 62
     5
 10
349.49236144517999
 20
1605.3587493570401
 30
0.0
 11
353.18970138048309
 21
1594.6250189737059
 31
0.0
  0
LINE
  5
22E
  8
DETAIL
  6
CONTINUOUS
 62
     5
 10
353.18970138048309
 20
1594.6250189737059
 30
0.0
 11
356.1838970509092
 21
1583.674045476979
 31
0.0
  0
LINE
  5
22F
  8
DETAIL
  6
CONTINUOUS
 62
     5
 10
356.1838970509092
 20
1583.674045476979
 30
0.0
 11
358.4623535660939
 21
1572.551893428031
 31
0.0
  0
LINE
  5
230
  8
DETAIL
  6
CONTINUOUS
 62
     5
 10
358.4623535660939
 20
1572.551893428031
 30
0.0
 11
360.01548674626611
 21
1561.3053474396979
 31
0.0
  0
LINE
  5
231
  8
DETAIL
  6
CONTINUOUS
 62
     5
 10
360.01548674626611
 20
1561.3053474396979
 30
0.0
 11
360.83676343707702
 21
1549.9817153796989
 31
0.0
  0
LINE
  5
261
  8
DETAIL
  6
CONTINUOUS
 62
     5
 10
328.32941970355063
 20
1572.551893428031
 30
0.0
 11
329.74914232203122
 21
1561.3053474396979
 31
0.0
  0
LINE
  5
262
  8
DETAIL
  6
CONTINUOUS
 62
     5
 10
329.74914232203122
 20
1561.3053474396979
 30
0.0
 11
330.499873237457
 21
1549.9817153796989
 31
0.0
  0
LINE
  5
267
  8
DETAIL
  6
CONTINUOUS
 62
     5
 10
327.10884098562423
 20
1572.551893428031
 30
0.0
 11
328.52856360410078
 21
1561.3053474396979
 31
0.0
  0
LINE
  5
268
  8
DETAIL
  6
CONTINUOUS
 62
     5
 10
328.52856360410078
 20
1561.3053474396979
 30
0.0
 11
329.27929451952917
 21
1549.9817153796989
 31
0.0
  0
LINE
  5
26B
  8
DETAIL
  6
CONTINUOUS
 62
     5
 10
327.15789920180077
 20
1594.6250189737059
 30
0.0
 11
329.93576128335172
 21
1583.674045476979
 31
0.0
  0
LINE
  5
26C
  8
DETAIL
  6
CONTINUOUS
 62
     5
 10
329.93576128335172
 20
1583.674045476979
 30
0.0
 11
332.04959706922273
 21
1572.551893428031
 31
0.0
  0
LINE
  5
26D
  8
DETAIL
  6
CONTINUOUS
 62
     5
 10
332.04959706922273
 20
1572.551893428031
 30
0.0
 11
333.49051484603791
 21
1561.3053474396979
 31
0.0
  0
LINE
  5
26E
  8
DETAIL
  6
CONTINUOUS
 62
     5
 10
333.49051484603791
 20
1561.3053474396979
 30
0.0
 11
334.25245348640601
 21
1549.9817153796989
 31
0.0
  0
LINE
  5
26F
  8
DETAIL
  6
CONTINUOUS
 62
     5
 10
346.22820693982112
 20
1583.674045476979
 30
0.0
 11
348.4403311252849
 21
1572.551893428031
 31
0.0
  0
LINE
  5
270
  8
DETAIL
  6
CONTINUOUS
 62
     5
 10
348.4403311252849
 20
1572.551893428031
 30
0.0
 11
349.94824819465379
 21
1561.3053474396979
 31
0.0
  0
LINE
  5
271
  8
DETAIL
  6
CONTINUOUS
 62
     5
 10
349.94824819465379
 20
1561.3053474396979
 30
0.0
 11
350.7456151923252
 21
1549.9817153796989
 31
0.0
  0
LINE
  5
272
  8
DETAIL
  6
CONTINUOUS
 62
     5
 10
361.10910641456888
 20
1549.9817153796989
 30
0.0
 11
360.12479644597261
 21
1549.9817153796989
 31
0.0
  0
LINE
  5
273
  8
DETAIL
  6
CONTINUOUS
 62
     5
 10
360.06000101152091
 20
1549.9817153796989
 30
0.0
 11
358.97407286325091
 21
1549.9817153796989
 31
0.0
  0
LINE
  5
274
  8
DETAIL
  6
CONTINUOUS
 62
     5
 10
358.94281502303829
 20
1549.9817153796989
 30
0.0
 11
357.38599466861382
 21
1549.9817153796989
 31
0.0
  0
LINE
  5
275
  8
DETAIL
  6
CONTINUOUS
 62
     5
 10
357.36316862008277
 20
1549.9817153796989
 30
0.0
 11
342.9715031645373
 21
1549.9817153796989
 31
0.0
  0
LINE
  5
276
  8
DETAIL
  6
CONTINUOUS
 62
     5
 10
342.9416114418791
 20
1549.9817153796989
 30
0.0
 11
338.81837732633892
 21
1549.9817153796989
 31
0.0
  0
LINE
  5
27C
  8
DETAIL
  6
CONTINUOUS
 62
     5
 10
322.05903580726959
 20
1635.810678399665
 30
0.0
 11
327.5434576528973
 21
1625.9949815576169
 31
0.0
  0
LINE
  5
27D
  8
DETAIL
  6
CONTINUOUS
 62
     5
 10
321.23187381896088
 20
1635.810678399665
 30
0.0
 11
326.71629566459018
 21
1625.9949815576169
 31
0.0
  0
LINE
  5
27E
  8
DETAIL
  6
CONTINUOUS
 62
     5
 10
325.03130240778182
 20
1635.810678399665
 30
0.0
 11
330.56726738009309
 21
1625.9949815576169
 31
0.0
  0
LINE
  5
27F
  8
DETAIL
  6
CONTINUOUS
 62
     5
 10
324.30531737004492
 20
1635.810678399665
 30
0.0
 11
329.84128234233918
 21
1625.9949815576169
 31
0.0
  0
LINE
  5
280
  8
DETAIL
  6
CONTINUOUS
 62
     5
 10
327.60756843359599
 20
1635.810678399665
 30
0.0
 11
333.18833181200159
 21
1625.9949815576169
 31
0.0
  0
LINE
  5
281
  8
DETAIL
  6
CONTINUOUS
 62
     5
 10
326.98364484735561
 20
1635.810678399665
 30
0.0
 11
332.56440822565901
 21
1625.9949815576169
 31
0.0
  0
LINE
  5
282
  8
DETAIL
  6
CONTINUOUS
 62
     5
 10
329.78469510133391
 20
1635.810678399665
 30
0.0
 11
335.4034575852815
 21
1625.9949815576169
 31
0.0
  0
LINE
  5
283
  8
DETAIL
  6
CONTINUOUS
 62
     5
 10
329.263593121263
 20
1635.810678399665
 30
0.0
 11
334.8823556052098
 21
1625.9949815576169
 31
0.0
  0
LINE
  5
284
  8
DETAIL
  6
CONTINUOUS
 62
     5
 10
331.56002991755707
 20
1635.810678399665
 30
0.0
 11
337.2099459105101
 21
1625.9949815576169
 31
0.0
  0
LINE
  5
285
  8
DETAIL
  6
CONTINUOUS
 62
     5
 10
331.14238442620263
 20
1635.810678399665
 30
0.0
 11
336.79230041915793
 21
1625.9949815576169
 31
0.0
  0
LINE
  5
286
  8
DETAIL
  6
CONTINUOUS
 62
     5
 10
332.93140991026712
 20
1635.810678399665
 30
0.0
 11
338.60559585980388
 21
1625.9949815576169
 31
0.0
  0
LINE
  5
287
  8
DETAIL
  6
CONTINUOUS
 62
     5
 10
332.61772974435399
 20
1635.810678399665
 30
0.0
 11
338.29191569389189
 21
1625.9949815576169
 31
0.0
  0
LINE
  5
288
  8
DETAIL
  6
CONTINUOUS
 62
     5
 10
333.89716426412679
 20
1635.810678399665
 30
0.0
 11
339.5887070486919
 21
1625.9949815576169
 31
0.0
  0
LINE
  5
289
  8
DETAIL
  6
CONTINUOUS
 62
     5
 10
333.68783159451817
 20
1635.810678399665
 30
0.0
 11
339.3793743791893
 21
1625.9949815576169
 31
0.0
  0
LINE
  5
28A
  8
DETAIL
  6
CONTINUOUS
 62
     5
 10
334.4561163562102
 20
1635.810678399665
 30
0.0
 11
340.15808170778968
 21
1625.9949815576169
 31
0.0
  0
LINE
  5
28B
  8
DETAIL
  6
CONTINUOUS
 62
     5
 10
334.35138622269369
 20
1635.810678399665
 30
0.0
 11
340.05335157425679
 21
1625.9949815576169
 31
0.0
  0
LINE
  5
291
  8
DETAIL
  6
CONTINUOUS
 62
     5
 10
320.09671482737389
 20
1641.609399999121
 30
0.0
 11
320.09671482737389
 21
1640.509067671954
 31
0.0
  0
LINE
  5
292
  8
DETAIL
  6
CONTINUOUS
 62
     5
 10
300.09067015062777
 20
1642.3096115628271
 30
0.0
 11
300.09067015062777
 21
1641.609399999121
 31
0.0
  0
LINE
  5
294
  8
DETAIL
  6
CONTINUOUS
 62
     5
 10
300.91990178316013
 20
1639.7008899113771
 30
0.0
 11
302.53476204341888
 21
1638.7215691891599
 31
0.0
  0
LINE
  5
295
  8
DETAIL
  6
CONTINUOUS
 62
     5
 10
302.53476204341888
 20
1638.7215691891599
 30
0.0
 11
303.93685273562772
 21
1637.4069474192329
 31
0.0
  0
LINE
  5
297
  8
DETAIL
  6
CONTINUOUS
 62
     5
 10
300.3787581361612
 20
1640.3049404655339
 30
0.0
 11
302.14048050110381
 21
1639.7008899113771
 31
0.0
  0
LINE
  5
298
  8
DETAIL
  6
CONTINUOUS
 62
     5
 10
302.14048050110381
 20
1639.7008899113771
 30
0.0
 11
303.75534076134898
 21
1638.7215691891599
 31
0.0
  0
LINE
  5
299
  8
DETAIL
  6
CONTINUOUS
 62
     5
 10
303.75534076134898
 20
1638.7215691891599
 30
0.0
 11
305.15743145366332
 21
1637.4069474192329
 31
0.0
  0
LINE
  5
29B
  8
DETAIL
  6
CONTINUOUS
 62
     5
 10
301.81755462186311
 20
1640.509067671954
 30
0.0
 11
303.68165772597098
 21
1640.3049404655339
 31
0.0
  0
LINE
  5
29C
  8
DETAIL
  6
CONTINUOUS
 62
     5
 10
303.68165772597098
 20
1640.3049404655339
 30
0.0
 11
305.46968099221482
 21
1639.7008899113771
 31
0.0
  0
LINE
  5
29D
  8
DETAIL
  6
CONTINUOUS
 62
     5
 10
305.46968099221482
 20
1639.7008899113771
 30
0.0
 11
307.10864963693888
 21
1638.7215691891599
 31
0.0
  0
LINE
  5
29E
  8
DETAIL
  6
CONTINUOUS
 62
     5
 10
307.10864963693888
 20
1638.7215691891599
 30
0.0
 11
308.53167225907322
 21
1637.4069474192329
 31
0.0
  0
LINE
  5
2A0
  8
DETAIL
  6
CONTINUOUS
 62
     5
 10
302.9417140584232
 20
1640.509067671954
 30
0.0
 11
304.80581716263748
 21
1640.3049404655339
 31
0.0
  0
LINE
  5
2A1
  8
DETAIL
  6
CONTINUOUS
 62
     5
 10
304.80581716263748
 20
1640.3049404655339
 30
0.0
 11
306.59384042878992
 21
1639.7008899113771
 31
0.0
  0
LINE
  5
2A2
  8
DETAIL
  6
CONTINUOUS
 62
     5
 10
306.59384042878992
 20
1639.7008899113771
 30
0.0
 11
308.23280907360493
 21
1638.7215691891599
 31
0.0
  0
LINE
  5
2A3
  8
DETAIL
  6
CONTINUOUS
 62
     5
 10
308.23280907360493
 20
1638.7215691891599
 30
0.0
 11
309.65583169563251
 21
1637.4069474192329
 31
0.0
  0
LINE
  5
2A5
  8
DETAIL
  6
CONTINUOUS
 62
     5
 10
305.94589473423508
 20
1640.509067671954
 30
0.0
 11
307.83514671239072
 21
1640.3049404655339
 31
0.0
  0
LINE
  5
2A6
  8
DETAIL
  6
CONTINUOUS
 62
     5
 10
307.83514671239072
 20
1640.3049404655339
 30
0.0
 11
309.64729244886212
 21
1639.7008899113771
 31
0.0
  0
LINE
  5
2A7
  8
DETAIL
  6
CONTINUOUS
 62
     5
 10
309.64729244886212
 20
1639.7008899113771
 30
0.0
 11
311.30837264741598
 21
1638.7215691891599
 31
0.0
  0
LINE
  5
2A8
  8
DETAIL
  6
CONTINUOUS
 62
     5
 10
311.30837264741598
 20
1638.7215691891599
 30
0.0
 11
312.75059346545828
 21
1637.4069474192329
 31
0.0
  0
LINE
  5
2AA
  8
DETAIL
  6
CONTINUOUS
 62
     5
 10
306.97226527432161
 20
1640.509067671954
 30
0.0
 11
308.86151725246191
 21
1640.3049404655339
 31
0.0
  0
LINE
  5
2AB
  8
DETAIL
  6
CONTINUOUS
 62
     5
 10
308.86151725246191
 20
1640.3049404655339
 30
0.0
 11
310.67366298905512
 21
1639.7008899113771
 31
0.0
  0
LINE
  5
2AC
  8
DETAIL
  6
CONTINUOUS
 62
     5
 10
310.67366298905512
 20
1639.7008899113771
 30
0.0
 11
312.3347431876104
 21
1638.7215691891599
 31
0.0
  0
LINE
  5
2AD
  8
DETAIL
  6
CONTINUOUS
 62
     5
 10
312.3347431876104
 20
1638.7215691891599
 30
0.0
 11
313.77696400563798
 21
1637.4069474192329
 31
0.0
  0
LINE
  5
2AF
  8
DETAIL
  6
CONTINUOUS
 62
     5
 10
309.70148690121999
 20
1640.509067671954
 30
0.0
 11
311.61358599085901
 21
1640.3049404655339
 31
0.0
  0
LINE
  5
2B0
  8
DETAIL
  6
CONTINUOUS
 62
     5
 10
311.61358599085901
 20
1640.3049404655339
 30
0.0
 11
313.44764637727388
 21
1639.7008899113771
 31
0.0
  0
LINE
  5
2B1
  8
DETAIL
  6
CONTINUOUS
 62
     5
 10
313.44764637727388
 20
1639.7008899113771
 30
0.0
 11
315.1288143592032
 21
1638.7215691891599
 31
0.0
  0
LINE
  5
2B2
  8
DETAIL
  6
CONTINUOUS
 62
     5
 10
315.1288143592032
 20
1638.7215691891599
 30
0.0
 11
316.58847624921918
 21
1637.4069474192329
 31
0.0
  0
LINE
  5
2B4
  8
DETAIL
  6
CONTINUOUS
 62
     5
 10
310.62881807048689
 20
1640.509067671954
 30
0.0
 11
312.54091716012488
 21
1640.3049404655339
 31
0.0
  0
LINE
  5
2B5
  8
DETAIL
  6
CONTINUOUS
 62
     5
 10
312.54091716012488
 20
1640.3049404655339
 30
0.0
 11
314.37497754655482
 21
1639.7008899113771
 31
0.0
  0
LINE
  5
2B6
  8
DETAIL
  6
CONTINUOUS
 62
     5
 10
314.37497754655482
 20
1639.7008899113771
 30
0.0
 11
316.05614552848419
 21
1638.7215691891599
 31
0.0
  0
LINE
  5
2B7
  8
DETAIL
  6
CONTINUOUS
 62
     5
 10
316.05614552848419
 20
1638.7215691891599
 30
0.0
 11
317.51580741850188
 21
1637.4069474192329
 31
0.0
  0
LINE
  5
2B9
  8
DETAIL
  6
CONTINUOUS
 62
     5
 10
313.07975551230669
 20
1640.509067671954
 30
0.0
 11
315.01237211514677
 21
1640.3049404655339
 31
0.0
  0
LINE
  5
2BA
  8
DETAIL
  6
CONTINUOUS
 62
     5
 10
315.01237211514677
 20
1640.3049404655339
 30
0.0
 11
316.86611263148768
 21
1639.7008899113771
 31
0.0
  0
LINE
  5
2BB
  8
DETAIL
  6
CONTINUOUS
 62
     5
 10
316.86611263148768
 20
1639.7008899113771
 30
0.0
 11
318.56532015251651
 21
1638.7215691891599
 31
0.0
  0
LINE
  5
2BC
  8
DETAIL
  6
CONTINUOUS
 62
     5
 10
318.56532015251651
 20
1638.7215691891599
 30
0.0
 11
320.04064474141381
 21
1637.4069474192329
 31
0.0
  0
LINE
  5
2BD
  8
DETAIL
  6
CONTINUOUS
 62
     5
 10
320.04064474141381
 20
1637.4069474192329
 30
0.0
 11
321.23187381896088
 21
1635.810678399665
 31
0.0
  0
LINE
  5
2BE
  8
DETAIL
  6
CONTINUOUS
 62
     5
 10
313.90691750051019
 20
1640.509067671954
 30
0.0
 11
315.83953410345612
 21
1640.3049404655339
 31
0.0
  0
LINE
  5
2BF
  8
DETAIL
  6
CONTINUOUS
 62
     5
 10
315.83953410345612
 20
1640.3049404655339
 30
0.0
 11
317.69327461968891
 21
1639.7008899113771
 31
0.0
  0
LINE
  5
2C0
  8
DETAIL
  6
CONTINUOUS
 62
     5
 10
317.69327461968891
 20
1639.7008899113771
 30
0.0
 11
319.3924821408263
 21
1638.7215691891599
 31
0.0
  0
LINE
  5
2C1
  8
DETAIL
  6
CONTINUOUS
 62
     5
 10
319.3924821408263
 20
1638.7215691891599
 30
0.0
 11
320.86780672972202
 21
1637.4069474192329
 31
0.0
  0
LINE
  5
2C2
  8
DETAIL
  6
CONTINUOUS
 62
     5
 10
320.86780672972202
 20
1637.4069474192329
 30
0.0
 11
322.05903580726959
 21
1635.810678399665
 31
0.0
  0
LINE
  5
2C3
  8
DETAIL
  6
CONTINUOUS
 62
     5
 10
316.0765846675103
 20
1640.509067671954
 30
0.0
 11
318.02736418805227
 21
1640.3049404655339
 31
0.0
  0
LINE
  5
2C4
  8
DETAIL
  6
CONTINUOUS
 62
     5
 10
318.02736418805227
 20
1640.3049404655339
 30
0.0
 11
319.89852633689168
 21
1639.7008899113771
 31
0.0
  0
LINE
  5
2C5
  8
DETAIL
  6
CONTINUOUS
 62
     5
 10
319.89852633689168
 20
1639.7008899113771
 30
0.0
 11
321.6137031745497
 21
1638.7215691891599
 31
0.0
  0
LINE
  5
2C6
  8
DETAIL
  6
CONTINUOUS
 62
     5
 10
321.6137031745497
 20
1638.7215691891599
 30
0.0
 11
323.10289300651903
 21
1637.4069474192329
 31
0.0
  0
LINE
  5
2C7
  8
DETAIL
  6
CONTINUOUS
 62
     5
 10
323.10289300651903
 20
1637.4069474192329
 30
0.0
 11
324.30531737004492
 21
1635.810678399665
 31
0.0
  0
LINE
  5
2C8
  8
DETAIL
  6
CONTINUOUS
 62
     5
 10
316.80256970526392
 20
1640.509067671954
 30
0.0
 11
318.75334922580481
 21
1640.3049404655339
 31
0.0
  0
LINE
  5
2C9
  8
DETAIL
  6
CONTINUOUS
 62
     5
 10
318.75334922580481
 20
1640.3049404655339
 30
0.0
 11
320.62451137464541
 21
1639.7008899113771
 31
0.0
  0
LINE
  5
2CA
  8
DETAIL
  6
CONTINUOUS
 62
     5
 10
320.62451137464541
 20
1639.7008899113771
 30
0.0
 11
322.339688212287
 21
1638.7215691891599
 31
0.0
  0
LINE
  5
2CB
  8
DETAIL
  6
CONTINUOUS
 62
     5
 10
322.339688212287
 20
1638.7215691891599
 30
0.0
 11
323.82887804425712
 21
1637.4069474192329
 31
0.0
  0
LINE
  5
2CC
  8
DETAIL
  6
CONTINUOUS
 62
     5
 10
323.82887804425712
 20
1637.4069474192329
 30
0.0
 11
325.03130240778182
 21
1635.810678399665
 31
0.0
  0
LINE
  5
2CD
  8
DETAIL
  6
CONTINUOUS
 62
     5
 10
318.68832319216421
 20
1640.509067671954
 30
0.0
 11
320.65488890598408
 21
1640.3049404655339
 31
0.0
  0
LINE
  5
2CE
  8
DETAIL
  6
CONTINUOUS
 62
     5
 10
320.65488890598408
 20
1640.3049404655339
 30
0.0
 11
322.54119296455468
 21
1639.7008899113771
 31
0.0
  0
LINE
  5
2CF
  8
DETAIL
  6
CONTINUOUS
 62
     5
 10
322.54119296455468
 20
1639.7008899113771
 30
0.0
 11
324.27024943993092
 21
1638.7215691891599
 31
0.0
  0
LINE
  5
2D0
  8
DETAIL
  6
CONTINUOUS
 62
     5
 10
324.27024943993092
 20
1638.7215691891599
 30
0.0
 11
325.77149016658632
 21
1637.4069474192329
 31
0.0
  0
LINE
  5
2D1
  8
DETAIL
  6
CONTINUOUS
 62
     5
 10
325.77149016658632
 20
1637.4069474192329
 30
0.0
 11
326.98364484735561
 21
1635.810678399665
 31
0.0
  0
LINE
  5
2D2
  8
DETAIL
  6
CONTINUOUS
 62
     5
 10
319.31224677841601
 20
1640.509067671954
 30
0.0
 11
321.27881249232809
 21
1640.3049404655339
 31
0.0
  0
LINE
  5
2D3
  8
DETAIL
  6
CONTINUOUS
 62
     5
 10
321.27881249232809
 20
1640.3049404655339
 30
0.0
 11
323.1651165508988
 21
1639.7008899113771
 31
0.0
  0
LINE
  5
2D4
  8
DETAIL
  6
CONTINUOUS
 62
     5
 10
323.1651165508988
 20
1639.7008899113771
 30
0.0
 11
324.89417302627402
 21
1638.7215691891599
 31
0.0
  0
LINE
  5
2D5
  8
DETAIL
  6
CONTINUOUS
 62
     5
 10
324.89417302627402
 20
1638.7215691891599
 30
0.0
 11
326.39541375293311
 21
1637.4069474192329
 31
0.0
  0
LINE
  5
2D6
  8
DETAIL
  6
CONTINUOUS
 62
     5
 10
326.39541375293311
 20
1637.4069474192329
 30
0.0
 11
327.60756843359599
 21
1635.810678399665
 31
0.0
  0
LINE
  5
2D7
  8
DETAIL
  6
CONTINUOUS
 62
     5
 10
320.91178908515161
 20
1640.509067671954
 30
0.0
 11
322.89174503493581
 21
1640.3049404655339
 31
0.0
  0
LINE
  5
2D8
  8
DETAIL
  6
CONTINUOUS
 62
     5
 10
322.89174503493581
 20
1640.3049404655339
 30
0.0
 11
324.79089283232719
 21
1639.7008899113771
 31
0.0
  0
LINE
  5
2D9
  8
DETAIL
  6
CONTINUOUS
 62
     5
 10
324.79089283232719
 20
1639.7008899113771
 30
0.0
 11
326.5317223564565
 21
1638.7215691891599
 31
0.0
  0
LINE
  5
2DA
  8
DETAIL
  6
CONTINUOUS
 62
     5
 10
326.5317223564565
 20
1638.7215691891599
 30
0.0
 11
328.0431849471629
 21
1637.4069474192329
 31
0.0
  0
LINE
  5
2DB
  8
DETAIL
  6
CONTINUOUS
 62
     5
 10
328.0431849471629
 20
1637.4069474192329
 30
0.0
 11
329.263593121263
 21
1635.810678399665
 31
0.0
  0
LINE
  5
2DC
  8
DETAIL
  6
CONTINUOUS
 62
     5
 10
321.43289106522201
 20
1640.509067671954
 30
0.0
 11
323.41284701499171
 21
1640.3049404655339
 31
0.0
  0
LINE
  5
2DD
  8
DETAIL
  6
CONTINUOUS
 62
     5
 10
323.41284701499171
 20
1640.3049404655339
 30
0.0
 11
325.31199481239719
 21
1639.7008899113771
 31
0.0
  0
LINE
  5
2DE
  8
DETAIL
  6
CONTINUOUS
 62
     5
 10
325.31199481239719
 20
1639.7008899113771
 30
0.0
 11
327.0528243365124
 21
1638.7215691891599
 31
0.0
  0
LINE
  5
2DF
  8
DETAIL
  6
CONTINUOUS
 62
     5
 10
327.0528243365124
 20
1638.7215691891599
 30
0.0
 11
328.56428692723421
 21
1637.4069474192329
 31
0.0
  0
LINE
  5
2E0
  8
DETAIL
  6
CONTINUOUS
 62
     5
 10
328.56428692723421
 20
1637.4069474192329
 30
0.0
 11
329.78469510133391
 21
1635.810678399665
 31
0.0
  0
LINE
  5
2E1
  8
DETAIL
  6
CONTINUOUS
 62
     5
 10
322.74427339588459
 20
1640.509067671954
 30
0.0
 11
324.73520731017021
 21
1640.3049404655339
 31
0.0
  0
LINE
  5
2E2
  8
DETAIL
  6
CONTINUOUS
 62
     5
 10
324.73520731017021
 20
1640.3049404655339
 30
0.0
 11
326.64488502730819
 21
1639.7008899113771
 31
0.0
  0
LINE
  5
2E3
  8
DETAIL
  6
CONTINUOUS
 62
     5
 10
326.64488502730819
 20
1639.7008899113771
 30
0.0
 11
328.395366667632
 21
1638.7215691891599
 31
0.0
  0
LINE
  5
2E4
  8
DETAIL
  6
CONTINUOUS
 62
     5
 10
328.395366667632
 20
1638.7215691891599
 30
0.0
 11
329.91520963812582
 21
1637.4069474192329
 31
0.0
  0
LINE
  5
2E5
  8
DETAIL
  6
CONTINUOUS
 62
     5
 10
329.91520963812582
 20
1637.4069474192329
 30
0.0
 11
331.14238442620263
 21
1635.810678399665
 31
0.0
  0
LINE
  5
2E6
  8
DETAIL
  6
CONTINUOUS
 62
     5
 10
323.1619188872391
 20
1640.509067671954
 30
0.0
 11
325.15285280153739
 21
1640.3049404655339
 31
0.0
  0
LINE
  5
2E7
  8
DETAIL
  6
CONTINUOUS
 62
     5
 10
325.15285280153739
 20
1640.3049404655339
 30
0.0
 11
327.062530518659
 21
1639.7008899113771
 31
0.0
  0
LINE
  5
2E8
  8
DETAIL
  6
CONTINUOUS
 62
     5
 10
327.062530518659
 20
1639.7008899113771
 30
0.0
 11
328.81301215889317
 21
1638.7215691891599
 31
0.0
  0
LINE
  5
2E9
  8
DETAIL
  6
CONTINUOUS
 62
     5
 10
328.81301215889317
 20
1638.7215691891599
 30
0.0
 11
330.33285512947981
 21
1637.4069474192329
 31
0.0
  0
LINE
  5
2EA
  8
DETAIL
  6
CONTINUOUS
 62
     5
 10
330.33285512947981
 20
1637.4069474192329
 30
0.0
 11
331.56002991755707
 21
1635.810678399665
 31
0.0
  0
LINE
  5
2EB
  8
DETAIL
  6
CONTINUOUS
 62
     5
 10
324.18354352438701
 20
1640.509067671954
 30
0.0
 11
326.18302975699362
 21
1640.3049404655339
 31
0.0
  0
LINE
  5
2EC
  8
DETAIL
  6
CONTINUOUS
 62
     5
 10
326.18302975699362
 20
1640.3049404655339
 30
0.0
 11
328.10091074567981
 21
1639.7008899113771
 31
0.0
  0
LINE
  5
2ED
  8
DETAIL
  6
CONTINUOUS
 62
     5
 10
328.10091074567981
 20
1639.7008899113771
 30
0.0
 11
329.8589118099589
 21
1638.7215691891599
 31
0.0
  0
LINE
  5
2EE
  8
DETAIL
  6
CONTINUOUS
 62
     5
 10
329.8589118099589
 20
1638.7215691891599
 30
0.0
 11
331.38528346563498
 21
1637.4069474192329
 31
0.0
  0
LINE
  5
2EF
  8
DETAIL
  6
CONTINUOUS
 62
     5
 10
331.38528346563498
 20
1637.4069474192329
 30
0.0
 11
332.61772974435399
 21
1635.810678399665
 31
0.0
  0
LINE
  5
2F0
  8
DETAIL
  6
CONTINUOUS
 62
     5
 10
324.4972236902999
 20
1640.509067671954
 30
0.0
 11
326.49670992290697
 21
1640.3049404655339
 31
0.0
  0
LINE
  5
2F1
  8
DETAIL
  6
CONTINUOUS
 62
     5
 10
326.49670992290697
 20
1640.3049404655339
 30
0.0
 11
328.41459091159408
 21
1639.7008899113771
 31
0.0
  0
LINE
  5
2F2
  8
DETAIL
  6
CONTINUOUS
 62
     5
 10
328.41459091159408
 20
1639.7008899113771
 30
0.0
 11
330.17259197587191
 21
1638.7215691891599
 31
0.0
  0
LINE
  5
2F3
  8
DETAIL
  6
CONTINUOUS
 62
     5
 10
330.17259197587191
 20
1638.7215691891599
 30
0.0
 11
331.69896363154879
 21
1637.4069474192329
 31
0.0
  0
LINE
  5
2F4
  8
DETAIL
  6
CONTINUOUS
 62
     5
 10
331.69896363154879
 20
1637.4069474192329
 30
0.0
 11
332.93140991026712
 21
1635.810678399665
 31
0.0
  0
LINE
  5
2F5
  8
DETAIL
  6
CONTINUOUS
 62
     5
 10
325.22784594174482
 20
1640.509067671954
 30
0.0
 11
327.23344842662522
 21
1640.3049404655339
 31
0.0
  0
LINE
  5
2F6
  8
DETAIL
  6
CONTINUOUS
 62
     5
 10
327.23344842662522
 20
1640.3049404655339
 30
0.0
 11
329.15719604438391
 21
1639.7008899113771
 31
0.0
  0
LINE
  5
2F7
  8
DETAIL
  6
CONTINUOUS
 62
     5
 10
329.15719604438391
 20
1639.7008899113771
 30
0.0
 11
330.92057467904249
 21
1638.7215691891599
 31
0.0
  0
LINE
  5
2F8
  8
DETAIL
  6
CONTINUOUS
 62
     5
 10
330.92057467904249
 20
1638.7215691891599
 30
0.0
 11
332.45161537124289
 21
1637.4069474192329
 31
0.0
  0
LINE
  5
2F9
  8
DETAIL
  6
CONTINUOUS
 62
     5
 10
332.45161537124289
 20
1637.4069474192329
 30
0.0
 11
333.68783159451817
 21
1635.810678399665
 31
0.0
  0
LINE
  5
2FA
  8
DETAIL
  6
CONTINUOUS
 62
     5
 10
325.43717861124787
 20
1640.509067671954
 30
0.0
 11
327.44278109623292
 21
1640.3049404655339
 31
0.0
  0
LINE
  5
2FB
  8
DETAIL
  6
CONTINUOUS
 62
     5
 10
327.44278109623292
 20
1640.3049404655339
 30
0.0
 11
329.36652871388679
 21
1639.7008899113771
 31
0.0
  0
LINE
  5
2FC
  8
DETAIL
  6
CONTINUOUS
 62
     5
 10
329.36652871388679
 20
1639.7008899113771
 30
0.0
 11
331.12990734854429
 21
1638.7215691891599
 31
0.0
  0
LINE
  5
2FD
  8
DETAIL
  6
CONTINUOUS
 62
     5
 10
331.12990734854429
 20
1638.7215691891599
 30
0.0
 11
332.6609480407464
 21
1637.4069474192329
 31
0.0
  0
LINE
  5
2FE
  8
DETAIL
  6
CONTINUOUS
 62
     5
 10
332.6609480407464
 20
1637.4069474192329
 30
0.0
 11
333.89716426412679
 21
1635.810678399665
 31
0.0
  0
LINE
  5
2FF
  8
DETAIL
  6
CONTINUOUS
 62
     5
 10
325.87590832634658
 20
1640.509067671954
 30
0.0
 11
327.88518354582988
 21
1640.3049404655339
 31
0.0
  0
LINE
  5
300
  8
DETAIL
  6
CONTINUOUS
 62
     5
 10
327.88518354582988
 20
1640.3049404655339
 30
0.0
 11
329.81245400247462
 21
1639.7008899113771
 31
0.0
  0
LINE
  5
301
  8
DETAIL
  6
CONTINUOUS
 62
     5
 10
329.81245400247462
 20
1639.7008899113771
 30
0.0
 11
331.57906180231021
 21
1638.7215691891599
 31
0.0
  0
LINE
  5
302
  8
DETAIL
  6
CONTINUOUS
 62
     5
 10
331.57906180231021
 20
1638.7215691891599
 30
0.0
 11
333.112906193718
 21
1637.4069474192329
 31
0.0
  0
LINE
  5
303
  8
DETAIL
  6
CONTINUOUS
 62
     5
 10
333.112906193718
 20
1637.4069474192329
 30
0.0
 11
334.35138622269369
 21
1635.810678399665
 31
0.0
  0
LINE
  5
304
  8
DETAIL
  6
CONTINUOUS
 62
     5
 10
325.98063845988167
 20
1640.509067671954
 30
0.0
 11
327.98991367934639
 21
1640.3049404655339
 31
0.0
  0
LINE
  5
305
  8
DETAIL
  6
CONTINUOUS
 62
     5
 10
327.98991367934639
 20
1640.3049404655339
 30
0.0
 11
329.91718413599301
 21
1639.7008899113771
 31
0.0
  0
LINE
  5
306
  8
DETAIL
  6
CONTINUOUS
 62
     5
 10
329.91718413599301
 20
1639.7008899113771
 30
0.0
 11
331.68379193582632
 21
1638.7215691891599
 31
0.0
  0
LINE
  5
307
  8
DETAIL
  6
CONTINUOUS
 62
     5
 10
331.68379193582632
 20
1638.7215691891599
 30
0.0
 11
333.21763632723781
 21
1637.4069474192329
 31
0.0
  0
LINE
  5
308
  8
DETAIL
  6
CONTINUOUS
 62
     5
 10
333.21763632723781
 20
1637.4069474192329
 30
0.0
 11
334.4561163562102
 21
1635.810678399665
 31
0.0
  0
LINE
  5
309
  8
DETAIL
  6
CONTINUOUS
 62
     5
 10
306.97226527432161
 20
1640.509067671954
 30
0.0
 11
309.70148690121999
 21
1640.509067671954
 31
0.0
  0
LINE
  5
30A
  8
DETAIL
  6
CONTINUOUS
 62
     5
 10
310.62881807048689
 20
1640.509067671954
 30
0.0
 11
313.07975551230669
 21
1640.509067671954
 31
0.0
  0
LINE
  5
30B
  8
DETAIL
  6
CONTINUOUS
 62
     5
 10
313.90691750051019
 20
1640.509067671954
 30
0.0
 11
316.0765846675103
 21
1640.509067671954
 31
0.0
  0
LINE
  5
30C
  8
DETAIL
  6
CONTINUOUS
 62
     5
 10
316.80256970526392
 20
1640.509067671954
 30
0.0
 11
318.68832319216421
 21
1640.509067671954
 31
0.0
  0
LINE
  5
30D
  8
DETAIL
  6
CONTINUOUS
 62
     5
 10
319.31224677841601
 20
1640.509067671954
 30
0.0
 11
320.91178908515161
 21
1640.509067671954
 31
0.0
  0
LINE
  5
30E
  8
DETAIL
  6
CONTINUOUS
 62
     5
 10
321.43289106522201
 20
1640.509067671954
 30
0.0
 11
322.74427339588459
 21
1640.509067671954
 31
0.0
  0
LINE
  5
30F
  8
DETAIL
  6
CONTINUOUS
 62
     5
 10
323.1619188872391
 20
1640.509067671954
 30
0.0
 11
324.18354352438701
 21
1640.509067671954
 31
0.0
  0
LINE
  5
310
  8
DETAIL
  6
CONTINUOUS
 62
     5
 10
324.4972236902999
 20
1640.509067671954
 30
0.0
 11
325.22784594174482
 21
1640.509067671954
 31
0.0
  0
LINE
  5
311
  8
DETAIL
  6
CONTINUOUS
 62
     5
 10
325.43717861124787
 20
1640.509067671954
 30
0.0
 11
325.87590832634658
 21
1640.509067671954
 31
0.0
  0
ARC
  5
312
  8
DETAIL
  6
CONTINUOUS
 62
     5
 10
326.12694111402601
 20
1630.506045333583
 30
0.0
 40
10.00302233836611
 50
32.025931703319529
 51
90.0
  0
LINE
  5
44C
  8
DETAIL
  6
CONTINUOUS
 62
     5
 10
230.49777913494469
 20
1637.4069474192329
 30
0.0
 11
231.35862405709531
 21
1635.810678399665
 31
0.0
  0
LINE
  5
44D
  8
DETAIL
  6
CONTINUOUS
 62
     5
 10
230.36236652733621
 20
1639.7008899113771
 30
0.0
 11
231.59030344879781
 21
1638.7215691891599
 31
0.0
  0
LINE
  5
44E
  8
DETAIL
  6
CONTINUOUS
 62
     5
 10
229.21347474607541
 20
1640.509067671954
 30
0.0
 11
235.63839118551181
 21
1640.509067671954
 31
0.0
  0
LINE
  5
44F
  8
NOTE
  6
CONTINUOUS
 62
     4
 10
178.47965502486471
 20
1695.779665001352
 30
0.0
 11
228.49476671669609
 21
1695.779665001352
 31
0.0
  0
LINE
  5
450
  8
DETAIL
  6
CONTINUOUS
 62
     5
 10
264.58682196961081
 20
1640.3049404655339
 30
0.0
 11
266.14696691993089
 21
1639.7008899113771
 31
0.0
  0
LINE
  5
451
  8
DETAIL
  6
CONTINUOUS
 62
     5
 10
266.14696691993089
 20
1639.7008899113771
 30
0.0
 11
267.57705382270291
 21
1638.7215691891599
 31
0.0
  0
LINE
  5
452
  8
DETAIL
  6
CONTINUOUS
 62
     5
 10
267.57705382270291
 20
1638.7215691891599
 30
0.0
 11
268.81871638935712
 21
1637.4069474192329
 31
0.0
  0
LINE
  5
453
  8
DETAIL
  6
CONTINUOUS
 62
     5
 10
268.81871638935712
 20
1637.4069474192329
 30
0.0
 11
269.82127851369057
 21
1635.810678399665
 31
0.0
  0
LINE
  5
466
  8
DETAIL
  6
CONTINUOUS
 62
     5
 10
280.08462547389848
 20
1643.009823126504
 30
0.0
 11
280.08462547389848
 21
1642.3096115628271
 31
0.0
  0
LINE
  5
467
  8
DETAIL
  6
CONTINUOUS
 62
     5
 10
260.0785807971701
 20
1643.7100346901809
 30
0.0
 11
260.0785807971701
 21
1643.009823126504
 31
0.0
  0
LINE
  5
468
  8
DETAIL
  6
CONTINUOUS
 62
     5
 10
240.07253612044079
 20
1644.4102462538581
 30
0.0
 11
240.07253612044079
 21
1643.7100346901809
 31
0.0
  0
LINE
  5
469
  8
DETAIL
  6
CONTINUOUS
 62
     5
 10
236.8716045932201
 20
1640.509067671954
 30
0.0
 11
236.8716045932201
 21
1640.335006873778
 31
0.0
  0
LINE
  5
46A
  8
DETAIL
  6
CONTINUOUS
 62
     5
 10
231.59030344879781
 20
1638.7215691891599
 30
0.0
 11
232.65645076243021
 21
1637.4069474192329
 31
0.0
  0
LINE
  5
46B
  8
DETAIL
  6
CONTINUOUS
 62
     5
 10
232.65645076243021
 20
1637.4069474192329
 30
0.0
 11
233.51729568457949
 21
1635.810678399665
 31
0.0
  0
LINE
  5
46C
  8
DETAIL
  6
CONTINUOUS
 62
     5
 10
233.55378622631579
 20
1640.509067671954
 30
0.0
 11
235.00001886739881
 21
1640.3049404655339
 31
0.0
  0
LINE
  5
46D
  8
DETAIL
  6
CONTINUOUS
 62
     5
 10
235.00001886739881
 20
1640.3049404655339
 30
0.0
 11
236.38722626212979
 21
1639.7008899113771
 31
0.0
  0
LINE
  5
46E
  8
DETAIL
  6
CONTINUOUS
 62
     5
 10
236.38722626212979
 20
1639.7008899113771
 30
0.0
 11
237.6587921677596
 21
1638.7215691891599
 31
0.0
  0
LINE
  5
46F
  8
DETAIL
  6
CONTINUOUS
 62
     5
 10
237.6587921677596
 20
1638.7215691891599
 30
0.0
 11
238.76282002991499
 21
1637.4069474192329
 31
0.0
  0
LINE
  5
470
  8
DETAIL
  6
CONTINUOUS
 62
     5
 10
238.76282002991499
 20
1637.4069474192329
 30
0.0
 11
239.65425104233191
 21
1635.810678399665
 31
0.0
  0
LINE
  5
471
  8
DETAIL
  6
CONTINUOUS
 62
     5
 10
235.63839118551181
 20
1640.509067671954
 30
0.0
 11
237.0846238265953
 21
1640.3049404655339
 31
0.0
  0
LINE
  5
472
  8
DETAIL
  6
CONTINUOUS
 62
     5
 10
237.0846238265953
 20
1640.3049404655339
 30
0.0
 11
238.47183122122121
 21
1639.7008899113771
 31
0.0
  0
LINE
  5
473
  8
DETAIL
  6
CONTINUOUS
 62
     5
 10
238.47183122122121
 20
1639.7008899113771
 30
0.0
 11
239.74339712685091
 21
1638.7215691891599
 31
0.0
  0
LINE
  5
474
  8
DETAIL
  6
CONTINUOUS
 62
     5
 10
239.74339712685091
 20
1638.7215691891599
 30
0.0
 11
240.8474249891118
 21
1637.4069474192329
 31
0.0
  0
LINE
  5
475
  8
DETAIL
  6
CONTINUOUS
 62
     5
 10
240.8474249891118
 20
1637.4069474192329
 30
0.0
 11
241.73885600152829
 21
1635.810678399665
 31
0.0
  0
LINE
  5
476
  8
DETAIL
  6
CONTINUOUS
 62
     5
 10
241.35554947711759
 20
1640.509067671954
 30
0.0
 11
242.84964212033299
 21
1640.3049404655339
 31
0.0
  0
LINE
  5
477
  8
DETAIL
  6
CONTINUOUS
 62
     5
 10
242.84964212033299
 20
1640.3049404655339
 30
0.0
 11
244.2827562018428
 21
1639.7008899113771
 31
0.0
  0
LINE
  5
478
  8
DETAIL
  6
CONTINUOUS
 62
     5
 10
244.2827562018428
 20
1639.7008899113771
 30
0.0
 11
245.59640188444601
 21
1638.7215691891599
 31
0.0
  0
LINE
  5
479
  8
DETAIL
  6
CONTINUOUS
 62
     5
 10
245.59640188444601
 20
1638.7215691891599
 30
0.0
 11
246.73696520733029
 21
1637.4069474192329
 31
0.0
  0
LINE
  5
47A
  8
DETAIL
  6
CONTINUOUS
 62
     5
 10
246.73696520733029
 20
1637.4069474192329
 30
0.0
 11
247.65789623855011
 21
1635.810678399665
 31
0.0
  0
LINE
  5
47B
  8
DETAIL
  6
CONTINUOUS
 62
     5
 10
243.36354799795981
 20
1640.509067671954
 30
0.0
 11
244.85764064117569
 21
1640.3049404655339
 31
0.0
  0
LINE
  5
47C
  8
DETAIL
  6
CONTINUOUS
 62
     5
 10
244.85764064117569
 20
1640.3049404655339
 30
0.0
 11
246.29075472267181
 21
1639.7008899113771
 31
0.0
  0
LINE
  5
47D
  8
DETAIL
  6
CONTINUOUS
 62
     5
 10
246.29075472267181
 20
1639.7008899113771
 30
0.0
 11
247.60440040518409
 21
1638.7215691891599
 31
0.0
  0
LINE
  5
47E
  8
DETAIL
  6
CONTINUOUS
 62
     5
 10
247.60440040518409
 20
1638.7215691891599
 30
0.0
 11
248.74496372815881
 21
1637.4069474192329
 31
0.0
  0
LINE
  5
47F
  8
DETAIL
  6
CONTINUOUS
 62
     5
 10
248.74496372815881
 20
1637.4069474192329
 30
0.0
 11
249.66589475937911
 21
1635.810678399665
 31
0.0
  0
LINE
  5
480
  8
DETAIL
  6
CONTINUOUS
 62
     5
 10
248.86325816893569
 20
1640.509067671954
 30
0.0
 11
250.40339049249309
 21
1640.3049404655339
 31
0.0
  0
LINE
  5
481
  8
DETAIL
  6
CONTINUOUS
 62
     5
 10
250.40339049249309
 20
1640.3049404655339
 30
0.0
 11
251.88066523200399
 21
1639.7008899113771
 31
0.0
  0
LINE
  5
482
  8
DETAIL
  6
CONTINUOUS
 62
     5
 10
251.88066523200399
 20
1639.7008899113771
 30
0.0
 11
253.2347902166475
 21
1638.7215691891599
 31
0.0
  0
LINE
  5
483
  8
DETAIL
  6
CONTINUOUS
 62
     5
 10
253.2347902166475
 20
1638.7215691891599
 30
0.0
 11
254.41049939958421
 21
1637.4069474192329
 31
0.0
  0
LINE
  5
484
  8
DETAIL
  6
CONTINUOUS
 62
     5
 10
254.41049939958421
 20
1637.4069474192329
 30
0.0
 11
255.35980843700099
 21
1635.810678399665
 31
0.0
  0
LINE
  5
485
  8
DETAIL
  6
CONTINUOUS
 62
     5
 10
250.79220381444341
 20
1640.509067671954
 30
0.0
 11
252.3323361380898
 21
1640.3049404655339
 31
0.0
  0
LINE
  5
486
  8
DETAIL
  6
CONTINUOUS
 62
     5
 10
252.3323361380898
 20
1640.3049404655339
 30
0.0
 11
253.8096108776158
 21
1639.7008899113771
 31
0.0
  0
LINE
  5
487
  8
DETAIL
  6
CONTINUOUS
 62
     5
 10
253.8096108776158
 20
1639.7008899113771
 30
0.0
 11
255.16373586224509
 21
1638.7215691891599
 31
0.0
  0
LINE
  5
488
  8
DETAIL
  6
CONTINUOUS
 62
     5
 10
255.16373586224509
 20
1638.7215691891599
 30
0.0
 11
256.339445045074
 21
1637.4069474192329
 31
0.0
  0
LINE
  5
489
  8
DETAIL
  6
CONTINUOUS
 62
     5
 10
256.339445045074
 20
1637.4069474192329
 30
0.0
 11
257.28875408259808
 21
1635.810678399665
 31
0.0
  0
LINE
  5
48A
  8
DETAIL
  6
CONTINUOUS
 62
     5
 10
256.0677653150824
 20
1640.509067671954
 30
0.0
 11
257.6520609050371
 21
1640.3049404655339
 31
0.0
  0
LINE
  5
48B
  8
DETAIL
  6
CONTINUOUS
 62
     5
 10
257.6520609050371
 20
1640.3049404655339
 30
0.0
 11
259.17169647085802
 21
1639.7008899113771
 31
0.0
  0
LINE
  5
48C
  8
DETAIL
  6
CONTINUOUS
 62
     5
 10
259.17169647085802
 20
1639.7008899113771
 30
0.0
 11
260.56465096482719
 21
1638.7215691891599
 31
0.0
  0
LINE
  5
48D
  8
DETAIL
  6
CONTINUOUS
 62
     5
 10
260.56465096482719
 20
1638.7215691891599
 30
0.0
 11
261.7740735872394
 21
1637.4069474192329
 31
0.0
  0
LINE
  5
48E
  8
DETAIL
  6
CONTINUOUS
 62
     5
 10
261.7740735872394
 20
1637.4069474192329
 30
0.0
 11
262.75060404410209
 21
1635.810678399665
 31
0.0
  0
LINE
  5
48F
  8
DETAIL
  6
CONTINUOUS
 62
     5
 10
257.91530796217188
 20
1640.509067671954
 30
0.0
 11
259.49960355221759
 21
1640.3049404655339
 31
0.0
  0
LINE
  5
490
  8
DETAIL
  6
CONTINUOUS
 62
     5
 10
259.49960355221759
 20
1640.3049404655339
 30
0.0
 11
261.01923911803891
 21
1639.7008899113771
 31
0.0
  0
LINE
  5
491
  8
DETAIL
  6
CONTINUOUS
 62
     5
 10
261.01923911803891
 20
1639.7008899113771
 30
0.0
 11
262.4121936120236
 21
1638.7215691891599
 31
0.0
  0
LINE
  5
492
  8
DETAIL
  6
CONTINUOUS
 62
     5
 10
262.4121936120236
 20
1638.7215691891599
 30
0.0
 11
263.62161623431621
 21
1637.4069474192329
 31
0.0
  0
LINE
  5
493
  8
DETAIL
  6
CONTINUOUS
 62
     5
 10
263.62161623431621
 20
1637.4069474192329
 30
0.0
 11
264.59814669119299
 21
1635.810678399665
 31
0.0
  0
LINE
  5
494
  8
DETAIL
  6
CONTINUOUS
 62
     5
 10
262.96029333334798
 20
1640.509067671954
 30
0.0
 11
264.58682196961081
 21
1640.3049404655339
 31
0.0
  0
LINE
  5
495
  8
DETAIL
  6
CONTINUOUS
 62
     5
 10
264.7241820360241
 20
1640.509067671954
 30
0.0
 11
266.35071067228631
 21
1640.3049404655339
 31
0.0
  0
LINE
  5
496
  8
DETAIL
  6
CONTINUOUS
 62
     5
 10
266.35071067228631
 20
1640.3049404655339
 30
0.0
 11
267.9108556225151
 21
1639.7008899113771
 31
0.0
  0
LINE
  5
497
  8
DETAIL
  6
CONTINUOUS
 62
     5
 10
267.9108556225151
 20
1639.7008899113771
 30
0.0
 11
269.34094252537801
 21
1638.7215691891599
 31
0.0
  0
LINE
  5
498
  8
DETAIL
  6
CONTINUOUS
 62
     5
 10
269.34094252537801
 20
1638.7215691891599
 30
0.0
 11
270.58260509203222
 21
1637.4069474192329
 31
0.0
  0
LINE
  5
499
  8
DETAIL
  6
CONTINUOUS
 62
     5
 10
270.58260509203222
 20
1637.4069474192329
 30
0.0
 11
271.58516721636568
 21
1635.810678399665
 31
0.0
  0
LINE
  5
49A
  8
DETAIL
  6
CONTINUOUS
 62
     5
 10
269.53244474013081
 20
1640.509067671954
 30
0.0
 11
271.19922474804071
 21
1640.3049404655339
 31
0.0
  0
LINE
  5
49B
  8
DETAIL
  6
CONTINUOUS
 62
     5
 10
271.19922474804071
 20
1640.3049404655339
 30
0.0
 11
272.7979782865641
 21
1639.7008899113771
 31
0.0
  0
LINE
  5
49C
  8
DETAIL
  6
CONTINUOUS
 62
     5
 10
272.7979782865641
 20
1639.7008899113771
 30
0.0
 11
274.26345525756182
 21
1638.7215691891599
 31
0.0
  0
LINE
  5
49D
  8
DETAIL
  6
CONTINUOUS
 62
     5
 10
274.26345525756182
 20
1638.7215691891599
 30
0.0
 11
275.535844993909
 21
1637.4069474192329
 31
0.0
  0
LINE
  5
49F
  8
DETAIL
  6
CONTINUOUS
 62
     5
 10
271.21053047158603
 20
1640.509067671954
 30
0.0
 11
272.87731047949683
 21
1640.3049404655339
 31
0.0
  0
LINE
  5
4A0
  8
DETAIL
  6
CONTINUOUS
 62
     5
 10
272.87731047949683
 20
1640.3049404655339
 30
0.0
 11
274.47606401801971
 21
1639.7008899113771
 31
0.0
  0
LINE
  5
4A1
  8
DETAIL
  6
CONTINUOUS
 62
     5
 10
274.47606401801971
 20
1639.7008899113771
 30
0.0
 11
275.94154098901748
 21
1638.7215691891599
 31
0.0
  0
LINE
  5
4A2
  8
DETAIL
  6
CONTINUOUS
 62
     5
 10
275.94154098901748
 20
1638.7215691891599
 30
0.0
 11
277.2139307254551
 21
1637.4069474192329
 31
0.0
  0
LINE
  5
4A4
  8
DETAIL
  6
CONTINUOUS
 62
     5
 10
275.77621238131849
 20
1640.509067671954
 30
0.0
 11
277.48121304620872
 21
1640.3049404655339
 31
0.0
  0
LINE
  5
4A5
  8
DETAIL
  6
CONTINUOUS
 62
     5
 10
277.48121304620872
 20
1640.3049404655339
 30
0.0
 11
279.11662733791297
 21
1639.7008899113771
 31
0.0
  0
LINE
  5
4A6
  8
DETAIL
  6
CONTINUOUS
 62
     5
 10
279.11662733791297
 20
1639.7008899113771
 30
0.0
 11
280.6157089192929
 21
1638.7215691891599
 31
0.0
  0
LINE
  5
4A7
  8
DETAIL
  6
CONTINUOUS
 62
     5
 10
280.6157089192929
 20
1638.7215691891599
 30
0.0
 11
281.91727561443253
 21
1637.4069474192329
 31
0.0
  0
LINE
  5
4A9
  8
DETAIL
  6
CONTINUOUS
 62
     5
 10
277.36645065261098
 20
1640.509067671954
 30
0.0
 11
279.07145131751628
 21
1640.3049404655339
 31
0.0
  0
LINE
  5
4AA
  8
DETAIL
  6
CONTINUOUS
 62
     5
 10
279.07145131751628
 20
1640.3049404655339
 30
0.0
 11
280.70686560920512
 21
1639.7008899113771
 31
0.0
  0
LINE
  5
4AB
  8
DETAIL
  6
CONTINUOUS
 62
     5
 10
280.70686560920512
 20
1639.7008899113771
 30
0.0
 11
282.20594719058488
 21
1638.7215691891599
 31
0.0
  0
LINE
  5
4AC
  8
DETAIL
  6
CONTINUOUS
 62
     5
 10
282.20594719058488
 20
1638.7215691891599
 30
0.0
 11
283.50751388572507
 21
1637.4069474192329
 31
0.0
  0
LINE
  5
4AE
  8
DETAIL
  6
CONTINUOUS
 62
     5
 10
281.68398918778621
 20
1640.509067671954
 30
0.0
 11
283.42513322902317
 21
1640.3049404655339
 31
0.0
  0
LINE
  5
4AF
  8
DETAIL
  6
CONTINUOUS
 62
     5
 10
283.42513322902317
 20
1640.3049404655339
 30
0.0
 11
285.095215773571
 21
1639.7008899113771
 31
0.0
  0
LINE
  5
4B0
  8
DETAIL
  6
CONTINUOUS
 62
     5
 10
285.095215773571
 20
1639.7008899113771
 30
0.0
 11
286.6260755652151
 21
1638.7215691891599
 31
0.0
  0
LINE
  5
4B1
  8
DETAIL
  6
CONTINUOUS
 62
     5
 10
286.6260755652151
 20
1638.7215691891599
 30
0.0
 11
287.95523346061998
 21
1637.4069474192329
 31
0.0
  0
LINE
  5
4B3
  8
DETAIL
  6
CONTINUOUS
 62
     5
 10
283.18444253854278
 20
1640.509067671954
 30
0.0
 11
284.92558657978168
 21
1640.3049404655339
 31
0.0
  0
LINE
  5
4B4
  8
DETAIL
  6
CONTINUOUS
 62
     5
 10
284.92558657978168
 20
1640.3049404655339
 30
0.0
 11
286.59566912432729
 21
1639.7008899113771
 31
0.0
  0
LINE
  5
4B5
  8
DETAIL
  6
CONTINUOUS
 62
     5
 10
286.59566912432729
 20
1639.7008899113771
 30
0.0
 11
288.12652891595911
 21
1638.7215691891599
 31
0.0
  0
LINE
  5
4B6
  8
DETAIL
  6
CONTINUOUS
 62
     5
 10
288.12652891595911
 20
1638.7215691891599
 30
0.0
 11
289.45568681137809
 21
1637.4069474192329
 31
0.0
  0
LINE
  5
4B8
  8
DETAIL
  6
CONTINUOUS
 62
     5
 10
287.24857744348998
 20
1640.509067671954
 30
0.0
 11
289.02374354524818
 21
1640.3049404655339
 31
0.0
  0
LINE
  5
4B9
  8
DETAIL
  6
CONTINUOUS
 62
     5
 10
289.02374354524818
 20
1640.3049404655339
 30
0.0
 11
290.72645960426962
 21
1639.7008899113771
 31
0.0
  0
LINE
  5
4BA
  8
DETAIL
  6
CONTINUOUS
 62
     5
 10
290.72645960426962
 20
1639.7008899113771
 30
0.0
 11
292.28723248932101
 21
1638.7215691891599
 31
0.0
  0
LINE
  5
4BB
  8
DETAIL
  6
CONTINUOUS
 62
     5
 10
292.28723248932101
 20
1638.7215691891599
 30
0.0
 11
293.64236221102681
 21
1637.4069474192329
 31
0.0
  0
LINE
  5
4BD
  8
DETAIL
  6
CONTINUOUS
 62
     5
 10
288.65741780247112
 20
1640.509067671954
 30
0.0
 11
290.43258390412251
 21
1640.3049404655339
 31
0.0
  0
LINE
  5
4BE
  8
DETAIL
  6
CONTINUOUS
 62
     5
 10
290.43258390412251
 20
1640.3049404655339
 30
0.0
 11
292.13529996325133
 21
1639.7008899113771
 31
0.0
  0
LINE
  5
4BF
  8
DETAIL
  6
CONTINUOUS
 62
     5
 10
292.13529996325133
 20
1639.7008899113771
 30
0.0
 11
293.69607284830312
 21
1638.7215691891599
 31
0.0
  0
LINE
  5
4C0
  8
DETAIL
  6
CONTINUOUS
 62
     5
 10
293.69607284830312
 20
1638.7215691891599
 30
0.0
 11
295.05120256990261
 21
1637.4069474192329
 31
0.0
  0
LINE
  5
4C2
  8
DETAIL
  6
CONTINUOUS
 62
     5
 10
292.46319755495608
 20
1640.509067671954
 30
0.0
 11
294.27022295064978
 21
1640.3049404655339
 31
0.0
  0
LINE
  5
4C3
  8
DETAIL
  6
CONTINUOUS
 62
     5
 10
294.27022295064978
 20
1640.3049404655339
 30
0.0
 11
296.00349802695598
 21
1639.7008899113771
 31
0.0
  0
LINE
  5
4C4
  8
DETAIL
  6
CONTINUOUS
 62
     5
 10
296.00349802695598
 20
1639.7008899113771
 30
0.0
 11
297.59228244418358
 21
1638.7215691891599
 31
0.0
  0
LINE
  5
4C5
  8
DETAIL
  6
CONTINUOUS
 62
     5
 10
297.59228244418358
 20
1638.7215691891599
 30
0.0
 11
298.97173297513689
 21
1637.4069474192329
 31
0.0
  0
LINE
  5
4C6
  8
DETAIL
  6
CONTINUOUS
 62
     5
 10
293.7787084670349
 20
1640.509067671954
 30
0.0
 11
295.58573386274293
 21
1640.3049404655339
 31
0.0
  0
LINE
  5
4C7
  8
DETAIL
  6
CONTINUOUS
 62
     5
 10
295.58573386274293
 20
1640.3049404655339
 30
0.0
 11
297.31900893913962
 21
1639.7008899113771
 31
0.0
  0
LINE
  5
4C8
  8
DETAIL
  6
CONTINUOUS
 62
     5
 10
297.31900893913962
 20
1639.7008899113771
 30
0.0
 11
298.9077933563658
 21
1638.7215691891599
 31
0.0
  0
LINE
  5
4C9
  8
DETAIL
  6
CONTINUOUS
 62
     5
 10
297.32149631056927
 20
1640.509067671954
 30
0.0
 11
299.15817941823292
 21
1640.3049404655339
 31
0.0
  0
LINE
  5
4CA
  8
DETAIL
  6
CONTINUOUS
 62
     5
 10
236.8716045932201
 20
1640.509067671954
 30
0.0
 11
243.36354799795981
 21
1640.509067671954
 31
0.0
  0
LINE
  5
4CB
  8
DETAIL
  6
CONTINUOUS
 62
     5
 10
244.24114287747571
 20
1640.509067671954
 30
0.0
 11
250.79220381444341
 21
1640.509067671954
 31
0.0
  0
LINE
  5
4CC
  8
DETAIL
  6
CONTINUOUS
 62
     5
 10
251.31311095163201
 20
1640.509067671954
 30
0.0
 11
257.91530796217188
 21
1640.509067671954
 31
0.0
  0
LINE
  5
4F3
  8
DETAIL
  6
CONTINUOUS
 62
     5
 10
229.21347474607541
 20
1640.509067671954
 30
0.0
 11
229.21347474607541
 21
1640.2189424800031
 31
0.0
  0
LINE
  5
4F4
  8
DETAIL
  6
CONTINUOUS
 62
     5
 10
221.2760835875242
 20
1640.509067671954
 30
0.0
 11
221.2760835875242
 21
1640.026773430651
 31
0.0
  0
LINE
  5
4F5
  8
DETAIL
  6
CONTINUOUS
 62
     5
 10
220.0664914437111
 20
1645.1104578175641
 30
0.0
 11
220.0664914437111
 21
1644.4102462538581
 31
0.0
  0
LINE
  5
4F6
  8
DETAIL
  6
CONTINUOUS
 62
     5
 10
213.06910160611361
 20
1640.509067671954
 30
0.0
 11
213.06910160611361
 21
1639.819096996564
 31
0.0
  0
LINE
  5
4F7
  8
DETAIL
  6
CONTINUOUS
 62
     5
 10
204.6025277451653
 20
1640.509067671954
 30
0.0
 11
204.6025277451653
 21
1639.510744602185
 31
0.0
  0
LINE
  5
4F8
  8
DETAIL
  6
CONTINUOUS
 62
     5
 10
200.0604467669659
 20
1645.810669381241
 30
0.0
 11
200.0604467669659
 21
1645.1104578175641
 31
0.0
  0
LINE
  5
4F9
  8
DETAIL
  6
CONTINUOUS
 62
     5
 10
195.8866772207293
 20
1640.509067671954
 30
0.0
 11
195.8866772207293
 21
1639.0741693398611
 31
0.0
  0
LINE
  5
4FA
  8
DETAIL
  6
CONTINUOUS
 62
     5
 10
186.9321689541446
 20
1640.509067671954
 30
0.0
 11
186.9321689541446
 21
1638.5235746480889
 31
0.0
  0
LINE
  5
4FB
  8
DETAIL
  6
CONTINUOUS
 62
     5
 10
180.05440209023789
 20
1646.510880944918
 30
0.0
 11
180.05440209023789
 21
1645.810669381241
 31
0.0
  0
LINE
  5
4FC
  8
DETAIL
  6
CONTINUOUS
 62
     5
 10
177.74991263438679
 20
1640.509067671954
 30
0.0
 11
177.74991263438679
 21
1637.6992787376439
 31
0.0
  0
LINE
  5
4FD
  8
DETAIL
  6
CONTINUOUS
 62
     5
 10
168.3510954263906
 20
1640.509067671954
 30
0.0
 11
168.3510954263906
 21
1636.460214533749
 31
0.0
  0
LINE
  5
4FE
  8
DETAIL
  6
CONTINUOUS
 62
     5
 10
162.769289818771
 20
1640.3049404655339
 30
0.0
 11
163.73351242542819
 21
1639.7008899113771
 31
0.0
  0
LINE
  5
4FF
  8
DETAIL
  6
CONTINUOUS
 62
     5
 10
163.73351242542819
 20
1639.7008899113771
 30
0.0
 11
164.61735473816401
 21
1638.7215691891599
 31
0.0
  0
LINE
  5
500
  8
DETAIL
  6
CONTINUOUS
 62
     5
 10
164.61735473816401
 20
1638.7215691891599
 30
0.0
 11
165.3847444069068
 21
1637.4069474192329
 31
0.0
  0
LINE
  5
501
  8
DETAIL
  6
CONTINUOUS
 62
     5
 10
165.3847444069068
 20
1637.4069474192329
 30
0.0
 11
166.00436187559669
 21
1635.810678399665
 31
0.0
  0
LINE
  5
502
  8
DETAIL
  6
CONTINUOUS
 62
     5
 10
164.36290127575191
 20
1640.509067671954
 30
0.0
 11
165.36815125662221
 21
1640.3049404655339
 31
0.0
  0
LINE
  5
503
  8
DETAIL
  6
CONTINUOUS
 62
     5
 10
165.36815125662221
 20
1640.3049404655339
 30
0.0
 11
166.3323738632624
 21
1639.7008899113771
 31
0.0
  0
LINE
  5
504
  8
DETAIL
  6
CONTINUOUS
 62
     5
 10
166.3323738632624
 20
1639.7008899113771
 30
0.0
 11
167.216216176107
 21
1638.7215691891599
 31
0.0
  0
LINE
  5
505
  8
DETAIL
  6
CONTINUOUS
 62
     5
 10
167.216216176107
 20
1638.7215691891599
 30
0.0
 11
167.9836058448636
 21
1637.4069474192329
 31
0.0
  0
LINE
  5
506
  8
DETAIL
  6
CONTINUOUS
 62
     5
 10
167.9836058448636
 20
1637.4069474192329
 30
0.0
 11
168.6032233135397
 21
1635.810678399665
 31
0.0
  0
LINE
  5
507
  8
DETAIL
  6
CONTINUOUS
 62
     5
 10
171.54849207405999
 20
1640.509067671954
 30
0.0
 11
172.6138947346011
 21
1640.3049404655339
 31
0.0
  0
LINE
  5
508
  8
DETAIL
  6
CONTINUOUS
 62
     5
 10
172.6138947346011
 20
1640.3049404655339
 30
0.0
 11
173.63581500316329
 21
1639.7008899113771
 31
0.0
  0
LINE
  5
509
  8
DETAIL
  6
CONTINUOUS
 62
     5
 10
173.63581500316329
 20
1639.7008899113771
 30
0.0
 11
174.5725451392648
 21
1638.7215691891599
 31
0.0
  0
LINE
  5
50A
  8
DETAIL
  6
CONTINUOUS
 62
     5
 10
174.5725451392648
 20
1638.7215691891599
 30
0.0
 11
175.38585427664111
 21
1637.4069474192329
 31
0.0
  0
LINE
  5
50B
  8
DETAIL
  6
CONTINUOUS
 62
     5
 10
175.38585427664111
 20
1637.4069474192329
 30
0.0
 11
176.0425487428578
 21
1635.810678399665
 31
0.0
  0
LINE
  5
50C
  8
DETAIL
  6
CONTINUOUS
 62
     5
 10
174.09340528905199
 20
1640.509067671954
 30
0.0
 11
175.15880794948899
 21
1640.3049404655339
 31
0.0
  0
LINE
  5
50D
  8
DETAIL
  6
CONTINUOUS
 62
     5
 10
175.15880794948899
 20
1640.3049404655339
 30
0.0
 11
176.18072821805109
 21
1639.7008899113771
 31
0.0
  0
LINE
  5
50E
  8
DETAIL
  6
CONTINUOUS
 62
     5
 10
176.18072821805109
 20
1639.7008899113771
 30
0.0
 11
177.1174583542583
 21
1638.7215691891599
 31
0.0
  0
LINE
  5
50F
  8
DETAIL
  6
CONTINUOUS
 62
     5
 10
177.1174583542583
 20
1638.7215691891599
 30
0.0
 11
177.93076749152661
 21
1637.4069474192329
 31
0.0
  0
LINE
  5
510
  8
DETAIL
  6
CONTINUOUS
 62
     5
 10
177.93076749152661
 20
1637.4069474192329
 30
0.0
 11
178.5874619577593
 21
1635.810678399665
 31
0.0
  0
LINE
  5
511
  8
DETAIL
  6
CONTINUOUS
 62
     5
 10
181.12393889778281
 20
1640.509067671954
 30
0.0
 11
182.248196208824
 21
1640.3049404655339
 31
0.0
  0
LINE
  5
512
  8
DETAIL
  6
CONTINUOUS
 62
     5
 10
182.248196208824
 20
1640.3049404655339
 30
0.0
 11
183.32656908682469
 21
1639.7008899113771
 31
0.0
  0
LINE
  5
513
  8
DETAIL
  6
CONTINUOUS
 62
     5
 10
183.32656908682469
 20
1639.7008899113771
 30
0.0
 11
184.31504578506329
 21
1638.7215691891599
 31
0.0
  0
LINE
  5
514
  8
DETAIL
  6
CONTINUOUS
 62
     5
 10
184.31504578506329
 20
1638.7215691891599
 30
0.0
 11
185.17328349895971
 21
1637.4069474192329
 31
0.0
  0
LINE
  5
515
  8
DETAIL
  6
CONTINUOUS
 62
     5
 10
185.17328349895971
 20
1637.4069474192329
 30
0.0
 11
185.86625488167411
 21
1635.810678399665
 31
0.0
  0
LINE
  5
516
  8
DETAIL
  6
CONTINUOUS
 62
     5
 10
183.6118033050102
 20
1640.509067671954
 30
0.0
 11
184.73606061614191
 21
1640.3049404655339
 31
0.0
  0
LINE
  5
517
  8
DETAIL
  6
CONTINUOUS
 62
     5
 10
184.73606061614191
 20
1640.3049404655339
 30
0.0
 11
185.814433494143
 21
1639.7008899113771
 31
0.0
  0
LINE
  5
518
  8
DETAIL
  6
CONTINUOUS
 62
     5
 10
185.814433494143
 20
1639.7008899113771
 30
0.0
 11
186.80291019227519
 21
1638.7215691891599
 31
0.0
  0
LINE
  5
519
  8
DETAIL
  6
CONTINUOUS
 62
     5
 10
186.80291019227519
 20
1638.7215691891599
 30
0.0
 11
187.66114790627799
 21
1637.4069474192329
 31
0.0
  0
LINE
  5
51A
  8
DETAIL
  6
CONTINUOUS
 62
     5
 10
187.66114790627799
 20
1637.4069474192329
 30
0.0
 11
188.35411928890099
 21
1635.810678399665
 31
0.0
  0
LINE
  5
51B
  8
DETAIL
  6
CONTINUOUS
 62
     5
 10
190.4787141019296
 20
1640.509067671954
 30
0.0
 11
191.660456329097
 21
1640.3049404655339
 31
0.0
  0
LINE
  5
51C
  8
DETAIL
  6
CONTINUOUS
 62
     5
 10
191.660456329097
 20
1640.3049404655339
 30
0.0
 11
192.79396798537701
 21
1639.7008899113771
 31
0.0
  0
LINE
  5
51D
  8
DETAIL
  6
CONTINUOUS
 62
     5
 10
192.79396798537701
 20
1639.7008899113771
 30
0.0
 11
193.83298693896711
 21
1638.7215691891599
 31
0.0
  0
LINE
  5
51E
  8
DETAIL
  6
CONTINUOUS
 62
     5
 10
193.83298693896711
 20
1638.7215691891599
 30
0.0
 11
194.73510759908771
 21
1637.4069474192329
 31
0.0
  0
LINE
  5
51F
  8
DETAIL
  6
CONTINUOUS
 62
     5
 10
194.73510759908771
 20
1637.4069474192329
 30
0.0
 11
195.4635116194076
 21
1635.810678399665
 31
0.0
  0
LINE
  5
520
  8
DETAIL
  6
CONTINUOUS
 62
     5
 10
192.90649862195269
 20
1640.509067671954
 30
0.0
 11
194.08824084922691
 21
1640.3049404655339
 31
0.0
  0
LINE
  5
521
  8
DETAIL
  6
CONTINUOUS
 62
     5
 10
194.08824084922691
 20
1640.3049404655339
 30
0.0
 11
195.2217525054001
 21
1639.7008899113771
 31
0.0
  0
LINE
  5
522
  8
DETAIL
  6
CONTINUOUS
 62
     5
 10
195.2217525054001
 20
1639.7008899113771
 30
0.0
 11
196.26077145909571
 21
1638.7215691891599
 31
0.0
  0
LINE
  5
523
  8
DETAIL
  6
CONTINUOUS
 62
     5
 10
196.26077145909571
 20
1638.7215691891599
 30
0.0
 11
197.16289211921909
 21
1637.4069474192329
 31
0.0
  0
LINE
  5
524
  8
DETAIL
  6
CONTINUOUS
 62
     5
 10
197.16289211921909
 20
1637.4069474192329
 30
0.0
 11
197.89129613943069
 21
1635.810678399665
 31
0.0
  0
LINE
  5
525
  8
DETAIL
  6
CONTINUOUS
 62
     5
 10
199.60142033387311
 20
1640.509067671954
 30
0.0
 11
200.83920770647089
 21
1640.3049404655339
 31
0.0
  0
LINE
  5
526
  8
DETAIL
  6
CONTINUOUS
 62
     5
 10
200.83920770647089
 20
1640.3049404655339
 30
0.0
 11
202.02647713153101
 21
1639.7008899113771
 31
0.0
  0
LINE
  5
527
  8
DETAIL
  6
CONTINUOUS
 62
     5
 10
202.02647713153101
 20
1639.7008899113771
 30
0.0
 11
203.11477245602279
 21
1638.7215691891599
 31
0.0
  0
LINE
  5
528
  8
DETAIL
  6
CONTINUOUS
 62
     5
 10
203.11477245602279
 20
1638.7215691891599
 30
0.0
 11
204.0596769673584
 21
1637.4069474192329
 31
0.0
  0
LINE
  5
529
  8
DETAIL
  6
CONTINUOUS
 62
     5
 10
204.0596769673584
 20
1637.4069474192329
 30
0.0
 11
204.82262617715509
 21
1635.810678399665
 31
0.0
  0
LINE
  5
52A
  8
DETAIL
  6
CONTINUOUS
 62
     5
 10
201.96616708520921
 20
1640.509067671954
 30
0.0
 11
203.20395445780781
 21
1640.3049404655339
 31
0.0
  0
LINE
  5
52B
  8
DETAIL
  6
CONTINUOUS
 62
     5
 10
203.20395445780781
 20
1640.3049404655339
 30
0.0
 11
204.39122388297531
 21
1639.7008899113771
 31
0.0
  0
LINE
  5
52C
  8
DETAIL
  6
CONTINUOUS
 62
     5
 10
204.39122388297531
 20
1639.7008899113771
 30
0.0
 11
205.47951920746479
 21
1638.7215691891599
 31
0.0
  0
LINE
  5
52D
  8
DETAIL
  6
CONTINUOUS
 62
     5
 10
205.47951920746479
 20
1638.7215691891599
 30
0.0
 11
206.42442371869441
 21
1637.4069474192329
 31
0.0
  0
LINE
  5
52E
  8
DETAIL
  6
CONTINUOUS
 62
     5
 10
206.42442371869441
 20
1637.4069474192329
 30
0.0
 11
207.18737292849119
 21
1635.810678399665
 31
0.0
  0
LINE
  5
52F
  8
DETAIL
  6
CONTINUOUS
 62
     5
 10
208.48094298140489
 20
1640.509067671954
 30
0.0
 11
209.77326744607211
 21
1640.3049404655339
 31
0.0
  0
LINE
  5
530
  8
DETAIL
  6
CONTINUOUS
 62
     5
 10
209.77326744607211
 20
1640.3049404655339
 30
0.0
 11
211.01284813520891
 21
1639.7008899113771
 31
0.0
  0
LINE
  5
531
  8
DETAIL
  6
CONTINUOUS
 62
     5
 10
211.01284813520891
 20
1639.7008899113771
 30
0.0
 11
212.14909391036781
 21
1638.7215691891599
 31
0.0
  0
LINE
  5
532
  8
DETAIL
  6
CONTINUOUS
 62
     5
 10
212.14909391036781
 20
1638.7215691891599
 30
0.0
 11
213.13563105209411
 21
1637.4069474192329
 31
0.0
  0
LINE
  5
533
  8
DETAIL
  6
CONTINUOUS
 62
     5
 10
213.13563105209411
 20
1637.4069474192329
 30
0.0
 11
213.93219591529709
 21
1635.810678399665
 31
0.0
  0
LINE
  5
534
  8
DETAIL
  6
CONTINUOUS
 62
     5
 10
210.77977088446869
 20
1640.509067671954
 30
0.0
 11
212.0720953491348
 21
1640.3049404655339
 31
0.0
  0
LINE
  5
535
  8
DETAIL
  6
CONTINUOUS
 62
     5
 10
212.0720953491348
 20
1640.3049404655339
 30
0.0
 11
213.31167603816809
 21
1639.7008899113771
 31
0.0
  0
LINE
  5
536
  8
DETAIL
  6
CONTINUOUS
 62
     5
 10
213.31167603816809
 20
1639.7008899113771
 30
0.0
 11
214.44792181332599
 21
1638.7215691891599
 31
0.0
  0
LINE
  5
537
  8
DETAIL
  6
CONTINUOUS
 62
     5
 10
214.44792181332599
 20
1638.7215691891599
 30
0.0
 11
215.4344589551437
 21
1637.4069474192329
 31
0.0
  0
LINE
  5
538
  8
DETAIL
  6
CONTINUOUS
 62
     5
 10
215.4344589551437
 20
1637.4069474192329
 30
0.0
 11
216.2310238183621
 21
1635.810678399665
 31
0.0
  0
LINE
  5
539
  8
DETAIL
  6
CONTINUOUS
 62
     5
 10
217.10646371397701
 20
1640.509067671954
 30
0.0
 11
218.4517507724963
 21
1640.3049404655339
 31
0.0
  0
LINE
  5
53A
  8
DETAIL
  6
CONTINUOUS
 62
     5
 10
218.4517507724963
 20
1640.3049404655339
 30
0.0
 11
219.74213248737209
 21
1639.7008899113771
 31
0.0
  0
LINE
  5
53B
  8
DETAIL
  6
CONTINUOUS
 62
     5
 10
219.74213248737209
 20
1639.7008899113771
 30
0.0
 11
220.92494437273169
 21
1638.7215691891599
 31
0.0
  0
LINE
  5
53C
  8
DETAIL
  6
CONTINUOUS
 62
     5
 10
220.92494437273169
 20
1638.7215691891599
 30
0.0
 11
221.95191220147481
 21
1637.4069474192329
 31
0.0
  0
LINE
  5
53D
  8
DETAIL
  6
CONTINUOUS
 62
     5
 10
221.95191220147481
 20
1637.4069474192329
 30
0.0
 11
222.78112222658501
 21
1635.810678399665
 31
0.0
  0
LINE
  5
53E
  8
DETAIL
  6
CONTINUOUS
 62
     5
 10
219.33657200091281
 20
1640.509067671954
 30
0.0
 11
220.68185905943071
 21
1640.3049404655339
 31
0.0
  0
LINE
  5
53F
  8
DETAIL
  6
CONTINUOUS
 62
     5
 10
220.68185905943071
 20
1640.3049404655339
 30
0.0
 11
221.9722407743088
 21
1639.7008899113771
 31
0.0
  0
LINE
  5
540
  8
DETAIL
  6
CONTINUOUS
 62
     5
 10
221.9722407743088
 20
1639.7008899113771
 30
0.0
 11
223.1550526596661
 21
1638.7215691891599
 31
0.0
  0
LINE
  5
541
  8
DETAIL
  6
CONTINUOUS
 62
     5
 10
223.1550526596661
 20
1638.7215691891599
 30
0.0
 11
224.18202048841241
 21
1637.4069474192329
 31
0.0
  0
LINE
  5
542
  8
DETAIL
  6
CONTINUOUS
 62
     5
 10
224.18202048841241
 20
1637.4069474192329
 30
0.0
 11
225.0112305135207
 21
1635.810678399665
 31
0.0
  0
LINE
  5
543
  8
DETAIL
  6
CONTINUOUS
 62
     5
 10
225.4674736631809
 20
1640.509067671954
 30
0.0
 11
226.86408429042831
 21
1640.3049404655339
 31
0.0
  0
LINE
  5
544
  8
DETAIL
  6
CONTINUOUS
 62
     5
 10
226.86408429042831
 20
1640.3049404655339
 30
0.0
 11
228.20369489985069
 21
1639.7008899113771
 31
0.0
  0
LINE
  5
545
  8
DETAIL
  6
CONTINUOUS
 62
     5
 10
228.20369489985069
 20
1639.7008899113771
 30
0.0
 11
229.43163182131499
 21
1638.7215691891599
 31
0.0
  0
LINE
  5
546
  8
DETAIL
  6
CONTINUOUS
 62
     5
 10
229.43163182131499
 20
1638.7215691891599
 30
0.0
 11
230.49777913494469
 21
1637.4069474192329
 31
0.0
  0
LINE
  5
547
  8
DETAIL
  6
CONTINUOUS
 62
     5
 10
227.62614529066559
 20
1640.509067671954
 30
0.0
 11
229.0227559179111
 21
1640.3049404655339
 31
0.0
  0
LINE
  5
548
  8
DETAIL
  6
CONTINUOUS
 62
     5
 10
229.0227559179111
 20
1640.3049404655339
 30
0.0
 11
230.36236652733621
 21
1639.7008899113771
 31
0.0
  0
LINE
  5
550
  8
DETAIL
  6
CONTINUOUS
 62
     5
 10
168.3510954263906
 20
1640.509067671954
 30
0.0
 11
174.09340528905199
 21
1640.509067671954
 31
0.0
  0
LINE
  5
551
  8
DETAIL
  6
CONTINUOUS
 62
     5
 10
177.74991263438679
 20
1640.509067671954
 30
0.0
 11
183.6118033050102
 21
1640.509067671954
 31
0.0
  0
LINE
  5
552
  8
DETAIL
  6
CONTINUOUS
 62
     5
 10
186.9321689541446
 20
1640.509067671954
 30
0.0
 11
192.90649862195269
 21
1640.509067671954
 31
0.0
  0
LINE
  5
553
  8
DETAIL
  6
CONTINUOUS
 62
     5
 10
195.8866772207293
 20
1640.509067671954
 30
0.0
 11
201.96616708520921
 21
1640.509067671954
 31
0.0
  0
LINE
  5
554
  8
DETAIL
  6
CONTINUOUS
 62
     5
 10
204.6025277451653
 20
1640.509067671954
 30
0.0
 11
210.77977088446869
 21
1640.509067671954
 31
0.0
  0
LINE
  5
555
  8
DETAIL
  6
CONTINUOUS
 62
     5
 10
213.06910160611361
 20
1640.509067671954
 30
0.0
 11
219.33657200091281
 21
1640.509067671954
 31
0.0
  0
LINE
  5
556
  8
DETAIL
  6
CONTINUOUS
 62
     5
 10
221.2760835875242
 20
1640.509067671954
 30
0.0
 11
227.62614529066559
 21
1640.509067671954
 31
0.0
  0
LINE
  5
557
  8
NOTE
  6
CONTINUOUS
 62
     4
 10
253.50232256261179
 20
1736.4780491351651
 30
0.0
 11
203.48721087077999
 21
1786.389174763086
 31
0.0
  0
LINE
  5
558
  8
NOTE
  6
CONTINUOUS
 62
     4
 10
253.50232256261179
 20
1736.4780491351651
 30
0.0
 11
228.49476671669609
 21
1736.4780491351651
 31
0.0
  0
LINE
  5
559
  8
NOTE
  6
CONTINUOUS
 62
     4
 10
203.48721087077999
 20
1786.389174763086
 30
0.0
 11
153.47209917895131
 21
1736.4780491351651
 31
0.0
  0
LINE
  5
55A
  8
NOTE
  6
CONTINUOUS
 62
     4
 10
178.47965502486471
 20
1736.4780491351651
 30
0.0
 11
153.47209917895131
 21
1736.4780491351651
 31
0.0
  0
LINE
  5
55B
  8
NOTE
  6
CONTINUOUS
 62
     4
 10
-229.595497350394
 20
1736.4780491351651
 30
0.0
 11
-229.595497350394
 21
1695.779665001352
 31
0.0
  0
LINE
  5
55C
  8
NOTE
  6
CONTINUOUS
 62
     4
 10
-179.5803856585639
 20
1736.4780491351651
 30
0.0
 11
-179.5803856585639
 21
1695.779665001352
 31
0.0
  0
LINE
  5
560
  8
DETAIL
  6
CONTINUOUS
 62
     5
 10
-108.06835655771999
 20
1640.509067671954
 30
0.0
 11
-112.951948084159
 21
1640.509067671954
 31
0.0
  0
LINE
  5
561
  8
DETAIL
  6
CONTINUOUS
 62
     5
 10
160.04835741350681
 20
1647.211092508624
 30
0.0
 11
-160.04835741420899
 21
1647.211092508624
 31
0.0
  0
LINE
  5
562
  8
DETAIL
  6
CONTINUOUS
 62
     5
 10
140.04231273677701
 20
1647.9113040723009
 30
0.0
 11
-140.04231273747791
 21
1647.9113040723009
 31
0.0
  0
LINE
  5
563
  8
DETAIL
  6
CONTINUOUS
 62
     5
 10
120.0362680600492
 20
1648.6115156359781
 30
0.0
 11
-120.0362680607499
 21
1648.6115156359781
 31
0.0
  0
LINE
  5
564
  8
DETAIL
  6
CONTINUOUS
 62
     5
 10
-110.81964968615959
 20
1640.3049404655339
 30
0.0
 11
-111.4792167944251
 21
1639.7008899113771
 31
0.0
  0
LINE
  5
567
  8
DETAIL
  6
CONTINUOUS
 62
     5
 10
100.030223383304
 20
1649.311727199655
 30
0.0
 11
-100.0302233840188
 21
1649.311727199655
 31
0.0
  0
LINE
  5
568
  8
DETAIL
  6
CONTINUOUS
 62
     5
 10
-80.024178707276405
 20
1649.9999672647771
 30
0.0
 11
80.024178706575654
 21
1649.9999672647771
 31
0.0
  0
LINE
  5
67F
  8
DETAIL
  6
CONTINUOUS
 62
     5
 10
102.20578306409691
 20
1640.509067671954
 30
0.0
 11
102.8270617194902
 21
1640.3049404655339
 31
0.0
  0
LINE
  5
680
  8
DETAIL
  6
CONTINUOUS
 62
     5
 10
102.8270617194902
 20
1640.3049404655339
 30
0.0
 11
103.42298406316679
 21
1639.7008899113771
 31
0.0
  0
LINE
  5
681
  8
DETAIL
  6
CONTINUOUS
 62
     5
 10
103.42298406316679
 20
1639.7008899113771
 30
0.0
 11
103.9692286530808
 21
1638.7215691891599
 31
0.0
  0
LINE
  5
682
  8
DETAIL
  6
CONTINUOUS
 62
     5
 10
103.9692286530808
 20
1638.7215691891599
 30
0.0
 11
104.443501550992
 21
1637.4069474192329
 31
0.0
  0
LINE
  5
683
  8
DETAIL
  6
CONTINUOUS
 62
     5
 10
104.443501550992
 20
1637.4069474192329
 30
0.0
 11
104.8264462067586
 21
1635.810678399665
 31
0.0
  0
LINE
  5
684
  8
DETAIL
  6
CONTINUOUS
 62
     5
 10
99.35175119081714
 20
1640.509067671954
 30
0.0
 11
99.973029846209073
 21
1640.3049404655339
 31
0.0
  0
LINE
  5
685
  8
DETAIL
  6
CONTINUOUS
 62
     5
 10
99.973029846209073
 20
1640.3049404655339
 30
0.0
 11
100.56895218988799
 21
1639.7008899113771
 31
0.0
  0
LINE
  5
686
  8
DETAIL
  6
CONTINUOUS
 62
     5
 10
100.56895218988799
 20
1639.7008899113771
 30
0.0
 11
101.11519677990511
 21
1638.7215691891599
 31
0.0
  0
LINE
  5
687
  8
DETAIL
  6
CONTINUOUS
 62
     5
 10
101.11519677990511
 20
1638.7215691891599
 30
0.0
 11
101.5894696778177
 21
1637.4069474192329
 31
0.0
  0
LINE
  5
688
  8
DETAIL
  6
CONTINUOUS
 62
     5
 10
101.5894696778177
 20
1637.4069474192329
 30
0.0
 11
101.97241433347691
 21
1635.810678399665
 31
0.0
  0
LINE
  5
689
  8
DETAIL
  6
CONTINUOUS
 62
     5
 10
112.9519480834592
 20
1640.509067671954
 30
0.0
 11
113.6395795685643
 21
1640.3049404655339
 31
0.0
  0
LINE
  5
68A
  8
DETAIL
  6
CONTINUOUS
 62
     5
 10
113.6395795685643
 20
1640.3049404655339
 30
0.0
 11
114.2991466768289
 21
1639.7008899113771
 31
0.0
  0
LINE
  5
68B
  8
DETAIL
  6
CONTINUOUS
 62
     5
 10
114.2991466768289
 20
1639.7008899113771
 30
0.0
 11
114.9037304257858
 21
1638.7215691891599
 31
0.0
  0
LINE
  5
68C
  8
DETAIL
  6
CONTINUOUS
 62
     5
 10
114.9037304257858
 20
1638.7215691891599
 30
0.0
 11
115.4286558747971
 21
1637.4069474192329
 31
0.0
  0
LINE
  5
68D
  8
DETAIL
  6
CONTINUOUS
 62
     5
 10
115.4286558747971
 20
1637.4069474192329
 30
0.0
 11
115.85249918567931
 21
1635.810678399665
 31
0.0
  0
LINE
  5
68E
  8
DETAIL
  6
CONTINUOUS
 62
     5
 10
110.132018200446
 20
1640.509067671954
 30
0.0
 11
110.8196496854429
 21
1640.3049404655339
 31
0.0
  0
LINE
  5
68F
  8
DETAIL
  6
CONTINUOUS
 62
     5
 10
110.8196496854429
 20
1640.3049404655339
 30
0.0
 11
111.4792167937248
 21
1639.7008899113771
 31
0.0
  0
LINE
  5
690
  8
DETAIL
  6
CONTINUOUS
 62
     5
 10
111.4792167937248
 20
1639.7008899113771
 30
0.0
 11
112.0838005426821
 21
1638.7215691891599
 31
0.0
  0
LINE
  5
691
  8
DETAIL
  6
CONTINUOUS
 62
     5
 10
112.0838005426821
 20
1638.7215691891599
 30
0.0
 11
112.6087259916771
 21
1637.4069474192329
 31
0.0
  0
LINE
  5
692
  8
DETAIL
  6
CONTINUOUS
 62
     5
 10
112.6087259916771
 20
1637.4069474192329
 30
0.0
 11
113.0325693025588
 21
1635.810678399665
 31
0.0
  0
LINE
  5
6C0
  8
DETAIL
  6
CONTINUOUS
 62
     5
 10
160.04835741350681
 20
1647.211092508624
 30
0.0
 11
160.04835741350681
 21
1646.510880944918
 31
0.0
  0
LINE
  5
6C1
  8
DETAIL
  6
CONTINUOUS
 62
     5
 10
158.74716834116131
 20
1640.509067671954
 30
0.0
 11
158.74716834116131
 21
1634.588176280593
 31
0.0
  0
LINE
  5
6C2
  8
DETAIL
  6
CONTINUOUS
 62
     5
 10
148.94983228437411
 20
1640.509067671954
 30
0.0
 11
148.94983228437411
 21
1632.5066498012391
 31
0.0
  0
LINE
  5
6C3
  8
DETAIL
  6
CONTINUOUS
 62
     5
 10
140.04231273677701
 20
1647.9113040723009
 30
0.0
 11
140.04231273677701
 21
1647.211092508624
 31
0.0
  0
LINE
  5
6C4
  8
DETAIL
  6
CONTINUOUS
 62
     5
 10
138.97102380084101
 20
1640.509067671954
 30
0.0
 11
138.97102380084101
 21
1632.5066498012391
 31
0.0
  0
LINE
  5
6C5
  8
DETAIL
  6
CONTINUOUS
 62
     5
 10
128.82290053171431
 20
1640.509067671954
 30
0.0
 11
128.82290053171431
 21
1632.5066498012391
 31
0.0
  0
LINE
  5
6C6
  8
DETAIL
  6
CONTINUOUS
 62
     5
 10
120.0362680600492
 20
1648.6115156359781
 30
0.0
 11
120.0362680600492
 21
1647.9113040723009
 31
0.0
  0
LINE
  5
6C7
  8
DETAIL
  6
CONTINUOUS
 62
     5
 10
118.51782640195459
 20
1640.509067671954
 30
0.0
 11
118.51782640195459
 21
1632.5066498012391
 31
0.0
  0
LINE
  5
6C8
  8
DETAIL
  6
CONTINUOUS
 62
     5
 10
108.0683565569133
 20
1640.509067671954
 30
0.0
 11
108.0683565569133
 21
1632.5066498012391
 31
0.0
  0
LINE
  5
6C9
  8
DETAIL
  6
CONTINUOUS
 62
     5
 10
100.030223383304
 20
1649.311727199655
 30
0.0
 11
100.030223383304
 21
1648.6115156359781
 31
0.0
  0
LINE
  5
6CA
  8
DETAIL
  6
CONTINUOUS
 62
     5
 10
97.487222066190483
 20
1640.509067671954
 30
0.0
 11
97.487222066190483
 21
1632.5066498012391
 31
0.0
  0
LINE
  5
6CB
  8
DETAIL
  6
CONTINUOUS
 62
     5
 10
120.7781063103188
 20
1640.509067671954
 30
0.0
 11
121.5312528520207
 21
1640.3049404655339
 31
0.0
  0
LINE
  5
6CC
  8
DETAIL
  6
CONTINUOUS
 62
     5
 10
121.5312528520207
 20
1640.3049404655339
 30
0.0
 11
122.2536611439763
 21
1639.7008899113771
 31
0.0
  0
LINE
  5
6CD
  8
DETAIL
  6
CONTINUOUS
 62
     5
 10
122.2536611439763
 20
1639.7008899113771
 30
0.0
 11
122.91584745980791
 21
1638.7215691891599
 31
0.0
  0
LINE
  5
6CE
  8
DETAIL
  6
CONTINUOUS
 62
     5
 10
122.91584745980791
 20
1638.7215691891599
 30
0.0
 11
123.49078591907519
 21
1637.4069474192329
 31
0.0
  0
LINE
  5
6CF
  8
DETAIL
  6
CONTINUOUS
 62
     5
 10
123.49078591907519
 20
1637.4069474192329
 30
0.0
 11
123.9550114973558
 21
1635.810678399665
 31
0.0
  0
LINE
  5
6D0
  8
DETAIL
  6
CONTINUOUS
 62
     5
 10
123.560498553023
 20
1640.509067671954
 30
0.0
 11
124.3136450947099
 21
1640.3049404655339
 31
0.0
  0
LINE
  5
6D1
  8
DETAIL
  6
CONTINUOUS
 62
     5
 10
124.3136450947099
 20
1640.3049404655339
 30
0.0
 11
125.0360533866814
 21
1639.7008899113771
 31
0.0
  0
LINE
  5
6D2
  8
DETAIL
  6
CONTINUOUS
 62
     5
 10
125.0360533866814
 20
1639.7008899113771
 30
0.0
 11
125.6982397025112
 21
1638.7215691891599
 31
0.0
  0
LINE
  5
6D3
  8
DETAIL
  6
CONTINUOUS
 62
     5
 10
125.6982397025112
 20
1638.7215691891599
 30
0.0
 11
126.2731781617631
 21
1637.4069474192329
 31
0.0
  0
LINE
  5
6D4
  8
DETAIL
  6
CONTINUOUS
 62
     5
 10
126.2731781617631
 20
1637.4069474192329
 30
0.0
 11
126.73740374005899
 21
1635.810678399665
 31
0.0
  0
LINE
  5
6D5
  8
DETAIL
  6
CONTINUOUS
 62
     5
 10
131.27704490207631
 20
1640.509067671954
 30
0.0
 11
132.0947889074086
 21
1640.3049404655339
 31
0.0
  0
LINE
  5
6D6
  8
DETAIL
  6
CONTINUOUS
 62
     5
 10
132.0947889074086
 20
1640.3049404655339
 30
0.0
 11
132.87915823983019
 21
1639.7008899113771
 31
0.0
  0
LINE
  5
6D7
  8
DETAIL
  6
CONTINUOUS
 62
     5
 10
132.87915823983019
 20
1639.7008899113771
 30
0.0
 11
133.5981403505028
 21
1638.7215691891599
 31
0.0
  0
LINE
  5
6D8
  8
DETAIL
  6
CONTINUOUS
 62
     5
 10
133.5981403505028
 20
1638.7215691891599
 30
0.0
 11
134.22239134605971
 21
1637.4069474192329
 31
0.0
  0
LINE
  5
6D9
  8
DETAIL
  6
CONTINUOUS
 62
     5
 10
134.22239134605971
 20
1637.4069474192329
 30
0.0
 11
134.72643360445721
 21
1635.810678399665
 31
0.0
  0
LINE
  5
6DA
  8
DETAIL
  6
CONTINUOUS
 62
     5
 10
134.018509588011
 20
1640.509067671954
 30
0.0
 11
134.836253593452
 21
1640.3049404655339
 31
0.0
  0
LINE
  5
6DB
  8
DETAIL
  6
CONTINUOUS
 62
     5
 10
134.836253593452
 20
1640.3049404655339
 30
0.0
 11
135.62062292578219
 21
1639.7008899113771
 31
0.0
  0
LINE
  5
6DC
  8
DETAIL
  6
CONTINUOUS
 62
     5
 10
135.62062292578219
 20
1639.7008899113771
 30
0.0
 11
136.33960503644079
 21
1638.7215691891599
 31
0.0
  0
LINE
  5
6DD
  8
DETAIL
  6
CONTINUOUS
 62
     5
 10
136.33960503644079
 20
1638.7215691891599
 30
0.0
 11
136.9638560320127
 21
1637.4069474192329
 31
0.0
  0
LINE
  5
6DE
  8
DETAIL
  6
CONTINUOUS
 62
     5
 10
136.9638560320127
 20
1637.4069474192329
 30
0.0
 11
137.46789829041009
 21
1635.810678399665
 31
0.0
  0
LINE
  5
6DF
  8
DETAIL
  6
CONTINUOUS
 62
     5
 10
141.61604263639401
 20
1640.509067671954
 30
0.0
 11
142.49738781024681
 21
1640.3049404655339
 31
0.0
  0
LINE
  5
6E0
  8
DETAIL
  6
CONTINUOUS
 62
     5
 10
142.49738781024681
 20
1640.3049404655339
 30
0.0
 11
143.34276254989891
 21
1639.7008899113771
 31
0.0
  0
LINE
  5
6E1
  8
DETAIL
  6
CONTINUOUS
 62
     5
 10
143.34276254989891
 20
1639.7008899113771
 30
0.0
 11
144.11766448631889
 21
1638.7215691891599
 31
0.0
  0
LINE
  5
6E2
  8
DETAIL
  6
CONTINUOUS
 62
     5
 10
144.11766448631889
 20
1638.7215691891599
 30
0.0
 11
144.79046746460651
 21
1637.4069474192329
 31
0.0
  0
LINE
  5
6E3
  8
DETAIL
  6
CONTINUOUS
 62
     5
 10
144.79046746460651
 20
1637.4069474192329
 30
0.0
 11
145.33371230527379
 21
1635.810678399665
 31
0.0
  0
LINE
  5
6E4
  8
DETAIL
  6
CONTINUOUS
 62
     5
 10
144.3132397132139
 20
1640.509067671954
 30
0.0
 11
145.1945848870682
 21
1640.3049404655339
 31
0.0
  0
LINE
  5
6E5
  8
DETAIL
  6
CONTINUOUS
 62
     5
 10
145.1945848870682
 20
1640.3049404655339
 30
0.0
 11
146.03995962671971
 21
1639.7008899113771
 31
0.0
  0
LINE
  5
6E6
  8
DETAIL
  6
CONTINUOUS
 62
     5
 10
146.03995962671971
 20
1639.7008899113771
 30
0.0
 11
146.8148615631398
 21
1638.7215691891599
 31
0.0
  0
LINE
  5
6E7
  8
DETAIL
  6
CONTINUOUS
 62
     5
 10
146.8148615631398
 20
1638.7215691891599
 30
0.0
 11
147.48766454142779
 21
1637.4069474192329
 31
0.0
  0
LINE
  5
6E8
  8
DETAIL
  6
CONTINUOUS
 62
     5
 10
147.48766454142779
 20
1637.4069474192329
 30
0.0
 11
148.03090938209371
 21
1635.810678399665
 31
0.0
  0
LINE
  5
6E9
  8
DETAIL
  6
CONTINUOUS
 62
     5
 10
151.78250303693719
 20
1640.509067671954
 30
0.0
 11
152.72637559598289
 21
1640.3049404655339
 31
0.0
  0
LINE
  5
6EA
  8
DETAIL
  6
CONTINUOUS
 62
     5
 10
152.72637559598289
 20
1640.3049404655339
 30
0.0
 11
153.63172578395961
 21
1639.7008899113771
 31
0.0
  0
LINE
  5
6EB
  8
DETAIL
  6
CONTINUOUS
 62
     5
 10
153.63172578395961
 20
1639.7008899113771
 30
0.0
 11
154.46160344769351
 21
1638.7215691891599
 31
0.0
  0
LINE
  5
6EC
  8
DETAIL
  6
CONTINUOUS
 62
     5
 10
154.46160344769351
 20
1638.7215691891599
 30
0.0
 11
155.182138701833
 21
1637.4069474192329
 31
0.0
  0
LINE
  5
6ED
  8
DETAIL
  6
CONTINUOUS
 62
     5
 10
155.182138701833
 20
1637.4069474192329
 30
0.0
 11
155.7639242644841
 21
1635.810678399665
 31
0.0
  0
LINE
  5
6EE
  8
DETAIL
  6
CONTINUOUS
 62
     5
 10
154.43214638546479
 20
1640.509067671954
 30
0.0
 11
155.37601894449509
 21
1640.3049404655339
 31
0.0
  0
LINE
  5
6EF
  8
DETAIL
  6
CONTINUOUS
 62
     5
 10
155.37601894449509
 20
1640.3049404655339
 30
0.0
 11
156.28136913248679
 21
1639.7008899113771
 31
0.0
  0
LINE
  5
6F0
  8
DETAIL
  6
CONTINUOUS
 62
     5
 10
156.28136913248679
 20
1639.7008899113771
 30
0.0
 11
157.11124679620519
 21
1638.7215691891599
 31
0.0
  0
LINE
  5
6F1
  8
DETAIL
  6
CONTINUOUS
 62
     5
 10
157.11124679620519
 20
1638.7215691891599
 30
0.0
 11
157.83178205034301
 21
1637.4069474192329
 31
0.0
  0
LINE
  5
6F2
  8
DETAIL
  6
CONTINUOUS
 62
     5
 10
157.83178205034301
 20
1637.4069474192329
 30
0.0
 11
158.41356761299579
 21
1635.810678399665
 31
0.0
  0
LINE
  5
700
  8
DETAIL
  6
CONTINUOUS
 62
     5
 10
97.487222066190483
 20
1640.509067671954
 30
0.0
 11
102.20578306409691
 21
1640.509067671954
 31
0.0
  0
LINE
  5
701
  8
DETAIL
  6
CONTINUOUS
 62
     5
 10
108.0683565569133
 20
1640.509067671954
 30
0.0
 11
112.9519480834592
 21
1640.509067671954
 31
0.0
  0
LINE
  5
702
  8
DETAIL
  6
CONTINUOUS
 62
     5
 10
118.51782640195459
 20
1640.509067671954
 30
0.0
 11
123.560498553023
 21
1640.509067671954
 31
0.0
  0
LINE
  5
703
  8
DETAIL
  6
CONTINUOUS
 62
     5
 10
128.82290053171431
 20
1640.509067671954
 30
0.0
 11
134.018509588011
 21
1640.509067671954
 31
0.0
  0
LINE
  5
704
  8
DETAIL
  6
CONTINUOUS
 62
     5
 10
138.97102380084101
 20
1640.509067671954
 30
0.0
 11
144.3132397132139
 21
1640.509067671954
 31
0.0
  0
LINE
  5
705
  8
DETAIL
  6
CONTINUOUS
 62
     5
 10
148.94983228437411
 20
1640.509067671954
 30
0.0
 11
154.43214638546479
 21
1640.509067671954
 31
0.0
  0
LINE
  5
706
  8
DETAIL
  6
CONTINUOUS
 62
     5
 10
80.35313127383597
 20
1640.509067671954
 30
0.0
 11
80.839515235715211
 21
1640.3049404655339
 31
0.0
  0
LINE
  5
707
  8
DETAIL
  6
CONTINUOUS
 62
     5
 10
80.839515235715211
 20
1640.3049404655339
 30
0.0
 11
81.306048357308086
 21
1639.7008899113771
 31
0.0
  0
LINE
  5
708
  8
DETAIL
  6
CONTINUOUS
 62
     5
 10
81.306048357308086
 20
1639.7008899113771
 30
0.0
 11
81.73368997272064
 21
1638.7215691891599
 31
0.0
  0
LINE
  5
709
  8
DETAIL
  6
CONTINUOUS
 62
     5
 10
81.73368997272064
 20
1638.7215691891599
 30
0.0
 11
82.104986699344437
 21
1637.4069474192329
 31
0.0
  0
LINE
  5
70A
  8
DETAIL
  6
CONTINUOUS
 62
     5
 10
82.104986699344437
 20
1637.4069474192329
 30
0.0
 11
82.404784764490614
 21
1635.810678399665
 31
0.0
  0
LINE
  5
70B
  8
DETAIL
  6
CONTINUOUS
 62
     5
 10
77.441364326437906
 20
1640.509067671954
 30
0.0
 11
77.927748288315783
 21
1640.3049404655339
 31
0.0
  0
LINE
  5
70C
  8
DETAIL
  6
CONTINUOUS
 62
     5
 10
77.927748288315783
 20
1640.3049404655339
 30
0.0
 11
78.39428140980317
 21
1639.7008899113771
 31
0.0
  0
LINE
  5
70D
  8
DETAIL
  6
CONTINUOUS
 62
     5
 10
78.39428140980317
 20
1639.7008899113771
 30
0.0
 11
78.82192302532394
 21
1638.7215691891599
 31
0.0
  0
LINE
  5
70E
  8
DETAIL
  6
CONTINUOUS
 62
     5
 10
78.82192302532394
 20
1638.7215691891599
 30
0.0
 11
79.193219751946344
 21
1637.4069474192329
 31
0.0
  0
LINE
  5
70F
  8
DETAIL
  6
CONTINUOUS
 62
     5
 10
79.193219751946344
 20
1637.4069474192329
 30
0.0
 11
79.493017817090731
 21
1635.810678399665
 31
0.0
  0
LINE
  5
710
  8
DETAIL
  6
CONTINUOUS
 62
     5
 10
91.335096041725123
 20
1640.509067671954
 30
0.0
 11
91.889264935020051
 21
1640.3049404655339
 31
0.0
  0
LINE
  5
711
  8
DETAIL
  6
CONTINUOUS
 62
     5
 10
91.889264935020051
 20
1640.3049404655339
 30
0.0
 11
92.420816474435924
 21
1639.7008899113771
 31
0.0
  0
LINE
  5
712
  8
DETAIL
  6
CONTINUOUS
 62
     5
 10
92.420816474435924
 20
1639.7008899113771
 30
0.0
 11
92.908056390632268
 21
1638.7215691891599
 31
0.0
  0
LINE
  5
713
  8
DETAIL
  6
CONTINUOUS
 62
     5
 10
92.908056390632268
 20
1638.7215691891599
 30
0.0
 11
93.331098908967775
 21
1637.4069474192329
 31
0.0
  0
LINE
  5
714
  8
DETAIL
  6
CONTINUOUS
 62
     5
 10
93.331098908967775
 20
1637.4069474192329
 30
0.0
 11
93.672678350345436
 21
1635.810678399665
 31
0.0
  0
LINE
  5
715
  8
DETAIL
  6
CONTINUOUS
 62
     5
 10
88.45043937650189
 20
1640.509067671954
 30
0.0
 11
89.004608269781315
 21
1640.3049404655339
 31
0.0
  0
LINE
  5
716
  8
DETAIL
  6
CONTINUOUS
 62
     5
 10
89.004608269781315
 20
1640.3049404655339
 30
0.0
 11
89.536159809214965
 21
1639.7008899113771
 31
0.0
  0
LINE
  5
717
  8
DETAIL
  6
CONTINUOUS
 62
     5
 10
89.536159809214965
 20
1639.7008899113771
 30
0.0
 11
90.023399725301715
 21
1638.7215691891599
 31
0.0
  0
LINE
  5
718
  8
DETAIL
  6
CONTINUOUS
 62
     5
 10
90.023399725301715
 20
1638.7215691891599
 30
0.0
 11
90.446442243730871
 21
1637.4069474192329
 31
0.0
  0
LINE
  5
719
  8
DETAIL
  6
CONTINUOUS
 62
     5
 10
90.446442243730871
 20
1637.4069474192329
 30
0.0
 11
90.788021685107637
 21
1635.810678399665
 31
0.0
  0
LINE
  5
71A
  8
DETAIL
  6
CONTINUOUS
 62
     5
 10
58.109007105120781
 20
1640.509067671954
 30
0.0
 11
58.458126759612249
 21
1640.3049404655339
 31
0.0
  0
LINE
  5
71B
  8
DETAIL
  6
CONTINUOUS
 62
     5
 10
58.458126759612249
 20
1640.3049404655339
 30
0.0
 11
58.792997756678687
 21
1639.7008899113771
 31
0.0
  0
LINE
  5
71C
  8
DETAIL
  6
CONTINUOUS
 62
     5
 10
58.792997756678687
 20
1639.7008899113771
 30
0.0
 11
59.099952970604129
 21
1638.7215691891599
 31
0.0
  0
LINE
  5
71D
  8
DETAIL
  6
CONTINUOUS
 62
     5
 10
59.099952970604129
 20
1638.7215691891599
 30
0.0
 11
59.366464605710462
 21
1637.4069474192329
 31
0.0
  0
LINE
  5
71E
  8
DETAIL
  6
CONTINUOUS
 62
     5
 10
59.366464605710462
 20
1637.4069474192329
 30
0.0
 11
59.581655494225281
 21
1635.810678399665
 31
0.0
  0
LINE
  5
71F
  8
DETAIL
  6
CONTINUOUS
 62
     5
 10
55.153690919345991
 20
1640.509067671954
 30
0.0
 11
55.502810573943862
 21
1640.3049404655339
 31
0.0
  0
LINE
  5
720
  8
DETAIL
  6
CONTINUOUS
 62
     5
 10
55.502810573943862
 20
1640.3049404655339
 30
0.0
 11
55.837681570904813
 21
1639.7008899113771
 31
0.0
  0
LINE
  5
721
  8
DETAIL
  6
CONTINUOUS
 62
     5
 10
55.837681570904813
 20
1639.7008899113771
 30
0.0
 11
56.144636784935287
 21
1638.7215691891599
 31
0.0
  0
LINE
  5
722
  8
DETAIL
  6
CONTINUOUS
 62
     5
 10
56.144636784935287
 20
1638.7215691891599
 30
0.0
 11
56.411148419921119
 21
1637.4069474192329
 31
0.0
  0
LINE
  5
723
  8
DETAIL
  6
CONTINUOUS
 62
     5
 10
56.411148419921119
 20
1637.4069474192329
 30
0.0
 11
56.626339308539173
 21
1635.810678399665
 31
0.0
  0
LINE
  5
724
  8
DETAIL
  6
CONTINUOUS
 62
     5
 10
69.273268593013199
 20
1640.509067671954
 30
0.0
 11
69.691275039435354
 21
1640.3049404655339
 31
0.0
  0
LINE
  5
725
  8
DETAIL
  6
CONTINUOUS
 62
     5
 10
69.691275039435354
 20
1640.3049404655339
 30
0.0
 11
70.092221344370046
 21
1639.7008899113771
 31
0.0
  0
LINE
  5
726
  8
DETAIL
  6
CONTINUOUS
 62
     5
 10
70.092221344370046
 20
1639.7008899113771
 30
0.0
 11
70.459743643682032
 21
1638.7215691891599
 31
0.0
  0
LINE
  5
727
  8
DETAIL
  6
CONTINUOUS
 62
     5
 10
70.459743643682032
 20
1638.7215691891599
 30
0.0
 11
70.77884221081284
 21
1637.4069474192329
 31
0.0
  0
LINE
  5
728
  8
DETAIL
  6
CONTINUOUS
 62
     5
 10
70.77884221081284
 20
1637.4069474192329
 30
0.0
 11
71.036493641976904
 21
1635.810678399665
 31
0.0
  0
LINE
  5
729
  8
DETAIL
  6
CONTINUOUS
 62
     5
 10
66.337938902903716
 20
1640.509067671954
 30
0.0
 11
66.755945349324975
 21
1640.3049404655339
 31
0.0
  0
LINE
  5
72A
  8
DETAIL
  6
CONTINUOUS
 62
     5
 10
66.755945349324975
 20
1640.3049404655339
 30
0.0
 11
67.156891654260093
 21
1639.7008899113771
 31
0.0
  0
LINE
  5
72B
  8
DETAIL
  6
CONTINUOUS
 62
     5
 10
67.156891654260093
 20
1639.7008899113771
 30
0.0
 11
67.524413953572093
 21
1638.7215691891599
 31
0.0
  0
LINE
  5
72C
  8
DETAIL
  6
CONTINUOUS
 62
     5
 10
67.524413953572093
 20
1638.7215691891599
 30
0.0
 11
67.843512520718377
 21
1637.4069474192329
 31
0.0
  0
LINE
  5
72D
  8
DETAIL
  6
CONTINUOUS
 62
     5
 10
67.843512520718377
 20
1637.4069474192329
 30
0.0
 11
68.101163951867875
 21
1635.810678399665
 31
0.0
  0
LINE
  5
72E
  8
DETAIL
  6
CONTINUOUS
 62
     5
 10
46.873948742998877
 20
1640.509067671954
 30
0.0
 11
47.153756257136152
 21
1640.3049404655339
 31
0.0
  0
LINE
  5
72F
  8
DETAIL
  6
CONTINUOUS
 62
     5
 10
47.153756257136152
 20
1640.3049404655339
 30
0.0
 11
47.422143957574463
 21
1639.7008899113771
 31
0.0
  0
LINE
  5
730
  8
DETAIL
  6
CONTINUOUS
 62
     5
 10
47.422143957574463
 20
1639.7008899113771
 30
0.0
 11
47.668158108403077
 21
1638.7215691891599
 31
0.0
  0
LINE
  5
731
  8
DETAIL
  6
CONTINUOUS
 62
     5
 10
47.668158108403077
 20
1638.7215691891599
 30
0.0
 11
47.881758108157101
 21
1637.4069474192329
 31
0.0
  0
LINE
  5
732
  8
DETAIL
  6
CONTINUOUS
 62
     5
 10
47.881758108157101
 20
1637.4069474192329
 30
0.0
 11
48.054226277120961
 21
1635.810678399665
 31
0.0
  0
LINE
  5
733
  8
DETAIL
  6
CONTINUOUS
 62
     5
 10
43.902246659241889
 20
1640.509067671954
 30
0.0
 11
44.182054173380031
 21
1640.3049404655339
 31
0.0
  0
LINE
  5
734
  8
DETAIL
  6
CONTINUOUS
 62
     5
 10
44.182054173380031
 20
1640.3049404655339
 30
0.0
 11
44.450441873818342
 21
1639.7008899113771
 31
0.0
  0
LINE
  5
735
  8
DETAIL
  6
CONTINUOUS
 62
     5
 10
44.450441873818342
 20
1639.7008899113771
 30
0.0
 11
44.696456024662417
 21
1638.7215691891599
 31
0.0
  0
LINE
  5
736
  8
DETAIL
  6
CONTINUOUS
 62
     5
 10
44.696456024662417
 20
1638.7215691891599
 30
0.0
 11
44.910056024293212
 21
1637.4069474192329
 31
0.0
  0
LINE
  5
737
  8
DETAIL
  6
CONTINUOUS
 62
     5
 10
44.910056024293212
 20
1637.4069474192329
 30
0.0
 11
45.082524193363952
 21
1635.810678399665
 31
0.0
  0
LINE
  5
738
  8
DETAIL
  6
CONTINUOUS
 62
     5
 10
35.581781694791061
 20
1640.509067671954
 30
0.0
 11
35.791936166194319
 21
1640.3049404655339
 31
0.0
  0
LINE
  5
739
  8
DETAIL
  6
CONTINUOUS
 62
     5
 10
35.791936166194319
 20
1640.3049404655339
 30
0.0
 11
35.993513580801391
 21
1639.7008899113771
 31
0.0
  0
LINE
  5
73A
  8
DETAIL
  6
CONTINUOUS
 62
     5
 10
35.993513580801391
 20
1639.7008899113771
 30
0.0
 11
36.178286938287783
 21
1638.7215691891599
 31
0.0
  0
LINE
  5
73B
  8
DETAIL
  6
CONTINUOUS
 62
     5
 10
36.178286938287783
 20
1638.7215691891599
 30
0.0
 11
36.338715063946893
 21
1637.4069474192329
 31
0.0
  0
LINE
  5
73C
  8
DETAIL
  6
CONTINUOUS
 62
     5
 10
36.338715063946893
 20
1637.4069474192329
 30
0.0
 11
36.468250387582891
 21
1635.810678399665
 31
0.0
  0
LINE
  5
73D
  8
DETAIL
  6
CONTINUOUS
 62
     5
 10
32.597314274188193
 20
1640.509067671954
 30
0.0
 11
32.807468745588722
 21
1640.3049404655339
 31
0.0
  0
LINE
  5
73E
  8
DETAIL
  6
CONTINUOUS
 62
     5
 10
32.807468745588722
 20
1640.3049404655339
 30
0.0
 11
33.009046160195787
 21
1639.7008899113771
 31
0.0
  0
LINE
  5
73F
  8
DETAIL
  6
CONTINUOUS
 62
     5
 10
33.009046160195787
 20
1639.7008899113771
 30
0.0
 11
33.193819517684908
 21
1638.7215691891599
 31
0.0
  0
LINE
  5
740
  8
DETAIL
  6
CONTINUOUS
 62
     5
 10
33.193819517684908
 20
1638.7215691891599
 30
0.0
 11
33.35424764334266
 21
1637.4069474192329
 31
0.0
  0
LINE
  5
741
  8
DETAIL
  6
CONTINUOUS
 62
     5
 10
33.35424764334266
 20
1637.4069474192329
 30
0.0
 11
33.483782966979561
 21
1635.810678399665
 31
0.0
  0
LINE
  5
763
  8
DETAIL
  6
CONTINUOUS
 62
     5
 10
86.787314412028081
 20
1640.509067671954
 30
0.0
 11
86.787314412028081
 21
1632.5066498012391
 31
0.0
  0
LINE
  5
764
  8
DETAIL
  6
CONTINUOUS
 62
     5
 10
80.024178706575654
 20
1649.311727199655
 30
0.0
 11
80.024178706575654
 21
1649.9999672647771
 31
0.0
  0
LINE
  5
765
  8
DETAIL
  6
CONTINUOUS
 62
     5
 10
75.98166978385099
 20
1640.509067671954
 30
0.0
 11
75.98166978385099
 21
1632.5066498012391
 31
0.0
  0
LINE
  5
766
  8
DETAIL
  6
CONTINUOUS
 62
     5
 10
65.083453195130005
 20
1640.509067671954
 30
0.0
 11
65.083453195130005
 21
1632.5066498012391
 31
0.0
  0
LINE
  5
767
  8
DETAIL
  6
CONTINUOUS
 62
     5
 10
54.105942444087752
 20
1640.509067671954
 30
0.0
 11
54.105942444087752
 21
1632.5066498012391
 31
0.0
  0
LINE
  5
770
  8
DETAIL
  6
CONTINUOUS
 62
     5
 10
43.062511936476312
 20
1640.509067671954
 30
0.0
 11
43.062511936476312
 21
1632.5066498012391
 31
0.0
  0
LINE
  5
771
  8
DETAIL
  6
CONTINUOUS
 62
     5
 10
31.96661639134663
 20
1640.509067671954
 30
0.0
 11
31.96661639134663
 21
1632.5066498012391
 31
0.0
  0
LINE
  5
77D
  8
DETAIL
  6
CONTINUOUS
 62
     5
 10
31.96661639134663
 20
1640.509067671954
 30
0.0
 11
35.581781694791061
 21
1640.509067671954
 31
0.0
  0
LINE
  5
77E
  8
DETAIL
  6
CONTINUOUS
 62
     5
 10
43.062511936476312
 20
1640.509067671954
 30
0.0
 11
46.873948742998877
 21
1640.509067671954
 31
0.0
  0
LINE
  5
77F
  8
DETAIL
  6
CONTINUOUS
 62
     5
 10
54.105942444087752
 20
1640.509067671954
 30
0.0
 11
58.109007105120781
 21
1640.509067671954
 31
0.0
  0
LINE
  5
780
  8
DETAIL
  6
CONTINUOUS
 62
     5
 10
65.083453195130005
 20
1640.509067671954
 30
0.0
 11
69.273268593013199
 21
1640.509067671954
 31
0.0
  0
LINE
  5
781
  8
DETAIL
  6
CONTINUOUS
 62
     5
 10
75.98166978385099
 20
1640.509067671954
 30
0.0
 11
80.35313127383597
 21
1640.509067671954
 31
0.0
  0
LINE
  5
782
  8
DETAIL
  6
CONTINUOUS
 62
     5
 10
86.787314412028081
 20
1640.509067671954
 30
0.0
 11
91.335096041725123
 21
1640.509067671954
 31
0.0
  0
LINE
  5
884
  8
DETAIL
  6
CONTINUOUS
 62
     5
 10
24.24626372654529
 20
1640.509067671954
 30
0.0
 11
24.386509114344332
 21
1640.3049404655339
 31
0.0
  0
LINE
  5
885
  8
DETAIL
  6
CONTINUOUS
 62
     5
 10
24.386509114344332
 20
1640.3049404655339
 30
0.0
 11
24.521030652217171
 21
1639.7008899113771
 31
0.0
  0
LINE
  5
886
  8
DETAIL
  6
CONTINUOUS
 62
     5
 10
24.521030652217171
 20
1639.7008899113771
 30
0.0
 11
24.644338098430119
 21
1638.7215691891599
 31
0.0
  0
LINE
  5
887
  8
DETAIL
  6
CONTINUOUS
 62
     5
 10
24.644338098430119
 20
1638.7215691891599
 30
0.0
 11
24.75139889296133
 21
1637.4069474192329
 31
0.0
  0
LINE
  5
888
  8
DETAIL
  6
CONTINUOUS
 62
     5
 10
24.75139889296133
 20
1637.4069474192329
 30
0.0
 11
24.837843552369581
 21
1635.810678399665
 31
0.0
  0
LINE
  5
889
  8
DETAIL
  6
CONTINUOUS
 62
     5
 10
21.25266708290701
 20
1640.509067671954
 30
0.0
 11
21.392912470707412
 21
1640.3049404655339
 31
0.0
  0
LINE
  5
88A
  8
DETAIL
  6
CONTINUOUS
 62
     5
 10
21.392912470707412
 20
1640.3049404655339
 30
0.0
 11
21.527434008578432
 21
1639.7008899113771
 31
0.0
  0
LINE
  5
88B
  8
DETAIL
  6
CONTINUOUS
 62
     5
 10
21.527434008578432
 20
1639.7008899113771
 30
0.0
 11
21.650741454806841
 21
1638.7215691891599
 31
0.0
  0
LINE
  5
88C
  8
DETAIL
  6
CONTINUOUS
 62
     5
 10
21.650741454806841
 20
1638.7215691891599
 30
0.0
 11
21.757802249321681
 21
1637.4069474192329
 31
0.0
  0
LINE
  5
88D
  8
DETAIL
  6
CONTINUOUS
 62
     5
 10
21.757802249321681
 20
1637.4069474192329
 30
0.0
 11
21.844246908730831
 21
1635.810678399665
 31
0.0
  0
LINE
  5
88E
  8
DETAIL
  6
CONTINUOUS
 62
     5
 10
12.88120542079559
 20
1640.509067671954
 30
0.0
 11
12.95137085755777
 21
1640.3049404655339
 31
0.0
  0
LINE
  5
88F
  8
DETAIL
  6
CONTINUOUS
 62
     5
 10
12.95137085755777
 20
1640.3049404655339
 30
0.0
 11
13.01867262488849
 21
1639.7008899113771
 31
0.0
  0
LINE
  5
890
  8
DETAIL
  6
CONTINUOUS
 62
     5
 10
13.01867262488849
 20
1639.7008899113771
 30
0.0
 11
13.08036392865233
 21
1638.7215691891599
 31
0.0
  0
LINE
  5
891
  8
DETAIL
  6
CONTINUOUS
 62
     5
 10
13.08036392865233
 20
1638.7215691891599
 30
0.0
 11
13.133926955114021
 21
1637.4069474192329
 31
0.0
  0
LINE
  5
892
  8
DETAIL
  6
CONTINUOUS
 62
     5
 10
13.133926955114021
 20
1637.4069474192329
 30
0.0
 11
13.177175630685261
 21
1635.810678399665
 31
0.0
  0
LINE
  5
893
  8
DETAIL
  6
CONTINUOUS
 62
     5
 10
9.8821267905227597
 20
1640.509067671954
 30
0.0
 11
9.9522922272849446
 21
1640.3049404655339
 31
0.0
  0
LINE
  5
894
  8
DETAIL
  6
CONTINUOUS
 62
     5
 10
9.9522922272849446
 20
1640.3049404655339
 30
0.0
 11
10.019593994720699
 21
1639.7008899113771
 31
0.0
  0
LINE
  5
895
  8
DETAIL
  6
CONTINUOUS
 62
     5
 10
10.019593994720699
 20
1639.7008899113771
 30
0.0
 11
10.08128529848409
 21
1638.7215691891599
 31
0.0
  0
LINE
  5
896
  8
DETAIL
  6
CONTINUOUS
 62
     5
 10
10.08128529848409
 20
1638.7215691891599
 30
0.0
 11
10.13484832485528
 21
1637.4069474192329
 31
0.0
  0
LINE
  5
897
  8
DETAIL
  6
CONTINUOUS
 62
     5
 10
10.13484832485528
 20
1637.4069474192329
 30
0.0
 11
10.178097000516569
 21
1635.810678399665
 31
0.0
  0
LINE
  5
89F
  8
DETAIL
  6
CONTINUOUS
 62
     5
 10
20.831774448254691
 20
1640.509067671954
 30
0.0
 11
20.831774448254691
 21
1632.5066498012391
 31
0.0
  0
LINE
  5
8A0
  8
DETAIL
  6
CONTINUOUS
 62
     5
 10
9.6715521967930727
 20
1640.509067671954
 30
0.0
 11
9.6715521967930727
 21
1632.5066498012391
 31
0.0
  0
LINE
  5
8B6
  8
DETAIL
  6
CONTINUOUS
 62
     5
 10
-9.6715521975979755
 20
1640.509067671954
 30
0.0
 11
-9.6715521975979755
 21
1632.5066498012391
 31
0.0
  0
LINE
  5
8B7
  8
DETAIL
  6
CONTINUOUS
 62
     5
 10
-20.83177444895545
 20
1640.509067671954
 30
0.0
 11
-20.83177444895545
 21
1632.5066498012391
 31
0.0
  0
LINE
  5
8B8
  8
DETAIL
  6
CONTINUOUS
 62
     5
 10
-31.966616392047861
 20
1640.509067671954
 30
0.0
 11
-31.966616392047861
 21
1632.5066498012391
 31
0.0
  0
LINE
  5
8C0
  8
DETAIL
  6
CONTINUOUS
 62
     5
 10
-9.882126791236713
 20
1640.509067671954
 30
0.0
 11
-9.9522922280898438
 21
1640.3049404655339
 31
0.0
  0
LINE
  5
8C1
  8
DETAIL
  6
CONTINUOUS
 62
     5
 10
-9.9522922280898438
 20
1640.3049404655339
 30
0.0
 11
-10.019593995420561
 21
1639.7008899113771
 31
0.0
  0
LINE
  5
8C2
  8
DETAIL
  6
CONTINUOUS
 62
     5
 10
-10.019593995420561
 20
1639.7008899113771
 30
0.0
 11
-10.081285299183939
 21
1638.7215691891599
 31
0.0
  0
LINE
  5
8C3
  8
DETAIL
  6
CONTINUOUS
 62
     5
 10
-10.081285299183939
 20
1638.7215691891599
 30
0.0
 11
-10.134848325662
 21
1637.4069474192329
 31
0.0
  0
LINE
  5
8C4
  8
DETAIL
  6
CONTINUOUS
 62
     5
 10
-10.134848325662
 20
1637.4069474192329
 30
0.0
 11
-10.17809700121733
 21
1635.810678399665
 31
0.0
  0
LINE
  5
8C5
  8
DETAIL
  6
CONTINUOUS
 62
     5
 10
-12.881205421511821
 20
1640.509067671954
 30
0.0
 11
-12.951370858274
 21
1640.3049404655339
 31
0.0
  0
LINE
  5
8C6
  8
DETAIL
  6
CONTINUOUS
 62
     5
 10
-12.951370858274
 20
1640.3049404655339
 30
0.0
 11
-13.018672625696119
 21
1639.7008899113771
 31
0.0
  0
LINE
  5
8C7
  8
DETAIL
  6
CONTINUOUS
 62
     5
 10
-13.018672625696119
 20
1639.7008899113771
 30
0.0
 11
-13.08036392945678
 21
1638.7215691891599
 31
0.0
  0
LINE
  5
8C8
  8
DETAIL
  6
CONTINUOUS
 62
     5
 10
-13.08036392945678
 20
1638.7215691891599
 30
0.0
 11
-13.133926955830241
 21
1637.4069474192329
 31
0.0
  0
LINE
  5
8C9
  8
DETAIL
  6
CONTINUOUS
 62
     5
 10
-13.133926955830241
 20
1637.4069474192329
 30
0.0
 11
-13.17717563149017
 21
1635.810678399665
 31
0.0
  0
LINE
  5
8CA
  8
DETAIL
  6
CONTINUOUS
 62
     5
 10
-21.25266708362323
 20
1640.509067671954
 30
0.0
 11
-21.39291247142091
 21
1640.3049404655339
 31
0.0
  0
LINE
  5
8CB
  8
DETAIL
  6
CONTINUOUS
 62
     5
 10
-21.39291247142091
 20
1640.3049404655339
 30
0.0
 11
-21.527434009385161
 21
1639.7008899113771
 31
0.0
  0
LINE
  5
8CC
  8
DETAIL
  6
CONTINUOUS
 62
     5
 10
-21.527434009385161
 20
1639.7008899113771
 30
0.0
 11
-21.650741455506701
 21
1638.7215691891599
 31
0.0
  0
LINE
  5
8CD
  8
DETAIL
  6
CONTINUOUS
 62
     5
 10
-21.650741455506701
 20
1638.7215691891599
 30
0.0
 11
-21.757802250022898
 21
1637.4069474192329
 31
0.0
  0
LINE
  5
8CE
  8
DETAIL
  6
CONTINUOUS
 62
     5
 10
-21.757802250022898
 20
1637.4069474192329
 30
0.0
 11
-21.844246909430691
 21
1635.810678399665
 31
0.0
  0
LINE
  5
8CF
  8
DETAIL
  6
CONTINUOUS
 62
     5
 10
-24.24626372724515
 20
1640.509067671954
 30
0.0
 11
-24.386509115044191
 21
1640.3049404655339
 31
0.0
  0
LINE
  5
8D0
  8
DETAIL
  6
CONTINUOUS
 62
     5
 10
-24.386509115044191
 20
1640.3049404655339
 30
0.0
 11
-24.521030652917041
 21
1639.7008899113771
 31
0.0
  0
LINE
  5
8D1
  8
DETAIL
  6
CONTINUOUS
 62
     5
 10
-24.521030652917041
 20
1639.7008899113771
 30
0.0
 11
-24.644338099145909
 21
1638.7215691891599
 31
0.0
  0
LINE
  5
8D2
  8
DETAIL
  6
CONTINUOUS
 62
     5
 10
-24.644338099145909
 20
1638.7215691891599
 30
0.0
 11
-24.751398893661179
 21
1637.4069474192329
 31
0.0
  0
LINE
  5
8D3
  8
DETAIL
  6
CONTINUOUS
 62
     5
 10
-24.751398893661179
 20
1637.4069474192329
 30
0.0
 11
-24.837843553070339
 21
1635.810678399665
 31
0.0
  0
LINE
  5
8D4
  8
DETAIL
  6
CONTINUOUS
 62
     5
 10
-32.597314274903049
 20
1640.509067671954
 30
0.0
 11
-32.807468746304941
 21
1640.3049404655339
 31
0.0
  0
LINE
  5
8D5
  8
DETAIL
  6
CONTINUOUS
 62
     5
 10
-32.807468746304941
 20
1640.3049404655339
 30
0.0
 11
-33.009046161002971
 21
1639.7008899113771
 31
0.0
  0
LINE
  5
8D6
  8
DETAIL
  6
CONTINUOUS
 62
     5
 10
-33.009046161002971
 20
1639.7008899113771
 30
0.0
 11
-33.193819518401149
 21
1638.7215691891599
 31
0.0
  0
LINE
  5
8D7
  8
DETAIL
  6
CONTINUOUS
 62
     5
 10
-33.193819518401149
 20
1638.7215691891599
 30
0.0
 11
-33.354247644044783
 21
1637.4069474192329
 31
0.0
  0
LINE
  5
8D8
  8
DETAIL
  6
CONTINUOUS
 62
     5
 10
-33.354247644044783
 20
1637.4069474192329
 30
0.0
 11
-33.48378296768032
 21
1635.810678399665
 31
0.0
  0
LINE
  5
8D9
  8
DETAIL
  6
CONTINUOUS
 62
     5
 10
-35.581781695508191
 20
1640.509067671954
 30
0.0
 11
-35.791936166908272
 21
1640.3049404655339
 31
0.0
  0
LINE
  5
8DA
  8
DETAIL
  6
CONTINUOUS
 62
     5
 10
-35.791936166908272
 20
1640.3049404655339
 30
0.0
 11
-35.993513581605853
 21
1639.7008899113771
 31
0.0
  0
LINE
  5
8DB
  8
DETAIL
  6
CONTINUOUS
 62
     5
 10
-35.993513581605853
 20
1639.7008899113771
 30
0.0
 11
-36.178286939004003
 21
1638.7215691891599
 31
0.0
  0
LINE
  5
8DC
  8
DETAIL
  6
CONTINUOUS
 62
     5
 10
-36.178286939004003
 20
1638.7215691891599
 30
0.0
 11
-36.33871506466312
 21
1637.4069474192329
 31
0.0
  0
LINE
  5
8DD
  8
DETAIL
  6
CONTINUOUS
 62
     5
 10
-36.33871506466312
 20
1637.4069474192329
 30
0.0
 11
-36.468250388283188
 21
1635.810678399665
 31
0.0
  0
LINE
  5
8E8
  8
DETAIL
  6
CONTINUOUS
 62
     5
 10
1.5004533504002211
 20
1640.509067671954
 30
0.0
 11
-1.500453351100077
 21
1640.509067671954
 31
0.0
  0
LINE
  5
8E9
  8
DETAIL
  6
CONTINUOUS
 62
     5
 10
-9.6715521975979755
 20
1640.509067671954
 30
0.0
 11
-12.881205421511821
 21
1640.509067671954
 31
0.0
  0
LINE
  5
8EA
  8
DETAIL
  6
CONTINUOUS
 62
     5
 10
-20.83177444895545
 20
1640.509067671954
 30
0.0
 11
-24.24626372724515
 21
1640.509067671954
 31
0.0
  0
LINE
  5
8EB
  8
DETAIL
  6
CONTINUOUS
 62
     5
 10
-31.966616392047861
 20
1640.509067671954
 30
0.0
 11
-35.581781695508191
 21
1640.509067671954
 31
0.0
  0
LINE
  5
8EC
  8
DETAIL
  6
CONTINUOUS
 62
     5
 10
9.6715521967930727
 20
1640.509067671954
 30
0.0
 11
12.88120542079559
 21
1640.509067671954
 31
0.0
  0
LINE
  5
8ED
  8
DETAIL
  6
CONTINUOUS
 62
     5
 10
20.831774448254691
 20
1640.509067671954
 30
0.0
 11
24.24626372654529
 21
1640.509067671954
 31
0.0
  0
LINE
  5
8EE
  8
DETAIL
  6
CONTINUOUS
 62
     5
 10
-43.062511937176161
 20
1640.509067671954
 30
0.0
 11
-43.062511937176161
 21
1632.5066498012391
 31
0.0
  0
LINE
  5
8EF
  8
DETAIL
  6
CONTINUOUS
 62
     5
 10
-54.105942444787622
 20
1640.509067671954
 30
0.0
 11
-54.105942444787622
 21
1632.5066498012391
 31
0.0
  0
LINE
  5
8F0
  8
DETAIL
  6
CONTINUOUS
 62
     5
 10
-65.083453195843489
 20
1640.509067671954
 30
0.0
 11
-65.083453195843489
 21
1632.5066498012391
 31
0.0
  0
LINE
  5
8F8
  8
DETAIL
  6
CONTINUOUS
 62
     5
 10
-75.981669784657683
 20
1640.509067671954
 30
0.0
 11
-75.981669784657683
 21
1632.5066498012391
 31
0.0
  0
LINE
  5
8F9
  8
DETAIL
  6
CONTINUOUS
 62
     5
 10
-80.024178707276405
 20
1649.311727199655
 30
0.0
 11
-80.024178707276405
 21
1649.9999672647771
 31
0.0
  0
LINE
  5
8FA
  8
DETAIL
  6
CONTINUOUS
 62
     5
 10
-86.787314412743854
 20
1640.509067671954
 30
0.0
 11
-86.787314412743854
 21
1632.5066498012391
 31
0.0
  0
LINE
  5
8FB
  8
DETAIL
  6
CONTINUOUS
 62
     5
 10
-97.487222066891263
 20
1640.509067671954
 30
0.0
 11
-97.487222066891263
 21
1632.5066498012391
 31
0.0
  0
LINE
  5
8FC
  8
DETAIL
  6
CONTINUOUS
 62
     5
 10
-100.0302233840188
 20
1649.311727199655
 30
0.0
 11
-100.0302233840188
 21
1648.6115156359781
 31
0.0
  0
LINE
  5
8FD
  8
DETAIL
  6
CONTINUOUS
 62
     5
 10
-108.06835655771999
 20
1640.509067671954
 30
0.0
 11
-108.06835655771999
 21
1632.5066498012391
 31
0.0
  0
LINE
  5
905
  8
DETAIL
  6
CONTINUOUS
 62
     5
 10
-59.366464606410318
 20
1637.4069474192329
 30
0.0
 11
-59.581655495030184
 21
1635.810678399665
 31
0.0
  0
LINE
  5
912
  8
DETAIL
  6
CONTINUOUS
 62
     5
 10
-59.099952971318992
 20
1638.7215691891599
 30
0.0
 11
-59.366464606410318
 21
1637.4069474192329
 31
0.0
  0
LINE
  5
913
  8
DETAIL
  6
CONTINUOUS
 62
     5
 10
-82.10498670015113
 20
1637.4069474192329
 30
0.0
 11
-82.404784765296426
 21
1635.810678399665
 31
0.0
  0
LINE
  5
91F
  8
DETAIL
  6
CONTINUOUS
 62
     5
 10
-58.792997757394012
 20
1639.7008899113771
 30
0.0
 11
-59.099952971318992
 21
1638.7215691891599
 31
0.0
  0
LINE
  5
920
  8
DETAIL
  6
CONTINUOUS
 62
     5
 10
-81.733689973421406
 20
1638.7215691891599
 30
0.0
 11
-82.10498670015113
 21
1637.4069474192329
 31
0.0
  0
LINE
  5
924
  8
DETAIL
  6
CONTINUOUS
 62
     5
 10
-104.4435015517988
 20
1637.4069474192329
 30
0.0
 11
-104.8264462074594
 21
1635.810678399665
 31
0.0
  0
LINE
  5
92A
  8
DETAIL
  6
CONTINUOUS
 62
     5
 10
-81.306048358007956
 20
1639.7008899113771
 30
0.0
 11
-81.733689973421406
 21
1638.7215691891599
 31
0.0
  0
LINE
  5
92B
  8
DETAIL
  6
CONTINUOUS
 62
     5
 10
-103.9692286538879
 20
1638.7215691891599
 30
0.0
 11
-104.4435015517988
 21
1637.4069474192329
 31
0.0
  0
LINE
  5
92C
  8
DETAIL
  6
CONTINUOUS
 62
     5
 10
-103.422984063869
 20
1639.7008899113771
 30
0.0
 11
-103.9692286538879
 21
1638.7215691891599
 31
0.0
  0
LINE
  5
92D
  8
DETAIL
  6
CONTINUOUS
 62
     5
 10
-58.458126760418942
 20
1640.3049404655339
 30
0.0
 11
-58.792997757394012
 21
1639.7008899113771
 31
0.0
  0
LINE
  5
92E
  8
DETAIL
  6
CONTINUOUS
 62
     5
 10
-80.839515236415068
 20
1640.3049404655339
 30
0.0
 11
-81.306048358007956
 21
1639.7008899113771
 31
0.0
  0
LINE
  5
92F
  8
DETAIL
  6
CONTINUOUS
 62
     5
 10
-102.8270617201901
 20
1640.3049404655339
 30
0.0
 11
-103.422984063869
 21
1639.7008899113771
 31
0.0
  0
LINE
  5
930
  8
DETAIL
  6
CONTINUOUS
 62
     5
 10
-55.153690920152712
 20
1640.509067671954
 30
0.0
 11
-55.502810574643711
 21
1640.3049404655339
 31
0.0
  0
LINE
  5
931
  8
DETAIL
  6
CONTINUOUS
 62
     5
 10
-55.502810574643711
 20
1640.3049404655339
 30
0.0
 11
-55.837681571711073
 21
1639.7008899113771
 31
0.0
  0
LINE
  5
932
  8
DETAIL
  6
CONTINUOUS
 62
     5
 10
-55.837681571711073
 20
1639.7008899113771
 30
0.0
 11
-56.144636785635157
 21
1638.7215691891599
 31
0.0
  0
LINE
  5
933
  8
DETAIL
  6
CONTINUOUS
 62
     5
 10
-56.144636785635157
 20
1638.7215691891599
 30
0.0
 11
-56.411148420727841
 21
1637.4069474192329
 31
0.0
  0
LINE
  5
934
  8
DETAIL
  6
CONTINUOUS
 62
     5
 10
-56.411148420727841
 20
1637.4069474192329
 30
0.0
 11
-56.626339309254938
 21
1635.810678399665
 31
0.0
  0
LINE
  5
935
  8
DETAIL
  6
CONTINUOUS
 62
     5
 10
-58.10900710583519
 20
1640.509067671954
 30
0.0
 11
-58.458126760418942
 21
1640.3049404655339
 31
0.0
  0
LINE
  5
936
  8
DETAIL
  6
CONTINUOUS
 62
     5
 10
-43.902246659942172
 20
1640.509067671954
 30
0.0
 11
-44.182054174187208
 21
1640.3049404655339
 31
0.0
  0
LINE
  5
937
  8
DETAIL
  6
CONTINUOUS
 62
     5
 10
-44.182054174187208
 20
1640.3049404655339
 30
0.0
 11
-44.450441874533681
 21
1639.7008899113771
 31
0.0
  0
LINE
  5
938
  8
DETAIL
  6
CONTINUOUS
 62
     5
 10
-44.450441874533681
 20
1639.7008899113771
 30
0.0
 11
-44.696456025362266
 21
1638.7215691891599
 31
0.0
  0
LINE
  5
939
  8
DETAIL
  6
CONTINUOUS
 62
     5
 10
-44.696456025362266
 20
1638.7215691891599
 30
0.0
 11
-44.910056025100843
 21
1637.4069474192329
 31
0.0
  0
LINE
  5
93A
  8
DETAIL
  6
CONTINUOUS
 62
     5
 10
-44.910056025100843
 20
1637.4069474192329
 30
0.0
 11
-45.082524194065172
 21
1635.810678399665
 31
0.0
  0
LINE
  5
93B
  8
DETAIL
  6
CONTINUOUS
 62
     5
 10
-46.873948743805137
 20
1640.509067671954
 30
0.0
 11
-47.15375625794286
 21
1640.3049404655339
 31
0.0
  0
LINE
  5
93C
  8
DETAIL
  6
CONTINUOUS
 62
     5
 10
-47.15375625794286
 20
1640.3049404655339
 30
0.0
 11
-47.422143958276131
 21
1639.7008899113771
 31
0.0
  0
LINE
  5
93D
  8
DETAIL
  6
CONTINUOUS
 62
     5
 10
-47.422143958276131
 20
1639.7008899113771
 30
0.0
 11
-47.668158109118849
 21
1638.7215691891599
 31
0.0
  0
LINE
  5
93E
  8
DETAIL
  6
CONTINUOUS
 62
     5
 10
-47.668158109118849
 20
1638.7215691891599
 30
0.0
 11
-47.881758108856957
 21
1637.4069474192329
 31
0.0
  0
LINE
  5
93F
  8
DETAIL
  6
CONTINUOUS
 62
     5
 10
-47.881758108856957
 20
1637.4069474192329
 30
0.0
 11
-48.054226277926759
 21
1635.810678399665
 31
0.0
  0
LINE
  5
940
  8
DETAIL
  6
CONTINUOUS
 62
     5
 10
-77.441364327138203
 20
1640.509067671954
 30
0.0
 11
-77.927748289017018
 21
1640.3049404655339
 31
0.0
  0
LINE
  5
941
  8
DETAIL
  6
CONTINUOUS
 62
     5
 10
-77.927748289017018
 20
1640.3049404655339
 30
0.0
 11
-78.394281410609892
 21
1639.7008899113771
 31
0.0
  0
LINE
  5
942
  8
DETAIL
  6
CONTINUOUS
 62
     5
 10
-78.394281410609892
 20
1639.7008899113771
 30
0.0
 11
-78.821923026021963
 21
1638.7215691891599
 31
0.0
  0
LINE
  5
943
  8
DETAIL
  6
CONTINUOUS
 62
     5
 10
-78.821923026021963
 20
1638.7215691891599
 30
0.0
 11
-79.193219752646215
 21
1637.4069474192329
 31
0.0
  0
LINE
  5
944
  8
DETAIL
  6
CONTINUOUS
 62
     5
 10
-79.193219752646215
 20
1637.4069474192329
 30
0.0
 11
-79.493017817790573
 21
1635.810678399665
 31
0.0
  0
LINE
  5
945
  8
DETAIL
  6
CONTINUOUS
 62
     5
 10
-80.353131274641783
 20
1640.509067671954
 30
0.0
 11
-80.839515236415068
 21
1640.3049404655339
 31
0.0
  0
LINE
  5
946
  8
DETAIL
  6
CONTINUOUS
 62
     5
 10
-66.337938903617669
 20
1640.509067671954
 30
0.0
 11
-66.755945350039838
 21
1640.3049404655339
 31
0.0
  0
LINE
  5
947
  8
DETAIL
  6
CONTINUOUS
 62
     5
 10
-66.755945350039838
 20
1640.3049404655339
 30
0.0
 11
-67.15689165506592
 21
1639.7008899113771
 31
0.0
  0
LINE
  5
948
  8
DETAIL
  6
CONTINUOUS
 62
     5
 10
-67.15689165506592
 20
1639.7008899113771
 30
0.0
 11
-67.524413954376996
 21
1638.7215691891599
 31
0.0
  0
LINE
  5
949
  8
DETAIL
  6
CONTINUOUS
 62
     5
 10
-67.524413954376996
 20
1638.7215691891599
 30
0.0
 11
-67.843512521418234
 21
1637.4069474192329
 31
0.0
  0
LINE
  5
94A
  8
DETAIL
  6
CONTINUOUS
 62
     5
 10
-67.843512521418234
 20
1637.4069474192329
 30
0.0
 11
-68.101163952567731
 21
1635.810678399665
 31
0.0
  0
LINE
  5
94B
  8
DETAIL
  6
CONTINUOUS
 62
     5
 10
-69.27326859371307
 20
1640.509067671954
 30
0.0
 11
-69.691275040135224
 21
1640.3049404655339
 31
0.0
  0
LINE
  5
94C
  8
DETAIL
  6
CONTINUOUS
 62
     5
 10
-69.691275040135224
 20
1640.3049404655339
 30
0.0
 11
-70.092221345160851
 21
1639.7008899113771
 31
0.0
  0
LINE
  5
94D
  8
DETAIL
  6
CONTINUOUS
 62
     5
 10
-70.092221345160851
 20
1639.7008899113771
 30
0.0
 11
-70.459743644472852
 21
1638.7215691891599
 31
0.0
  0
LINE
  5
94E
  8
DETAIL
  6
CONTINUOUS
 62
     5
 10
-70.459743644472852
 20
1638.7215691891599
 30
0.0
 11
-70.778842211527703
 21
1637.4069474192329
 31
0.0
  0
LINE
  5
94F
  8
DETAIL
  6
CONTINUOUS
 62
     5
 10
-70.778842211527703
 20
1637.4069474192329
 30
0.0
 11
-71.036493642677215
 21
1635.810678399665
 31
0.0
  0
LINE
  5
95C
  8
DETAIL
  6
CONTINUOUS
 62
     5
 10
-43.062511937176161
 20
1640.509067671954
 30
0.0
 11
-46.873948743805137
 21
1640.509067671954
 31
0.0
  0
LINE
  5
95D
  8
DETAIL
  6
CONTINUOUS
 62
     5
 10
-54.105942444787622
 20
1640.509067671954
 30
0.0
 11
-58.10900710583519
 21
1640.509067671954
 31
0.0
  0
LINE
  5
95E
  8
DETAIL
  6
CONTINUOUS
 62
     5
 10
-65.083453195843489
 20
1640.509067671954
 30
0.0
 11
-69.27326859371307
 21
1640.509067671954
 31
0.0
  0
LINE
  5
95F
  8
DETAIL
  6
CONTINUOUS
 62
     5
 10
-75.981669784657683
 20
1640.509067671954
 30
0.0
 11
-80.353131274641783
 21
1640.509067671954
 31
0.0
  0
LINE
  5
960
  8
DETAIL
  6
CONTINUOUS
 62
     5
 10
-86.787314412743854
 20
1640.509067671954
 30
0.0
 11
-91.335096042440924
 21
1640.509067671954
 31
0.0
  0
LINE
  5
961
  8
DETAIL
  6
CONTINUOUS
 62
     5
 10
-97.487222066891263
 20
1640.509067671954
 30
0.0
 11
-102.20578306490179
 21
1640.509067671954
 31
0.0
  0
LINE
  5
962
  8
DETAIL
  6
CONTINUOUS
 62
     5
 10
-110.1320182011459
 20
1640.509067671954
 30
0.0
 11
-110.81964968615959
 21
1640.3049404655339
 31
0.0
  0
LINE
  5
963
  8
DETAIL
  6
CONTINUOUS
 62
     5
 10
-99.351751191622952
 20
1640.509067671954
 30
0.0
 11
-99.973029846908972
 21
1640.3049404655339
 31
0.0
  0
LINE
  5
964
  8
DETAIL
  6
CONTINUOUS
 62
     5
 10
-99.973029846908972
 20
1640.3049404655339
 30
0.0
 11
-100.56895219058779
 21
1639.7008899113771
 31
0.0
  0
LINE
  5
965
  8
DETAIL
  6
CONTINUOUS
 62
     5
 10
-100.56895219058779
 20
1639.7008899113771
 30
0.0
 11
-101.11519678060669
 21
1638.7215691891599
 31
0.0
  0
LINE
  5
966
  8
DETAIL
  6
CONTINUOUS
 62
     5
 10
-101.11519678060669
 20
1638.7215691891599
 30
0.0
 11
-101.589469678518
 21
1637.4069474192329
 31
0.0
  0
LINE
  5
967
  8
DETAIL
  6
CONTINUOUS
 62
     5
 10
-101.589469678518
 20
1637.4069474192329
 30
0.0
 11
-101.9724143341772
 21
1635.810678399665
 31
0.0
  0
LINE
  5
968
  8
DETAIL
  6
CONTINUOUS
 62
     5
 10
-102.20578306490179
 20
1640.509067671954
 30
0.0
 11
-102.8270617201901
 21
1640.3049404655339
 31
0.0
  0
LINE
  5
969
  8
DETAIL
  6
CONTINUOUS
 62
     5
 10
-88.450439377204034
 20
1640.509067671954
 30
0.0
 11
-89.004608270497087
 21
1640.3049404655339
 31
0.0
  0
LINE
  5
96A
  8
DETAIL
  6
CONTINUOUS
 62
     5
 10
-89.004608270497087
 20
1640.3049404655339
 30
0.0
 11
-89.536159809914764
 21
1639.7008899113771
 31
0.0
  0
LINE
  5
96B
  8
DETAIL
  6
CONTINUOUS
 62
     5
 10
-89.536159809914764
 20
1639.7008899113771
 30
0.0
 11
-90.023399726109346
 21
1638.7215691891599
 31
0.0
  0
LINE
  5
96C
  8
DETAIL
  6
CONTINUOUS
 62
     5
 10
-90.023399726109346
 20
1638.7215691891599
 30
0.0
 11
-90.446442244447084
 21
1637.4069474192329
 31
0.0
  0
LINE
  5
96D
  8
DETAIL
  6
CONTINUOUS
 62
     5
 10
-90.446442244447084
 20
1637.4069474192329
 30
0.0
 11
-90.788021685808417
 21
1635.810678399665
 31
0.0
  0
LINE
  5
96E
  8
DETAIL
  6
CONTINUOUS
 62
     5
 10
-91.335096042440924
 20
1640.509067671954
 30
0.0
 11
-91.889264935718074
 21
1640.3049404655339
 31
0.0
  0
LINE
  5
96F
  8
DETAIL
  6
CONTINUOUS
 62
     5
 10
-91.889264935718074
 20
1640.3049404655339
 30
0.0
 11
-92.420816475243058
 21
1639.7008899113771
 31
0.0
  0
LINE
  5
970
  8
DETAIL
  6
CONTINUOUS
 62
     5
 10
-92.420816475243058
 20
1639.7008899113771
 30
0.0
 11
-92.908056391332124
 21
1638.7215691891599
 31
0.0
  0
LINE
  5
971
  8
DETAIL
  6
CONTINUOUS
 62
     5
 10
-92.908056391332124
 20
1638.7215691891599
 30
0.0
 11
-93.331098909668086
 21
1637.4069474192329
 31
0.0
  0
LINE
  5
972
  8
DETAIL
  6
CONTINUOUS
 62
     5
 10
-93.331098909668086
 20
1637.4069474192329
 30
0.0
 11
-93.672678351045306
 21
1635.810678399665
 31
0.0
  0
LINE
  5
973
  8
DETAIL
  6
CONTINUOUS
 62
     5
 10
-366.88929144944223
 20
1417.5803084860891
 30
0.0
 11
-361.10910641546792
 21
1549.9817153796989
 31
0.0
  0
LINE
  5
974
  8
DETAIL
  6
CONTINUOUS
 62
     5
 10
-373.858818519664
 20
1409.9999672647759
 30
0.0
 11
-373.24728553288492
 21
1410.095191563727
 31
0.0
  0
LINE
  5
975
  8
DETAIL
  6
CONTINUOUS
 62
     5
 10
-373.24728553288492
 20
1410.095191563727
 30
0.0
 11
-372.45018507864
 21
1410.3051249092171
 31
0.0
  0
LINE
  5
976
  8
DETAIL
  6
CONTINUOUS
 62
     5
 10
-372.45018507864
 20
1410.3051249092171
 30
0.0
 11
-371.6789084005722
 21
1410.595940268689
 31
0.0
  0
LINE
  5
977
  8
DETAIL
  6
CONTINUOUS
 62
     5
 10
-371.6789084005722
 20
1410.595940268689
 30
0.0
 11
-370.94163869244898
 21
1410.9645521287041
 31
0.0
  0
LINE
  5
978
  8
DETAIL
  6
CONTINUOUS
 62
     5
 10
-370.94163869244898
 20
1410.9645521287041
 30
0.0
 11
-370.24619831332888
 21
1411.4070495541951
 31
0.0
  0
LINE
  5
979
  8
DETAIL
  6
CONTINUOUS
 62
     5
 10
-370.24619831332888
 20
1411.4070495541951
 30
0.0
 11
-369.59996577090891
 21
1411.9187377141391
 31
0.0
  0
LINE
  5
97A
  8
DETAIL
  6
CONTINUOUS
 62
     5
 10
-369.59996577090891
 20
1411.9187377141391
 30
0.0
 11
-369.00979748136888
 21
1412.494187683166
 31
0.0
  0
LINE
  5
97B
  8
DETAIL
  6
CONTINUOUS
 62
     5
 10
-369.00979748136888
 20
1412.494187683166
 30
0.0
 11
-368.48195503852719
 21
1413.127294028209
 31
0.0
  0
LINE
  5
97C
  8
DETAIL
  6
CONTINUOUS
 62
     5
 10
-368.48195503852719
 20
1413.127294028209
 30
0.0
 11
-368.022038774468
 21
1413.811339584832
 31
0.0
  0
LINE
  5
97D
  8
DETAIL
  6
CONTINUOUS
 62
     5
 10
-368.022038774468
 20
1413.811339584832
 30
0.0
 11
-367.63492833283811
 21
1414.53906673097
 31
0.0
  0
LINE
  5
97E
  8
DETAIL
  6
CONTINUOUS
 62
     5
 10
-367.63492833283811
 20
1414.53906673097
 30
0.0
 11
-367.3247308966038
 21
1415.3027543916851
 31
0.0
  0
LINE
  5
97F
  8
DETAIL
  6
CONTINUOUS
 62
     5
 10
-367.3247308966038
 20
1415.3027543916851
 30
0.0
 11
-367.09473761316212
 21
1416.0942999574399
 31
0.0
  0
LINE
  5
980
  8
DETAIL
  6
CONTINUOUS
 62
     5
 10
-367.09473761316212
 20
1416.0942999574399
 30
0.0
 11
-366.947388676282
 21
1416.90530525043
 31
0.0
  0
LINE
  5
981
  8
DETAIL
  6
CONTINUOUS
 62
     5
 10
-366.947388676282
 20
1416.90530525043
 30
0.0
 11
-366.88933289616392
 21
1417.5793584764581
 31
0.0
  0
LINE
  5
982
  8
DETAIL
  6
CONTINUOUS
 62
     5
 10
-328.79754631641111
 20
1369.913909239167
 30
0.0
 11
-328.79754631641111
 21
1409.9999672647759
 31
0.0
  0
LINE
  5
983
  8
NOTE
  6
CONTINUOUS
 62
     4
 10
-179.5803856585639
 20
1695.779665001352
 30
0.0
 11
-229.595497350394
 21
1695.779665001352
 31
0.0
  0
LINE
  5
989
  8
DETAIL
  6
CONTINUOUS
 62
     5
 10
-244.24114287828289
 20
1640.509067671954
 30
0.0
 11
-250.7922038152328
 21
1640.509067671954
 31
0.0
  0
LINE
  5
98A
  8
DETAIL
  6
CONTINUOUS
 62
     5
 10
-246.73696520803011
 20
1637.4069474192329
 30
0.0
 11
-247.65789623935811
 21
1635.810678399665
 31
0.0
  0
LINE
  5
98B
  8
DETAIL
  6
CONTINUOUS
 62
     5
 10
-247.604400405989
 20
1638.7215691891599
 30
0.0
 11
-248.74496372885909
 21
1637.4069474192329
 31
0.0
  0
LINE
  5
AC4
  8
DETAIL
  6
CONTINUOUS
 62
     5
 10
-177.74991263519399
 20
1640.509067671954
 30
0.0
 11
-183.611803305801
 21
1640.509067671954
 31
0.0
  0
LINE
  5
AC5
  8
DETAIL
  6
CONTINUOUS
 62
     5
 10
-118.5178264026549
 20
1640.509067671954
 30
0.0
 11
-118.5178264026549
 21
1632.5066498012391
 31
0.0
  0
LINE
  5
AC6
  8
DETAIL
  6
CONTINUOUS
 62
     5
 10
-120.0362680607499
 20
1648.6115156359781
 30
0.0
 11
-120.0362680607499
 21
1647.9113040723009
 31
0.0
  0
LINE
  5
AC7
  8
DETAIL
  6
CONTINUOUS
 62
     5
 10
-128.8229005324142
 20
1640.509067671954
 30
0.0
 11
-128.8229005324142
 21
1632.5066498012391
 31
0.0
  0
LINE
  5
AC8
  8
DETAIL
  6
CONTINUOUS
 62
     5
 10
-138.97102380154081
 20
1640.509067671954
 30
0.0
 11
-138.97102380154081
 21
1632.5066498012391
 31
0.0
  0
LINE
  5
AC9
  8
DETAIL
  6
CONTINUOUS
 62
     5
 10
-140.04231273747791
 20
1647.9113040723009
 30
0.0
 11
-140.04231273747791
 21
1647.211092508624
 31
0.0
  0
LINE
  5
ACA
  8
DETAIL
  6
CONTINUOUS
 62
     5
 10
-148.949832285074
 20
1640.509067671954
 30
0.0
 11
-148.949832285074
 21
1632.5066498012391
 31
0.0
  0
LINE
  5
ACB
  8
DETAIL
  6
CONTINUOUS
 62
     5
 10
-158.7471683418598
 20
1640.509067671954
 30
0.0
 11
-158.7471683418598
 21
1634.588176280593
 31
0.0
  0
LINE
  5
ACC
  8
DETAIL
  6
CONTINUOUS
 62
     5
 10
-160.04835741420899
 20
1647.211092508624
 30
0.0
 11
-160.04835741420899
 21
1646.510880944918
 31
0.0
  0
LINE
  5
ACD
  8
DETAIL
  6
CONTINUOUS
 62
     5
 10
-168.3510954271818
 20
1640.509067671954
 30
0.0
 11
-168.3510954271818
 21
1636.460214533749
 31
0.0
  0
LINE
  5
ACE
  8
DETAIL
  6
CONTINUOUS
 62
     5
 10
-177.74991263519399
 20
1640.509067671954
 30
0.0
 11
-177.74991263519399
 21
1637.6992787376439
 31
0.0
  0
LINE
  5
AE4
  8
DETAIL
  6
CONTINUOUS
 62
     5
 10
-157.83178205104511
 20
1637.4069474192329
 30
0.0
 11
-158.41356761371199
 21
1635.810678399665
 31
0.0
  0
LINE
  5
AEF
  8
DETAIL
  6
CONTINUOUS
 62
     5
 10
-136.96385603281891
 20
1637.4069474192329
 30
0.0
 11
-137.4678982912159
 21
1635.810678399665
 31
0.0
  0
LINE
  5
AF3
  8
DETAIL
  6
CONTINUOUS
 62
     5
 10
-136.3396050371411
 20
1638.7215691891599
 30
0.0
 11
-136.96385603281891
 21
1637.4069474192329
 31
0.0
  0
LINE
  5
AF4
  8
DETAIL
  6
CONTINUOUS
 62
     5
 10
-177.93076749233521
 20
1637.4069474192329
 30
0.0
 11
-178.58746195855201
 21
1635.810678399665
 31
0.0
  0
LINE
  5
AFF
  8
DETAIL
  6
CONTINUOUS
 62
     5
 10
-157.11124679690511
 20
1638.7215691891599
 30
0.0
 11
-157.83178205104511
 21
1637.4069474192329
 31
0.0
  0
LINE
  5
B00
  8
DETAIL
  6
CONTINUOUS
 62
     5
 10
-135.62062292657311
 20
1639.7008899113771
 30
0.0
 11
-136.3396050371411
 21
1638.7215691891599
 31
0.0
  0
LINE
  5
B01
  8
DETAIL
  6
CONTINUOUS
 62
     5
 10
-177.11745835497319
 20
1638.7215691891599
 30
0.0
 11
-177.93076749233521
 21
1637.4069474192329
 31
0.0
  0
LINE
  5
B02
  8
DETAIL
  6
CONTINUOUS
 62
     5
 10
-156.2813691331871
 20
1639.7008899113771
 30
0.0
 11
-157.11124679690511
 21
1638.7215691891599
 31
0.0
  0
LINE
  5
B03
  8
DETAIL
  6
CONTINUOUS
 62
     5
 10
-134.83625359415191
 20
1640.3049404655339
 30
0.0
 11
-135.62062292657311
 21
1639.7008899113771
 31
0.0
  0
LINE
  5
B04
  8
DETAIL
  6
CONTINUOUS
 62
     5
 10
-176.18072821885599
 20
1639.7008899113771
 30
0.0
 11
-177.11745835497319
 21
1638.7215691891599
 31
0.0
  0
LINE
  5
B05
  8
DETAIL
  6
CONTINUOUS
 62
     5
 10
-175.15880795029389
 20
1640.3049404655339
 30
0.0
 11
-176.18072821885599
 21
1639.7008899113771
 31
0.0
  0
LINE
  5
B06
  8
DETAIL
  6
CONTINUOUS
 62
     5
 10
-155.376018945195
 20
1640.3049404655339
 30
0.0
 11
-156.2813691331871
 21
1639.7008899113771
 31
0.0
  0
LINE
  5
B13
  8
DETAIL
  6
CONTINUOUS
 62
     5
 10
-118.5178264026549
 20
1640.509067671954
 30
0.0
 11
-123.5604985537247
 21
1640.509067671954
 31
0.0
  0
LINE
  5
B14
  8
DETAIL
  6
CONTINUOUS
 62
     5
 10
-128.8229005324142
 20
1640.509067671954
 30
0.0
 11
-134.0185095888186
 21
1640.509067671954
 31
0.0
  0
LINE
  5
B15
  8
DETAIL
  6
CONTINUOUS
 62
     5
 10
-138.97102380154081
 20
1640.509067671954
 30
0.0
 11
-144.313239713912
 21
1640.509067671954
 31
0.0
  0
LINE
  5
B16
  8
DETAIL
  6
CONTINUOUS
 62
     5
 10
-148.949832285074
 20
1640.509067671954
 30
0.0
 11
-154.43214638616499
 21
1640.509067671954
 31
0.0
  0
LINE
  5
B17
  8
DETAIL
  6
CONTINUOUS
 62
     5
 10
-158.7471683418598
 20
1640.509067671954
 30
0.0
 11
-164.3629012764668
 21
1640.509067671954
 31
0.0
  0
LINE
  5
B18
  8
DETAIL
  6
CONTINUOUS
 62
     5
 10
-168.3510954271818
 20
1640.509067671954
 30
0.0
 11
-174.09340528975369
 21
1640.509067671954
 31
0.0
  0
LINE
  5
B19
  8
DETAIL
  6
CONTINUOUS
 62
     5
 10
-171.54849207486581
 20
1640.509067671954
 30
0.0
 11
-172.6138947353169
 21
1640.3049404655339
 31
0.0
  0
LINE
  5
B1A
  8
DETAIL
  6
CONTINUOUS
 62
     5
 10
-172.6138947353169
 20
1640.3049404655339
 30
0.0
 11
-173.63581500388
 21
1639.7008899113771
 31
0.0
  0
LINE
  5
B1B
  8
DETAIL
  6
CONTINUOUS
 62
     5
 10
-173.63581500388
 20
1639.7008899113771
 30
0.0
 11
-174.57254514007161
 21
1638.7215691891599
 31
0.0
  0
LINE
  5
B1C
  8
DETAIL
  6
CONTINUOUS
 62
     5
 10
-174.57254514007161
 20
1638.7215691891599
 30
0.0
 11
-175.38585427734091
 21
1637.4069474192329
 31
0.0
  0
LINE
  5
B1D
  8
DETAIL
  6
CONTINUOUS
 62
     5
 10
-175.38585427734091
 20
1637.4069474192329
 30
0.0
 11
-176.0425487435727
 21
1635.810678399665
 31
0.0
  0
LINE
  5
B1E
  8
DETAIL
  6
CONTINUOUS
 62
     5
 10
-174.09340528975369
 20
1640.509067671954
 30
0.0
 11
-175.15880795029389
 21
1640.3049404655339
 31
0.0
  0
LINE
  5
B1F
  8
DETAIL
  6
CONTINUOUS
 62
     5
 10
-161.76403983861701
 20
1640.509067671954
 30
0.0
 11
-162.7692898194868
 21
1640.3049404655339
 31
0.0
  0
LINE
  5
B20
  8
DETAIL
  6
CONTINUOUS
 62
     5
 10
-162.7692898194868
 20
1640.3049404655339
 30
0.0
 11
-163.73351242612799
 21
1639.7008899113771
 31
0.0
  0
LINE
  5
B21
  8
DETAIL
  6
CONTINUOUS
 62
     5
 10
-163.73351242612799
 20
1639.7008899113771
 30
0.0
 11
-164.61735473897119
 21
1638.7215691891599
 31
0.0
  0
LINE
  5
B22
  8
DETAIL
  6
CONTINUOUS
 62
     5
 10
-164.61735473897119
 20
1638.7215691891599
 30
0.0
 11
-165.384744407715
 21
1637.4069474192329
 31
0.0
  0
LINE
  5
B23
  8
DETAIL
  6
CONTINUOUS
 62
     5
 10
-165.384744407715
 20
1637.4069474192329
 30
0.0
 11
-166.00436187640381
 21
1635.810678399665
 31
0.0
  0
LINE
  5
B24
  8
DETAIL
  6
CONTINUOUS
 62
     5
 10
-164.3629012764668
 20
1640.509067671954
 30
0.0
 11
-165.36815125742891
 21
1640.3049404655339
 31
0.0
  0
LINE
  5
B25
  8
DETAIL
  6
CONTINUOUS
 62
     5
 10
-165.36815125742891
 20
1640.3049404655339
 30
0.0
 11
-166.33237386407009
 21
1639.7008899113771
 31
0.0
  0
LINE
  5
B26
  8
DETAIL
  6
CONTINUOUS
 62
     5
 10
-166.33237386407009
 20
1639.7008899113771
 30
0.0
 11
-167.21621617680691
 21
1638.7215691891599
 31
0.0
  0
LINE
  5
B27
  8
DETAIL
  6
CONTINUOUS
 62
     5
 10
-167.21621617680691
 20
1638.7215691891599
 30
0.0
 11
-167.98360584556619
 21
1637.4069474192329
 31
0.0
  0
LINE
  5
B28
  8
DETAIL
  6
CONTINUOUS
 62
     5
 10
-167.98360584556619
 20
1637.4069474192329
 30
0.0
 11
-168.60322331424001
 21
1635.810678399665
 31
0.0
  0
LINE
  5
B29
  8
DETAIL
  6
CONTINUOUS
 62
     5
 10
-151.7825030376529
 20
1640.509067671954
 30
0.0
 11
-152.7263755966828
 21
1640.3049404655339
 31
0.0
  0
LINE
  5
B2A
  8
DETAIL
  6
CONTINUOUS
 62
     5
 10
-152.7263755966828
 20
1640.3049404655339
 30
0.0
 11
-153.63172578476721
 21
1639.7008899113771
 31
0.0
  0
LINE
  5
B2B
  8
DETAIL
  6
CONTINUOUS
 62
     5
 10
-153.63172578476721
 20
1639.7008899113771
 30
0.0
 11
-154.4616034483933
 21
1638.7215691891599
 31
0.0
  0
LINE
  5
B2C
  8
DETAIL
  6
CONTINUOUS
 62
     5
 10
-154.4616034483933
 20
1638.7215691891599
 30
0.0
 11
-155.18213870253291
 21
1637.4069474192329
 31
0.0
  0
LINE
  5
B2D
  8
DETAIL
  6
CONTINUOUS
 62
     5
 10
-155.18213870253291
 20
1637.4069474192329
 30
0.0
 11
-155.7639242651862
 21
1635.810678399665
 31
0.0
  0
LINE
  5
B2E
  8
DETAIL
  6
CONTINUOUS
 62
     5
 10
-154.43214638616499
 20
1640.509067671954
 30
0.0
 11
-155.376018945195
 21
1640.3049404655339
 31
0.0
  0
LINE
  5
B2F
  8
DETAIL
  6
CONTINUOUS
 62
     5
 10
-141.6160426370929
 20
1640.509067671954
 30
0.0
 11
-142.49738781094669
 21
1640.3049404655339
 31
0.0
  0
LINE
  5
B30
  8
DETAIL
  6
CONTINUOUS
 62
     5
 10
-142.49738781094669
 20
1640.3049404655339
 30
0.0
 11
-143.34276255059871
 21
1639.7008899113771
 31
0.0
  0
LINE
  5
B31
  8
DETAIL
  6
CONTINUOUS
 62
     5
 10
-143.34276255059871
 20
1639.7008899113771
 30
0.0
 11
-144.1176644871251
 21
1638.7215691891599
 31
0.0
  0
LINE
  5
B32
  8
DETAIL
  6
CONTINUOUS
 62
     5
 10
-144.1176644871251
 20
1638.7215691891599
 30
0.0
 11
-144.79046746530679
 21
1637.4069474192329
 31
0.0
  0
LINE
  5
B33
  8
DETAIL
  6
CONTINUOUS
 62
     5
 10
-144.79046746530679
 20
1637.4069474192329
 30
0.0
 11
-145.3337123059741
 21
1635.810678399665
 31
0.0
  0
LINE
  5
B34
  8
DETAIL
  6
CONTINUOUS
 62
     5
 10
-144.313239713912
 20
1640.509067671954
 30
0.0
 11
-145.194584887768
 21
1640.3049404655339
 31
0.0
  0
LINE
  5
B35
  8
DETAIL
  6
CONTINUOUS
 62
     5
 10
-145.194584887768
 20
1640.3049404655339
 30
0.0
 11
-146.0399596274201
 21
1639.7008899113771
 31
0.0
  0
LINE
  5
B36
  8
DETAIL
  6
CONTINUOUS
 62
     5
 10
-146.0399596274201
 20
1639.7008899113771
 30
0.0
 11
-146.8148615639461
 21
1638.7215691891599
 31
0.0
  0
LINE
  5
B37
  8
DETAIL
  6
CONTINUOUS
 62
     5
 10
-146.8148615639461
 20
1638.7215691891599
 30
0.0
 11
-147.48766454212759
 21
1637.4069474192329
 31
0.0
  0
LINE
  5
B38
  8
DETAIL
  6
CONTINUOUS
 62
     5
 10
-147.48766454212759
 20
1637.4069474192329
 30
0.0
 11
-148.03090938279411
 21
1635.810678399665
 31
0.0
  0
LINE
  5
B39
  8
DETAIL
  6
CONTINUOUS
 62
     5
 10
-131.2770449027762
 20
1640.509067671954
 30
0.0
 11
-132.0947889082162
 21
1640.3049404655339
 31
0.0
  0
LINE
  5
B3A
  8
DETAIL
  6
CONTINUOUS
 62
     5
 10
-132.0947889082162
 20
1640.3049404655339
 30
0.0
 11
-132.87915824053189
 21
1639.7008899113771
 31
0.0
  0
LINE
  5
B3B
  8
DETAIL
  6
CONTINUOUS
 62
     5
 10
-132.87915824053189
 20
1639.7008899113771
 30
0.0
 11
-133.5981403512028
 21
1638.7215691891599
 31
0.0
  0
LINE
  5
B3C
  8
DETAIL
  6
CONTINUOUS
 62
     5
 10
-133.5981403512028
 20
1638.7215691891599
 30
0.0
 11
-134.22239134677511
 21
1637.4069474192329
 31
0.0
  0
LINE
  5
B3D
  8
DETAIL
  6
CONTINUOUS
 62
     5
 10
-134.22239134677511
 20
1637.4069474192329
 30
0.0
 11
-134.7264336052649
 21
1635.810678399665
 31
0.0
  0
LINE
  5
B3E
  8
DETAIL
  6
CONTINUOUS
 62
     5
 10
-134.0185095888186
 20
1640.509067671954
 30
0.0
 11
-134.83625359415191
 21
1640.3049404655339
 31
0.0
  0
LINE
  5
B3F
  8
DETAIL
  6
CONTINUOUS
 62
     5
 10
-120.7781063110187
 20
1640.509067671954
 30
0.0
 11
-121.531252852721
 21
1640.3049404655339
 31
0.0
  0
LINE
  5
B40
  8
DETAIL
  6
CONTINUOUS
 62
     5
 10
-121.531252852721
 20
1640.3049404655339
 30
0.0
 11
-122.2536611446762
 21
1639.7008899113771
 31
0.0
  0
LINE
  5
B41
  8
DETAIL
  6
CONTINUOUS
 62
     5
 10
-122.2536611446762
 20
1639.7008899113771
 30
0.0
 11
-122.9158474605228
 21
1638.7215691891599
 31
0.0
  0
LINE
  5
B42
  8
DETAIL
  6
CONTINUOUS
 62
     5
 10
-122.9158474605228
 20
1638.7215691891599
 30
0.0
 11
-123.49078591977511
 21
1637.4069474192329
 31
0.0
  0
LINE
  5
B43
  8
DETAIL
  6
CONTINUOUS
 62
     5
 10
-123.49078591977511
 20
1637.4069474192329
 30
0.0
 11
-123.9550114981607
 21
1635.810678399665
 31
0.0
  0
LINE
  5
B44
  8
DETAIL
  6
CONTINUOUS
 62
     5
 10
-123.5604985537247
 20
1640.509067671954
 30
0.0
 11
-124.31364509542379
 21
1640.3049404655339
 31
0.0
  0
LINE
  5
B45
  8
DETAIL
  6
CONTINUOUS
 62
     5
 10
-124.31364509542379
 20
1640.3049404655339
 30
0.0
 11
-125.036053387379
 21
1639.7008899113771
 31
0.0
  0
LINE
  5
B46
  8
DETAIL
  6
CONTINUOUS
 62
     5
 10
-125.036053387379
 20
1639.7008899113771
 30
0.0
 11
-125.6982397032256
 21
1638.7215691891599
 31
0.0
  0
LINE
  5
B47
  8
DETAIL
  6
CONTINUOUS
 62
     5
 10
-125.6982397032256
 20
1638.7215691891599
 30
0.0
 11
-126.2731781624793
 21
1637.4069474192329
 31
0.0
  0
LINE
  5
B48
  8
DETAIL
  6
CONTINUOUS
 62
     5
 10
-126.2731781624793
 20
1637.4069474192329
 30
0.0
 11
-126.7374037408658
 21
1635.810678399665
 31
0.0
  0
LINE
  5
B49
  8
DETAIL
  6
CONTINUOUS
 62
     5
 10
-111.4792167944251
 20
1639.7008899113771
 30
0.0
 11
-112.083800543487
 21
1638.7215691891599
 31
0.0
  0
LINE
  5
B4A
  8
DETAIL
  6
CONTINUOUS
 62
     5
 10
-112.083800543487
 20
1638.7215691891599
 30
0.0
 11
-112.6087259924838
 21
1637.4069474192329
 31
0.0
  0
LINE
  5
B4B
  8
DETAIL
  6
CONTINUOUS
 62
     5
 10
-112.6087259924838
 20
1637.4069474192329
 30
0.0
 11
-113.03256930336499
 21
1635.810678399665
 31
0.0
  0
LINE
  5
B4C
  8
DETAIL
  6
CONTINUOUS
 62
     5
 10
-112.951948084159
 20
1640.509067671954
 30
0.0
 11
-113.6395795692801
 21
1640.3049404655339
 31
0.0
  0
LINE
  5
B4D
  8
DETAIL
  6
CONTINUOUS
 62
     5
 10
-113.6395795692801
 20
1640.3049404655339
 30
0.0
 11
-114.2991466775461
 21
1639.7008899113771
 31
0.0
  0
LINE
  5
B4E
  8
DETAIL
  6
CONTINUOUS
 62
     5
 10
-114.2991466775461
 20
1639.7008899113771
 30
0.0
 11
-114.9037304265002
 21
1638.7215691891599
 31
0.0
  0
LINE
  5
B4F
  8
DETAIL
  6
CONTINUOUS
 62
     5
 10
-114.9037304265002
 20
1638.7215691891599
 30
0.0
 11
-115.428655875497
 21
1637.4069474192329
 31
0.0
  0
LINE
  5
B50
  8
DETAIL
  6
CONTINUOUS
 62
     5
 10
-115.428655875497
 20
1637.4069474192329
 30
0.0
 11
-115.85249918637911
 21
1635.810678399665
 31
0.0
  0
LINE
  5
B51
  8
DETAIL
  6
CONTINUOUS
 62
     5
 10
-180.0544020909378
 20
1646.510880944918
 30
0.0
 11
-180.0544020909378
 21
1645.810669381241
 31
0.0
  0
LINE
  5
B52
  8
DETAIL
  6
CONTINUOUS
 62
     5
 10
-186.93216895495101
 20
1640.509067671954
 30
0.0
 11
-186.93216895495101
 21
1638.5235746480889
 31
0.0
  0
LINE
  5
B53
  8
DETAIL
  6
CONTINUOUS
 62
     5
 10
-195.88667722153511
 20
1640.509067671954
 30
0.0
 11
-195.88667722153511
 21
1639.0741693398611
 31
0.0
  0
LINE
  5
B54
  8
DETAIL
  6
CONTINUOUS
 62
     5
 10
-200.06044676768209
 20
1645.810669381241
 30
0.0
 11
-200.06044676768209
 21
1645.1104578175641
 31
0.0
  0
LINE
  5
B55
  8
DETAIL
  6
CONTINUOUS
 62
     5
 10
-204.60252774586519
 20
1640.509067671954
 30
0.0
 11
-204.60252774586519
 21
1639.510744602185
 31
0.0
  0
LINE
  5
B56
  8
DETAIL
  6
CONTINUOUS
 62
     5
 10
-213.069101606814
 20
1640.509067671954
 30
0.0
 11
-213.069101606814
 21
1639.819096996564
 31
0.0
  0
LINE
  5
B57
  8
DETAIL
  6
CONTINUOUS
 62
     5
 10
-220.0664914444109
 20
1645.1104578175641
 30
0.0
 11
-220.0664914444109
 21
1644.4102462538581
 31
0.0
  0
LINE
  5
B58
  8
DETAIL
  6
CONTINUOUS
 62
     5
 10
-221.27608358822411
 20
1640.509067671954
 30
0.0
 11
-221.27608358822411
 21
1640.026773430651
 31
0.0
  0
LINE
  5
B59
  8
DETAIL
  6
CONTINUOUS
 62
     5
 10
-229.2134747467916
 20
1640.509067671954
 30
0.0
 11
-229.2134747467916
 21
1640.2189424800031
 31
0.0
  0
LINE
  5
B5A
  8
DETAIL
  6
CONTINUOUS
 62
     5
 10
-236.87160459402679
 20
1640.509067671954
 30
0.0
 11
-236.87160459402679
 21
1640.335006873778
 31
0.0
  0
LINE
  5
B5B
  8
DETAIL
  6
CONTINUOUS
 62
     5
 10
-240.07253612113979
 20
1644.4102462538581
 30
0.0
 11
-240.07253612113979
 21
1643.7100346901809
 31
0.0
  0
LINE
  5
B7A
  8
DETAIL
  6
CONTINUOUS
 62
     5
 10
-240.84742498981171
 20
1637.4069474192329
 30
0.0
 11
-241.7388560022282
 21
1635.810678399665
 31
0.0
  0
LINE
  5
B7D
  8
DETAIL
  6
CONTINUOUS
 62
     5
 10
-215.43445895584401
 20
1637.4069474192329
 30
0.0
 11
-216.2310238190621
 21
1635.810678399665
 31
0.0
  0
LINE
  5
B7E
  8
DETAIL
  6
CONTINUOUS
 62
     5
 10
-214.44792181413271
 20
1638.7215691891599
 30
0.0
 11
-215.43445895584401
 21
1637.4069474192329
 31
0.0
  0
LINE
  5
B7F
  8
DETAIL
  6
CONTINUOUS
 62
     5
 10
-196.26077145981199
 20
1638.7215691891599
 30
0.0
 11
-197.16289211991881
 21
1637.4069474192329
 31
0.0
  0
LINE
  5
B80
  8
DETAIL
  6
CONTINUOUS
 62
     5
 10
-197.16289211991881
 20
1637.4069474192329
 30
0.0
 11
-197.8912961402379
 21
1635.810678399665
 31
0.0
  0
LINE
  5
B81
  8
DETAIL
  6
CONTINUOUS
 62
     5
 10
-195.22175250620811
 20
1639.7008899113771
 30
0.0
 11
-196.26077145981199
 21
1638.7215691891599
 31
0.0
  0
LINE
  5
B82
  8
DETAIL
  6
CONTINUOUS
 62
     5
 10
-239.74339712765911
 20
1638.7215691891599
 30
0.0
 11
-240.84742498981171
 21
1637.4069474192329
 31
0.0
  0
LINE
  5
B83
  8
DETAIL
  6
CONTINUOUS
 62
     5
 10
-238.47183122202611
 20
1639.7008899113771
 30
0.0
 11
-239.74339712765911
 21
1638.7215691891599
 31
0.0
  0
LINE
  5
B89
  8
DETAIL
  6
CONTINUOUS
 62
     5
 10
-186.93216895495101
 20
1640.509067671954
 30
0.0
 11
-192.90649862266901
 21
1640.509067671954
 31
0.0
  0
LINE
  5
B8A
  8
DETAIL
  6
CONTINUOUS
 62
     5
 10
-195.88667722153511
 20
1640.509067671954
 30
0.0
 11
-201.96616708590909
 21
1640.509067671954
 31
0.0
  0
LINE
  5
B8B
  8
DETAIL
  6
CONTINUOUS
 62
     5
 10
-204.60252774586519
 20
1640.509067671954
 30
0.0
 11
-210.77977088516889
 21
1640.509067671954
 31
0.0
  0
LINE
  5
B8C
  8
DETAIL
  6
CONTINUOUS
 62
     5
 10
-213.069101606814
 20
1640.509067671954
 30
0.0
 11
-219.3365720017041
 21
1640.509067671954
 31
0.0
  0
LINE
  5
B8D
  8
DETAIL
  6
CONTINUOUS
 62
     5
 10
-221.27608358822411
 20
1640.509067671954
 30
0.0
 11
-227.626145291364
 21
1640.509067671954
 31
0.0
  0
LINE
  5
B8E
  8
DETAIL
  6
CONTINUOUS
 62
     5
 10
-229.2134747467916
 20
1640.509067671954
 30
0.0
 11
-235.63839118622721
 21
1640.509067671954
 31
0.0
  0
LINE
  5
B8F
  8
DETAIL
  6
CONTINUOUS
 62
     5
 10
-236.87160459402679
 20
1640.509067671954
 30
0.0
 11
-243.36354799865961
 21
1640.509067671954
 31
0.0
  0
LINE
  5
B90
  8
DETAIL
  6
CONTINUOUS
 62
     5
 10
-241.355549477832
 20
1640.509067671954
 30
0.0
 11
-242.849642121047
 21
1640.3049404655339
 31
0.0
  0
LINE
  5
B91
  8
DETAIL
  6
CONTINUOUS
 62
     5
 10
-242.849642121047
 20
1640.3049404655339
 30
0.0
 11
-244.28275620254499
 21
1639.7008899113771
 31
0.0
  0
LINE
  5
B92
  8
DETAIL
  6
CONTINUOUS
 62
     5
 10
-244.28275620254499
 20
1639.7008899113771
 30
0.0
 11
-245.5964018851609
 21
1638.7215691891599
 31
0.0
  0
LINE
  5
B93
  8
DETAIL
  6
CONTINUOUS
 62
     5
 10
-245.5964018851609
 20
1638.7215691891599
 30
0.0
 11
-246.73696520803011
 21
1637.4069474192329
 31
0.0
  0
LINE
  5
B94
  8
DETAIL
  6
CONTINUOUS
 62
     5
 10
-243.36354799865961
 20
1640.509067671954
 30
0.0
 11
-244.857640641876
 21
1640.3049404655339
 31
0.0
  0
LINE
  5
B95
  8
DETAIL
  6
CONTINUOUS
 62
     5
 10
-244.857640641876
 20
1640.3049404655339
 30
0.0
 11
-246.290754723373
 21
1639.7008899113771
 31
0.0
  0
LINE
  5
B96
  8
DETAIL
  6
CONTINUOUS
 62
     5
 10
-246.290754723373
 20
1639.7008899113771
 30
0.0
 11
-247.604400405989
 21
1638.7215691891599
 31
0.0
  0
LINE
  5
B97
  8
DETAIL
  6
CONTINUOUS
 62
     5
 10
-233.55378622703199
 20
1640.509067671954
 30
0.0
 11
-235.00001886809969
 21
1640.3049404655339
 31
0.0
  0
LINE
  5
B98
  8
DETAIL
  6
CONTINUOUS
 62
     5
 10
-235.00001886809969
 20
1640.3049404655339
 30
0.0
 11
-236.3872262628451
 21
1639.7008899113771
 31
0.0
  0
LINE
  5
B99
  8
DETAIL
  6
CONTINUOUS
 62
     5
 10
-236.3872262628451
 20
1639.7008899113771
 30
0.0
 11
-237.65879216846221
 21
1638.7215691891599
 31
0.0
  0
LINE
  5
B9A
  8
DETAIL
  6
CONTINUOUS
 62
     5
 10
-237.65879216846221
 20
1638.7215691891599
 30
0.0
 11
-238.7628200306153
 21
1637.4069474192329
 31
0.0
  0
LINE
  5
B9B
  8
DETAIL
  6
CONTINUOUS
 62
     5
 10
-238.7628200306153
 20
1637.4069474192329
 30
0.0
 11
-239.65425104303219
 21
1635.810678399665
 31
0.0
  0
LINE
  5
B9C
  8
DETAIL
  6
CONTINUOUS
 62
     5
 10
-235.63839118622721
 20
1640.509067671954
 30
0.0
 11
-237.08462382729519
 21
1640.3049404655339
 31
0.0
  0
LINE
  5
B9D
  8
DETAIL
  6
CONTINUOUS
 62
     5
 10
-225.46747366388121
 20
1640.509067671954
 30
0.0
 11
-226.86408429112811
 21
1640.3049404655339
 31
0.0
  0
LINE
  5
B9E
  8
DETAIL
  6
CONTINUOUS
 62
     5
 10
-226.86408429112811
 20
1640.3049404655339
 30
0.0
 11
-228.20369490055191
 21
1639.7008899113771
 31
0.0
  0
LINE
  5
B9F
  8
DETAIL
  6
CONTINUOUS
 62
     5
 10
-228.20369490055191
 20
1639.7008899113771
 30
0.0
 11
-229.43163182201479
 21
1638.7215691891599
 31
0.0
  0
LINE
  5
BA0
  8
DETAIL
  6
CONTINUOUS
 62
     5
 10
-229.43163182201479
 20
1638.7215691891599
 30
0.0
 11
-230.49777913564679
 21
1637.4069474192329
 31
0.0
  0
LINE
  5
BA1
  8
DETAIL
  6
CONTINUOUS
 62
     5
 10
-230.49777913564679
 20
1637.4069474192329
 30
0.0
 11
-231.3586240578997
 21
1635.810678399665
 31
0.0
  0
LINE
  5
BA2
  8
DETAIL
  6
CONTINUOUS
 62
     5
 10
-227.626145291364
 20
1640.509067671954
 30
0.0
 11
-229.0227559186126
 21
1640.3049404655339
 31
0.0
  0
LINE
  5
BA3
  8
DETAIL
  6
CONTINUOUS
 62
     5
 10
-229.0227559186126
 20
1640.3049404655339
 30
0.0
 11
-230.3623665280347
 21
1639.7008899113771
 31
0.0
  0
LINE
  5
BA4
  8
DETAIL
  6
CONTINUOUS
 62
     5
 10
-230.3623665280347
 20
1639.7008899113771
 30
0.0
 11
-231.5903034494977
 21
1638.7215691891599
 31
0.0
  0
LINE
  5
BA5
  8
DETAIL
  6
CONTINUOUS
 62
     5
 10
-231.5903034494977
 20
1638.7215691891599
 30
0.0
 11
-232.6564507631301
 21
1637.4069474192329
 31
0.0
  0
LINE
  5
BA6
  8
DETAIL
  6
CONTINUOUS
 62
     5
 10
-232.6564507631301
 20
1637.4069474192329
 30
0.0
 11
-233.5172956853857
 21
1635.810678399665
 31
0.0
  0
LINE
  5
BA7
  8
DETAIL
  6
CONTINUOUS
 62
     5
 10
-217.10646371467689
 20
1640.509067671954
 30
0.0
 11
-218.4517507731961
 21
1640.3049404655339
 31
0.0
  0
LINE
  5
BA8
  8
DETAIL
  6
CONTINUOUS
 62
     5
 10
-218.4517507731961
 20
1640.3049404655339
 30
0.0
 11
-219.74213248807379
 21
1639.7008899113771
 31
0.0
  0
LINE
  5
BA9
  8
DETAIL
  6
CONTINUOUS
 62
     5
 10
-219.74213248807379
 20
1639.7008899113771
 30
0.0
 11
-220.9249443734461
 21
1638.7215691891599
 31
0.0
  0
LINE
  5
BAA
  8
DETAIL
  6
CONTINUOUS
 62
     5
 10
-220.9249443734461
 20
1638.7215691891599
 30
0.0
 11
-221.95191220219201
 21
1637.4069474192329
 31
0.0
  0
LINE
  5
BAB
  8
DETAIL
  6
CONTINUOUS
 62
     5
 10
-221.95191220219201
 20
1637.4069474192329
 30
0.0
 11
-222.78112222728569
 21
1635.810678399665
 31
0.0
  0
LINE
  5
BAC
  8
DETAIL
  6
CONTINUOUS
 62
     5
 10
-219.3365720017041
 20
1640.509067671954
 30
0.0
 11
-220.6818590601319
 21
1640.3049404655339
 31
0.0
  0
LINE
  5
BAD
  8
DETAIL
  6
CONTINUOUS
 62
     5
 10
-220.6818590601319
 20
1640.3049404655339
 30
0.0
 11
-221.9722407751141
 21
1639.7008899113771
 31
0.0
  0
LINE
  5
BAE
  8
DETAIL
  6
CONTINUOUS
 62
     5
 10
-221.9722407751141
 20
1639.7008899113771
 30
0.0
 11
-223.15505266047279
 21
1638.7215691891599
 31
0.0
  0
LINE
  5
BAF
  8
DETAIL
  6
CONTINUOUS
 62
     5
 10
-223.15505266047279
 20
1638.7215691891599
 30
0.0
 11
-224.18202048921691
 21
1637.4069474192329
 31
0.0
  0
LINE
  5
BB0
  8
DETAIL
  6
CONTINUOUS
 62
     5
 10
-224.18202048921691
 20
1637.4069474192329
 30
0.0
 11
-225.0112305142211
 21
1635.810678399665
 31
0.0
  0
LINE
  5
BB1
  8
DETAIL
  6
CONTINUOUS
 62
     5
 10
-208.480942982122
 20
1640.509067671954
 30
0.0
 11
-209.7732674468792
 21
1640.3049404655339
 31
0.0
  0
LINE
  5
BB2
  8
DETAIL
  6
CONTINUOUS
 62
     5
 10
-209.7732674468792
 20
1640.3049404655339
 30
0.0
 11
-211.0128481359088
 21
1639.7008899113771
 31
0.0
  0
LINE
  5
BB3
  8
DETAIL
  6
CONTINUOUS
 62
     5
 10
-211.0128481359088
 20
1639.7008899113771
 30
0.0
 11
-212.14909391106991
 21
1638.7215691891599
 31
0.0
  0
LINE
  5
BB4
  8
DETAIL
  6
CONTINUOUS
 62
     5
 10
-212.14909391106991
 20
1638.7215691891599
 30
0.0
 11
-213.13563105279479
 21
1637.4069474192329
 31
0.0
  0
LINE
  5
BB5
  8
DETAIL
  6
CONTINUOUS
 62
     5
 10
-213.13563105279479
 20
1637.4069474192329
 30
0.0
 11
-213.93219591610381
 21
1635.810678399665
 31
0.0
  0
LINE
  5
BB6
  8
DETAIL
  6
CONTINUOUS
 62
     5
 10
-210.77977088516889
 20
1640.509067671954
 30
0.0
 11
-212.07209534983531
 21
1640.3049404655339
 31
0.0
  0
LINE
  5
BB7
  8
DETAIL
  6
CONTINUOUS
 62
     5
 10
-199.60142033457299
 20
1640.509067671954
 30
0.0
 11
-200.83920770717069
 21
1640.3049404655339
 31
0.0
  0
LINE
  5
BB8
  8
DETAIL
  6
CONTINUOUS
 62
     5
 10
-200.83920770717069
 20
1640.3049404655339
 30
0.0
 11
-202.0264771323381
 21
1639.7008899113771
 31
0.0
  0
LINE
  5
BB9
  8
DETAIL
  6
CONTINUOUS
 62
     5
 10
-202.0264771323381
 20
1639.7008899113771
 30
0.0
 11
-203.114772456829
 21
1638.7215691891599
 31
0.0
  0
LINE
  5
BBA
  8
DETAIL
  6
CONTINUOUS
 62
     5
 10
-203.114772456829
 20
1638.7215691891599
 30
0.0
 11
-204.05967696805919
 21
1637.4069474192329
 31
0.0
  0
LINE
  5
BBB
  8
DETAIL
  6
CONTINUOUS
 62
     5
 10
-204.05967696805919
 20
1637.4069474192329
 30
0.0
 11
-204.822626177854
 21
1635.810678399665
 31
0.0
  0
LINE
  5
BBC
  8
DETAIL
  6
CONTINUOUS
 62
     5
 10
-201.96616708590909
 20
1640.509067671954
 30
0.0
 11
-203.20395445861271
 21
1640.3049404655339
 31
0.0
  0
LINE
  5
BBD
  8
DETAIL
  6
CONTINUOUS
 62
     5
 10
-203.20395445861271
 20
1640.3049404655339
 30
0.0
 11
-204.3912238836887
 21
1639.7008899113771
 31
0.0
  0
LINE
  5
BBE
  8
DETAIL
  6
CONTINUOUS
 62
     5
 10
-204.3912238836887
 20
1639.7008899113771
 30
0.0
 11
-205.4795192081819
 21
1638.7215691891599
 31
0.0
  0
LINE
  5
BBF
  8
DETAIL
  6
CONTINUOUS
 62
     5
 10
-205.4795192081819
 20
1638.7215691891599
 30
0.0
 11
-206.42442371939609
 21
1637.4069474192329
 31
0.0
  0
LINE
  5
BC0
  8
DETAIL
  6
CONTINUOUS
 62
     5
 10
-206.42442371939609
 20
1637.4069474192329
 30
0.0
 11
-207.18737292920599
 21
1635.810678399665
 31
0.0
  0
LINE
  5
BC1
  8
DETAIL
  6
CONTINUOUS
 62
     5
 10
-190.47871410262991
 20
1640.509067671954
 30
0.0
 11
-191.66045632990421
 21
1640.3049404655339
 31
0.0
  0
LINE
  5
BC2
  8
DETAIL
  6
CONTINUOUS
 62
     5
 10
-191.66045632990421
 20
1640.3049404655339
 30
0.0
 11
-192.79396798607689
 21
1639.7008899113771
 31
0.0
  0
LINE
  5
BC3
  8
DETAIL
  6
CONTINUOUS
 62
     5
 10
-192.79396798607689
 20
1639.7008899113771
 30
0.0
 11
-193.83298693977301
 21
1638.7215691891599
 31
0.0
  0
LINE
  5
BC4
  8
DETAIL
  6
CONTINUOUS
 62
     5
 10
-193.83298693977301
 20
1638.7215691891599
 30
0.0
 11
-194.735107599879
 21
1637.4069474192329
 31
0.0
  0
LINE
  5
BC5
  8
DETAIL
  6
CONTINUOUS
 62
     5
 10
-194.735107599879
 20
1637.4069474192329
 30
0.0
 11
-195.46351162010791
 21
1635.810678399665
 31
0.0
  0
LINE
  5
BC6
  8
DETAIL
  6
CONTINUOUS
 62
     5
 10
-192.90649862266901
 20
1640.509067671954
 30
0.0
 11
-194.0882408499433
 21
1640.3049404655339
 31
0.0
  0
LINE
  5
BC7
  8
DETAIL
  6
CONTINUOUS
 62
     5
 10
-181.12393889848269
 20
1640.509067671954
 30
0.0
 11
-182.24819620952559
 21
1640.3049404655339
 31
0.0
  0
LINE
  5
BC8
  8
DETAIL
  6
CONTINUOUS
 62
     5
 10
-182.24819620952559
 20
1640.3049404655339
 30
0.0
 11
-183.326569087525
 21
1639.7008899113771
 31
0.0
  0
LINE
  5
BC9
  8
DETAIL
  6
CONTINUOUS
 62
     5
 10
-183.326569087525
 20
1639.7008899113771
 30
0.0
 11
-184.3150457857632
 21
1638.7215691891599
 31
0.0
  0
LINE
  5
BCA
  8
DETAIL
  6
CONTINUOUS
 62
     5
 10
-184.3150457857632
 20
1638.7215691891599
 30
0.0
 11
-185.1732834996601
 21
1637.4069474192329
 31
0.0
  0
LINE
  5
BCB
  8
DETAIL
  6
CONTINUOUS
 62
     5
 10
-185.1732834996601
 20
1637.4069474192329
 30
0.0
 11
-185.86625488238991
 21
1635.810678399665
 31
0.0
  0
LINE
  5
BCC
  8
DETAIL
  6
CONTINUOUS
 62
     5
 10
-183.611803305801
 20
1640.509067671954
 30
0.0
 11
-184.73606061684399
 21
1640.3049404655339
 31
0.0
  0
LINE
  5
BCD
  8
DETAIL
  6
CONTINUOUS
 62
     5
 10
-184.73606061684399
 20
1640.3049404655339
 30
0.0
 11
-185.8144334948428
 21
1639.7008899113771
 31
0.0
  0
LINE
  5
BCE
  8
DETAIL
  6
CONTINUOUS
 62
     5
 10
-185.8144334948428
 20
1639.7008899113771
 30
0.0
 11
-186.802910193081
 21
1638.7215691891599
 31
0.0
  0
LINE
  5
BCF
  8
DETAIL
  6
CONTINUOUS
 62
     5
 10
-186.802910193081
 20
1638.7215691891599
 30
0.0
 11
-187.6611479069779
 21
1637.4069474192329
 31
0.0
  0
LINE
  5
BD0
  8
DETAIL
  6
CONTINUOUS
 62
     5
 10
-187.6611479069779
 20
1637.4069474192329
 30
0.0
 11
-188.35411928970811
 21
1635.810678399665
 31
0.0
  0
LINE
  5
BD1
  8
DETAIL
  6
CONTINUOUS
 62
     5
 10
-237.08462382729519
 20
1640.3049404655339
 30
0.0
 11
-238.47183122202611
 21
1639.7008899113771
 31
0.0
  0
LINE
  5
BD2
  8
DETAIL
  6
CONTINUOUS
 62
     5
 10
-212.07209534983531
 20
1640.3049404655339
 30
0.0
 11
-213.31167603897529
 21
1639.7008899113771
 31
0.0
  0
LINE
  5
BD3
  8
DETAIL
  6
CONTINUOUS
 62
     5
 10
-213.31167603897529
 20
1639.7008899113771
 30
0.0
 11
-214.44792181413271
 21
1638.7215691891599
 31
0.0
  0
LINE
  5
BD4
  8
DETAIL
  6
CONTINUOUS
 62
     5
 10
-194.0882408499433
 20
1640.3049404655339
 30
0.0
 11
-195.22175250620811
 21
1639.7008899113771
 31
0.0
  0
LINE
  5
BEF
  8
DETAIL
  6
CONTINUOUS
 62
     5
 10
-340.05335157497387
 20
1625.9949815576169
 30
0.0
 11
-345.10742986692082
 21
1615.8300858848329
 31
0.0
  0
LINE
  5
BF0
  8
DETAIL
  6
CONTINUOUS
 62
     5
 10
-340.15808170848999
 20
1625.9949815576169
 30
0.0
 11
-345.21216000043893
 21
1615.8300858848329
 31
0.0
  0
LINE
  5
BF1
  8
DETAIL
  6
CONTINUOUS
 62
     5
 10
-339.37937437990507
 20
1625.9949815576169
 30
0.0
 11
-344.42421437135772
 21
1615.8300858848329
 31
0.0
  0
LINE
  5
BF2
  8
DETAIL
  6
CONTINUOUS
 62
     5
 10
-339.5887070494968
 20
1625.9949815576169
 30
0.0
 11
-344.63354704085941
 21
1615.8300858848329
 31
0.0
  0
LINE
  5
BF3
  8
DETAIL
  6
CONTINUOUS
 62
     5
 10
-338.29191569459181
 20
1625.9949815576169
 30
0.0
 11
-343.32137102508881
 21
1615.8300858848329
 31
0.0
  0
LINE
  5
BF4
  8
DETAIL
  6
CONTINUOUS
 62
     5
 10
-338.6055958605038
 20
1625.9949815576169
 30
0.0
 11
-343.63505119101768
 21
1615.8300858848329
 31
0.0
  0
LINE
  5
BF5
  8
DETAIL
  6
CONTINUOUS
 62
     5
 10
-336.79230041985772
 20
1625.9949815576169
 30
0.0
 11
-341.80024347287781
 21
1615.8300858848329
 31
0.0
  0
LINE
  5
BF6
  8
DETAIL
  6
CONTINUOUS
 62
     5
 10
-337.20994591121001
 20
1625.9949815576169
 30
0.0
 11
-342.21788896424488
 21
1615.8300858848329
 31
0.0
  0
LINE
  5
BF7
  8
DETAIL
  6
CONTINUOUS
 62
     5
 10
-334.8823556059246
 20
1625.9949815576169
 30
0.0
 11
-339.862684974285
 21
1615.8300858848329
 31
0.0
  0
LINE
  5
BF8
  8
DETAIL
  6
CONTINUOUS
 62
     5
 10
-335.40345758597999
 20
1625.9949815576169
 30
0.0
 11
-340.3837869543417
 21
1615.8300858848329
 31
0.0
  0
LINE
  5
BF9
  8
DETAIL
  6
CONTINUOUS
 62
     5
 10
-332.56440822646391
 20
1625.9949815576169
 30
0.0
 11
-337.51105614581911
 21
1615.8300858848329
 31
0.0
  0
LINE
  5
BFA
  8
DETAIL
  6
CONTINUOUS
 62
     5
 10
-333.18833181270372
 20
1625.9949815576169
 30
0.0
 11
-338.13497973216312
 21
1615.8300858848329
 31
0.0
  0
LINE
  5
BFB
  8
DETAIL
  6
CONTINUOUS
 62
     5
 10
-329.8412823430408
 20
1625.9949815576169
 30
0.0
 11
-334.74822208508289
 21
1615.8300858848329
 31
0.0
  0
LINE
  5
BFC
  8
DETAIL
  6
CONTINUOUS
 62
     5
 10
-330.567267380793
 20
1625.9949815576169
 30
0.0
 11
-335.4742071228211
 21
1615.8300858848329
 31
0.0
  0
LINE
  5
BFD
  8
DETAIL
  6
CONTINUOUS
 62
     5
 10
-326.71629566530493
 20
1625.9949815576169
 30
0.0
 11
-331.57754887978808
 21
1615.8300858848329
 31
0.0
  0
LINE
  5
BFE
  8
DETAIL
  6
CONTINUOUS
 62
     5
 10
-327.54345765361398
 20
1625.9949815576169
 30
0.0
 11
-332.40471086800602
 21
1615.8300858848329
 31
0.0
  0
ARC
  5
BFF
  8
DETAIL
  6
CONTINUOUS
 62
     5
 10
-186.1963138685349
 20
1542.9795997428409
 30
0.0
 40
175.0528909214089
 50
147.9740682966804
 51
177.707557220084
  0
LINE
  5
C82
  8
DETAIL
  6
CONTINUOUS
 62
     5
 10
-346.22820694052268
 20
1583.674045476979
 30
0.0
 11
-348.44033112600067
 21
1572.551893428031
 31
0.0
  0
LINE
  5
C83
  8
DETAIL
  6
CONTINUOUS
 62
     5
 10
-348.44033112600067
 20
1572.551893428031
 30
0.0
 11
-349.9482481953537
 21
1561.3053474396979
 31
0.0
  0
LINE
  5
C84
  8
DETAIL
  6
CONTINUOUS
 62
     5
 10
-349.9482481953537
 20
1561.3053474396979
 30
0.0
 11
-350.74561519302682
 21
1549.9817153796989
 31
0.0
  0
LINE
  5
C85
  8
DETAIL
  6
CONTINUOUS
 62
     5
 10
-328.0028995067259
 20
1615.8300858848329
 30
0.0
 11
-332.17575925187288
 21
1605.3587493570401
 31
0.0
  0
LINE
  5
C86
  8
DETAIL
  6
CONTINUOUS
 62
     5
 10
-332.17575925187288
 20
1605.3587493570401
 30
0.0
 11
-335.6942818791631
 21
1594.6250189737059
 31
0.0
  0
LINE
  5
C87
  8
DETAIL
  6
CONTINUOUS
 62
     5
 10
-335.6942818791631
 20
1594.6250189737059
 30
0.0
 11
-338.54366695094672
 21
1583.674045476979
 31
0.0
  0
LINE
  5
C88
  8
DETAIL
  6
CONTINUOUS
 62
     5
 10
-338.54366695094672
 20
1583.674045476979
 30
0.0
 11
-340.71192871332818
 21
1572.551893428031
 31
0.0
  0
LINE
  5
C89
  8
DETAIL
  6
CONTINUOUS
 62
     5
 10
-340.71192871332818
 20
1572.551893428031
 30
0.0
 11
-342.18994651354291
 21
1561.3053474396979
 31
0.0
  0
LINE
  5
C8A
  8
DETAIL
  6
CONTINUOUS
 62
     5
 10
-342.18994651354291
 20
1561.3053474396979
 30
0.0
 11
-342.97150316523721
 21
1549.9817153796989
 31
0.0
  0
LINE
  5
C8B
  8
DETAIL
  6
CONTINUOUS
 62
     5
 10
-328.93023067600689
 20
1615.8300858848329
 30
0.0
 11
-333.10309042115477
 21
1605.3587493570401
 31
0.0
  0
LINE
  5
C8C
  8
DETAIL
  6
CONTINUOUS
 62
     5
 10
-333.10309042115477
 20
1605.3587493570401
 30
0.0
 11
-336.62161304855221
 21
1594.6250189737059
 31
0.0
  0
LINE
  5
C8D
  8
DETAIL
  6
CONTINUOUS
 62
     5
 10
-336.62161304855221
 20
1594.6250189737059
 30
0.0
 11
-339.4709981203186
 21
1583.674045476979
 31
0.0
  0
LINE
  5
C8E
  8
DETAIL
  6
CONTINUOUS
 62
     5
 10
-339.4709981203186
 20
1583.674045476979
 30
0.0
 11
-341.6392598827
 21
1572.551893428031
 31
0.0
  0
LINE
  5
C8F
  8
DETAIL
  6
CONTINUOUS
 62
     5
 10
-341.6392598827
 20
1572.551893428031
 30
0.0
 11
-343.11727768282373
 21
1561.3053474396979
 31
0.0
  0
LINE
  5
C90
  8
DETAIL
  6
CONTINUOUS
 62
     5
 10
-343.11727768282373
 20
1561.3053474396979
 30
0.0
 11
-343.89883433451899
 21
1549.9817153796989
 31
0.0
  0
LINE
  5
C92
  8
DETAIL
  6
CONTINUOUS
 62
     5
 10
-328.15162859290092
 20
1605.3587493570401
 30
0.0
 11
-331.6281094248879
 21
1594.6250189737059
 31
0.0
  0
LINE
  5
C93
  8
DETAIL
  6
CONTINUOUS
 62
     5
 10
-331.6281094248879
 20
1594.6250189737059
 30
0.0
 11
-334.44344802977997
 21
1583.674045476979
 31
0.0
  0
LINE
  5
C94
  8
DETAIL
  6
CONTINUOUS
 62
     5
 10
-334.44344802977997
 20
1583.674045476979
 30
0.0
 11
-336.5858018679682
 21
1572.551893428031
 31
0.0
  0
LINE
  5
C95
  8
DETAIL
  6
CONTINUOUS
 62
     5
 10
-336.5858018679682
 20
1572.551893428031
 30
0.0
 11
-338.04615926662478
 21
1561.3053474396979
 31
0.0
  0
LINE
  5
C96
  8
DETAIL
  6
CONTINUOUS
 62
     5
 10
-338.04615926662478
 20
1561.3053474396979
 30
0.0
 11
-338.81837732703877
 21
1549.9817153796989
 31
0.0
  0
LINE
  5
C98
  8
DETAIL
  6
CONTINUOUS
 62
     5
 10
-329.17799913307999
 20
1605.3587493570401
 30
0.0
 11
-332.65447996506782
 21
1594.6250189737059
 31
0.0
  0
LINE
  5
C99
  8
DETAIL
  6
CONTINUOUS
 62
     5
 10
-332.65447996506782
 20
1594.6250189737059
 30
0.0
 11
-335.46981856985281
 21
1583.674045476979
 31
0.0
  0
LINE
  5
C9A
  8
DETAIL
  6
CONTINUOUS
 62
     5
 10
-335.46981856985281
 20
1583.674045476979
 30
0.0
 11
-337.6121724080399
 21
1572.551893428031
 31
0.0
  0
LINE
  5
C9B
  8
DETAIL
  6
CONTINUOUS
 62
     5
 10
-337.6121724080399
 20
1572.551893428031
 30
0.0
 11
-339.07252980680499
 21
1561.3053474396979
 31
0.0
  0
LINE
  5
C9C
  8
DETAIL
  6
CONTINUOUS
 62
     5
 10
-339.07252980680499
 20
1561.3053474396979
 30
0.0
 11
-339.8447478672187
 21
1549.9817153796989
 31
0.0
  0
LINE
  5
CA0
  8
DETAIL
  6
CONTINUOUS
 62
     5
 10
-329.93576128414492
 20
1583.674045476979
 30
0.0
 11
-332.04959707001399
 21
1572.551893428031
 31
0.0
  0
LINE
  5
CA1
  8
DETAIL
  6
CONTINUOUS
 62
     5
 10
-332.04959707001399
 20
1572.551893428031
 30
0.0
 11
-333.49051484675317
 21
1561.3053474396979
 31
0.0
  0
LINE
  5
CA2
  8
DETAIL
  6
CONTINUOUS
 62
     5
 10
-333.49051484675317
 20
1561.3053474396979
 30
0.0
 11
-334.25245348710399
 21
1549.9817153796989
 31
0.0
  0
LINE
  5
CA5
  8
DETAIL
  6
CONTINUOUS
 62
     5
 10
-328.28205863916628
 20
1594.6250189737059
 30
0.0
 11
-331.05992072071882
 21
1583.674045476979
 31
0.0
  0
LINE
  5
CA6
  8
DETAIL
  6
CONTINUOUS
 62
     5
 10
-331.05992072071882
 20
1583.674045476979
 30
0.0
 11
-333.17375650658818
 21
1572.551893428031
 31
0.0
  0
LINE
  5
CA7
  8
DETAIL
  6
CONTINUOUS
 62
     5
 10
-333.17375650658818
 20
1572.551893428031
 30
0.0
 11
-334.61467428341888
 21
1561.3053474396979
 31
0.0
  0
LINE
  5
CA8
  8
DETAIL
  6
CONTINUOUS
 62
     5
 10
-334.61467428341888
 20
1561.3053474396979
 30
0.0
 11
-335.3766129236642
 21
1549.9817153796989
 31
0.0
  0
LINE
  5
CC0
  8
DETAIL
  6
CONTINUOUS
 62
     5
 10
-361.10910641546792
 20
1549.9817153796989
 30
0.0
 11
-360.12479644667428
 21
1549.9817153796989
 31
0.0
  0
LINE
  5
CC1
  8
DETAIL
  6
CONTINUOUS
 62
     5
 10
-360.06000101232888
 20
1549.9817153796989
 30
0.0
 11
-358.974072864059
 21
1549.9817153796989
 31
0.0
  0
LINE
  5
CC2
  8
DETAIL
  6
CONTINUOUS
 62
     5
 10
-358.94281502373582
 20
1549.9817153796989
 30
0.0
 11
-357.38599466931191
 21
1549.9817153796989
 31
0.0
  0
LINE
  5
CC3
  8
DETAIL
  6
CONTINUOUS
 62
     5
 10
-357.36316862078399
 20
1549.9817153796989
 30
0.0
 11
-342.97150316523721
 21
1549.9817153796989
 31
0.0
  0
LINE
  5
CC4
  8
DETAIL
  6
CONTINUOUS
 62
     5
 10
-342.94161144257572
 20
1549.9817153796989
 30
0.0
 11
-338.81837732703877
 21
1549.9817153796989
 31
0.0
  0
LINE
  5
CC5
  8
DETAIL
  6
CONTINUOUS
 62
     5
 10
-345.10742986692082
 20
1615.8300858848329
 30
0.0
 11
-349.49236144587979
 21
1605.3587493570401
 31
0.0
  0
LINE
  5
CC6
  8
DETAIL
  6
CONTINUOUS
 62
     5
 10
-349.49236144587979
 20
1605.3587493570401
 30
0.0
 11
-353.18970138118311
 21
1594.6250189737059
 31
0.0
  0
LINE
  5
CC7
  8
DETAIL
  6
CONTINUOUS
 62
     5
 10
-353.18970138118311
 20
1594.6250189737059
 30
0.0
 11
-356.18389705160911
 21
1583.674045476979
 31
0.0
  0
LINE
  5
CC8
  8
DETAIL
  6
CONTINUOUS
 62
     5
 10
-356.18389705160911
 20
1583.674045476979
 30
0.0
 11
-358.46235356679563
 21
1572.551893428031
 31
0.0
  0
LINE
  5
CC9
  8
DETAIL
  6
CONTINUOUS
 62
     5
 10
-358.46235356679563
 20
1572.551893428031
 30
0.0
 11
-360.01548674696772
 21
1561.3053474396979
 31
0.0
  0
LINE
  5
CCA
  8
DETAIL
  6
CONTINUOUS
 62
     5
 10
-360.01548674696772
 20
1561.3053474396979
 30
0.0
 11
-360.83676343788278
 21
1549.9817153796989
 31
0.0
  0
LINE
  5
CCB
  8
DETAIL
  6
CONTINUOUS
 62
     5
 10
-345.21216000043893
 20
1615.8300858848329
 30
0.0
 11
-349.59709157952102
 21
1605.3587493570401
 31
0.0
  0
LINE
  5
CCC
  8
DETAIL
  6
CONTINUOUS
 62
     5
 10
-349.59709157952102
 20
1605.3587493570401
 30
0.0
 11
-353.29443151471781
 21
1594.6250189737059
 31
0.0
  0
LINE
  5
CCD
  8
DETAIL
  6
CONTINUOUS
 62
     5
 10
-353.29443151471781
 20
1594.6250189737059
 30
0.0
 11
-356.28862718514222
 21
1583.674045476979
 31
0.0
  0
LINE
  5
CCE
  8
DETAIL
  6
CONTINUOUS
 62
     5
 10
-356.28862718514222
 20
1583.674045476979
 30
0.0
 11
-358.56708370032908
 21
1572.551893428031
 31
0.0
  0
LINE
  5
CCF
  8
DETAIL
  6
CONTINUOUS
 62
     5
 10
-358.56708370032908
 20
1572.551893428031
 30
0.0
 11
-360.12021688050112
 21
1561.3053474396979
 31
0.0
  0
LINE
  5
CD0
  8
DETAIL
  6
CONTINUOUS
 62
     5
 10
-360.12021688050112
 20
1561.3053474396979
 30
0.0
 11
-360.94149357140083
 21
1549.9817153796989
 31
0.0
  0
LINE
  5
CD1
  8
DETAIL
  6
CONTINUOUS
 62
     5
 10
-344.42421437135772
 20
1615.8300858848329
 30
0.0
 11
-348.80113077670768
 21
1605.3587493570401
 31
0.0
  0
LINE
  5
CD2
  8
DETAIL
  6
CONTINUOUS
 62
     5
 10
-348.80113077670768
 20
1605.3587493570401
 30
0.0
 11
-352.49171238033477
 21
1594.6250189737059
 31
0.0
  0
LINE
  5
CD3
  8
DETAIL
  6
CONTINUOUS
 62
     5
 10
-352.49171238033477
 20
1594.6250189737059
 30
0.0
 11
-355.4804349896167
 21
1583.674045476979
 31
0.0
  0
LINE
  5
CD4
  8
DETAIL
  6
CONTINUOUS
 62
     5
 10
-355.4804349896167
 20
1583.674045476979
 30
0.0
 11
-357.75472673634789
 21
1572.551893428031
 31
0.0
  0
LINE
  5
CD5
  8
DETAIL
  6
CONTINUOUS
 62
     5
 10
-357.75472673634789
 20
1572.551893428031
 30
0.0
 11
-359.30502095944883
 21
1561.3053474396979
 31
0.0
  0
LINE
  5
CD6
  8
DETAIL
  6
CONTINUOUS
 62
     5
 10
-359.30502095944883
 20
1561.3053474396979
 30
0.0
 11
-360.12479644667428
 21
1549.9817153796989
 31
0.0
  0
LINE
  5
CD7
  8
DETAIL
  6
CONTINUOUS
 62
     5
 10
-344.63354704085941
 20
1615.8300858848329
 30
0.0
 11
-349.0104634462113
 21
1605.3587493570401
 31
0.0
  0
LINE
  5
CD8
  8
DETAIL
  6
CONTINUOUS
 62
     5
 10
-349.0104634462113
 20
1605.3587493570401
 30
0.0
 11
-352.70104504983601
 21
1594.6250189737059
 31
0.0
  0
LINE
  5
CD9
  8
DETAIL
  6
CONTINUOUS
 62
     5
 10
-352.70104504983601
 20
1594.6250189737059
 30
0.0
 11
-355.68976765910293
 21
1583.674045476979
 31
0.0
  0
LINE
  5
CDA
  8
DETAIL
  6
CONTINUOUS
 62
     5
 10
-355.68976765910293
 20
1583.674045476979
 30
0.0
 11
-357.964059405851
 21
1572.551893428031
 31
0.0
  0
LINE
  5
CDB
  8
DETAIL
  6
CONTINUOUS
 62
     5
 10
-357.964059405851
 20
1572.551893428031
 30
0.0
 11
-359.51435362895199
 21
1561.3053474396979
 31
0.0
  0
LINE
  5
CDC
  8
DETAIL
  6
CONTINUOUS
 62
     5
 10
-359.51435362895199
 20
1561.3053474396979
 30
0.0
 11
-360.33412911617768
 21
1549.9817153796989
 31
0.0
  0
LINE
  5
CDD
  8
DETAIL
  6
CONTINUOUS
 62
     5
 10
-343.32137102508881
 20
1615.8300858848329
 30
0.0
 11
-347.68493965831971
 21
1605.3587493570401
 31
0.0
  0
LINE
  5
CDE
  8
DETAIL
  6
CONTINUOUS
 62
     5
 10
-347.68493965831971
 20
1605.3587493570401
 30
0.0
 11
-351.36426652509988
 21
1594.6250189737059
 31
0.0
  0
LINE
  5
CDF
  8
DETAIL
  6
CONTINUOUS
 62
     5
 10
-351.36426652509988
 20
1594.6250189737059
 30
0.0
 11
-354.34387477514917
 21
1583.674045476979
 31
0.0
  0
LINE
  5
CE0
  8
DETAIL
  6
CONTINUOUS
 62
     5
 10
-354.34387477514917
 20
1583.674045476979
 30
0.0
 11
-356.61123087922209
 21
1572.551893428031
 31
0.0
  0
LINE
  5
CE1
  8
DETAIL
  6
CONTINUOUS
 62
     5
 10
-356.61123087922209
 20
1572.551893428031
 30
0.0
 11
-358.15679735068107
 21
1561.3053474396979
 31
0.0
  0
LINE
  5
CE2
  8
DETAIL
  6
CONTINUOUS
 62
     5
 10
-358.15679735068107
 20
1561.3053474396979
 30
0.0
 11
-358.974072864059
 21
1549.9817153796989
 31
0.0
  0
LINE
  5
CE3
  8
DETAIL
  6
CONTINUOUS
 62
     5
 10
-343.63505119101768
 20
1615.8300858848329
 30
0.0
 11
-347.99861982423312
 21
1605.3587493570401
 31
0.0
  0
LINE
  5
CE4
  8
DETAIL
  6
CONTINUOUS
 62
     5
 10
-347.99861982423312
 20
1605.3587493570401
 30
0.0
 11
-351.67794669101471
 21
1594.6250189737059
 31
0.0
  0
LINE
  5
CE5
  8
DETAIL
  6
CONTINUOUS
 62
     5
 10
-351.67794669101471
 20
1594.6250189737059
 30
0.0
 11
-354.65755494106179
 21
1583.674045476979
 31
0.0
  0
LINE
  5
CE6
  8
DETAIL
  6
CONTINUOUS
 62
     5
 10
-354.65755494106179
 20
1583.674045476979
 30
0.0
 11
-356.9249110451492
 21
1572.551893428031
 31
0.0
  0
LINE
  5
CE7
  8
DETAIL
  6
CONTINUOUS
 62
     5
 10
-356.9249110451492
 20
1572.551893428031
 30
0.0
 11
-358.47047751659522
 21
1561.3053474396979
 31
0.0
  0
LINE
  5
CE8
  8
DETAIL
  6
CONTINUOUS
 62
     5
 10
-358.47047751659522
 20
1561.3053474396979
 30
0.0
 11
-359.28775302997201
 21
1549.9817153796989
 31
0.0
  0
LINE
  5
CE9
  8
DETAIL
  6
CONTINUOUS
 62
     5
 10
-341.80024347287781
 20
1615.8300858848329
 30
0.0
 11
-346.14514799767989
 21
1605.3587493570401
 31
0.0
  0
LINE
  5
CEA
  8
DETAIL
  6
CONTINUOUS
 62
     5
 10
-346.14514799767989
 20
1605.3587493570401
 30
0.0
 11
-349.80873743462001
 21
1594.6250189737059
 31
0.0
  0
LINE
  5
CEB
  8
DETAIL
  6
CONTINUOUS
 62
     5
 10
-349.80873743462001
 20
1594.6250189737059
 30
0.0
 11
-352.77560113168869
 21
1583.674045476979
 31
0.0
  0
LINE
  5
CEC
  8
DETAIL
  6
CONTINUOUS
 62
     5
 10
-352.77560113168869
 20
1583.674045476979
 30
0.0
 11
-355.03325916898621
 21
1572.551893428031
 31
0.0
  0
LINE
  5
CED
  8
DETAIL
  6
CONTINUOUS
 62
     5
 10
-355.03325916898621
 20
1572.551893428031
 30
0.0
 11
-356.57221485403079
 21
1561.3053474396979
 31
0.0
  0
LINE
  5
CEE
  8
DETAIL
  6
CONTINUOUS
 62
     5
 10
-356.57221485403079
 20
1561.3053474396979
 30
0.0
 11
-357.38599466931191
 21
1549.9817153796989
 31
0.0
  0
LINE
  5
CEF
  8
DETAIL
  6
CONTINUOUS
 62
     5
 10
-342.21788896424488
 20
1615.8300858848329
 30
0.0
 11
-346.56279348904712
 21
1605.3587493570401
 31
0.0
  0
LINE
  5
CF0
  8
DETAIL
  6
CONTINUOUS
 62
     5
 10
-346.56279348904712
 20
1605.3587493570401
 30
0.0
 11
-350.22638292588078
 21
1594.6250189737059
 31
0.0
  0
LINE
  5
CF1
  8
DETAIL
  6
CONTINUOUS
 62
     5
 10
-350.22638292588078
 20
1594.6250189737059
 30
0.0
 11
-353.19324662305502
 21
1583.674045476979
 31
0.0
  0
LINE
  5
CF2
  8
DETAIL
  6
CONTINUOUS
 62
     5
 10
-353.19324662305502
 20
1583.674045476979
 30
0.0
 11
-355.45090466033793
 21
1572.551893428031
 31
0.0
  0
LINE
  5
CF3
  8
DETAIL
  6
CONTINUOUS
 62
     5
 10
-355.45090466033793
 20
1572.551893428031
 30
0.0
 11
-356.98986034538399
 21
1561.3053474396979
 31
0.0
  0
LINE
  5
CF4
  8
DETAIL
  6
CONTINUOUS
 62
     5
 10
-356.98986034538399
 20
1561.3053474396979
 30
0.0
 11
-357.803640160665
 21
1549.9817153796989
 31
0.0
  0
LINE
  5
CF5
  8
DETAIL
  6
CONTINUOUS
 62
     5
 10
-339.862684974285
 20
1615.8300858848329
 30
0.0
 11
-344.18363179382999
 21
1605.3587493570401
 31
0.0
  0
LINE
  5
CF6
  8
DETAIL
  6
CONTINUOUS
 62
     5
 10
-344.18363179382999
 20
1605.3587493570401
 30
0.0
 11
-347.82702028141421
 21
1594.6250189737059
 31
0.0
  0
LINE
  5
CF7
  8
DETAIL
  6
CONTINUOUS
 62
     5
 10
-347.82702028141421
 20
1594.6250189737059
 30
0.0
 11
-350.77752475926673
 21
1583.674045476979
 31
0.0
  0
LINE
  5
CF8
  8
DETAIL
  6
CONTINUOUS
 62
     5
 10
-350.77752475926673
 20
1583.674045476979
 30
0.0
 11
-353.02273412118308
 21
1572.551893428031
 31
0.0
  0
LINE
  5
CF9
  8
DETAIL
  6
CONTINUOUS
 62
     5
 10
-353.02273412118308
 20
1572.551893428031
 30
0.0
 11
-354.55320403941408
 21
1561.3053474396979
 31
0.0
  0
LINE
  5
CFA
  8
DETAIL
  6
CONTINUOUS
 62
     5
 10
-354.55320403941408
 20
1561.3053474396979
 30
0.0
 11
-355.36249669113511
 21
1549.9817153796989
 31
0.0
  0
LINE
  5
CFB
  8
DETAIL
  6
CONTINUOUS
 62
     5
 10
-340.3837869543417
 20
1615.8300858848329
 30
0.0
 11
-344.70473377390181
 21
1605.3587493570401
 31
0.0
  0
LINE
  5
CFC
  8
DETAIL
  6
CONTINUOUS
 62
     5
 10
-344.70473377390181
 20
1605.3587493570401
 30
0.0
 11
-348.34812226147181
 21
1594.6250189737059
 31
0.0
  0
LINE
  5
CFD
  8
DETAIL
  6
CONTINUOUS
 62
     5
 10
-348.34812226147181
 20
1594.6250189737059
 30
0.0
 11
-351.29862673933889
 21
1583.674045476979
 31
0.0
  0
LINE
  5
CFE
  8
DETAIL
  6
CONTINUOUS
 62
     5
 10
-351.29862673933889
 20
1583.674045476979
 30
0.0
 11
-353.54383610123767
 21
1572.551893428031
 31
0.0
  0
LINE
  5
CFF
  8
DETAIL
  6
CONTINUOUS
 62
     5
 10
-353.54383610123767
 20
1572.551893428031
 30
0.0
 11
-355.07430601948488
 21
1561.3053474396979
 31
0.0
  0
LINE
  5
D00
  8
DETAIL
  6
CONTINUOUS
 62
     5
 10
-355.07430601948488
 20
1561.3053474396979
 30
0.0
 11
-355.88359867120698
 21
1549.9817153796989
 31
0.0
  0
LINE
  5
D01
  8
DETAIL
  6
CONTINUOUS
 62
     5
 10
-337.51105614581911
 20
1615.8300858848329
 30
0.0
 11
-341.80278085203781
 21
1605.3587493570401
 31
0.0
  0
LINE
  5
D02
  8
DETAIL
  6
CONTINUOUS
 62
     5
 10
-341.80278085203781
 20
1605.3587493570401
 30
0.0
 11
-345.42152948266079
 21
1594.6250189737059
 31
0.0
  0
LINE
  5
D03
  8
DETAIL
  6
CONTINUOUS
 62
     5
 10
-345.42152948266079
 20
1594.6250189737059
 30
0.0
 11
-348.3520800059718
 21
1583.674045476979
 31
0.0
  0
LINE
  5
D04
  8
DETAIL
  6
CONTINUOUS
 62
     5
 10
-348.3520800059718
 20
1583.674045476979
 30
0.0
 11
-350.58210525082308
 21
1572.551893428031
 31
0.0
  0
LINE
  5
D05
  8
DETAIL
  6
CONTINUOUS
 62
     5
 10
-350.58210525082308
 20
1572.551893428031
 30
0.0
 11
-352.10222476035369
 21
1561.3053474396979
 31
0.0
  0
LINE
  5
D06
  8
DETAIL
  6
CONTINUOUS
 62
     5
 10
-352.10222476035369
 20
1561.3053474396979
 30
0.0
 11
-352.90604425020501
 21
1549.9817153796989
 31
0.0
  0
LINE
  5
D07
  8
DETAIL
  6
CONTINUOUS
 62
     5
 10
-338.13497973216312
 20
1615.8300858848329
 30
0.0
 11
-342.42670443827677
 21
1605.3587493570401
 31
0.0
  0
LINE
  5
D08
  8
DETAIL
  6
CONTINUOUS
 62
     5
 10
-342.42670443827677
 20
1605.3587493570401
 30
0.0
 11
-346.04545306900582
 21
1594.6250189737059
 31
0.0
  0
LINE
  5
D09
  8
DETAIL
  6
CONTINUOUS
 62
     5
 10
-346.04545306900582
 20
1594.6250189737059
 30
0.0
 11
-348.97600359231728
 21
1583.674045476979
 31
0.0
  0
LINE
  5
D0A
  8
DETAIL
  6
CONTINUOUS
 62
     5
 10
-348.97600359231728
 20
1583.674045476979
 30
0.0
 11
-351.20602883716759
 21
1572.551893428031
 31
0.0
  0
LINE
  5
D0B
  8
DETAIL
  6
CONTINUOUS
 62
     5
 10
-351.20602883716759
 20
1572.551893428031
 30
0.0
 11
-352.72614834670088
 21
1561.3053474396979
 31
0.0
  0
LINE
  5
D0C
  8
DETAIL
  6
CONTINUOUS
 62
     5
 10
-352.72614834670088
 20
1561.3053474396979
 30
0.0
 11
-353.52996783644397
 21
1549.9817153796989
 31
0.0
  0
LINE
  5
D0D
  8
DETAIL
  6
CONTINUOUS
 62
     5
 10
-334.74822208508289
 20
1615.8300858848329
 30
0.0
 11
-339.00549587240812
 21
1605.3587493570401
 31
0.0
  0
LINE
  5
D0E
  8
DETAIL
  6
CONTINUOUS
 62
     5
 10
-339.00549587240812
 20
1605.3587493570401
 30
0.0
 11
-342.59519575836879
 21
1594.6250189737059
 31
0.0
  0
LINE
  5
D0F
  8
DETAIL
  6
CONTINUOUS
 62
     5
 10
-342.59519575836879
 20
1594.6250189737059
 30
0.0
 11
-345.50222190276918
 21
1583.674045476979
 31
0.0
  0
LINE
  5
D10
  8
DETAIL
  6
CONTINUOUS
 62
     5
 10
-345.50222190276918
 20
1583.674045476979
 30
0.0
 11
-347.71434608824723
 21
1572.551893428031
 31
0.0
  0
LINE
  5
D11
  8
DETAIL
  6
CONTINUOUS
 62
     5
 10
-347.71434608824723
 20
1572.551893428031
 30
0.0
 11
-349.22226315761498
 21
1561.3053474396979
 31
0.0
  0
LINE
  5
D12
  8
DETAIL
  6
CONTINUOUS
 62
     5
 10
-349.22226315761498
 20
1561.3053474396979
 30
0.0
 11
-350.01963015528781
 21
1549.9817153796989
 31
0.0
  0
LINE
  5
D13
  8
DETAIL
  6
CONTINUOUS
 62
     5
 10
-335.4742071228211
 20
1615.8300858848329
 30
0.0
 11
-339.73148091014627
 21
1605.3587493570401
 31
0.0
  0
LINE
  5
D14
  8
DETAIL
  6
CONTINUOUS
 62
     5
 10
-339.73148091014627
 20
1605.3587493570401
 30
0.0
 11
-343.32118079612201
 21
1594.6250189737059
 31
0.0
  0
LINE
  5
D15
  8
DETAIL
  6
CONTINUOUS
 62
     5
 10
-343.32118079612201
 20
1594.6250189737059
 30
0.0
 11
-346.22820694052268
 21
1583.674045476979
 31
0.0
  0
LINE
  5
D16
  8
DETAIL
  6
CONTINUOUS
 62
     5
 10
-331.57754887978808
 20
1615.8300858848329
 30
0.0
 11
-335.79518491586663
 21
1605.3587493570401
 31
0.0
  0
LINE
  5
D17
  8
DETAIL
  6
CONTINUOUS
 62
     5
 10
-335.79518491586663
 20
1605.3587493570401
 30
0.0
 11
-339.35146256085488
 21
1594.6250189737059
 31
0.0
  0
LINE
  5
D18
  8
DETAIL
  6
CONTINUOUS
 62
     5
 10
-339.35146256085488
 20
1594.6250189737059
 30
0.0
 11
-342.23142256271922
 21
1583.674045476979
 31
0.0
  0
LINE
  5
D19
  8
DETAIL
  6
CONTINUOUS
 62
     5
 10
-342.23142256271922
 20
1583.674045476979
 30
0.0
 11
-344.4229505563161
 21
1572.551893428031
 31
0.0
  0
LINE
  5
D1A
  8
DETAIL
  6
CONTINUOUS
 62
     5
 10
-344.4229505563161
 20
1572.551893428031
 30
0.0
 11
-345.91682802081408
 21
1561.3053474396979
 31
0.0
  0
LINE
  5
D1B
  8
DETAIL
  6
CONTINUOUS
 62
     5
 10
-345.91682802081408
 20
1561.3053474396979
 30
0.0
 11
-346.70677105749007
 21
1549.9817153796989
 31
0.0
  0
LINE
  5
D1C
  8
DETAIL
  6
CONTINUOUS
 62
     5
 10
-332.40471086800602
 20
1615.8300858848329
 30
0.0
 11
-336.62234690417608
 21
1605.3587493570401
 31
0.0
  0
LINE
  5
D1D
  8
DETAIL
  6
CONTINUOUS
 62
     5
 10
-336.62234690417608
 20
1605.3587493570401
 30
0.0
 11
-340.1786245490589
 21
1594.6250189737059
 31
0.0
  0
LINE
  5
D1E
  8
DETAIL
  6
CONTINUOUS
 62
     5
 10
-340.1786245490589
 20
1594.6250189737059
 30
0.0
 11
-343.05858455102828
 21
1583.674045476979
 31
0.0
  0
LINE
  5
D1F
  8
DETAIL
  6
CONTINUOUS
 62
     5
 10
-343.05858455102828
 20
1583.674045476979
 30
0.0
 11
-345.2501125446251
 21
1572.551893428031
 31
0.0
  0
LINE
  5
D20
  8
DETAIL
  6
CONTINUOUS
 62
     5
 10
-345.2501125446251
 20
1572.551893428031
 30
0.0
 11
-346.74399000912308
 21
1561.3053474396979
 31
0.0
  0
LINE
  5
D21
  8
DETAIL
  6
CONTINUOUS
 62
     5
 10
-346.74399000912308
 20
1561.3053474396979
 30
0.0
 11
-347.53393304579902
 21
1549.9817153796989
 31
0.0
  0
LINE
  5
D25
  8
DETAIL
  6
CONTINUOUS
 62
     5
 10
-258.07889271268272
 20
1640.509067671954
 30
0.0
 11
-318.68832319287912
 21
1640.509067671954
 31
0.0
  0
LINE
  5
D26
  8
DETAIL
  6
CONTINUOUS
 62
     5
 10
-315.01237211595372
 20
1640.3049404655339
 30
0.0
 11
-316.86611263218811
 21
1639.7008899113771
 31
0.0
  0
LINE
  5
D27
  8
DETAIL
  6
CONTINUOUS
 62
     5
 10
-315.83953410417178
 20
1640.3049404655339
 30
0.0
 11
-317.69327462049608
 21
1639.7008899113771
 31
0.0
  0
LINE
  5
D28
  8
DETAIL
  6
CONTINUOUS
 62
     5
 10
-315.12881435990312
 20
1638.7215691891599
 30
0.0
 11
-316.58847624993399
 21
1637.4069474192329
 31
0.0
  0
LINE
  5
D29
  8
DETAIL
  6
CONTINUOUS
 62
     5
 10
-314.37497754736199
 20
1639.7008899113771
 30
0.0
 11
-316.05614552929183
 21
1638.7215691891599
 31
0.0
  0
LINE
  5
D2A
  8
DETAIL
  6
CONTINUOUS
 62
     5
 10
-260.07858079787002
 20
1643.7100346901809
 30
0.0
 11
-260.07858079787002
 21
1643.009823126504
 31
0.0
  0
LINE
  5
D2B
  8
DETAIL
  6
CONTINUOUS
 62
     5
 10
-280.08462547459879
 20
1643.009823126504
 30
0.0
 11
-280.08462547459879
 21
1642.3096115628271
 31
0.0
  0
LINE
  5
D2C
  8
DETAIL
  6
CONTINUOUS
 62
     5
 10
-300.09067015134491
 20
1642.3096115628271
 30
0.0
 11
-300.09067015134491
 21
1641.609399999121
 31
0.0
  0
LINE
  5
D42
  8
DETAIL
  6
CONTINUOUS
 62
     5
 10
-251.3131109524401
 20
1640.509067671954
 30
0.0
 11
-257.91530796297911
 21
1640.509067671954
 31
0.0
  0
LINE
  5
D43
  8
DETAIL
  6
CONTINUOUS
 62
     5
 10
-313.07975551300558
 20
1640.509067671954
 30
0.0
 11
-315.01237211595372
 21
1640.3049404655339
 31
0.0
  0
LINE
  5
D44
  8
DETAIL
  6
CONTINUOUS
 62
     5
 10
-313.90691750131509
 20
1640.509067671954
 30
0.0
 11
-315.83953410417178
 21
1640.3049404655339
 31
0.0
  0
LINE
  5
D45
  8
DETAIL
  6
CONTINUOUS
 62
     5
 10
-309.70148690192178
 20
1640.509067671954
 30
0.0
 11
-311.61358599155892
 21
1640.3049404655339
 31
0.0
  0
LINE
  5
D46
  8
DETAIL
  6
CONTINUOUS
 62
     5
 10
-311.61358599155892
 20
1640.3049404655339
 30
0.0
 11
-313.44764637797601
 21
1639.7008899113771
 31
0.0
  0
LINE
  5
D47
  8
DETAIL
  6
CONTINUOUS
 62
     5
 10
-313.44764637797601
 20
1639.7008899113771
 30
0.0
 11
-315.12881435990312
 21
1638.7215691891599
 31
0.0
  0
LINE
  5
D48
  8
DETAIL
  6
CONTINUOUS
 62
     5
 10
-310.62881807120402
 20
1640.509067671954
 30
0.0
 11
-312.54091716093171
 21
1640.3049404655339
 31
0.0
  0
LINE
  5
D49
  8
DETAIL
  6
CONTINUOUS
 62
     5
 10
-312.54091716093171
 20
1640.3049404655339
 30
0.0
 11
-314.37497754736199
 21
1639.7008899113771
 31
0.0
  0
LINE
  5
D4A
  8
DETAIL
  6
CONTINUOUS
 62
     5
 10
-305.94589473493721
 20
1640.509067671954
 30
0.0
 11
-307.83514671309013
 21
1640.3049404655339
 31
0.0
  0
LINE
  5
D4B
  8
DETAIL
  6
CONTINUOUS
 62
     5
 10
-307.83514671309013
 20
1640.3049404655339
 30
0.0
 11
-309.64729244966787
 21
1639.7008899113771
 31
0.0
  0
LINE
  5
D4C
  8
DETAIL
  6
CONTINUOUS
 62
     5
 10
-309.64729244966787
 20
1639.7008899113771
 30
0.0
 11
-311.30837264813078
 21
1638.7215691891599
 31
0.0
  0
LINE
  5
D4D
  8
DETAIL
  6
CONTINUOUS
 62
     5
 10
-311.30837264813078
 20
1638.7215691891599
 30
0.0
 11
-312.75059346615973
 21
1637.4069474192329
 31
0.0
  0
LINE
  5
D4E
  8
DETAIL
  6
CONTINUOUS
 62
     5
 10
-312.75059346615973
 20
1637.4069474192329
 30
0.0
 11
-313.91509339219601
 21
1635.810678399665
 31
0.0
  0
LINE
  5
D4F
  8
DETAIL
  6
CONTINUOUS
 62
     5
 10
-306.9722652751289
 20
1640.509067671954
 30
0.0
 11
-308.86151725326999
 21
1640.3049404655339
 31
0.0
  0
LINE
  5
D50
  8
DETAIL
  6
CONTINUOUS
 62
     5
 10
-308.86151725326999
 20
1640.3049404655339
 30
0.0
 11
-310.6736629897548
 21
1639.7008899113771
 31
0.0
  0
LINE
  5
D51
  8
DETAIL
  6
CONTINUOUS
 62
     5
 10
-310.6736629897548
 20
1639.7008899113771
 30
0.0
 11
-312.33474318831031
 21
1638.7215691891599
 31
0.0
  0
LINE
  5
D52
  8
DETAIL
  6
CONTINUOUS
 62
     5
 10
-312.33474318831031
 20
1638.7215691891599
 30
0.0
 11
-313.77696400633789
 21
1637.4069474192329
 31
0.0
  0
LINE
  5
D53
  8
DETAIL
  6
CONTINUOUS
 62
     5
 10
-313.77696400633789
 20
1637.4069474192329
 30
0.0
 11
-314.9414639323731
 21
1635.810678399665
 31
0.0
  0
LINE
  5
D54
  8
DETAIL
  6
CONTINUOUS
 62
     5
 10
-301.81755462256291
 20
1640.509067671954
 30
0.0
 11
-303.68165772667169
 21
1640.3049404655339
 31
0.0
  0
LINE
  5
D55
  8
DETAIL
  6
CONTINUOUS
 62
     5
 10
-303.68165772667169
 20
1640.3049404655339
 30
0.0
 11
-305.46968099293002
 21
1639.7008899113771
 31
0.0
  0
LINE
  5
D56
  8
DETAIL
  6
CONTINUOUS
 62
     5
 10
-305.46968099293002
 20
1639.7008899113771
 30
0.0
 11
-307.10864963774469
 21
1638.7215691891599
 31
0.0
  0
LINE
  5
D57
  8
DETAIL
  6
CONTINUOUS
 62
     5
 10
-307.10864963774469
 20
1638.7215691891599
 30
0.0
 11
-308.53167225977307
 21
1637.4069474192329
 31
0.0
  0
LINE
  5
D58
  8
DETAIL
  6
CONTINUOUS
 62
     5
 10
-308.53167225977307
 20
1637.4069474192329
 30
0.0
 11
-309.68067088572201
 21
1635.810678399665
 31
0.0
  0
LINE
  5
D59
  8
DETAIL
  6
CONTINUOUS
 62
     5
 10
-302.94171405912311
 20
1640.509067671954
 30
0.0
 11
-304.80581716333802
 21
1640.3049404655339
 31
0.0
  0
LINE
  5
D5A
  8
DETAIL
  6
CONTINUOUS
 62
     5
 10
-304.80581716333802
 20
1640.3049404655339
 30
0.0
 11
-306.59384042948972
 21
1639.7008899113771
 31
0.0
  0
LINE
  5
D5B
  8
DETAIL
  6
CONTINUOUS
 62
     5
 10
-306.59384042948972
 20
1639.7008899113771
 30
0.0
 11
-308.2328090743049
 21
1638.7215691891599
 31
0.0
  0
LINE
  5
D5C
  8
DETAIL
  6
CONTINUOUS
 62
     5
 10
-308.2328090743049
 20
1638.7215691891599
 30
0.0
 11
-309.65583169643782
 21
1637.4069474192329
 31
0.0
  0
LINE
  5
D5D
  8
DETAIL
  6
CONTINUOUS
 62
     5
 10
-309.65583169643782
 20
1637.4069474192329
 30
0.0
 11
-310.80483032228221
 21
1635.810678399665
 31
0.0
  0
LINE
  5
D5E
  8
DETAIL
  6
CONTINUOUS
 62
     5
 10
-297.32149631128408
 20
1640.509067671954
 30
0.0
 11
-299.15817941893278
 21
1640.3049404655339
 31
0.0
  0
LINE
  5
D5F
  8
DETAIL
  6
CONTINUOUS
 62
     5
 10
-299.15817941893278
 20
1640.3049404655339
 30
0.0
 11
-300.9199017838759
 21
1639.7008899113771
 31
0.0
  0
LINE
  5
D60
  8
DETAIL
  6
CONTINUOUS
 62
     5
 10
-300.9199017838759
 20
1639.7008899113771
 30
0.0
 11
-302.53476204412112
 21
1638.7215691891599
 31
0.0
  0
LINE
  5
D61
  8
DETAIL
  6
CONTINUOUS
 62
     5
 10
-302.53476204412112
 20
1638.7215691891599
 30
0.0
 11
-303.9368527364349
 21
1637.4069474192329
 31
0.0
  0
LINE
  5
D62
  8
DETAIL
  6
CONTINUOUS
 62
     5
 10
-303.9368527364349
 20
1637.4069474192329
 30
0.0
 11
-305.068950184404
 21
1635.810678399665
 31
0.0
  0
LINE
  5
D63
  8
DETAIL
  6
CONTINUOUS
 62
     5
 10
-298.54207502921412
 20
1640.509067671954
 30
0.0
 11
-300.37875813686281
 21
1640.3049404655339
 31
0.0
  0
LINE
  5
D64
  8
DETAIL
  6
CONTINUOUS
 62
     5
 10
-300.37875813686281
 20
1640.3049404655339
 30
0.0
 11
-302.14048050180412
 21
1639.7008899113771
 31
0.0
  0
LINE
  5
D65
  8
DETAIL
  6
CONTINUOUS
 62
     5
 10
-302.14048050180412
 20
1639.7008899113771
 30
0.0
 11
-303.75534076204889
 21
1638.7215691891599
 31
0.0
  0
LINE
  5
D66
  8
DETAIL
  6
CONTINUOUS
 62
     5
 10
-303.75534076204889
 20
1638.7215691891599
 30
0.0
 11
-305.15743145436318
 21
1637.4069474192329
 31
0.0
  0
LINE
  5
D67
  8
DETAIL
  6
CONTINUOUS
 62
     5
 10
-305.15743145436318
 20
1637.4069474192329
 30
0.0
 11
-306.28952890233228
 21
1635.810678399665
 31
0.0
  0
LINE
  5
D68
  8
DETAIL
  6
CONTINUOUS
 62
     5
 10
-292.4631975556577
 20
1640.509067671954
 30
0.0
 11
-294.27022295136692
 21
1640.3049404655339
 31
0.0
  0
LINE
  5
D69
  8
DETAIL
  6
CONTINUOUS
 62
     5
 10
-294.27022295136692
 20
1640.3049404655339
 30
0.0
 11
-296.00349802765589
 21
1639.7008899113771
 31
0.0
  0
LINE
  5
D6A
  8
DETAIL
  6
CONTINUOUS
 62
     5
 10
-296.00349802765589
 20
1639.7008899113771
 30
0.0
 11
-297.59228244488207
 21
1638.7215691891599
 31
0.0
  0
LINE
  5
D6B
  8
DETAIL
  6
CONTINUOUS
 62
     5
 10
-297.59228244488207
 20
1638.7215691891599
 30
0.0
 11
-298.97173297583691
 21
1637.4069474192329
 31
0.0
  0
LINE
  5
D6C
  8
DETAIL
  6
CONTINUOUS
 62
     5
 10
-298.97173297583691
 20
1637.4069474192329
 30
0.0
 11
-300.08554995950902
 21
1635.810678399665
 31
0.0
  0
LINE
  5
D6D
  8
DETAIL
  6
CONTINUOUS
 62
     5
 10
-293.77870846783981
 20
1640.509067671954
 30
0.0
 11
-295.58573386353407
 21
1640.3049404655339
 31
0.0
  0
LINE
  5
D6E
  8
DETAIL
  6
CONTINUOUS
 62
     5
 10
-295.58573386353407
 20
1640.3049404655339
 30
0.0
 11
-297.31900893983851
 21
1639.7008899113771
 31
0.0
  0
LINE
  5
D6F
  8
DETAIL
  6
CONTINUOUS
 62
     5
 10
-297.31900893983851
 20
1639.7008899113771
 30
0.0
 11
-298.90779335706611
 21
1638.7215691891599
 31
0.0
  0
LINE
  5
D70
  8
DETAIL
  6
CONTINUOUS
 62
     5
 10
-298.90779335706611
 20
1638.7215691891599
 30
0.0
 11
-300.28724388801811
 21
1637.4069474192329
 31
0.0
  0
LINE
  5
D71
  8
DETAIL
  6
CONTINUOUS
 62
     5
 10
-300.28724388801811
 20
1637.4069474192329
 30
0.0
 11
-301.4010608716921
 21
1635.810678399665
 31
0.0
  0
LINE
  5
D72
  8
DETAIL
  6
CONTINUOUS
 62
     5
 10
-287.24857744429801
 20
1640.509067671954
 30
0.0
 11
-289.02374354596373
 21
1640.3049404655339
 31
0.0
  0
LINE
  5
D73
  8
DETAIL
  6
CONTINUOUS
 62
     5
 10
-289.02374354596373
 20
1640.3049404655339
 30
0.0
 11
-290.72645960496908
 21
1639.7008899113771
 31
0.0
  0
LINE
  5
D74
  8
DETAIL
  6
CONTINUOUS
 62
     5
 10
-290.72645960496908
 20
1639.7008899113771
 30
0.0
 11
-292.2872324901291
 21
1638.7215691891599
 31
0.0
  0
LINE
  5
D75
  8
DETAIL
  6
CONTINUOUS
 62
     5
 10
-292.2872324901291
 20
1638.7215691891599
 30
0.0
 11
-293.64236221172888
 21
1637.4069474192329
 31
0.0
  0
LINE
  5
D76
  8
DETAIL
  6
CONTINUOUS
 62
     5
 10
-293.64236221172888
 20
1637.4069474192329
 30
0.0
 11
-294.73654171668881
 21
1635.810678399665
 31
0.0
  0
LINE
  5
D77
  8
DETAIL
  6
CONTINUOUS
 62
     5
 10
-288.65741780317319
 20
1640.509067671954
 30
0.0
 11
-290.4325839049302
 21
1640.3049404655339
 31
0.0
  0
LINE
  5
D78
  8
DETAIL
  6
CONTINUOUS
 62
     5
 10
-290.4325839049302
 20
1640.3049404655339
 30
0.0
 11
-292.13529996395118
 21
1639.7008899113771
 31
0.0
  0
LINE
  5
D79
  8
DETAIL
  6
CONTINUOUS
 62
     5
 10
-292.13529996395118
 20
1639.7008899113771
 30
0.0
 11
-293.69607284900297
 21
1638.7215691891599
 31
0.0
  0
LINE
  5
D7A
  8
DETAIL
  6
CONTINUOUS
 62
     5
 10
-293.69607284900297
 20
1638.7215691891599
 30
0.0
 11
-295.05120257070979
 21
1637.4069474192329
 31
0.0
  0
LINE
  5
D7B
  8
DETAIL
  6
CONTINUOUS
 62
     5
 10
-295.05120257070979
 20
1637.4069474192329
 30
0.0
 11
-296.14538207556501
 21
1635.810678399665
 31
0.0
  0
LINE
  5
D7C
  8
DETAIL
  6
CONTINUOUS
 62
     5
 10
-281.68398918859202
 20
1640.509067671954
 30
0.0
 11
-283.425133229739
 21
1640.3049404655339
 31
0.0
  0
LINE
  5
D7D
  8
DETAIL
  6
CONTINUOUS
 62
     5
 10
-283.425133229739
 20
1640.3049404655339
 30
0.0
 11
-285.0952157742849
 21
1639.7008899113771
 31
0.0
  0
LINE
  5
D7E
  8
DETAIL
  6
CONTINUOUS
 62
     5
 10
-285.0952157742849
 20
1639.7008899113771
 30
0.0
 11
-286.62607556591689
 21
1638.7215691891599
 31
0.0
  0
LINE
  5
D7F
  8
DETAIL
  6
CONTINUOUS
 62
     5
 10
-286.62607556591689
 20
1638.7215691891599
 30
0.0
 11
-287.95523346142681
 21
1637.4069474192329
 31
0.0
  0
LINE
  5
D80
  8
DETAIL
  6
CONTINUOUS
 62
     5
 10
-287.95523346142681
 20
1637.4069474192329
 30
0.0
 11
-289.02844239837879
 21
1635.810678399665
 31
0.0
  0
LINE
  5
D81
  8
DETAIL
  6
CONTINUOUS
 62
     5
 10
-283.18444253934962
 20
1640.509067671954
 30
0.0
 11
-284.92558658049711
 21
1640.3049404655339
 31
0.0
  0
LINE
  5
D82
  8
DETAIL
  6
CONTINUOUS
 62
     5
 10
-284.92558658049711
 20
1640.3049404655339
 30
0.0
 11
-286.595669125043
 21
1639.7008899113771
 31
0.0
  0
LINE
  5
D83
  8
DETAIL
  6
CONTINUOUS
 62
     5
 10
-286.595669125043
 20
1639.7008899113771
 30
0.0
 11
-288.12652891667261
 21
1638.7215691891599
 31
0.0
  0
LINE
  5
D84
  8
DETAIL
  6
CONTINUOUS
 62
     5
 10
-288.12652891667261
 20
1638.7215691891599
 30
0.0
 11
-289.45568681218492
 21
1637.4069474192329
 31
0.0
  0
LINE
  5
D85
  8
DETAIL
  6
CONTINUOUS
 62
     5
 10
-289.45568681218492
 20
1637.4069474192329
 30
0.0
 11
-290.52889574913701
 21
1635.810678399665
 31
0.0
  0
LINE
  5
D86
  8
DETAIL
  6
CONTINUOUS
 62
     5
 10
-275.77621238212532
 20
1640.509067671954
 30
0.0
 11
-277.48121304701402
 21
1640.3049404655339
 31
0.0
  0
LINE
  5
D87
  8
DETAIL
  6
CONTINUOUS
 62
     5
 10
-277.48121304701402
 20
1640.3049404655339
 30
0.0
 11
-279.11662733861289
 21
1639.7008899113771
 31
0.0
  0
LINE
  5
D88
  8
DETAIL
  6
CONTINUOUS
 62
     5
 10
-279.11662733861289
 20
1639.7008899113771
 30
0.0
 11
-280.61570891999281
 21
1638.7215691891599
 31
0.0
  0
LINE
  5
D89
  8
DETAIL
  6
CONTINUOUS
 62
     5
 10
-280.61570891999281
 20
1638.7215691891599
 30
0.0
 11
-281.91727561523788
 21
1637.4069474192329
 31
0.0
  0
LINE
  5
D8A
  8
DETAIL
  6
CONTINUOUS
 62
     5
 10
-281.91727561523788
 20
1637.4069474192329
 30
0.0
 11
-282.9682064445218
 21
1635.810678399665
 31
0.0
  0
LINE
  5
D8B
  8
DETAIL
  6
CONTINUOUS
 62
     5
 10
-277.36645065341781
 20
1640.509067671954
 30
0.0
 11
-279.07145131832289
 21
1640.3049404655339
 31
0.0
  0
LINE
  5
D8C
  8
DETAIL
  6
CONTINUOUS
 62
     5
 10
-279.07145131832289
 20
1640.3049404655339
 30
0.0
 11
-280.7068656099072
 21
1639.7008899113771
 31
0.0
  0
LINE
  5
D8D
  8
DETAIL
  6
CONTINUOUS
 62
     5
 10
-280.7068656099072
 20
1639.7008899113771
 30
0.0
 11
-282.20594719128712
 21
1638.7215691891599
 31
0.0
  0
LINE
  5
D8E
  8
DETAIL
  6
CONTINUOUS
 62
     5
 10
-282.20594719128712
 20
1638.7215691891599
 30
0.0
 11
-283.50751388653202
 21
1637.4069474192329
 31
0.0
  0
LINE
  5
D8F
  8
DETAIL
  6
CONTINUOUS
 62
     5
 10
-283.50751388653202
 20
1637.4069474192329
 30
0.0
 11
-284.55844471581571
 21
1635.810678399665
 31
0.0
  0
LINE
  5
D90
  8
DETAIL
  6
CONTINUOUS
 62
     5
 10
-269.53244474093799
 20
1640.509067671954
 30
0.0
 11
-271.19922474884692
 21
1640.3049404655339
 31
0.0
  0
LINE
  5
D91
  8
DETAIL
  6
CONTINUOUS
 62
     5
 10
-271.19922474884692
 20
1640.3049404655339
 30
0.0
 11
-272.7979782872639
 21
1639.7008899113771
 31
0.0
  0
LINE
  5
D92
  8
DETAIL
  6
CONTINUOUS
 62
     5
 10
-272.7979782872639
 20
1639.7008899113771
 30
0.0
 11
-274.2634552582781
 21
1638.7215691891599
 31
0.0
  0
LINE
  5
D93
  8
DETAIL
  6
CONTINUOUS
 62
     5
 10
-274.2634552582781
 20
1638.7215691891599
 30
0.0
 11
-275.53584499471611
 21
1637.4069474192329
 31
0.0
  0
LINE
  5
D94
  8
DETAIL
  6
CONTINUOUS
 62
     5
 10
-275.53584499471611
 20
1637.4069474192329
 30
0.0
 11
-276.563217318981
 21
1635.810678399665
 31
0.0
  0
LINE
  5
D95
  8
DETAIL
  6
CONTINUOUS
 62
     5
 10
-271.210530472394
 20
1640.509067671954
 30
0.0
 11
-272.87731048030213
 21
1640.3049404655339
 31
0.0
  0
LINE
  5
D96
  8
DETAIL
  6
CONTINUOUS
 62
     5
 10
-272.87731048030213
 20
1640.3049404655339
 30
0.0
 11
-274.47606401872002
 21
1639.7008899113771
 31
0.0
  0
LINE
  5
D97
  8
DETAIL
  6
CONTINUOUS
 62
     5
 10
-274.47606401872002
 20
1639.7008899113771
 30
0.0
 11
-275.9415409897187
 21
1638.7215691891599
 31
0.0
  0
LINE
  5
D98
  8
DETAIL
  6
CONTINUOUS
 62
     5
 10
-275.9415409897187
 20
1638.7215691891599
 30
0.0
 11
-277.21393072617087
 21
1637.4069474192329
 31
0.0
  0
LINE
  5
D99
  8
DETAIL
  6
CONTINUOUS
 62
     5
 10
-277.21393072617087
 20
1637.4069474192329
 30
0.0
 11
-278.24130305042081
 21
1635.810678399665
 31
0.0
  0
LINE
  5
D9A
  8
DETAIL
  6
CONTINUOUS
 62
     5
 10
-262.96029333406523
 20
1640.509067671954
 30
0.0
 11
-264.58682197031061
 21
1640.3049404655339
 31
0.0
  0
LINE
  5
D9B
  8
DETAIL
  6
CONTINUOUS
 62
     5
 10
-264.72418203673982
 20
1640.509067671954
 30
0.0
 11
-266.35071067298628
 21
1640.3049404655339
 31
0.0
  0
LINE
  5
D9C
  8
DETAIL
  6
CONTINUOUS
 62
     5
 10
-266.35071067298628
 20
1640.3049404655339
 30
0.0
 11
-267.91085562332182
 21
1639.7008899113771
 31
0.0
  0
LINE
  5
D9D
  8
DETAIL
  6
CONTINUOUS
 62
     5
 10
-267.91085562332182
 20
1639.7008899113771
 30
0.0
 11
-269.34094252607792
 21
1638.7215691891599
 31
0.0
  0
LINE
  5
D9E
  8
DETAIL
  6
CONTINUOUS
 62
     5
 10
-269.34094252607792
 20
1638.7215691891599
 30
0.0
 11
-270.58260509273208
 21
1637.4069474192329
 31
0.0
  0
LINE
  5
D9F
  8
DETAIL
  6
CONTINUOUS
 62
     5
 10
-270.58260509273208
 20
1637.4069474192329
 30
0.0
 11
-271.58516721708293
 21
1635.810678399665
 31
0.0
  0
LINE
  5
DA0
  8
DETAIL
  6
CONTINUOUS
 62
     5
 10
-256.06776531578129
 20
1640.509067671954
 30
0.0
 11
-257.65206090573702
 21
1640.3049404655339
 31
0.0
  0
LINE
  5
DA1
  8
DETAIL
  6
CONTINUOUS
 62
     5
 10
-257.65206090573702
 20
1640.3049404655339
 30
0.0
 11
-259.17169647155828
 21
1639.7008899113771
 31
0.0
  0
LINE
  5
DA2
  8
DETAIL
  6
CONTINUOUS
 62
     5
 10
-259.17169647155828
 20
1639.7008899113771
 30
0.0
 11
-260.56465096554302
 21
1638.7215691891599
 31
0.0
  0
LINE
  5
DA3
  8
DETAIL
  6
CONTINUOUS
 62
     5
 10
-260.56465096554302
 20
1638.7215691891599
 30
0.0
 11
-261.7740735879388
 21
1637.4069474192329
 31
0.0
  0
LINE
  5
DA4
  8
DETAIL
  6
CONTINUOUS
 62
     5
 10
-261.7740735879388
 20
1637.4069474192329
 30
0.0
 11
-262.75060404480189
 21
1635.810678399665
 31
0.0
  0
LINE
  5
DA5
  8
DETAIL
  6
CONTINUOUS
 62
     5
 10
-257.91530796297911
 20
1640.509067671954
 30
0.0
 11
-259.49960355293518
 21
1640.3049404655339
 31
0.0
  0
LINE
  5
DA6
  8
DETAIL
  6
CONTINUOUS
 62
     5
 10
-259.49960355293518
 20
1640.3049404655339
 30
0.0
 11
-261.01923911875519
 21
1639.7008899113771
 31
0.0
  0
LINE
  5
DA7
  8
DETAIL
  6
CONTINUOUS
 62
     5
 10
-261.01923911875519
 20
1639.7008899113771
 30
0.0
 11
-262.41219361272391
 21
1638.7215691891599
 31
0.0
  0
LINE
  5
DA8
  8
DETAIL
  6
CONTINUOUS
 62
     5
 10
-262.41219361272391
 20
1638.7215691891599
 30
0.0
 11
-263.62161623512111
 21
1637.4069474192329
 31
0.0
  0
LINE
  5
DA9
  8
DETAIL
  6
CONTINUOUS
 62
     5
 10
-263.62161623512111
 20
1637.4069474192329
 30
0.0
 11
-264.5981466919979
 21
1635.810678399665
 31
0.0
  0
LINE
  5
DAA
  8
DETAIL
  6
CONTINUOUS
 62
     5
 10
-248.86325816965291
 20
1640.509067671954
 30
0.0
 11
-250.4033904932071
 21
1640.3049404655339
 31
0.0
  0
LINE
  5
DAB
  8
DETAIL
  6
CONTINUOUS
 62
     5
 10
-250.4033904932071
 20
1640.3049404655339
 30
0.0
 11
-251.88066523271789
 21
1639.7008899113771
 31
0.0
  0
LINE
  5
DAC
  8
DETAIL
  6
CONTINUOUS
 62
     5
 10
-251.88066523271789
 20
1639.7008899113771
 30
0.0
 11
-253.23479021734781
 21
1638.7215691891599
 31
0.0
  0
LINE
  5
DAD
  8
DETAIL
  6
CONTINUOUS
 62
     5
 10
-253.23479021734781
 20
1638.7215691891599
 30
0.0
 11
-254.4104994002841
 21
1637.4069474192329
 31
0.0
  0
LINE
  5
DAE
  8
DETAIL
  6
CONTINUOUS
 62
     5
 10
-254.4104994002841
 20
1637.4069474192329
 30
0.0
 11
-255.35980843780581
 21
1635.810678399665
 31
0.0
  0
LINE
  5
DAF
  8
DETAIL
  6
CONTINUOUS
 62
     5
 10
-250.7922038152328
 20
1640.509067671954
 30
0.0
 11
-252.3323361388039
 21
1640.3049404655339
 31
0.0
  0
LINE
  5
DB0
  8
DETAIL
  6
CONTINUOUS
 62
     5
 10
-252.3323361388039
 20
1640.3049404655339
 30
0.0
 11
-253.8096108783152
 21
1639.7008899113771
 31
0.0
  0
LINE
  5
DB1
  8
DETAIL
  6
CONTINUOUS
 62
     5
 10
-253.8096108783152
 20
1639.7008899113771
 30
0.0
 11
-255.163735862945
 21
1638.7215691891599
 31
0.0
  0
LINE
  5
DB2
  8
DETAIL
  6
CONTINUOUS
 62
     5
 10
-255.163735862945
 20
1638.7215691891599
 30
0.0
 11
-256.33944504588169
 21
1637.4069474192329
 31
0.0
  0
LINE
  5
DB3
  8
DETAIL
  6
CONTINUOUS
 62
     5
 10
-256.33944504588169
 20
1637.4069474192329
 30
0.0
 11
-257.28875408329623
 21
1635.810678399665
 31
0.0
  0
LINE
  5
DB4
  8
DETAIL
  6
CONTINUOUS
 62
     5
 10
-248.74496372885909
 20
1637.4069474192329
 30
0.0
 11
-249.665894760079
 21
1635.810678399665
 31
0.0
  0
LINE
  5
DB5
  8
DETAIL
  6
CONTINUOUS
 62
     5
 10
-264.58682197031061
 20
1640.3049404655339
 30
0.0
 11
-266.14696692064672
 21
1639.7008899113771
 31
0.0
  0
LINE
  5
DB6
  8
DETAIL
  6
CONTINUOUS
 62
     5
 10
-266.14696692064672
 20
1639.7008899113771
 30
0.0
 11
-267.57705382340282
 21
1638.7215691891599
 31
0.0
  0
LINE
  5
DB7
  8
DETAIL
  6
CONTINUOUS
 62
     5
 10
-267.57705382340282
 20
1638.7215691891599
 30
0.0
 11
-268.81871639005698
 21
1637.4069474192329
 31
0.0
  0
LINE
  5
DB8
  8
DETAIL
  6
CONTINUOUS
 62
     5
 10
-268.81871639005698
 20
1637.4069474192329
 30
0.0
 11
-269.82127851440691
 21
1635.810678399665
 31
0.0
  0
LINE
  5
DB9
  8
DETAIL
  6
CONTINUOUS
 62
     5
 10
-320.0967148280738
 20
1641.609399999121
 30
0.0
 11
-320.0967148280738
 21
1640.509067671954
 31
0.0
  0
LINE
  5
DBC
  8
DETAIL
  6
CONTINUOUS
 62
     5
 10
-334.35138622339389
 20
1635.810678399665
 30
0.0
 11
-340.05335157497387
 21
1625.9949815576169
 31
0.0
  0
LINE
  5
DBD
  8
DETAIL
  6
CONTINUOUS
 62
     5
 10
-334.45611635692688
 20
1635.810678399665
 30
0.0
 11
-340.15808170848999
 21
1625.9949815576169
 31
0.0
  0
LINE
  5
DBE
  8
DETAIL
  6
CONTINUOUS
 62
     5
 10
-333.68783159532308
 20
1635.810678399665
 30
0.0
 11
-339.37937437990507
 21
1625.9949815576169
 31
0.0
  0
LINE
  5
DBF
  8
DETAIL
  6
CONTINUOUS
 62
     5
 10
-333.89716426482647
 20
1635.810678399665
 30
0.0
 11
-339.5887070494968
 21
1625.9949815576169
 31
0.0
  0
LINE
  5
DC0
  8
DETAIL
  6
CONTINUOUS
 62
     5
 10
-332.61772974505402
 20
1635.810678399665
 30
0.0
 11
-338.29191569459181
 21
1625.9949815576169
 31
0.0
  0
LINE
  5
DC1
  8
DETAIL
  6
CONTINUOUS
 62
     5
 10
-332.93140991096692
 20
1635.810678399665
 30
0.0
 11
-338.6055958605038
 21
1625.9949815576169
 31
0.0
  0
LINE
  5
DC2
  8
DETAIL
  6
CONTINUOUS
 62
     5
 10
-331.1423844270102
 20
1635.810678399665
 30
0.0
 11
-336.79230041985772
 21
1625.9949815576169
 31
0.0
  0
LINE
  5
DC3
  8
DETAIL
  6
CONTINUOUS
 62
     5
 10
-331.56002991827108
 20
1635.810678399665
 30
0.0
 11
-337.20994591121001
 21
1625.9949815576169
 31
0.0
  0
LINE
  5
DC4
  8
DETAIL
  6
CONTINUOUS
 62
     5
 10
-329.26359312206768
 20
1635.810678399665
 30
0.0
 11
-334.8823556059246
 21
1625.9949815576169
 31
0.0
  0
LINE
  5
DC5
  8
DETAIL
  6
CONTINUOUS
 62
     5
 10
-329.78469510214012
 20
1635.810678399665
 30
0.0
 11
-335.40345758597999
 21
1625.9949815576169
 31
0.0
  0
LINE
  5
DC6
  8
DETAIL
  6
CONTINUOUS
 62
     5
 10
-326.98364484805597
 20
1635.810678399665
 30
0.0
 11
-332.56440822646391
 21
1625.9949815576169
 31
0.0
  0
LINE
  5
DC7
  8
DETAIL
  6
CONTINUOUS
 62
     5
 10
-327.6075684342959
 20
1635.810678399665
 30
0.0
 11
-333.18833181270372
 21
1625.9949815576169
 31
0.0
  0
LINE
  5
DC8
  8
DETAIL
  6
CONTINUOUS
 62
     5
 10
-324.30531737074517
 20
1635.810678399665
 30
0.0
 11
-329.8412823430408
 21
1625.9949815576169
 31
0.0
  0
LINE
  5
DC9
  8
DETAIL
  6
CONTINUOUS
 62
     5
 10
-325.03130240849669
 20
1635.810678399665
 30
0.0
 11
-330.567267380793
 21
1625.9949815576169
 31
0.0
  0
LINE
  5
DCC
  8
DETAIL
  6
CONTINUOUS
 62
     5
 10
-319.31224677922421
 20
1640.509067671954
 30
0.0
 11
-320.91178908595788
 21
1640.509067671954
 31
0.0
  0
LINE
  5
DCD
  8
DETAIL
  6
CONTINUOUS
 62
     5
 10
-321.4328910660297
 20
1640.509067671954
 30
0.0
 11
-322.74427339658718
 21
1640.509067671954
 31
0.0
  0
LINE
  5
DCE
  8
DETAIL
  6
CONTINUOUS
 62
     5
 10
-323.16191888795402
 20
1640.509067671954
 30
0.0
 11
-324.1835435250868
 21
1640.509067671954
 31
0.0
  0
LINE
  5
DCF
  8
DETAIL
  6
CONTINUOUS
 62
     5
 10
-324.49722369099982
 20
1640.509067671954
 30
0.0
 11
-325.22784594244507
 21
1640.509067671954
 31
0.0
  0
LINE
  5
DD0
  8
DETAIL
  6
CONTINUOUS
 62
     5
 10
-325.43717861205317
 20
1640.509067671954
 30
0.0
 11
-325.87590832704922
 21
1640.509067671954
 31
0.0
  0
LINE
  5
DD1
  8
DETAIL
  6
CONTINUOUS
 62
     5
 10
-325.87590832704922
 20
1640.509067671954
 30
0.0
 11
-327.88518354663478
 21
1640.3049404655339
 31
0.0
  0
LINE
  5
DD2
  8
DETAIL
  6
CONTINUOUS
 62
     5
 10
-327.88518354663478
 20
1640.3049404655339
 30
0.0
 11
-329.81245400317488
 21
1639.7008899113771
 31
0.0
  0
LINE
  5
DD3
  8
DETAIL
  6
CONTINUOUS
 62
     5
 10
-329.81245400317488
 20
1639.7008899113771
 30
0.0
 11
-331.57906180311511
 21
1638.7215691891599
 31
0.0
  0
LINE
  5
DD4
  8
DETAIL
  6
CONTINUOUS
 62
     5
 10
-331.57906180311511
 20
1638.7215691891599
 30
0.0
 11
-333.11290619452478
 21
1637.4069474192329
 31
0.0
  0
LINE
  5
DD5
  8
DETAIL
  6
CONTINUOUS
 62
     5
 10
-333.11290619452478
 20
1637.4069474192329
 30
0.0
 11
-334.35138622339389
 21
1635.810678399665
 31
0.0
  0
LINE
  5
DD6
  8
DETAIL
  6
CONTINUOUS
 62
     5
 10
-325.98063846067311
 20
1640.509067671954
 30
0.0
 11
-327.98991368015407
 21
1640.3049404655339
 31
0.0
  0
LINE
  5
DD7
  8
DETAIL
  6
CONTINUOUS
 62
     5
 10
-327.98991368015407
 20
1640.3049404655339
 30
0.0
 11
-329.91718413670918
 21
1639.7008899113771
 31
0.0
  0
LINE
  5
DD8
  8
DETAIL
  6
CONTINUOUS
 62
     5
 10
-329.91718413670918
 20
1639.7008899113771
 30
0.0
 11
-331.68379193663287
 21
1638.7215691891599
 31
0.0
  0
LINE
  5
DD9
  8
DETAIL
  6
CONTINUOUS
 62
     5
 10
-331.68379193663287
 20
1638.7215691891599
 30
0.0
 11
-333.21763632804323
 21
1637.4069474192329
 31
0.0
  0
LINE
  5
DDA
  8
DETAIL
  6
CONTINUOUS
 62
     5
 10
-333.21763632804323
 20
1637.4069474192329
 30
0.0
 11
-334.45611635692688
 21
1635.810678399665
 31
0.0
  0
LINE
  5
DDB
  8
DETAIL
  6
CONTINUOUS
 62
     5
 10
-325.22784594244507
 20
1640.509067671954
 30
0.0
 11
-327.23344842743199
 21
1640.3049404655339
 31
0.0
  0
LINE
  5
DDC
  8
DETAIL
  6
CONTINUOUS
 62
     5
 10
-327.23344842743199
 20
1640.3049404655339
 30
0.0
 11
-329.15719604508507
 21
1639.7008899113771
 31
0.0
  0
LINE
  5
DDD
  8
DETAIL
  6
CONTINUOUS
 62
     5
 10
-329.15719604508507
 20
1639.7008899113771
 30
0.0
 11
-330.92057467975792
 21
1638.7215691891599
 31
0.0
  0
LINE
  5
DDE
  8
DETAIL
  6
CONTINUOUS
 62
     5
 10
-330.92057467975792
 20
1638.7215691891599
 30
0.0
 11
-332.45161537194281
 21
1637.4069474192329
 31
0.0
  0
LINE
  5
DDF
  8
DETAIL
  6
CONTINUOUS
 62
     5
 10
-332.45161537194281
 20
1637.4069474192329
 30
0.0
 11
-333.68783159532308
 21
1635.810678399665
 31
0.0
  0
LINE
  5
DE0
  8
DETAIL
  6
CONTINUOUS
 62
     5
 10
-325.43717861205317
 20
1640.509067671954
 30
0.0
 11
-327.44278109693499
 21
1640.3049404655339
 31
0.0
  0
LINE
  5
DE1
  8
DETAIL
  6
CONTINUOUS
 62
     5
 10
-327.44278109693499
 20
1640.3049404655339
 30
0.0
 11
-329.36652871458682
 21
1639.7008899113771
 31
0.0
  0
LINE
  5
DE2
  8
DETAIL
  6
CONTINUOUS
 62
     5
 10
-329.36652871458682
 20
1639.7008899113771
 30
0.0
 11
-331.12990734934971
 21
1638.7215691891599
 31
0.0
  0
LINE
  5
DE3
  8
DETAIL
  6
CONTINUOUS
 62
     5
 10
-331.12990734934971
 20
1638.7215691891599
 30
0.0
 11
-332.6609480415371
 21
1637.4069474192329
 31
0.0
  0
LINE
  5
DE4
  8
DETAIL
  6
CONTINUOUS
 62
     5
 10
-332.6609480415371
 20
1637.4069474192329
 30
0.0
 11
-333.89716426482647
 21
1635.810678399665
 31
0.0
  0
LINE
  5
DE5
  8
DETAIL
  6
CONTINUOUS
 62
     5
 10
-324.1835435250868
 20
1640.509067671954
 30
0.0
 11
-326.18302975769387
 21
1640.3049404655339
 31
0.0
  0
LINE
  5
DE6
  8
DETAIL
  6
CONTINUOUS
 62
     5
 10
-326.18302975769387
 20
1640.3049404655339
 30
0.0
 11
-328.10091074639598
 21
1639.7008899113771
 31
0.0
  0
LINE
  5
DE7
  8
DETAIL
  6
CONTINUOUS
 62
     5
 10
-328.10091074639598
 20
1639.7008899113771
 30
0.0
 11
-329.85891181065699
 21
1638.7215691891599
 31
0.0
  0
LINE
  5
DE8
  8
DETAIL
  6
CONTINUOUS
 62
     5
 10
-329.85891181065699
 20
1638.7215691891599
 30
0.0
 11
-331.38528346633677
 21
1637.4069474192329
 31
0.0
  0
LINE
  5
DE9
  8
DETAIL
  6
CONTINUOUS
 62
     5
 10
-331.38528346633677
 20
1637.4069474192329
 30
0.0
 11
-332.61772974505402
 21
1635.810678399665
 31
0.0
  0
LINE
  5
DEA
  8
DETAIL
  6
CONTINUOUS
 62
     5
 10
-324.49722369099982
 20
1640.509067671954
 30
0.0
 11
-326.4967099236091
 21
1640.3049404655339
 31
0.0
  0
LINE
  5
DEB
  8
DETAIL
  6
CONTINUOUS
 62
     5
 10
-326.4967099236091
 20
1640.3049404655339
 30
0.0
 11
-328.414590912309
 21
1639.7008899113771
 31
0.0
  0
LINE
  5
DEC
  8
DETAIL
  6
CONTINUOUS
 62
     5
 10
-328.414590912309
 20
1639.7008899113771
 30
0.0
 11
-330.17259197657171
 21
1638.7215691891599
 31
0.0
  0
LINE
  5
DED
  8
DETAIL
  6
CONTINUOUS
 62
     5
 10
-330.17259197657171
 20
1638.7215691891599
 30
0.0
 11
-331.6989636322499
 21
1637.4069474192329
 31
0.0
  0
LINE
  5
DEE
  8
DETAIL
  6
CONTINUOUS
 62
     5
 10
-331.6989636322499
 20
1637.4069474192329
 30
0.0
 11
-332.93140991096692
 21
1635.810678399665
 31
0.0
  0
LINE
  5
DEF
  8
DETAIL
  6
CONTINUOUS
 62
     5
 10
-322.74427339658718
 20
1640.509067671954
 30
0.0
 11
-324.73520731097602
 21
1640.3049404655339
 31
0.0
  0
LINE
  5
DF0
  8
DETAIL
  6
CONTINUOUS
 62
     5
 10
-324.73520731097602
 20
1640.3049404655339
 30
0.0
 11
-326.64488502800799
 21
1639.7008899113771
 31
0.0
  0
LINE
  5
DF1
  8
DETAIL
  6
CONTINUOUS
 62
     5
 10
-326.64488502800799
 20
1639.7008899113771
 30
0.0
 11
-328.39536666834772
 21
1638.7215691891599
 31
0.0
  0
LINE
  5
DF2
  8
DETAIL
  6
CONTINUOUS
 62
     5
 10
-328.39536666834772
 20
1638.7215691891599
 30
0.0
 11
-329.91520963882772
 21
1637.4069474192329
 31
0.0
  0
LINE
  5
DF3
  8
DETAIL
  6
CONTINUOUS
 62
     5
 10
-329.91520963882772
 20
1637.4069474192329
 30
0.0
 11
-331.1423844270102
 21
1635.810678399665
 31
0.0
  0
LINE
  5
DF4
  8
DETAIL
  6
CONTINUOUS
 62
     5
 10
-323.16191888795402
 20
1640.509067671954
 30
0.0
 11
-325.15285280232808
 21
1640.3049404655339
 31
0.0
  0
LINE
  5
DF5
  8
DETAIL
  6
CONTINUOUS
 62
     5
 10
-325.15285280232808
 20
1640.3049404655339
 30
0.0
 11
-327.06253051937477
 21
1639.7008899113771
 31
0.0
  0
LINE
  5
DF6
  8
DETAIL
  6
CONTINUOUS
 62
     5
 10
-327.06253051937477
 20
1639.7008899113771
 30
0.0
 11
-328.81301215969819
 21
1638.7215691891599
 31
0.0
  0
LINE
  5
DF7
  8
DETAIL
  6
CONTINUOUS
 62
     5
 10
-328.81301215969819
 20
1638.7215691891599
 30
0.0
 11
-330.33285513017972
 21
1637.4069474192329
 31
0.0
  0
LINE
  5
DF8
  8
DETAIL
  6
CONTINUOUS
 62
     5
 10
-330.33285513017972
 20
1637.4069474192329
 30
0.0
 11
-331.56002991827108
 21
1635.810678399665
 31
0.0
  0
LINE
  5
DF9
  8
DETAIL
  6
CONTINUOUS
 62
     5
 10
-320.91178908595788
 20
1640.509067671954
 30
0.0
 11
-322.89174503574372
 21
1640.3049404655339
 31
0.0
  0
LINE
  5
DFA
  8
DETAIL
  6
CONTINUOUS
 62
     5
 10
-322.89174503574372
 20
1640.3049404655339
 30
0.0
 11
-324.79089283304069
 21
1639.7008899113771
 31
0.0
  0
LINE
  5
DFB
  8
DETAIL
  6
CONTINUOUS
 62
     5
 10
-324.79089283304069
 20
1639.7008899113771
 30
0.0
 11
-326.53172235715601
 21
1638.7215691891599
 31
0.0
  0
LINE
  5
DFC
  8
DETAIL
  6
CONTINUOUS
 62
     5
 10
-326.53172235715601
 20
1638.7215691891599
 30
0.0
 11
-328.04318494797002
 21
1637.4069474192329
 31
0.0
  0
LINE
  5
DFD
  8
DETAIL
  6
CONTINUOUS
 62
     5
 10
-328.04318494797002
 20
1637.4069474192329
 30
0.0
 11
-329.26359312206768
 21
1635.810678399665
 31
0.0
  0
LINE
  5
DFE
  8
DETAIL
  6
CONTINUOUS
 62
     5
 10
-321.4328910660297
 20
1640.509067671954
 30
0.0
 11
-323.41284701579917
 21
1640.3049404655339
 31
0.0
  0
LINE
  5
DFF
  8
DETAIL
  6
CONTINUOUS
 62
     5
 10
-323.41284701579917
 20
1640.3049404655339
 30
0.0
 11
-325.31199481309881
 21
1639.7008899113771
 31
0.0
  0
LINE
  5
E00
  8
DETAIL
  6
CONTINUOUS
 62
     5
 10
-325.31199481309881
 20
1639.7008899113771
 30
0.0
 11
-327.05282433722772
 21
1638.7215691891599
 31
0.0
  0
LINE
  5
E01
  8
DETAIL
  6
CONTINUOUS
 62
     5
 10
-327.05282433722772
 20
1638.7215691891599
 30
0.0
 11
-328.56428692804002
 21
1637.4069474192329
 31
0.0
  0
LINE
  5
E02
  8
DETAIL
  6
CONTINUOUS
 62
     5
 10
-328.56428692804002
 20
1637.4069474192329
 30
0.0
 11
-329.78469510214012
 21
1635.810678399665
 31
0.0
  0
LINE
  5
E03
  8
DETAIL
  6
CONTINUOUS
 62
     5
 10
-318.68832319287912
 20
1640.509067671954
 30
0.0
 11
-320.65488890678893
 21
1640.3049404655339
 31
0.0
  0
LINE
  5
E04
  8
DETAIL
  6
CONTINUOUS
 62
     5
 10
-320.65488890678893
 20
1640.3049404655339
 30
0.0
 11
-322.54119296534492
 21
1639.7008899113771
 31
0.0
  0
LINE
  5
E05
  8
DETAIL
  6
CONTINUOUS
 62
     5
 10
-322.54119296534492
 20
1639.7008899113771
 30
0.0
 11
-324.2702494406289
 21
1638.7215691891599
 31
0.0
  0
LINE
  5
E06
  8
DETAIL
  6
CONTINUOUS
 62
     5
 10
-324.2702494406289
 20
1638.7215691891599
 30
0.0
 11
-325.77149016728788
 21
1637.4069474192329
 31
0.0
  0
LINE
  5
E07
  8
DETAIL
  6
CONTINUOUS
 62
     5
 10
-325.77149016728788
 20
1637.4069474192329
 30
0.0
 11
-326.98364484805597
 21
1635.810678399665
 31
0.0
  0
LINE
  5
E08
  8
DETAIL
  6
CONTINUOUS
 62
     5
 10
-319.31224677922421
 20
1640.509067671954
 30
0.0
 11
-321.27881249304392
 21
1640.3049404655339
 31
0.0
  0
LINE
  5
E09
  8
DETAIL
  6
CONTINUOUS
 62
     5
 10
-321.27881249304392
 20
1640.3049404655339
 30
0.0
 11
-323.16511655159911
 21
1639.7008899113771
 31
0.0
  0
LINE
  5
E0A
  8
DETAIL
  6
CONTINUOUS
 62
     5
 10
-323.16511655159911
 20
1639.7008899113771
 30
0.0
 11
-324.89417302697569
 21
1638.7215691891599
 31
0.0
  0
LINE
  5
E0B
  8
DETAIL
  6
CONTINUOUS
 62
     5
 10
-324.89417302697569
 20
1638.7215691891599
 30
0.0
 11
-326.39541375363291
 21
1637.4069474192329
 31
0.0
  0
LINE
  5
E0C
  8
DETAIL
  6
CONTINUOUS
 62
     5
 10
-326.39541375363291
 20
1637.4069474192329
 30
0.0
 11
-327.6075684342959
 21
1635.810678399665
 31
0.0
  0
LINE
  5
E0D
  8
DETAIL
  6
CONTINUOUS
 62
     5
 10
-316.07658466822608
 20
1640.509067671954
 30
0.0
 11
-318.02736418875202
 21
1640.3049404655339
 31
0.0
  0
LINE
  5
E0E
  8
DETAIL
  6
CONTINUOUS
 62
     5
 10
-318.02736418875202
 20
1640.3049404655339
 30
0.0
 11
-319.89852633760711
 21
1639.7008899113771
 31
0.0
  0
LINE
  5
E0F
  8
DETAIL
  6
CONTINUOUS
 62
     5
 10
-319.89852633760711
 20
1639.7008899113771
 30
0.0
 11
-321.61370317525189
 21
1638.7215691891599
 31
0.0
  0
LINE
  5
E10
  8
DETAIL
  6
CONTINUOUS
 62
     5
 10
-321.61370317525189
 20
1638.7215691891599
 30
0.0
 11
-323.10289300721792
 21
1637.4069474192329
 31
0.0
  0
LINE
  5
E11
  8
DETAIL
  6
CONTINUOUS
 62
     5
 10
-323.10289300721792
 20
1637.4069474192329
 30
0.0
 11
-324.30531737074517
 21
1635.810678399665
 31
0.0
  0
LINE
  5
E12
  8
DETAIL
  6
CONTINUOUS
 62
     5
 10
-316.80256970596372
 20
1640.509067671954
 30
0.0
 11
-318.75334922650518
 21
1640.3049404655339
 31
0.0
  0
LINE
  5
E13
  8
DETAIL
  6
CONTINUOUS
 62
     5
 10
-318.75334922650518
 20
1640.3049404655339
 30
0.0
 11
-320.62451137534708
 21
1639.7008899113771
 31
0.0
  0
LINE
  5
E14
  8
DETAIL
  6
CONTINUOUS
 62
     5
 10
-320.62451137534708
 20
1639.7008899113771
 30
0.0
 11
-322.33968821300323
 21
1638.7215691891599
 31
0.0
  0
LINE
  5
E15
  8
DETAIL
  6
CONTINUOUS
 62
     5
 10
-322.33968821300323
 20
1638.7215691891599
 30
0.0
 11
-323.8288780449729
 21
1637.4069474192329
 31
0.0
  0
LINE
  5
E16
  8
DETAIL
  6
CONTINUOUS
 62
     5
 10
-323.8288780449729
 20
1637.4069474192329
 30
0.0
 11
-325.03130240849669
 21
1635.810678399665
 31
0.0
  0
LINE
  5
E17
  8
DETAIL
  6
CONTINUOUS
 62
     5
 10
-316.86611263218811
 20
1639.7008899113771
 30
0.0
 11
-318.56532015332368
 21
1638.7215691891599
 31
0.0
  0
LINE
  5
E18
  8
DETAIL
  6
CONTINUOUS
 62
     5
 10
-318.56532015332368
 20
1638.7215691891599
 30
0.0
 11
-320.04064474211492
 21
1637.4069474192329
 31
0.0
  0
LINE
  5
E19
  8
DETAIL
  6
CONTINUOUS
 62
     5
 10
-320.04064474211492
 20
1637.4069474192329
 30
0.0
 11
-321.23187381966147
 21
1635.810678399665
 31
0.0
  0
LINE
  5
E1A
  8
DETAIL
  6
CONTINUOUS
 62
     5
 10
-317.69327462049608
 20
1639.7008899113771
 30
0.0
 11
-319.39248214154031
 21
1638.7215691891599
 31
0.0
  0
LINE
  5
E1B
  8
DETAIL
  6
CONTINUOUS
 62
     5
 10
-319.39248214154031
 20
1638.7215691891599
 30
0.0
 11
-320.86780673042398
 21
1637.4069474192329
 31
0.0
  0
LINE
  5
E1C
  8
DETAIL
  6
CONTINUOUS
 62
     5
 10
-320.86780673042398
 20
1637.4069474192329
 30
0.0
 11
-322.05903580796968
 21
1635.810678399665
 31
0.0
  0
LINE
  5
E1D
  8
DETAIL
  6
CONTINUOUS
 62
     5
 10
-316.58847624993399
 20
1637.4069474192329
 30
0.0
 11
-317.76705871240972
 21
1635.810678399665
 31
0.0
  0
LINE
  5
E1E
  8
DETAIL
  6
CONTINUOUS
 62
     5
 10
-316.05614552929183
 20
1638.7215691891599
 30
0.0
 11
-317.5158074193082
 21
1637.4069474192329
 31
0.0
  0
LINE
  5
E1F
  8
DETAIL
  6
CONTINUOUS
 62
     5
 10
-317.5158074193082
 20
1637.4069474192329
 30
0.0
 11
-318.69438988167718
 21
1635.810678399665
 31
0.0
  0
ARC
  5
E20
  8
DETAIL
  6
CONTINUOUS
 62
     5
 10
-326.12694111472598
 20
1630.506045333583
 30
0.0
 40
10.00302233836606
 50
90.0
 51
147.9740682966804
  0
TEXT
  5
E21
  8
NOTE
  6
CONTINUOUS
 62
     4
 10
-77.519538296955943
 20
1717.36644270435
 30
0.0
 40
55.0
  1
空気吹出
 50
359.99999749547902
 41
0.630952371610266
  7
STANDARD1
  0
LINE
  5
E22
  8
NOTE
  6
CONTINUOUS
 62
     4
 10
-204.5879415044796
 20
1786.389174763086
 30
0.0
 11
-154.57282981264771
 21
1736.4780491351651
 31
0.0
  0
LINE
  5
E23
  8
NOTE
  6
CONTINUOUS
 62
     4
 10
-179.5803856585639
 20
1736.4780491351651
 30
0.0
 11
-154.57282981264771
 21
1736.4780491351651
 31
0.0
  0
LINE
  5
E24
  8
NOTE
  6
CONTINUOUS
 62
     4
 10
-254.60305319631101
 20
1736.4780491351651
 30
0.0
 11
-229.595497350394
 21
1736.4780491351651
 31
0.0
  0
LINE
  5
E25
  8
NOTE
  6
CONTINUOUS
 62
     4
 10
-254.60305319631101
 20
1736.4780491351651
 30
0.0
 11
-204.5879415044796
 21
1786.389174763086
 31
0.0
  0
LINE
  5
E26
  8
DETAIL
  6
CONTINUOUS
 62
     5
 10
379.99999999954338
 20
1369.913909239167
 30
0.0
 11
379.99999999954338
 21
1409.9999672647759
 31
0.0
  0
LINE
  5
E27
  8
DETAIL
  6
CONTINUOUS
 62
     5
 10
-380.000000000456
 20
1369.913909239167
 30
0.0
 11
-380.000000000456
 21
1409.9999672647759
 31
0.0
  0
LINE
  5
E28
  8
SIZE
  6
CONTINUOUS
 62
    30
 10
379.99999999954338
 20
1429.9999672647759
 30
0.0
 11
379.99999999954349
 21
1975.459591321807
 31
0.0
  0
LINE
  5
E29
  8
SIZE
  6
CONTINUOUS
 62
    30
 10
-380.000000000456
 20
1429.9999672647759
 30
0.0
 11
-380.000000000456
 21
1975.459591321807
 31
0.0
  0
LINE
  5
E2A
  8
SIZE
  6
CONTINUOUS
 62
    30
 10
369.99999999954338
 20
1945.459591321807
 30
0.0
 11
-370.000000000456
 21
1945.459591321807
 31
0.0
  0
CIRCLE
  5
E2B
  8
SIZE
  6
CONTINUOUS
 62
    30
 10
379.99999999954349
 20
1945.459591321807
 30
0.0
 40
5.0
  0
LINE
  5
E2C
  8
SIZE
  6
CONTINUOUS
 62
    30
 10
374.99999999954338
 20
1945.459591321807
 30
0.0
 11
369.99999999954338
 21
1945.459591321807
 31
0.0
  0
CIRCLE
  5
E2D
  8
SIZE
  6
CONTINUOUS
 62
    30
 10
-380.000000000456
 20
1945.459591321807
 30
0.0
 40
5.0
  0
LINE
  5
E2E
  8
SIZE
  6
CONTINUOUS
 62
    30
 10
-375.000000000456
 20
1945.459591321807
 30
0.0
 11
-370.000000000456
 21
1945.459591321807
 31
0.0
  0
TEXT
  5
E2F
  8
SIZE
  6
CONTINUOUS
 62
    30
 10
-63.642857143313407
 20
1960.459591321807
 30
0.0
 40
55.0
  1
760
 41
0.9
 72
     1
 11
-0.0000000004562821
 21
1960.459591321807
 31
0.0
  0
POINT
  5
E30
  8
DEFPOINTS
  6
CONTINUOUS
 62
     7
 10
379.99999999954338
 20
1409.9999672647759
 30
0.0
  0
POINT
  5
E31
  8
DEFPOINTS
  6
CONTINUOUS
 62
     7
 10
-380.000000000456
 20
1409.9999672647759
 30
0.0
  0
POINT
  5
E32
  8
DEFPOINTS
  6
CONTINUOUS
 62
     7
 10
-380.000000000456
 20
1945.459591321807
 30
0.0
  0
LINE
  5
E33
  8
SIZE
  6
CONTINUOUS
 62
    30
 10
399.99999999954338
 20
-0.0000000000875374
 30
0.0
 11
710.00887976408626
 21
-0.0000000000876252
 31
0.0
  0
LINE
  5
E34
  8
SIZE
  6
CONTINUOUS
 62
    30
 10
399.99999999954338
 20
1409.9999672647759
 30
0.0
 11
710.00887976408694
 21
1409.9999672647759
 31
0.0
  0
LINE
  5
E35
  8
SIZE
  6
CONTINUOUS
 62
    30
 10
680.00887976408649
 20
9.9999999999123812
 30
0.0
 11
680.00887976408671
 21
1399.9999672647759
 31
0.0
  0
CIRCLE
  5
E36
  8
SIZE
  6
CONTINUOUS
 62
    30
 10
680.00887976408649
 20
-0.0000000000876167
 30
0.0
 40
5.0
  0
LINE
  5
E37
  8
SIZE
  6
CONTINUOUS
 62
    30
 10
680.00887976408649
 20
4.9999999999123821
 30
0.0
 11
680.00887976408649
 21
9.9999999999123812
 31
0.0
  0
CIRCLE
  5
E38
  8
SIZE
  6
CONTINUOUS
 62
    30
 10
680.00887976408671
 20
1409.9999672647759
 30
0.0
 40
5.0
  0
LINE
  5
E39
  8
SIZE
  6
CONTINUOUS
 62
    30
 10
680.00887976408671
 20
1404.9999672647759
 30
0.0
 11
680.00887976408671
 21
1399.9999672647759
 31
0.0
  0
TEXT
  5
E3A
  8
SIZE
  6
CONTINUOUS
 62
    30
 10
665.0088797640866
 20
627.21426934662998
 30
0.0
 40
55.0
  1
1410
 50
90.0
 41
0.9
 72
     1
 11
665.0088797640866
 21
704.99998363234431
 31
0.0
  0
POINT
  5
E3B
  8
DEFPOINTS
  6
CONTINUOUS
 62
     7
 10
379.99999999954338
 20
-0.0000000000875317
 30
0.0
  0
POINT
  5
E3C
  8
DEFPOINTS
  6
CONTINUOUS
 62
     7
 10
379.99999999954338
 20
1409.9999672647759
 30
0.0
  0
POINT
  5
E3D
  8
DEFPOINTS
  6
CONTINUOUS
 62
     7
 10
680.00887976408671
 20
1409.9999672647759
 30
0.0
  0
LINE
  5
E3E
  8
SIZE
  6
CONTINUOUS
 62
    30
 10
399.99999999954338
 20
1409.9999672647759
 30
0.0
 11
710.00887976408694
 21
1409.9999672647759
 31
0.0
  0
LINE
  5
E3F
  8
SIZE
  6
CONTINUOUS
 62
    30
 10
100.0241787065756
 20
1649.9999672647771
 30
0.0
 11
710.00887976408694
 21
1649.9999672647759
 31
0.0
  0
LINE
  5
E40
  8
SIZE
  6
CONTINUOUS
 62
    30
 10
680.00887976408671
 20
1419.9999672647759
 30
0.0
 11
680.00887976408671
 21
1639.9999672647771
 31
0.0
  0
CIRCLE
  5
E41
  8
SIZE
  6
CONTINUOUS
 62
    30
 10
680.00887976408671
 20
1409.9999672647759
 30
0.0
 40
5.0
  0
LINE
  5
E42
  8
SIZE
  6
CONTINUOUS
 62
    30
 10
680.00887976408671
 20
1414.9999672647759
 30
0.0
 11
680.00887976408671
 21
1419.9999672647759
 31
0.0
  0
CIRCLE
  5
E43
  8
SIZE
  6
CONTINUOUS
 62
    30
 10
680.00887976408671
 20
1649.9999672647759
 30
0.0
 40
5.0
  0
LINE
  5
E44
  8
SIZE
  6
CONTINUOUS
 62
    30
 10
680.00887976408671
 20
1644.9999672647759
 30
0.0
 11
680.00887976408671
 21
1639.9999672647759
 31
0.0
  0
TEXT
  5
E45
  8
SIZE
  6
CONTINUOUS
 62
    30
 10
665.0088797640866
 20
1466.357110121919
 30
0.0
 40
55.0
  1
240
 50
90.0
 41
0.9
 72
     1
 11
665.0088797640866
 21
1529.9999672647759
 31
0.0
  0
POINT
  5
E46
  8
DEFPOINTS
  6
CONTINUOUS
 62
     7
 10
379.99999999954338
 20
1409.9999672647759
 30
0.0
  0
POINT
  5
E47
  8
DEFPOINTS
  6
CONTINUOUS
 62
     7
 10
80.024178706575654
 20
1649.9999672647771
 30
0.0
  0
POINT
  5
E48
  8
DEFPOINTS
  6
CONTINUOUS
 62
     7
 10
680.00887976408671
 20
1649.9999672647759
 30
0.0
  0
LINE
  5
E49
  8
SIZE
  6
CONTINUOUS
 62
    30
 10
100.0241787065756
 20
1649.9999672647771
 30
0.0
 11
829.97666043893935
 21
1649.9999672647759
 31
0.0
  0
LINE
  5
E4A
  8
SIZE
  6
CONTINUOUS
 62
    30
 10
399.99999999954338
 20
-0.0000000000875374
 30
0.0
 11
829.97666043893901
 21
-0.0000000000876592
 31
0.0
  0
LINE
  5
E4B
  8
SIZE
  6
CONTINUOUS
 62
    30
 10
799.97666043893935
 20
1639.9999672647771
 30
0.0
 11
799.97666043893923
 21
9.9999999999123492
 31
0.0
  0
CIRCLE
  5
E4C
  8
SIZE
  6
CONTINUOUS
 62
    30
 10
799.97666043893935
 20
1649.9999672647759
 30
0.0
 40
5.0
  0
LINE
  5
E4D
  8
SIZE
  6
CONTINUOUS
 62
    30
 10
799.97666043893935
 20
1644.9999672647759
 30
0.0
 11
799.97666043893935
 21
1639.9999672647759
 31
0.0
  0
CIRCLE
  5
E4E
  8
SIZE
  6
CONTINUOUS
 62
    30
 10
799.97666043893923
 20
-0.0000000000876507
 30
0.0
 40
5.0
  0
LINE
  5
E4F
  8
SIZE
  6
CONTINUOUS
 62
    30
 10
799.97666043893923
 20
4.9999999999123492
 30
0.0
 11
799.97666043893923
 21
9.9999999999123492
 31
0.0
  0
TEXT
  5
E50
  8
SIZE
  6
CONTINUOUS
 62
    30
 10
784.97666043893923
 20
742.49998363234465
 30
0.0
 40
55.0
  1
1650
 50
90.0
 41
0.9
 72
     1
 11
784.97666043893923
 21
824.99998363234465
 31
0.0
  0
POINT
  5
E51
  8
DEFPOINTS
  6
CONTINUOUS
 62
     7
 10
80.024178706575654
 20
1649.9999672647771
 30
0.0
  0
POINT
  5
E52
  8
DEFPOINTS
  6
CONTINUOUS
 62
     7
 10
379.99999999954338
 20
-0.0000000000875317
 30
0.0
  0
POINT
  5
E53
  8
DEFPOINTS
  6
CONTINUOUS
 62
     7
 10
799.97666043893923
 20
-0.0000000000876507
 30
0.0
  0
LINE
  5
E55
  8
DETAIL
  6
CONTINUOUS
 62
     5
 10
299.99999999954377
 20
5.0015111690834191
 30
0.0
 11
299.99999999954377
 21
53.999998287156593
 31
0.0
  0
ARC
  5
E56
  8
DETAIL
  6
CONTINUOUS
 62
     5
 10
305.0015111687303
 20
5.0015111690834191
 30
0.0
 40
5.0015111691832921
 50
180.0
 51
270.0
  0
LINE
  5
E57
  8
DETAIL
  6
CONTINUOUS
 62
     5
 10
324.99999999954377
 20
46.814144543480978
 30
0.0
 11
328.00090670106027
 21
46.814144543480978
 31
0.0
  0
LINE
  5
E58
  8
DETAIL
  6
CONTINUOUS
 62
     5
 10
328.00090670106027
 20
7.2021760835475597
 30
0.0
 11
328.00090670106027
 21
46.814144543480978
 31
0.0
  0
LINE
  5
E59
  8
DETAIL
  6
CONTINUOUS
 62
     5
 10
324.99999999954377
 20
54.000000207511903
 30
0.0
 11
324.99999999954377
 21
-0.0000000000875317
 31
0.0
  0
LINE
  5
E5A
  8
DETAIL
  6
CONTINUOUS
 62
     5
 10
324.99999999954377
 20
7.2021760835475597
 30
0.0
 11
328.00090670106027
 21
7.2021760835475597
 31
0.0
  0
LINE
  5
E5B
  8
DETAIL
  6
CONTINUOUS
 62
     5
 10
379.99999999954338
 20
2.3006951377508398
 30
0.0
 11
324.99999999954377
 21
2.3006951377508398
 31
0.0
  0
LINE
  5
E5C
  8
DETAIL
  6
CONTINUOUS
 62
     5
 10
305.00151116873337
 20
-0.0000000000998721
 30
0.0
 11
379.99999999954338
 21
-0.0000000000875317
 31
0.0
  0
LINE
  5
E5D
  8
DETAIL
  6
CONTINUOUS
 62
     5
 10
379.99999999954338
 20
-0.0000000000875317
 30
0.0
 11
379.99999999954338
 21
2.3006951377508398
 31
0.0
  0
LINE
  5
E5E
  8
SIZE
  6
CONTINUOUS
 62
    30
 10
399.99999999954338
 20
-0.0000000000875374
 30
0.0
 11
607.69057267840799
 21
-0.0000000000875962
 31
0.0
  0
LINE
  5
E5F
  8
SIZE
  6
CONTINUOUS
 62
    30
 10
348.59928377771752
 20
54.000000483988288
 30
0.0
 11
607.69057267840799
 21
54.000000483988217
 31
0.0
  0
LINE
  5
E60
  8
SIZE
  6
CONTINUOUS
 62
    30
 10
577.69057267840799
 20
9.9999999999124132
 30
0.0
 11
577.69057267840799
 21
44.000000483988217
 31
0.0
  0
LINE
  5
E61
  8
SIZE
  6
CONTINUOUS
 62
    30
 10
577.69057267840799
 20
54.000000483988231
 30
0.0
 11
577.69057267840799
 21
176.50000048398991
 31
0.0
  0
CIRCLE
  5
E62
  8
SIZE
  6
CONTINUOUS
 62
    30
 10
577.69057267840799
 20
-0.0000000000875877
 30
0.0
 40
5.0
  0
LINE
  5
E63
  8
SIZE
  6
CONTINUOUS
 62
    30
 10
577.69057267840799
 20
4.9999999999124123
 30
0.0
 11
577.69057267840799
 21
9.9999999999124132
 31
0.0
  0
CIRCLE
  5
E64
  8
SIZE
  6
CONTINUOUS
 62
    30
 10
577.69057267840799
 20
54.000000483988231
 30
0.0
 40
5.0
  0
LINE
  5
E65
  8
SIZE
  6
CONTINUOUS
 62
    30
 10
577.69057267840799
 20
49.000000483988231
 30
0.0
 11
577.69057267840799
 21
44.000000483988231
 31
0.0
  0
TEXT
  5
E66
  8
SIZE
  6
CONTINUOUS
 62
    30
 10
562.69057267840788
 20
79.000000483989993
 30
0.0
 40
55.0
  1
54
 50
90.0
 41
0.9
 72
     1
 11
562.69057267840788
 21
120.25000048398999
 31
0.0
  0
POINT
  5
E67
  8
DEFPOINTS
  6
CONTINUOUS
 62
     7
 10
379.99999999954338
 20
-0.0000000000875317
 30
0.0
  0
POINT
  5
E68
  8
DEFPOINTS
  6
CONTINUOUS
 62
     7
 10
328.59928377771752
 20
54.000000483988302
 30
0.0
  0
POINT
  5
E69
  8
DEFPOINTS
  6
CONTINUOUS
 62
     7
 10
577.69057267840799
 20
54.000000483988231
 30
0.0
  0
LINE
  5
E6A
  8
SIZE
  6
CONTINUOUS
 62
    30
 10
379.99999999954338
 20
-20.000000000087532
 30
0.0
 11
379.99999999954338
 21
-125.8709338220289
 31
0.0
  0
LINE
  5
E6B
  8
SIZE
  6
CONTINUOUS
 62
    30
 10
324.99999999954377
 20
-20.000000000087532
 30
0.0
 11
324.99999999954377
 21
-125.8709338220289
 31
0.0
  0
LINE
  5
E6C
  8
SIZE
  6
CONTINUOUS
 62
    30
 10
334.99999999954377
 20
-95.87093382202896
 30
0.0
 11
369.99999999954338
 21
-95.87093382202896
 31
0.0
  0
LINE
  5
E6D
  8
SIZE
  6
CONTINUOUS
 62
    30
 10
379.99999999954338
 20
-95.87093382202896
 30
0.0
 11
500.14285714240123
 21
-95.87093382202896
 31
0.0
  0
CIRCLE
  5
E6E
  8
SIZE
  6
CONTINUOUS
 62
    30
 10
324.99999999954377
 20
-95.87093382202896
 30
0.0
 40
5.0
  0
LINE
  5
E6F
  8
SIZE
  6
CONTINUOUS
 62
    30
 10
329.99999999954377
 20
-95.87093382202896
 30
0.0
 11
334.99999999954377
 21
-95.87093382202896
 31
0.0
  0
CIRCLE
  5
E70
  8
SIZE
  6
CONTINUOUS
 62
    30
 10
379.99999999954338
 20
-95.87093382202896
 30
0.0
 40
5.0
  0
LINE
  5
E71
  8
SIZE
  6
CONTINUOUS
 62
    30
 10
374.99999999954338
 20
-95.87093382202896
 30
0.0
 11
369.99999999954338
 21
-95.87093382202896
 31
0.0
  0
TEXT
  5
E72
  8
SIZE
  6
CONTINUOUS
 62
    30
 10
404.99999999954417
 20
-80.870933822028974
 30
0.0
 40
55.0
  1
55
 41
0.9
 72
     1
 11
445.07142857097278
 21
-80.870933822028974
 31
0.0
  0
POINT
  5
E73
  8
DEFPOINTS
  6
CONTINUOUS
 62
     7
 10
379.99999999954338
 20
-0.0000000000875317
 30
0.0
  0
POINT
  5
E74
  8
DEFPOINTS
  6
CONTINUOUS
 62
     7
 10
324.99999999954377
 20
-0.0000000000875317
 30
0.0
  0
POINT
  5
E75
  8
DEFPOINTS
  6
CONTINUOUS
 62
     7
 10
324.99999999954377
 20
-95.87093382202896
 30
0.0
  0
LINE
  5
E76
  8
SIZE
  6
CONTINUOUS
 62
    30
 10
324.99999999954377
 20
-20.000000000087532
 30
0.0
 11
324.99999999954377
 21
-125.8709338220289
 31
0.0
  0
LINE
  5
E77
  8
SIZE
  6
CONTINUOUS
 62
    30
 10
299.99999999954377
 20
-14.998488830916569
 30
0.0
 11
299.99999999954377
 21
-125.8709338220289
 31
0.0
  0
LINE
  5
E78
  8
SIZE
  6
CONTINUOUS
 62
    30
 10
334.99999999954377
 20
-95.87093382202896
 30
0.0
 11
344.99999999954377
 21
-95.87093382202896
 31
0.0
  0
LINE
  5
E79
  8
SIZE
  6
CONTINUOUS
 62
    30
 10
289.99999999954389
 20
-95.87093382202896
 30
0.0
 11
167.88579831517461
 21
-95.87093382202896
 31
0.0
  0
LINE
  5
E7A
  8
SIZE
  6
CONTINUOUS
 62
    30
 10
324.99999999954377
 20
-95.87093382202896
 30
0.0
 11
299.99999999954377
 21
-95.87093382202896
 31
0.0
  0
CIRCLE
  5
E7B
  8
SIZE
  6
CONTINUOUS
 62
    30
 10
324.99999999954377
 20
-95.87093382202896
 30
0.0
 40
5.0
  0
LINE
  5
E7C
  8
SIZE
  6
CONTINUOUS
 62
    30
 10
329.99999999954377
 20
-95.87093382202896
 30
0.0
 11
334.99999999954377
 21
-95.87093382202896
 31
0.0
  0
CIRCLE
  5
E7D
  8
SIZE
  6
CONTINUOUS
 62
    30
 10
299.99999999954377
 20
-95.87093382202896
 30
0.0
 40
5.0
  0
LINE
  5
E7E
  8
SIZE
  6
CONTINUOUS
 62
    30
 10
294.99999999954372
 20
-95.87093382202896
 30
0.0
 11
289.99999999954377
 21
-95.87093382202896
 31
0.0
  0
TEXT
  5
E7F
  8
SIZE
  6
CONTINUOUS
 62
    30
 10
182.88579831517461
 20
-80.870933822028974
 30
0.0
 40
55.0
  1
25
 41
0.9
 72
     1
 11
222.95722688660311
 21
-80.870933822028974
 31
0.0
  0
POINT
  5
E80
  8
DEFPOINTS
  6
CONTINUOUS
 62
     7
 10
324.99999999954377
 20
-0.0000000000875317
 30
0.0
  0
POINT
  5
E81
  8
DEFPOINTS
  6
CONTINUOUS
 62
     7
 10
299.99999999954377
 20
5.0015111690834191
 30
0.0
  0
POINT
  5
E82
  8
DEFPOINTS
  6
CONTINUOUS
 62
     7
 10
299.99999999954377
 20
-95.87093382202896
 30
0.0
  0
LINE
  5
E83
  8
SIZE
  6
CONTINUOUS
 62
    30
 10
-380.000000000456
 20
-20.000000000087532
 30
0.0
 11
-380.000000000456
 21
-125.8709338220289
 31
0.0
  0
LINE
  5
E84
  8
SIZE
  6
CONTINUOUS
 62
    30
 10
-325.00000000045611
 20
-20.000000000087532
 30
0.0
 11
-325.00000000045611
 21
-125.8709338220289
 31
0.0
  0
LINE
  5
E85
  8
SIZE
  6
CONTINUOUS
 62
    30
 10
-335.000000000456
 20
-95.87093382202896
 30
0.0
 11
-370.000000000456
 21
-95.87093382202896
 31
0.0
  0
LINE
  5
E86
  8
SIZE
  6
CONTINUOUS
 62
    30
 10
-380.000000000456
 20
-95.87093382202896
 30
0.0
 11
-500.14285714331447
 21
-95.87093382202896
 31
0.0
  0
CIRCLE
  5
E87
  8
SIZE
  6
CONTINUOUS
 62
    30
 10
-325.00000000045611
 20
-95.87093382202896
 30
0.0
 40
5.0
  0
LINE
  5
E88
  8
SIZE
  6
CONTINUOUS
 62
    30
 10
-330.00000000045611
 20
-95.87093382202896
 30
0.0
 11
-335.000000000456
 21
-95.87093382202896
 31
0.0
  0
CIRCLE
  5
E89
  8
SIZE
  6
CONTINUOUS
 62
    30
 10
-380.000000000456
 20
-95.87093382202896
 30
0.0
 40
5.0
  0
LINE
  5
E8A
  8
SIZE
  6
CONTINUOUS
 62
    30
 10
-375.000000000456
 20
-95.87093382202896
 30
0.0
 11
-370.000000000456
 21
-95.87093382202896
 31
0.0
  0
TEXT
  5
E8B
  8
SIZE
  6
CONTINUOUS
 62
    30
 10
-485.14285714331442
 20
-80.870933822028974
 30
0.0
 40
55.0
  1
55
 41
0.9
 72
     1
 11
-445.0714285718858
 21
-80.870933822028974
 31
0.0
  0
POINT
  5
E8C
  8
DEFPOINTS
  6
CONTINUOUS
 62
     7
 10
-380.000000000456
 20
-0.0000000000875317
 30
0.0
  0
POINT
  5
E8D
  8
DEFPOINTS
  6
CONTINUOUS
 62
     7
 10
-325.00000000045611
 20
-0.0000000000875317
 30
0.0
  0
POINT
  5
E8E
  8
DEFPOINTS
  6
CONTINUOUS
 62
     7
 10
-325.00000000045611
 20
-95.87093382202896
 30
0.0
  0
LINE
  5
E8F
  8
SIZE
  6
CONTINUOUS
 62
    30
 10
-325.00000000045611
 20
-20.000000000087532
 30
0.0
 11
-325.00000000045611
 21
-125.8709338220289
 31
0.0
  0
LINE
  5
E90
  8
SIZE
  6
CONTINUOUS
 62
    30
 10
-300.00000000045611
 20
-14.998488830916569
 30
0.0
 11
-300.00000000045611
 21
-125.8709338220289
 31
0.0
  0
LINE
  5
E91
  8
SIZE
  6
CONTINUOUS
 62
    30
 10
-335.000000000456
 20
-95.87093382202896
 30
0.0
 11
-345.000000000456
 21
-95.87093382202896
 31
0.0
  0
LINE
  5
E92
  8
SIZE
  6
CONTINUOUS
 62
    30
 10
-290.00000000045611
 20
-95.87093382202896
 30
0.0
 11
-121.4954976560592
 21
-95.87093382202896
 31
0.0
  0
LINE
  5
E93
  8
SIZE
  6
CONTINUOUS
 62
    30
 10
-325.00000000045611
 20
-95.87093382202896
 30
0.0
 11
-300.00000000045611
 21
-95.87093382202896
 31
0.0
  0
CIRCLE
  5
E94
  8
SIZE
  6
CONTINUOUS
 62
    30
 10
-325.00000000045611
 20
-95.87093382202896
 30
0.0
 40
5.0
  0
LINE
  5
E95
  8
SIZE
  6
CONTINUOUS
 62
    30
 10
-330.00000000045611
 20
-95.87093382202896
 30
0.0
 11
-335.000000000456
 21
-95.87093382202896
 31
0.0
  0
CIRCLE
  5
E96
  8
SIZE
  6
CONTINUOUS
 62
    30
 10
-300.00000000045611
 20
-95.87093382202896
 30
0.0
 40
5.0
  0
LINE
  5
E97
  8
SIZE
  6
CONTINUOUS
 62
    30
 10
-295.000000000456
 20
-95.87093382202896
 30
0.0
 11
-290.00000000045611
 21
-95.87093382202896
 31
0.0
  0
TEXT
  5
E98
  8
SIZE
  6
CONTINUOUS
 62
    30
 10
-216.6383547989164
 20
-80.870933822028974
 30
0.0
 40
55.0
  1
25
 41
0.9
 72
     1
 11
-176.56692622748781
 21
-80.870933822028974
 31
0.0
  0
POINT
  5
E99
  8
DEFPOINTS
  6
CONTINUOUS
 62
     7
 10
-325.00000000045611
 20
-0.0000000000875317
 30
0.0
  0
POINT
  5
E9A
  8
DEFPOINTS
  6
CONTINUOUS
 62
     7
 10
-300.00000000045611
 20
5.0015111690834191
 30
0.0
  0
POINT
  5
E9B
  8
DEFPOINTS
  6
CONTINUOUS
 62
     7
 10
-300.00000000045611
 20
-95.87093382202896
 30
0.0
  0
LINE
  5
E9C
  8
NOTE
  6
CONTINUOUS
 62
     4
 10
-263.67684187296197
 20
142.99999999992781
 30
0.0
 11
-196.3231581279633
 21
142.99999999992781
 31
0.0
  0
LINE
  5
E9D
  8
NOTE
  6
CONTINUOUS
 62
     4
 10
-230.00000000045611
 20
176.67684187240471
 30
0.0
 11
-230.00000000045611
 21
109.3231581274209
 31
0.0
  0
LINE
  5
E9E
  8
NOTE
  6
CONTINUOUS
 62
     4
 10
-268.67684187249068
 20
171.99999999992781
 30
0.0
 11
-201.3231581274915
 21
171.99999999992781
 31
0.0
  0
LINE
  5
E9F
  8
NOTE
  6
CONTINUOUS
 62
     4
 10
-234.99999999998471
 20
205.67684187240471
 30
0.0
 11
-234.99999999998471
 21
138.3231581274209
 31
0.0
  0
LINE
  5
EA0
  8
SIZE
  6
CONTINUOUS
 62
    30
 10
-400.00000000045588
 20
-0.0000000000875261
 30
0.0
 11
-608.77507248415213
 21
-0.0000000000874669
 31
0.0
  0
LINE
  5
EA1
  8
SIZE
  6
CONTINUOUS
 62
    30
 10
-283.67684187296197
 20
142.99999999992781
 30
0.0
 11
-608.77507248415213
 21
142.99999999992789
 31
0.0
  0
LINE
  5
EA2
  8
SIZE
  6
CONTINUOUS
 62
    30
 10
-578.77507248415213
 20
-10.00000000008747
 30
0.0
 11
-578.77507248415213
 21
-20.000000000087478
 31
0.0
  0
LINE
  5
EA3
  8
SIZE
  6
CONTINUOUS
 62
    30
 10
-578.77507248415213
 20
152.99999999992789
 30
0.0
 11
-578.77507248415213
 21
162.99999999992789
 31
0.0
  0
LINE
  5
EA4
  8
SIZE
  6
CONTINUOUS
 62
    30
 10
-578.77507248415213
 20
-0.0000000000874754
 30
0.0
 11
-578.77507248415213
 21
142.99999999992789
 31
0.0
  0
CIRCLE
  5
EA5
  8
SIZE
  6
CONTINUOUS
 62
    30
 10
-578.77507248415213
 20
-0.0000000000874754
 30
0.0
 40
5.0
  0
LINE
  5
EA6
  8
SIZE
  6
CONTINUOUS
 62
    30
 10
-578.77507248415213
 20
-5.000000000087474
 30
0.0
 11
-578.77507248415213
 21
-10.00000000008747
 31
0.0
  0
CIRCLE
  5
EA7
  8
SIZE
  6
CONTINUOUS
 62
    30
 10
-578.77507248415213
 20
142.99999999992789
 30
0.0
 40
5.0
  0
LINE
  5
EA8
  8
SIZE
  6
CONTINUOUS
 62
    30
 10
-578.77507248415213
 20
147.99999999992789
 30
0.0
 11
-578.77507248415213
 21
152.99999999992789
 31
0.0
  0
TEXT
  5
EA9
  8
SIZE
  6
CONTINUOUS
 62
    30
 10
-593.77507248415213
 20
12.571428571348751
 30
0.0
 40
55.0
  1
143
 50
90.0
 41
0.9
 72
     1
 11
-593.77507248415213
 21
71.499999999920163
 31
0.0
  0
POINT
  5
EAA
  8
DEFPOINTS
  6
CONTINUOUS
 62
     7
 10
-380.000000000456
 20
-0.0000000000875317
 30
0.0
  0
POINT
  5
EAB
  8
DEFPOINTS
  6
CONTINUOUS
 62
     7
 10
-263.67684187296197
 20
142.99999999992781
 30
0.0
  0
POINT
  5
EAC
  8
DEFPOINTS
  6
CONTINUOUS
 62
     7
 10
-578.77507248415213
 20
142.99999999992789
 30
0.0
  0
LINE
  5
EAD
  8
SIZE
  6
CONTINUOUS
 62
    30
 10
-400.00000000045588
 20
-0.0000000000875261
 30
0.0
 11
-727.58875976428089
 21
-0.0000000000874333
 31
0.0
  0
LINE
  5
EAE
  8
SIZE
  6
CONTINUOUS
 62
    30
 10
-288.67835304214879
 20
171.99999999992781
 30
0.0
 11
-727.58875976428089
 21
171.99999999992781
 31
0.0
  0
LINE
  5
EAF
  8
SIZE
  6
CONTINUOUS
 62
    30
 10
-697.58875976428089
 20
9.9999999999125571
 30
0.0
 11
-697.58875976428089
 21
161.99999999992789
 31
0.0
  0
CIRCLE
  5
EB0
  8
SIZE
  6
CONTINUOUS
 62
    30
 10
-697.58875976428089
 20
-0.0000000000874418
 30
0.0
 40
5.0
  0
LINE
  5
EB1
  8
SIZE
  6
CONTINUOUS
 62
    30
 10
-697.58875976428089
 20
4.9999999999125571
 30
0.0
 11
-697.58875976428089
 21
9.9999999999125606
 31
0.0
  0
CIRCLE
  5
EB2
  8
SIZE
  6
CONTINUOUS
 62
    30
 10
-697.58875976428089
 20
171.99999999992781
 30
0.0
 40
5.0
  0
LINE
  5
EB3
  8
SIZE
  6
CONTINUOUS
 62
    30
 10
-697.58875976428089
 20
166.99999999992789
 30
0.0
 11
-697.58875976428089
 21
161.99999999992789
 31
0.0
  0
TEXT
  5
EB4
  8
SIZE
  6
CONTINUOUS
 62
    30
 10
-712.58875976428055
 20
27.07142857134869
 30
0.0
 40
55.0
  1
172
 50
90.0
 41
0.9
 72
     1
 11
-712.58875976428055
 21
85.999999999920135
 31
0.0
  0
POINT
  5
EB5
  8
DEFPOINTS
  6
CONTINUOUS
 62
     7
 10
-380.000000000456
 20
-0.0000000000875317
 30
0.0
  0
POINT
  5
EB6
  8
DEFPOINTS
  6
CONTINUOUS
 62
     7
 10
-268.6783530421489
 20
171.99999999992781
 30
0.0
  0
POINT
  5
EB7
  8
DEFPOINTS
  6
CONTINUOUS
 62
     7
 10
-697.58875976428089
 20
171.99999999992781
 30
0.0
  0
LINE
  5
EB8
  8
SIZE
  6
CONTINUOUS
 62
    30
 10
-380.000000000456
 20
-20.000000000087532
 30
0.0
 11
-380.000000000456
 21
-236.244854201561
 31
0.0
  0
LINE
  5
EB9
  8
SIZE
  6
CONTINUOUS
 62
    30
 10
-235.0015111696429
 20
118.3231581274209
 30
0.0
 11
-235.0
 21
-236.244854201561
 31
0.0
  0
LINE
  5
EBA
  8
SIZE
  6
CONTINUOUS
 62
    30
 10
-370.000000000456
 20
-206.244854201561
 30
0.0
 11
-245.0015111696429
 21
-206.244854201561
 31
0.0
  0
CIRCLE
  5
EBB
  8
SIZE
  6
CONTINUOUS
 62
    30
 10
-380.000000000456
 20
-206.244854201561
 30
0.0
 40
5.0
  0
LINE
  5
EBC
  8
SIZE
  6
CONTINUOUS
 62
    30
 10
-375.000000000456
 20
-206.244854201561
 30
0.0
 11
-370.000000000456
 21
-206.244854201561
 31
0.0
  0
CIRCLE
  5
EBD
  8
SIZE
  6
CONTINUOUS
 62
    30
 10
-235.0
 20
-206.244854201561
 30
0.0
 40
5.0
  0
LINE
  5
EBE
  8
SIZE
  6
CONTINUOUS
 62
    30
 10
-240.00151116964301
 20
-206.244854201561
 30
0.0
 11
-245.00151116964301
 21
-206.244854201561
 31
0.0
  0
TEXT
  5
EBF
  8
SIZE
  6
CONTINUOUS
 62
    30
 10
-358.56568083090349
 20
-191.244854201561
 30
0.0
 40
55.0
  1
145
 41
0.9
 72
     1
 11
-299.6371094023321
 21
-191.244854201561
 31
0.0
  0
POINT
  5
EC0
  8
DEFPOINTS
  6
CONTINUOUS
 62
     7
 10
-380.000000000456
 20
-0.0000000000875317
 30
0.0
  0
POINT
  5
EC1
  8
DEFPOINTS
  6
CONTINUOUS
 62
     7
 10
-235.0
 20
138.3231581274209
 30
0.0
  0
POINT
  5
EC2
  8
DEFPOINTS
  6
CONTINUOUS
 62
     7
 10
-235.0
 20
-206.244854201561
 30
0.0
  0
LINE
  5
EC3
  8
SIZE
  6
CONTINUOUS
 62
    30
 10
-380.000000000456
 20
-20.000000000087532
 30
0.0
 11
-380.000000000456
 21
-332.60736884590199
 31
0.0
  0
LINE
  5
EC4
  8
SIZE
  6
CONTINUOUS
 62
    30
 10
-230.00000000045611
 20
89.323158127420939
 30
0.0
 11
-230.00000000045611
 21
-332.60736884590199
 31
0.0
  0
LINE
  5
EC5
  8
SIZE
  6
CONTINUOUS
 62
    30
 10
-370.000000000456
 20
-302.60736884590187
 30
0.0
 11
-240.00000000045611
 21
-302.60736884590187
 31
0.0
  0
CIRCLE
  5
EC6
  8
SIZE
  6
CONTINUOUS
 62
    30
 10
-380.000000000456
 20
-302.60736884590187
 30
0.0
 40
5.0
  0
LINE
  5
EC7
  8
SIZE
  6
CONTINUOUS
 62
    30
 10
-375.000000000456
 20
-302.60736884590187
 30
0.0
 11
-370.000000000456
 21
-302.60736884590187
 31
0.0
  0
CIRCLE
  5
EC8
  8
SIZE
  6
CONTINUOUS
 62
    30
 10
-230.00000000045611
 20
-302.60736884590187
 30
0.0
 40
5.0
  0
LINE
  5
EC9
  8
SIZE
  6
CONTINUOUS
 62
    30
 10
-235.00000000045611
 20
-302.60736884590187
 30
0.0
 11
-240.00000000045611
 21
-302.60736884590187
 31
0.0
  0
TEXT
  5
ECA
  8
SIZE
  6
CONTINUOUS
 62
    30
 10
-356.84396112742633
 20
-287.60736884590187
 30
0.0
 40
55.0
  1
150
 41
0.9
 72
     1
 11
-297.91538969885488
 21
-287.60736884590187
 31
0.0
  0
POINT
  5
ECB
  8
DEFPOINTS
  6
CONTINUOUS
 62
     7
 10
-380.000000000456
 20
-0.0000000000875317
 30
0.0
  0
POINT
  5
ECC
  8
DEFPOINTS
  6
CONTINUOUS
 62
     7
 10
-230.00000000045611
 20
109.3231581274209
 30
0.0
  0
POINT
  5
ECD
  8
DEFPOINTS
  6
CONTINUOUS
 62
     7
 10
-230.00000000045611
 20
-302.60736884590187
 30
0.0
  0
LINE
  5
ECE
  8
NOTE
  6
CONTINUOUS
 62
     4
 10
-316.88548044735802
 20
1409.9999672647759
 30
0.0
 11
-283.114519553555
 21
1409.9999672647759
 31
0.0
  0
LINE
  5
ECF
  8
NOTE
  6
CONTINUOUS
 62
     4
 10
-300.00000000045611
 20
1426.885447711677
 30
0.0
 11
-300.00000000045611
 21
1393.1144868178751
 31
0.0
  0
LINE
  5
ED0
  8
NOTE
  6
CONTINUOUS
 62
     4
 10
-166.88548044735799
 20
1409.9999672647759
 30
0.0
 11
-133.114519553555
 21
1409.9999672647759
 31
0.0
  0
LINE
  5
ED1
  8
NOTE
  6
CONTINUOUS
 62
     4
 10
-150.00000000045611
 20
1426.885447711677
 30
0.0
 11
-150.00000000045611
 21
1393.1144868178751
 31
0.0
  0
LINE
  5
ED2
  8
NOTE
  6
CONTINUOUS
 62
     4
 10
-16.88548044735807
 20
1409.9999672647759
 30
0.0
 11
16.885480446444941
 21
1409.9999672647759
 31
0.0
  0
LINE
  5
ED3
  8
NOTE
  6
CONTINUOUS
 62
     4
 10
-0.0000000004561116
 20
1426.885447711677
 30
0.0
 11
-0.0000000004561116
 21
1393.1144868178751
 31
0.0
  0
LINE
  5
ED4
  8
NOTE
  6
CONTINUOUS
 62
     4
 10
133.1145195526432
 20
1409.9999672647759
 30
0.0
 11
166.88548044644489
 21
1409.9999672647759
 31
0.0
  0
LINE
  5
ED5
  8
NOTE
  6
CONTINUOUS
 62
     4
 10
149.99999999954389
 20
1426.885447711677
 30
0.0
 11
149.99999999954389
 21
1393.1144868178751
 31
0.0
  0
LINE
  5
ED6
  8
NOTE
  6
CONTINUOUS
 62
     4
 10
283.11451955264317
 20
1409.9999672647759
 30
0.0
 11
316.88548044644489
 21
1409.9999672647759
 31
0.0
  0
LINE
  5
ED7
  8
NOTE
  6
CONTINUOUS
 62
     4
 10
299.99999999954377
 20
1426.885447711677
 30
0.0
 11
299.99999999954377
 21
1393.1144868178751
 31
0.0
  0
LINE
  5
ED8
  8
NOTE
  6
CONTINUOUS
 62
     4
 10
-362.00000000045611
 20
15.00453350736529
 30
0.0
 11
-362.00000000045611
 21
-15.00453350772135
 31
0.0
  0
CIRCLE
  5
ED9
  8
FIX
  6
CONTINUOUS
 62
    11
 10
-362.00000000045611
 20
-0.0000000000875317
 30
0.0
 40
12.151512751047431
  0
LINE
  5
EDA
  8
NOTE
  6
CONTINUOUS
 62
     4
 10
-346.99546649291182
 20
-0.0000000000875317
 30
0.0
 11
-377.00453350799899
 21
-0.0000000000875317
 31
0.0
  0
LINE
  5
EDB
  8
NOTE
  6
CONTINUOUS
 62
     4
 10
361.99999999954377
 20
15.00453350736529
 30
0.0
 11
361.99999999954377
 21
-15.00453350772135
 31
0.0
  0
CIRCLE
  5
EDC
  8
FIX
  6
CONTINUOUS
 62
    11
 10
361.99999999954377
 20
-0.0000000000875317
 30
0.0
 40
12.151512751047431
  0
LINE
  5
EDD
  8
NOTE
  6
CONTINUOUS
 62
     4
 10
377.00453350708761
 20
-0.0000000000875317
 30
0.0
 11
346.99546649200101
 21
-0.0000000000875317
 31
0.0
  0
TEXT
  5
EDE
  8
SIZE
  6
CONTINUOUS
 62
    30
 10
-146.84280175267301
 20
-520.79927418839725
 30
0.0
 40
55.0
  1
（据付ピッチ）
 50
0.0000025045208307
 41
0.9
  7
STANDARD1
  0
LINE
  5
EDF
  8
SIZE
  6
CONTINUOUS
 62
    30
 10
379.99999999954338
 20
-20.000000000087532
 30
0.0
 11
379.99999999954309
 21
-477.60589433453339
 31
0.0
  0
LINE
  5
EE0
  8
SIZE
  6
CONTINUOUS
 62
    30
 10
361.99999999954377
 20
-35.004533507721362
 30
0.0
 11
361.99999999954377
 21
-477.60589433453339
 31
0.0
  0
LINE
  5
EE1
  8
SIZE
  6
CONTINUOUS
 62
    30
 10
351.99999999954377
 20
-447.60589433453339
 30
0.0
 11
341.99999999954389
 21
-447.60589433453339
 31
0.0
  0
LINE
  5
EE2
  8
SIZE
  6
CONTINUOUS
 62
    30
 10
389.99999999954338
 20
-447.60589433453339
 30
0.0
 11
500.71428571382899
 21
-447.60589433453339
 31
0.0
  0
LINE
  5
EE3
  8
SIZE
  6
CONTINUOUS
 62
    30
 10
361.99999999954377
 20
-447.60589433453339
 30
0.0
 11
379.99999999954338
 21
-447.60589433453339
 31
0.0
  0
CIRCLE
  5
EE4
  8
SIZE
  6
CONTINUOUS
 62
    30
 10
361.99999999954377
 20
-447.60589433453339
 30
0.0
 40
5.0
  0
LINE
  5
EE5
  8
SIZE
  6
CONTINUOUS
 62
    30
 10
356.99999999954377
 20
-447.60589433453339
 30
0.0
 11
351.99999999954377
 21
-447.60589433453339
 31
0.0
  0
CIRCLE
  5
EE6
  8
SIZE
  6
CONTINUOUS
 62
    30
 10
379.99999999954338
 20
-447.60589433453339
 30
0.0
 40
5.0
  0
LINE
  5
EE7
  8
SIZE
  6
CONTINUOUS
 62
    30
 10
384.99999999954338
 20
-447.60589433453339
 30
0.0
 11
389.99999999954338
 21
-447.60589433453339
 31
0.0
  0
TEXT
  5
EE8
  8
SIZE
  6
CONTINUOUS
 62
    30
 10
414.99999999954338
 20
-432.60589433453339
 30
0.0
 40
55.0
  1
18
 41
0.9
 72
     1
 11
450.35714285668621
 21
-432.60589433453339
 31
0.0
  0
POINT
  5
EE9
  8
DEFPOINTS
  6
CONTINUOUS
 62
     7
 10
379.99999999954338
 20
-0.0000000000875317
 30
0.0
  0
POINT
  5
EEA
  8
DEFPOINTS
  6
CONTINUOUS
 62
     7
 10
361.99999999954377
 20
-15.00453350772135
 30
0.0
  0
POINT
  5
EEB
  8
DEFPOINTS
  6
CONTINUOUS
 62
     7
 10
361.99999999954377
 20
-447.60589433453339
 30
0.0
  0
LINE
  5
EEC
  8
SIZE
  6
CONTINUOUS
 62
    30
 10
361.99999999954377
 20
-35.004533507721362
 30
0.0
 11
361.99999999954377
 21
-477.60589433453339
 31
0.0
  0
LINE
  5
EED
  8
SIZE
  6
CONTINUOUS
 62
    30
 10
-362.00000000045611
 20
-35.004533507721362
 30
0.0
 11
-362.00000000045611
 21
-477.60589433453339
 31
0.0
  0
LINE
  5
EEE
  8
SIZE
  6
CONTINUOUS
 62
    30
 10
351.99999999954377
 20
-447.60589433453339
 30
0.0
 11
-352.00000000045611
 21
-447.60589433453339
 31
0.0
  0
CIRCLE
  5
EEF
  8
SIZE
  6
CONTINUOUS
 62
    30
 10
361.99999999954377
 20
-447.60589433453339
 30
0.0
 40
5.0
  0
LINE
  5
EF0
  8
SIZE
  6
CONTINUOUS
 62
    30
 10
356.99999999954377
 20
-447.60589433453339
 30
0.0
 11
351.99999999954377
 21
-447.60589433453339
 31
0.0
  0
CIRCLE
  5
EF1
  8
SIZE
  6
CONTINUOUS
 62
    30
 10
-362.00000000045611
 20
-447.60589433453339
 30
0.0
 40
5.0
  0
LINE
  5
EF2
  8
SIZE
  6
CONTINUOUS
 62
    30
 10
-357.00000000045611
 20
-447.60589433453339
 30
0.0
 11
-352.00000000045611
 21
-447.60589433453339
 31
0.0
  0
TEXT
  5
EF3
  8
SIZE
  6
CONTINUOUS
 62
    30
 10
-261.8785714290276
 20
-418.20113242977158
 30
0.0
 40
55.0
  1
724(721～727)
 41
0.9
 72
     1
 11
-0.0000000004561116
 21
-418.20113242977158
 31
0.0
  0
POINT
  5
EF4
  8
DEFPOINTS
  6
CONTINUOUS
 62
     7
 10
361.99999999954377
 20
-15.00453350772135
 30
0.0
  0
POINT
  5
EF5
  8
DEFPOINTS
  6
CONTINUOUS
 62
     7
 10
-362.00000000045611
 20
-15.00453350772135
 30
0.0
  0
POINT
  5
EF6
  8
DEFPOINTS
  6
CONTINUOUS
 62
     7
 10
-362.00000000045611
 20
-447.60589433453339
 30
0.0
  0
LINE
  5
EF7
  8
SIZE
  6
CONTINUOUS
 62
    30
 10
-362.00000000045611
 20
-35.004533507721362
 30
0.0
 11
-362.00000000045611
 21
-477.60589433453339
 31
0.0
  0
LINE
  5
EF8
  8
SIZE
  6
CONTINUOUS
 62
    30
 10
-380.000000000456
 20
-20.000000000087532
 30
0.0
 11
-380.00000000045623
 21
-477.60589433453339
 31
0.0
  0
LINE
  5
EF9
  8
SIZE
  6
CONTINUOUS
 62
    30
 10
-352.00000000045611
 20
-447.60589433453339
 30
0.0
 11
-342.00000000045611
 21
-447.60589433453339
 31
0.0
  0
LINE
  5
EFA
  8
SIZE
  6
CONTINUOUS
 62
    30
 10
-390.00000000045611
 20
-447.60589433453339
 30
0.0
 11
-500.71428571474189
 21
-447.60589433453339
 31
0.0
  0
LINE
  5
EFB
  8
SIZE
  6
CONTINUOUS
 62
    30
 10
-362.00000000045611
 20
-447.60589433453339
 30
0.0
 11
-380.000000000456
 21
-447.60589433453339
 31
0.0
  0
CIRCLE
  5
EFC
  8
SIZE
  6
CONTINUOUS
 62
    30
 10
-362.00000000045611
 20
-447.60589433453339
 30
0.0
 40
5.0
  0
LINE
  5
EFD
  8
SIZE
  6
CONTINUOUS
 62
    30
 10
-357.00000000045611
 20
-447.60589433453339
 30
0.0
 11
-352.00000000045611
 21
-447.60589433453339
 31
0.0
  0
CIRCLE
  5
EFE
  8
SIZE
  6
CONTINUOUS
 62
    30
 10
-380.000000000456
 20
-447.60589433453339
 30
0.0
 40
5.0
  0
LINE
  5
EFF
  8
SIZE
  6
CONTINUOUS
 62
    30
 10
-385.000000000456
 20
-447.60589433453339
 30
0.0
 11
-390.000000000456
 21
-447.60589433453339
 31
0.0
  0
TEXT
  5
F00
  8
SIZE
  6
CONTINUOUS
 62
    30
 10
-485.71428571474189
 20
-432.60589433453339
 30
0.0
 40
55.0
  1
18
 41
0.9
 72
     1
 11
-450.35714285759911
 21
-432.60589433453339
 31
0.0
  0
POINT
  5
F01
  8
DEFPOINTS
  6
CONTINUOUS
 62
     7
 10
-362.00000000045611
 20
-15.00453350772135
 30
0.0
  0
POINT
  5
F02
  8
DEFPOINTS
  6
CONTINUOUS
 62
     7
 10
-380.000000000456
 20
-0.0000000000875317
 30
0.0
  0
POINT
  5
F03
  8
DEFPOINTS
  6
CONTINUOUS
 62
     7
 10
-380.000000000456
 20
-447.60589433453339
 30
0.0
  0
LINE
  5
F04
  8
SIZE
  6
CONTINUOUS
 62
    30
 10
-380.000000000456
 20
1429.9999672647759
 30
0.0
 11
-380.000000000456
 21
1853.318478128793
 31
0.0
  0
LINE
  5
F05
  8
SIZE
  6
CONTINUOUS
 62
    30
 10
-300.00000000045611
 20
1446.885447711677
 30
0.0
 11
-300.00000000045611
 21
1853.318478128793
 31
0.0
  0
LINE
  5
F06
  8
SIZE
  6
CONTINUOUS
 62
    30
 10
-310.000000000456
 20
1823.318478128793
 30
0.0
 11
-370.000000000456
 21
1823.318478128793
 31
0.0
  0
LINE
  5
F07
  8
SIZE
  6
CONTINUOUS
 62
    30
 10
-380.000000000456
 20
1823.318478128793
 30
0.0
 11
-500.14285714331447
 21
1823.318478128793
 31
0.0
  0
CIRCLE
  5
F08
  8
SIZE
  6
CONTINUOUS
 62
    30
 10
-300.00000000045611
 20
1823.318478128793
 30
0.0
 40
5.0
  0
LINE
  5
F09
  8
SIZE
  6
CONTINUOUS
 62
    30
 10
-305.00000000045611
 20
1823.318478128793
 30
0.0
 11
-310.000000000456
 21
1823.318478128793
 31
0.0
  0
CIRCLE
  5
F0A
  8
SIZE
  6
CONTINUOUS
 62
    30
 10
-380.000000000456
 20
1823.318478128793
 30
0.0
 40
5.0
  0
LINE
  5
F0B
  8
SIZE
  6
CONTINUOUS
 62
    30
 10
-375.000000000456
 20
1823.318478128793
 30
0.0
 11
-370.000000000456
 21
1823.318478128793
 31
0.0
  0
TEXT
  5
F0C
  8
SIZE
  6
CONTINUOUS
 62
    30
 10
-485.14285714331442
 20
1838.318478128793
 30
0.0
 40
55.0
  1
80
 41
0.9
 72
     1
 11
-445.0714285718858
 21
1838.318478128793
 31
0.0
  0
POINT
  5
F0D
  8
DEFPOINTS
  6
CONTINUOUS
 62
     7
 10
-380.000000000456
 20
1409.9999672647759
 30
0.0
  0
POINT
  5
F0E
  8
DEFPOINTS
  6
CONTINUOUS
 62
     7
 10
-300.00000000045611
 20
1426.885447711677
 30
0.0
  0
POINT
  5
F0F
  8
DEFPOINTS
  6
CONTINUOUS
 62
     7
 10
-300.00000000045611
 20
1823.318478128793
 30
0.0
  0
LINE
  5
F10
  8
SIZE
  6
CONTINUOUS
 62
    30
 10
-300.00000000045611
 20
1446.885447711677
 30
0.0
 11
-300.00000000045611
 21
1853.318478128793
 31
0.0
  0
LINE
  5
F11
  8
SIZE
  6
CONTINUOUS
 62
    30
 10
-150.00000000045611
 20
1446.885447711677
 30
0.0
 11
-150.000000000456
 21
1853.318478128793
 31
0.0
  0
LINE
  5
F12
  8
SIZE
  6
CONTINUOUS
 62
    30
 10
-290.00000000045611
 20
1823.318478128793
 30
0.0
 11
-160.000000000456
 21
1823.318478128793
 31
0.0
  0
CIRCLE
  5
F13
  8
SIZE
  6
CONTINUOUS
 62
    30
 10
-300.00000000045611
 20
1823.318478128793
 30
0.0
 40
5.0
  0
LINE
  5
F14
  8
SIZE
  6
CONTINUOUS
 62
    30
 10
-295.000000000456
 20
1823.318478128793
 30
0.0
 11
-290.00000000045611
 21
1823.318478128793
 31
0.0
  0
CIRCLE
  5
F15
  8
SIZE
  6
CONTINUOUS
 62
    30
 10
-150.000000000456
 20
1823.318478128793
 30
0.0
 40
5.0
  0
LINE
  5
F16
  8
SIZE
  6
CONTINUOUS
 62
    30
 10
-155.000000000456
 20
1823.318478128793
 30
0.0
 11
-160.000000000456
 21
1823.318478128793
 31
0.0
  0
TEXT
  5
F17
  8
SIZE
  6
CONTINUOUS
 62
    30
 10
-283.9285714290275
 20
1838.318478128793
 30
0.0
 40
55.0
  1
150
 41
0.9
 72
     1
 11
-225.00000000045611
 21
1838.318478128793
 31
0.0
  0
POINT
  5
F18
  8
DEFPOINTS
  6
CONTINUOUS
 62
     7
 10
-300.00000000045611
 20
1426.885447711677
 30
0.0
  0
POINT
  5
F19
  8
DEFPOINTS
  6
CONTINUOUS
 62
     7
 10
-150.00000000045611
 20
1426.885447711677
 30
0.0
  0
POINT
  5
F1A
  8
DEFPOINTS
  6
CONTINUOUS
 62
     7
 10
-150.000000000456
 20
1823.318478128793
 30
0.0
  0
LINE
  5
F1B
  8
SIZE
  6
CONTINUOUS
 62
    30
 10
-150.00000000045611
 20
1446.885447711677
 30
0.0
 11
-150.000000000456
 21
1853.318478128793
 31
0.0
  0
LINE
  5
F1C
  8
SIZE
  6
CONTINUOUS
 62
    30
 10
-0.0000000004561104
 20
1446.885447711677
 30
0.0
 11
-0.0000000004560855
 21
1853.318478128793
 31
0.0
  0
LINE
  5
F1D
  8
SIZE
  6
CONTINUOUS
 62
    30
 10
-140.000000000456
 20
1823.318478128793
 30
0.0
 11
-10.00000000045608
 21
1823.318478128793
 31
0.0
  0
CIRCLE
  5
F1E
  8
SIZE
  6
CONTINUOUS
 62
    30
 10
-150.000000000456
 20
1823.318478128793
 30
0.0
 40
5.0
  0
LINE
  5
F1F
  8
SIZE
  6
CONTINUOUS
 62
    30
 10
-145.000000000456
 20
1823.318478128793
 30
0.0
 11
-140.000000000456
 21
1823.318478128793
 31
0.0
  0
CIRCLE
  5
F20
  8
SIZE
  6
CONTINUOUS
 62
    30
 10
-0.0000000004560873
 20
1823.318478128793
 30
0.0
 40
5.0
  0
LINE
  5
F21
  8
SIZE
  6
CONTINUOUS
 62
    30
 10
-5.0000000004560867
 20
1823.318478128793
 30
0.0
 11
-10.00000000045608
 21
1823.318478128793
 31
0.0
  0
TEXT
  5
F22
  8
SIZE
  6
CONTINUOUS
 62
    30
 10
-133.9285714290275
 20
1838.318478128793
 30
0.0
 40
55.0
  1
150
 41
0.9
 72
     1
 11
-75.000000000456069
 21
1838.318478128793
 31
0.0
  0
POINT
  5
F23
  8
DEFPOINTS
  6
CONTINUOUS
 62
     7
 10
-150.00000000045611
 20
1426.885447711677
 30
0.0
  0
POINT
  5
F24
  8
DEFPOINTS
  6
CONTINUOUS
 62
     7
 10
-0.0000000004561116
 20
1426.885447711677
 30
0.0
  0
POINT
  5
F25
  8
DEFPOINTS
  6
CONTINUOUS
 62
     7
 10
-0.0000000004560873
 20
1823.318478128793
 30
0.0
  0
LINE
  5
F26
  8
SIZE
  6
CONTINUOUS
 62
    30
 10
-0.0000000004561104
 20
1446.885447711677
 30
0.0
 11
-0.0000000004560855
 21
1853.318478128793
 31
0.0
  0
LINE
  5
F27
  8
SIZE
  6
CONTINUOUS
 62
    30
 10
149.99999999954389
 20
1446.885447711677
 30
0.0
 11
149.99999999954389
 21
1853.318478128793
 31
0.0
  0
LINE
  5
F28
  8
SIZE
  6
CONTINUOUS
 62
    30
 10
9.9999999995439115
 20
1823.318478128793
 30
0.0
 11
139.99999999954389
 21
1823.318478128793
 31
0.0
  0
CIRCLE
  5
F29
  8
SIZE
  6
CONTINUOUS
 62
    30
 10
-0.0000000004560873
 20
1823.318478128793
 30
0.0
 40
5.0
  0
LINE
  5
F2A
  8
SIZE
  6
CONTINUOUS
 62
    30
 10
4.9999999995439124
 20
1823.318478128793
 30
0.0
 11
9.9999999995439115
 21
1823.318478128793
 31
0.0
  0
CIRCLE
  5
F2B
  8
SIZE
  6
CONTINUOUS
 62
    30
 10
149.99999999954389
 20
1823.318478128793
 30
0.0
 40
5.0
  0
LINE
  5
F2C
  8
SIZE
  6
CONTINUOUS
 62
    30
 10
144.99999999954389
 20
1823.318478128793
 30
0.0
 11
139.99999999954389
 21
1823.318478128793
 31
0.0
  0
TEXT
  5
F2D
  8
SIZE
  6
CONTINUOUS
 62
    30
 10
16.071428570972479
 20
1838.318478128793
 30
0.0
 40
55.0
  1
150
 41
0.9
 72
     1
 11
74.999999999543903
 21
1838.318478128793
 31
0.0
  0
POINT
  5
F2E
  8
DEFPOINTS
  6
CONTINUOUS
 62
     7
 10
-0.0000000004561116
 20
1426.885447711677
 30
0.0
  0
POINT
  5
F2F
  8
DEFPOINTS
  6
CONTINUOUS
 62
     7
 10
149.99999999954389
 20
1426.885447711677
 30
0.0
  0
POINT
  5
F30
  8
DEFPOINTS
  6
CONTINUOUS
 62
     7
 10
149.99999999954389
 20
1823.318478128793
 30
0.0
  0
LINE
  5
F31
  8
SIZE
  6
CONTINUOUS
 62
    30
 10
149.99999999954389
 20
1446.885447711677
 30
0.0
 11
149.99999999954389
 21
1853.318478128793
 31
0.0
  0
LINE
  5
F32
  8
SIZE
  6
CONTINUOUS
 62
    30
 10
299.99999999954377
 20
1446.885447711677
 30
0.0
 11
299.99999999954377
 21
1853.318478128793
 31
0.0
  0
LINE
  5
F33
  8
SIZE
  6
CONTINUOUS
 62
    30
 10
159.99999999954389
 20
1823.318478128793
 30
0.0
 11
289.99999999954389
 21
1823.318478128793
 31
0.0
  0
CIRCLE
  5
F34
  8
SIZE
  6
CONTINUOUS
 62
    30
 10
149.99999999954389
 20
1823.318478128793
 30
0.0
 40
5.0
  0
LINE
  5
F35
  8
SIZE
  6
CONTINUOUS
 62
    30
 10
154.99999999954389
 20
1823.318478128793
 30
0.0
 11
159.99999999954389
 21
1823.318478128793
 31
0.0
  0
CIRCLE
  5
F36
  8
SIZE
  6
CONTINUOUS
 62
    30
 10
299.99999999954377
 20
1823.318478128793
 30
0.0
 40
5.0
  0
LINE
  5
F37
  8
SIZE
  6
CONTINUOUS
 62
    30
 10
294.99999999954372
 20
1823.318478128793
 30
0.0
 11
289.99999999954377
 21
1823.318478128793
 31
0.0
  0
TEXT
  5
F38
  8
SIZE
  6
CONTINUOUS
 62
    30
 10
166.07142857097239
 20
1838.318478128793
 30
0.0
 40
55.0
  1
150
 41
0.9
 72
     1
 11
224.9999999995438
 21
1838.318478128793
 31
0.0
  0
POINT
  5
F39
  8
DEFPOINTS
  6
CONTINUOUS
 62
     7
 10
149.99999999954389
 20
1426.885447711677
 30
0.0
  0
POINT
  5
F3A
  8
DEFPOINTS
  6
CONTINUOUS
 62
     7
 10
299.99999999954377
 20
1426.885447711677
 30
0.0
  0
POINT
  5
F3B
  8
DEFPOINTS
  6
CONTINUOUS
 62
     7
 10
299.99999999954377
 20
1823.318478128793
 30
0.0
  0
TEXT
  5
F3C
  8
NOTE
  6
CONTINUOUS
 62
     4
 10
-719.71950055240814
 20
220.67569586735769
 30
0.0
 40
55.0
  1
RL %%C15.88
 50
359.99999749553132
 41
0.630952371610266
  7
STANDARD1
  0
LINE
  5
F3D
  8
NOTE
  6
CONTINUOUS
 62
     4
 10
-416.43587032165618
 20
210.1972489885525
 30
0.0
 11
-721.55021686208784
 21
210.1972489885525
 31
0.0
  0
TEXT
  5
F3E
  8
NOTE
  6
CONTINUOUS
 62
     4
 10
-709.57045893225995
 20
327.44904939030721
 30
0.0
 40
55.0
  1
RG %%C28.58
 50
359.99999749553132
 41
0.630952371610266
  7
STANDARD1
  0
LINE
  5
F3F
  8
NOTE
  6
CONTINUOUS
 62
     4
 10
-414.64706195956018
 20
311.506532871145
 30
0.0
 11
-728.25513411065504
 21
311.506532871145
 31
0.0
  0
LINE
  5
F40
  8
NOTE
  6
CONTINUOUS
 62
     4
 10
-416.43587032165618
 20
210.1972489885525
 30
0.0
 11
-230.00000000045611
 21
142.99999999991331
 31
0.0
  0
LINE
  5
F41
  8
NOTE
  6
CONTINUOUS
 62
     4
 10
-414.64706195956018
 20
311.506532871145
 30
0.0
 11
-235.0
 21
171.99999999991331
 31
0.0
  0
TEXT
  5
F42
  8
NOTE
  6
CONTINUOUS
 62
     4
 10
463.93108943015432
 20
-206.73701375524359
 30
0.0
 40
55.0
  1
AH 2X3-14X20長穴
 50
359.99999749553132
 41
0.630952371610266
  7
STANDARD1
  0
LINE
  5
F43
  8
NOTE
  6
CONTINUOUS
 62
     4
 10
949.12069182280163
 20
-220.13514509148729
 30
0.0
 11
452.99368191050081
 21
-220.13514509148729
 31
0.0
  0
LINE
  5
F44
  8
NOTE
  6
CONTINUOUS
 62
     4
 10
452.99368191050081
 20
-220.13514509148729
 30
0.0
 11
361.99999999954377
 21
-0.0000000000875317
 31
0.0
  0
TEXT
  5
F45
  8
NOTE
  6
CONTINUOUS
 62
     4
 10
-1041.4639738601029
 20
1446.5469028180801
 30
0.0
 40
55.0
  1
＜防雪ﾌ-ﾄﾞ（別売品）取付用穴＞
 50
0.0000025045208307
 41
0.638664588406537
  7
STANDARD1
  0
TEXT
  5
F46
  8
NOTE
  6
CONTINUOUS
 62
     4
 10
-1033.3590620366681
 20
1524.510695277439
 30
0.0
 40
55.0
  1
(樹脂部の開口加工必要）
 50
0.0000025045208307
 41
0.693661939237321
  7
STANDARD1
  0
TEXT
  5
F47
  8
NOTE
  6
CONTINUOUS
 62
     4
 10
-1035.517193510457
 20
1595.4500764122499
 30
0.0
 40
55.0
  1
2X9-%%c4.6
 50
0.0000025045208307
 41
0.603058486986669
  7
STANDARD1
  0
LINE
  5
F48
  8
NOTE
  6
CONTINUOUS
 62
     4
 10
-1051.169485770381
 20
1514.006300552312
 30
0.0
 11
-423.21218636416592
 21
1514.006300552312
 31
0.0
  0
LINE
  5
F49
  8
NOTE
  6
CONTINUOUS
 62
     4
 10
-423.21218636416592
 20
1514.006300552312
 30
0.0
 11
-300.00000000045611
 21
1409.9999672647759
 31
0.0
  0
LINE
  5
F4A
  8
NOTE
  6
CONTINUOUS
 62
     4
 10
-230.00356891180709
 20
143.0069898829266
 30
0.0
 11
-263.17222219994028
 21
146.31630873497181
 31
0.0
  0
LINE
  5
F4B
  8
NOTE
  6
CONTINUOUS
 62
     4
 10
-230.00356891180709
 20
143.0069898829266
 30
0.0
 11
-257.07380555922828
 21
162.4572711164989
 31
0.0
  0
LINE
  5
F4C
  8
NOTE
  6
CONTINUOUS
 62
     4
 10
-234.99999999998471
 20
171.99999999991331
 30
0.0
 11
-265.6603942747858
 21
185.0786610600768
 31
0.0
  0
LINE
  5
F4D
  8
NOTE
  6
CONTINUOUS
 62
     4
 10
-234.99999999998471
 20
171.99999999991331
 30
0.0
 11
-255.01334941353269
 21
198.6566501544927
 31
0.0
  0
LINE
  5
F4E
  8
NOTE
  6
CONTINUOUS
 62
     4
 10
361.99999999942918
 20
-0.0000000000065867
 30
0.0
 11
382.450248296393
 21
-26.322965197824711
 31
0.0
  0
LINE
  5
F4F
  8
NOTE
  6
CONTINUOUS
 62
     4
 10
361.99999999942918
 20
-0.0000000000065867
 30
0.0
 11
366.54895145826231
 21
-33.021480779002772
 31
0.0
  0
LINE
  5
F50
  8
NOTE
  6
CONTINUOUS
 62
     4
 10
-300.00000000045611
 20
1409.9999672647759
 30
0.0
 11
-330.20221271290609
 21
1424.10448779845
 31
0.0
  0
LINE
  5
F51
  8
NOTE
  6
CONTINUOUS
 62
     4
 10
-300.00000000045611
 20
1409.9999672647759
 30
0.0
 11
-319.10362279510082
 21
1437.315946989698
 31
0.0
  0
LINE
  5
F52
  8
BASIS
  6
DASHDOT
 62
     6
 10
0.0
 20
1674.135475407169
 30
0.0
 11
0.0
 21
-54.054784504456819
 31
0.0
  0
LINE
  5
F53
  8
ARRANGE
  6
CONTINUOUS
 62
     1
 10
37.897321081808052
 20
-37.89732108180511
 30
0.0
 11
-37.897321081806687
 21
37.897321081810091
 31
0.0
  0
LINE
  5
F54
  8
ARRANGE
  6
CONTINUOUS
 62
     1
 10
37.897321081808052
 20
37.897321081810091
 30
0.0
 11
-37.897321081806687
 21
-37.897321081808727
 31
0.0
  0
CIRCLE
  5
F55
  8
ARRANGE
  6
CONTINUOUS
 62
     1
 10
0.0
 20
0.0000000000025083
 30
0.0
 40
34.449674114384848
  0
LINE
  5
F57
  8
OUTLINE
  6
CONTINUOUS
 62
     3
 10
375.61348880519881
 20
58.517680679358598
 30
0.0
 11
375.61348880519881
 21
1369.913909239167
 31
0.0
  0
LINE
  5
F58
  8
OUTLINE
  6
CONTINUOUS
 62
     3
 10
375.61348880519881
 20
1369.913909239167
 30
0.0
 11
379.99999999954338
 21
1369.913909239167
 31
0.0
  0
LINE
  5
F59
  8
OUTLINE
  6
CONTINUOUS
 62
     3
 10
379.99999999954338
 20
1369.913909239167
 30
0.0
 11
379.99999999954338
 21
1409.9999672647759
 31
0.0
  0
LINE
  5
F5A
  8
OUTLINE
  6
CONTINUOUS
 62
     3
 10
379.99999999954338
 20
1409.9999672647759
 30
0.0
 11
-380.000000000456
 21
1409.9999672647759
 31
0.0
  0
LINE
  5
F5B
  8
OUTLINE
  6
CONTINUOUS
 62
     3
 10
-380.000000000456
 20
1409.9999672647759
 30
0.0
 11
-380.000000000456
 21
1369.913909239167
 31
0.0
  0
LINE
  5
F5C
  8
OUTLINE
  6
CONTINUOUS
 62
     3
 10
-380.000000000456
 20
1369.913909239167
 30
0.0
 11
-375.61348880611081
 21
1369.913909239167
 31
0.0
  0
LINE
  5
F5D
  8
OUTLINE
  6
CONTINUOUS
 62
     3
 10
-375.61348880611081
 20
1369.913909239167
 30
0.0
 11
-375.61348880611081
 21
58.517680679359508
 31
0.0
  0
LINE
  5
F5E
  8
OUTLINE
  6
CONTINUOUS
 62
     3
 10
-375.41342835933398
 20
58.517680679358598
 30
0.0
 11
-375.41342835933398
 21
53.216078840036751
 31
0.0
  0
LINE
  5
F5F
  8
OUTLINE
  6
CONTINUOUS
 62
     3
 10
-375.41342835933398
 20
53.216078840036751
 30
0.0
 11
-368.41131272247497
 21
53.216078840035841
 31
0.0
  0
LINE
  5
F60
  8
OUTLINE
  6
CONTINUOUS
 62
     3
 10
-368.41131272247497
 20
53.216078840035841
 30
0.0
 11
-368.41131272247497
 21
54.016320627086102
 31
0.0
  0
LINE
  5
F61
  8
OUTLINE
  6
CONTINUOUS
 62
     3
 10
-368.41131272247497
 20
54.016320627086102
 30
0.0
 11
-373.78893753159002
 21
54.016320627086102
 31
0.0
  0
LINE
  5
F62
  8
OUTLINE
  6
CONTINUOUS
 62
     3
 10
-373.78893753159002
 20
54.016320627086102
 30
0.0
 11
-373.78893753159002
 21
58.517680679358598
 31
0.0
  0
LINE
  5
F63
  8
OUTLINE
  6
CONTINUOUS
 62
     3
 10
-287.58133705053052
 20
45.997579965564682
 30
0.0
 11
282.5798258804283
 21
45.997579965564682
 31
0.0
  0
ARC
  5
F64
  8
OUTLINE
  6
CONTINUOUS
 62
     3
 10
366.61076837766882
 20
64.014597560464381
 30
0.0
 40
8.0024178706924562
 50
273.73139931697978
 51
316.60278230335012
  0
LINE
  5
F65
  8
OUTLINE
  6
CONTINUOUS
 62
     3
 10
294.1303211599697
 20
53.999997836280052
 30
0.0
 11
328.59928377772019
 21
54.000000483986483
 31
0.0
  0
LINE
  5
F66
  8
OUTLINE
  6
CONTINUOUS
 62
     3
 10
367.1315591524039
 20
56.029143988708498
 30
0.0
 11
328.5992837777157
 21
54.000000483986483
 31
0.0
  0
LINE
  5
F67
  8
OUTLINE
  6
CONTINUOUS
 62
     3
 10
286.91126161034111
 20
48.498335550149712
 30
0.0
 11
288.06631113820771
 21
50.49894001783624
 31
0.0
  0
ARC
  5
F68
  8
OUTLINE
  6
CONTINUOUS
 62
     3
 10
294.1303211599697
 20
46.997882199423437
 30
0.0
 40
7.002115636856467
 50
90.0
 51
149.9999999999896
  0
ARC
  5
F69
  8
OUTLINE
  6
CONTINUOUS
 62
     3
 10
282.5798258804283
 20
50.999091134766552
 30
0.0
 40
5.0015111691832059
 50
270.0
 51
329.99999999998971
  0
LINE
  5
F6A
  8
OUTLINE
  6
CONTINUOUS
 62
     3
 10
-297.97678077228511
 20
53.999999999910642
 30
0.0
 11
-328.59928381579812
 21
53.999999999910642
 31
0.0
  0
LINE
  5
F6B
  8
OUTLINE
  6
CONTINUOUS
 62
     3
 10
-291.91277278042878
 20
48.498335550149712
 30
0.0
 11
-293.6453470722949
 21
51.499242251665002
 31
0.0
  0
ARC
  5
F6C
  8
OUTLINE
  6
CONTINUOUS
 62
     3
 10
-287.5813366088978
 20
50.99909189970073
 30
0.0
 40
5.0015098942980281
 50
210.00000505897091
 51
270.0
  0
ARC
  5
F6D
  8
OUTLINE
  6
CONTINUOUS
 62
     3
 10
-297.97678077228511
 20
48.998490183035528
 30
0.0
 40
5.001509816874715
 50
29.99997674602923
 51
90.0
  0
ARC
  5
F6E
  8
OUTLINE
  6
CONTINUOUS
 62
     3
 10
-366.61076870156779
 20
64.014597581571024
 30
0.0
 40
8.0024178706930051
 50
223.38576755306659
 51
266.26860300079431
  0
LINE
  5
F6F
  8
OUTLINE
  6
CONTINUOUS
 62
     3
 10
-367.1315591533197
 20
56.029143988708498
 30
0.0
 11
-328.59928381578118
 21
53.99999999990974
 31
0.0
  0
LINE
  5
F70
  8
OUTLINE
  6
CONTINUOUS
 62
     3
 10
324.99999999954377
 20
54.000000207510091
 30
0.0
 11
324.99999999954377
 21
-0.0000000000965841
 31
0.0
  0
LINE
  5
F71
  8
OUTLINE
  6
CONTINUOUS
 62
     3
 10
324.99999999954377
 20
46.814144543480978
 30
0.0
 11
328.00090670106027
 21
46.814144543480097
 31
0.0
  0
LINE
  5
F72
  8
OUTLINE
  6
CONTINUOUS
 62
     3
 10
328.00090670106027
 20
46.814144543480097
 30
0.0
 11
328.00090670106027
 21
7.2021760835475597
 31
0.0
  0
LINE
  5
F73
  8
OUTLINE
  6
CONTINUOUS
 62
     3
 10
324.99999999954377
 20
2.3006951377508398
 30
0.0
 11
379.99999999954338
 21
2.3006951377508398
 31
0.0
  0
LINE
  5
F74
  8
OUTLINE
  6
CONTINUOUS
 62
     3
 10
379.99999999954338
 20
2.3006951377508398
 30
0.0
 11
379.99999999954338
 21
-0.0000000000875317
 31
0.0
  0
LINE
  5
F75
  8
OUTLINE
  6
CONTINUOUS
 62
     3
 10
379.99999999954338
 20
-0.0000000000875317
 30
0.0
 11
305.0015111687303
 21
-0.0000000000875317
 31
0.0
  0
ARC
  5
F76
  8
OUTLINE
  6
CONTINUOUS
 62
     3
 10
305.0015111687303
 20
5.001511169096152
 30
0.0
 40
5.0015111691832921
 50
180.0
 51
270.0
  0
LINE
  5
F77
  8
OUTLINE
  6
CONTINUOUS
 62
     3
 10
299.99999999954377
 20
5.0015111690834191
 30
0.0
 11
299.99999999954377
 21
53.99999828715476
 31
0.0
  0
LINE
  5
F78
  8
OUTLINE
  6
CONTINUOUS
 62
     3
 10
-325.00000000045611
 20
53.999999999912461
 30
0.0
 11
-325.00000000045611
 21
-0.0000000000968683
 31
0.0
  0
LINE
  5
F79
  8
OUTLINE
  6
CONTINUOUS
 62
     3
 10
-325.00000000045611
 20
46.814144543480978
 30
0.0
 11
-328.00090670197091
 21
46.814144543480978
 31
0.0
  0
LINE
  5
F7A
  8
OUTLINE
  6
CONTINUOUS
 62
     3
 10
-328.00090670197091
 20
46.814144543480978
 30
0.0
 11
-328.00090670197091
 21
7.2021760835475597
 31
0.0
  0
LINE
  5
F7B
  8
OUTLINE
  6
CONTINUOUS
 62
     3
 10
-325.00000000045611
 20
2.3006951377508398
 30
0.0
 11
-380.000000000456
 21
2.3006951377508398
 31
0.0
  0
LINE
  5
F7C
  8
OUTLINE
  6
CONTINUOUS
 62
     3
 10
-380.000000000456
 20
2.3006951377508398
 30
0.0
 11
-380.000000000456
 21
-0.0000000000875317
 31
0.0
  0
LINE
  5
F7D
  8
OUTLINE
  6
CONTINUOUS
 62
     3
 10
-380.000000000456
 20
-0.0000000000875317
 30
0.0
 11
-305.00151116964111
 21
-0.0000000001002646
 31
0.0
  0
ARC
  5
F7E
  8
OUTLINE
  6
CONTINUOUS
 62
     3
 10
-305.00151116964111
 20
5.0015111690834191
 30
0.0
 40
5.0015111691832921
 50
270.0
 51
0.000000000000007
  0
LINE
  5
F7F
  8
OUTLINE
  6
CONTINUOUS
 62
     3
 10
-300.00000000045787
 20
5.0015111690834191
 30
0.0
 11
-300.00000000045787
 21
53.999999999912461
 31
0.0
  0
LINE
  5
F80
  8
OUTLINE
  6
CONTINUOUS
 62
     3
 10
320.09671482737389
 20
1641.609399999121
 30
0.0
 11
300.09067015062777
 21
1641.609399999121
 31
0.0
  0
LINE
  5
F81
  8
OUTLINE
  6
CONTINUOUS
 62
     3
 10
300.09067015062777
 20
1642.3096115628271
 30
0.0
 11
280.08462547389848
 21
1642.3096115628271
 31
0.0
  0
LINE
  5
F82
  8
OUTLINE
  6
CONTINUOUS
 62
     3
 10
280.08462547389848
 20
1643.009823126504
 30
0.0
 11
260.0785807971701
 21
1643.009823126504
 31
0.0
  0
LINE
  5
F83
  8
OUTLINE
  6
CONTINUOUS
 62
     3
 10
260.0785807971701
 20
1643.7100346901809
 30
0.0
 11
240.07253612044079
 21
1643.7100346901809
 31
0.0
  0
LINE
  5
F84
  8
OUTLINE
  6
CONTINUOUS
 62
     3
 10
240.07253612044079
 20
1644.4102462538581
 30
0.0
 11
220.0664914437111
 21
1644.4102462538581
 31
0.0
  0
LINE
  5
F85
  8
OUTLINE
  6
CONTINUOUS
 62
     3
 10
220.0664914437111
 20
1645.1104578175641
 30
0.0
 11
200.0604467669659
 21
1645.1104578175641
 31
0.0
  0
LINE
  5
F86
  8
OUTLINE
  6
CONTINUOUS
 62
     3
 10
200.0604467669659
 20
1645.810669381241
 30
0.0
 11
180.05440209023789
 21
1645.810669381241
 31
0.0
  0
LINE
  5
F87
  8
OUTLINE
  6
CONTINUOUS
 62
     3
 10
180.05440209023789
 20
1646.510880944918
 30
0.0
 11
160.04835741350681
 21
1646.510880944918
 31
0.0
  0
LINE
  5
F88
  8
OUTLINE
  6
CONTINUOUS
 62
     3
 10
366.93105967748528
 20
1416.6236587626611
 30
0.0
 11
361.10910641456888
 21
1549.9817153796989
 31
0.0
  0
LINE
  5
F89
  8
OUTLINE
  6
CONTINUOUS
 62
     3
 10
367.66762464388421
 20
1413.788779213811
 30
0.0
 11
368.05236695300073
 21
1413.11713725661
 31
0.0
  0
LINE
  5
F8A
  8
OUTLINE
  6
CONTINUOUS
 62
     3
 10
368.05236695300073
 20
1413.11713725661
 30
0.0
 11
368.5088903035051
 21
1412.4920644669489
 31
0.0
  0
LINE
  5
F8B
  8
OUTLINE
  6
CONTINUOUS
 62
     3
 10
368.5088903035051
 20
1412.4920644669489
 30
0.0
 11
369.03161609809462
 21
1411.921199071634
 31
0.0
  0
LINE
  5
F8C
  8
OUTLINE
  6
CONTINUOUS
 62
     3
 10
369.03161609809462
 20
1411.921199071634
 30
0.0
 11
369.61415676340351
 21
1411.411516895665
 31
0.0
  0
LINE
  5
F8D
  8
OUTLINE
  6
CONTINUOUS
 62
     3
 10
369.61415676340351
 20
1411.411516895665
 30
0.0
 11
370.24939381282582
 21
1410.969246114581
 31
0.0
  0
LINE
  5
F8E
  8
OUTLINE
  6
CONTINUOUS
 62
     3
 10
370.24939381282582
 20
1410.969246114581
 30
0.0
 11
370.9295648285173
 21
1410.5997911569009
 31
0.0
  0
LINE
  5
F8F
  8
OUTLINE
  6
CONTINUOUS
 62
     3
 10
370.9295648285173
 20
1410.5997911569009
 30
0.0
 11
371.6463582832921
 21
1410.3076666760901
 31
0.0
  0
LINE
  5
F90
  8
OUTLINE
  6
CONTINUOUS
 62
     3
 10
371.6463582832921
 20
1410.3076666760901
 30
0.0
 11
372.39101510027052
 21
1410.0964423660459
 31
0.0
  0
LINE
  5
F91
  8
OUTLINE
  6
CONTINUOUS
 62
     3
 10
372.39101510027052
 20
1410.0964423660459
 30
0.0
 11
372.96757158173881
 21
1409.9999672647759
 31
0.0
  0
LINE
  5
F92
  8
OUTLINE
  6
CONTINUOUS
 62
     3
 10
366.93110199347569
 20
1416.6226888397821
 30
0.0
 11
366.9863794528469
 21
1415.998809370589
 31
0.0
  0
LINE
  5
F93
  8
OUTLINE
  6
CONTINUOUS
 62
     3
 10
366.9863794528469
 20
1415.998809370589
 30
0.0
 11
367.1313543532342
 21
1415.2384727065421
 31
0.0
  0
LINE
  5
F94
  8
OUTLINE
  6
CONTINUOUS
 62
     3
 10
367.1313543532342
 20
1415.2384727065421
 30
0.0
 11
367.35936482618479
 21
1414.498783050238
 31
0.0
  0
LINE
  5
F95
  8
OUTLINE
  6
CONTINUOUS
 62
     3
 10
367.35936482618479
 20
1414.498783050238
 30
0.0
 11
367.66762464388421
 21
1413.788779213811
 31
0.0
  0
ARC
  5
F96
  8
OUTLINE
  6
CONTINUOUS
 62
     3
 10
186.1963138677296
 20
1542.9795997428409
 30
0.0
 40
175.0528909214085
 50
2.2924427716244229
 51
32.025931703319529
  0
LINE
  5
F97
  8
OUTLINE
  6
CONTINUOUS
 62
     3
 10
320.09671482737389
 20
1641.609399999121
 30
0.0
 11
320.09671482737389
 21
1640.509067671954
 31
0.0
  0
LINE
  5
F98
  8
OUTLINE
  6
CONTINUOUS
 62
     3
 10
300.09067015062777
 20
1642.3096115628271
 30
0.0
 11
300.09067015062777
 21
1641.609399999121
 31
0.0
  0
LINE
  5
F99
  8
OUTLINE
  6
CONTINUOUS
 62
     3
 10
320.09671482737389
 20
1640.509067671954
 30
0.0
 11
326.12694111402601
 21
1640.509067671954
 31
0.0
  0
ARC
  5
F9A
  8
OUTLINE
  6
CONTINUOUS
 62
     3
 10
326.12694111402601
 20
1630.506045333583
 30
0.0
 40
10.00302233836611
 50
32.025931703319529
 51
90.0
  0
LINE
  5
F9B
  8
OUTLINE
  6
CONTINUOUS
 62
     3
 10
280.08462547389848
 20
1643.009823126504
 30
0.0
 11
280.08462547389848
 21
1642.3096115628271
 31
0.0
  0
LINE
  5
F9C
  8
OUTLINE
  6
CONTINUOUS
 62
     3
 10
260.0785807971701
 20
1643.7100346901809
 30
0.0
 11
260.0785807971701
 21
1643.009823126504
 31
0.0
  0
LINE
  5
F9D
  8
OUTLINE
  6
CONTINUOUS
 62
     3
 10
240.07253612044079
 20
1644.4102462538581
 30
0.0
 11
240.07253612044079
 21
1643.7100346901809
 31
0.0
  0
LINE
  5
F9E
  8
OUTLINE
  6
CONTINUOUS
 62
     3
 10
220.0664914437111
 20
1645.1104578175641
 30
0.0
 11
220.0664914437111
 21
1644.4102462538581
 31
0.0
  0
LINE
  5
F9F
  8
OUTLINE
  6
CONTINUOUS
 62
     3
 10
200.0604467669659
 20
1645.810669381241
 30
0.0
 11
200.0604467669659
 21
1645.1104578175641
 31
0.0
  0
LINE
  5
FA0
  8
OUTLINE
  6
CONTINUOUS
 62
     3
 10
180.05440209023789
 20
1646.510880944918
 30
0.0
 11
180.05440209023789
 21
1645.810669381241
 31
0.0
  0
LINE
  5
FA1
  8
OUTLINE
  6
CONTINUOUS
 62
     3
 10
160.04835741350681
 20
1647.211092508624
 30
0.0
 11
140.04231273677701
 21
1647.211092508624
 31
0.0
  0
LINE
  5
FA2
  8
OUTLINE
  6
CONTINUOUS
 62
     3
 10
140.04231273677701
 20
1647.9113040723009
 30
0.0
 11
120.0362680600492
 21
1647.9113040723009
 31
0.0
  0
LINE
  5
FA3
  8
OUTLINE
  6
CONTINUOUS
 62
     3
 10
120.0362680600492
 20
1648.6115156359781
 30
0.0
 11
100.030223383304
 21
1648.6115156359781
 31
0.0
  0
LINE
  5
FA4
  8
OUTLINE
  6
CONTINUOUS
 62
     3
 10
100.030223383304
 20
1649.311727199655
 30
0.0
 11
80.024178706575654
 21
1649.311727199655
 31
0.0
  0
LINE
  5
FA5
  8
OUTLINE
  6
CONTINUOUS
 62
     3
 10
-80.024178707276405
 20
1649.9999672647771
 30
0.0
 11
80.024178706575654
 21
1649.9999672647771
 31
0.0
  0
LINE
  5
FA6
  8
OUTLINE
  6
CONTINUOUS
 62
     3
 10
160.04835741350681
 20
1647.211092508624
 30
0.0
 11
160.04835741350681
 21
1646.510880944918
 31
0.0
  0
LINE
  5
FA7
  8
OUTLINE
  6
CONTINUOUS
 62
     3
 10
140.04231273677701
 20
1647.9113040723009
 30
0.0
 11
140.04231273677701
 21
1647.211092508624
 31
0.0
  0
LINE
  5
FA8
  8
OUTLINE
  6
CONTINUOUS
 62
     3
 10
120.0362680600492
 20
1648.6115156359781
 30
0.0
 11
120.0362680600492
 21
1647.9113040723009
 31
0.0
  0
LINE
  5
FA9
  8
OUTLINE
  6
CONTINUOUS
 62
     3
 10
100.030223383304
 20
1649.311727199655
 30
0.0
 11
100.030223383304
 21
1648.6115156359781
 31
0.0
  0
LINE
  5
FAA
  8
OUTLINE
  6
CONTINUOUS
 62
     3
 10
80.024178706575654
 20
1649.311727199655
 30
0.0
 11
80.024178706575654
 21
1649.9999672647771
 31
0.0
  0
LINE
  5
FAB
  8
OUTLINE
  6
CONTINUOUS
 62
     3
 10
-80.024178707276405
 20
1649.311727199655
 30
0.0
 11
-80.024178707276405
 21
1649.9999672647771
 31
0.0
  0
LINE
  5
FAC
  8
OUTLINE
  6
CONTINUOUS
 62
     3
 10
-100.0302233840188
 20
1649.311727199655
 30
0.0
 11
-100.0302233840188
 21
1648.6115156359781
 31
0.0
  0
LINE
  5
FAD
  8
OUTLINE
  6
CONTINUOUS
 62
     3
 10
-366.88929144944223
 20
1417.5803084860891
 30
0.0
 11
-361.10910641546792
 21
1549.9817153796989
 31
0.0
  0
LINE
  5
FAE
  8
OUTLINE
  6
CONTINUOUS
 62
     3
 10
-373.858818519664
 20
1409.9999672647759
 30
0.0
 11
-373.24728553288492
 21
1410.095191563727
 31
0.0
  0
LINE
  5
FAF
  8
OUTLINE
  6
CONTINUOUS
 62
     3
 10
-373.24728553288492
 20
1410.095191563727
 30
0.0
 11
-372.45018507864
 21
1410.3051249092171
 31
0.0
  0
LINE
  5
FB0
  8
OUTLINE
  6
CONTINUOUS
 62
     3
 10
-372.45018507864
 20
1410.3051249092171
 30
0.0
 11
-371.6789084005722
 21
1410.595940268689
 31
0.0
  0
LINE
  5
FB1
  8
OUTLINE
  6
CONTINUOUS
 62
     3
 10
-371.6789084005722
 20
1410.595940268689
 30
0.0
 11
-370.94163869244898
 21
1410.9645521287041
 31
0.0
  0
LINE
  5
FB2
  8
OUTLINE
  6
CONTINUOUS
 62
     3
 10
-370.94163869244898
 20
1410.9645521287041
 30
0.0
 11
-370.24619831332888
 21
1411.4070495541951
 31
0.0
  0
LINE
  5
FB3
  8
OUTLINE
  6
CONTINUOUS
 62
     3
 10
-370.24619831332888
 20
1411.4070495541951
 30
0.0
 11
-369.59996577090891
 21
1411.9187377141391
 31
0.0
  0
LINE
  5
FB4
  8
OUTLINE
  6
CONTINUOUS
 62
     3
 10
-369.59996577090891
 20
1411.9187377141391
 30
0.0
 11
-369.00979748136888
 21
1412.494187683166
 31
0.0
  0
LINE
  5
FB5
  8
OUTLINE
  6
CONTINUOUS
 62
     3
 10
-369.00979748136888
 20
1412.494187683166
 30
0.0
 11
-368.48195503852719
 21
1413.127294028209
 31
0.0
  0
LINE
  5
FB6
  8
OUTLINE
  6
CONTINUOUS
 62
     3
 10
-368.48195503852719
 20
1413.127294028209
 30
0.0
 11
-368.022038774468
 21
1413.811339584832
 31
0.0
  0
LINE
  5
FB7
  8
OUTLINE
  6
CONTINUOUS
 62
     3
 10
-368.022038774468
 20
1413.811339584832
 30
0.0
 11
-367.63492833283811
 21
1414.53906673097
 31
0.0
  0
LINE
  5
FB8
  8
OUTLINE
  6
CONTINUOUS
 62
     3
 10
-367.63492833283811
 20
1414.53906673097
 30
0.0
 11
-367.3247308966038
 21
1415.3027543916851
 31
0.0
  0
LINE
  5
FB9
  8
OUTLINE
  6
CONTINUOUS
 62
     3
 10
-367.3247308966038
 20
1415.3027543916851
 30
0.0
 11
-367.09473761316212
 21
1416.0942999574399
 31
0.0
  0
LINE
  5
FBA
  8
OUTLINE
  6
CONTINUOUS
 62
     3
 10
-367.09473761316212
 20
1416.0942999574399
 30
0.0
 11
-366.947388676282
 21
1416.90530525043
 31
0.0
  0
LINE
  5
FBB
  8
OUTLINE
  6
CONTINUOUS
 62
     3
 10
-366.947388676282
 20
1416.90530525043
 30
0.0
 11
-366.88933289616392
 21
1417.5793584764581
 31
0.0
  0
LINE
  5
FBC
  8
OUTLINE
  6
CONTINUOUS
 62
     3
 10
-120.0362680607499
 20
1648.6115156359781
 30
0.0
 11
-120.0362680607499
 21
1647.9113040723009
 31
0.0
  0
LINE
  5
FBD
  8
OUTLINE
  6
CONTINUOUS
 62
     3
 10
-140.04231273747791
 20
1647.9113040723009
 30
0.0
 11
-140.04231273747791
 21
1647.211092508624
 31
0.0
  0
LINE
  5
FBE
  8
OUTLINE
  6
CONTINUOUS
 62
     3
 10
-160.04835741420899
 20
1647.211092508624
 30
0.0
 11
-160.04835741420899
 21
1646.510880944918
 31
0.0
  0
LINE
  5
FBF
  8
OUTLINE
  6
CONTINUOUS
 62
     3
 10
-180.0544020909378
 20
1646.510880944918
 30
0.0
 11
-180.0544020909378
 21
1645.810669381241
 31
0.0
  0
LINE
  5
FC0
  8
OUTLINE
  6
CONTINUOUS
 62
     3
 10
-200.06044676768209
 20
1645.810669381241
 30
0.0
 11
-200.06044676768209
 21
1645.1104578175641
 31
0.0
  0
LINE
  5
FC1
  8
OUTLINE
  6
CONTINUOUS
 62
     3
 10
-220.0664914444109
 20
1645.1104578175641
 30
0.0
 11
-220.0664914444109
 21
1644.4102462538581
 31
0.0
  0
LINE
  5
FC2
  8
OUTLINE
  6
CONTINUOUS
 62
     3
 10
-240.07253612113979
 20
1644.4102462538581
 30
0.0
 11
-240.07253612113979
 21
1643.7100346901809
 31
0.0
  0
ARC
  5
FC3
  8
OUTLINE
  6
CONTINUOUS
 62
     3
 10
-186.1963138685349
 20
1542.9795997428409
 30
0.0
 40
175.0528909214089
 50
147.9740682966804
 51
177.7075572201361
  0
LINE
  5
FC4
  8
OUTLINE
  6
CONTINUOUS
 62
     3
 10
-260.07858079787002
 20
1643.7100346901809
 30
0.0
 11
-260.07858079787002
 21
1643.009823126504
 31
0.0
  0
LINE
  5
FC5
  8
OUTLINE
  6
CONTINUOUS
 62
     3
 10
-280.08462547459879
 20
1643.009823126504
 30
0.0
 11
-280.08462547459879
 21
1642.3096115628271
 31
0.0
  0
LINE
  5
FC6
  8
OUTLINE
  6
CONTINUOUS
 62
     3
 10
-300.09067015134491
 20
1642.3096115628271
 30
0.0
 11
-300.09067015134491
 21
1641.609399999121
 31
0.0
  0
LINE
  5
FC7
  8
OUTLINE
  6
CONTINUOUS
 62
     3
 10
-320.0967148280738
 20
1641.609399999121
 30
0.0
 11
-320.0967148280738
 21
1640.509067671954
 31
0.0
  0
LINE
  5
FC8
  8
OUTLINE
  6
CONTINUOUS
 62
     3
 10
-320.0967148280738
 20
1640.509067671954
 30
0.0
 11
-326.12694111472598
 21
1640.509067671954
 31
0.0
  0
ARC
  5
FC9
  8
OUTLINE
  6
CONTINUOUS
 62
     3
 10
-326.12694111472598
 20
1630.506045333583
 30
0.0
 40
10.00302233836606
 50
90.0
 51
147.9740682966804
  0
LINE
  5
FCA
  8
OUTLINE
  6
CONTINUOUS
 62
     3
 10
-300.09067015134491
 20
1641.609399999121
 30
0.0
 11
-320.0967148280738
 21
1641.609399999121
 31
0.0
  0
LINE
  5
FCB
  8
OUTLINE
  6
CONTINUOUS
 62
     3
 10
-280.08462547459879
 20
1642.3096115628271
 30
0.0
 11
-300.09067015134491
 21
1642.3096115628271
 31
0.0
  0
LINE
  5
FCC
  8
OUTLINE
  6
CONTINUOUS
 62
     3
 10
-260.07858079787002
 20
1643.009823126504
 30
0.0
 11
-280.08462547459879
 21
1643.009823126504
 31
0.0
  0
LINE
  5
FCD
  8
OUTLINE
  6
CONTINUOUS
 62
     3
 10
-240.07253612113979
 20
1643.7100346901809
 30
0.0
 11
-260.07858079787002
 21
1643.7100346901809
 31
0.0
  0
LINE
  5
FCE
  8
OUTLINE
  6
CONTINUOUS
 62
     3
 10
-220.0664914444109
 20
1644.4102462538581
 30
0.0
 11
-240.07253612113979
 21
1644.4102462538581
 31
0.0
  0
LINE
  5
FCF
  8
OUTLINE
  6
CONTINUOUS
 62
     3
 10
-200.06044676768209
 20
1645.1104578175641
 30
0.0
 11
-220.0664914444109
 21
1645.1104578175641
 31
0.0
  0
LINE
  5
FD0
  8
OUTLINE
  6
CONTINUOUS
 62
     3
 10
-180.0544020909378
 20
1645.810669381241
 30
0.0
 11
-200.06044676768209
 21
1645.810669381241
 31
0.0
  0
LINE
  5
FD1
  8
OUTLINE
  6
CONTINUOUS
 62
     3
 10
-160.04835741420899
 20
1646.510880944918
 30
0.0
 11
-180.0544020909378
 21
1646.510880944918
 31
0.0
  0
LINE
  5
FD2
  8
OUTLINE
  6
CONTINUOUS
 62
     3
 10
-140.04231273747791
 20
1647.211092508624
 30
0.0
 11
-160.04835741420899
 21
1647.211092508624
 31
0.0
  0
LINE
  5
FD3
  8
OUTLINE
  6
CONTINUOUS
 62
     3
 10
-120.0362680607499
 20
1647.9113040723009
 30
0.0
 11
-140.04231273747791
 21
1647.9113040723009
 31
0.0
  0
LINE
  5
FD4
  8
OUTLINE
  6
CONTINUOUS
 62
     3
 10
-100.0302233840188
 20
1648.6115156359781
 30
0.0
 11
-120.0362680607499
 21
1648.6115156359781
 31
0.0
  0
LINE
  5
FD5
  8
OUTLINE
  6
CONTINUOUS
 62
     3
 10
-80.024178707276405
 20
1649.311727199655
 30
0.0
 11
-100.0302233840188
 21
1649.311727199655
 31
0.0
  0
TEXT
  5
FD6
  8
ETC
  6
CONTINUOUS
 62
    61
 10
165.95552751965619
 20
2025.8241804898621
 30
0.0
 40
65.0
  1
PUHY-P500_560CM-E3_4
 50
0.0000025044165917
 41
0.8
  7
STANDARD1
  0
LINE
  5
FD7
  8
OUTLINE
  6
CONTINUOUS
 62
     3
 10
-328.00090670197091
 20
7.2021760835475597
 30
0.0
 11
-325.00000000045611
 21
7.2021760835475597
 31
0.0
  0
LINE
  5
FD9
  8
OUTLINE
  6
CONTINUOUS
 62
     3
 10
328.00090670106027
 20
7.2021760835475597
 30
0.0
 11
324.99999999954377
 21
7.2021760835475597
 31
0.0
  0
LINE
  5
FFC
  8
OUTLINE
  6
CONTINUOUS
 62
     3
 10
-372.42648765135772
 20
58.517679820296983
 30
0.0
 11
-375.61349268559343
 21
58.517679820296991
 31
0.0
  0
LINE
  5
1002
  8
OUTLINE
  6
CONTINUOUS
 62
     3
 10
372.42539122726629
 20
58.516515762819807
 30
0.0
 11
375.61348880519881
 21
58.517680679358598
 31
0.0
  0
ENDSEC
  0
EOF
