  0
SECTION
  2
HEADER
  9
$ACADVER
  1
AC1009
  9
$INSBASE
 10
0.0
 20
0.0
 30
0.0
  9
$EXTMIN
 10
-1280.4565200121799
 20
-825.7049397282608
 30
-0.0000000349181948
  9
$EXTMAX
 10
1428.497330784445
 20
847.00471106567784
 30
0.0000000814935747
  9
$LIMMIN
 10
-4200.0
 20
-2970.0
  9
$LIMMAX
 10
4200.0
 20
2970.0
  9
$ORTHOMODE
 70
     1
  9
$REGENMODE
 70
     1
  9
$FILLMODE
 70
     1
  9
$QTEXTMODE
 70
     0
  9
$MIRRTEXT
 70
     0
  9
$DRAGMODE
 70
     2
  9
$LTSCALE
 40
20.0
  9
$OSMODE
 70
   431
  9
$ATTMODE
 70
     1
  9
$TEXTSIZE
 40
64.0
  9
$TRACEWID
 40
0.05
  9
$TEXTSTYLE
  7
STANDARD
  9
$CLAYER
  8
SYMBOLLINE
  9
$CELTYPE
  6
CONTINUOUS
  9
$CECOLOR
 62
     7
  9
$DIMSCALE
 40
1.0
  9
$DIMASZ
 40
10.0
  9
$DIMEXO
 40
20.0
  9
$DIMDLI
 40
200.0
  9
$DIMRND
 40
0.0
  9
$DIMDLE
 40
0.0
  9
$DIMEXE
 40
30.0
  9
$DIMTP
 40
0.0
  9
$DIMTM
 40
0.0
  9
$DIMTXT
 40
55.0
  9
$DIMCEN
 40
0.0
  9
$DIMTSZ
 40
0.0
  9
$DIMTOL
 70
     0
  9
$DIMLIM
 70
     0
  9
$DIMTIH
 70
     0
  9
$DIMTOH
 70
     0
  9
$DIMSE1
 70
     0
  9
$DIMSE2
 70
     0
  9
$DIMTAD
 70
     1
  9
$DIMZIN
 70
     8
  9
$DIMBLK
  1

  9
$DIMASO
 70
     1
  9
$DIMSHO
 70
     0
  9
$DIMPOST
  1

  9
$DIMAPOST
  1

  9
$DIMALT
 70
     0
  9
$DIMALTD
 70
     2
  9
$DIMALTF
 40
25.399999999999999
  9
$DIMLFAC
 40
1.0
  9
$DIMTOFL
 70
     1
  9
$DIMTVP
 40
0.0
  9
$DIMTIX
 70
     1
  9
$DIMSOXD
 70
     0
  9
$DIMSAH
 70
     0
  9
$DIMBLK1
  1

  9
$DIMBLK2
  1

  9
$DIMSTYLE
  2
STANDARD
  9
$DIMCLRD
 70
     0
  9
$DIMCLRE
 70
     0
  9
$DIMCLRT
 70
     0
  9
$DIMTFAC
 40
1.0
  9
$DIMGAP
 40
0.09
  9
$LUNITS
 70
     2
  9
$LUPREC
 70
     4
  9
$SKETCHINC
 40
0.1
  9
$FILLETRAD
 40
0.0
  9
$AUNITS
 70
     1
  9
$AUPREC
 70
     3
  9
$MENU
  1
ACAD
  9
$ELEVATION
 40
0.0
  9
$PELEVATION
 40
0.0
  9
$THICKNESS
 40
0.0
  9
$LIMCHECK
 70
     0
  9
$BLIPMODE
 70
     0
  9
$CHAMFERA
 40
0.0
  9
$CHAMFERB
 40
0.0
  9
$SKPOLY
 70
     0
  9
$TDCREATE
 40
2449761.4936226849
  9
$TDUPDATE
 40
2455250.6996018752
  9
$TDINDWG
 40
5.0553017130000004
  9
$TDUSRTIMER
 40
5.0553000694000003
  9
$USRTIMER
 70
     1
  9
$ANGBASE
 50
0.0
  9
$ANGDIR
 70
     0
  9
$PDMODE
 70
    35
  9
$PDSIZE
 40
100.0
  9
$PLINEWID
 40
0.0
  9
$COORDS
 70
     0
  9
$SPLFRAME
 70
     0
  9
$SPLINETYPE
 70
     6
  9
$SPLINESEGS
 70
     8
  9
$ATTDIA
 70
     0
  9
$ATTREQ
 70
     1
  9
$HANDLING
 70
     1
  9
$HANDSEED
  5
3DB
  9
$SURFTAB1
 70
     6
  9
$SURFTAB2
 70
     6
  9
$SURFTYPE
 70
     6
  9
$SURFU
 70
     6
  9
$SURFV
 70
     6
  9
$UCSNAME
  2

  9
$UCSORG
 10
0.0
 20
0.0
 30
0.0
  9
$UCSXDIR
 10
1.0
 20
0.0
 30
0.0
  9
$UCSYDIR
 10
0.0
 20
1.0
 30
0.0
  9
$PUCSNAME
  2

  9
$PUCSORG
 10
0.0
 20
0.0
 30
0.0
  9
$PUCSXDIR
 10
1.0
 20
0.0
 30
0.0
  9
$PUCSYDIR
 10
0.0
 20
1.0
 30
0.0
  9
$USERI1
 70
     0
  9
$USERI2
 70
     0
  9
$USERI3
 70
     0
  9
$USERI4
 70
     0
  9
$USERI5
 70
     0
  9
$USERR1
 40
20.0
  9
$USERR2
 40
0.0
  9
$USERR3
 40
0.0
  9
$USERR4
 40
0.0
  9
$USERR5
 40
0.0
  9
$WORLDVIEW
 70
     1
  9
$SHADEDGE
 70
     3
  9
$SHADEDIF
 70
    70
  9
$TILEMODE
 70
     1
  9
$MAXACTVP
 70
    64
  9
$PLIMCHECK
 70
     0
  9
$PEXTMIN
 10
1.0000000000000000E+020
 20
1.0000000000000000E+020
 30
1.0000000000000000E+020
  9
$PEXTMAX
 10
-1.0000000000000000E+020
 20
-1.0000000000000000E+020
 30
-1.0000000000000000E+020
  9
$PLIMMIN
 10
0.0
 20
0.0
  9
$PLIMMAX
 10
12.0
 20
9.0
  9
$UNITMODE
 70
     0
  9
$VISRETAIN
 70
     1
  9
$PLINEGEN
 70
     0
  9
$PSLTSCALE
 70
     1
  0
ENDSEC
  0
SECTION
  2
TABLES
  0
TABLE
  2
VPORT
 70
     1
  0
VPORT
  2
*ACTIVE
 70
     0
 10
0.0
 20
0.0
 11
1.0
 21
1.0
 12
0.0000000000001705
 22
0.0
 13
0.0
 23
0.0
 14
50.0
 24
50.0
 15
100.0
 25
100.0
 16
0.0
 26
0.0
 36
1.0
 17
0.0
 27
0.0
 37
0.0
 40
5985.0568900126418
 41
1.5481012658227851
 42
50.0
 43
0.0
 44
0.0
 50
0.0
 51
0.0
 71
     0
 72
  1000
 73
     1
 74
     0
 75
     0
 76
     0
 77
     0
 78
     0
  0
ENDTAB
  0
TABLE
  2
LTYPE
 70
     3
  0
LTYPE
  2
CONTINUOUS
 70
     0
  3
実線
 72
    65
 73
     0
 40
0.0
  0
LTYPE
  2
DASHDOT
 70
     0
  3
____ _ ____ _ ____ _ ____ _ ____ _ ____ _ ____
 72
    65
 73
     4
 40
5.5
 49
4.0
 49
-0.6
 49
0.3
 49
-0.6
  0
ENDTAB
  0
TABLE
  2
LAYER
 70
    12
  0
LAYER
  2
0
 70
     0
 62
     7
  6
CONTINUOUS
  0
LAYER
  2
SYMBOLLINE
 70
     0
 62
    15
  6
CONTINUOUS
  0
LAYER
  2
OUTLINE
 70
     0
 62
     3
  6
CONTINUOUS
  0
LAYER
  2
DETAIL
 70
     0
 62
     5
  6
CONTINUOUS
  0
LAYER
  2
BASIS
 70
     0
 62
     6
  6
DASHDOT
  0
LAYER
  2
SIZE
 70
     0
 62
    30
  6
CONTINUOUS
  0
LAYER
  2
NOTE
 70
     0
 62
     4
  6
CONTINUOUS
  0
LAYER
  2
ARRANGE
 70
     0
 62
     1
  6
CONTINUOUS
  0
LAYER
  2
FIX
 70
     0
 62
    11
  6
CONTINUOUS
  0
LAYER
  2
SERVICESPACE
 70
     0
 62
     2
  6
DASHDOT
  0
LAYER
  2
ETC
 70
     0
 62
    61
  6
CONTINUOUS
  0
LAYER
  2
DEFPOINTS
 70
     0
 62
     7
  6
CONTINUOUS
  0
ENDTAB
  0
TABLE
  2
STYLE
 70
     3
  0
STYLE
  2
STANDARD
 70
     0
 40
0.0
 41
0.9
 50
0.0
 71
     0
 42
64.0
  3
SIMPLEX
  4
BIGFONT
  0
STYLE
  2
ANNOTATIVE
 70
     0
 40
0.0
 41
1.0
 50
0.0
 71
     0
 42
0.2
  3
txt
  4

  0
STYLE
  2
STANDARD1
 70
     0
 40
0.0
 41
1.0
 50
0.0
 71
     0
 42
3.5
  3
MONOTXT
  4
BIGFONT
  0
ENDTAB
  0
TABLE
  2
VIEW
 70
     4
  0
VIEW
  2
ALL
 70
     0
 40
6056.2300320000013
 10
0.0
 20
58.11501599999999
 41
8400.0
 11
0.0
 21
0.0
 31
1.0
 12
0.0
 22
0.0
 32
0.0
 42
50.0
 43
0.0
 44
0.0
 50
0.0
 71
     0
  0
ENDTAB
  0
TABLE
  2
UCS
 70
     0
  0
ENDTAB
  0
TABLE
  2
APPID
 70
     3
  0
APPID
  2
ACAD
 70
     0
  0
APPID
  2
ACADANNOTATIVE
 70
     0
  0
APPID
  2
ACAD_MLEADERVER
 70
     0
  0
ENDTAB
  0
TABLE
  2
DIMSTYLE
 70
     3
  0
DIMSTYLE
  2
STANDARD
 70
     0
  3

  4

  5

  6

  7

 40
1.0
 41
0.18
 42
0.0625
 43
0.38
 44
0.18
 45
0.0
 46
0.0
 47
0.0
 48
0.0
140
0.18
141
0.09
142
0.0
143
25.399999999999999
144
1.0
145
0.0
146
1.0
147
0.09
 71
     0
 72
     0
 73
     1
 74
     1
 75
     0
 76
     0
 77
     0
 78
     0
170
     0
171
     2
172
     0
173
     0
174
     0
175
     0
176
     0
177
     0
178
     0
  0
DIMSTYLE
  2
ANNOTATIVE
 70
     0
  3

  4

  5

  6

  7

 40
1.0
 41
0.18
 42
0.0625
 43
0.38
 44
0.18
 45
0.0
 46
0.0
 47
0.0
 48
0.0
140
0.18
141
0.09
142
0.0
143
25.399999999999999
144
1.0
145
0.0
146
1.0
147
0.09
 71
     0
 72
     0
 73
     1
 74
     1
 75
     0
 76
     0
 77
     0
 78
     0
170
     0
171
     2
172
     0
173
     0
174
     0
175
     0
176
     0
177
     0
178
     0
  0
ENDTAB
  0
ENDSEC
  0
SECTION
  2
BLOCKS
  0
BLOCK
  8
0
  2
$MODEL_SPACE
 70
     0
 10
0.0
 20
0.0
 30
0.0
  3
$MODEL_SPACE
  1

  0
ENDBLK
  5
37A
  8
0
  0
BLOCK
 67
     1
  8
0
  2
$PAPER_SPACE
 70
     0
 10
0.0
 20
0.0
 30
0.0
  3
$PAPER_SPACE
  1

  0
ENDBLK
  5
376
 67
     1
  8
0
  0
ENDSEC
  0
SECTION
  2
ENTITIES
  0
LINE
  5
8A
  8
DETAIL
  6
CONTINUOUS
 62
     5
 10
823.91898709944689
 20
-380.000000000331
 30
0.0
 11
-823.91901569052845
 21
-380.000000000331
 31
0.0
  0
LINE
  5
8B
  8
DETAIL
  6
CONTINUOUS
 62
     5
 10
-823.91898709864199
 20
379.99999999966712
 30
0.0
 11
823.9189870986429
 21
379.99999999966712
 31
0.0
  0
LINE
  5
8C
  8
DETAIL
  6
CONTINUOUS
 62
     5
 10
-874.99999999954434
 20
-328.91898709942848
 30
0.0
 11
-874.99999999954434
 21
328.91898709785522
 31
0.0
  0
LINE
  5
8D
  8
DETAIL
  6
CONTINUOUS
 62
     5
 10
-873.82825152551663
 20
-331.74781779135623
 30
0.0
 11
-826.74781779056946
 21
-378.82825152631989
 31
0.0
  0
ARC
  5
8E
  8
DETAIL
  6
CONTINUOUS
 62
     5
 10
-870.99944963507448
 20
-328.91898709942848
 30
0.0
 40
4.0005503644646359
 50
179.99970832144891
 51
225.00029167852739
  0
ARC
  5
8F
  8
DETAIL
  6
CONTINUOUS
 62
     5
 10
-823.91898709773159
 20
-375.99944963396769
 30
0.0
 40
4.0005503664654931
 50
224.99970833317161
 51
270.0
  0
LINE
  5
90
  8
DETAIL
  6
CONTINUOUS
 62
     5
 10
-826.74781779056946
 20
378.82825152550481
 30
0.0
 11
-873.82825152551663
 21
331.74781779069241
 31
0.0
  0
ARC
  5
91
  8
DETAIL
  6
CONTINUOUS
 62
     5
 10
-870.9994496330736
 20
328.91898709785522
 30
0.0
 40
4.0005503664648252
 50
134.9997083331715
 51
180.00029166677399
  0
ARC
  5
92
  8
DETAIL
  6
CONTINUOUS
 62
     5
 10
-823.91898709864199
 20
375.99944963518448
 30
0.0
 40
4.0005503644636891
 50
90.0
 51
135.00029167847219
  0
LINE
  5
93
  8
DETAIL
  6
CONTINUOUS
 62
     5
 10
875.0000000004552
 20
328.91898709864478
 30
0.0
 11
875.0000000004552
 21
-328.91898709864103
 31
0.0
  0
LINE
  5
94
  8
DETAIL
  6
CONTINUOUS
 62
     5
 10
826.74781779147986
 20
-378.82825152631989
 30
0.0
 11
873.82825152632222
 21
-331.74781779135623
 31
0.0
  0
ARC
  5
95
  8
DETAIL
  6
CONTINUOUS
 62
     5
 10
823.91898709944689
 20
-375.99944963587768
 30
0.0
 40
4.0005503644636891
 50
270.0
 51
315.00029167847219
  0
ARC
  5
96
  8
DETAIL
  6
CONTINUOUS
 62
     5
 10
870.99944963398514
 20
-328.91898709864103
 30
0.0
 40
4.0005503664648252
 50
314.99970833317161
 51
0.0002916667741873
  0
LINE
  5
97
  8
DETAIL
  6
CONTINUOUS
 62
     5
 10
873.82825152632222
 20
331.74781779069241
 30
0.0
 11
826.74781779147986
 21
378.82825152550481
 31
0.0
  0
ARC
  5
98
  8
DETAIL
  6
CONTINUOUS
 62
     5
 10
823.9189870986429
 20
375.99944963318183
 30
0.0
 40
4.0005503664638091
 50
44.999708333226877
 51
90.0
  0
ARC
  5
99
  8
DETAIL
  6
CONTINUOUS
 62
     5
 10
870.99944963598591
 20
328.91898709864478
 30
0.0
 40
4.0005503644636891
 50
359.99970832144891
 51
45.000291678527468
  0
LINE
  5
9A
  8
DETAIL
  6
CONTINUOUS
 62
     5
 10
-870.2629434374594
 20
299.99999999966678
 30
0.0
 11
870.26294343825612
 21
299.99999999966678
 31
0.0
  0
LINE
  5
9B
  8
DETAIL
  6
CONTINUOUS
 62
     5
 10
-870.2629434374594
 20
-300.00000000033128
 30
0.0
 11
870.26294343825612
 21
-300.00000000033128
 31
0.0
  0
LINE
  5
9C
  8
DETAIL
  6
CONTINUOUS
 62
     5
 10
-866.96194606619895
 20
324.99999999966712
 30
0.0
 11
866.96194606619963
 21
324.99999999966712
 31
0.0
  0
LINE
  5
9D
  8
DETAIL
  6
CONTINUOUS
 62
     5
 10
-866.96194606619895
 20
-325.000000000331
 30
0.0
 11
866.96194606619963
 21
-325.000000000331
 31
0.0
  0
LINE
  5
9E
  8
DETAIL
  6
CONTINUOUS
 62
     5
 10
-870.2629434374594
 20
-300.00000000033128
 30
0.0
 11
-870.2629434374594
 21
299.99999999966712
 31
0.0
  0
LINE
  5
9F
  8
DETAIL
  6
CONTINUOUS
 62
     5
 10
-866.96194606619895
 20
299.99999999966678
 30
0.0
 11
-866.96194606619895
 21
330.45767668855677
 31
0.0
  0
LINE
  5
A0
  8
DETAIL
  6
CONTINUOUS
 62
     5
 10
-864.03212865559544
 20
337.53088161640147
 30
0.0
 11
-824.87816295406617
 21
376.68484731794609
 31
0.0
  0
ARC
  5
A1
  8
DETAIL
  6
CONTINUOUS
 62
     5
 10
-856.95892372784124
 20
330.45767668855677
 30
0.0
 40
10.003022338366121
 50
135.0
 51
180.0
  0
ARC
  5
A2
  8
DETAIL
  6
CONTINUOUS
 62
     5
 10
-815.9445108635789
 20
366.82728644533199
 30
0.0
 40
13.30344489331797
 50
98.038994221663444
 51
132.1852014106864
  0
LINE
  5
A3
  8
DETAIL
  6
CONTINUOUS
 62
     5
 10
-824.87816295406617
 20
-376.68491334294862
 30
0.0
 11
-864.03212865559544
 21
-337.530947641404
 31
0.0
  0
LINE
  5
A4
  8
DETAIL
  6
CONTINUOUS
 62
     5
 10
-866.96194606619895
 20
-330.45774271355918
 30
0.0
 11
-866.96194606619895
 21
-300.00000000033128
 31
0.0
  0
ARC
  5
A5
  8
DETAIL
  6
CONTINUOUS
 62
     5
 10
-856.95892372784124
 20
-330.45774271355918
 30
0.0
 40
10.003022338366531
 50
180.0
 51
225.0
  0
ARC
  5
A6
  8
DETAIL
  6
CONTINUOUS
 62
     5
 10
-815.94492269612226
 20
-366.82796882140713
 30
0.0
 40
13.302711633638641
 50
227.81433024313469
 51
261.96235112491399
  0
ARC
  5
A7
  8
DETAIL
  6
CONTINUOUS
 62
     5
 10
-182.0045335070871
 20
-217.0045335078739
 30
0.0
 40
15.00453350754942
 50
0.0
 51
90.0
  0
ARC
  5
A8
  8
DETAIL
  6
CONTINUOUS
 62
     5
 10
-182.0045335070871
 20
-280.99546649278813
 30
0.0
 40
15.00453350754942
 50
270.0
 51
0.0
  0
LINE
  5
A9
  8
DETAIL
  6
CONTINUOUS
 62
     5
 10
-299.43811909901251
 20
-260.00906701543221
 30
0.0
 11
-297.4375146313414
 21
-262.00967148308968
 31
0.0
  0
LINE
  5
AA
  8
DETAIL
  6
CONTINUOUS
 62
     5
 10
-292.21905954927843
 20
-262.00967148308968
 30
0.0
 11
-292.21905954927843
 21
-245.00453350788931
 31
0.0
  0
LINE
  5
AB
  8
DETAIL
  6
CONTINUOUS
 62
     5
 10
-270.56188090016627
 20
-260.00906701543221
 30
0.0
 11
-272.56248536783818
 21
-262.00967148308968
 31
0.0
  0
LINE
  5
AC
  8
DETAIL
  6
CONTINUOUS
 62
     5
 10
-277.7809404498102
 20
-262.00967148308968
 30
0.0
 11
-277.7809404498102
 21
-245.00453350788931
 31
0.0
  0
LINE
  5
AD
  8
DETAIL
  6
CONTINUOUS
 62
     5
 10
-212.00302233791709
 20
-260.09144462701357
 30
0.0
 11
-212.00302233791709
 21
-264.00876478158972
 31
0.0
  0
LINE
  5
AE
  8
DETAIL
  6
CONTINUOUS
 62
     5
 10
-207.5016622856601
 20
-254.2410831963561
 30
0.0
 11
-207.5016622856601
 21
-267.00967148310423
 31
0.0
  0
LINE
  5
AF
  8
DETAIL
  6
CONTINUOUS
 62
     5
 10
-196.49833771344399
 20
-254.2412049804779
 30
0.0
 11
-196.49833771344399
 21
-267.00967148310423
 31
0.0
  0
LINE
  5
B0
  8
DETAIL
  6
CONTINUOUS
 62
     5
 10
-191.9969776611878
 20
-260.0926485046611
 30
0.0
 11
-191.9969776611878
 21
-264.00876478158972
 31
0.0
  0
ARC
  5
B1
  8
DETAIL
  6
CONTINUOUS
 62
     5
 10
-201.99999999954429
 20
-235.00000000033191
 30
0.0
 40
27.008160313589041
 50
283.2320480998049
 51
256.76795216517621
  0
LINE
  5
B2
  8
DETAIL
  6
CONTINUOUS
 62
     5
 10
-316.99999999954338
 20
-280.99546649278813
 30
0.0
 11
-316.99999999954338
 21
-217.0045335078739
 31
0.0
  0
LINE
  5
B3
  8
DETAIL
  6
CONTINUOUS
 62
     5
 10
-166.99999999954429
 20
-217.0045335078739
 30
0.0
 11
-166.99999999954429
 21
-280.99546649278813
 31
0.0
  0
CIRCLE
  5
B4
  8
DETAIL
  6
CONTINUOUS
 62
     5
 10
-363.99999999954417
 20
-249.00000000036189
 30
0.0
 40
32.5
  0
LINE
  5
B5
  8
DETAIL
  6
CONTINUOUS
 62
     5
 10
-311.00785807930242
 20
-219.9969776619736
 30
0.0
 11
-258.9921419197853
 21
-219.9969776619736
 31
0.0
  0
LINE
  5
B6
  8
DETAIL
  6
CONTINUOUS
 62
     5
 10
-311.00785807930242
 20
-224.99848883114549
 30
0.0
 11
-291.87594105612772
 21
-224.99848883114549
 31
0.0
  0
ARC
  5
B7
  8
DETAIL
  6
CONTINUOUS
 62
     5
 10
-301.99546649198493
 20
-217.0045335078739
 30
0.0
 40
15.00453350754931
 50
90.0
 51
180.0
  0
LINE
  5
B8
  8
DETAIL
  6
CONTINUOUS
 62
     5
 10
-311.00785807930242
 20
-219.9969776619736
 30
0.0
 11
-311.00785807930242
 21
-224.99848883114549
 31
0.0
  0
LINE
  5
B9
  8
DETAIL
  6
CONTINUOUS
 62
     5
 10
-182.0045335070871
 20
-202.000000000331
 30
0.0
 11
-301.99546649198493
 21
-202.000000000331
 31
0.0
  0
LINE
  5
BA
  8
DETAIL
  6
CONTINUOUS
 62
     5
 10
-278.1240589429608
 20
-224.99848883114549
 30
0.0
 11
-258.9921419197853
 21
-224.99848883114549
 31
0.0
  0
LINE
  5
BB
  8
DETAIL
  6
CONTINUOUS
 62
     5
 10
-258.9921419197853
 20
-219.9969776619736
 30
0.0
 11
-258.9921419197853
 21
-224.99848883114549
 31
0.0
  0
ARC
  5
BC
  8
DETAIL
  6
CONTINUOUS
 62
     5
 10
-284.99999999954429
 20
-230.00000000031551
 30
0.0
 40
8.5025689876113688
 50
185.77015136675141
 51
354.22984863324632
  0
LINE
  5
BD
  8
DETAIL
  6
CONTINUOUS
 62
     5
 10
-294.50287122098678
 20
-224.99848883114549
 30
0.0
 11
-294.50287122098678
 21
-245.00453350788931
 31
0.0
  0
LINE
  5
BE
  8
DETAIL
  6
CONTINUOUS
 62
     5
 10
-275.49712877810089
 20
-224.99848883114549
 30
0.0
 11
-275.49712877810089
 21
-245.00453350788931
 31
0.0
  0
CIRCLE
  5
BF
  8
DETAIL
  6
CONTINUOUS
 62
     5
 10
-284.99999999954429
 20
-230.00000000031551
 30
0.0
 40
7.9400000000000004
  0
ARC
  5
C0
  8
DETAIL
  6
CONTINUOUS
 62
     5
 10
-292.93999999954428
 20
-230.00000000031551
 30
0.0
 40
1.000302233836674
 50
85.483846372714936
 51
274.51615362728541
  0
ARC
  5
C1
  8
DETAIL
  6
CONTINUOUS
 62
     5
 10
-277.05999999954429
 20
-230.00000000031551
 30
0.0
 40
1.0003022338369381
 50
265.48384637270959
 51
94.516153627290635
  0
LINE
  5
C2
  8
DETAIL
  6
CONTINUOUS
 62
     5
 10
-272.56248536783818
 20
-245.00453350788931
 30
0.0
 11
-270.56188090016627
 21
-246.00483574171719
 31
0.0
  0
LINE
  5
C3
  8
DETAIL
  6
CONTINUOUS
 62
     5
 10
-297.4375146313414
 20
-245.00453350788931
 30
0.0
 11
-299.43811909901251
 21
-246.00483574171719
 31
0.0
  0
LINE
  5
C4
  8
DETAIL
  6
CONTINUOUS
 62
     5
 10
-297.4375146313414
 20
-245.00453350788931
 30
0.0
 11
-272.56248536783818
 21
-245.00453350788931
 31
0.0
  0
LINE
  5
C5
  8
DETAIL
  6
CONTINUOUS
 62
     5
 10
-299.43811909901251
 20
-260.00906701543221
 30
0.0
 11
-299.43811909901251
 21
-246.00483574171719
 31
0.0
  0
LINE
  5
C6
  8
DETAIL
  6
CONTINUOUS
 62
     5
 10
-270.56188090016627
 20
-260.00906701543221
 30
0.0
 11
-270.56188090016627
 21
-246.00483574171719
 31
0.0
  0
CIRCLE
  5
C7
  8
DETAIL
  6
CONTINUOUS
 62
     5
 10
-201.99999999954429
 20
-235.00000000033191
 30
0.0
 40
20.006044676732358
  0
ARC
  5
C8
  8
DETAIL
  6
CONTINUOUS
 62
     5
 10
-200.052434059371
 20
-243.24443088373019
 30
0.0
 40
18.536823809238591
 50
281.05828269432681
 51
283.2050093090275
  0
ARC
  5
C9
  8
DETAIL
  6
CONTINUOUS
 62
     5
 10
-203.94757565877171
 20
-243.2444605840073
 30
0.0
 40
18.536792673131188
 50
256.79499912231159
 51
258.94174041090548
  0
CIRCLE
  5
CA
  8
DETAIL
  6
CONTINUOUS
 62
     5
 10
-201.99999999954429
 20
-235.00000000033191
 30
0.0
 40
14.289999999999999
  0
ARC
  5
CB
  8
DETAIL
  6
CONTINUOUS
 62
     5
 10
-201.99999999954429
 20
-220.7056810787935
 30
0.0
 40
1.0003022338366541
 50
0.0
 51
180.0
  0
ARC
  5
CC
  8
DETAIL
  6
CONTINUOUS
 62
     5
 10
-201.99999999954429
 20
-249.29431892183939
 30
0.0
 40
1.0003022338366541
 50
180.0
 51
0.0
  0
LINE
  5
CD
  8
DETAIL
  6
CONTINUOUS
 62
     5
 10
-223.00634691011689
 20
-202.000000000331
 30
0.0
 11
-223.00634691011689
 21
-218.02430817364339
 31
0.0
  0
LINE
  5
CE
  8
DETAIL
  6
CONTINUOUS
 62
     5
 10
-180.9936530889872
 20
-218.02430817364339
 30
0.0
 11
-180.9936530889872
 21
-202.0340910775557
 31
0.0
  0
ARC
  5
CF
  8
DETAIL
  6
CONTINUOUS
 62
     5
 10
-301.99546649198493
 20
-280.99546649278813
 30
0.0
 40
15.00453350754942
 50
180.0
 51
270.0
  0
LINE
  5
D0
  8
DETAIL
  6
CONTINUOUS
 62
     5
 10
-182.0045335070871
 20
-296.000000000331
 30
0.0
 11
-301.99546649198493
 21
-296.000000000331
 31
0.0
  0
LINE
  5
D1
  8
DETAIL
  6
CONTINUOUS
 62
     5
 10
-297.4375146313414
 20
-262.00967148308968
 30
0.0
 11
-272.56248536783818
 21
-262.00967148308968
 31
0.0
  0
LINE
  5
D2
  8
DETAIL
  6
CONTINUOUS
 62
     5
 10
-211.00272010408841
 20
-285.0151116921615
 30
0.0
 11
-211.09605140533131
 21
-284.92178039088952
 31
0.0
  0
LINE
  5
D3
  8
DETAIL
  6
CONTINUOUS
 62
     5
 10
-192.90394859377281
 20
-267.1030027843471
 30
0.0
 11
-192.99727989501571
 21
-267.00967148310423
 31
0.0
  0
LINE
  5
D4
  8
DETAIL
  6
CONTINUOUS
 62
     5
 10
-213.2617328971009
 20
-264.00876478158972
 30
0.0
 11
-213.2617328971009
 21
-289.01632062750548
 31
0.0
  0
LINE
  5
D5
  8
DETAIL
  6
CONTINUOUS
 62
     5
 10
-211.0960150322426
 20
-267.10296641427612
 30
0.0
 11
-211.0960150322426
 21
-284.92181676108243
 31
0.0
  0
LINE
  5
D6
  8
DETAIL
  6
CONTINUOUS
 62
     5
 10
-201.99999999954429
 20
-285.0151116921615
 30
0.0
 11
-201.99999999954429
 21
-289.01632062750548
 31
0.0
  0
LINE
  5
D7
  8
DETAIL
  6
CONTINUOUS
 62
     5
 10
-201.99999999954429
 20
-267.00967148310423
 30
0.0
 11
-201.99999999954429
 21
-285.0151116921615
 31
0.0
  0
LINE
  5
D8
  8
DETAIL
  6
CONTINUOUS
 62
     5
 10
-192.90398496695241
 20
-267.10296641427612
 30
0.0
 11
-192.90398496695241
 21
-284.92181676108243
 31
0.0
  0
LINE
  5
D9
  8
DETAIL
  6
CONTINUOUS
 62
     5
 10
-190.73826710200311
 20
-264.00876478158972
 30
0.0
 11
-190.73826710200311
 21
-289.01632062750548
 31
0.0
  0
LINE
  5
DA
  8
DETAIL
  6
CONTINUOUS
 62
     5
 10
-211.09605140533131
 20
-267.1030027843471
 30
0.0
 11
-211.00272010408841
 21
-267.00967148310423
 31
0.0
  0
LINE
  5
DB
  8
DETAIL
  6
CONTINUOUS
 62
     5
 10
-213.2617328971009
 20
-264.00876478158972
 30
0.0
 11
-207.5016622856601
 21
-264.00876478158972
 31
0.0
  0
LINE
  5
DC
  8
DETAIL
  6
CONTINUOUS
 62
     5
 10
-196.49833771344399
 20
-264.00876478158972
 30
0.0
 11
-190.73826710200311
 21
-264.00876478158972
 31
0.0
  0
LINE
  5
DD
  8
DETAIL
  6
CONTINUOUS
 62
     5
 10
-192.99727989501571
 20
-267.00967148310423
 30
0.0
 11
-211.00272010408841
 21
-267.00967148310423
 31
0.0
  0
LINE
  5
DE
  8
DETAIL
  6
CONTINUOUS
 62
     5
 10
-192.99727989501571
 20
-285.0151116921615
 30
0.0
 11
-192.90394859377281
 21
-284.92178039088952
 31
0.0
  0
LINE
  5
DF
  8
DETAIL
  6
CONTINUOUS
 62
     5
 10
-192.99727989501571
 20
-285.0151116921615
 30
0.0
 11
-211.00272010408841
 21
-285.0151116921615
 31
0.0
  0
LINE
  5
E0
  8
DETAIL
  6
CONTINUOUS
 62
     5
 10
-213.2617328971009
 20
-289.01632062750548
 30
0.0
 11
-190.73826710200311
 21
-289.01632062750548
 31
0.0
  0
LINE
  5
E1
  8
DETAIL
  6
CONTINUOUS
 62
     5
 10
870.26294343825612
 20
-300.00000000033128
 30
0.0
 11
870.26294343825612
 21
299.99999999966712
 31
0.0
  0
LINE
  5
E2
  8
DETAIL
  6
CONTINUOUS
 62
     5
 10
866.96194606619963
 20
330.45767668855677
 30
0.0
 11
866.96194606619963
 21
299.99999999966678
 31
0.0
  0
LINE
  5
E3
  8
DETAIL
  6
CONTINUOUS
 62
     5
 10
824.87816295415803
 20
376.68484731794609
 30
0.0
 11
864.03212865568719
 21
337.53088161640147
 31
0.0
  0
ARC
  5
E4
  8
DETAIL
  6
CONTINUOUS
 62
     5
 10
815.94451086367701
 20
366.8272864453383
 30
0.0
 40
13.303444893311321
 50
47.814798589315139
 51
81.961005778355997
  0
ARC
  5
E5
  8
DETAIL
  6
CONTINUOUS
 62
     5
 10
856.95892372782748
 20
330.45767668855677
 30
0.0
 40
10.0030223383657
 50
0.0
 51
45.0
  0
LINE
  5
E6
  8
DETAIL
  6
CONTINUOUS
 62
     5
 10
864.03212865568719
 20
-337.530947641404
 30
0.0
 11
824.87816295415803
 21
-376.68491334294862
 31
0.0
  0
LINE
  5
E7
  8
DETAIL
  6
CONTINUOUS
 62
     5
 10
866.96194606619963
 20
-330.45774271355918
 30
0.0
 11
866.96194606619963
 21
-300.00000000033128
 31
0.0
  0
ARC
  5
E8
  8
DETAIL
  6
CONTINUOUS
 62
     5
 10
856.95892372782748
 20
-330.45774271355918
 30
0.0
 40
10.003022338366231
 50
315.0
 51
0.0
  0
ARC
  5
E9
  8
DETAIL
  6
CONTINUOUS
 62
     5
 10
815.94492269621696
 20
-366.82796882141508
 30
0.0
 40
13.30271163363053
 50
278.03764887508288
 51
312.18566975687889
  0
LINE
  5
EA
  8
BASIS
  6
DASHDOT
 62
     6
 10
-930.0
 20
0.000000000001819
 30
0.0
 11
930.0
 21
0.000000000001819
 31
0.0
  0
LINE
  5
EB
  8
BASIS
  6
DASHDOT
 62
     6
 10
0.0
 20
450.0
 30
0.0
 11
0.0
 21
-450.0
 31
0.0
  0
LINE
  5
EC
  8
ARRANGE
  6
CONTINUOUS
 62
     1
 10
-37.897321081807611
 20
-37.897321081805771
 30
0.0
 11
37.897321081807611
 21
37.897321081809423
 31
0.0
  0
LINE
  5
ED
  8
ARRANGE
  6
CONTINUOUS
 62
     1
 10
-37.897321081807611
 20
37.897321081809423
 30
0.0
 11
37.897321081807611
 21
-37.897321081809423
 31
0.0
  0
CIRCLE
  5
EE
  8
ARRANGE
  6
CONTINUOUS
 62
     1
 10
0.0
 20
0.000000000001819
 30
0.0
 40
34.449674114384848
  0
LINE
  5
EF
  8
NOTE
  6
CONTINUOUS
 62
     4
 10
-330.32315812703831
 20
-249.000000000331
 30
0.0
 11
-397.67684187203662
 21
-249.000000000331
 31
0.0
  0
LINE
  5
F0
  8
NOTE
  6
CONTINUOUS
 62
     4
 10
-363.99999999954417
 20
-215.32315812785421
 30
0.0
 11
-363.99999999954417
 21
-282.67684187283788
 31
0.0
  0
LINE
  5
F1
  8
NOTE
  6
CONTINUOUS
 62
     4
 10
-251.32315812703831
 20
-230.00000000031551
 30
0.0
 11
-318.67684187203662
 21
-230.00000000031551
 31
0.0
  0
LINE
  5
F2
  8
NOTE
  6
CONTINUOUS
 62
     4
 10
-284.99999999954429
 20
-196.3231581278385
 30
0.0
 11
-284.99999999954429
 21
-263.67684187282327
 31
0.0
  0
LINE
  5
F3
  8
NOTE
  6
CONTINUOUS
 62
     4
 10
-168.32315812703831
 20
-235.00000000031551
 30
0.0
 11
-235.6768418720367
 21
-235.00000000031551
 31
0.0
  0
LINE
  5
F4
  8
NOTE
  6
CONTINUOUS
 62
     4
 10
-201.99999999954429
 20
-201.32315812783861
 30
0.0
 11
-201.99999999954429
 21
-268.67684187282339
 31
0.0
  0
LINE
  5
F5
  8
DETAIL
  6
CONTINUOUS
 62
     5
 10
-801.99999999954321
 20
358.9990932980636
 30
0.0
 11
-801.99999999954321
 21
365.00090670118323
 31
0.0
  0
LINE
  5
F6
  8
DETAIL
  6
CONTINUOUS
 62
     5
 10
-787.99999999954332
 20
365.00090670109222
 30
0.0
 11
-787.99999999954332
 21
358.9990932980636
 31
0.0
  0
ARC
  5
F7
  8
DETAIL
  6
CONTINUOUS
 62
     5
 10
-794.99999999954434
 20
364.99999999966889
 30
0.0
 40
7.0
 50
0.0
 51
180.0
  0
ARC
  5
F8
  8
DETAIL
  6
CONTINUOUS
 62
     5
 10
-794.99999999954332
 20
358.99999999966889
 30
0.0
 40
7.0
 50
180.0
 51
0.0
  0
LINE
  5
F9
  8
NOTE
  6
CONTINUOUS
 62
     4
 10
-794.99999999954332
 20
377.00453350712172
 30
0.0
 11
-794.99999999954332
 21
346.99546649203512
 31
0.0
  0
CIRCLE
  5
FA
  8
FIX
  6
CONTINUOUS
 62
    11
 10
-794.99999999954332
 20
361.99999999966889
 30
0.0
 40
12.15151275104744
  0
LINE
  5
FB
  8
NOTE
  6
CONTINUOUS
 62
     4
 10
-810.00453350708722
 20
361.99999999966889
 30
0.0
 11
-779.99546649200045
 21
361.99999999966889
 31
0.0
  0
LINE
  5
FC
  8
DETAIL
  6
CONTINUOUS
 62
     5
 10
-7.0
 20
358.9990932980636
 30
0.0
 11
-7.0
 21
365.00090670118323
 31
0.0
  0
LINE
  5
FD
  8
DETAIL
  6
CONTINUOUS
 62
     5
 10
7.0
 20
365.00090670109222
 30
0.0
 11
7.0
 21
358.9990932980636
 31
0.0
  0
ARC
  5
FE
  8
DETAIL
  6
CONTINUOUS
 62
     5
 10
-0.0000000000009095
 20
364.99999999966889
 30
0.0
 40
7.0
 50
0.0
 51
180.0
  0
ARC
  5
FF
  8
DETAIL
  6
CONTINUOUS
 62
     5
 10
0.0
 20
358.99999999966889
 30
0.0
 40
7.0
 50
180.0
 51
0.0
  0
LINE
  5
100
  8
NOTE
  6
CONTINUOUS
 62
     4
 10
0.0
 20
377.00453350712172
 30
0.0
 11
0.0
 21
346.99546649203512
 31
0.0
  0
CIRCLE
  5
101
  8
FIX
  6
CONTINUOUS
 62
    11
 10
0.0
 20
361.99999999966889
 30
0.0
 40
12.15151275104744
  0
LINE
  5
102
  8
NOTE
  6
CONTINUOUS
 62
     4
 10
-15.004533507543769
 20
361.99999999966889
 30
0.0
 11
15.00453350754287
 21
361.99999999966889
 31
0.0
  0
LINE
  5
103
  8
DETAIL
  6
CONTINUOUS
 62
     5
 10
788.00000000045657
 20
358.9990932980636
 30
0.0
 11
788.00000000045657
 21
365.00090670118323
 31
0.0
  0
LINE
  5
104
  8
DETAIL
  6
CONTINUOUS
 62
     5
 10
802.00000000045657
 20
365.00090670109222
 30
0.0
 11
802.00000000045657
 21
358.9990932980636
 31
0.0
  0
ARC
  5
105
  8
DETAIL
  6
CONTINUOUS
 62
     5
 10
795.0000000004552
 20
364.99999999966889
 30
0.0
 40
7.0
 50
0.0
 51
180.0
  0
ARC
  5
106
  8
DETAIL
  6
CONTINUOUS
 62
     5
 10
795.00000000045634
 20
358.99999999966889
 30
0.0
 40
7.0
 50
180.0
 51
0.0
  0
LINE
  5
107
  8
NOTE
  6
CONTINUOUS
 62
     4
 10
795.00000000045634
 20
377.00453350712172
 30
0.0
 11
795.00000000045634
 21
346.99546649203512
 31
0.0
  0
CIRCLE
  5
108
  8
FIX
  6
CONTINUOUS
 62
    11
 10
795.00000000045634
 20
361.99999999966889
 30
0.0
 40
12.15151275104744
  0
LINE
  5
109
  8
NOTE
  6
CONTINUOUS
 62
     4
 10
779.99546649291244
 20
361.99999999966889
 30
0.0
 11
810.00453350799933
 21
361.99999999966889
 31
0.0
  0
LINE
  5
10A
  8
DETAIL
  6
CONTINUOUS
 62
     5
 10
788.00000000045657
 20
-365.0009067019364
 30
0.0
 11
788.00000000045657
 21
-358.9990932988166
 31
0.0
  0
LINE
  5
10B
  8
DETAIL
  6
CONTINUOUS
 62
     5
 10
802.00000000045657
 20
-358.99909329890761
 30
0.0
 11
802.00000000045657
 21
-365.0009067019364
 31
0.0
  0
ARC
  5
10C
  8
DETAIL
  6
CONTINUOUS
 62
     5
 10
795.0000000004552
 20
-359.000000000331
 30
0.0
 40
7.0
 50
0.0
 51
180.0
  0
ARC
  5
10D
  8
DETAIL
  6
CONTINUOUS
 62
     5
 10
795.00000000045634
 20
-365.000000000331
 30
0.0
 40
7.0
 50
180.0
 51
0.0
  0
LINE
  5
10E
  8
NOTE
  6
CONTINUOUS
 62
     4
 10
795.00000000045634
 20
-346.99546649287828
 30
0.0
 11
795.00000000045634
 21
-377.00453350796488
 31
0.0
  0
CIRCLE
  5
10F
  8
FIX
  6
CONTINUOUS
 62
    11
 10
795.00000000045634
 20
-362.00000000033089
 30
0.0
 40
12.15151275104744
  0
LINE
  5
110
  8
NOTE
  6
CONTINUOUS
 62
     4
 10
779.99546649291244
 20
-362.00000000033089
 30
0.0
 11
810.00453350799933
 21
-362.00000000033089
 31
0.0
  0
LINE
  5
111
  8
DETAIL
  6
CONTINUOUS
 62
     5
 10
-6.999999999543431
 20
-365.0009067019364
 30
0.0
 11
-6.999999999543431
 21
-358.9990932988166
 31
0.0
  0
LINE
  5
112
  8
DETAIL
  6
CONTINUOUS
 62
     5
 10
7.0000000004565663
 20
-358.99909329890761
 30
0.0
 11
7.0000000004565663
 21
-365.0009067019364
 31
0.0
  0
ARC
  5
113
  8
DETAIL
  6
CONTINUOUS
 62
     5
 10
0.0000000004556568
 20
-359.000000000331
 30
0.0
 40
7.0
 50
0.0
 51
180.0
  0
ARC
  5
114
  8
DETAIL
  6
CONTINUOUS
 62
     5
 10
0.0000000004565663
 20
-365.000000000331
 30
0.0
 40
7.0
 50
180.0
 51
0.0
  0
LINE
  5
115
  8
NOTE
  6
CONTINUOUS
 62
     4
 10
0.0000000004565663
 20
-346.99546649287828
 30
0.0
 11
0.0000000004565663
 21
-377.00453350796488
 31
0.0
  0
CIRCLE
  5
116
  8
FIX
  6
CONTINUOUS
 62
    11
 10
0.0000000004565663
 20
-362.00000000033089
 30
0.0
 40
12.15151275104744
  0
LINE
  5
117
  8
NOTE
  6
CONTINUOUS
 62
     4
 10
-15.00453350708721
 20
-362.00000000033089
 30
0.0
 11
15.00453350799944
 21
-362.00000000033089
 31
0.0
  0
LINE
  5
118
  8
DETAIL
  6
CONTINUOUS
 62
     5
 10
-801.99999999954321
 20
-365.0009067019364
 30
0.0
 11
-801.99999999954321
 21
-358.9990932988166
 31
0.0
  0
LINE
  5
119
  8
DETAIL
  6
CONTINUOUS
 62
     5
 10
-787.99999999954332
 20
-358.99909329890761
 30
0.0
 11
-787.99999999954332
 21
-365.0009067019364
 31
0.0
  0
ARC
  5
11A
  8
DETAIL
  6
CONTINUOUS
 62
     5
 10
-794.99999999954434
 20
-359.000000000331
 30
0.0
 40
7.0
 50
0.0
 51
180.0
  0
ARC
  5
11B
  8
DETAIL
  6
CONTINUOUS
 62
     5
 10
-794.99999999954332
 20
-365.000000000331
 30
0.0
 40
7.0
 50
180.0
 51
0.0
  0
LINE
  5
11C
  8
NOTE
  6
CONTINUOUS
 62
     4
 10
-794.99999999954332
 20
-346.99546649287828
 30
0.0
 11
-794.99999999954332
 21
-377.00453350796488
 31
0.0
  0
CIRCLE
  5
11D
  8
FIX
  6
CONTINUOUS
 62
    11
 10
-794.99999999954332
 20
-362.00000000033089
 30
0.0
 40
12.15151275104744
  0
LINE
  5
11E
  8
NOTE
  6
CONTINUOUS
 62
     4
 10
-810.00453350708722
 20
-362.00000000033089
 30
0.0
 11
-779.99546649200045
 21
-362.00000000033089
 31
0.0
  0
LINE
  5
11F
  8
SIZE
  6
CONTINUOUS
 62
    30
 10
843.9189870993896
 20
-380.00000000000182
 30
0.0
 11
1427.9698105887469
 21
-380.00000000000199
 31
0.0
  0
LINE
  5
120
  8
SIZE
  6
CONTINUOUS
 62
    30
 10
843.9189870985856
 20
380.00000000000722
 30
0.0
 11
1427.9698105887469
 21
380.00000000000688
 31
0.0
  0
LINE
  5
121
  8
SIZE
  6
CONTINUOUS
 62
    30
 10
1397.9698105887469
 20
-370.00000000000199
 30
0.0
 11
1397.9698105887469
 21
370.00000000000711
 31
0.0
  0
CIRCLE
  5
122
  8
SIZE
  6
CONTINUOUS
 62
    30
 10
1397.9698105887469
 20
-380.00000000000182
 30
0.0
 40
5.0
  0
LINE
  5
123
  8
SIZE
  6
CONTINUOUS
 62
    30
 10
1397.9698105887469
 20
-375.00000000000182
 30
0.0
 11
1397.9698105887469
 21
-370.00000000000171
 31
0.0
  0
CIRCLE
  5
124
  8
SIZE
  6
CONTINUOUS
 62
    30
 10
1397.9698105887469
 20
380.00000000000711
 30
0.0
 40
5.0
  0
LINE
  5
125
  8
SIZE
  6
CONTINUOUS
 62
    30
 10
1397.9698105887469
 20
375.00000000000711
 30
0.0
 11
1397.9698105887469
 21
370.00000000000711
 31
0.0
  0
TEXT
  5
126
  8
SIZE
  6
CONTINUOUS
 62
    30
 10
1382.969810588746
 20
-63.642857142854368
 30
0.0
 40
55.0
  1
760
 50
90.0
 41
0.9
 72
     1
 11
1382.969810588746
 21
0.0000000000027601
 31
0.0
  0
POINT
  5
127
  8
DEFPOINTS
  6
CONTINUOUS
 62
     7
 10
823.91898709938948
 20
-380.00000000000182
 30
0.0
  0
POINT
  5
128
  8
DEFPOINTS
  6
CONTINUOUS
 62
     7
 10
823.91898709858594
 20
380.00000000000722
 30
0.0
  0
POINT
  5
129
  8
DEFPOINTS
  6
CONTINUOUS
 62
     7
 10
1397.9698105887469
 20
380.00000000000711
 30
0.0
  0
LINE
  5
12A
  8
SIZE
  6
CONTINUOUS
 62
    30
 10
875.00000000034015
 20
348.91896673317922
 30
0.0
 11
875.00000000034015
 21
706.38828043868045
 31
0.0
  0
LINE
  5
12B
  8
SIZE
  6
CONTINUOUS
 62
    30
 10
-874.99999999954434
 20
348.91896673321202
 30
0.0
 11
-874.99999999954434
 21
706.38828043868045
 31
0.0
  0
LINE
  5
12C
  8
SIZE
  6
CONTINUOUS
 62
    30
 10
865.00000000034015
 20
676.38828043868034
 30
0.0
 11
-864.99999999954434
 21
676.38828043868034
 31
0.0
  0
CIRCLE
  5
12D
  8
SIZE
  6
CONTINUOUS
 62
    30
 10
875.00000000034015
 20
676.38828043868034
 30
0.0
 40
5.0
  0
LINE
  5
12E
  8
SIZE
  6
CONTINUOUS
 62
    30
 10
870.00000000034015
 20
676.38828043868034
 30
0.0
 11
865.00000000034015
 21
676.38828043868034
 31
0.0
  0
CIRCLE
  5
12F
  8
SIZE
  6
CONTINUOUS
 62
    30
 10
-874.99999999954434
 20
676.38828043868034
 30
0.0
 40
5.0
  0
LINE
  5
130
  8
SIZE
  6
CONTINUOUS
 62
    30
 10
-869.99999999954412
 20
676.38828043868034
 30
0.0
 11
-864.99999999954434
 21
676.38828043868034
 31
0.0
  0
TEXT
  5
131
  8
SIZE
  6
CONTINUOUS
 62
    30
 10
-82.49999999960211
 20
691.38828043868057
 30
0.0
 40
55.0
  1
1750
 41
0.9
 72
     1
 11
0.0000000003979039
 21
691.38828043868057
 31
0.0
  0
POINT
  5
132
  8
DEFPOINTS
  6
CONTINUOUS
 62
     7
 10
875.00000000034015
 20
328.9189667331791
 30
0.0
  0
POINT
  5
133
  8
DEFPOINTS
  6
CONTINUOUS
 62
     7
 10
-874.99999999954434
 20
328.91896673321202
 30
0.0
  0
POINT
  5
134
  8
DEFPOINTS
  6
CONTINUOUS
 62
     7
 10
-874.99999999954434
 20
676.38828043868034
 30
0.0
  0
LINE
  5
135
  8
SIZE
  6
CONTINUOUS
 62
    30
 10
-874.99999999954434
 20
-348.91896673328301
 30
0.0
 11
-874.99999999954434
 21
-714.76065012909453
 31
0.0
  0
LINE
  5
136
  8
SIZE
  6
CONTINUOUS
 62
    30
 10
-284.9999999996017
 20
-283.67684187248238
 30
0.0
 11
-284.9999999996017
 21
-714.76065012909453
 31
0.0
  0
LINE
  5
137
  8
SIZE
  6
CONTINUOUS
 62
    30
 10
-864.99999999954434
 20
-684.76065012909476
 30
0.0
 11
-294.99999999960158
 21
-684.76065012909476
 31
0.0
  0
CIRCLE
  5
138
  8
SIZE
  6
CONTINUOUS
 62
    30
 10
-874.99999999954434
 20
-684.76065012909476
 30
0.0
 40
5.0
  0
LINE
  5
139
  8
SIZE
  6
CONTINUOUS
 62
    30
 10
-869.99999999954412
 20
-684.76065012909476
 30
0.0
 11
-864.99999999954434
 21
-684.76065012909476
 31
0.0
  0
CIRCLE
  5
13A
  8
SIZE
  6
CONTINUOUS
 62
    30
 10
-284.9999999996017
 20
-684.76065012909476
 30
0.0
 40
5.0
  0
LINE
  5
13B
  8
SIZE
  6
CONTINUOUS
 62
    30
 10
-289.99999999960158
 20
-684.76065012909476
 30
0.0
 11
-294.99999999960158
 21
-684.76065012909476
 31
0.0
  0
TEXT
  5
13C
  8
SIZE
  6
CONTINUOUS
 62
    30
 10
-643.6428571424301
 20
-669.76065012909476
 30
0.0
 40
55.0
  1
590
 41
0.9
 72
     1
 11
-579.99999999957299
 21
-669.76065012909476
 31
0.0
  0
POINT
  5
13D
  8
DEFPOINTS
  6
CONTINUOUS
 62
     7
 10
-874.99999999954434
 20
-328.91896673328301
 30
0.0
  0
POINT
  5
13E
  8
DEFPOINTS
  6
CONTINUOUS
 62
     7
 10
-284.9999999996017
 20
-263.6768418724825
 30
0.0
  0
POINT
  5
13F
  8
DEFPOINTS
  6
CONTINUOUS
 62
     7
 10
-284.9999999996017
 20
-684.76065012909476
 30
0.0
  0
LINE
  5
140
  8
SIZE
  6
CONTINUOUS
 62
    30
 10
-284.9999999996017
 20
-283.67684187248238
 30
0.0
 11
-284.9999999996017
 21
-714.76065012909453
 31
0.0
  0
LINE
  5
141
  8
SIZE
  6
CONTINUOUS
 62
    30
 10
-201.99999999960161
 20
-288.67684187248238
 30
0.0
 11
-201.99999999960161
 21
-714.76065012909453
 31
0.0
  0
LINE
  5
142
  8
SIZE
  6
CONTINUOUS
 62
    30
 10
-294.99999999960158
 20
-684.76065012909476
 30
0.0
 11
-304.99999999960158
 21
-684.76065012909476
 31
0.0
  0
LINE
  5
143
  8
SIZE
  6
CONTINUOUS
 62
    30
 10
-191.9999999996015
 20
-684.76065012909476
 30
0.0
 11
-181.99999999960161
 21
-684.76065012909476
 31
0.0
  0
LINE
  5
144
  8
SIZE
  6
CONTINUOUS
 62
    30
 10
-284.9999999996017
 20
-684.76065012909476
 30
0.0
 11
-201.99999999960161
 21
-684.76065012909476
 31
0.0
  0
CIRCLE
  5
145
  8
SIZE
  6
CONTINUOUS
 62
    30
 10
-284.9999999996017
 20
-684.76065012909476
 30
0.0
 40
5.0
  0
LINE
  5
146
  8
SIZE
  6
CONTINUOUS
 62
    30
 10
-289.99999999960158
 20
-684.76065012909476
 30
0.0
 11
-294.99999999960158
 21
-684.76065012909476
 31
0.0
  0
CIRCLE
  5
147
  8
SIZE
  6
CONTINUOUS
 62
    30
 10
-201.99999999960161
 20
-684.76065012909476
 30
0.0
 40
5.0
  0
LINE
  5
148
  8
SIZE
  6
CONTINUOUS
 62
    30
 10
-196.99999999960161
 20
-684.76065012909476
 30
0.0
 11
-191.9999999996015
 21
-684.76065012909476
 31
0.0
  0
TEXT
  5
149
  8
SIZE
  6
CONTINUOUS
 62
    30
 10
-283.57142857103008
 20
-669.76065012909476
 30
0.0
 40
55.0
  1
83
 41
0.9
 72
     1
 11
-243.49999999960161
 21
-669.76065012909476
 31
0.0
  0
POINT
  5
14A
  8
DEFPOINTS
  6
CONTINUOUS
 62
     7
 10
-284.9999999996017
 20
-263.6768418724825
 30
0.0
  0
POINT
  5
14B
  8
DEFPOINTS
  6
CONTINUOUS
 62
     7
 10
-201.99999999960161
 20
-268.67684187248238
 30
0.0
  0
POINT
  5
14C
  8
DEFPOINTS
  6
CONTINUOUS
 62
     7
 10
-201.99999999960161
 20
-684.76065012909476
 30
0.0
  0
LINE
  5
14D
  8
SIZE
  6
CONTINUOUS
 62
    30
 10
-843.91898709778889
 20
-379.99999999998909
 30
0.0
 11
-1240.026715122938
 21
-379.99999999998892
 31
0.0
  0
LINE
  5
14E
  8
SIZE
  6
CONTINUOUS
 62
    30
 10
-338.67684187209392
 20
-229.9999999999763
 30
0.0
 11
-1240.026715122938
 21
-229.99999999997601
 31
0.0
  0
LINE
  5
14F
  8
SIZE
  6
CONTINUOUS
 62
    30
 10
-1210.026715122938
 20
-369.99999999998892
 30
0.0
 11
-1210.026715122938
 21
-239.99999999997601
 31
0.0
  0
CIRCLE
  5
150
  8
SIZE
  6
CONTINUOUS
 62
    30
 10
-1210.026715122938
 20
-379.99999999998892
 30
0.0
 40
5.0
  0
LINE
  5
151
  8
SIZE
  6
CONTINUOUS
 62
    30
 10
-1210.026715122938
 20
-374.9999999999888
 30
0.0
 11
-1210.026715122938
 21
-369.99999999998892
 31
0.0
  0
CIRCLE
  5
152
  8
SIZE
  6
CONTINUOUS
 62
    30
 10
-1210.026715122938
 20
-229.99999999997601
 30
0.0
 40
5.0
  0
LINE
  5
153
  8
SIZE
  6
CONTINUOUS
 62
    30
 10
-1210.026715122938
 20
-234.99999999997601
 30
0.0
 11
-1210.026715122938
 21
-239.99999999997601
 31
0.0
  0
TEXT
  5
154
  8
SIZE
  6
CONTINUOUS
 62
    30
 10
-1225.026715122938
 20
-363.92857142855422
 30
0.0
 40
55.0
  1
150
 50
90.0
 41
0.9
 72
     1
 11
-1225.026715122938
 21
-304.99999999998278
 31
0.0
  0
POINT
  5
155
  8
DEFPOINTS
  6
CONTINUOUS
 62
     7
 10
-823.91898709778854
 20
-379.99999999998909
 30
0.0
  0
POINT
  5
156
  8
DEFPOINTS
  6
CONTINUOUS
 62
     7
 10
-318.67684187209392
 20
-229.9999999999763
 30
0.0
  0
POINT
  5
157
  8
DEFPOINTS
  6
CONTINUOUS
 62
     7
 10
-1210.026715122938
 20
-229.99999999997601
 30
0.0
  0
LINE
  5
158
  8
SIZE
  6
CONTINUOUS
 62
    30
 10
-874.99999999954434
 20
-348.91896673328301
 30
0.0
 11
-874.99999999954434
 21
-605.20625993228987
 31
0.0
  0
LINE
  5
159
  8
SIZE
  6
CONTINUOUS
 62
    30
 10
-363.99999999954417
 20
-302.67684187283788
 30
0.0
 11
-363.99999999954417
 21
-605.20625993228987
 31
0.0
  0
LINE
  5
15A
  8
SIZE
  6
CONTINUOUS
 62
    30
 10
-864.99999999954434
 20
-575.20625993228975
 30
0.0
 11
-373.99999999954417
 21
-575.20625993228975
 31
0.0
  0
CIRCLE
  5
15B
  8
SIZE
  6
CONTINUOUS
 62
    30
 10
-874.99999999954434
 20
-575.20625993228975
 30
0.0
 40
5.0
  0
LINE
  5
15C
  8
SIZE
  6
CONTINUOUS
 62
    30
 10
-869.99999999954412
 20
-575.20625993228975
 30
0.0
 11
-864.99999999954434
 21
-575.20625993228975
 31
0.0
  0
CIRCLE
  5
15D
  8
SIZE
  6
CONTINUOUS
 62
    30
 10
-363.99999999954417
 20
-575.20625993228975
 30
0.0
 40
5.0
  0
LINE
  5
15E
  8
SIZE
  6
CONTINUOUS
 62
    30
 10
-368.99999999954417
 20
-575.20625993228975
 30
0.0
 11
-373.99999999954417
 21
-575.20625993228975
 31
0.0
  0
TEXT
  5
15F
  8
SIZE
  6
CONTINUOUS
 62
    30
 10
-667.8214285709729
 20
-560.20625993228975
 30
0.0
 40
55.0
  1
511
 41
0.9
 72
     1
 11
-619.49999999954434
 21
-560.20625993228975
 31
0.0
  0
POINT
  5
160
  8
DEFPOINTS
  6
CONTINUOUS
 62
     7
 10
-874.99999999954434
 20
-328.91896673328301
 30
0.0
  0
POINT
  5
161
  8
DEFPOINTS
  6
CONTINUOUS
 62
     7
 10
-363.99999999954417
 20
-282.67684187283788
 30
0.0
  0
POINT
  5
162
  8
DEFPOINTS
  6
CONTINUOUS
 62
     7
 10
-363.99999999954417
 20
-575.20625993228975
 30
0.0
  0
LINE
  5
163
  8
NOTE
  6
CONTINUOUS
 62
     4
 10
953.31888169057424
 20
-172.2139048028566
 30
0.0
 11
953.31888169057424
 21
-197.22146064877231
 31
0.0
  0
LINE
  5
164
  8
NOTE
  6
CONTINUOUS
 62
     4
 10
903.40775606265277
 20
-147.2063489569409
 30
0.0
 11
953.31888169057424
 21
-197.22146064877231
 31
0.0
  0
TEXT
  5
165
  8
NOTE
  6
CONTINUOUS
 62
     4
 10
915.40178212500791
 20
11.20026000740472
 30
0.0
 40
55.0
  1
空気
 50
0.0000025045208121
 41
0.630952371610266
  7
STANDARD1
  0
LINE
  5
166
  8
NOTE
  6
CONTINUOUS
 62
     4
 10
953.31888169057424
 20
-122.1987931110252
 30
0.0
 11
994.01726582437243
 21
-122.1987931110252
 31
0.0
  0
LINE
  5
167
  8
NOTE
  6
CONTINUOUS
 62
     4
 10
953.31888169057424
 20
-172.2139048028566
 30
0.0
 11
994.01726582437243
 21
-172.2139048028566
 31
0.0
  0
TEXT
  5
168
  8
NOTE
  6
CONTINUOUS
 62
     4
 10
916.16064053997115
 20
-64.971261758766559
 30
0.0
 40
55.0
  1
吸込
 50
0.0000025045208121
 41
0.630952371610266
  7
STANDARD1
  0
LINE
  5
169
  8
NOTE
  6
CONTINUOUS
 62
     4
 10
953.31888169057424
 20
-97.191237265109521
 30
0.0
 11
903.40775606265277
 21
-147.2063489569409
 31
0.0
  0
LINE
  5
16A
  8
NOTE
  6
CONTINUOUS
 62
     4
 10
953.31888169057424
 20
-97.191237265109521
 30
0.0
 11
953.31888169057424
 21
-122.1987931110252
 31
0.0
  0
LINE
  5
16B
  8
NOTE
  6
CONTINUOUS
 62
     4
 10
994.01726582437243
 20
-172.2139048028566
 30
0.0
 11
994.01726582437243
 21
-122.1987931110252
 31
0.0
  0
LINE
  5
16C
  8
NOTE
  6
CONTINUOUS
 62
     4
 10
989.79492967449539
 20
122.95217349990889
 30
0.0
 11
989.79492967449539
 21
172.9672851917403
 31
0.0
  0
LINE
  5
16D
  8
NOTE
  6
CONTINUOUS
 62
     4
 10
899.18541991277561
 20
147.9597293458246
 30
0.0
 11
949.09654554069766
 21
97.944617653993205
 31
0.0
  0
LINE
  5
16E
  8
NOTE
  6
CONTINUOUS
 62
     4
 10
949.09654554069766
 20
122.95217349990889
 30
0.0
 11
989.79492967449539
 21
122.95217349990889
 31
0.0
  0
LINE
  5
16F
  8
NOTE
  6
CONTINUOUS
 62
     4
 10
949.09654554069766
 20
122.95217349990889
 30
0.0
 11
949.09654554069766
 21
97.944617653993205
 31
0.0
  0
LINE
  5
170
  8
NOTE
  6
CONTINUOUS
 62
     4
 10
949.09654554069766
 20
197.97484103765601
 30
0.0
 11
899.18541991277561
 21
147.9597293458246
 31
0.0
  0
LINE
  5
171
  8
NOTE
  6
CONTINUOUS
 62
     4
 10
949.09654554069766
 20
172.9672851917403
 30
0.0
 11
989.79492967449539
 21
172.9672851917403
 31
0.0
  0
LINE
  5
172
  8
NOTE
  6
CONTINUOUS
 62
     4
 10
949.09654554069766
 20
197.97484103765601
 30
0.0
 11
949.09654554069766
 21
172.9672851917403
 31
0.0
  0
LINE
  5
173
  8
NOTE
  6
CONTINUOUS
 62
     4
 10
-993.92162284650385
 20
-168.6117963629822
 30
0.0
 11
-993.92162284650385
 21
-118.5966846711508
 31
0.0
  0
LINE
  5
174
  8
NOTE
  6
CONTINUOUS
 62
     4
 10
-903.31211308478396
 20
-143.6042405170665
 30
0.0
 11
-953.22323871270589
 21
-193.61935220889791
 31
0.0
  0
LINE
  5
175
  8
NOTE
  6
CONTINUOUS
 62
     4
 10
-953.22323871270589
 20
-168.6117963629822
 30
0.0
 11
-993.92162284650385
 21
-168.6117963629822
 31
0.0
  0
LINE
  5
176
  8
NOTE
  6
CONTINUOUS
 62
     4
 10
-953.22323871270589
 20
-168.6117963629822
 30
0.0
 11
-953.22323871270589
 21
-193.61935220889791
 31
0.0
  0
LINE
  5
177
  8
NOTE
  6
CONTINUOUS
 62
     4
 10
-953.22323871270589
 20
-93.589128825235079
 30
0.0
 11
-903.31211308478396
 21
-143.6042405170665
 31
0.0
  0
LINE
  5
178
  8
NOTE
  6
CONTINUOUS
 62
     4
 10
-907.55566086763565
 20
143.24455258635311
 30
0.0
 11
-957.46678649555713
 21
93.229440894521758
 31
0.0
  0
LINE
  5
179
  8
NOTE
  6
CONTINUOUS
 62
     4
 10
-957.46678649555713
 20
193.2596642781844
 30
0.0
 11
-907.55566086763565
 21
143.24455258635311
 31
0.0
  0
TEXT
  5
17A
  8
NOTE
  6
CONTINUOUS
 62
     4
 10
-991.1900122950999
 20
13.43016451006042
 30
0.0
 40
55.0
  1
空気
 50
0.0000025045208121
 41
0.630952371610266
  7
STANDARD1
  0
TEXT
  5
17B
  8
NOTE
  6
CONTINUOUS
 62
     4
 10
-991.1900122950999
 20
-68.351434755240916
 30
0.0
 40
55.0
  1
吸込
 50
0.0000025045208121
 41
0.630952371610266
  7
STANDARD1
  0
LINE
  5
17C
  8
NOTE
  6
CONTINUOUS
 62
     4
 10
-953.22323871270589
 20
-118.5966846711508
 30
0.0
 11
-993.92162284650385
 21
-118.5966846711508
 31
0.0
  0
LINE
  5
17D
  8
NOTE
  6
CONTINUOUS
 62
     4
 10
-953.22323871270589
 20
-93.589128825235079
 30
0.0
 11
-953.22323871270589
 21
-118.5966846711508
 31
0.0
  0
LINE
  5
17E
  8
NOTE
  6
CONTINUOUS
 62
     4
 10
-998.16517062935588
 20
118.23699674043741
 30
0.0
 11
-998.16517062935588
 21
168.25210843226881
 31
0.0
  0
LINE
  5
17F
  8
NOTE
  6
CONTINUOUS
 62
     4
 10
-957.46678649555713
 20
118.23699674043741
 30
0.0
 11
-998.16517062935588
 21
118.23699674043741
 31
0.0
  0
LINE
  5
180
  8
NOTE
  6
CONTINUOUS
 62
     4
 10
-957.46678649555713
 20
118.23699674043741
 30
0.0
 11
-957.46678649555713
 21
93.229440894521758
 31
0.0
  0
LINE
  5
181
  8
NOTE
  6
CONTINUOUS
 62
     4
 10
-957.46678649555713
 20
168.25210843226881
 30
0.0
 11
-998.16517062935588
 21
168.25210843226881
 31
0.0
  0
LINE
  5
182
  8
NOTE
  6
CONTINUOUS
 62
     4
 10
-957.46678649555713
 20
193.2596642781844
 30
0.0
 11
-957.46678649555713
 21
168.25210843226881
 31
0.0
  0
LINE
  5
183
  8
NOTE
  6
CONTINUOUS
 62
     4
 10
-576.78663904370012
 20
465.43592813925869
 30
0.0
 11
-576.78663904370012
 21
506.13431227307228
 31
0.0
  0
LINE
  5
184
  8
NOTE
  6
CONTINUOUS
 62
     4
 10
-626.80175073553073
 20
465.43592813925869
 30
0.0
 11
-626.80175073553073
 21
506.13431227307228
 31
0.0
  0
LINE
  5
185
  8
NOTE
  6
CONTINUOUS
 62
     4
 10
-576.78663904370012
 20
506.13431227307228
 30
0.0
 11
-626.80175073553073
 21
506.13431227307228
 31
0.0
  0
LINE
  5
186
  8
NOTE
  6
CONTINUOUS
 62
     4
 10
-651.80930658144644
 20
465.43592813925869
 30
0.0
 11
-601.79419488961503
 21
415.52480251133761
 31
0.0
  0
LINE
  5
187
  8
NOTE
  6
CONTINUOUS
 62
     4
 10
-651.80930658144644
 20
465.43592813925869
 30
0.0
 11
-626.80175073553073
 21
465.43592813925869
 31
0.0
  0
LINE
  5
188
  8
NOTE
  6
CONTINUOUS
 62
     4
 10
-601.79419488961503
 20
415.52480251133761
 30
0.0
 11
-551.77908319778453
 21
465.43592813925869
 31
0.0
  0
LINE
  5
189
  8
NOTE
  6
CONTINUOUS
 62
     4
 10
-576.78663904370012
 20
465.43592813925869
 30
0.0
 11
-551.77908319778453
 21
465.43592813925869
 31
0.0
  0
LINE
  5
18A
  8
NOTE
  6
CONTINUOUS
 62
     4
 10
-243.4691936184945
 20
465.43592813925869
 30
0.0
 11
-243.4691936184945
 21
506.13431227307228
 31
0.0
  0
LINE
  5
18B
  8
NOTE
  6
CONTINUOUS
 62
     4
 10
-293.484305310325
 20
465.43592813925869
 30
0.0
 11
-293.484305310325
 21
506.13431227307228
 31
0.0
  0
LINE
  5
18C
  8
NOTE
  6
CONTINUOUS
 62
     4
 10
-293.484305310325
 20
506.13431227307228
 30
0.0
 11
-243.4691936184945
 21
506.13431227307228
 31
0.0
  0
TEXT
  5
18D
  8
NOTE
  6
CONTINUOUS
 62
     4
 10
-514.77084050024018
 20
432.6545145964098
 30
0.0
 40
55.0
  1
空気吸込
 50
359.99999749547902
 41
0.630952371610266
  7
STANDARD1
  0
LINE
  5
18E
  8
NOTE
  6
CONTINUOUS
 62
     4
 10
-268.4767494644102
 20
415.52480251133761
 30
0.0
 11
-318.4918611562407
 21
465.43592813925869
 31
0.0
  0
LINE
  5
18F
  8
NOTE
  6
CONTINUOUS
 62
     4
 10
-293.484305310325
 20
465.43592813925869
 30
0.0
 11
-318.4918611562407
 21
465.43592813925869
 31
0.0
  0
LINE
  5
190
  8
NOTE
  6
CONTINUOUS
 62
     4
 10
-218.4616377725788
 20
465.43592813925869
 30
0.0
 11
-243.4691936184945
 21
465.43592813925869
 31
0.0
  0
LINE
  5
191
  8
NOTE
  6
CONTINUOUS
 62
     4
 10
-218.4616377725788
 20
465.43592813925869
 30
0.0
 11
-268.4767494644102
 21
415.52480251133761
 31
0.0
  0
LINE
  5
192
  8
NOTE
  6
CONTINUOUS
 62
     4
 10
277.4714686527704
 20
465.43592813925869
 30
0.0
 11
277.4714686527704
 21
506.13431227307228
 31
0.0
  0
LINE
  5
193
  8
NOTE
  6
CONTINUOUS
 62
     4
 10
227.4563569609399
 20
465.43592813925869
 30
0.0
 11
227.4563569609399
 21
506.13431227307228
 31
0.0
  0
LINE
  5
194
  8
NOTE
  6
CONTINUOUS
 62
     4
 10
277.4714686527704
 20
506.13431227307228
 30
0.0
 11
227.4563569609399
 21
506.13431227307228
 31
0.0
  0
LINE
  5
195
  8
NOTE
  6
CONTINUOUS
 62
     4
 10
202.4488011150242
 20
465.43592813925869
 30
0.0
 11
252.4639128068556
 21
415.52480251133761
 31
0.0
  0
LINE
  5
196
  8
NOTE
  6
CONTINUOUS
 62
     4
 10
202.4488011150242
 20
465.43592813925869
 30
0.0
 11
227.4563569609399
 21
465.43592813925869
 31
0.0
  0
LINE
  5
197
  8
NOTE
  6
CONTINUOUS
 62
     4
 10
252.4639128068556
 20
415.52480251133761
 30
0.0
 11
302.47902449868621
 21
465.43592813925869
 31
0.0
  0
LINE
  5
198
  8
NOTE
  6
CONTINUOUS
 62
     4
 10
277.4714686527704
 20
465.43592813925869
 30
0.0
 11
302.47902449868621
 21
465.43592813925869
 31
0.0
  0
LINE
  5
199
  8
NOTE
  6
CONTINUOUS
 62
     4
 10
610.78891407797619
 20
465.43592813925869
 30
0.0
 11
610.78891407797619
 21
506.13431227307228
 31
0.0
  0
LINE
  5
19A
  8
NOTE
  6
CONTINUOUS
 62
     4
 10
560.77380238614569
 20
465.43592813925869
 30
0.0
 11
560.77380238614569
 21
506.13431227307228
 31
0.0
  0
LINE
  5
19B
  8
NOTE
  6
CONTINUOUS
 62
     4
 10
560.77380238614569
 20
506.13431227307228
 30
0.0
 11
610.78891407797619
 21
506.13431227307228
 31
0.0
  0
TEXT
  5
19C
  8
NOTE
  6
CONTINUOUS
 62
     4
 10
339.48726719623022
 20
432.6545145964098
 30
0.0
 40
55.0
  1
空気吸込
 50
359.99999749547902
 41
0.630952371610266
  7
STANDARD1
  0
LINE
  5
19D
  8
NOTE
  6
CONTINUOUS
 62
     4
 10
585.78135823206048
 20
415.52480251133761
 30
0.0
 11
535.76624654022999
 21
465.43592813925869
 31
0.0
  0
LINE
  5
19E
  8
NOTE
  6
CONTINUOUS
 62
     4
 10
560.77380238614569
 20
465.43592813925869
 30
0.0
 11
535.76624654022999
 21
465.43592813925869
 31
0.0
  0
LINE
  5
19F
  8
NOTE
  6
CONTINUOUS
 62
     4
 10
635.79646992389189
 20
465.43592813925869
 30
0.0
 11
610.78891407797619
 21
465.43592813925869
 31
0.0
  0
LINE
  5
1A0
  8
NOTE
  6
CONTINUOUS
 62
     4
 10
635.79646992389189
 20
465.43592813925869
 30
0.0
 11
585.78135823206048
 21
415.52480251133761
 31
0.0
  0
LINE
  5
1A1
  8
SIZE
  6
CONTINUOUS
 62
    30
 10
-417.6768418720365
 20
-249.000000000331
 30
0.0
 11
-1040.8157798599159
 21
-249.00000000033091
 31
0.0
  0
LINE
  5
1A2
  8
SIZE
  6
CONTINUOUS
 62
    30
 10
-843.91898709773136
 20
-380.00000000043292
 30
0.0
 11
-1040.8157798599159
 21
-380.00000000043281
 31
0.0
  0
LINE
  5
1A3
  8
SIZE
  6
CONTINUOUS
 62
    30
 10
-1010.815779859916
 20
-259.00000000033077
 30
0.0
 11
-1010.815779859916
 21
-370.00000000043281
 31
0.0
  0
CIRCLE
  5
1A4
  8
SIZE
  6
CONTINUOUS
 62
    30
 10
-1010.815779859916
 20
-249.00000000033091
 30
0.0
 40
5.0
  0
LINE
  5
1A5
  8
SIZE
  6
CONTINUOUS
 62
    30
 10
-1010.815779859916
 20
-254.00000000033091
 30
0.0
 11
-1010.815779859916
 21
-259.000000000331
 31
0.0
  0
CIRCLE
  5
1A6
  8
SIZE
  6
CONTINUOUS
 62
    30
 10
-1010.815779859916
 20
-380.00000000043281
 30
0.0
 40
5.0
  0
LINE
  5
1A7
  8
SIZE
  6
CONTINUOUS
 62
    30
 10
-1010.815779859916
 20
-375.00000000043281
 30
0.0
 11
-1010.815779859916
 21
-370.00000000043281
 31
0.0
  0
TEXT
  5
1A8
  8
SIZE
  6
CONTINUOUS
 62
    30
 10
-1025.8157798599159
 20
-362.82142857181049
 30
0.0
 40
55.0
  1
131
 50
90.0
 41
0.9
 72
     1
 11
-1025.8157798599159
 21
-314.50000000038199
 31
0.0
  0
POINT
  5
1A9
  8
DEFPOINTS
  6
CONTINUOUS
 62
     7
 10
-397.67684187203662
 20
-249.000000000331
 30
0.0
  0
POINT
  5
1AA
  8
DEFPOINTS
  6
CONTINUOUS
 62
     7
 10
-823.91898709773159
 20
-380.00000000043292
 30
0.0
  0
POINT
  5
1AB
  8
DEFPOINTS
  6
CONTINUOUS
 62
     7
 10
-1010.815779859916
 20
-380.00000000043281
 30
0.0
  0
LINE
  5
1AC
  8
SIZE
  6
CONTINUOUS
 62
    30
 10
-803.91901569052857
 20
-380.000000000331
 30
0.0
 11
-23.829424456210369
 21
-380.00000000033123
 31
0.0
  0
LINE
  5
1AD
  8
SIZE
  6
CONTINUOUS
 62
    30
 10
-162.00453350708719
 20
-296.000000000331
 30
0.0
 11
-23.829424456210319
 21
-296.00000000033111
 31
0.0
  0
LINE
  5
1AE
  8
SIZE
  6
CONTINUOUS
 62
    30
 10
-53.829424456210333
 20
-306.00000000033111
 30
0.0
 11
-53.829424456210347
 21
-370.00000000033128
 31
0.0
  0
LINE
  5
1AF
  8
SIZE
  6
CONTINUOUS
 62
    30
 10
-53.829424456210347
 20
-380.00000000033123
 30
0.0
 11
-53.829424456210347
 21
-502.50000000033128
 31
0.0
  0
CIRCLE
  5
1B0
  8
SIZE
  6
CONTINUOUS
 62
    30
 10
-53.829424456210333
 20
-296.00000000033111
 30
0.0
 40
5.0
  0
LINE
  5
1B1
  8
SIZE
  6
CONTINUOUS
 62
    30
 10
-53.829424456210333
 20
-301.00000000033111
 30
0.0
 11
-53.829424456210333
 21
-306.00000000033111
 31
0.0
  0
CIRCLE
  5
1B2
  8
SIZE
  6
CONTINUOUS
 62
    30
 10
-53.829424456210347
 20
-380.00000000033123
 30
0.0
 40
5.0
  0
LINE
  5
1B3
  8
SIZE
  6
CONTINUOUS
 62
    30
 10
-53.829424456210347
 20
-375.00000000033123
 30
0.0
 11
-53.829424456210347
 21
-370.00000000033123
 31
0.0
  0
TEXT
  5
1B4
  8
SIZE
  6
CONTINUOUS
 62
    30
 10
-68.82942445621029
 20
-487.50000000033123
 30
0.0
 40
55.0
  1
84
 50
90.0
 41
0.9
 72
     1
 11
-68.82942445621029
 21
-446.25000000033128
 31
0.0
  0
POINT
  5
1B5
  8
DEFPOINTS
  6
CONTINUOUS
 62
     7
 10
-823.91901569052845
 20
-380.000000000331
 30
0.0
  0
POINT
  5
1B6
  8
DEFPOINTS
  6
CONTINUOUS
 62
     7
 10
-182.0045335070871
 20
-296.000000000331
 30
0.0
  0
POINT
  5
1B7
  8
DEFPOINTS
  6
CONTINUOUS
 62
     7
 10
-53.829424456210333
 20
-296.00000000033111
 30
0.0
  0
LINE
  5
1B8
  8
SIZE
  6
CONTINUOUS
 62
    30
 10
-162.00453350708719
 20
-296.00000000033742
 30
0.0
 11
-23.829424456209392
 21
-296.00000000033748
 31
0.0
  0
LINE
  5
1B9
  8
SIZE
  6
CONTINUOUS
 62
    30
 10
-162.00453350708719
 20
-202.000000000331
 30
0.0
 11
-23.82942445620936
 21
-202.000000000331
 31
0.0
  0
LINE
  5
1BA
  8
SIZE
  6
CONTINUOUS
 62
    30
 10
-53.829424456209402
 20
-306.00000000033742
 30
0.0
 11
-53.829424456209402
 21
-316.00000000033742
 31
0.0
  0
LINE
  5
1BB
  8
SIZE
  6
CONTINUOUS
 62
    30
 10
-53.829424456209381
 20
-192.000000000331
 30
0.0
 11
-53.829424456209381
 21
-182.00000000033111
 31
0.0
  0
LINE
  5
1BC
  8
SIZE
  6
CONTINUOUS
 62
    30
 10
-53.829424456209402
 20
-296.00000000033748
 30
0.0
 11
-53.829424456209381
 21
-202.000000000331
 31
0.0
  0
CIRCLE
  5
1BD
  8
SIZE
  6
CONTINUOUS
 62
    30
 10
-53.829424456209402
 20
-296.00000000033748
 30
0.0
 40
5.0
  0
LINE
  5
1BE
  8
SIZE
  6
CONTINUOUS
 62
    30
 10
-53.829424456209402
 20
-301.00000000033748
 30
0.0
 11
-53.829424456209402
 21
-306.00000000033748
 31
0.0
  0
CIRCLE
  5
1BF
  8
SIZE
  6
CONTINUOUS
 62
    30
 10
-53.829424456209381
 20
-202.000000000331
 30
0.0
 40
5.0
  0
LINE
  5
1C0
  8
SIZE
  6
CONTINUOUS
 62
    30
 10
-53.829424456209381
 20
-197.000000000331
 30
0.0
 11
-53.829424456209381
 21
-192.000000000331
 31
0.0
  0
TEXT
  5
1C1
  8
SIZE
  6
CONTINUOUS
 62
    30
 10
-68.829424456209324
 20
-290.25000000033418
 30
0.0
 40
55.0
  1
94
 50
90.0
 41
0.9
 72
     1
 11
-68.829424456209324
 21
-249.00000000033421
 31
0.0
  0
POINT
  5
1C2
  8
DEFPOINTS
  6
CONTINUOUS
 62
     7
 10
-182.0045335070871
 20
-296.00000000033742
 30
0.0
  0
POINT
  5
1C3
  8
DEFPOINTS
  6
CONTINUOUS
 62
     7
 10
-182.0045335070871
 20
-202.000000000331
 30
0.0
  0
POINT
  5
1C4
  8
DEFPOINTS
  6
CONTINUOUS
 62
     7
 10
-53.829424456209381
 20
-202.000000000331
 30
0.0
  0
LINE
  5
1C5
  8
SIZE
  6
CONTINUOUS
 62
    30
 10
-843.91898709773136
 20
-380.00000000043292
 30
0.0
 11
-1141.176587069745
 21
-380.00000000043281
 31
0.0
  0
LINE
  5
1C6
  8
SIZE
  6
CONTINUOUS
 62
    30
 10
-255.67684187203659
 20
-235.00000000031551
 30
0.0
 11
-1141.176587069745
 21
-235.00000000031531
 31
0.0
  0
LINE
  5
1C7
  8
SIZE
  6
CONTINUOUS
 62
    30
 10
-1111.176587069745
 20
-390.00000000043281
 30
0.0
 11
-1111.176587069745
 21
-400.00000000043281
 31
0.0
  0
LINE
  5
1C8
  8
SIZE
  6
CONTINUOUS
 62
    30
 10
-1111.176587069745
 20
-225.00000000031531
 30
0.0
 11
-1111.176587069745
 21
-215.00000000031531
 31
0.0
  0
LINE
  5
1C9
  8
SIZE
  6
CONTINUOUS
 62
    30
 10
-1111.176587069745
 20
-380.00000000043281
 30
0.0
 11
-1111.176587069745
 21
-235.00000000031531
 31
0.0
  0
CIRCLE
  5
1CA
  8
SIZE
  6
CONTINUOUS
 62
    30
 10
-1111.176587069745
 20
-380.00000000043281
 30
0.0
 40
5.0
  0
LINE
  5
1CB
  8
SIZE
  6
CONTINUOUS
 62
    30
 10
-1111.176587069745
 20
-385.00000000043281
 30
0.0
 11
-1111.176587069745
 21
-390.00000000043281
 31
0.0
  0
CIRCLE
  5
1CC
  8
SIZE
  6
CONTINUOUS
 62
    30
 10
-1111.176587069745
 20
-235.00000000031531
 30
0.0
 40
5.0
  0
LINE
  5
1CD
  8
SIZE
  6
CONTINUOUS
 62
    30
 10
-1111.176587069745
 20
-230.00000000031531
 30
0.0
 11
-1111.176587069745
 21
-225.00000000031531
 31
0.0
  0
TEXT
  5
1CE
  8
SIZE
  6
CONTINUOUS
 62
    30
 10
-1126.176587069745
 20
-366.4285714289457
 30
0.0
 40
55.0
  1
145
 50
90.0
 41
0.9
 72
     1
 11
-1126.176587069745
 21
-307.50000000037431
 31
0.0
  0
POINT
  5
1CF
  8
DEFPOINTS
  6
CONTINUOUS
 62
     7
 10
-823.91898709773159
 20
-380.00000000043292
 30
0.0
  0
POINT
  5
1D0
  8
DEFPOINTS
  6
CONTINUOUS
 62
     7
 10
-235.6768418720367
 20
-235.00000000031551
 30
0.0
  0
POINT
  5
1D1
  8
DEFPOINTS
  6
CONTINUOUS
 62
     7
 10
-1111.176587069745
 20
-235.00000000031531
 30
0.0
  0
LINE
  5
1D2
  8
SIZE
  6
CONTINUOUS
 62
    30
 10
-874.99999999954434
 20
-348.91896673328301
 30
0.0
 11
-874.99999999954434
 21
-825.59038349697994
 31
0.0
  0
LINE
  5
1D3
  8
SIZE
  6
CONTINUOUS
 62
    30
 10
-316.99999999954338
 20
-300.99546649278818
 30
0.0
 11
-316.99999999954349
 21
-825.59038349697994
 31
0.0
  0
LINE
  5
1D4
  8
SIZE
  6
CONTINUOUS
 62
    30
 10
-864.99999999954434
 20
-795.59038349697994
 30
0.0
 11
-326.99999999954338
 21
-795.59038349697994
 31
0.0
  0
CIRCLE
  5
1D5
  8
SIZE
  6
CONTINUOUS
 62
    30
 10
-874.99999999954434
 20
-795.59038349697994
 30
0.0
 40
5.0
  0
LINE
  5
1D6
  8
SIZE
  6
CONTINUOUS
 62
    30
 10
-869.99999999954412
 20
-795.59038349697994
 30
0.0
 11
-864.99999999954434
 21
-795.59038349697994
 31
0.0
  0
CIRCLE
  5
1D7
  8
SIZE
  6
CONTINUOUS
 62
    30
 10
-316.99999999954349
 20
-795.59038349697994
 30
0.0
 40
5.0
  0
LINE
  5
1D8
  8
SIZE
  6
CONTINUOUS
 62
    30
 10
-321.99999999954349
 20
-795.59038349697994
 30
0.0
 11
-326.99999999954349
 21
-795.59038349697994
 31
0.0
  0
TEXT
  5
1D9
  8
SIZE
  6
CONTINUOUS
 62
    30
 10
-659.64285714240089
 20
-780.59038349697994
 30
0.0
 40
55.0
  1
558
 41
0.9
 72
     1
 11
-595.99999999954389
 21
-780.59038349697994
 31
0.0
  0
POINT
  5
1DA
  8
DEFPOINTS
  6
CONTINUOUS
 62
     7
 10
-874.99999999954434
 20
-328.91896673328301
 30
0.0
  0
POINT
  5
1DB
  8
DEFPOINTS
  6
CONTINUOUS
 62
     7
 10
-316.99999999954338
 20
-280.99546649278813
 30
0.0
  0
POINT
  5
1DC
  8
DEFPOINTS
  6
CONTINUOUS
 62
     7
 10
-316.99999999954349
 20
-795.59038349697994
 30
0.0
  0
LINE
  5
1DD
  8
SIZE
  6
CONTINUOUS
 62
    30
 10
-316.99999999953428
 20
-300.99546649278818
 30
0.0
 11
-316.9999999995344
 21
-825.59038349697994
 31
0.0
  0
LINE
  5
1DE
  8
SIZE
  6
CONTINUOUS
 62
    30
 10
-166.99999999954429
 20
-300.99546649278818
 30
0.0
 11
-166.99999999954429
 21
-825.59038349697994
 31
0.0
  0
LINE
  5
1DF
  8
SIZE
  6
CONTINUOUS
 62
    30
 10
-306.9999999995344
 20
-795.59038349697994
 30
0.0
 11
-176.99999999954429
 21
-795.59038349697994
 31
0.0
  0
CIRCLE
  5
1E0
  8
SIZE
  6
CONTINUOUS
 62
    30
 10
-316.9999999995344
 20
-795.59038349697994
 30
0.0
 40
5.0
  0
LINE
  5
1E1
  8
SIZE
  6
CONTINUOUS
 62
    30
 10
-311.9999999995344
 20
-795.59038349697994
 30
0.0
 11
-306.9999999995344
 21
-795.59038349697994
 31
0.0
  0
CIRCLE
  5
1E2
  8
SIZE
  6
CONTINUOUS
 62
    30
 10
-166.99999999954429
 20
-795.59038349697994
 30
0.0
 40
5.0
  0
LINE
  5
1E3
  8
SIZE
  6
CONTINUOUS
 62
    30
 10
-171.99999999954429
 20
-795.59038349697994
 30
0.0
 11
-176.99999999954429
 21
-795.59038349697994
 31
0.0
  0
TEXT
  5
1E4
  8
SIZE
  6
CONTINUOUS
 62
    30
 10
-300.92857142811067
 20
-780.59038349697994
 30
0.0
 40
55.0
  1
150
 41
0.9
 72
     1
 11
-241.99999999953931
 21
-780.59038349697994
 31
0.0
  0
POINT
  5
1E5
  8
DEFPOINTS
  6
CONTINUOUS
 62
     7
 10
-316.99999999953428
 20
-280.99546649278813
 30
0.0
  0
POINT
  5
1E6
  8
DEFPOINTS
  6
CONTINUOUS
 62
     7
 10
-166.99999999954429
 20
-280.99546649278813
 30
0.0
  0
POINT
  5
1E7
  8
DEFPOINTS
  6
CONTINUOUS
 62
     7
 10
-166.99999999954429
 20
-795.59038349697994
 30
0.0
  0
LINE
  5
1E8
  8
SIZE
  6
CONTINUOUS
 62
    30
 10
-874.99999999948682
 20
348.91896673287192
 30
0.0
 11
-874.99999999948682
 21
584.93186729674096
 31
0.0
  0
LINE
  5
1E9
  8
SIZE
  6
CONTINUOUS
 62
    30
 10
-794.99999999954332
 20
397.00453350712172
 30
0.0
 11
-794.99999999954332
 21
584.93186729674096
 31
0.0
  0
LINE
  5
1EA
  8
SIZE
  6
CONTINUOUS
 62
    30
 10
-804.99999999954332
 20
554.93186729674107
 30
0.0
 11
-864.99999999948704
 21
554.93186729674107
 31
0.0
  0
LINE
  5
1EB
  8
SIZE
  6
CONTINUOUS
 62
    30
 10
-874.99999999948682
 20
554.93186729674107
 30
0.0
 11
-995.14285714234404
 21
554.93186729674107
 31
0.0
  0
CIRCLE
  5
1EC
  8
SIZE
  6
CONTINUOUS
 62
    30
 10
-794.99999999954332
 20
554.93186729674107
 30
0.0
 40
5.0
  0
LINE
  5
1ED
  8
SIZE
  6
CONTINUOUS
 62
    30
 10
-799.99999999954321
 20
554.93186729674107
 30
0.0
 11
-804.99999999954332
 21
554.93186729674107
 31
0.0
  0
CIRCLE
  5
1EE
  8
SIZE
  6
CONTINUOUS
 62
    30
 10
-874.99999999948682
 20
554.93186729674107
 30
0.0
 40
5.0
  0
LINE
  5
1EF
  8
SIZE
  6
CONTINUOUS
 62
    30
 10
-869.99999999948693
 20
554.93186729674107
 30
0.0
 11
-864.99999999948659
 21
554.93186729674107
 31
0.0
  0
TEXT
  5
1F0
  8
SIZE
  6
CONTINUOUS
 62
    30
 10
-980.14285714234427
 20
569.93186729674096
 30
0.0
 40
55.0
  1
80
 41
0.9
 72
     1
 11
-940.0714285709156
 21
569.93186729674096
 31
0.0
  0
POINT
  5
1F1
  8
DEFPOINTS
  6
CONTINUOUS
 62
     7
 10
-874.99999999948682
 20
328.91896673287192
 30
0.0
  0
POINT
  5
1F2
  8
DEFPOINTS
  6
CONTINUOUS
 62
     7
 10
-794.99999999954332
 20
377.00453350712172
 30
0.0
  0
POINT
  5
1F3
  8
DEFPOINTS
  6
CONTINUOUS
 62
     7
 10
-794.99999999954332
 20
554.93186729674107
 30
0.0
  0
LINE
  5
1F4
  8
SIZE
  6
CONTINUOUS
 62
    30
 10
-794.99999999954332
 20
397.00453350712172
 30
0.0
 11
-794.99999999954332
 21
584.93186729674096
 31
0.0
  0
LINE
  5
1F5
  8
SIZE
  6
CONTINUOUS
 62
    30
 10
0.0000000000000012
 20
397.00453350712172
 30
0.0
 11
0.0000000000000127
 21
584.93186729674096
 31
0.0
  0
LINE
  5
1F6
  8
SIZE
  6
CONTINUOUS
 62
    30
 10
-784.99999999954332
 20
554.93186729674107
 30
0.0
 11
-9.9999999999999876
 21
554.93186729674107
 31
0.0
  0
CIRCLE
  5
1F7
  8
SIZE
  6
CONTINUOUS
 62
    30
 10
-794.99999999954332
 20
554.93186729674107
 30
0.0
 40
5.0
  0
LINE
  5
1F8
  8
SIZE
  6
CONTINUOUS
 62
    30
 10
-789.99999999954332
 20
554.93186729674107
 30
0.0
 11
-784.99999999954332
 21
554.93186729674107
 31
0.0
  0
CIRCLE
  5
1F9
  8
SIZE
  6
CONTINUOUS
 62
    30
 10
0.0000000000000109
 20
554.93186729674107
 30
0.0
 40
5.0
  0
LINE
  5
1FA
  8
SIZE
  6
CONTINUOUS
 62
    30
 10
-4.9999999999999867
 20
554.93186729674107
 30
0.0
 11
-9.9999999999999876
 21
554.93186729674107
 31
0.0
  0
TEXT
  5
1FB
  8
SIZE
  6
CONTINUOUS
 62
    30
 10
-656.31428571405741
 20
569.93186729674096
 30
0.0
 40
55.0
  1
795（据付ピッチ）
 41
0.9
 72
     1
 11
-397.49999999977172
 21
569.93186729674096
 31
0.0
  0
POINT
  5
1FC
  8
DEFPOINTS
  6
CONTINUOUS
 62
     7
 10
-794.99999999954332
 20
377.00453350712172
 30
0.0
  0
POINT
  5
1FD
  8
DEFPOINTS
  6
CONTINUOUS
 62
     7
 10
0.0
 20
377.00453350712172
 30
0.0
  0
POINT
  5
1FE
  8
DEFPOINTS
  6
CONTINUOUS
 62
     7
 10
0.0000000000000109
 20
554.93186729674107
 30
0.0
  0
LINE
  5
1FF
  8
SIZE
  6
CONTINUOUS
 62
    30
 10
0.0000000000000012
 20
397.00453350712172
 30
0.0
 11
0.0000000000000127
 21
584.93186729674096
 31
0.0
  0
LINE
  5
200
  8
SIZE
  6
CONTINUOUS
 62
    30
 10
795.00000000045634
 20
397.00453350712172
 30
0.0
 11
795.00000000045634
 21
584.93186729674096
 31
0.0
  0
LINE
  5
201
  8
SIZE
  6
CONTINUOUS
 62
    30
 10
10.000000000000011
 20
554.93186729674107
 30
0.0
 11
785.00000000045634
 21
554.93186729674107
 31
0.0
  0
CIRCLE
  5
202
  8
SIZE
  6
CONTINUOUS
 62
    30
 10
0.0000000000000109
 20
554.93186729674107
 30
0.0
 40
5.0
  0
LINE
  5
203
  8
SIZE
  6
CONTINUOUS
 62
    30
 10
5.0000000000000089
 20
554.93186729674107
 30
0.0
 11
10.000000000000011
 21
554.93186729674107
 31
0.0
  0
CIRCLE
  5
204
  8
SIZE
  6
CONTINUOUS
 62
    30
 10
795.00000000045634
 20
554.93186729674107
 30
0.0
 40
5.0
  0
LINE
  5
205
  8
SIZE
  6
CONTINUOUS
 62
    30
 10
790.00000000045634
 20
554.93186729674107
 30
0.0
 11
785.00000000045634
 21
554.93186729674107
 31
0.0
  0
TEXT
  5
206
  8
SIZE
  6
CONTINUOUS
 62
    30
 10
138.6857142859424
 20
569.93186729674096
 30
0.0
 40
55.0
  1
795（据付ピッチ）
 41
0.9
 72
     1
 11
397.50000000022823
 21
569.93186729674096
 31
0.0
  0
POINT
  5
207
  8
DEFPOINTS
  6
CONTINUOUS
 62
     7
 10
0.0
 20
377.00453350712172
 30
0.0
  0
POINT
  5
208
  8
DEFPOINTS
  6
CONTINUOUS
 62
     7
 10
795.00000000045634
 20
377.00453350712172
 30
0.0
  0
POINT
  5
209
  8
DEFPOINTS
  6
CONTINUOUS
 62
     7
 10
795.00000000045634
 20
554.93186729674107
 30
0.0
  0
LINE
  5
20A
  8
SIZE
  6
CONTINUOUS
 62
    30
 10
795.00000000045634
 20
397.00453350712172
 30
0.0
 11
795.00000000045634
 21
584.93186729674096
 31
0.0
  0
LINE
  5
20B
  8
SIZE
  6
CONTINUOUS
 62
    30
 10
875.00000000039745
 20
348.91896673283821
 30
0.0
 11
875.00000000039745
 21
584.93186729674096
 31
0.0
  0
LINE
  5
20C
  8
SIZE
  6
CONTINUOUS
 62
    30
 10
805.00000000045645
 20
554.93186729674107
 30
0.0
 11
865.00000000039745
 21
554.93186729674107
 31
0.0
  0
LINE
  5
20D
  8
SIZE
  6
CONTINUOUS
 62
    30
 10
875.00000000039745
 20
554.93186729674107
 30
0.0
 11
995.14285714325433
 21
554.93186729674107
 31
0.0
  0
CIRCLE
  5
20E
  8
SIZE
  6
CONTINUOUS
 62
    30
 10
795.00000000045634
 20
554.93186729674107
 30
0.0
 40
5.0
  0
LINE
  5
20F
  8
SIZE
  6
CONTINUOUS
 62
    30
 10
800.00000000045634
 20
554.93186729674107
 30
0.0
 11
805.00000000045645
 21
554.93186729674107
 31
0.0
  0
CIRCLE
  5
210
  8
SIZE
  6
CONTINUOUS
 62
    30
 10
875.00000000039745
 20
554.93186729674107
 30
0.0
 40
5.0
  0
LINE
  5
211
  8
SIZE
  6
CONTINUOUS
 62
    30
 10
870.00000000039745
 20
554.93186729674107
 30
0.0
 11
865.00000000039745
 21
554.93186729674107
 31
0.0
  0
TEXT
  5
212
  8
SIZE
  6
CONTINUOUS
 62
    30
 10
900.00000000039745
 20
569.93186729674096
 30
0.0
 40
55.0
  1
80
 41
0.9
 72
     1
 11
940.071428571826
 21
569.93186729674096
 31
0.0
  0
POINT
  5
213
  8
DEFPOINTS
  6
CONTINUOUS
 62
     7
 10
795.00000000045634
 20
377.00453350712172
 30
0.0
  0
POINT
  5
214
  8
DEFPOINTS
  6
CONTINUOUS
 62
     7
 10
875.00000000039745
 20
328.91896673283821
 30
0.0
  0
POINT
  5
215
  8
DEFPOINTS
  6
CONTINUOUS
 62
     7
 10
875.00000000039745
 20
554.93186729674107
 30
0.0
  0
LINE
  5
216
  8
SIZE
  6
CONTINUOUS
 62
    30
 10
843.91898709944644
 20
-380.00000000034112
 30
0.0
 11
1246.330226944988
 21
-380.00000000034112
 31
0.0
  0
LINE
  5
217
  8
SIZE
  6
CONTINUOUS
 62
    30
 10
830.00453350799944
 20
-362.00000000033089
 30
0.0
 11
1246.330226944988
 21
-362.00000000033111
 31
0.0
  0
LINE
  5
218
  8
SIZE
  6
CONTINUOUS
 62
    30
 10
1216.33022694499
 20
-352.00000000033111
 30
0.0
 11
1216.33022694499
 21
-342.00000000033111
 31
0.0
  0
LINE
  5
219
  8
SIZE
  6
CONTINUOUS
 62
    30
 10
1216.33022694499
 20
-390.00000000034112
 30
0.0
 11
1216.33022694499
 21
-500.71428571462678
 31
0.0
  0
LINE
  5
21A
  8
SIZE
  6
CONTINUOUS
 62
    30
 10
1216.33022694499
 20
-362.00000000033111
 30
0.0
 11
1216.33022694499
 21
-380.00000000034112
 31
0.0
  0
CIRCLE
  5
21B
  8
SIZE
  6
CONTINUOUS
 62
    30
 10
1216.33022694499
 20
-362.00000000033111
 30
0.0
 40
5.0
  0
LINE
  5
21C
  8
SIZE
  6
CONTINUOUS
 62
    30
 10
1216.33022694499
 20
-357.00000000033111
 30
0.0
 11
1216.33022694499
 21
-352.00000000033111
 31
0.0
  0
CIRCLE
  5
21D
  8
SIZE
  6
CONTINUOUS
 62
    30
 10
1216.33022694499
 20
-380.00000000034112
 30
0.0
 40
5.0
  0
LINE
  5
21E
  8
SIZE
  6
CONTINUOUS
 62
    30
 10
1216.33022694499
 20
-385.00000000034112
 30
0.0
 11
1216.33022694499
 21
-390.00000000034112
 31
0.0
  0
TEXT
  5
21F
  8
SIZE
  6
CONTINUOUS
 62
    30
 10
1201.3302269449889
 20
-485.71428571462639
 30
0.0
 40
55.0
  1
18
 50
90.0
 41
0.9
 72
     1
 11
1201.3302269449889
 21
-450.35714285748361
 31
0.0
  0
POINT
  5
220
  8
DEFPOINTS
  6
CONTINUOUS
 62
     7
 10
823.91898709944689
 20
-380.00000000034112
 30
0.0
  0
POINT
  5
221
  8
DEFPOINTS
  6
CONTINUOUS
 62
     7
 10
810.00453350799933
 20
-362.00000000033089
 30
0.0
  0
POINT
  5
222
  8
DEFPOINTS
  6
CONTINUOUS
 62
     7
 10
1216.33022694499
 20
-362.00000000033111
 30
0.0
  0
LINE
  5
223
  8
SIZE
  6
CONTINUOUS
 62
    30
 10
830.00453350799944
 20
-362.00000000033089
 30
0.0
 11
1246.330226944988
 21
-362.00000000033111
 31
0.0
  0
LINE
  5
224
  8
SIZE
  6
CONTINUOUS
 62
    30
 10
830.00453350799944
 20
361.99999999966889
 30
0.0
 11
1246.330226944988
 21
361.99999999966877
 31
0.0
  0
LINE
  5
225
  8
SIZE
  6
CONTINUOUS
 62
    30
 10
1216.33022694499
 20
-352.00000000033111
 30
0.0
 11
1216.33022694499
 21
351.99999999966877
 31
0.0
  0
CIRCLE
  5
226
  8
SIZE
  6
CONTINUOUS
 62
    30
 10
1216.33022694499
 20
-362.00000000033111
 30
0.0
 40
5.0
  0
LINE
  5
227
  8
SIZE
  6
CONTINUOUS
 62
    30
 10
1216.33022694499
 20
-357.00000000033111
 30
0.0
 11
1216.33022694499
 21
-352.00000000033111
 31
0.0
  0
CIRCLE
  5
228
  8
SIZE
  6
CONTINUOUS
 62
    30
 10
1216.33022694499
 20
361.99999999966877
 30
0.0
 40
5.0
  0
LINE
  5
229
  8
SIZE
  6
CONTINUOUS
 62
    30
 10
1216.33022694499
 20
356.99999999966877
 30
0.0
 11
1216.33022694499
 21
351.99999999966877
 31
0.0
  0
TEXT
  5
22A
  8
SIZE
  6
CONTINUOUS
 62
    30
 10
1186.9254650402279
 20
-261.87857142890238
 30
0.0
 40
55.0
  1
724(721～727)
 50
90.0
 41
0.9
 72
     1
 11
1186.9254650402279
 21
-0.0000000003309547
 31
0.0
  0
POINT
  5
22B
  8
DEFPOINTS
  6
CONTINUOUS
 62
     7
 10
810.00453350799933
 20
-362.00000000033089
 30
0.0
  0
POINT
  5
22C
  8
DEFPOINTS
  6
CONTINUOUS
 62
     7
 10
810.00453350799933
 20
361.99999999966889
 30
0.0
  0
POINT
  5
22D
  8
DEFPOINTS
  6
CONTINUOUS
 62
     7
 10
1216.33022694499
 20
361.99999999966877
 30
0.0
  0
TEXT
  5
22E
  8
SIZE
  6
CONTINUOUS
 62
    30
 10
1281.8813610472721
 20
-216.75299697389249
 30
0.0
 40
55.0
  1
（据付ピッチ）
 50
89.999997495479164
 41
0.9
  7
STANDARD1
  0
LINE
  5
22F
  8
SIZE
  6
CONTINUOUS
 62
    30
 10
830.00453350799944
 20
361.99999999966889
 30
0.0
 11
1246.330226944988
 21
361.99999999966877
 31
0.0
  0
LINE
  5
230
  8
SIZE
  6
CONTINUOUS
 62
    30
 10
843.91898709864279
 20
379.99999999964518
 30
0.0
 11
1246.330226944988
 21
379.99999999964518
 31
0.0
  0
LINE
  5
231
  8
SIZE
  6
CONTINUOUS
 62
    30
 10
1216.33022694499
 20
351.99999999966877
 30
0.0
 11
1216.33022694499
 21
341.99999999966877
 31
0.0
  0
LINE
  5
232
  8
SIZE
  6
CONTINUOUS
 62
    30
 10
1216.33022694499
 20
389.99999999964518
 30
0.0
 11
1216.33022694499
 21
500.71428571393102
 31
0.0
  0
LINE
  5
233
  8
SIZE
  6
CONTINUOUS
 62
    30
 10
1216.33022694499
 20
361.99999999966877
 30
0.0
 11
1216.33022694499
 21
379.99999999964518
 31
0.0
  0
CIRCLE
  5
234
  8
SIZE
  6
CONTINUOUS
 62
    30
 10
1216.33022694499
 20
361.99999999966877
 30
0.0
 40
5.0
  0
LINE
  5
235
  8
SIZE
  6
CONTINUOUS
 62
    30
 10
1216.33022694499
 20
356.99999999966877
 30
0.0
 11
1216.33022694499
 21
351.99999999966877
 31
0.0
  0
CIRCLE
  5
236
  8
SIZE
  6
CONTINUOUS
 62
    30
 10
1216.33022694499
 20
379.99999999964518
 30
0.0
 40
5.0
  0
LINE
  5
237
  8
SIZE
  6
CONTINUOUS
 62
    30
 10
1216.33022694499
 20
384.99999999964518
 30
0.0
 11
1216.33022694499
 21
389.99999999964518
 31
0.0
  0
TEXT
  5
238
  8
SIZE
  6
CONTINUOUS
 62
    30
 10
1201.3302269449889
 20
414.99999999964552
 30
0.0
 40
55.0
  1
18
 50
90.0
 41
0.9
 72
     1
 11
1201.3302269449889
 21
450.35714285678841
 31
0.0
  0
POINT
  5
239
  8
DEFPOINTS
  6
CONTINUOUS
 62
     7
 10
810.00453350799933
 20
361.99999999966889
 30
0.0
  0
POINT
  5
23A
  8
DEFPOINTS
  6
CONTINUOUS
 62
     7
 10
823.9189870986429
 20
379.99999999964518
 30
0.0
  0
POINT
  5
23B
  8
DEFPOINTS
  6
CONTINUOUS
 62
     7
 10
1216.33022694499
 20
379.99999999964518
 30
0.0
  0
TEXT
  5
23C
  8
NOTE
  6
CONTINUOUS
 62
     4
 10
-559.18050650422629
 20
-71.127229770919271
 30
0.0
 40
55.0
  1
RG %%C28.58
 50
0.0000025044687019
 41
0.630952371610266
  7
STANDARD1
  0
LINE
  5
23D
  8
NOTE
  6
CONTINUOUS
 62
     4
 10
-567.23089185146
 20
-87.069733750510764
 30
0.0
 11
-253.62281970036469
 21
-87.069733750510764
 31
0.0
  0
TEXT
  5
23E
  8
NOTE
  6
CONTINUOUS
 62
     4
 10
-651.26917262660925
 20
-163.7369504550488
 30
0.0
 40
55.0
  1
RL %%C15.88
 50
0.0000025044687019
 41
0.630952371610266
  7
STANDARD1
  0
LINE
  5
23F
  8
NOTE
  6
CONTINUOUS
 62
     4
 10
-660.27206772615307
 20
-176.3004601174043
 30
0.0
 11
-353.80323908562508
 21
-176.3004601174043
 31
0.0
  0
TEXT
  5
240
  8
NOTE
  6
CONTINUOUS
 62
     4
 10
-832.7724758698904
 20
-460.67996227061201
 30
0.0
 40
55.0
  1
EL3 %%C65ﾉｯｸｱｳﾄ穴
 50
359.99999749553132
 41
0.630952371610266
  7
STANDARD1
  0
LINE
  5
241
  8
NOTE
  6
CONTINUOUS
 62
     4
 10
-847.6444971379359
 20
-471.02477976208218
 30
0.0
 11
-434.03642498684059
 21
-471.02477976208218
 31
0.0
  0
LINE
  5
242
  8
NOTE
  6
CONTINUOUS
 62
     4
 10
-434.03642498684059
 20
-471.02477976208218
 30
0.0
 11
-363.99999999954417
 21
-249.000000000331
 31
0.0
  0
LINE
  5
243
  8
NOTE
  6
CONTINUOUS
 62
     4
 10
-353.80323908562508
 20
-176.3004601174043
 30
0.0
 11
-284.99999999953792
 21
-230.00000000031551
 31
0.0
  0
LINE
  5
244
  8
NOTE
  6
CONTINUOUS
 62
     4
 10
-253.62281970036469
 20
-87.069733750510764
 30
0.0
 11
-201.99999999953789
 21
-235.00000000031551
 31
0.0
  0
TEXT
  5
245
  8
NOTE
  6
CONTINUOUS
 62
     4
 10
-490.41230734901347
 20
34.736903150932449
 30
0.0
 40
55.0
  1
150×94ﾉｯｸｱｳﾄ穴
 50
359.99999749553132
 41
0.630952371610266
  7
STANDARD1
  0
LINE
  5
246
  8
NOTE
  6
CONTINUOUS
 62
     4
 10
-494.83132521414967
 20
24.392085659462278
 30
0.0
 11
-116.70960088395439
 21
24.392085659462278
 31
0.0
  0
LINE
  5
247
  8
NOTE
  6
CONTINUOUS
 62
     4
 10
-171.394726115358
 20
-206.39472611614471
 30
0.0
 11
-116.70960088395439
 21
24.392085659462278
 31
0.0
  0
TEXT
  5
248
  8
NOTE
  6
CONTINUOUS
 62
     4
 10
227.49016686685621
 20
-500.03527822656991
 30
0.0
 40
55.0
  1
AH 2X3-14X20長穴
 50
0.0000025044687019
 41
0.630952371610266
  7
STANDARD1
  0
LINE
  5
249
  8
NOTE
  6
CONTINUOUS
 62
     4
 10
218.8799224971626
 20
-513.43338873094547
 30
0.0
 11
715.00693240946384
 21
-513.43338873094547
 31
0.0
  0
LINE
  5
24A
  8
NOTE
  6
CONTINUOUS
 62
     4
 10
715.00693240946384
 20
-513.43338873094547
 30
0.0
 11
795.00000000045634
 21
-362.00000000042081
 31
0.0
  0
LINE
  5
24B
  8
NOTE
  6
CONTINUOUS
 62
     4
 10
795.00000000041075
 20
-362.00000000034743
 30
0.0
 11
772.07014939643523
 21
-386.19365833248679
 31
0.0
  0
LINE
  5
24C
  8
NOTE
  6
CONTINUOUS
 62
     4
 10
795.00000000041075
 20
-362.00000000034743
 30
0.0
 11
787.23899651077954
 21
-394.41724814151979
 31
0.0
  0
LINE
  5
24D
  8
NOTE
  6
CONTINUOUS
 62
     4
 10
-363.99999999954417
 20
-249.00000000033191
 30
0.0
 11
-381.93911976030529
 21
-277.0944680398232
 31
0.0
  0
LINE
  5
24E
  8
NOTE
  6
CONTINUOUS
 62
     4
 10
-363.99999999954417
 20
-249.00000000033191
 30
0.0
 11
-365.48849892896391
 21
-282.30008293040282
 31
0.0
  0
LINE
  5
24F
  8
NOTE
  6
CONTINUOUS
 62
     4
 10
-171.394726115358
 20
-206.39472611614471
 30
0.0
 11
-154.87134306571889
 21
-177.44495988551981
 31
0.0
  0
LINE
  5
250
  8
NOTE
  6
CONTINUOUS
 62
     4
 10
-171.394726115358
 20
-206.39472611614471
 30
0.0
 11
-171.5599402388861
 21
-173.06180160439811
 31
0.0
  0
LINE
  5
251
  8
NOTE
  6
CONTINUOUS
 62
     4
 10
-201.99999999955699
 20
-235.0000000003192
 30
0.0
 11
-204.43035623283501
 21
-201.75538358213359
 31
0.0
  0
LINE
  5
252
  8
NOTE
  6
CONTINUOUS
 62
     4
 10
-201.99999999955699
 20
-235.0000000003192
 30
0.0
 11
-220.72705884868901
 21
-207.42449603260221
 31
0.0
  0
LINE
  5
253
  8
NOTE
  6
CONTINUOUS
 62
     4
 10
-284.9999999995452
 20
-230.000000000331
 30
0.0
 11
-305.00499747100912
 21
-203.3370813982792
 31
0.0
  0
LINE
  5
254
  8
NOTE
  6
CONTINUOUS
 62
     4
 10
-284.9999999995452
 20
-230.000000000331
 30
0.0
 11
-315.65629550419271
 21
-216.91173433431771
 31
0.0
  0
LINE
  5
255
  8
OUTLINE
  6
CONTINUOUS
 62
     3
 10
823.91898709944689
 20
-380.000000000331
 30
0.0
 11
-823.91901569052845
 21
-380.000000000331
 31
0.0
  0
LINE
  5
256
  8
OUTLINE
  6
CONTINUOUS
 62
     3
 10
-823.91898709864199
 20
379.99999999966712
 30
0.0
 11
823.9189870986429
 21
379.99999999966712
 31
0.0
  0
LINE
  5
257
  8
OUTLINE
  6
CONTINUOUS
 62
     3
 10
-874.99999999954434
 20
-328.91898709942848
 30
0.0
 11
-874.99999999954434
 21
328.91898709785522
 31
0.0
  0
LINE
  5
258
  8
OUTLINE
  6
CONTINUOUS
 62
     3
 10
-873.82825152551663
 20
-331.74781779135623
 30
0.0
 11
-826.74781779056946
 21
-378.82825152631989
 31
0.0
  0
ARC
  5
259
  8
OUTLINE
  6
CONTINUOUS
 62
     3
 10
-870.99944963507448
 20
-328.91898709942848
 30
0.0
 40
4.0005503644646359
 50
179.99970832144891
 51
225.0002916785827
  0
ARC
  5
25A
  8
OUTLINE
  6
CONTINUOUS
 62
     3
 10
-823.91898709773159
 20
-375.99944963396769
 30
0.0
 40
4.0005503664654931
 50
224.99970833317161
 51
270.0
  0
LINE
  5
25B
  8
OUTLINE
  6
CONTINUOUS
 62
     3
 10
-826.74781779056946
 20
378.82825152550481
 30
0.0
 11
-873.82825152551663
 21
331.74781779069241
 31
0.0
  0
ARC
  5
25C
  8
OUTLINE
  6
CONTINUOUS
 62
     3
 10
-870.9994496330736
 20
328.91898709785522
 30
0.0
 40
4.0005503664648252
 50
134.9997083331715
 51
180.00029166677399
  0
ARC
  5
25D
  8
OUTLINE
  6
CONTINUOUS
 62
     3
 10
-823.91898709864199
 20
375.99944963518448
 30
0.0
 40
4.0005503644636891
 50
90.0
 51
135.00029167847219
  0
LINE
  5
25E
  8
OUTLINE
  6
CONTINUOUS
 62
     3
 10
875.00000000045475
 20
328.91898709864478
 30
0.0
 11
875.00000000045475
 21
-328.91898709864103
 31
0.0
  0
LINE
  5
25F
  8
OUTLINE
  6
CONTINUOUS
 62
     3
 10
826.74781779147986
 20
-378.82825152631989
 30
0.0
 11
873.82825152632358
 21
-331.74781779135623
 31
0.0
  0
ARC
  5
260
  8
OUTLINE
  6
CONTINUOUS
 62
     3
 10
823.91898709944689
 20
-375.99944963587768
 30
0.0
 40
4.0005503644636891
 50
270.0
 51
315.00029167847219
  0
ARC
  5
261
  8
OUTLINE
  6
CONTINUOUS
 62
     3
 10
870.99944963398593
 20
-328.91898709864103
 30
0.0
 40
4.0005503664648252
 50
314.99970833317161
 51
0.0002916667741873
  0
LINE
  5
262
  8
OUTLINE
  6
CONTINUOUS
 62
     3
 10
873.82825152632358
 20
331.74781779069241
 30
0.0
 11
826.74781779147986
 21
378.82825152550481
 31
0.0
  0
ARC
  5
263
  8
OUTLINE
  6
CONTINUOUS
 62
     3
 10
823.9189870986429
 20
375.99944963318183
 30
0.0
 40
4.0005503664638091
 50
44.999708333282143
 51
90.0
  0
ARC
  5
264
  8
OUTLINE
  6
CONTINUOUS
 62
     3
 10
870.99944963598682
 20
328.91898709864478
 30
0.0
 40
4.0005503644636891
 50
359.99970832144891
 51
45.000291678582741
  0
TEXT
  5
265
  8
ETC
  6
CONTINUOUS
 62
    61
 10
350.913604747725
 20
781.58371748282741
 30
0.0
 40
65.0
  1
PUHY-P500_560CM-E3_6
 50
0.0000025044165917
 41
0.8
  7
STANDARD1
  0
LINE
  5
266
  8
SIZE
  6
CONTINUOUS
 62
    30
 10
886.96194606619952
 20
324.99999999966712
 30
0.0
 11
1102.3580620960099
 21
324.99999999966701
 31
0.0
  0
LINE
  5
267
  8
SIZE
  6
CONTINUOUS
 62
    30
 10
890.26294343825612
 20
299.99999999966678
 30
0.0
 11
1102.3580620960099
 21
299.99999999966678
 31
0.0
  0
LINE
  5
268
  8
SIZE
  6
CONTINUOUS
 62
    30
 10
1072.3580620960099
 20
334.99999999966701
 30
0.0
 11
1072.3580620960099
 21
344.9999999996669
 31
0.0
  0
LINE
  5
269
  8
SIZE
  6
CONTINUOUS
 62
    30
 10
1072.3580620960099
 20
289.99999999966678
 30
0.0
 11
1072.3580620960099
 21
169.8571428568097
 31
0.0
  0
LINE
  5
26A
  8
SIZE
  6
CONTINUOUS
 62
    30
 10
1072.3580620960099
 20
324.99999999966701
 30
0.0
 11
1072.3580620960099
 21
299.99999999966678
 31
0.0
  0
CIRCLE
  5
26B
  8
SIZE
  6
CONTINUOUS
 62
    30
 10
1072.3580620960099
 20
324.99999999966701
 30
0.0
 40
5.0
  0
LINE
  5
26C
  8
SIZE
  6
CONTINUOUS
 62
    30
 10
1072.3580620960099
 20
329.99999999966701
 30
0.0
 11
1072.3580620960099
 21
334.99999999966701
 31
0.0
  0
CIRCLE
  5
26D
  8
SIZE
  6
CONTINUOUS
 62
    30
 10
1072.3580620960099
 20
299.99999999966678
 30
0.0
 40
5.0
  0
LINE
  5
26E
  8
SIZE
  6
CONTINUOUS
 62
    30
 10
1072.3580620960099
 20
294.99999999966678
 30
0.0
 11
1072.3580620960099
 21
289.99999999966678
 31
0.0
  0
TEXT
  5
26F
  8
SIZE
  6
CONTINUOUS
 62
    30
 10
1057.3580620960099
 20
184.85714285680979
 30
0.0
 40
55.0
  1
25
 50
90.0
 41
0.9
 72
     1
 11
1057.3580620960099
 21
224.9285714282384
 31
0.0
  0
POINT
  5
270
  8
DEFPOINTS
  6
CONTINUOUS
 62
     7
 10
866.96194606619963
 20
324.99999999966712
 30
0.0
  0
POINT
  5
271
  8
DEFPOINTS
  6
CONTINUOUS
 62
     7
 10
870.26294343825612
 20
299.99999999966678
 30
0.0
  0
POINT
  5
272
  8
DEFPOINTS
  6
CONTINUOUS
 62
     7
 10
1072.3580620960099
 20
299.99999999966678
 30
0.0
  0
LINE
  5
273
  8
SIZE
  6
CONTINUOUS
 62
    30
 10
886.96194606619952
 20
324.99999999966712
 30
0.0
 11
1102.3580620960099
 21
324.99999999966701
 31
0.0
  0
LINE
  5
274
  8
SIZE
  6
CONTINUOUS
 62
    30
 10
837.80495802631435
 20
379.99999999966752
 30
0.0
 11
1102.3580620960099
 21
379.99999999966752
 31
0.0
  0
LINE
  5
275
  8
SIZE
  6
CONTINUOUS
 62
    30
 10
1072.3580620960099
 20
334.99999999966701
 30
0.0
 11
1072.3580620960099
 21
369.99999999966752
 31
0.0
  0
LINE
  5
276
  8
SIZE
  6
CONTINUOUS
 62
    30
 10
1072.3580620960099
 20
379.99999999966752
 30
0.0
 11
1072.3580620960099
 21
500.14285714252492
 31
0.0
  0
CIRCLE
  5
277
  8
SIZE
  6
CONTINUOUS
 62
    30
 10
1072.3580620960099
 20
324.99999999966701
 30
0.0
 40
5.0
  0
LINE
  5
278
  8
SIZE
  6
CONTINUOUS
 62
    30
 10
1072.3580620960099
 20
329.99999999966701
 30
0.0
 11
1072.3580620960099
 21
334.99999999966701
 31
0.0
  0
CIRCLE
  5
279
  8
SIZE
  6
CONTINUOUS
 62
    30
 10
1072.3580620960099
 20
379.99999999966752
 30
0.0
 40
5.0
  0
LINE
  5
27A
  8
SIZE
  6
CONTINUOUS
 62
    30
 10
1072.3580620960099
 20
374.99999999966752
 30
0.0
 11
1072.3580620960099
 21
369.99999999966752
 31
0.0
  0
TEXT
  5
27B
  8
SIZE
  6
CONTINUOUS
 62
    30
 10
1057.3580620960099
 20
404.99999999966781
 30
0.0
 40
55.0
  1
55
 50
90.0
 41
0.9
 72
     1
 11
1057.3580620960099
 21
445.07142857109631
 31
0.0
  0
POINT
  5
27C
  8
DEFPOINTS
  6
CONTINUOUS
 62
     7
 10
866.96194606619963
 20
324.99999999966712
 30
0.0
  0
POINT
  5
27D
  8
DEFPOINTS
  6
CONTINUOUS
 62
     7
 10
817.80495802631424
 20
379.99999999966752
 30
0.0
  0
POINT
  5
27E
  8
DEFPOINTS
  6
CONTINUOUS
 62
     7
 10
1072.3580620960099
 20
379.99999999966752
 30
0.0
  0
LINE
  5
27F
  8
SIZE
  6
CONTINUOUS
 62
    30
 10
886.96194606619952
 20
-324.99999999966349
 30
0.0
 11
1102.3580620960099
 21
-324.99999999966349
 31
0.0
  0
LINE
  5
280
  8
SIZE
  6
CONTINUOUS
 62
    30
 10
890.26294343825612
 20
-299.9999999996632
 30
0.0
 11
1102.3580620960099
 21
-299.9999999996632
 31
0.0
  0
LINE
  5
281
  8
SIZE
  6
CONTINUOUS
 62
    30
 10
1072.3580620960099
 20
-334.99999999966349
 30
0.0
 11
1072.3580620960099
 21
-344.99999999966349
 31
0.0
  0
LINE
  5
282
  8
SIZE
  6
CONTINUOUS
 62
    30
 10
1072.3580620960099
 20
-289.99999999966332
 30
0.0
 11
1072.3580620960099
 21
-169.85714285680621
 31
0.0
  0
LINE
  5
283
  8
SIZE
  6
CONTINUOUS
 62
    30
 10
1072.3580620960099
 20
-324.99999999966349
 30
0.0
 11
1072.3580620960099
 21
-299.9999999996632
 31
0.0
  0
CIRCLE
  5
284
  8
SIZE
  6
CONTINUOUS
 62
    30
 10
1072.3580620960099
 20
-324.99999999966349
 30
0.0
 40
5.0
  0
LINE
  5
285
  8
SIZE
  6
CONTINUOUS
 62
    30
 10
1072.3580620960099
 20
-329.99999999966349
 30
0.0
 11
1072.3580620960099
 21
-334.99999999966349
 31
0.0
  0
CIRCLE
  5
286
  8
SIZE
  6
CONTINUOUS
 62
    30
 10
1072.3580620960099
 20
-299.9999999996632
 30
0.0
 40
5.0
  0
LINE
  5
287
  8
SIZE
  6
CONTINUOUS
 62
    30
 10
1072.3580620960099
 20
-294.99999999966332
 30
0.0
 11
1072.3580620960099
 21
-289.99999999966332
 31
0.0
  0
TEXT
  5
288
  8
SIZE
  6
CONTINUOUS
 62
    30
 10
1057.3580620960099
 20
-264.99999999966309
 30
0.0
 40
55.0
  1
25
 50
90.0
 41
0.9
 72
     1
 11
1057.3580620960099
 21
-224.92857142823459
 31
0.0
  0
POINT
  5
289
  8
DEFPOINTS
  6
CONTINUOUS
 62
     7
 10
866.96194606619963
 20
-324.99999999966349
 30
0.0
  0
POINT
  5
28A
  8
DEFPOINTS
  6
CONTINUOUS
 62
     7
 10
870.26294343825612
 20
-299.9999999996632
 30
0.0
  0
POINT
  5
28B
  8
DEFPOINTS
  6
CONTINUOUS
 62
     7
 10
1072.3580620960099
 20
-299.9999999996632
 30
0.0
  0
LINE
  5
28C
  8
SIZE
  6
CONTINUOUS
 62
    30
 10
886.96194606619952
 20
-324.99999999966349
 30
0.0
 11
1102.3580620960099
 21
-324.99999999966349
 31
0.0
  0
LINE
  5
28D
  8
SIZE
  6
CONTINUOUS
 62
    30
 10
837.80495802631435
 20
-379.99999999966388
 30
0.0
 11
1102.3580620960099
 21
-379.99999999966388
 31
0.0
  0
LINE
  5
28E
  8
SIZE
  6
CONTINUOUS
 62
    30
 10
1072.3580620960099
 20
-334.99999999966349
 30
0.0
 11
1072.3580620960099
 21
-369.999999999664
 31
0.0
  0
LINE
  5
28F
  8
SIZE
  6
CONTINUOUS
 62
    30
 10
1072.3580620960099
 20
-379.99999999966388
 30
0.0
 11
1072.3580620960099
 21
-500.14285714252151
 31
0.0
  0
CIRCLE
  5
290
  8
SIZE
  6
CONTINUOUS
 62
    30
 10
1072.3580620960099
 20
-324.99999999966349
 30
0.0
 40
5.0
  0
LINE
  5
291
  8
SIZE
  6
CONTINUOUS
 62
    30
 10
1072.3580620960099
 20
-329.99999999966349
 30
0.0
 11
1072.3580620960099
 21
-334.99999999966349
 31
0.0
  0
CIRCLE
  5
292
  8
SIZE
  6
CONTINUOUS
 62
    30
 10
1072.3580620960099
 20
-379.99999999966388
 30
0.0
 40
5.0
  0
LINE
  5
293
  8
SIZE
  6
CONTINUOUS
 62
    30
 10
1072.3580620960099
 20
-374.999999999664
 30
0.0
 11
1072.3580620960099
 21
-369.99999999966388
 31
0.0
  0
TEXT
  5
294
  8
SIZE
  6
CONTINUOUS
 62
    30
 10
1057.3580620960099
 20
-485.14285714252139
 30
0.0
 40
55.0
  1
55
 50
90.0
 41
0.9
 72
     1
 11
1057.3580620960099
 21
-445.07142857109278
 31
0.0
  0
POINT
  5
295
  8
DEFPOINTS
  6
CONTINUOUS
 62
     7
 10
866.96194606619963
 20
-324.99999999966349
 30
0.0
  0
POINT
  5
296
  8
DEFPOINTS
  6
CONTINUOUS
 62
     7
 10
817.80495802631424
 20
-379.99999999966388
 30
0.0
  0
POINT
  5
297
  8
DEFPOINTS
  6
CONTINUOUS
 62
     7
 10
1072.3580620960099
 20
-379.99999999966388
 30
0.0
  0
ARC
  5
3A0
  8
DETAIL
  6
CONTINUOUS
 62
     5
 10
-284.99999999954429
 20
-230.00000000031551
 30
0.0
 40
8.5025689876113688
 50
5.770151366753681
 51
174.22984863324859
  0
ENDSEC
  0
EOF
