  0
SECTION
  2
HEADER
  9
$ACADVER
  1
AC1009
  9
$INSBASE
 10
0.0
 20
0.0
 30
0.0
  9
$EXTMIN
 10
-1301.605202
 20
-536.572249
 30
-0.001526
  9
$EXTMAX
 10
1755.981462
 20
2056.105054
 30
0.0
  9
$LIMMIN
 10
-4200.0
 20
-2970.0
  9
$LIMMAX
 10
4200.0
 20
2970.0
  9
$ORTHOMODE
 70
     0
  9
$REGENMODE
 70
     1
  9
$FILLMODE
 70
     1
  9
$QTEXTMODE
 70
     0
  9
$MIRRTEXT
 70
     0
  9
$DRAGMODE
 70
     2
  9
$LTSCALE
 40
20.0
  9
$OSMODE
 70
    37
  9
$ATTMODE
 70
     1
  9
$TEXTSIZE
 40
64.0
  9
$TRACEWID
 40
0.05
  9
$TEXTSTYLE
  7
STANDARD
  9
$CLAYER
  8
SIZE
  9
$CELTYPE
  6
CONTINUOUS
  9
$CECOLOR
 62
     7
  9
$DIMSCALE
 40
1.0
  9
$DIMASZ
 40
10.0
  9
$DIMEXO
 40
20.0
  9
$DIMDLI
 40
200.0
  9
$DIMRND
 40
0.0
  9
$DIMDLE
 40
0.0
  9
$DIMEXE
 40
30.0
  9
$DIMTP
 40
0.0
  9
$DIMTM
 40
0.0
  9
$DIMTXT
 40
55.0
  9
$DIMCEN
 40
0.0
  9
$DIMTSZ
 40
0.0
  9
$DIMTOL
 70
     0
  9
$DIMLIM
 70
     0
  9
$DIMTIH
 70
     0
  9
$DIMTOH
 70
     0
  9
$DIMSE1
 70
     0
  9
$DIMSE2
 70
     0
  9
$DIMTAD
 70
     1
  9
$DIMZIN
 70
     8
  9
$DIMBLK
  1
_DOTBLANK
  9
$DIMASO
 70
     1
  9
$DIMSHO
 70
     0
  9
$DIMPOST
  1

  9
$DIMAPOST
  1

  9
$DIMALT
 70
     0
  9
$DIMALTD
 70
     2
  9
$DIMALTF
 40
25.4
  9
$DIMLFAC
 40
1.0
  9
$DIMTOFL
 70
     1
  9
$DIMTVP
 40
0.0
  9
$DIMTIX
 70
     1
  9
$DIMSOXD
 70
     0
  9
$DIMSAH
 70
     0
  9
$DIMBLK1
  1

  9
$DIMBLK2
  1

  9
$DIMSTYLE
  2
STANDARD
  9
$DIMCLRD
 70
     0
  9
$DIMCLRE
 70
     0
  9
$DIMCLRT
 70
     0
  9
$DIMTFAC
 40
1.0
  9
$DIMGAP
 40
0.09
  9
$LUNITS
 70
     2
  9
$LUPREC
 70
     4
  9
$SKETCHINC
 40
0.1
  9
$FILLETRAD
 40
0.0
  9
$AUNITS
 70
     1
  9
$AUPREC
 70
     3
  9
$MENU
  1
ACAD
  9
$ELEVATION
 40
0.0
  9
$PELEVATION
 40
0.0
  9
$THICKNESS
 40
0.0
  9
$LIMCHECK
 70
     0
  9
$BLIPMODE
 70
     0
  9
$CHAMFERA
 40
0.0
  9
$CHAMFERB
 40
0.0
  9
$SKPOLY
 70
     0
  9
$TDCREATE
 40
2449761.493623
  9
$TDUPDATE
 40
2454280.644757
  9
$TDINDWG
 40
4.497663
  9
$TDUSRTIMER
 40
4.497663
  9
$USRTIMER
 70
     1
  9
$ANGBASE
 50
0.0
  9
$ANGDIR
 70
     0
  9
$PDMODE
 70
    35
  9
$PDSIZE
 40
100.0
  9
$PLINEWID
 40
0.0
  9
$COORDS
 70
     2
  9
$SPLFRAME
 70
     0
  9
$SPLINETYPE
 70
     6
  9
$SPLINESEGS
 70
     8
  9
$ATTDIA
 70
     0
  9
$ATTREQ
 70
     1
  9
$HANDLING
 70
     1
  9
$HANDSEED
  5
1014
  9
$SURFTAB1
 70
     6
  9
$SURFTAB2
 70
     6
  9
$SURFTYPE
 70
     6
  9
$SURFU
 70
     6
  9
$SURFV
 70
     6
  9
$UCSNAME
  2

  9
$UCSORG
 10
0.0
 20
0.0
 30
0.0
  9
$UCSXDIR
 10
1.0
 20
0.0
 30
0.0
  9
$UCSYDIR
 10
0.0
 20
1.0
 30
0.0
  9
$PUCSNAME
  2

  9
$PUCSORG
 10
0.0
 20
0.0
 30
0.0
  9
$PUCSXDIR
 10
1.0
 20
0.0
 30
0.0
  9
$PUCSYDIR
 10
0.0
 20
1.0
 30
0.0
  9
$USERI1
 70
     0
  9
$USERI2
 70
     0
  9
$USERI3
 70
     0
  9
$USERI4
 70
     0
  9
$USERI5
 70
     0
  9
$USERR1
 40
20.0
  9
$USERR2
 40
0.0
  9
$USERR3
 40
0.0
  9
$USERR4
 40
0.0
  9
$USERR5
 40
0.0
  9
$WORLDVIEW
 70
     1
  9
$SHADEDGE
 70
     3
  9
$SHADEDIF
 70
    70
  9
$TILEMODE
 70
     1
  9
$MAXACTVP
 70
    48
  9
$PLIMCHECK
 70
     0
  9
$PEXTMIN
 10
1.000000E+020
 20
1.000000E+020
 30
1.000000E+020
  9
$PEXTMAX
 10
-1.000000E+020
 20
-1.000000E+020
 30
-1.000000E+020
  9
$PLIMMIN
 10
0.0
 20
0.0
  9
$PLIMMAX
 10
12.0
 20
9.0
  9
$UNITMODE
 70
     0
  9
$VISRETAIN
 70
     1
  9
$PLINEGEN
 70
     0
  9
$PSLTSCALE
 70
     1
  0
ENDSEC
  0
SECTION
  2
TABLES
  0
TABLE
  2
VPORT
 70
    52
  0
VPORT
  2
*ACTIVE
 70
     0
 10
0.0
 20
0.0
 11
1.0
 21
1.0
 12
227.18813
 22
759.766403
 13
0.0
 23
0.0
 14
50.0
 24
50.0
 15
100.0
 25
100.0
 16
0.0
 26
0.0
 36
1.0
 17
0.0
 27
0.0
 37
0.0
 40
2624.103695
 41
2.02834
 42
50.0
 43
0.0
 44
0.0
 50
0.0
 51
0.0
 71
     0
 72
  1000
 73
     1
 74
     0
 75
     0
 76
     0
 77
     0
 78
     0
  0
ENDTAB
  0
TABLE
  2
LTYPE
 70
     2
  0
LTYPE
  2
CONTINUOUS
 70
     0
  3
実線
 72
    65
 73
     0
 40
0.0
  0
LTYPE
  2
DASHDOT
 70
     0
  3
____ _ ____ _ ____ _ ____ _ ____ _ ____ _ ____
 72
    65
 73
     4
 40
5.5
 49
4.0
 49
-0.6
 49
0.3
 49
-0.6
  0
ENDTAB
  0
TABLE
  2
LAYER
 70
    12
  0
LAYER
  2
0
 70
     0
 62
     7
  6
CONTINUOUS
  0
LAYER
  2
SIZE
 70
     0
 62
    30
  6
CONTINUOUS
  0
LAYER
  2
OUTLINE
 70
     0
 62
     3
  6
CONTINUOUS
  0
LAYER
  2
DETAIL
 70
     0
 62
     5
  6
CONTINUOUS
  0
LAYER
  2
BASIS
 70
     0
 62
     6
  6
DASHDOT
  0
LAYER
  2
NOTE
 70
     0
 62
     4
  6
CONTINUOUS
  0
LAYER
  2
ARRANGE
 70
     0
 62
     1
  6
CONTINUOUS
  0
LAYER
  2
FIX
 70
     0
 62
    11
  6
CONTINUOUS
  0
LAYER
  2
SERVICESPACE
 70
     0
 62
     2
  6
DASHDOT
  0
LAYER
  2
ETC
 70
     0
 62
    61
  6
CONTINUOUS
  0
LAYER
  2
SYMBOLLINE
 70
     0
 62
    15
  6
CONTINUOUS
  0
LAYER
  2
DEFPOINTS
 70
     0
 62
     7
  6
CONTINUOUS
  0
ENDTAB
  0
TABLE
  2
STYLE
 70
     2
  0
STYLE
  2
STANDARD
 70
     0
 40
0.0
 41
0.9
 50
0.0
 71
     0
 42
64.0
  3
SIMPLEX
  4
BIGFONT
  0
STYLE
  2
STANDARD1
 70
     0
 40
0.0
 41
1.0
 50
0.0
 71
     0
 42
3.5
  3
MONOTXT
  4
BIGFONT
  0
ENDTAB
  0
TABLE
  2
VIEW
 70
     1
  0
VIEW
  2
ALL
 70
     0
 40
6056.230032
 10
0.0
 20
58.115016
 41
8400.0
 11
0.0
 21
0.0
 31
1.0
 12
0.0
 22
0.0
 32
0.0
 42
50.0
 43
0.0
 44
0.0
 50
0.0
 71
     0
  0
ENDTAB
  0
TABLE
  2
UCS
 70
     0
  0
ENDTAB
  0
TABLE
  2
APPID
 70
     1
  0
APPID
  2
ACAD
 70
     0
  0
ENDTAB
  0
TABLE
  2
DIMSTYLE
 70
     1
  0
DIMSTYLE
  2
STANDARD
 70
     0
  3

  4

  5

  6

  7

 40
1.0
 41
0.18
 42
0.0625
 43
0.38
 44
0.18
 45
0.0
 46
0.0
 47
0.0
 48
0.0
140
0.18
141
0.09
142
0.0
143
25.4
144
1.0
145
0.0
146
1.0
147
0.09
 71
     0
 72
     0
 73
     1
 74
     1
 75
     0
 76
     0
 77
     0
 78
     0
170
     0
171
     2
172
     0
173
     0
174
     0
175
     0
176
     0
177
     0
178
     0
  0
ENDTAB
  0
ENDSEC
  0
SECTION
  2
BLOCKS
  0
BLOCK
  8
0
  2
$MODEL_SPACE
 70
     0
 10
0.0
 20
0.0
 30
0.0
  3
$MODEL_SPACE
  1

  0
ENDBLK
  5
FBF
  8
0
  0
BLOCK
 67
     1
  8
0
  2
$PAPER_SPACE
 70
     0
 10
0.0
 20
0.0
 30
0.0
  3
$PAPER_SPACE
  1

  0
ENDBLK
  5
FBC
 67
     1
  8
0
  0
BLOCK
  8
0
  2
_DOTBLANK
 70
     0
 10
0.0
 20
0.0
 30
0.0
  3
_DOTBLANK
  1

  0
CIRCLE
  5
32
  8
0
  6
CONTINUOUS
 62
     7
 10
0.0
 20
0.0
 30
0.0
 40
0.5
  0
LINE
  5
33
  8
0
  6
CONTINUOUS
 62
     7
 10
-0.5
 20
0.0
 30
0.0
 11
-1.0
 21
0.0
 31
0.0
  0
ENDBLK
  5
34
  8
0
  0
ENDSEC
  0
SECTION
  2
ENTITIES
  0
LINE
  5
35
  8
SIZE
  6
CONTINUOUS
 62
    30
 10
469.500028
 20
0.000008
 30
0.0
 11
1068.890638
 21
0.000008
 31
0.0
  0
LINE
  5
36
  8
SIZE
  6
CONTINUOUS
 62
    30
 10
100.000006
 20
1650.000008
 30
0.0
 11
1068.890638
 21
1650.000008
 31
0.0
  0
LINE
  5
37
  8
SIZE
  6
CONTINUOUS
 62
    30
 10
1038.890638
 20
10.000008
 30
0.0
 11
1038.890638
 21
1640.000008
 31
0.0
  0
CIRCLE
  5
38
  8
SIZE
  6
CONTINUOUS
 62
    30
 10
1038.890638
 20
0.000008
 30
0.0
 40
5.0
  0
LINE
  5
39
  8
SIZE
  6
CONTINUOUS
 62
    30
 10
1038.890638
 20
5.000008
 30
0.0
 11
1038.890638
 21
10.000008
 31
0.0
  0
CIRCLE
  5
3A
  8
SIZE
  6
CONTINUOUS
 62
    30
 10
1038.890638
 20
1650.000008
 30
0.0
 40
5.0
  0
LINE
  5
3B
  8
SIZE
  6
CONTINUOUS
 62
    30
 10
1038.890638
 20
1645.000008
 30
0.0
 11
1038.890638
 21
1640.000008
 31
0.0
  0
TEXT
  5
3C
  8
SIZE
  6
CONTINUOUS
 62
    30
 10
1023.890638
 20
745.562041
 30
0.0
 40
55.0
  1
1650
 50
90.0
 41
0.9
 72
     1
 11
1023.890638
 21
828.062041
 31
0.0
  0
POINT
  5
3D
  8
DEFPOINTS
  6
CONTINUOUS
 62
     7
 10
449.500028
 20
0.000008
 30
0.0
  0
POINT
  5
3E
  8
DEFPOINTS
  6
CONTINUOUS
 62
     7
 10
80.000006
 20
1650.000008
 30
0.0
  0
POINT
  5
3F
  8
DEFPOINTS
  6
CONTINUOUS
 62
     7
 10
1038.890638
 20
1650.000008
 30
0.0
  0
LINE
  5
40
  8
SIZE
  6
CONTINUOUS
 62
    30
 10
469.500028
 20
0.000008
 30
0.0
 11
926.094019
 21
0.000008
 31
0.0
  0
LINE
  5
41
  8
SIZE
  6
CONTINUOUS
 62
    30
 10
476.000028
 20
1410.000004
 30
0.0
 11
926.094019
 21
1410.000004
 31
0.0
  0
LINE
  5
42
  8
SIZE
  6
CONTINUOUS
 62
    30
 10
896.094019
 20
10.000008
 30
0.0
 11
896.094019
 21
1400.000004
 31
0.0
  0
CIRCLE
  5
43
  8
SIZE
  6
CONTINUOUS
 62
    30
 10
896.094019
 20
0.000008
 30
0.0
 40
5.0
  0
LINE
  5
44
  8
SIZE
  6
CONTINUOUS
 62
    30
 10
896.094019
 20
5.000008
 30
0.0
 11
896.094019
 21
10.000008
 31
0.0
  0
CIRCLE
  5
45
  8
SIZE
  6
CONTINUOUS
 62
    30
 10
896.094019
 20
1410.000004
 30
0.0
 40
5.0
  0
LINE
  5
46
  8
SIZE
  6
CONTINUOUS
 62
    30
 10
896.094019
 20
1405.000004
 30
0.0
 11
896.094019
 21
1400.000004
 31
0.0
  0
TEXT
  5
47
  8
SIZE
  6
CONTINUOUS
 62
    30
 10
881.094019
 20
627.214274
 30
0.0
 40
55.0
  1
1410
 50
90.0
 41
0.9
 72
     1
 11
881.094019
 21
704.999988
 31
0.0
  0
POINT
  5
48
  8
DEFPOINTS
  6
CONTINUOUS
 62
     7
 10
449.500028
 20
0.000008
 30
0.0
  0
POINT
  5
49
  8
DEFPOINTS
  6
CONTINUOUS
 62
     7
 10
456.000028
 20
1410.000004
 30
0.0
  0
POINT
  5
4A
  8
DEFPOINTS
  6
CONTINUOUS
 62
     7
 10
896.094019
 20
1410.000004
 30
0.0
  0
LINE
  5
4B
  8
NOTE
  6
CONTINUOUS
 62
     4
 10
554.401289
 20
1246.245027
 30
0.0
 11
604.297335
 21
1196.245026
 31
0.0
  0
LINE
  5
4C
  8
NOTE
  6
CONTINUOUS
 62
     4
 10
604.297335
 20
1296.245028
 30
0.0
 11
554.401289
 21
1246.245027
 31
0.0
  0
LINE
  5
4D
  8
NOTE
  6
CONTINUOUS
 62
     4
 10
604.297335
 20
1296.245028
 30
0.0
 11
604.297335
 21
1271.245027
 31
0.0
  0
LINE
  5
4E
  8
NOTE
  6
CONTINUOUS
 62
     4
 10
604.297335
 20
1221.245026
 30
0.0
 11
604.297335
 21
1196.245026
 31
0.0
  0
LINE
  5
4F
  8
NOTE
  6
CONTINUOUS
 62
     4
 10
604.297335
 20
1221.245026
 30
0.0
 11
644.983424
 21
1221.245026
 31
0.0
  0
LINE
  5
50
  8
NOTE
  6
CONTINUOUS
 62
     4
 10
604.297335
 20
1271.245027
 30
0.0
 11
644.983424
 21
1271.245027
 31
0.0
  0
LINE
  5
51
  8
NOTE
  6
CONTINUOUS
 62
     4
 10
644.983424
 20
1221.245026
 30
0.0
 11
644.983424
 21
1271.245027
 31
0.0
  0
LINE
  5
52
  8
NOTE
  6
CONTINUOUS
 62
     4
 10
558.62235
 20
975.909703
 30
0.0
 11
608.518396
 21
925.909702
 31
0.0
  0
LINE
  5
53
  8
NOTE
  6
CONTINUOUS
 62
     4
 10
608.518396
 20
1025.909704
 30
0.0
 11
558.62235
 21
975.909703
 31
0.0
  0
LINE
  5
54
  8
NOTE
  6
CONTINUOUS
 62
     4
 10
608.518396
 20
1025.909704
 30
0.0
 11
608.518396
 21
1000.909703
 31
0.0
  0
LINE
  5
55
  8
NOTE
  6
CONTINUOUS
 62
     4
 10
608.518396
 20
950.909702
 30
0.0
 11
608.518396
 21
925.909702
 31
0.0
  0
LINE
  5
56
  8
NOTE
  6
CONTINUOUS
 62
     4
 10
608.518396
 20
950.909702
 30
0.0
 11
649.204484
 21
950.909702
 31
0.0
  0
LINE
  5
57
  8
NOTE
  6
CONTINUOUS
 62
     4
 10
608.518396
 20
1000.909703
 30
0.0
 11
649.204484
 21
1000.909703
 31
0.0
  0
LINE
  5
58
  8
NOTE
  6
CONTINUOUS
 62
     4
 10
649.204484
 20
950.909702
 30
0.0
 11
649.204484
 21
1000.909703
 31
0.0
  0
TEXT
  5
59
  8
NOTE
  6
CONTINUOUS
 62
     4
 10
579.114624
 20
1042.288876
 30
0.0
 40
55.0
  1
吸込
 50
0.000003
 41
0.703125
  7
STANDARD1
  0
TEXT
  5
5A
  8
NOTE
  6
CONTINUOUS
 62
     4
 10
579.114624
 20
1128.955565
 30
0.0
 40
55.0
  1
空気
 50
0.000003
 41
0.703125
  7
STANDARD1
  0
LINE
  5
5B
  8
SIZE
  6
CONTINUOUS
 62
    30
 10
476.000028
 20
1410.000004
 30
0.0
 11
926.163559
 21
1410.000004
 31
0.0
  0
LINE
  5
5C
  8
SIZE
  6
CONTINUOUS
 62
    30
 10
100.000006
 20
1650.000008
 30
0.0
 11
926.163559
 21
1650.000008
 31
0.0
  0
LINE
  5
5D
  8
SIZE
  6
CONTINUOUS
 62
    30
 10
896.163559
 20
1420.000004
 30
0.0
 11
896.163559
 21
1640.000008
 31
0.0
  0
CIRCLE
  5
5E
  8
SIZE
  6
CONTINUOUS
 62
    30
 10
896.163559
 20
1410.000004
 30
0.0
 40
5.0
  0
LINE
  5
5F
  8
SIZE
  6
CONTINUOUS
 62
    30
 10
896.163559
 20
1415.000004
 30
0.0
 11
896.163559
 21
1420.000004
 31
0.0
  0
CIRCLE
  5
60
  8
SIZE
  6
CONTINUOUS
 62
    30
 10
896.163559
 20
1650.000008
 30
0.0
 40
5.0
  0
LINE
  5
61
  8
SIZE
  6
CONTINUOUS
 62
    30
 10
896.163559
 20
1645.000008
 30
0.0
 11
896.163559
 21
1640.000008
 31
0.0
  0
TEXT
  5
62
  8
SIZE
  6
CONTINUOUS
 62
    30
 10
866.758797
 20
1442.993941
 30
0.0
 40
55.0
  1
(240)
 50
90.0
 41
0.9
 72
     1
 11
866.758797
 21
1538.458227
 31
0.0
  0
POINT
  5
63
  8
DEFPOINTS
  6
CONTINUOUS
 62
     7
 10
456.000028
 20
1410.000004
 30
0.0
  0
POINT
  5
64
  8
DEFPOINTS
  6
CONTINUOUS
 62
     7
 10
80.000006
 20
1650.000008
 30
0.0
  0
POINT
  5
65
  8
DEFPOINTS
  6
CONTINUOUS
 62
     7
 10
896.163559
 20
1650.000008
 30
0.0
  0
TEXT
  5
66
  8
NOTE
  6
CONTINUOUS
 62
     4
 10
-655.42495
 20
1024.102902
 30
0.0
 40
55.0
  1
吸込
 50
0.000003
 41
0.703125
  7
STANDARD1
  0
TEXT
  5
67
  8
NOTE
  6
CONTINUOUS
 62
     4
 10
-655.42495
 20
1110.76959
 30
0.0
 40
55.0
  1
空気
 50
0.000003
 41
0.703125
  7
STANDARD1
  0
LINE
  5
68
  8
NOTE
  6
CONTINUOUS
 62
     4
 10
-662.398036
 20
1200.661603
 30
0.0
 11
-662.398036
 21
1250.661604
 31
0.0
  0
LINE
  5
69
  8
NOTE
  6
CONTINUOUS
 62
     4
 10
-621.711948
 20
1250.661604
 30
0.0
 11
-662.398036
 21
1250.661604
 31
0.0
  0
LINE
  5
6A
  8
NOTE
  6
CONTINUOUS
 62
     4
 10
-621.711948
 20
1200.661603
 30
0.0
 11
-662.398036
 21
1200.661603
 31
0.0
  0
LINE
  5
6B
  8
NOTE
  6
CONTINUOUS
 62
     4
 10
-621.711948
 20
1200.661603
 30
0.0
 11
-621.711948
 21
1175.661602
 31
0.0
  0
LINE
  5
6C
  8
NOTE
  6
CONTINUOUS
 62
     4
 10
-621.711948
 20
1275.661604
 30
0.0
 11
-621.711948
 21
1250.661604
 31
0.0
  0
LINE
  5
6D
  8
NOTE
  6
CONTINUOUS
 62
     4
 10
-621.711948
 20
1275.661604
 30
0.0
 11
-571.815902
 21
1225.661603
 31
0.0
  0
LINE
  5
6E
  8
NOTE
  6
CONTINUOUS
 62
     4
 10
-571.815902
 20
1225.661603
 30
0.0
 11
-621.711948
 21
1175.661602
 31
0.0
  0
LINE
  5
6F
  8
NOTE
  6
CONTINUOUS
 62
     4
 10
-617.469683
 20
920.656363
 30
0.0
 11
-617.469683
 21
895.656363
 31
0.0
  0
LINE
  5
70
  8
NOTE
  6
CONTINUOUS
 62
     4
 10
-567.573636
 20
945.656364
 30
0.0
 11
-617.469683
 21
895.656363
 31
0.0
  0
LINE
  5
71
  8
NOTE
  6
CONTINUOUS
 62
     4
 10
-617.469683
 20
995.656365
 30
0.0
 11
-567.573636
 21
945.656364
 31
0.0
  0
LINE
  5
72
  8
NOTE
  6
CONTINUOUS
 62
     4
 10
-617.469683
 20
920.656363
 30
0.0
 11
-658.155771
 21
920.656363
 31
0.0
  0
LINE
  5
73
  8
NOTE
  6
CONTINUOUS
 62
     4
 10
-617.469683
 20
970.656364
 30
0.0
 11
-658.155771
 21
970.656364
 31
0.0
  0
LINE
  5
74
  8
NOTE
  6
CONTINUOUS
 62
     4
 10
-658.155771
 20
920.656363
 30
0.0
 11
-658.155771
 21
970.656364
 31
0.0
  0
LINE
  5
75
  8
NOTE
  6
CONTINUOUS
 62
     4
 10
-617.469683
 20
995.656365
 30
0.0
 11
-617.469683
 21
970.656364
 31
0.0
  0
LINE
  5
76
  8
DETAIL
  6
CONTINUOUS
 62
     5
 10
449.500008
 20
9.0
 30
0.0
 11
449.500008
 21
0.0
 31
0.0
  0
LINE
  5
77
  8
DETAIL
  6
CONTINUOUS
 62
     5
 10
295.604179
 20
54.000001
 30
0.0
 11
455.200008
 21
54.000001
 31
0.0
  0
LINE
  5
78
  8
DETAIL
  6
CONTINUOUS
 62
     5
 10
-449.500008
 20
9.0
 30
0.0
 11
-449.500008
 21
0.0
 31
0.0
  0
CIRCLE
  5
7D
  8
DETAIL
  6
CONTINUOUS
 62
     5
 10
0.0
 20
746.500014
 30
0.0
 40
3.55
  0
CIRCLE
  5
7E
  8
DETAIL
  6
CONTINUOUS
 62
     5
 10
360.000007
 20
746.500014
 30
0.0
 40
3.55
  0
CIRCLE
  5
7F
  8
DETAIL
  6
CONTINUOUS
 62
     5
 10
-360.000007
 20
746.500014
 30
0.0
 40
3.55
  0
ARC
  5
80
  8
DETAIL
  6
CONTINUOUS
 62
     5
 10
379.700007
 20
744.500014
 30
0.0
 40
5.0
 50
270.0
 51
0.0
  0
ARC
  5
81
  8
DETAIL
  6
CONTINUOUS
 62
     5
 10
-379.700007
 20
744.500014
 30
0.0
 40
5.0
 50
180.0
 51
270.0
  0
ARC
  5
82
  8
DETAIL
  6
CONTINUOUS
 62
     5
 10
-391.000007
 20
62.000001
 30
0.0
 40
3.0
 50
270.0
 51
0.0
  0
ARC
  5
83
  8
DETAIL
  6
CONTINUOUS
 62
     5
 10
391.000007
 20
62.000001
 30
0.0
 40
3.0
 50
180.0
 51
270.0
  0
ARC
  5
84
  8
DETAIL
  6
CONTINUOUS
 62
     5
 10
-186.140059
 20
1543.000029
 30
0.0
 40
175.000003
 50
147.974068
 51
177.70358
  0
ARC
  5
85
  8
DETAIL
  6
CONTINUOUS
 62
     5
 10
-326.02841
 20
1630.50003
 30
0.0
 40
10.0
 50
90.0
 51
147.974068
  0
ARC
  5
86
  8
DETAIL
  6
CONTINUOUS
 62
     5
 10
186.140059
 20
1543.000029
 30
0.0
 40
175.000003
 50
2.29642
 51
32.025932
  0
ARC
  5
87
  8
DETAIL
  6
CONTINUOUS
 62
     5
 10
326.02841
 20
1630.50003
 30
0.0
 40
10.0
 50
32.025932
 51
90.0
  0
ARC
  5
88
  8
DETAIL
  6
CONTINUOUS
 62
     5
 10
432.000008
 20
39.000001
 30
0.0
 40
8.3
 50
0.0
 51
90.0
  0
ARC
  5
89
  8
DETAIL
  6
CONTINUOUS
 62
     5
 10
432.000008
 20
21.0
 30
0.0
 40
8.3
 50
270.0
 51
0.0
  0
ARC
  5
8A
  8
DETAIL
  6
CONTINUOUS
 62
     5
 10
390.500007
 20
21.0
 30
0.0
 40
8.3
 50
180.0
 51
270.0
  0
ARC
  5
8B
  8
DETAIL
  6
CONTINUOUS
 62
     5
 10
390.500007
 20
39.000001
 30
0.0
 40
8.3
 50
90.0
 51
180.0
  0
ARC
  5
8C
  8
DETAIL
  6
CONTINUOUS
 62
     5
 10
432.000008
 20
39.000001
 30
0.0
 40
6.0
 50
0.0
 51
90.0
  0
ARC
  5
8D
  8
DETAIL
  6
CONTINUOUS
 62
     5
 10
390.500007
 20
39.000001
 30
0.0
 40
6.0
 50
90.0
 51
180.0
  0
ARC
  5
8E
  8
DETAIL
  6
CONTINUOUS
 62
     5
 10
390.500007
 20
21.0
 30
0.0
 40
6.0
 50
180.0
 51
270.0
  0
ARC
  5
8F
  8
DETAIL
  6
CONTINUOUS
 62
     5
 10
432.000008
 20
21.0
 30
0.0
 40
6.0
 50
270.0
 51
0.0
  0
ARC
  5
90
  8
DETAIL
  6
CONTINUOUS
 62
     5
 10
-432.000008
 20
39.000001
 30
0.0
 40
8.3
 50
90.0
 51
180.0
  0
ARC
  5
91
  8
DETAIL
  6
CONTINUOUS
 62
     5
 10
-390.500007
 20
39.000001
 30
0.0
 40
8.3
 50
0.0
 51
90.0
  0
ARC
  5
92
  8
DETAIL
  6
CONTINUOUS
 62
     5
 10
-390.500007
 20
21.0
 30
0.0
 40
8.3
 50
270.0
 51
0.0
  0
ARC
  5
93
  8
DETAIL
  6
CONTINUOUS
 62
     5
 10
-432.000008
 20
21.0
 30
0.0
 40
8.3
 50
180.0
 51
270.0
  0
ARC
  5
94
  8
DETAIL
  6
CONTINUOUS
 62
     5
 10
-432.000008
 20
21.0
 30
0.0
 40
6.0
 50
180.0
 51
270.0
  0
ARC
  5
95
  8
DETAIL
  6
CONTINUOUS
 62
     5
 10
-390.500007
 20
21.0
 30
0.0
 40
6.0
 50
270.0
 51
0.0
  0
ARC
  5
96
  8
DETAIL
  6
CONTINUOUS
 62
     5
 10
-390.500007
 20
39.000001
 30
0.0
 40
6.0
 50
0.0
 51
90.0
  0
ARC
  5
97
  8
DETAIL
  6
CONTINUOUS
 62
     5
 10
-432.000008
 20
39.000001
 30
0.0
 40
6.0
 50
90.0
 51
180.0
  0
LINE
  5
9B
  8
DETAIL
  6
CONTINUOUS
 62
     5
 10
264.506884
 20
1640.295965
 30
0.0
 11
266.066558
 21
1639.692097
 31
0.0
  0
LINE
  5
9F
  8
DETAIL
  6
CONTINUOUS
 62
     5
 10
145.150718
 20
1640.295965
 30
0.0
 11
145.995837
 21
1639.692097
 31
0.0
  0
LINE
  5
A0
  8
DETAIL
  6
CONTINUOUS
 62
     5
 10
144.269639
 20
1640.50003
 30
0.0
 11
145.150718
 21
1640.295965
 31
0.0
  0
LINE
  5
A4
  8
DETAIL
  6
CONTINUOUS
 62
     5
 10
142.454336
 20
1640.295965
 30
0.0
 11
143.299455
 21
1639.692097
 31
0.0
  0
LINE
  5
A5
  8
DETAIL
  6
CONTINUOUS
 62
     5
 10
141.573257
 20
1640.50003
 30
0.0
 11
142.454336
 21
1640.295965
 31
0.0
  0
LINE
  5
A9
  8
DETAIL
  6
CONTINUOUS
 62
     5
 10
155.329076
 20
1640.295965
 30
0.0
 11
156.234153
 21
1639.692097
 31
0.0
  0
LINE
  5
AA
  8
DETAIL
  6
CONTINUOUS
 62
     5
 10
154.385489
 20
1640.50003
 30
0.0
 11
155.329076
 21
1640.295965
 31
0.0
  0
LINE
  5
AE
  8
DETAIL
  6
CONTINUOUS
 62
     5
 10
152.680233
 20
1640.295965
 30
0.0
 11
153.58531
 21
1639.692097
 31
0.0
  0
LINE
  5
AF
  8
DETAIL
  6
CONTINUOUS
 62
     5
 10
151.736646
 20
1640.50003
 30
0.0
 11
152.680233
 21
1640.295965
 31
0.0
  0
LINE
  5
B3
  8
DETAIL
  6
CONTINUOUS
 62
     5
 10
165.31819
 20
1640.295965
 30
0.0
 11
166.282121
 21
1639.692097
 31
0.0
  0
LINE
  5
B4
  8
DETAIL
  6
CONTINUOUS
 62
     5
 10
164.313243
 20
1640.50003
 30
0.0
 11
165.31819
 21
1640.295965
 31
0.0
  0
LINE
  5
B8
  8
DETAIL
  6
CONTINUOUS
 62
     5
 10
162.720113
 20
1640.295965
 30
0.0
 11
163.684045
 21
1639.692097
 31
0.0
  0
LINE
  5
B9
  8
DETAIL
  6
CONTINUOUS
 62
     5
 10
161.715167
 20
1640.50003
 30
0.0
 11
162.720113
 21
1640.295965
 31
0.0
  0
LINE
  5
BD
  8
DETAIL
  6
CONTINUOUS
 62
     5
 10
175.105888
 20
1640.295965
 30
0.0
 11
176.1275
 21
1639.692097
 31
0.0
  0
LINE
  5
BE
  8
DETAIL
  6
CONTINUOUS
 62
     5
 10
174.040807
 20
1640.50003
 30
0.0
 11
175.105888
 21
1640.295965
 31
0.0
  0
LINE
  5
C2
  8
DETAIL
  6
CONTINUOUS
 62
     5
 10
172.561744
 20
1640.295965
 30
0.0
 11
173.583355
 21
1639.692097
 31
0.0
  0
LINE
  5
C3
  8
DETAIL
  6
CONTINUOUS
 62
     5
 10
171.496663
 20
1640.50003
 30
0.0
 11
172.561744
 21
1640.295965
 31
0.0
  0
LINE
  5
C7
  8
DETAIL
  6
CONTINUOUS
 62
     5
 10
184.680247
 20
1640.295965
 30
0.0
 11
185.758294
 21
1639.692097
 31
0.0
  0
LINE
  5
C8
  8
DETAIL
  6
CONTINUOUS
 62
     5
 10
183.55633
 20
1640.50003
 30
0.0
 11
184.680247
 21
1640.295965
 31
0.0
  0
LINE
  5
CC
  8
DETAIL
  6
CONTINUOUS
 62
     5
 10
182.193135
 20
1640.295965
 30
0.0
 11
183.271182
 21
1639.692097
 31
0.0
  0
LINE
  5
CD
  8
DETAIL
  6
CONTINUOUS
 62
     5
 10
181.069217
 20
1640.50003
 30
0.0
 11
182.193135
 21
1640.295965
 31
0.0
  0
LINE
  5
D1
  8
DETAIL
  6
CONTINUOUS
 62
     5
 10
194.029602
 20
1640.295965
 30
0.0
 11
195.162771
 21
1639.692097
 31
0.0
  0
LINE
  5
D2
  8
DETAIL
  6
CONTINUOUS
 62
     5
 10
192.848217
 20
1640.50003
 30
0.0
 11
194.029602
 21
1640.295965
 31
0.0
  0
LINE
  5
D6
  8
DETAIL
  6
CONTINUOUS
 62
     5
 10
191.602551
 20
1640.295965
 30
0.0
 11
192.73572
 21
1639.692097
 31
0.0
  0
LINE
  5
D7
  8
DETAIL
  6
CONTINUOUS
 62
     5
 10
190.421166
 20
1640.50003
 30
0.0
 11
191.602551
 21
1640.295965
 31
0.0
  0
LINE
  5
DB
  8
DETAIL
  6
CONTINUOUS
 62
     5
 10
203.142562
 20
1640.295965
 30
0.0
 11
204.329472
 21
1639.692097
 31
0.0
  0
LINE
  5
DC
  8
DETAIL
  6
CONTINUOUS
 62
     5
 10
201.905148
 20
1640.50003
 30
0.0
 11
203.142562
 21
1640.295965
 31
0.0
  0
LINE
  5
E0
  8
DETAIL
  6
CONTINUOUS
 62
     5
 10
200.778529
 20
1640.295965
 30
0.0
 11
201.96544
 21
1639.692097
 31
0.0
  0
LINE
  5
E1
  8
DETAIL
  6
CONTINUOUS
 62
     5
 10
199.541116
 20
1640.50003
 30
0.0
 11
200.778529
 21
1640.295965
 31
0.0
  0
LINE
  5
E5
  8
DETAIL
  6
CONTINUOUS
 62
     5
 10
212.008023
 20
1640.295965
 30
0.0
 11
213.247229
 21
1639.692097
 31
0.0
  0
LINE
  5
E6
  8
DETAIL
  6
CONTINUOUS
 62
     5
 10
210.716089
 20
1640.50003
 30
0.0
 11
212.008023
 21
1640.295965
 31
0.0
  0
LINE
  5
EA
  8
DETAIL
  6
CONTINUOUS
 62
     5
 10
209.70989
 20
1640.295965
 30
0.0
 11
210.949096
 21
1639.692097
 31
0.0
  0
LINE
  5
EB
  8
DETAIL
  6
CONTINUOUS
 62
     5
 10
208.417956
 20
1640.50003
 30
0.0
 11
209.70989
 21
1640.295965
 31
0.0
  0
LINE
  5
EF
  8
DETAIL
  6
CONTINUOUS
 62
     5
 10
220.615186
 20
1640.295965
 30
0.0
 11
221.905178
 21
1639.692097
 31
0.0
  0
LINE
  5
F0
  8
DETAIL
  6
CONTINUOUS
 62
     5
 10
219.270305
 20
1640.50003
 30
0.0
 11
220.615186
 21
1640.295965
 31
0.0
  0
LINE
  5
F4
  8
DETAIL
  6
CONTINUOUS
 62
     5
 10
218.385751
 20
1640.295965
 30
0.0
 11
219.675743
 21
1639.692097
 31
0.0
  0
LINE
  5
F5
  8
DETAIL
  6
CONTINUOUS
 62
     5
 10
217.040871
 20
1640.50003
 30
0.0
 11
218.385751
 21
1640.295965
 31
0.0
  0
LINE
  5
F9
  8
DETAIL
  6
CONTINUOUS
 62
     5
 10
228.953563
 20
1640.295965
 30
0.0
 11
230.292769
 21
1639.692097
 31
0.0
  0
LINE
  5
FA
  8
DETAIL
  6
CONTINUOUS
 62
     5
 10
227.557374
 20
1640.50003
 30
0.0
 11
228.953563
 21
1640.295965
 31
0.0
  0
LINE
  5
FE
  8
DETAIL
  6
CONTINUOUS
 62
     5
 10
226.795543
 20
1640.295965
 30
0.0
 11
228.134749
 21
1639.692097
 31
0.0
  0
LINE
  5
FF
  8
DETAIL
  6
CONTINUOUS
 62
     5
 10
225.399355
 20
1640.50003
 30
0.0
 11
226.795543
 21
1640.295965
 31
0.0
  0
LINE
  5
103
  8
DETAIL
  6
CONTINUOUS
 62
     5
 10
237.012995
 20
1640.295965
 30
0.0
 11
238.399783
 21
1639.692097
 31
0.0
  0
LINE
  5
104
  8
DETAIL
  6
CONTINUOUS
 62
     5
 10
235.567199
 20
1640.50003
 30
0.0
 11
237.012995
 21
1640.295965
 31
0.0
  0
LINE
  5
108
  8
DETAIL
  6
CONTINUOUS
 62
     5
 10
234.92902
 20
1640.295965
 30
0.0
 11
236.315808
 21
1639.692097
 31
0.0
  0
LINE
  5
109
  8
DETAIL
  6
CONTINUOUS
 62
     5
 10
233.483224
 20
1640.50003
 30
0.0
 11
234.92902
 21
1640.295965
 31
0.0
  0
LINE
  5
10D
  8
DETAIL
  6
CONTINUOUS
 62
     5
 10
244.783663
 20
1640.295965
 30
0.0
 11
246.216344
 21
1639.692097
 31
0.0
  0
LINE
  5
10E
  8
DETAIL
  6
CONTINUOUS
 62
     5
 10
243.290022
 20
1640.50003
 30
0.0
 11
244.783663
 21
1640.295965
 31
0.0
  0
LINE
  5
112
  8
DETAIL
  6
CONTINUOUS
 62
     5
 10
242.776271
 20
1640.295965
 30
0.0
 11
244.208953
 21
1639.692097
 31
0.0
  0
LINE
  5
113
  8
DETAIL
  6
CONTINUOUS
 62
     5
 10
241.28263
 20
1640.50003
 30
0.0
 11
242.776271
 21
1640.295965
 31
0.0
  0
LINE
  5
117
  8
DETAIL
  6
CONTINUOUS
 62
     5
 10
252.2561
 20
1640.295965
 30
0.0
 11
253.732929
 21
1639.692097
 31
0.0
  0
LINE
  5
118
  8
DETAIL
  6
CONTINUOUS
 62
     5
 10
250.716433
 20
1640.50003
 30
0.0
 11
252.2561
 21
1640.295965
 31
0.0
  0
LINE
  5
11C
  8
DETAIL
  6
CONTINUOUS
 62
     5
 10
250.327738
 20
1640.295965
 30
0.0
 11
251.804566
 21
1639.692097
 31
0.0
  0
LINE
  5
11D
  8
DETAIL
  6
CONTINUOUS
 62
     5
 10
248.788071
 20
1640.50003
 30
0.0
 11
250.327738
 21
1640.295965
 31
0.0
  0
LINE
  5
121
  8
DETAIL
  6
CONTINUOUS
 62
     5
 10
259.421202
 20
1640.295965
 30
0.0
 11
260.940379
 21
1639.692097
 31
0.0
  0
LINE
  5
122
  8
DETAIL
  6
CONTINUOUS
 62
     5
 10
257.837386
 20
1640.50003
 30
0.0
 11
259.421202
 21
1640.295965
 31
0.0
  0
LINE
  5
126
  8
DETAIL
  6
CONTINUOUS
 62
     5
 10
257.574218
 20
1640.295965
 30
0.0
 11
259.093394
 21
1639.692097
 31
0.0
  0
LINE
  5
127
  8
DETAIL
  6
CONTINUOUS
 62
     5
 10
255.990401
 20
1640.50003
 30
0.0
 11
257.574218
 21
1640.295965
 31
0.0
  0
LINE
  5
12B
  8
DETAIL
  6
CONTINUOUS
 62
     5
 10
266.27024
 20
1640.295965
 30
0.0
 11
267.829913
 21
1639.692097
 31
0.0
  0
LINE
  5
12C
  8
DETAIL
  6
CONTINUOUS
 62
     5
 10
264.644202
 20
1640.50003
 30
0.0
 11
266.27024
 21
1640.295965
 31
0.0
  0
LINE
  5
12D
  8
DETAIL
  6
CONTINUOUS
 62
     5
 10
262.880847
 20
1640.50003
 30
0.0
 11
264.506884
 21
1640.295965
 31
0.0
  0
LINE
  5
131
  8
DETAIL
  6
CONTINUOUS
 62
     5
 10
272.794868
 20
1640.295965
 30
0.0
 11
274.393138
 21
1639.692097
 31
0.0
  0
LINE
  5
132
  8
DETAIL
  6
CONTINUOUS
 62
     5
 10
271.128591
 20
1640.50003
 30
0.0
 11
272.794868
 21
1640.295965
 31
0.0
  0
LINE
  5
136
  8
DETAIL
  6
CONTINUOUS
 62
     5
 10
271.117289
 20
1640.295965
 30
0.0
 11
272.715559
 21
1639.692097
 31
0.0
  0
LINE
  5
137
  8
DETAIL
  6
CONTINUOUS
 62
     5
 10
269.451013
 20
1640.50003
 30
0.0
 11
271.117289
 21
1640.295965
 31
0.0
  0
LINE
  5
13B
  8
DETAIL
  6
CONTINUOUS
 62
     5
 10
278.987137
 20
1640.295965
 30
0.0
 11
280.622057
 21
1639.692097
 31
0.0
  0
LINE
  5
13C
  8
DETAIL
  6
CONTINUOUS
 62
     5
 10
277.282652
 20
1640.50003
 30
0.0
 11
278.987137
 21
1640.295965
 31
0.0
  0
LINE
  5
140
  8
DETAIL
  6
CONTINUOUS
 62
     5
 10
277.397379
 20
1640.295965
 30
0.0
 11
279.032299
 21
1639.692097
 31
0.0
  0
LINE
  5
141
  8
DETAIL
  6
CONTINUOUS
 62
     5
 10
275.692894
 20
1640.50003
 30
0.0
 11
277.397379
 21
1640.295965
 31
0.0
  0
LINE
  5
145
  8
DETAIL
  6
CONTINUOUS
 62
     5
 10
284.839504
 20
1640.295965
 30
0.0
 11
286.509082
 21
1639.692097
 31
0.0
  0
LINE
  5
146
  8
DETAIL
  6
CONTINUOUS
 62
     5
 10
283.098886
 20
1640.50003
 30
0.0
 11
284.839504
 21
1640.295965
 31
0.0
  0
LINE
  5
14A
  8
DETAIL
  6
CONTINUOUS
 62
     5
 10
283.339504
 20
1640.295965
 30
0.0
 11
285.009082
 21
1639.692097
 31
0.0
  0
LINE
  5
14B
  8
DETAIL
  6
CONTINUOUS
 62
     5
 10
281.598886
 20
1640.50003
 30
0.0
 11
283.339504
 21
1640.295965
 31
0.0
  0
LINE
  5
14F
  8
DETAIL
  6
CONTINUOUS
 62
     5
 10
290.344837
 20
1640.295965
 30
0.0
 11
292.047039
 21
1639.692097
 31
0.0
  0
LINE
  5
150
  8
DETAIL
  6
CONTINUOUS
 62
     5
 10
288.570207
 20
1640.50003
 30
0.0
 11
290.344837
 21
1640.295965
 31
0.0
  0
LINE
  5
154
  8
DETAIL
  6
CONTINUOUS
 62
     5
 10
288.936423
 20
1640.295965
 30
0.0
 11
290.638624
 21
1639.692097
 31
0.0
  0
LINE
  5
155
  8
DETAIL
  6
CONTINUOUS
 62
     5
 10
287.161793
 20
1640.50003
 30
0.0
 11
288.936423
 21
1640.295965
 31
0.0
  0
LINE
  5
159
  8
DETAIL
  6
CONTINUOUS
 62
     5
 10
295.49643
 20
1640.295965
 30
0.0
 11
297.229182
 21
1639.692097
 31
0.0
  0
LINE
  5
15A
  8
DETAIL
  6
CONTINUOUS
 62
     5
 10
293.689951
 20
1640.50003
 30
0.0
 11
295.49643
 21
1640.295965
 31
0.0
  0
LINE
  5
15E
  8
DETAIL
  6
CONTINUOUS
 62
     5
 10
294.181317
 20
1640.295965
 30
0.0
 11
295.914068
 21
1639.692097
 31
0.0
  0
LINE
  5
15F
  8
DETAIL
  6
CONTINUOUS
 62
     5
 10
292.374837
 20
1640.50003
 30
0.0
 11
294.181317
 21
1640.295965
 31
0.0
  0
LINE
  5
163
  8
DETAIL
  6
CONTINUOUS
 62
     5
 10
300.288006
 20
1640.295965
 30
0.0
 11
302.049197
 21
1639.692097
 31
0.0
  0
LINE
  5
164
  8
DETAIL
  6
CONTINUOUS
 62
     5
 10
298.451878
 20
1640.50003
 30
0.0
 11
300.288006
 21
1640.295965
 31
0.0
  0
LINE
  5
168
  8
DETAIL
  6
CONTINUOUS
 62
     5
 10
299.067797
 20
1640.295965
 30
0.0
 11
300.828987
 21
1639.692097
 31
0.0
  0
LINE
  5
169
  8
DETAIL
  6
CONTINUOUS
 62
     5
 10
297.231668
 20
1640.50003
 30
0.0
 11
299.067797
 21
1640.295965
 31
0.0
  0
LINE
  5
16D
  8
DETAIL
  6
CONTINUOUS
 62
     5
 10
304.713728
 20
1640.295965
 30
0.0
 11
306.501211
 21
1639.692097
 31
0.0
  0
LINE
  5
16E
  8
DETAIL
  6
CONTINUOUS
 62
     5
 10
302.850188
 20
1640.50003
 30
0.0
 11
304.713728
 21
1640.295965
 31
0.0
  0
LINE
  5
172
  8
DETAIL
  6
CONTINUOUS
 62
     5
 10
303.589908
 20
1640.295965
 30
0.0
 11
305.377391
 21
1639.692097
 31
0.0
  0
LINE
  5
173
  8
DETAIL
  6
CONTINUOUS
 62
     5
 10
301.726368
 20
1640.50003
 30
0.0
 11
303.589908
 21
1640.295965
 31
0.0
  0
LINE
  5
177
  8
DETAIL
  6
CONTINUOUS
 62
     5
 10
308.768203
 20
1640.295965
 30
0.0
 11
310.579801
 21
1639.692097
 31
0.0
  0
LINE
  5
178
  8
DETAIL
  6
CONTINUOUS
 62
     5
 10
306.879522
 20
1640.50003
 30
0.0
 11
308.768203
 21
1640.295965
 31
0.0
  0
LINE
  5
17C
  8
DETAIL
  6
CONTINUOUS
 62
     5
 10
307.742142
 20
1640.295965
 30
0.0
 11
309.553741
 21
1639.692097
 31
0.0
  0
LINE
  5
17D
  8
DETAIL
  6
CONTINUOUS
 62
     5
 10
305.853461
 20
1640.50003
 30
0.0
 11
307.742142
 21
1640.295965
 31
0.0
  0
LINE
  5
181
  8
DETAIL
  6
CONTINUOUS
 62
     5
 10
312.446491
 20
1640.295965
 30
0.0
 11
314.279997
 21
1639.692097
 31
0.0
  0
LINE
  5
182
  8
DETAIL
  6
CONTINUOUS
 62
     5
 10
310.53497
 20
1640.50003
 30
0.0
 11
312.446491
 21
1640.295965
 31
0.0
  0
LINE
  5
186
  8
DETAIL
  6
CONTINUOUS
 62
     5
 10
311.51944
 20
1640.295965
 30
0.0
 11
313.352946
 21
1639.692097
 31
0.0
  0
LINE
  5
187
  8
DETAIL
  6
CONTINUOUS
 62
     5
 10
309.607919
 20
1640.50003
 30
0.0
 11
311.51944
 21
1640.295965
 31
0.0
  0
LINE
  5
18B
  8
DETAIL
  6
CONTINUOUS
 62
     5
 10
315.744111
 20
1640.295965
 30
0.0
 11
317.597292
 21
1639.692097
 31
0.0
  0
LINE
  5
18C
  8
DETAIL
  6
CONTINUOUS
 62
     5
 10
313.812079
 20
1640.50003
 30
0.0
 11
315.744111
 21
1640.295965
 31
0.0
  0
LINE
  5
190
  8
DETAIL
  6
CONTINUOUS
 62
     5
 10
314.917199
 20
1640.295965
 30
0.0
 11
316.77038
 21
1639.692097
 31
0.0
  0
LINE
  5
191
  8
DETAIL
  6
CONTINUOUS
 62
     5
 10
312.985167
 20
1640.50003
 30
0.0
 11
314.917199
 21
1640.295965
 31
0.0
  0
LINE
  5
195
  8
DETAIL
  6
CONTINUOUS
 62
     5
 10
318.657046
 20
1640.295965
 30
0.0
 11
320.527643
 21
1639.692097
 31
0.0
  0
LINE
  5
196
  8
DETAIL
  6
CONTINUOUS
 62
     5
 10
316.706856
 20
1640.50003
 30
0.0
 11
318.657046
 21
1640.295965
 31
0.0
  0
LINE
  5
19A
  8
DETAIL
  6
CONTINUOUS
 62
     5
 10
317.93128
 20
1640.295965
 30
0.0
 11
319.801877
 21
1639.692097
 31
0.0
  0
LINE
  5
19B
  8
DETAIL
  6
CONTINUOUS
 62
     5
 10
315.98109
 20
1640.50003
 30
0.0
 11
317.93128
 21
1640.295965
 31
0.0
  0
LINE
  5
19C
  8
DETAIL
  6
CONTINUOUS
 62
     5
 10
326.296802
 20
1637.398847
 30
0.0
 11
327.50859
 21
1635.803061
 31
0.0
  0
LINE
  5
19D
  8
DETAIL
  6
CONTINUOUS
 62
     5
 10
324.796015
 20
1638.713072
 30
0.0
 11
326.296802
 21
1637.398847
 31
0.0
  0
LINE
  5
19E
  8
DETAIL
  6
CONTINUOUS
 62
     5
 10
323.067481
 20
1639.692097
 30
0.0
 11
324.796015
 21
1638.713072
 31
0.0
  0
LINE
  5
19F
  8
DETAIL
  6
CONTINUOUS
 62
     5
 10
321.181746
 20
1640.295965
 30
0.0
 11
323.067481
 21
1639.692097
 31
0.0
  0
LINE
  5
1A0
  8
DETAIL
  6
CONTINUOUS
 62
     5
 10
319.215775
 20
1640.50003
 30
0.0
 11
321.181746
 21
1640.295965
 31
0.0
  0
LINE
  5
1A4
  8
DETAIL
  6
CONTINUOUS
 62
     5
 10
320.558011
 20
1640.295965
 30
0.0
 11
322.443746
 21
1639.692097
 31
0.0
  0
LINE
  5
1A5
  8
DETAIL
  6
CONTINUOUS
 62
     5
 10
318.59204
 20
1640.50003
 30
0.0
 11
320.558011
 21
1640.295965
 31
0.0
  0
LINE
  5
1A6
  8
DETAIL
  6
CONTINUOUS
 62
     5
 10
328.46502
 20
1637.398847
 30
0.0
 11
329.685059
 21
1635.803061
 31
0.0
  0
LINE
  5
1A7
  8
DETAIL
  6
CONTINUOUS
 62
     5
 10
326.954014
 20
1638.713072
 30
0.0
 11
328.46502
 21
1637.398847
 31
0.0
  0
LINE
  5
1A8
  8
DETAIL
  6
CONTINUOUS
 62
     5
 10
325.21371
 20
1639.692097
 30
0.0
 11
326.954014
 21
1638.713072
 31
0.0
  0
LINE
  5
1A9
  8
DETAIL
  6
CONTINUOUS
 62
     5
 10
323.315136
 20
1640.295965
 30
0.0
 11
325.21371
 21
1639.692097
 31
0.0
  0
LINE
  5
1AA
  8
DETAIL
  6
CONTINUOUS
 62
     5
 10
321.335778
 20
1640.50003
 30
0.0
 11
323.315136
 21
1640.295965
 31
0.0
  0
LINE
  5
1AB
  8
DETAIL
  6
CONTINUOUS
 62
     5
 10
327.944075
 20
1637.398847
 30
0.0
 11
329.164115
 21
1635.803061
 31
0.0
  0
LINE
  5
1AC
  8
DETAIL
  6
CONTINUOUS
 62
     5
 10
326.433069
 20
1638.713072
 30
0.0
 11
327.944075
 21
1637.398847
 31
0.0
  0
LINE
  5
1AD
  8
DETAIL
  6
CONTINUOUS
 62
     5
 10
324.692766
 20
1639.692097
 30
0.0
 11
326.433069
 21
1638.713072
 31
0.0
  0
LINE
  5
1AE
  8
DETAIL
  6
CONTINUOUS
 62
     5
 10
322.794192
 20
1640.295965
 30
0.0
 11
324.692766
 21
1639.692097
 31
0.0
  0
LINE
  5
1AF
  8
DETAIL
  6
CONTINUOUS
 62
     5
 10
320.814834
 20
1640.50003
 30
0.0
 11
322.794192
 21
1640.295965
 31
0.0
  0
LINE
  5
1B0
  8
DETAIL
  6
CONTINUOUS
 62
     5
 10
330.233054
 20
1637.398847
 30
0.0
 11
331.459858
 21
1635.803061
 31
0.0
  0
LINE
  5
1B1
  8
DETAIL
  6
CONTINUOUS
 62
     5
 10
328.71367
 20
1638.713072
 30
0.0
 11
330.233054
 21
1637.398847
 31
0.0
  0
LINE
  5
1B2
  8
DETAIL
  6
CONTINUOUS
 62
     5
 10
326.963717
 20
1639.692097
 30
0.0
 11
328.71367
 21
1638.713072
 31
0.0
  0
LINE
  5
1B3
  8
DETAIL
  6
CONTINUOUS
 62
     5
 10
325.054616
 20
1640.295965
 30
0.0
 11
326.963717
 21
1639.692097
 31
0.0
  0
LINE
  5
1B4
  8
DETAIL
  6
CONTINUOUS
 62
     5
 10
323.064284
 20
1640.50003
 30
0.0
 11
325.054616
 21
1640.295965
 31
0.0
  0
LINE
  5
1B5
  8
DETAIL
  6
CONTINUOUS
 62
     5
 10
329.815534
 20
1637.398847
 30
0.0
 11
331.042338
 21
1635.803061
 31
0.0
  0
LINE
  5
1B6
  8
DETAIL
  6
CONTINUOUS
 62
     5
 10
328.296151
 20
1638.713072
 30
0.0
 11
329.815534
 21
1637.398847
 31
0.0
  0
LINE
  5
1B7
  8
DETAIL
  6
CONTINUOUS
 62
     5
 10
326.546198
 20
1639.692097
 30
0.0
 11
328.296151
 21
1638.713072
 31
0.0
  0
LINE
  5
1B8
  8
DETAIL
  6
CONTINUOUS
 62
     5
 10
324.637097
 20
1640.295965
 30
0.0
 11
326.546198
 21
1639.692097
 31
0.0
  0
LINE
  5
1B9
  8
DETAIL
  6
CONTINUOUS
 62
     5
 10
322.646765
 20
1640.50003
 30
0.0
 11
324.637097
 21
1640.295965
 31
0.0
  0
LINE
  5
1BA
  8
DETAIL
  6
CONTINUOUS
 62
     5
 10
331.598749
 20
1637.398847
 30
0.0
 11
332.830823
 21
1635.803061
 31
0.0
  0
LINE
  5
1BB
  8
DETAIL
  6
CONTINUOUS
 62
     5
 10
330.072839
 20
1638.713072
 30
0.0
 11
331.598749
 21
1637.398847
 31
0.0
  0
LINE
  5
1BC
  8
DETAIL
  6
CONTINUOUS
 62
     5
 10
328.315369
 20
1639.692097
 30
0.0
 11
330.072839
 21
1638.713072
 31
0.0
  0
LINE
  5
1BD
  8
DETAIL
  6
CONTINUOUS
 62
     5
 10
326.398067
 20
1640.295965
 30
0.0
 11
328.315369
 21
1639.692097
 31
0.0
  0
LINE
  5
1BE
  8
DETAIL
  6
CONTINUOUS
 62
     5
 10
324.399185
 20
1640.50003
 30
0.0
 11
326.398067
 21
1640.295965
 31
0.0
  0
LINE
  5
1BF
  8
DETAIL
  6
CONTINUOUS
 62
     5
 10
331.285164
 20
1637.398847
 30
0.0
 11
332.517238
 21
1635.803061
 31
0.0
  0
LINE
  5
1C0
  8
DETAIL
  6
CONTINUOUS
 62
     5
 10
329.759254
 20
1638.713072
 30
0.0
 11
331.285164
 21
1637.398847
 31
0.0
  0
LINE
  5
1C1
  8
DETAIL
  6
CONTINUOUS
 62
     5
 10
328.001784
 20
1639.692097
 30
0.0
 11
329.759254
 21
1638.713072
 31
0.0
  0
LINE
  5
1C2
  8
DETAIL
  6
CONTINUOUS
 62
     5
 10
326.084482
 20
1640.295965
 30
0.0
 11
328.001784
 21
1639.692097
 31
0.0
  0
LINE
  5
1C3
  8
DETAIL
  6
CONTINUOUS
 62
     5
 10
324.0856
 20
1640.50003
 30
0.0
 11
326.084482
 21
1640.295965
 31
0.0
  0
LINE
  5
1C4
  8
DETAIL
  6
CONTINUOUS
 62
     5
 10
332.560443
 20
1637.398847
 30
0.0
 11
333.796286
 21
1635.803061
 31
0.0
  0
LINE
  5
1C5
  8
DETAIL
  6
CONTINUOUS
 62
     5
 10
331.029865
 20
1638.713072
 30
0.0
 11
332.560443
 21
1637.398847
 31
0.0
  0
LINE
  5
1C6
  8
DETAIL
  6
CONTINUOUS
 62
     5
 10
329.267019
 20
1639.692097
 30
0.0
 11
331.029865
 21
1638.713072
 31
0.0
  0
LINE
  5
1C7
  8
DETAIL
  6
CONTINUOUS
 62
     5
 10
327.343853
 20
1640.295965
 30
0.0
 11
329.267019
 21
1639.692097
 31
0.0
  0
LINE
  5
1C8
  8
DETAIL
  6
CONTINUOUS
 62
     5
 10
325.338856
 20
1640.50003
 30
0.0
 11
327.343853
 21
1640.295965
 31
0.0
  0
LINE
  5
1C9
  8
DETAIL
  6
CONTINUOUS
 62
     5
 10
332.351174
 20
1637.398847
 30
0.0
 11
333.587016
 21
1635.803061
 31
0.0
  0
LINE
  5
1CA
  8
DETAIL
  6
CONTINUOUS
 62
     5
 10
330.820596
 20
1638.713072
 30
0.0
 11
332.351174
 21
1637.398847
 31
0.0
  0
LINE
  5
1CB
  8
DETAIL
  6
CONTINUOUS
 62
     5
 10
329.05775
 20
1639.692097
 30
0.0
 11
330.820596
 21
1638.713072
 31
0.0
  0
LINE
  5
1CC
  8
DETAIL
  6
CONTINUOUS
 62
     5
 10
327.134583
 20
1640.295965
 30
0.0
 11
329.05775
 21
1639.692097
 31
0.0
  0
LINE
  5
1CD
  8
DETAIL
  6
CONTINUOUS
 62
     5
 10
325.129587
 20
1640.50003
 30
0.0
 11
327.134583
 21
1640.295965
 31
0.0
  0
LINE
  5
1CE
  8
DETAIL
  6
CONTINUOUS
 62
     5
 10
333.116963
 20
1637.398847
 30
0.0
 11
334.355069
 21
1635.803061
 31
0.0
  0
LINE
  5
1CF
  8
DETAIL
  6
CONTINUOUS
 62
     5
 10
331.583582
 20
1638.713072
 30
0.0
 11
333.116963
 21
1637.398847
 31
0.0
  0
LINE
  5
1D0
  8
DETAIL
  6
CONTINUOUS
 62
     5
 10
329.817508
 20
1639.692097
 30
0.0
 11
331.583582
 21
1638.713072
 31
0.0
  0
LINE
  5
1D1
  8
DETAIL
  6
CONTINUOUS
 62
     5
 10
327.89082
 20
1640.295965
 30
0.0
 11
329.817508
 21
1639.692097
 31
0.0
  0
LINE
  5
1D2
  8
DETAIL
  6
CONTINUOUS
 62
     5
 10
325.882152
 20
1640.50003
 30
0.0
 11
327.89082
 21
1640.295965
 31
0.0
  0
LINE
  5
1D3
  8
DETAIL
  6
CONTINUOUS
 62
     5
 10
333.012265
 20
1637.398847
 30
0.0
 11
334.250371
 21
1635.803061
 31
0.0
  0
LINE
  5
1D4
  8
DETAIL
  6
CONTINUOUS
 62
     5
 10
331.478884
 20
1638.713072
 30
0.0
 11
333.012265
 21
1637.398847
 31
0.0
  0
LINE
  5
1D5
  8
DETAIL
  6
CONTINUOUS
 62
     5
 10
329.71281
 20
1639.692097
 30
0.0
 11
331.478884
 21
1638.713072
 31
0.0
  0
LINE
  5
1D6
  8
DETAIL
  6
CONTINUOUS
 62
     5
 10
327.786122
 20
1640.295965
 30
0.0
 11
329.71281
 21
1639.692097
 31
0.0
  0
LINE
  5
1D7
  8
DETAIL
  6
CONTINUOUS
 62
     5
 10
325.777453
 20
1640.50003
 30
0.0
 11
327.786122
 21
1640.295965
 31
0.0
  0
LINE
  5
1D8
  8
DETAIL
  6
CONTINUOUS
 62
     5
 10
-333.116963
 20
1637.398847
 30
0.0
 11
-334.355069
 21
1635.803061
 31
0.0
  0
LINE
  5
1D9
  8
DETAIL
  6
CONTINUOUS
 62
     5
 10
-331.583582
 20
1638.713072
 30
0.0
 11
-333.116963
 21
1637.398847
 31
0.0
  0
LINE
  5
1DA
  8
DETAIL
  6
CONTINUOUS
 62
     5
 10
-329.817508
 20
1639.692097
 30
0.0
 11
-331.583582
 21
1638.713072
 31
0.0
  0
LINE
  5
1DB
  8
DETAIL
  6
CONTINUOUS
 62
     5
 10
-327.89082
 20
1640.295965
 30
0.0
 11
-329.817508
 21
1639.692097
 31
0.0
  0
LINE
  5
1DC
  8
DETAIL
  6
CONTINUOUS
 62
     5
 10
-325.882152
 20
1640.50003
 30
0.0
 11
-327.89082
 21
1640.295965
 31
0.0
  0
LINE
  5
1DD
  8
DETAIL
  6
CONTINUOUS
 62
     5
 10
-333.012265
 20
1637.398847
 30
0.0
 11
-334.250371
 21
1635.803061
 31
0.0
  0
LINE
  5
1DE
  8
DETAIL
  6
CONTINUOUS
 62
     5
 10
-331.478884
 20
1638.713072
 30
0.0
 11
-333.012265
 21
1637.398847
 31
0.0
  0
LINE
  5
1DF
  8
DETAIL
  6
CONTINUOUS
 62
     5
 10
-329.71281
 20
1639.692097
 30
0.0
 11
-331.478884
 21
1638.713072
 31
0.0
  0
LINE
  5
1E0
  8
DETAIL
  6
CONTINUOUS
 62
     5
 10
-327.786122
 20
1640.295965
 30
0.0
 11
-329.71281
 21
1639.692097
 31
0.0
  0
LINE
  5
1E1
  8
DETAIL
  6
CONTINUOUS
 62
     5
 10
-325.777453
 20
1640.50003
 30
0.0
 11
-327.786122
 21
1640.295965
 31
0.0
  0
LINE
  5
1E2
  8
DETAIL
  6
CONTINUOUS
 62
     5
 10
-332.560443
 20
1637.398847
 30
0.0
 11
-333.796286
 21
1635.803061
 31
0.0
  0
LINE
  5
1E3
  8
DETAIL
  6
CONTINUOUS
 62
     5
 10
-331.029865
 20
1638.713072
 30
0.0
 11
-332.560443
 21
1637.398847
 31
0.0
  0
LINE
  5
1E4
  8
DETAIL
  6
CONTINUOUS
 62
     5
 10
-329.267019
 20
1639.692097
 30
0.0
 11
-331.029865
 21
1638.713072
 31
0.0
  0
LINE
  5
1E5
  8
DETAIL
  6
CONTINUOUS
 62
     5
 10
-327.343853
 20
1640.295965
 30
0.0
 11
-329.267019
 21
1639.692097
 31
0.0
  0
LINE
  5
1E6
  8
DETAIL
  6
CONTINUOUS
 62
     5
 10
-325.338856
 20
1640.50003
 30
0.0
 11
-327.343853
 21
1640.295965
 31
0.0
  0
LINE
  5
1E7
  8
DETAIL
  6
CONTINUOUS
 62
     5
 10
-332.351174
 20
1637.398847
 30
0.0
 11
-333.587016
 21
1635.803061
 31
0.0
  0
LINE
  5
1E8
  8
DETAIL
  6
CONTINUOUS
 62
     5
 10
-330.820596
 20
1638.713072
 30
0.0
 11
-332.351174
 21
1637.398847
 31
0.0
  0
LINE
  5
1E9
  8
DETAIL
  6
CONTINUOUS
 62
     5
 10
-329.05775
 20
1639.692097
 30
0.0
 11
-330.820596
 21
1638.713072
 31
0.0
  0
LINE
  5
1EA
  8
DETAIL
  6
CONTINUOUS
 62
     5
 10
-327.134583
 20
1640.295965
 30
0.0
 11
-329.05775
 21
1639.692097
 31
0.0
  0
LINE
  5
1EB
  8
DETAIL
  6
CONTINUOUS
 62
     5
 10
-325.129587
 20
1640.50003
 30
0.0
 11
-327.134583
 21
1640.295965
 31
0.0
  0
LINE
  5
1EC
  8
DETAIL
  6
CONTINUOUS
 62
     5
 10
-331.598749
 20
1637.398847
 30
0.0
 11
-332.830823
 21
1635.803061
 31
0.0
  0
LINE
  5
1ED
  8
DETAIL
  6
CONTINUOUS
 62
     5
 10
-330.072839
 20
1638.713072
 30
0.0
 11
-331.598749
 21
1637.398847
 31
0.0
  0
LINE
  5
1EE
  8
DETAIL
  6
CONTINUOUS
 62
     5
 10
-328.315369
 20
1639.692097
 30
0.0
 11
-330.072839
 21
1638.713072
 31
0.0
  0
LINE
  5
1EF
  8
DETAIL
  6
CONTINUOUS
 62
     5
 10
-326.398067
 20
1640.295965
 30
0.0
 11
-328.315369
 21
1639.692097
 31
0.0
  0
LINE
  5
1F0
  8
DETAIL
  6
CONTINUOUS
 62
     5
 10
-324.399185
 20
1640.50003
 30
0.0
 11
-326.398067
 21
1640.295965
 31
0.0
  0
LINE
  5
1F1
  8
DETAIL
  6
CONTINUOUS
 62
     5
 10
-331.285164
 20
1637.398847
 30
0.0
 11
-332.517238
 21
1635.803061
 31
0.0
  0
LINE
  5
1F2
  8
DETAIL
  6
CONTINUOUS
 62
     5
 10
-329.759254
 20
1638.713072
 30
0.0
 11
-331.285164
 21
1637.398847
 31
0.0
  0
LINE
  5
1F3
  8
DETAIL
  6
CONTINUOUS
 62
     5
 10
-328.001784
 20
1639.692097
 30
0.0
 11
-329.759254
 21
1638.713072
 31
0.0
  0
LINE
  5
1F4
  8
DETAIL
  6
CONTINUOUS
 62
     5
 10
-326.084482
 20
1640.295965
 30
0.0
 11
-328.001784
 21
1639.692097
 31
0.0
  0
LINE
  5
1F5
  8
DETAIL
  6
CONTINUOUS
 62
     5
 10
-324.0856
 20
1640.50003
 30
0.0
 11
-326.084482
 21
1640.295965
 31
0.0
  0
LINE
  5
1F6
  8
DETAIL
  6
CONTINUOUS
 62
     5
 10
-330.233054
 20
1637.398847
 30
0.0
 11
-331.459858
 21
1635.803061
 31
0.0
  0
LINE
  5
1F7
  8
DETAIL
  6
CONTINUOUS
 62
     5
 10
-328.71367
 20
1638.713072
 30
0.0
 11
-330.233054
 21
1637.398847
 31
0.0
  0
LINE
  5
1F8
  8
DETAIL
  6
CONTINUOUS
 62
     5
 10
-326.963717
 20
1639.692097
 30
0.0
 11
-328.71367
 21
1638.713072
 31
0.0
  0
LINE
  5
1F9
  8
DETAIL
  6
CONTINUOUS
 62
     5
 10
-325.054616
 20
1640.295965
 30
0.0
 11
-326.963717
 21
1639.692097
 31
0.0
  0
LINE
  5
1FA
  8
DETAIL
  6
CONTINUOUS
 62
     5
 10
-323.064284
 20
1640.50003
 30
0.0
 11
-325.054616
 21
1640.295965
 31
0.0
  0
LINE
  5
1FB
  8
DETAIL
  6
CONTINUOUS
 62
     5
 10
-329.815534
 20
1637.398847
 30
0.0
 11
-331.042338
 21
1635.803061
 31
0.0
  0
LINE
  5
1FC
  8
DETAIL
  6
CONTINUOUS
 62
     5
 10
-328.296151
 20
1638.713072
 30
0.0
 11
-329.815534
 21
1637.398847
 31
0.0
  0
LINE
  5
1FD
  8
DETAIL
  6
CONTINUOUS
 62
     5
 10
-326.546198
 20
1639.692097
 30
0.0
 11
-328.296151
 21
1638.713072
 31
0.0
  0
LINE
  5
1FE
  8
DETAIL
  6
CONTINUOUS
 62
     5
 10
-324.637097
 20
1640.295965
 30
0.0
 11
-326.546198
 21
1639.692097
 31
0.0
  0
LINE
  5
1FF
  8
DETAIL
  6
CONTINUOUS
 62
     5
 10
-322.646765
 20
1640.50003
 30
0.0
 11
-324.637097
 21
1640.295965
 31
0.0
  0
LINE
  5
200
  8
DETAIL
  6
CONTINUOUS
 62
     5
 10
-328.46502
 20
1637.398847
 30
0.0
 11
-329.685059
 21
1635.803061
 31
0.0
  0
LINE
  5
201
  8
DETAIL
  6
CONTINUOUS
 62
     5
 10
-326.954014
 20
1638.713072
 30
0.0
 11
-328.46502
 21
1637.398847
 31
0.0
  0
LINE
  5
202
  8
DETAIL
  6
CONTINUOUS
 62
     5
 10
-325.21371
 20
1639.692097
 30
0.0
 11
-326.954014
 21
1638.713072
 31
0.0
  0
LINE
  5
203
  8
DETAIL
  6
CONTINUOUS
 62
     5
 10
-323.315136
 20
1640.295965
 30
0.0
 11
-325.21371
 21
1639.692097
 31
0.0
  0
LINE
  5
204
  8
DETAIL
  6
CONTINUOUS
 62
     5
 10
-321.335778
 20
1640.50003
 30
0.0
 11
-323.315136
 21
1640.295965
 31
0.0
  0
LINE
  5
205
  8
DETAIL
  6
CONTINUOUS
 62
     5
 10
-327.944075
 20
1637.398847
 30
0.0
 11
-329.164115
 21
1635.803061
 31
0.0
  0
LINE
  5
206
  8
DETAIL
  6
CONTINUOUS
 62
     5
 10
-326.433069
 20
1638.713072
 30
0.0
 11
-327.944075
 21
1637.398847
 31
0.0
  0
LINE
  5
208
  8
DETAIL
  6
CONTINUOUS
 62
     5
 10
-322.794192
 20
1640.295965
 30
0.0
 11
-324.692766
 21
1639.692097
 31
0.0
  0
LINE
  5
209
  8
DETAIL
  6
CONTINUOUS
 62
     5
 10
-320.814834
 20
1640.50003
 30
0.0
 11
-322.794192
 21
1640.295965
 31
0.0
  0
LINE
  5
20D
  8
DETAIL
  6
CONTINUOUS
 62
     5
 10
-321.181746
 20
1640.295965
 30
0.0
 11
-323.067481
 21
1639.692097
 31
0.0
  0
LINE
  5
20E
  8
DETAIL
  6
CONTINUOUS
 62
     5
 10
-319.215775
 20
1640.50003
 30
0.0
 11
-321.181746
 21
1640.295965
 31
0.0
  0
LINE
  5
212
  8
DETAIL
  6
CONTINUOUS
 62
     5
 10
-320.558011
 20
1640.295965
 30
0.0
 11
-322.443746
 21
1639.692097
 31
0.0
  0
LINE
  5
213
  8
DETAIL
  6
CONTINUOUS
 62
     5
 10
-318.59204
 20
1640.50003
 30
0.0
 11
-320.558011
 21
1640.295965
 31
0.0
  0
LINE
  5
217
  8
DETAIL
  6
CONTINUOUS
 62
     5
 10
-318.657046
 20
1640.295965
 30
0.0
 11
-320.527643
 21
1639.692097
 31
0.0
  0
LINE
  5
218
  8
DETAIL
  6
CONTINUOUS
 62
     5
 10
-316.706856
 20
1640.50003
 30
0.0
 11
-318.657046
 21
1640.295965
 31
0.0
  0
LINE
  5
21C
  8
DETAIL
  6
CONTINUOUS
 62
     5
 10
-317.93128
 20
1640.295965
 30
0.0
 11
-319.801877
 21
1639.692097
 31
0.0
  0
LINE
  5
21D
  8
DETAIL
  6
CONTINUOUS
 62
     5
 10
-315.98109
 20
1640.50003
 30
0.0
 11
-317.93128
 21
1640.295965
 31
0.0
  0
LINE
  5
221
  8
DETAIL
  6
CONTINUOUS
 62
     5
 10
-315.744111
 20
1640.295965
 30
0.0
 11
-317.597292
 21
1639.692097
 31
0.0
  0
LINE
  5
222
  8
DETAIL
  6
CONTINUOUS
 62
     5
 10
-313.812079
 20
1640.50003
 30
0.0
 11
-315.744111
 21
1640.295965
 31
0.0
  0
LINE
  5
226
  8
DETAIL
  6
CONTINUOUS
 62
     5
 10
-314.917199
 20
1640.295965
 30
0.0
 11
-316.77038
 21
1639.692097
 31
0.0
  0
LINE
  5
227
  8
DETAIL
  6
CONTINUOUS
 62
     5
 10
-312.985167
 20
1640.50003
 30
0.0
 11
-314.917199
 21
1640.295965
 31
0.0
  0
LINE
  5
22B
  8
DETAIL
  6
CONTINUOUS
 62
     5
 10
-312.446491
 20
1640.295965
 30
0.0
 11
-314.279997
 21
1639.692097
 31
0.0
  0
LINE
  5
22C
  8
DETAIL
  6
CONTINUOUS
 62
     5
 10
-310.53497
 20
1640.50003
 30
0.0
 11
-312.446491
 21
1640.295965
 31
0.0
  0
LINE
  5
230
  8
DETAIL
  6
CONTINUOUS
 62
     5
 10
-311.51944
 20
1640.295965
 30
0.0
 11
-313.352946
 21
1639.692097
 31
0.0
  0
LINE
  5
231
  8
DETAIL
  6
CONTINUOUS
 62
     5
 10
-309.607919
 20
1640.50003
 30
0.0
 11
-311.51944
 21
1640.295965
 31
0.0
  0
LINE
  5
235
  8
DETAIL
  6
CONTINUOUS
 62
     5
 10
-308.768203
 20
1640.295965
 30
0.0
 11
-310.579801
 21
1639.692097
 31
0.0
  0
LINE
  5
236
  8
DETAIL
  6
CONTINUOUS
 62
     5
 10
-306.879522
 20
1640.50003
 30
0.0
 11
-308.768203
 21
1640.295965
 31
0.0
  0
LINE
  5
23A
  8
DETAIL
  6
CONTINUOUS
 62
     5
 10
-307.742142
 20
1640.295965
 30
0.0
 11
-309.553741
 21
1639.692097
 31
0.0
  0
LINE
  5
23B
  8
DETAIL
  6
CONTINUOUS
 62
     5
 10
-305.853461
 20
1640.50003
 30
0.0
 11
-307.742142
 21
1640.295965
 31
0.0
  0
LINE
  5
23F
  8
DETAIL
  6
CONTINUOUS
 62
     5
 10
-304.713728
 20
1640.295965
 30
0.0
 11
-306.501211
 21
1639.692097
 31
0.0
  0
LINE
  5
240
  8
DETAIL
  6
CONTINUOUS
 62
     5
 10
-302.850188
 20
1640.50003
 30
0.0
 11
-304.713728
 21
1640.295965
 31
0.0
  0
LINE
  5
244
  8
DETAIL
  6
CONTINUOUS
 62
     5
 10
-303.589908
 20
1640.295965
 30
0.0
 11
-305.377391
 21
1639.692097
 31
0.0
  0
LINE
  5
245
  8
DETAIL
  6
CONTINUOUS
 62
     5
 10
-301.726368
 20
1640.50003
 30
0.0
 11
-303.589908
 21
1640.295965
 31
0.0
  0
LINE
  5
249
  8
DETAIL
  6
CONTINUOUS
 62
     5
 10
-300.288006
 20
1640.295965
 30
0.0
 11
-302.049197
 21
1639.692097
 31
0.0
  0
LINE
  5
24A
  8
DETAIL
  6
CONTINUOUS
 62
     5
 10
-298.451878
 20
1640.50003
 30
0.0
 11
-300.288006
 21
1640.295965
 31
0.0
  0
LINE
  5
24E
  8
DETAIL
  6
CONTINUOUS
 62
     5
 10
-299.067797
 20
1640.295965
 30
0.0
 11
-300.828987
 21
1639.692097
 31
0.0
  0
LINE
  5
24F
  8
DETAIL
  6
CONTINUOUS
 62
     5
 10
-297.231668
 20
1640.50003
 30
0.0
 11
-299.067797
 21
1640.295965
 31
0.0
  0
LINE
  5
253
  8
DETAIL
  6
CONTINUOUS
 62
     5
 10
-295.49643
 20
1640.295965
 30
0.0
 11
-297.229182
 21
1639.692097
 31
0.0
  0
LINE
  5
254
  8
DETAIL
  6
CONTINUOUS
 62
     5
 10
-293.689951
 20
1640.50003
 30
0.0
 11
-295.49643
 21
1640.295965
 31
0.0
  0
LINE
  5
258
  8
DETAIL
  6
CONTINUOUS
 62
     5
 10
-294.181317
 20
1640.295965
 30
0.0
 11
-295.914068
 21
1639.692097
 31
0.0
  0
LINE
  5
259
  8
DETAIL
  6
CONTINUOUS
 62
     5
 10
-292.374837
 20
1640.50003
 30
0.0
 11
-294.181317
 21
1640.295965
 31
0.0
  0
LINE
  5
25D
  8
DETAIL
  6
CONTINUOUS
 62
     5
 10
-290.344837
 20
1640.295965
 30
0.0
 11
-292.047039
 21
1639.692097
 31
0.0
  0
LINE
  5
25E
  8
DETAIL
  6
CONTINUOUS
 62
     5
 10
-288.570207
 20
1640.50003
 30
0.0
 11
-290.344837
 21
1640.295965
 31
0.0
  0
LINE
  5
262
  8
DETAIL
  6
CONTINUOUS
 62
     5
 10
-288.936423
 20
1640.295965
 30
0.0
 11
-290.638624
 21
1639.692097
 31
0.0
  0
LINE
  5
263
  8
DETAIL
  6
CONTINUOUS
 62
     5
 10
-287.161793
 20
1640.50003
 30
0.0
 11
-288.936423
 21
1640.295965
 31
0.0
  0
LINE
  5
267
  8
DETAIL
  6
CONTINUOUS
 62
     5
 10
-284.839504
 20
1640.295965
 30
0.0
 11
-286.509082
 21
1639.692097
 31
0.0
  0
LINE
  5
268
  8
DETAIL
  6
CONTINUOUS
 62
     5
 10
-283.098886
 20
1640.50003
 30
0.0
 11
-284.839504
 21
1640.295965
 31
0.0
  0
LINE
  5
26C
  8
DETAIL
  6
CONTINUOUS
 62
     5
 10
-283.339504
 20
1640.295965
 30
0.0
 11
-285.009082
 21
1639.692097
 31
0.0
  0
LINE
  5
26D
  8
DETAIL
  6
CONTINUOUS
 62
     5
 10
-281.598886
 20
1640.50003
 30
0.0
 11
-283.339504
 21
1640.295965
 31
0.0
  0
LINE
  5
271
  8
DETAIL
  6
CONTINUOUS
 62
     5
 10
-278.987137
 20
1640.295965
 30
0.0
 11
-280.622057
 21
1639.692097
 31
0.0
  0
LINE
  5
272
  8
DETAIL
  6
CONTINUOUS
 62
     5
 10
-277.282652
 20
1640.50003
 30
0.0
 11
-278.987137
 21
1640.295965
 31
0.0
  0
LINE
  5
276
  8
DETAIL
  6
CONTINUOUS
 62
     5
 10
-277.397379
 20
1640.295965
 30
0.0
 11
-279.032299
 21
1639.692097
 31
0.0
  0
LINE
  5
277
  8
DETAIL
  6
CONTINUOUS
 62
     5
 10
-275.692894
 20
1640.50003
 30
0.0
 11
-277.397379
 21
1640.295965
 31
0.0
  0
LINE
  5
27B
  8
DETAIL
  6
CONTINUOUS
 62
     5
 10
-272.794868
 20
1640.295965
 30
0.0
 11
-274.393138
 21
1639.692097
 31
0.0
  0
LINE
  5
27C
  8
DETAIL
  6
CONTINUOUS
 62
     5
 10
-271.128591
 20
1640.50003
 30
0.0
 11
-272.794868
 21
1640.295965
 31
0.0
  0
LINE
  5
280
  8
DETAIL
  6
CONTINUOUS
 62
     5
 10
-271.117289
 20
1640.295965
 30
0.0
 11
-272.715559
 21
1639.692097
 31
0.0
  0
LINE
  5
281
  8
DETAIL
  6
CONTINUOUS
 62
     5
 10
-269.451013
 20
1640.50003
 30
0.0
 11
-271.117289
 21
1640.295965
 31
0.0
  0
LINE
  5
285
  8
DETAIL
  6
CONTINUOUS
 62
     5
 10
-266.27024
 20
1640.295965
 30
0.0
 11
-267.829913
 21
1639.692097
 31
0.0
  0
LINE
  5
286
  8
DETAIL
  6
CONTINUOUS
 62
     5
 10
-264.644202
 20
1640.50003
 30
0.0
 11
-266.27024
 21
1640.295965
 31
0.0
  0
LINE
  5
287
  8
DETAIL
  6
CONTINUOUS
 62
     5
 10
-262.880847
 20
1640.50003
 30
0.0
 11
-264.506884
 21
1640.295965
 31
0.0
  0
LINE
  5
28B
  8
DETAIL
  6
CONTINUOUS
 62
     5
 10
-259.421202
 20
1640.295965
 30
0.0
 11
-260.940379
 21
1639.692097
 31
0.0
  0
LINE
  5
28C
  8
DETAIL
  6
CONTINUOUS
 62
     5
 10
-257.837386
 20
1640.50003
 30
0.0
 11
-259.421202
 21
1640.295965
 31
0.0
  0
LINE
  5
290
  8
DETAIL
  6
CONTINUOUS
 62
     5
 10
-257.574218
 20
1640.295965
 30
0.0
 11
-259.093394
 21
1639.692097
 31
0.0
  0
LINE
  5
291
  8
DETAIL
  6
CONTINUOUS
 62
     5
 10
-255.990401
 20
1640.50003
 30
0.0
 11
-257.574218
 21
1640.295965
 31
0.0
  0
LINE
  5
295
  8
DETAIL
  6
CONTINUOUS
 62
     5
 10
-252.2561
 20
1640.295965
 30
0.0
 11
-253.732929
 21
1639.692097
 31
0.0
  0
LINE
  5
296
  8
DETAIL
  6
CONTINUOUS
 62
     5
 10
-250.716433
 20
1640.50003
 30
0.0
 11
-252.2561
 21
1640.295965
 31
0.0
  0
LINE
  5
29A
  8
DETAIL
  6
CONTINUOUS
 62
     5
 10
-250.327738
 20
1640.295965
 30
0.0
 11
-251.804566
 21
1639.692097
 31
0.0
  0
LINE
  5
29B
  8
DETAIL
  6
CONTINUOUS
 62
     5
 10
-248.788071
 20
1640.50003
 30
0.0
 11
-250.327738
 21
1640.295965
 31
0.0
  0
LINE
  5
29F
  8
DETAIL
  6
CONTINUOUS
 62
     5
 10
-244.783663
 20
1640.295965
 30
0.0
 11
-246.216344
 21
1639.692097
 31
0.0
  0
LINE
  5
2A0
  8
DETAIL
  6
CONTINUOUS
 62
     5
 10
-243.290022
 20
1640.50003
 30
0.0
 11
-244.783663
 21
1640.295965
 31
0.0
  0
LINE
  5
2A4
  8
DETAIL
  6
CONTINUOUS
 62
     5
 10
-242.776271
 20
1640.295965
 30
0.0
 11
-244.208953
 21
1639.692097
 31
0.0
  0
LINE
  5
2A5
  8
DETAIL
  6
CONTINUOUS
 62
     5
 10
-241.28263
 20
1640.50003
 30
0.0
 11
-242.776271
 21
1640.295965
 31
0.0
  0
LINE
  5
2A9
  8
DETAIL
  6
CONTINUOUS
 62
     5
 10
-237.012995
 20
1640.295965
 30
0.0
 11
-238.399783
 21
1639.692097
 31
0.0
  0
LINE
  5
2AA
  8
DETAIL
  6
CONTINUOUS
 62
     5
 10
-235.567199
 20
1640.50003
 30
0.0
 11
-237.012995
 21
1640.295965
 31
0.0
  0
LINE
  5
2AE
  8
DETAIL
  6
CONTINUOUS
 62
     5
 10
-234.92902
 20
1640.295965
 30
0.0
 11
-236.315808
 21
1639.692097
 31
0.0
  0
LINE
  5
2AF
  8
DETAIL
  6
CONTINUOUS
 62
     5
 10
-233.483224
 20
1640.50003
 30
0.0
 11
-234.92902
 21
1640.295965
 31
0.0
  0
LINE
  5
2B3
  8
DETAIL
  6
CONTINUOUS
 62
     5
 10
-228.953563
 20
1640.295965
 30
0.0
 11
-230.292769
 21
1639.692097
 31
0.0
  0
LINE
  5
2B4
  8
DETAIL
  6
CONTINUOUS
 62
     5
 10
-227.557374
 20
1640.50003
 30
0.0
 11
-228.953563
 21
1640.295965
 31
0.0
  0
LINE
  5
2B8
  8
DETAIL
  6
CONTINUOUS
 62
     5
 10
-226.795543
 20
1640.295965
 30
0.0
 11
-228.134749
 21
1639.692097
 31
0.0
  0
LINE
  5
2B9
  8
DETAIL
  6
CONTINUOUS
 62
     5
 10
-225.399355
 20
1640.50003
 30
0.0
 11
-226.795543
 21
1640.295965
 31
0.0
  0
LINE
  5
2BD
  8
DETAIL
  6
CONTINUOUS
 62
     5
 10
-220.615186
 20
1640.295965
 30
0.0
 11
-221.905178
 21
1639.692097
 31
0.0
  0
LINE
  5
2BE
  8
DETAIL
  6
CONTINUOUS
 62
     5
 10
-219.270305
 20
1640.50003
 30
0.0
 11
-220.615186
 21
1640.295965
 31
0.0
  0
LINE
  5
2C2
  8
DETAIL
  6
CONTINUOUS
 62
     5
 10
-218.385751
 20
1640.295965
 30
0.0
 11
-219.675743
 21
1639.692097
 31
0.0
  0
LINE
  5
2C3
  8
DETAIL
  6
CONTINUOUS
 62
     5
 10
-217.040871
 20
1640.50003
 30
0.0
 11
-218.385751
 21
1640.295965
 31
0.0
  0
LINE
  5
2C7
  8
DETAIL
  6
CONTINUOUS
 62
     5
 10
-212.008023
 20
1640.295965
 30
0.0
 11
-213.247229
 21
1639.692097
 31
0.0
  0
LINE
  5
2C8
  8
DETAIL
  6
CONTINUOUS
 62
     5
 10
-210.716089
 20
1640.50003
 30
0.0
 11
-212.008023
 21
1640.295965
 31
0.0
  0
LINE
  5
2CC
  8
DETAIL
  6
CONTINUOUS
 62
     5
 10
-209.70989
 20
1640.295965
 30
0.0
 11
-210.949096
 21
1639.692097
 31
0.0
  0
LINE
  5
2CD
  8
DETAIL
  6
CONTINUOUS
 62
     5
 10
-208.417956
 20
1640.50003
 30
0.0
 11
-209.70989
 21
1640.295965
 31
0.0
  0
LINE
  5
2D1
  8
DETAIL
  6
CONTINUOUS
 62
     5
 10
-203.142562
 20
1640.295965
 30
0.0
 11
-204.329472
 21
1639.692097
 31
0.0
  0
LINE
  5
2D2
  8
DETAIL
  6
CONTINUOUS
 62
     5
 10
-201.905148
 20
1640.50003
 30
0.0
 11
-203.142562
 21
1640.295965
 31
0.0
  0
LINE
  5
2D6
  8
DETAIL
  6
CONTINUOUS
 62
     5
 10
-200.778529
 20
1640.295965
 30
0.0
 11
-201.96544
 21
1639.692097
 31
0.0
  0
LINE
  5
2D7
  8
DETAIL
  6
CONTINUOUS
 62
     5
 10
-199.541116
 20
1640.50003
 30
0.0
 11
-200.778529
 21
1640.295965
 31
0.0
  0
LINE
  5
2DB
  8
DETAIL
  6
CONTINUOUS
 62
     5
 10
-194.029602
 20
1640.295965
 30
0.0
 11
-195.162771
 21
1639.692097
 31
0.0
  0
LINE
  5
2DC
  8
DETAIL
  6
CONTINUOUS
 62
     5
 10
-192.848217
 20
1640.50003
 30
0.0
 11
-194.029602
 21
1640.295965
 31
0.0
  0
LINE
  5
2E0
  8
DETAIL
  6
CONTINUOUS
 62
     5
 10
-191.602551
 20
1640.295965
 30
0.0
 11
-192.73572
 21
1639.692097
 31
0.0
  0
LINE
  5
2E1
  8
DETAIL
  6
CONTINUOUS
 62
     5
 10
-190.421166
 20
1640.50003
 30
0.0
 11
-191.602551
 21
1640.295965
 31
0.0
  0
LINE
  5
2E5
  8
DETAIL
  6
CONTINUOUS
 62
     5
 10
-184.680247
 20
1640.295965
 30
0.0
 11
-185.758294
 21
1639.692097
 31
0.0
  0
LINE
  5
2E6
  8
DETAIL
  6
CONTINUOUS
 62
     5
 10
-183.55633
 20
1640.50003
 30
0.0
 11
-184.680247
 21
1640.295965
 31
0.0
  0
LINE
  5
2EA
  8
DETAIL
  6
CONTINUOUS
 62
     5
 10
-182.193135
 20
1640.295965
 30
0.0
 11
-183.271182
 21
1639.692097
 31
0.0
  0
LINE
  5
2EB
  8
DETAIL
  6
CONTINUOUS
 62
     5
 10
-181.069217
 20
1640.50003
 30
0.0
 11
-182.193135
 21
1640.295965
 31
0.0
  0
LINE
  5
2EF
  8
DETAIL
  6
CONTINUOUS
 62
     5
 10
-175.105888
 20
1640.295965
 30
0.0
 11
-176.1275
 21
1639.692097
 31
0.0
  0
LINE
  5
2F0
  8
DETAIL
  6
CONTINUOUS
 62
     5
 10
-174.040807
 20
1640.50003
 30
0.0
 11
-175.105888
 21
1640.295965
 31
0.0
  0
LINE
  5
2F4
  8
DETAIL
  6
CONTINUOUS
 62
     5
 10
-172.561744
 20
1640.295965
 30
0.0
 11
-173.583355
 21
1639.692097
 31
0.0
  0
LINE
  5
2F5
  8
DETAIL
  6
CONTINUOUS
 62
     5
 10
-171.496663
 20
1640.50003
 30
0.0
 11
-172.561744
 21
1640.295965
 31
0.0
  0
LINE
  5
2F9
  8
DETAIL
  6
CONTINUOUS
 62
     5
 10
-165.31819
 20
1640.295965
 30
0.0
 11
-166.282121
 21
1639.692097
 31
0.0
  0
LINE
  5
2FA
  8
DETAIL
  6
CONTINUOUS
 62
     5
 10
-164.313243
 20
1640.50003
 30
0.0
 11
-165.31819
 21
1640.295965
 31
0.0
  0
LINE
  5
2FE
  8
DETAIL
  6
CONTINUOUS
 62
     5
 10
-162.720113
 20
1640.295965
 30
0.0
 11
-163.684045
 21
1639.692097
 31
0.0
  0
LINE
  5
2FF
  8
DETAIL
  6
CONTINUOUS
 62
     5
 10
-161.715167
 20
1640.50003
 30
0.0
 11
-162.720113
 21
1640.295965
 31
0.0
  0
LINE
  5
303
  8
DETAIL
  6
CONTINUOUS
 62
     5
 10
-155.329076
 20
1640.295965
 30
0.0
 11
-156.234153
 21
1639.692097
 31
0.0
  0
LINE
  5
304
  8
DETAIL
  6
CONTINUOUS
 62
     5
 10
-154.385489
 20
1640.50003
 30
0.0
 11
-155.329076
 21
1640.295965
 31
0.0
  0
LINE
  5
308
  8
DETAIL
  6
CONTINUOUS
 62
     5
 10
-152.680233
 20
1640.295965
 30
0.0
 11
-153.58531
 21
1639.692097
 31
0.0
  0
LINE
  5
309
  8
DETAIL
  6
CONTINUOUS
 62
     5
 10
-151.736646
 20
1640.50003
 30
0.0
 11
-152.680233
 21
1640.295965
 31
0.0
  0
LINE
  5
30D
  8
DETAIL
  6
CONTINUOUS
 62
     5
 10
-145.150718
 20
1640.295965
 30
0.0
 11
-145.995837
 21
1639.692097
 31
0.0
  0
LINE
  5
30E
  8
DETAIL
  6
CONTINUOUS
 62
     5
 10
-144.269639
 20
1640.50003
 30
0.0
 11
-145.150718
 21
1640.295965
 31
0.0
  0
LINE
  5
312
  8
DETAIL
  6
CONTINUOUS
 62
     5
 10
-142.454336
 20
1640.295965
 30
0.0
 11
-143.299455
 21
1639.692097
 31
0.0
  0
LINE
  5
313
  8
DETAIL
  6
CONTINUOUS
 62
     5
 10
-141.573257
 20
1640.50003
 30
0.0
 11
-142.454336
 21
1640.295965
 31
0.0
  0
LINE
  5
317
  8
DETAIL
  6
CONTINUOUS
 62
     5
 10
80.815092
 20
1640.295965
 30
0.0
 11
81.281484
 21
1639.692097
 31
0.0
  0
LINE
  5
318
  8
DETAIL
  6
CONTINUOUS
 62
     5
 10
80.328855
 20
1640.50003
 30
0.0
 11
80.815092
 21
1640.295965
 31
0.0
  0
LINE
  5
31C
  8
DETAIL
  6
CONTINUOUS
 62
     5
 10
77.904204
 20
1640.295965
 30
0.0
 11
78.370597
 21
1639.692097
 31
0.0
  0
LINE
  5
31D
  8
DETAIL
  6
CONTINUOUS
 62
     5
 10
77.417967
 20
1640.50003
 30
0.0
 11
77.904204
 21
1640.295965
 31
0.0
  0
LINE
  5
321
  8
DETAIL
  6
CONTINUOUS
 62
     5
 10
91.861503
 20
1640.295965
 30
0.0
 11
92.392894
 21
1639.692097
 31
0.0
  0
LINE
  5
322
  8
DETAIL
  6
CONTINUOUS
 62
     5
 10
91.307502
 20
1640.50003
 30
0.0
 11
91.861503
 21
1640.295965
 31
0.0
  0
LINE
  5
326
  8
DETAIL
  6
CONTINUOUS
 62
     5
 10
88.977718
 20
1640.295965
 30
0.0
 11
89.509109
 21
1639.692097
 31
0.0
  0
LINE
  5
327
  8
DETAIL
  6
CONTINUOUS
 62
     5
 10
88.423716
 20
1640.50003
 30
0.0
 11
88.977718
 21
1640.295965
 31
0.0
  0
LINE
  5
32B
  8
DETAIL
  6
CONTINUOUS
 62
     5
 10
102.795995
 20
1640.295965
 30
0.0
 11
103.391737
 21
1639.692097
 31
0.0
  0
LINE
  5
32C
  8
DETAIL
  6
CONTINUOUS
 62
     5
 10
102.174904
 20
1640.50003
 30
0.0
 11
102.795995
 21
1640.295965
 31
0.0
  0
LINE
  5
330
  8
DETAIL
  6
CONTINUOUS
 62
     5
 10
99.942826
 20
1640.295965
 30
0.0
 11
100.538568
 21
1639.692097
 31
0.0
  0
LINE
  5
331
  8
DETAIL
  6
CONTINUOUS
 62
     5
 10
99.321735
 20
1640.50003
 30
0.0
 11
99.942826
 21
1640.295965
 31
0.0
  0
LINE
  5
335
  8
DETAIL
  6
CONTINUOUS
 62
     5
 10
113.605246
 20
1640.295965
 30
0.0
 11
114.264614
 21
1639.692097
 31
0.0
  0
LINE
  5
336
  8
DETAIL
  6
CONTINUOUS
 62
     5
 10
112.917823
 20
1640.50003
 30
0.0
 11
113.605246
 21
1640.295965
 31
0.0
  0
LINE
  5
33A
  8
DETAIL
  6
CONTINUOUS
 62
     5
 10
110.786168
 20
1640.295965
 30
0.0
 11
111.445536
 21
1639.692097
 31
0.0
  0
LINE
  5
33B
  8
DETAIL
  6
CONTINUOUS
 62
     5
 10
110.098745
 20
1640.50003
 30
0.0
 11
110.786168
 21
1640.295965
 31
0.0
  0
LINE
  5
33F
  8
DETAIL
  6
CONTINUOUS
 62
     5
 10
124.276087
 20
1640.295965
 30
0.0
 11
124.998277
 21
1639.692097
 31
0.0
  0
LINE
  5
340
  8
DETAIL
  6
CONTINUOUS
 62
     5
 10
123.523168
 20
1640.50003
 30
0.0
 11
124.276087
 21
1640.295965
 31
0.0
  0
LINE
  5
344
  8
DETAIL
  6
CONTINUOUS
 62
     5
 10
121.494535
 20
1640.295965
 30
0.0
 11
122.216725
 21
1639.692097
 31
0.0
  0
LINE
  5
345
  8
DETAIL
  6
CONTINUOUS
 62
     5
 10
120.741616
 20
1640.50003
 30
0.0
 11
121.494535
 21
1640.295965
 31
0.0
  0
LINE
  5
349
  8
DETAIL
  6
CONTINUOUS
 62
     5
 10
134.795516
 20
1640.295965
 30
0.0
 11
135.579649
 21
1639.692097
 31
0.0
  0
LINE
  5
34A
  8
DETAIL
  6
CONTINUOUS
 62
     5
 10
133.978019
 20
1640.50003
 30
0.0
 11
134.795516
 21
1640.295965
 31
0.0
  0
LINE
  5
34E
  8
DETAIL
  6
CONTINUOUS
 62
     5
 10
132.05488
 20
1640.295965
 30
0.0
 11
132.839012
 21
1639.692097
 31
0.0
  0
LINE
  5
34F
  8
DETAIL
  6
CONTINUOUS
 62
     5
 10
131.237383
 20
1640.50003
 30
0.0
 11
132.05488
 21
1640.295965
 31
0.0
  0
LINE
  5
350
  8
DETAIL
  6
CONTINUOUS
 62
     5
 10
-79.99997
 20
1650.000031
 30
0.0
 11
79.99997
 21
1650.000031
 31
0.0
  0
LINE
  5
351
  8
DETAIL
  6
CONTINUOUS
 62
     5
 10
-100.000002
 20
1649.300031
 30
0.0
 11
100.000002
 21
1649.300031
 31
0.0
  0
LINE
  5
352
  8
DETAIL
  6
CONTINUOUS
 62
     5
 10
-119.999972
 20
1648.60003
 30
0.0
 11
119.999972
 21
1648.60003
 31
0.0
  0
LINE
  5
353
  8
DETAIL
  6
CONTINUOUS
 62
     5
 10
-139.999972
 20
1647.90003
 30
0.0
 11
139.999972
 21
1647.90003
 31
0.0
  0
LINE
  5
354
  8
DETAIL
  6
CONTINUOUS
 62
     5
 10
-159.999973
 20
1647.20003
 30
0.0
 11
159.999973
 21
1647.20003
 31
0.0
  0
LINE
  5
355
  8
DETAIL
  6
CONTINUOUS
 62
     5
 10
-179.999974
 20
1646.50003
 30
0.0
 11
179.999974
 21
1646.50003
 31
0.0
  0
LINE
  5
356
  8
DETAIL
  6
CONTINUOUS
 62
     5
 10
-200.000004
 20
1645.80003
 30
0.0
 11
200.000004
 21
1645.80003
 31
0.0
  0
LINE
  5
357
  8
DETAIL
  6
CONTINUOUS
 62
     5
 10
-220.000004
 20
1645.10003
 30
0.0
 11
220.000004
 21
1645.10003
 31
0.0
  0
LINE
  5
358
  8
DETAIL
  6
CONTINUOUS
 62
     5
 10
-239.999974
 20
1644.40003
 30
0.0
 11
239.999974
 21
1644.40003
 31
0.0
  0
LINE
  5
359
  8
DETAIL
  6
CONTINUOUS
 62
     5
 10
-259.999975
 20
1643.70003
 30
0.0
 11
259.999975
 21
1643.70003
 31
0.0
  0
LINE
  5
35A
  8
DETAIL
  6
CONTINUOUS
 62
     5
 10
-280.000005
 20
1643.00003
 30
0.0
 11
280.000005
 21
1643.00003
 31
0.0
  0
LINE
  5
35B
  8
DETAIL
  6
CONTINUOUS
 62
     5
 10
-299.999975
 20
1642.30003
 30
0.0
 11
299.999975
 21
1642.30003
 31
0.0
  0
LINE
  5
35C
  8
DETAIL
  6
CONTINUOUS
 62
     5
 10
-320.000006
 20
1641.60003
 30
0.0
 11
320.000006
 21
1641.60003
 31
0.0
  0
LINE
  5
35D
  8
DETAIL
  6
CONTINUOUS
 62
     5
 10
325.338856
 20
1640.50003
 30
0.0
 11
325.777453
 21
1640.50003
 31
0.0
  0
LINE
  5
35E
  8
DETAIL
  6
CONTINUOUS
 62
     5
 10
324.399185
 20
1640.50003
 30
0.0
 11
325.129587
 21
1640.50003
 31
0.0
  0
LINE
  5
35F
  8
DETAIL
  6
CONTINUOUS
 62
     5
 10
323.064284
 20
1640.50003
 30
0.0
 11
324.0856
 21
1640.50003
 31
0.0
  0
LINE
  5
360
  8
DETAIL
  6
CONTINUOUS
 62
     5
 10
321.335778
 20
1640.50003
 30
0.0
 11
322.646765
 21
1640.50003
 31
0.0
  0
LINE
  5
361
  8
DETAIL
  6
CONTINUOUS
 62
     5
 10
319.215775
 20
1640.50003
 30
0.0
 11
320.814834
 21
1640.50003
 31
0.0
  0
LINE
  5
362
  8
DETAIL
  6
CONTINUOUS
 62
     5
 10
258.000921
 20
1640.50003
 30
0.0
 11
318.59204
 21
1640.50003
 31
0.0
  0
LINE
  5
363
  8
DETAIL
  6
CONTINUOUS
 62
     5
 10
251.237183
 20
1640.50003
 30
0.0
 11
257.837386
 21
1640.50003
 31
0.0
  0
LINE
  5
364
  8
DETAIL
  6
CONTINUOUS
 62
     5
 10
244.167352
 20
1640.50003
 30
0.0
 11
250.716433
 21
1640.50003
 31
0.0
  0
LINE
  5
365
  8
DETAIL
  6
CONTINUOUS
 62
     5
 10
236.80004
 20
1640.50003
 30
0.0
 11
243.290022
 21
1640.50003
 31
0.0
  0
LINE
  5
366
  8
DETAIL
  6
CONTINUOUS
 62
     5
 10
229.144224
 20
1640.50003
 30
0.0
 11
235.567199
 21
1640.50003
 31
0.0
  0
LINE
  5
367
  8
DETAIL
  6
CONTINUOUS
 62
     5
 10
221.209231
 20
1640.50003
 30
0.0
 11
227.557374
 21
1640.50003
 31
0.0
  0
LINE
  5
368
  8
DETAIL
  6
CONTINUOUS
 62
     5
 10
213.004728
 20
1640.50003
 30
0.0
 11
219.270305
 21
1640.50003
 31
0.0
  0
LINE
  5
369
  8
DETAIL
  6
CONTINUOUS
 62
     5
 10
204.540712
 20
1640.50003
 30
0.0
 11
210.716089
 21
1640.50003
 31
0.0
  0
LINE
  5
36A
  8
DETAIL
  6
CONTINUOUS
 62
     5
 10
195.827495
 20
1640.50003
 30
0.0
 11
201.905148
 21
1640.50003
 31
0.0
  0
LINE
  5
36B
  8
DETAIL
  6
CONTINUOUS
 62
     5
 10
186.875692
 20
1640.50003
 30
0.0
 11
192.848217
 21
1640.50003
 31
0.0
  0
LINE
  5
36C
  8
DETAIL
  6
CONTINUOUS
 62
     5
 10
177.69621
 20
1640.50003
 30
0.0
 11
183.55633
 21
1640.50003
 31
0.0
  0
LINE
  5
36D
  8
DETAIL
  6
CONTINUOUS
 62
     5
 10
168.300233
 20
1640.50003
 30
0.0
 11
174.040807
 21
1640.50003
 31
0.0
  0
LINE
  5
36E
  8
DETAIL
  6
CONTINUOUS
 62
     5
 10
158.699207
 20
1640.50003
 30
0.0
 11
164.313243
 21
1640.50003
 31
0.0
  0
LINE
  5
36F
  8
DETAIL
  6
CONTINUOUS
 62
     5
 10
148.904831
 20
1640.50003
 30
0.0
 11
154.385489
 21
1640.50003
 31
0.0
  0
LINE
  5
370
  8
DETAIL
  6
CONTINUOUS
 62
     5
 10
138.929037
 20
1640.50003
 30
0.0
 11
144.269639
 21
1640.50003
 31
0.0
  0
LINE
  5
371
  8
DETAIL
  6
CONTINUOUS
 62
     5
 10
128.78398
 20
1640.50003
 30
0.0
 11
133.978019
 21
1640.50003
 31
0.0
  0
LINE
  5
372
  8
DETAIL
  6
CONTINUOUS
 62
     5
 10
118.482019
 20
1640.50003
 30
0.0
 11
123.523168
 21
1640.50003
 31
0.0
  0
LINE
  5
373
  8
DETAIL
  6
CONTINUOUS
 62
     5
 10
108.035707
 20
1640.50003
 30
0.0
 11
112.917823
 21
1640.50003
 31
0.0
  0
LINE
  5
374
  8
DETAIL
  6
CONTINUOUS
 62
     5
 10
97.457769
 20
1640.50003
 30
0.0
 11
102.174904
 21
1640.50003
 31
0.0
  0
LINE
  5
375
  8
DETAIL
  6
CONTINUOUS
 62
     5
 10
86.761094
 20
1640.50003
 30
0.0
 11
91.307502
 21
1640.50003
 31
0.0
  0
LINE
  5
376
  8
DETAIL
  6
CONTINUOUS
 62
     5
 10
75.958714
 20
1640.50003
 30
0.0
 11
80.328855
 21
1640.50003
 31
0.0
  0
LINE
  5
377
  8
DETAIL
  6
CONTINUOUS
 62
     5
 10
65.06379
 20
1640.50003
 30
0.0
 11
69.252339
 21
1640.50003
 31
0.0
  0
LINE
  5
378
  8
DETAIL
  6
CONTINUOUS
 62
     5
 10
54.089596
 20
1640.50003
 30
0.0
 11
58.091451
 21
1640.50003
 31
0.0
  0
LINE
  5
379
  8
DETAIL
  6
CONTINUOUS
 62
     5
 10
43.049502
 20
1640.50003
 30
0.0
 11
46.859787
 21
1640.50003
 31
0.0
  0
LINE
  5
37A
  8
DETAIL
  6
CONTINUOUS
 62
     5
 10
31.956959
 20
1640.50003
 30
0.0
 11
35.571032
 21
1640.50003
 31
0.0
  0
LINE
  5
37B
  8
DETAIL
  6
CONTINUOUS
 62
     5
 10
20.825481
 20
1640.50003
 30
0.0
 11
24.238938
 21
1640.50003
 31
0.0
  0
LINE
  5
37C
  8
DETAIL
  6
CONTINUOUS
 62
     5
 10
9.66863
 20
1640.50003
 30
0.0
 11
12.877314
 21
1640.50003
 31
0.0
  0
LINE
  5
37D
  8
DETAIL
  6
CONTINUOUS
 62
     5
 10
-1.5
 20
1640.50003
 30
0.0
 11
1.5
 21
1640.50003
 31
0.0
  0
LINE
  5
37E
  8
DETAIL
  6
CONTINUOUS
 62
     5
 10
-12.877314
 20
1640.50003
 30
0.0
 11
-9.66863
 21
1640.50003
 31
0.0
  0
LINE
  5
37F
  8
DETAIL
  6
CONTINUOUS
 62
     5
 10
-24.238938
 20
1640.50003
 30
0.0
 11
-20.825481
 21
1640.50003
 31
0.0
  0
LINE
  5
380
  8
DETAIL
  6
CONTINUOUS
 62
     5
 10
-35.571032
 20
1640.50003
 30
0.0
 11
-31.956959
 21
1640.50003
 31
0.0
  0
LINE
  5
381
  8
DETAIL
  6
CONTINUOUS
 62
     5
 10
-46.859787
 20
1640.50003
 30
0.0
 11
-43.049502
 21
1640.50003
 31
0.0
  0
LINE
  5
382
  8
DETAIL
  6
CONTINUOUS
 62
     5
 10
-58.091451
 20
1640.50003
 30
0.0
 11
-54.089596
 21
1640.50003
 31
0.0
  0
LINE
  5
383
  8
DETAIL
  6
CONTINUOUS
 62
     5
 10
-69.252339
 20
1640.50003
 30
0.0
 11
-65.06379
 21
1640.50003
 31
0.0
  0
LINE
  5
384
  8
DETAIL
  6
CONTINUOUS
 62
     5
 10
-80.328855
 20
1640.50003
 30
0.0
 11
-75.958714
 21
1640.50003
 31
0.0
  0
LINE
  5
385
  8
DETAIL
  6
CONTINUOUS
 62
     5
 10
-91.307502
 20
1640.50003
 30
0.0
 11
-86.761094
 21
1640.50003
 31
0.0
  0
LINE
  5
386
  8
DETAIL
  6
CONTINUOUS
 62
     5
 10
-102.174904
 20
1640.50003
 30
0.0
 11
-97.457769
 21
1640.50003
 31
0.0
  0
LINE
  5
387
  8
DETAIL
  6
CONTINUOUS
 62
     5
 10
-112.917823
 20
1640.50003
 30
0.0
 11
-108.035707
 21
1640.50003
 31
0.0
  0
LINE
  5
388
  8
DETAIL
  6
CONTINUOUS
 62
     5
 10
-123.523168
 20
1640.50003
 30
0.0
 11
-118.482019
 21
1640.50003
 31
0.0
  0
LINE
  5
389
  8
DETAIL
  6
CONTINUOUS
 62
     5
 10
-133.978019
 20
1640.50003
 30
0.0
 11
-128.78398
 21
1640.50003
 31
0.0
  0
LINE
  5
38A
  8
DETAIL
  6
CONTINUOUS
 62
     5
 10
-144.269639
 20
1640.50003
 30
0.0
 11
-138.929037
 21
1640.50003
 31
0.0
  0
LINE
  5
38B
  8
DETAIL
  6
CONTINUOUS
 62
     5
 10
-154.385489
 20
1640.50003
 30
0.0
 11
-148.904831
 21
1640.50003
 31
0.0
  0
LINE
  5
38C
  8
DETAIL
  6
CONTINUOUS
 62
     5
 10
-164.313243
 20
1640.50003
 30
0.0
 11
-158.699207
 21
1640.50003
 31
0.0
  0
LINE
  5
38D
  8
DETAIL
  6
CONTINUOUS
 62
     5
 10
-174.040807
 20
1640.50003
 30
0.0
 11
-168.300233
 21
1640.50003
 31
0.0
  0
LINE
  5
38E
  8
DETAIL
  6
CONTINUOUS
 62
     5
 10
-183.55633
 20
1640.50003
 30
0.0
 11
-177.69621
 21
1640.50003
 31
0.0
  0
LINE
  5
38F
  8
DETAIL
  6
CONTINUOUS
 62
     5
 10
-192.848217
 20
1640.50003
 30
0.0
 11
-186.875692
 21
1640.50003
 31
0.0
  0
LINE
  5
390
  8
DETAIL
  6
CONTINUOUS
 62
     5
 10
-201.905148
 20
1640.50003
 30
0.0
 11
-195.827495
 21
1640.50003
 31
0.0
  0
LINE
  5
391
  8
DETAIL
  6
CONTINUOUS
 62
     5
 10
-210.716089
 20
1640.50003
 30
0.0
 11
-204.540712
 21
1640.50003
 31
0.0
  0
LINE
  5
392
  8
DETAIL
  6
CONTINUOUS
 62
     5
 10
-219.270305
 20
1640.50003
 30
0.0
 11
-213.004728
 21
1640.50003
 31
0.0
  0
LINE
  5
393
  8
DETAIL
  6
CONTINUOUS
 62
     5
 10
-227.557374
 20
1640.50003
 30
0.0
 11
-221.209231
 21
1640.50003
 31
0.0
  0
LINE
  5
394
  8
DETAIL
  6
CONTINUOUS
 62
     5
 10
-235.567199
 20
1640.50003
 30
0.0
 11
-229.144224
 21
1640.50003
 31
0.0
  0
LINE
  5
395
  8
DETAIL
  6
CONTINUOUS
 62
     5
 10
-243.290022
 20
1640.50003
 30
0.0
 11
-236.80004
 21
1640.50003
 31
0.0
  0
LINE
  5
396
  8
DETAIL
  6
CONTINUOUS
 62
     5
 10
-250.716433
 20
1640.50003
 30
0.0
 11
-244.167352
 21
1640.50003
 31
0.0
  0
LINE
  5
397
  8
DETAIL
  6
CONTINUOUS
 62
     5
 10
-257.837386
 20
1640.50003
 30
0.0
 11
-251.237183
 21
1640.50003
 31
0.0
  0
LINE
  5
398
  8
DETAIL
  6
CONTINUOUS
 62
     5
 10
-305.853461
 20
1640.50003
 30
0.0
 11
-258.000921
 21
1640.50003
 31
0.0
  0
LINE
  5
399
  8
DETAIL
  6
CONTINUOUS
 62
     5
 10
-325.338856
 20
1640.50003
 30
0.0
 11
-325.777453
 21
1640.50003
 31
0.0
  0
LINE
  5
39A
  8
DETAIL
  6
CONTINUOUS
 62
     5
 10
-324.399185
 20
1640.50003
 30
0.0
 11
-325.129587
 21
1640.50003
 31
0.0
  0
LINE
  5
39B
  8
DETAIL
  6
CONTINUOUS
 62
     5
 10
-323.064284
 20
1640.50003
 30
0.0
 11
-324.0856
 21
1640.50003
 31
0.0
  0
LINE
  5
39C
  8
DETAIL
  6
CONTINUOUS
 62
     5
 10
-321.335778
 20
1640.50003
 30
0.0
 11
-322.646765
 21
1640.50003
 31
0.0
  0
LINE
  5
39D
  8
DETAIL
  6
CONTINUOUS
 62
     5
 10
-319.215775
 20
1640.50003
 30
0.0
 11
-320.814834
 21
1640.50003
 31
0.0
  0
LINE
  5
39E
  8
DETAIL
  6
CONTINUOUS
 62
     5
 10
-316.706856
 20
1640.50003
 30
0.0
 11
-318.59204
 21
1640.50003
 31
0.0
  0
LINE
  5
39F
  8
DETAIL
  6
CONTINUOUS
 62
     5
 10
-313.812079
 20
1640.50003
 30
0.0
 11
-315.98109
 21
1640.50003
 31
0.0
  0
LINE
  5
3A0
  8
DETAIL
  6
CONTINUOUS
 62
     5
 10
-310.53497
 20
1640.50003
 30
0.0
 11
-312.985167
 21
1640.50003
 31
0.0
  0
LINE
  5
3A1
  8
DETAIL
  6
CONTINUOUS
 62
     5
 10
-306.879522
 20
1640.50003
 30
0.0
 11
-309.607919
 21
1640.50003
 31
0.0
  0
LINE
  5
3EF
  8
DETAIL
  6
CONTINUOUS
 62
     5
 10
-134.795516
 20
1640.295965
 30
0.0
 11
-135.579649
 21
1639.692097
 31
0.0
  0
LINE
  5
3F0
  8
DETAIL
  6
CONTINUOUS
 62
     5
 10
-133.978019
 20
1640.50003
 30
0.0
 11
-134.795516
 21
1640.295965
 31
0.0
  0
LINE
  5
3F4
  8
DETAIL
  6
CONTINUOUS
 62
     5
 10
-132.05488
 20
1640.295965
 30
0.0
 11
-132.839012
 21
1639.692097
 31
0.0
  0
LINE
  5
3F5
  8
DETAIL
  6
CONTINUOUS
 62
     5
 10
-131.237383
 20
1640.50003
 30
0.0
 11
-132.05488
 21
1640.295965
 31
0.0
  0
LINE
  5
3F9
  8
DETAIL
  6
CONTINUOUS
 62
     5
 10
-124.276087
 20
1640.295965
 30
0.0
 11
-124.998277
 21
1639.692097
 31
0.0
  0
LINE
  5
3FA
  8
DETAIL
  6
CONTINUOUS
 62
     5
 10
-123.523168
 20
1640.50003
 30
0.0
 11
-124.276087
 21
1640.295965
 31
0.0
  0
LINE
  5
3FE
  8
DETAIL
  6
CONTINUOUS
 62
     5
 10
-121.494535
 20
1640.295965
 30
0.0
 11
-122.216725
 21
1639.692097
 31
0.0
  0
LINE
  5
3FF
  8
DETAIL
  6
CONTINUOUS
 62
     5
 10
-120.741616
 20
1640.50003
 30
0.0
 11
-121.494535
 21
1640.295965
 31
0.0
  0
LINE
  5
403
  8
DETAIL
  6
CONTINUOUS
 62
     5
 10
58.440465
 20
1640.295965
 30
0.0
 11
58.775235
 21
1639.692097
 31
0.0
  0
LINE
  5
404
  8
DETAIL
  6
CONTINUOUS
 62
     5
 10
58.091451
 20
1640.50003
 30
0.0
 11
58.440465
 21
1640.295965
 31
0.0
  0
LINE
  5
408
  8
DETAIL
  6
CONTINUOUS
 62
     5
 10
55.486042
 20
1640.295965
 30
0.0
 11
55.820812
 21
1639.692097
 31
0.0
  0
LINE
  5
409
  8
DETAIL
  6
CONTINUOUS
 62
     5
 10
55.137028
 20
1640.50003
 30
0.0
 11
55.486042
 21
1640.295965
 31
0.0
  0
LINE
  5
40D
  8
DETAIL
  6
CONTINUOUS
 62
     5
 10
69.67022
 20
1640.295965
 30
0.0
 11
70.071045
 21
1639.692097
 31
0.0
  0
LINE
  5
40E
  8
DETAIL
  6
CONTINUOUS
 62
     5
 10
69.252339
 20
1640.50003
 30
0.0
 11
69.67022
 21
1640.295965
 31
0.0
  0
LINE
  5
412
  8
DETAIL
  6
CONTINUOUS
 62
     5
 10
66.735777
 20
1640.295965
 30
0.0
 11
67.136602
 21
1639.692097
 31
0.0
  0
LINE
  5
413
  8
DETAIL
  6
CONTINUOUS
 62
     5
 10
66.317897
 20
1640.50003
 30
0.0
 11
66.735777
 21
1640.295965
 31
0.0
  0
LINE
  5
474
  8
DETAIL
  6
CONTINUOUS
 62
     5
 10
360.727746
 20
1550.000029
 30
0.0
 11
360.968586
 21
1550.000029
 31
0.0
  0
LINE
  5
475
  8
DETAIL
  6
CONTINUOUS
 62
     5
 10
-360.704717
 20
1550.000029
 30
0.0
 11
329.151107
 21
1550.000029
 31
0.0
  0
LINE
  5
476
  8
DETAIL
  6
CONTINUOUS
 62
     5
 10
-360.727746
 20
1550.000029
 30
0.0
 11
-360.968586
 21
1550.000029
 31
0.0
  0
LINE
  5
477
  8
DETAIL
  6
CONTINUOUS
 62
     5
 10
349.891522
 20
1550.000029
 30
0.0
 11
329.179811
 21
1550.000029
 31
0.0
  0
LINE
  5
478
  8
DETAIL
  6
CONTINUOUS
 62
     5
 10
352.768689
 20
1550.000029
 30
0.0
 11
349.913881
 21
1550.000029
 31
0.0
  0
LINE
  5
479
  8
DETAIL
  6
CONTINUOUS
 62
     5
 10
359.956234
 20
1550.000029
 30
0.0
 11
352.799423
 21
1550.000029
 31
0.0
  0
LINE
  5
47A
  8
DETAIL
  6
CONTINUOUS
 62
     5
 10
360.704717
 20
1550.000029
 30
0.0
 11
360.015994
 21
1550.000029
 31
0.0
  0
LINE
  5
4AB
  8
DETAIL
  6
CONTINUOUS
 62
     5
 10
338.970088
 20
1561.32024
 30
0.0
 11
339.742073
 21
1550.000029
 31
0.0
  0
LINE
  5
4BB
  8
DETAIL
  6
CONTINUOUS
 62
     5
 10
343.013614
 20
1561.32024
 30
0.0
 11
343.794934
 21
1550.000029
 31
0.0
  0
LINE
  5
4BC
  8
DETAIL
  6
CONTINUOUS
 62
     5
 10
341.536042
 20
1572.563388
 30
0.0
 11
343.013614
 21
1561.32024
 31
0.0
  0
LINE
  5
4BD
  8
DETAIL
  6
CONTINUOUS
 62
     5
 10
339.368436
 20
1583.68218
 30
0.0
 11
341.536042
 21
1572.563388
 31
0.0
  0
LINE
  5
4C3
  8
DETAIL
  6
CONTINUOUS
 62
     5
 10
342.086563
 20
1561.32024
 30
0.0
 11
342.867883
 21
1550.000029
 31
0.0
  0
LINE
  5
4C4
  8
DETAIL
  6
CONTINUOUS
 62
     5
 10
340.608991
 20
1572.563388
 30
0.0
 11
342.086563
 21
1561.32024
 31
0.0
  0
LINE
  5
4CB
  8
DETAIL
  6
CONTINUOUS
 62
     5
 10
346.63923
 20
1561.32024
 30
0.0
 11
347.428935
 21
1550.000029
 31
0.0
  0
LINE
  5
4CC
  8
DETAIL
  6
CONTINUOUS
 62
     5
 10
345.145804
 20
1572.563388
 30
0.0
 11
346.63923
 21
1561.32024
 31
0.0
  0
LINE
  5
4CD
  8
DETAIL
  6
CONTINUOUS
 62
     5
 10
342.954938
 20
1583.68218
 30
0.0
 11
345.145804
 21
1572.563388
 31
0.0
  0
LINE
  5
4CE
  8
DETAIL
  6
CONTINUOUS
 62
     5
 10
340.075848
 20
1594.629844
 30
0.0
 11
342.954938
 21
1583.68218
 31
0.0
  0
LINE
  5
4CF
  8
DETAIL
  6
CONTINUOUS
 62
     5
 10
336.520645
 20
1605.360332
 30
0.0
 11
340.075848
 21
1594.629844
 31
0.0
  0
LINE
  5
4D3
  8
DETAIL
  6
CONTINUOUS
 62
     5
 10
345.812318
 20
1561.32024
 30
0.0
 11
346.602023
 21
1550.000029
 31
0.0
  0
LINE
  5
4D4
  8
DETAIL
  6
CONTINUOUS
 62
     5
 10
344.318892
 20
1572.563388
 30
0.0
 11
345.812318
 21
1561.32024
 31
0.0
  0
LINE
  5
4D5
  8
DETAIL
  6
CONTINUOUS
 62
     5
 10
342.128026
 20
1583.68218
 30
0.0
 11
344.318892
 21
1572.563388
 31
0.0
  0
LINE
  5
4D6
  8
DETAIL
  6
CONTINUOUS
 62
     5
 10
339.248936
 20
1594.629844
 30
0.0
 11
342.128026
 21
1583.68218
 31
0.0
  0
LINE
  5
4DB
  8
DETAIL
  6
CONTINUOUS
 62
     5
 10
343.217455
 20
1594.629844
 30
0.0
 11
346.123603
 21
1583.68218
 31
0.0
  0
LINE
  5
4DC
  8
DETAIL
  6
CONTINUOUS
 62
     5
 10
339.62884
 20
1605.360332
 30
0.0
 11
343.217455
 21
1594.629844
 31
0.0
  0
LINE
  5
4DD
  8
DETAIL
  6
CONTINUOUS
 62
     5
 10
335.372852
 20
1615.828505
 30
0.0
 11
339.62884
 21
1605.360332
 31
0.0
  0
LINE
  5
4DE
  8
DETAIL
  6
CONTINUOUS
 62
     5
 10
330.467395
 20
1625.990329
 30
0.0
 11
335.372852
 21
1615.828505
 31
0.0
  0
LINE
  5
4E0
  8
DETAIL
  6
CONTINUOUS
 62
     5
 10
349.116755
 20
1561.32024
 30
0.0
 11
349.913881
 21
1550.000029
 31
0.0
  0
LINE
  5
4E1
  8
DETAIL
  6
CONTINUOUS
 62
     5
 10
347.609293
 20
1572.563388
 30
0.0
 11
349.116755
 21
1561.32024
 31
0.0
  0
LINE
  5
4E2
  8
DETAIL
  6
CONTINUOUS
 62
     5
 10
345.397837
 20
1583.68218
 30
0.0
 11
347.609293
 21
1572.563388
 31
0.0
  0
LINE
  5
4E3
  8
DETAIL
  6
CONTINUOUS
 62
     5
 10
342.49169
 20
1594.629844
 30
0.0
 11
345.397837
 21
1583.68218
 31
0.0
  0
LINE
  5
4E4
  8
DETAIL
  6
CONTINUOUS
 62
     5
 10
338.903074
 20
1605.360332
 30
0.0
 11
342.49169
 21
1594.629844
 31
0.0
  0
LINE
  5
4E5
  8
DETAIL
  6
CONTINUOUS
 62
     5
 10
334.647087
 20
1615.828505
 30
0.0
 11
338.903074
 21
1605.360332
 31
0.0
  0
LINE
  5
4E8
  8
DETAIL
  6
CONTINUOUS
 62
     5
 10
352.619581
 20
1561.32024
 30
0.0
 11
353.423158
 21
1550.000029
 31
0.0
  0
LINE
  5
4E9
  8
DETAIL
  6
CONTINUOUS
 62
     5
 10
351.099921
 20
1572.563388
 30
0.0
 11
352.619581
 21
1561.32024
 31
0.0
  0
LINE
  5
4EA
  8
DETAIL
  6
CONTINUOUS
 62
     5
 10
348.87057
 20
1583.68218
 30
0.0
 11
351.099921
 21
1572.563388
 31
0.0
  0
LINE
  5
4EB
  8
DETAIL
  6
CONTINUOUS
 62
     5
 10
345.940904
 20
1594.629844
 30
0.0
 11
348.87057
 21
1583.68218
 31
0.0
  0
LINE
  5
4EC
  8
DETAIL
  6
CONTINUOUS
 62
     5
 10
342.323249
 20
1605.360332
 30
0.0
 11
345.940904
 21
1594.629844
 31
0.0
  0
LINE
  5
4ED
  8
DETAIL
  6
CONTINUOUS
 62
     5
 10
338.032821
 20
1615.828505
 30
0.0
 11
342.323249
 21
1605.360332
 31
0.0
  0
LINE
  5
4EE
  8
DETAIL
  6
CONTINUOUS
 62
     5
 10
333.087668
 20
1625.990329
 30
0.0
 11
338.032821
 21
1615.828505
 31
0.0
  0
LINE
  5
4EF
  8
DETAIL
  6
CONTINUOUS
 62
     5
 10
327.50859
 20
1635.803061
 30
0.0
 11
333.087668
 21
1625.990329
 31
0.0
  0
LINE
  5
4F0
  8
DETAIL
  6
CONTINUOUS
 62
     5
 10
351.995846
 20
1561.32024
 30
0.0
 11
352.799423
 21
1550.000029
 31
0.0
  0
LINE
  5
4F1
  8
DETAIL
  6
CONTINUOUS
 62
     5
 10
350.476186
 20
1572.563388
 30
0.0
 11
351.995846
 21
1561.32024
 31
0.0
  0
LINE
  5
4F2
  8
DETAIL
  6
CONTINUOUS
 62
     5
 10
348.246834
 20
1583.68218
 30
0.0
 11
350.476186
 21
1572.563388
 31
0.0
  0
LINE
  5
4F3
  8
DETAIL
  6
CONTINUOUS
 62
     5
 10
345.317169
 20
1594.629844
 30
0.0
 11
348.246834
 21
1583.68218
 31
0.0
  0
LINE
  5
4F4
  8
DETAIL
  6
CONTINUOUS
 62
     5
 10
341.699514
 20
1605.360332
 30
0.0
 11
345.317169
 21
1594.629844
 31
0.0
  0
LINE
  5
4F5
  8
DETAIL
  6
CONTINUOUS
 62
     5
 10
337.409086
 20
1615.828505
 30
0.0
 11
341.699514
 21
1605.360332
 31
0.0
  0
LINE
  5
4F6
  8
DETAIL
  6
CONTINUOUS
 62
     5
 10
332.463933
 20
1625.990329
 30
0.0
 11
337.409086
 21
1615.828505
 31
0.0
  0
LINE
  5
4F7
  8
DETAIL
  6
CONTINUOUS
 62
     5
 10
326.884855
 20
1635.803061
 30
0.0
 11
332.463933
 21
1625.990329
 31
0.0
  0
LINE
  5
4F8
  8
DETAIL
  6
CONTINUOUS
 62
     5
 10
354.96703
 20
1561.32024
 30
0.0
 11
355.776078
 21
1550.000029
 31
0.0
  0
LINE
  5
4F9
  8
DETAIL
  6
CONTINUOUS
 62
     5
 10
353.437022
 20
1572.563388
 30
0.0
 11
354.96703
 21
1561.32024
 31
0.0
  0
LINE
  5
4FA
  8
DETAIL
  6
CONTINUOUS
 62
     5
 10
351.192491
 20
1583.68218
 30
0.0
 11
353.437022
 21
1572.563388
 31
0.0
  0
LINE
  5
4FB
  8
DETAIL
  6
CONTINUOUS
 62
     5
 10
348.242878
 20
1594.629844
 30
0.0
 11
351.192491
 21
1583.68218
 31
0.0
  0
LINE
  5
4FC
  8
DETAIL
  6
CONTINUOUS
 62
     5
 10
344.60059
 20
1605.360332
 30
0.0
 11
348.242878
 21
1594.629844
 31
0.0
  0
LINE
  5
4FD
  8
DETAIL
  6
CONTINUOUS
 62
     5
 10
340.280949
 20
1615.828505
 30
0.0
 11
344.60059
 21
1605.360332
 31
0.0
  0
LINE
  5
4FE
  8
DETAIL
  6
CONTINUOUS
 62
     5
 10
335.302124
 20
1625.990329
 30
0.0
 11
340.280949
 21
1615.828505
 31
0.0
  0
LINE
  5
4FF
  8
DETAIL
  6
CONTINUOUS
 62
     5
 10
329.685059
 20
1635.803061
 30
0.0
 11
335.302124
 21
1625.990329
 31
0.0
  0
LINE
  5
500
  8
DETAIL
  6
CONTINUOUS
 62
     5
 10
354.446085
 20
1561.32024
 30
0.0
 11
355.255133
 21
1550.000029
 31
0.0
  0
LINE
  5
501
  8
DETAIL
  6
CONTINUOUS
 62
     5
 10
352.916077
 20
1572.563388
 30
0.0
 11
354.446085
 21
1561.32024
 31
0.0
  0
LINE
  5
502
  8
DETAIL
  6
CONTINUOUS
 62
     5
 10
350.671546
 20
1583.68218
 30
0.0
 11
352.916077
 21
1572.563388
 31
0.0
  0
LINE
  5
503
  8
DETAIL
  6
CONTINUOUS
 62
     5
 10
347.721933
 20
1594.629844
 30
0.0
 11
350.671546
 21
1583.68218
 31
0.0
  0
LINE
  5
504
  8
DETAIL
  6
CONTINUOUS
 62
     5
 10
344.079646
 20
1605.360332
 30
0.0
 11
347.721933
 21
1594.629844
 31
0.0
  0
LINE
  5
505
  8
DETAIL
  6
CONTINUOUS
 62
     5
 10
339.760004
 20
1615.828505
 30
0.0
 11
344.079646
 21
1605.360332
 31
0.0
  0
LINE
  5
506
  8
DETAIL
  6
CONTINUOUS
 62
     5
 10
334.78118
 20
1625.990329
 30
0.0
 11
339.760004
 21
1615.828505
 31
0.0
  0
LINE
  5
507
  8
DETAIL
  6
CONTINUOUS
 62
     5
 10
329.164115
 20
1635.803061
 30
0.0
 11
334.78118
 21
1625.990329
 31
0.0
  0
LINE
  5
508
  8
DETAIL
  6
CONTINUOUS
 62
     5
 10
356.882005
 20
1561.32024
 30
0.0
 11
357.695539
 21
1550.000029
 31
0.0
  0
LINE
  5
509
  8
DETAIL
  6
CONTINUOUS
 62
     5
 10
355.343514
 20
1572.563388
 30
0.0
 11
356.882005
 21
1561.32024
 31
0.0
  0
LINE
  5
50A
  8
DETAIL
  6
CONTINUOUS
 62
     5
 10
353.086538
 20
1583.68218
 30
0.0
 11
355.343514
 21
1572.563388
 31
0.0
  0
LINE
  5
50B
  8
DETAIL
  6
CONTINUOUS
 62
     5
 10
350.120571
 20
1594.629844
 30
0.0
 11
353.086538
 21
1583.68218
 31
0.0
  0
LINE
  5
50C
  8
DETAIL
  6
CONTINUOUS
 62
     5
 10
346.458089
 20
1605.360332
 30
0.0
 11
350.120571
 21
1594.629844
 31
0.0
  0
LINE
  5
50D
  8
DETAIL
  6
CONTINUOUS
 62
     5
 10
342.114497
 20
1615.828505
 30
0.0
 11
346.458089
 21
1605.360332
 31
0.0
  0
LINE
  5
50E
  8
DETAIL
  6
CONTINUOUS
 62
     5
 10
337.108067
 20
1625.990329
 30
0.0
 11
342.114497
 21
1615.828505
 31
0.0
  0
LINE
  5
50F
  8
DETAIL
  6
CONTINUOUS
 62
     5
 10
331.459858
 20
1635.803061
 30
0.0
 11
337.108067
 21
1625.990329
 31
0.0
  0
LINE
  5
510
  8
DETAIL
  6
CONTINUOUS
 62
     5
 10
356.464486
 20
1561.32024
 30
0.0
 11
357.27802
 21
1550.000029
 31
0.0
  0
LINE
  5
511
  8
DETAIL
  6
CONTINUOUS
 62
     5
 10
354.925995
 20
1572.563388
 30
0.0
 11
356.464486
 21
1561.32024
 31
0.0
  0
LINE
  5
512
  8
DETAIL
  6
CONTINUOUS
 62
     5
 10
352.669019
 20
1583.68218
 30
0.0
 11
354.925995
 21
1572.563388
 31
0.0
  0
LINE
  5
513
  8
DETAIL
  6
CONTINUOUS
 62
     5
 10
349.703052
 20
1594.629844
 30
0.0
 11
352.669019
 21
1583.68218
 31
0.0
  0
LINE
  5
514
  8
DETAIL
  6
CONTINUOUS
 62
     5
 10
346.040569
 20
1605.360332
 30
0.0
 11
349.703052
 21
1594.629844
 31
0.0
  0
LINE
  5
515
  8
DETAIL
  6
CONTINUOUS
 62
     5
 10
341.696977
 20
1615.828505
 30
0.0
 11
346.040569
 21
1605.360332
 31
0.0
  0
LINE
  5
516
  8
DETAIL
  6
CONTINUOUS
 62
     5
 10
336.690547
 20
1625.990329
 30
0.0
 11
341.696977
 21
1615.828505
 31
0.0
  0
LINE
  5
517
  8
DETAIL
  6
CONTINUOUS
 62
     5
 10
331.042338
 20
1635.803061
 30
0.0
 11
336.690547
 21
1625.990329
 31
0.0
  0
LINE
  5
518
  8
DETAIL
  6
CONTINUOUS
 62
     5
 10
358.362175
 20
1561.32024
 30
0.0
 11
359.179204
 21
1550.000029
 31
0.0
  0
LINE
  5
519
  8
DETAIL
  6
CONTINUOUS
 62
     5
 10
356.817075
 20
1572.563388
 30
0.0
 11
358.362175
 21
1561.32024
 31
0.0
  0
LINE
  5
51A
  8
DETAIL
  6
CONTINUOUS
 62
     5
 10
354.550404
 20
1583.68218
 30
0.0
 11
356.817075
 21
1572.563388
 31
0.0
  0
LINE
  5
51B
  8
DETAIL
  6
CONTINUOUS
 62
     5
 10
351.571696
 20
1594.629844
 30
0.0
 11
354.550404
 21
1583.68218
 31
0.0
  0
LINE
  5
51C
  8
DETAIL
  6
CONTINUOUS
 62
     5
 10
347.893481
 20
1605.360332
 30
0.0
 11
351.571696
 21
1594.629844
 31
0.0
  0
LINE
  5
51D
  8
DETAIL
  6
CONTINUOUS
 62
     5
 10
343.531231
 20
1615.828505
 30
0.0
 11
347.893481
 21
1605.360332
 31
0.0
  0
LINE
  5
51E
  8
DETAIL
  6
CONTINUOUS
 62
     5
 10
338.503295
 20
1625.990329
 30
0.0
 11
343.531231
 21
1615.828505
 31
0.0
  0
LINE
  5
51F
  8
DETAIL
  6
CONTINUOUS
 62
     5
 10
332.830823
 20
1635.803061
 30
0.0
 11
338.503295
 21
1625.990329
 31
0.0
  0
LINE
  5
520
  8
DETAIL
  6
CONTINUOUS
 62
     5
 10
358.04859
 20
1561.32024
 30
0.0
 11
358.865618
 21
1550.000029
 31
0.0
  0
LINE
  5
521
  8
DETAIL
  6
CONTINUOUS
 62
     5
 10
356.50349
 20
1572.563388
 30
0.0
 11
358.04859
 21
1561.32024
 31
0.0
  0
LINE
  5
522
  8
DETAIL
  6
CONTINUOUS
 62
     5
 10
354.236819
 20
1583.68218
 30
0.0
 11
356.50349
 21
1572.563388
 31
0.0
  0
LINE
  5
523
  8
DETAIL
  6
CONTINUOUS
 62
     5
 10
351.258111
 20
1594.629844
 30
0.0
 11
354.236819
 21
1583.68218
 31
0.0
  0
LINE
  5
524
  8
DETAIL
  6
CONTINUOUS
 62
     5
 10
347.579896
 20
1605.360332
 30
0.0
 11
351.258111
 21
1594.629844
 31
0.0
  0
LINE
  5
525
  8
DETAIL
  6
CONTINUOUS
 62
     5
 10
343.217645
 20
1615.828505
 30
0.0
 11
347.579896
 21
1605.360332
 31
0.0
  0
LINE
  5
526
  8
DETAIL
  6
CONTINUOUS
 62
     5
 10
338.18971
 20
1625.990329
 30
0.0
 11
343.217645
 21
1615.828505
 31
0.0
  0
LINE
  5
527
  8
DETAIL
  6
CONTINUOUS
 62
     5
 10
332.517238
 20
1635.803061
 30
0.0
 11
338.18971
 21
1625.990329
 31
0.0
  0
LINE
  5
528
  8
DETAIL
  6
CONTINUOUS
 62
     5
 10
359.405736
 20
1561.32024
 30
0.0
 11
360.225264
 21
1550.000029
 31
0.0
  0
LINE
  5
529
  8
DETAIL
  6
CONTINUOUS
 62
     5
 10
357.85591
 20
1572.563388
 30
0.0
 11
359.405736
 21
1561.32024
 31
0.0
  0
LINE
  5
52A
  8
DETAIL
  6
CONTINUOUS
 62
     5
 10
355.582305
 20
1583.68218
 30
0.0
 11
357.85591
 21
1572.563388
 31
0.0
  0
LINE
  5
52B
  8
DETAIL
  6
CONTINUOUS
 62
     5
 10
352.594486
 20
1594.629844
 30
0.0
 11
355.582305
 21
1583.68218
 31
0.0
  0
LINE
  5
52C
  8
DETAIL
  6
CONTINUOUS
 62
     5
 10
348.905019
 20
1605.360332
 30
0.0
 11
352.594486
 21
1594.629844
 31
0.0
  0
LINE
  5
52D
  8
DETAIL
  6
CONTINUOUS
 62
     5
 10
344.529425
 20
1615.828505
 30
0.0
 11
348.905019
 21
1605.360332
 31
0.0
  0
LINE
  5
52E
  8
DETAIL
  6
CONTINUOUS
 62
     5
 10
339.486109
 20
1625.990329
 30
0.0
 11
344.529425
 21
1615.828505
 31
0.0
  0
LINE
  5
52F
  8
DETAIL
  6
CONTINUOUS
 62
     5
 10
333.796286
 20
1635.803061
 30
0.0
 11
339.486109
 21
1625.990329
 31
0.0
  0
LINE
  5
530
  8
DETAIL
  6
CONTINUOUS
 62
     5
 10
359.196466
 20
1561.32024
 30
0.0
 11
360.015994
 21
1550.000029
 31
0.0
  0
LINE
  5
531
  8
DETAIL
  6
CONTINUOUS
 62
     5
 10
357.64664
 20
1572.563388
 30
0.0
 11
359.196466
 21
1561.32024
 31
0.0
  0
LINE
  5
532
  8
DETAIL
  6
CONTINUOUS
 62
     5
 10
355.373036
 20
1583.68218
 30
0.0
 11
357.64664
 21
1572.563388
 31
0.0
  0
LINE
  5
533
  8
DETAIL
  6
CONTINUOUS
 62
     5
 10
352.385216
 20
1594.629844
 30
0.0
 11
355.373036
 21
1583.68218
 31
0.0
  0
LINE
  5
534
  8
DETAIL
  6
CONTINUOUS
 62
     5
 10
348.69575
 20
1605.360332
 30
0.0
 11
352.385216
 21
1594.629844
 31
0.0
  0
LINE
  5
535
  8
DETAIL
  6
CONTINUOUS
 62
     5
 10
344.320156
 20
1615.828505
 30
0.0
 11
348.69575
 21
1605.360332
 31
0.0
  0
LINE
  5
536
  8
DETAIL
  6
CONTINUOUS
 62
     5
 10
339.27684
 20
1625.990329
 30
0.0
 11
344.320156
 21
1615.828505
 31
0.0
  0
LINE
  5
537
  8
DETAIL
  6
CONTINUOUS
 62
     5
 10
333.587016
 20
1635.803061
 30
0.0
 11
339.27684
 21
1625.990329
 31
0.0
  0
LINE
  5
538
  8
DETAIL
  6
CONTINUOUS
 62
     5
 10
360.011416
 20
1561.32024
 30
0.0
 11
360.832444
 21
1550.000029
 31
0.0
  0
LINE
  5
539
  8
DETAIL
  6
CONTINUOUS
 62
     5
 10
358.458752
 20
1572.563388
 30
0.0
 11
360.011416
 21
1561.32024
 31
0.0
  0
LINE
  5
53A
  8
DETAIL
  6
CONTINUOUS
 62
     5
 10
356.180984
 20
1583.68218
 30
0.0
 11
358.458752
 21
1572.563388
 31
0.0
  0
LINE
  5
53B
  8
DETAIL
  6
CONTINUOUS
 62
     5
 10
353.187693
 20
1594.629844
 30
0.0
 11
356.180984
 21
1583.68218
 31
0.0
  0
LINE
  5
53C
  8
DETAIL
  6
CONTINUOUS
 62
     5
 10
349.49147
 20
1605.360332
 30
0.0
 11
353.187693
 21
1594.629844
 31
0.0
  0
LINE
  5
53D
  8
DETAIL
  6
CONTINUOUS
 62
     5
 10
345.107863
 20
1615.828505
 30
0.0
 11
349.49147
 21
1605.360332
 31
0.0
  0
LINE
  5
53E
  8
DETAIL
  6
CONTINUOUS
 62
     5
 10
340.055312
 20
1625.990329
 30
0.0
 11
345.107863
 21
1615.828505
 31
0.0
  0
LINE
  5
53F
  8
DETAIL
  6
CONTINUOUS
 62
     5
 10
334.355069
 20
1635.803061
 30
0.0
 11
340.055312
 21
1625.990329
 31
0.0
  0
LINE
  5
540
  8
DETAIL
  6
CONTINUOUS
 62
     5
 10
359.906717
 20
1561.32024
 30
0.0
 11
360.727746
 21
1550.000029
 31
0.0
  0
LINE
  5
541
  8
DETAIL
  6
CONTINUOUS
 62
     5
 10
358.354053
 20
1572.563388
 30
0.0
 11
359.906717
 21
1561.32024
 31
0.0
  0
LINE
  5
542
  8
DETAIL
  6
CONTINUOUS
 62
     5
 10
356.076285
 20
1583.68218
 30
0.0
 11
358.354053
 21
1572.563388
 31
0.0
  0
LINE
  5
543
  8
DETAIL
  6
CONTINUOUS
 62
     5
 10
353.082994
 20
1594.629844
 30
0.0
 11
356.076285
 21
1583.68218
 31
0.0
  0
LINE
  5
544
  8
DETAIL
  6
CONTINUOUS
 62
     5
 10
349.386771
 20
1605.360332
 30
0.0
 11
353.082994
 21
1594.629844
 31
0.0
  0
LINE
  5
545
  8
DETAIL
  6
CONTINUOUS
 62
     5
 10
345.003165
 20
1615.828505
 30
0.0
 11
349.386771
 21
1605.360332
 31
0.0
  0
LINE
  5
546
  8
DETAIL
  6
CONTINUOUS
 62
     5
 10
339.950613
 20
1625.990329
 30
0.0
 11
345.003165
 21
1615.828505
 31
0.0
  0
LINE
  5
547
  8
DETAIL
  6
CONTINUOUS
 62
     5
 10
334.250371
 20
1635.803061
 30
0.0
 11
339.950613
 21
1625.990329
 31
0.0
  0
LINE
  5
54B
  8
DETAIL
  6
CONTINUOUS
 62
     5
 10
47.13951
 20
1640.295965
 30
0.0
 11
47.407817
 21
1639.692097
 31
0.0
  0
LINE
  5
54C
  8
DETAIL
  6
CONTINUOUS
 62
     5
 10
46.859787
 20
1640.50003
 30
0.0
 11
47.13951
 21
1640.295965
 31
0.0
  0
LINE
  5
550
  8
DETAIL
  6
CONTINUOUS
 62
     5
 10
44.168706
 20
1640.295965
 30
0.0
 11
44.437012
 21
1639.692097
 31
0.0
  0
LINE
  5
551
  8
DETAIL
  6
CONTINUOUS
 62
     5
 10
43.888983
 20
1640.50003
 30
0.0
 11
44.168706
 21
1640.295965
 31
0.0
  0
LINE
  5
5B5
  8
DETAIL
  6
CONTINUOUS
 62
     5
 10
35.781123
 20
1640.295965
 30
0.0
 11
35.982639
 21
1639.692097
 31
0.0
  0
LINE
  5
5B6
  8
DETAIL
  6
CONTINUOUS
 62
     5
 10
35.571032
 20
1640.50003
 30
0.0
 11
35.781123
 21
1640.295965
 31
0.0
  0
LINE
  5
5BA
  8
DETAIL
  6
CONTINUOUS
 62
     5
 10
32.797557
 20
1640.295965
 30
0.0
 11
32.999073
 21
1639.692097
 31
0.0
  0
LINE
  5
5BB
  8
DETAIL
  6
CONTINUOUS
 62
     5
 10
32.587466
 20
1640.50003
 30
0.0
 11
32.797557
 21
1640.295965
 31
0.0
  0
LINE
  5
5BC
  8
DETAIL
  6
CONTINUOUS
 62
     5
 10
365.977444
 20
1437.042362
 30
0.0
 11
365.859844
 21
1438.691445
 31
0.0
  0
LINE
  5
5BD
  8
DETAIL
  6
CONTINUOUS
 62
     5
 10
366.27575
 20
1434.855148
 30
0.0
 11
365.977444
 21
1437.042362
 31
0.0
  0
LINE
  5
5BE
  8
DETAIL
  6
CONTINUOUS
 62
     5
 10
366.734089
 20
1432.695757
 30
0.0
 11
366.27575
 21
1434.855148
 31
0.0
  0
LINE
  5
5BF
  8
DETAIL
  6
CONTINUOUS
 62
     5
 10
367.349987
 20
1430.575885
 30
0.0
 11
366.734089
 21
1432.695757
 31
0.0
  0
LINE
  5
5C0
  8
DETAIL
  6
CONTINUOUS
 62
     5
 10
368.120111
 20
1428.507019
 30
0.0
 11
367.349987
 21
1430.575885
 31
0.0
  0
LINE
  5
5C1
  8
DETAIL
  6
CONTINUOUS
 62
     5
 10
369.040292
 20
1426.500372
 30
0.0
 11
368.120111
 21
1428.507019
 31
0.0
  0
LINE
  5
5C2
  8
DETAIL
  6
CONTINUOUS
 62
     5
 10
370.105548
 20
1424.566815
 30
0.0
 11
369.040292
 21
1426.500372
 31
0.0
  0
LINE
  5
5C3
  8
DETAIL
  6
CONTINUOUS
 62
     5
 10
371.310112
 20
1422.716821
 30
0.0
 11
370.105548
 21
1424.566815
 31
0.0
  0
LINE
  5
5C4
  8
DETAIL
  6
CONTINUOUS
 62
     5
 10
372.647458
 20
1420.960411
 30
0.0
 11
371.310112
 21
1422.716821
 31
0.0
  0
LINE
  5
5C5
  8
DETAIL
  6
CONTINUOUS
 62
     5
 10
374.110347
 20
1419.307097
 30
0.0
 11
372.647458
 21
1420.960411
 31
0.0
  0
LINE
  5
5C6
  8
DETAIL
  6
CONTINUOUS
 62
     5
 10
375.690857
 20
1417.765832
 30
0.0
 11
374.110347
 21
1419.307097
 31
0.0
  0
LINE
  5
5C7
  8
DETAIL
  6
CONTINUOUS
 62
     5
 10
377.380429
 20
1416.344964
 30
0.0
 11
375.690857
 21
1417.765832
 31
0.0
  0
LINE
  5
5C8
  8
DETAIL
  6
CONTINUOUS
 62
     5
 10
379.169914
 20
1415.052186
 30
0.0
 11
377.380429
 21
1416.344964
 31
0.0
  0
LINE
  5
5C9
  8
DETAIL
  6
CONTINUOUS
 62
     5
 10
381.049622
 20
1413.8945
 30
0.0
 11
379.169914
 21
1415.052186
 31
0.0
  0
LINE
  5
5CA
  8
DETAIL
  6
CONTINUOUS
 62
     5
 10
383.009375
 20
1412.878174
 30
0.0
 11
381.049622
 21
1413.8945
 31
0.0
  0
LINE
  5
5CB
  8
DETAIL
  6
CONTINUOUS
 62
     5
 10
385.038561
 20
1412.008713
 30
0.0
 11
383.009375
 21
1412.878174
 31
0.0
  0
LINE
  5
5CC
  8
DETAIL
  6
CONTINUOUS
 62
     5
 10
387.12619
 20
1411.290824
 30
0.0
 11
385.038561
 21
1412.008713
 31
0.0
  0
LINE
  5
5CD
  8
DETAIL
  6
CONTINUOUS
 62
     5
 10
389.260958
 20
1410.728397
 30
0.0
 11
387.12619
 21
1411.290824
 31
0.0
  0
LINE
  5
5CE
  8
DETAIL
  6
CONTINUOUS
 62
     5
 10
391.431299
 20
1410.324475
 30
0.0
 11
389.260958
 21
1410.728397
 31
0.0
  0
LINE
  5
5CF
  8
DETAIL
  6
CONTINUOUS
 62
     5
 10
393.625465
 20
1410.081246
 30
0.0
 11
391.431299
 21
1410.324475
 31
0.0
  0
LINE
  5
5D0
  8
DETAIL
  6
CONTINUOUS
 62
     5
 10
395.831525
 20
1410.000026
 30
0.0
 11
393.625465
 21
1410.081246
 31
0.0
  0
LINE
  5
5D1
  8
DETAIL
  6
CONTINUOUS
 62
     5
 10
-460.000009
 20
1410.000026
 30
0.0
 11
460.000009
 21
1410.000026
 31
0.0
  0
LINE
  5
61B
  8
DETAIL
  6
CONTINUOUS
 62
     5
 10
-460.000009
 20
1370.000025
 30
0.0
 11
460.000009
 21
1370.000025
 31
0.0
  0
LINE
  5
61C
  8
DETAIL
  6
CONTINUOUS
 62
     5
 10
349.84252
 20
1561.32024
 30
0.0
 11
350.639647
 21
1550.000029
 31
0.0
  0
LINE
  5
61D
  8
DETAIL
  6
CONTINUOUS
 62
     5
 10
348.335059
 20
1572.563388
 30
0.0
 11
349.84252
 21
1561.32024
 31
0.0
  0
LINE
  5
61E
  8
DETAIL
  6
CONTINUOUS
 62
     5
 10
346.123603
 20
1583.68218
 30
0.0
 11
348.335059
 21
1572.563388
 31
0.0
  0
LINE
  5
668
  8
DETAIL
  6
CONTINUOUS
 62
     5
 10
24.379141
 20
1640.295965
 30
0.0
 11
24.513622
 21
1639.692097
 31
0.0
  0
LINE
  5
669
  8
DETAIL
  6
CONTINUOUS
 62
     5
 10
24.238938
 20
1640.50003
 30
0.0
 11
24.379141
 21
1640.295965
 31
0.0
  0
LINE
  5
66D
  8
DETAIL
  6
CONTINUOUS
 62
     5
 10
21.386449
 20
1640.295965
 30
0.0
 11
21.52093
 21
1639.692097
 31
0.0
  0
LINE
  5
66E
  8
DETAIL
  6
CONTINUOUS
 62
     5
 10
21.246246
 20
1640.50003
 30
0.0
 11
21.386449
 21
1640.295965
 31
0.0
  0
LINE
  5
66F
  8
DETAIL
  6
CONTINUOUS
 62
     5
 10
384.700007
 20
1328.000025
 30
0.0
 11
388.000007
 21
1328.000025
 31
0.0
  0
LINE
  5
670
  8
DETAIL
  6
CONTINUOUS
 62
     5
 10
-388.000007
 20
1328.000025
 30
0.0
 11
-384.700007
 21
1328.000025
 31
0.0
  0
LINE
  5
671
  8
DETAIL
  6
CONTINUOUS
 62
     5
 10
-385.500007
 20
1322.500024
 30
0.0
 11
-384.700007
 21
1322.500024
 31
0.0
  0
LINE
  5
672
  8
DETAIL
  6
CONTINUOUS
 62
     5
 10
385.500007
 20
1322.500024
 30
0.0
 11
384.700007
 21
1322.500024
 31
0.0
  0
LINE
  5
673
  8
DETAIL
  6
CONTINUOUS
 62
     5
 10
455.000008
 20
1290.000024
 30
0.0
 11
455.200008
 21
1290.000024
 31
0.0
  0
LINE
  5
674
  8
DETAIL
  6
CONTINUOUS
 62
     5
 10
460.000009
 20
1370.000025
 30
0.0
 11
460.000009
 21
1410.000026
 31
0.0
  0
LINE
  5
675
  8
DETAIL
  6
CONTINUOUS
 62
     5
 10
455.200008
 20
54.000001
 30
0.0
 11
455.200008
 21
1370.000025
 31
0.0
  0
LINE
  5
676
  8
DETAIL
  6
CONTINUOUS
 62
     5
 10
454.500008
 20
54.000108
 30
0.0
 11
454.500008
 21
9.0
 31
0.0
  0
LINE
  5
6BD
  8
DETAIL
  6
CONTINUOUS
 62
     5
 10
440.300008
 20
21.0
 30
0.0
 11
440.300008
 21
39.000001
 31
0.0
  0
LINE
  5
6BE
  8
DETAIL
  6
CONTINUOUS
 62
     5
 10
438.000008
 20
39.000001
 30
0.0
 11
438.000008
 21
21.0
 31
0.0
  0
LINE
  5
6BF
  8
DETAIL
  6
CONTINUOUS
 62
     5
 10
408.414221
 20
59.000001
 30
0.0
 11
408.414221
 21
1370.000025
 31
0.0
  0
LINE
  5
6C0
  8
DETAIL
  6
CONTINUOUS
 62
     5
 10
388.000007
 20
62.000001
 30
0.0
 11
388.000007
 21
84.000002
 31
0.0
  0
LINE
  5
6C1
  8
DETAIL
  6
CONTINUOUS
 62
     5
 10
388.000007
 20
1370.000025
 30
0.0
 11
388.000007
 21
1328.000025
 31
0.0
  0
LINE
  5
6C3
  8
DETAIL
  6
CONTINUOUS
 62
     5
 10
360.999525
 20
1550.012167
 30
0.0
 11
365.859844
 21
1438.691445
 31
0.0
  0
LINE
  5
70E
  8
DETAIL
  6
CONTINUOUS
 62
     5
 10
385.500007
 20
731.500014
 30
0.0
 11
385.500007
 21
85.500002
 31
0.0
  0
LINE
  5
70F
  8
DETAIL
  6
CONTINUOUS
 62
     5
 10
385.500007
 20
1322.500024
 30
0.0
 11
385.500007
 21
755.500014
 31
0.0
  0
LINE
  5
710
  8
DETAIL
  6
CONTINUOUS
 62
     5
 10
384.700007
 20
1322.500024
 30
0.0
 11
384.700007
 21
1370.000025
 31
0.0
  0
LINE
  5
711
  8
DETAIL
  6
CONTINUOUS
 62
     5
 10
384.700007
 20
744.500014
 30
0.0
 11
384.700007
 21
755.500014
 31
0.0
  0
LINE
  5
712
  8
DETAIL
  6
CONTINUOUS
 62
     5
 10
384.700007
 20
731.500014
 30
0.0
 11
384.700007
 21
732.500014
 31
0.0
  0
LINE
  5
713
  8
DETAIL
  6
CONTINUOUS
 62
     5
 10
384.700007
 20
85.500002
 30
0.0
 11
384.700007
 21
54.000001
 31
0.0
  0
LINE
  5
714
  8
DETAIL
  6
CONTINUOUS
 62
     5
 10
384.500007
 20
21.0
 30
0.0
 11
384.500007
 21
39.000001
 31
0.0
  0
LINE
  5
715
  8
DETAIL
  6
CONTINUOUS
 62
     5
 10
382.200007
 20
39.000001
 30
0.0
 11
382.200007
 21
21.0
 31
0.0
  0
LINE
  5
716
  8
DETAIL
  6
CONTINUOUS
 62
     5
 10
374.000007
 20
732.500014
 30
0.0
 11
374.000007
 21
739.500014
 31
0.0
  0
LINE
  5
76D
  8
DETAIL
  6
CONTINUOUS
 62
     5
 10
12.947458
 20
1640.295965
 30
0.0
 11
13.014739
 21
1639.692097
 31
0.0
  0
LINE
  5
76E
  8
DETAIL
  6
CONTINUOUS
 62
     5
 10
12.877314
 20
1640.50003
 30
0.0
 11
12.947458
 21
1640.295965
 31
0.0
  0
LINE
  5
772
  8
DETAIL
  6
CONTINUOUS
 62
     5
 10
9.949285
 20
1640.295965
 30
0.0
 11
10.016567
 21
1639.692097
 31
0.0
  0
LINE
  5
773
  8
DETAIL
  6
CONTINUOUS
 62
     5
 10
9.879141
 20
1640.50003
 30
0.0
 11
9.949285
 21
1640.295965
 31
0.0
  0
LINE
  5
774
  8
DETAIL
  6
CONTINUOUS
 62
     5
 10
320.000006
 20
1641.60003
 30
0.0
 11
320.000006
 21
1640.50003
 31
0.0
  0
LINE
  5
775
  8
DETAIL
  6
CONTINUOUS
 62
     5
 10
300.000006
 20
1642.30003
 30
0.0
 11
300.000006
 21
1641.60003
 31
0.0
  0
LINE
  5
776
  8
DETAIL
  6
CONTINUOUS
 62
     5
 10
280.000005
 20
1643.00003
 30
0.0
 11
280.000005
 21
1642.30003
 31
0.0
  0
LINE
  5
7BB
  8
DETAIL
  6
CONTINUOUS
 62
     5
 10
260.000005
 20
1643.70003
 30
0.0
 11
260.000005
 21
1643.00003
 31
0.0
  0
LINE
  5
7BC
  8
DETAIL
  6
CONTINUOUS
 62
     5
 10
240.000004
 20
1644.40003
 30
0.0
 11
240.000004
 21
1643.70003
 31
0.0
  0
LINE
  5
7BD
  8
DETAIL
  6
CONTINUOUS
 62
     5
 10
236.80004
 20
1640.50003
 30
0.0
 11
236.80004
 21
1640.326022
 31
0.0
  0
LINE
  5
7BE
  8
DETAIL
  6
CONTINUOUS
 62
     5
 10
229.144224
 20
1640.50003
 30
0.0
 11
229.144224
 21
1640.209993
 31
0.0
  0
LINE
  5
7BF
  8
DETAIL
  6
CONTINUOUS
 62
     5
 10
221.209231
 20
1640.50003
 30
0.0
 11
221.209231
 21
1640.017882
 31
0.0
  0
LINE
  5
7C0
  8
DETAIL
  6
CONTINUOUS
 62
     5
 10
220.000004
 20
1645.10003
 30
0.0
 11
220.000004
 21
1644.40003
 31
0.0
  0
LINE
  5
7C1
  8
DETAIL
  6
CONTINUOUS
 62
     5
 10
213.004728
 20
1640.50003
 30
0.0
 11
213.004728
 21
1639.810268
 31
0.0
  0
LINE
  5
7C2
  8
DETAIL
  6
CONTINUOUS
 62
     5
 10
204.540712
 20
1640.50003
 30
0.0
 11
204.540712
 21
1639.502009
 31
0.0
  0
LINE
  5
7C4
  8
DETAIL
  6
CONTINUOUS
 62
     5
 10
200.000004
 20
1645.80003
 30
0.0
 11
200.000004
 21
1645.10003
 31
0.0
  0
LINE
  5
809
  8
DETAIL
  6
CONTINUOUS
 62
     5
 10
195.827495
 20
1640.50003
 30
0.0
 11
195.827495
 21
1639.065566
 31
0.0
  0
LINE
  5
80A
  8
DETAIL
  6
CONTINUOUS
 62
     5
 10
186.875692
 20
1640.50003
 30
0.0
 11
186.875692
 21
1638.515137
 31
0.0
  0
LINE
  5
80B
  8
DETAIL
  6
CONTINUOUS
 62
     5
 10
180.000003
 20
1646.50003
 30
0.0
 11
180.000003
 21
1645.80003
 31
0.0
  0
LINE
  5
80C
  8
DETAIL
  6
CONTINUOUS
 62
     5
 10
177.69621
 20
1640.50003
 30
0.0
 11
177.69621
 21
1637.69109
 31
0.0
  0
LINE
  5
80D
  8
DETAIL
  6
CONTINUOUS
 62
     5
 10
168.300233
 20
1640.50003
 30
0.0
 11
168.300233
 21
1636.452401
 31
0.0
  0
LINE
  5
80E
  8
DETAIL
  6
CONTINUOUS
 62
     5
 10
160.000003
 20
1647.20003
 30
0.0
 11
160.000003
 21
1646.50003
 31
0.0
  0
LINE
  5
80F
  8
DETAIL
  6
CONTINUOUS
 62
     5
 10
158.699207
 20
1640.50003
 30
0.0
 11
158.699207
 21
1634.580928
 31
0.0
  0
LINE
  5
810
  8
DETAIL
  6
CONTINUOUS
 62
     5
 10
148.904831
 20
1640.50003
 30
0.0
 11
148.904831
 21
1632.50003
 31
0.0
  0
LINE
  5
811
  8
DETAIL
  6
CONTINUOUS
 62
     5
 10
140.000003
 20
1647.90003
 30
0.0
 11
140.000003
 21
1647.20003
 31
0.0
  0
LINE
  5
812
  8
DETAIL
  6
CONTINUOUS
 62
     5
 10
138.929037
 20
1640.50003
 30
0.0
 11
138.929037
 21
1632.50003
 31
0.0
  0
LINE
  5
840
  8
DETAIL
  6
CONTINUOUS
 62
     5
 10
128.78398
 20
1640.50003
 30
0.0
 11
128.78398
 21
1632.50003
 31
0.0
  0
LINE
  5
841
  8
DETAIL
  6
CONTINUOUS
 62
     5
 10
120.000002
 20
1648.60003
 30
0.0
 11
120.000002
 21
1647.90003
 31
0.0
  0
LINE
  5
842
  8
DETAIL
  6
CONTINUOUS
 62
     5
 10
118.482019
 20
1640.50003
 30
0.0
 11
118.482019
 21
1632.50003
 31
0.0
  0
LINE
  5
843
  8
DETAIL
  6
CONTINUOUS
 62
     5
 10
108.035707
 20
1640.50003
 30
0.0
 11
108.035707
 21
1632.50003
 31
0.0
  0
LINE
  5
844
  8
DETAIL
  6
CONTINUOUS
 62
     5
 10
100.000002
 20
1649.300031
 30
0.0
 11
100.000002
 21
1648.60003
 31
0.0
  0
LINE
  5
845
  8
DETAIL
  6
CONTINUOUS
 62
     5
 10
97.457769
 20
1640.50003
 30
0.0
 11
97.457769
 21
1632.50003
 31
0.0
  0
LINE
  5
846
  8
DETAIL
  6
CONTINUOUS
 62
     5
 10
86.761094
 20
1640.50003
 30
0.0
 11
86.761094
 21
1632.50003
 31
0.0
  0
LINE
  5
847
  8
DETAIL
  6
CONTINUOUS
 62
     5
 10
80.000001
 20
1649.300031
 30
0.0
 11
80.000001
 21
1650.000031
 31
0.0
  0
LINE
  5
848
  8
DETAIL
  6
CONTINUOUS
 62
     5
 10
75.958714
 20
1640.50003
 30
0.0
 11
75.958714
 21
1632.50003
 31
0.0
  0
LINE
  5
892
  8
DETAIL
  6
CONTINUOUS
 62
     5
 10
65.06379
 20
1640.50003
 30
0.0
 11
65.06379
 21
1632.50003
 31
0.0
  0
LINE
  5
893
  8
DETAIL
  6
CONTINUOUS
 62
     5
 10
54.089596
 20
1640.50003
 30
0.0
 11
54.089596
 21
1632.50003
 31
0.0
  0
LINE
  5
894
  8
DETAIL
  6
CONTINUOUS
 62
     5
 10
43.049502
 20
1640.50003
 30
0.0
 11
43.049502
 21
1632.50003
 31
0.0
  0
LINE
  5
895
  8
DETAIL
  6
CONTINUOUS
 62
     5
 10
31.956959
 20
1640.50003
 30
0.0
 11
31.956959
 21
1632.50003
 31
0.0
  0
LINE
  5
896
  8
DETAIL
  6
CONTINUOUS
 62
     5
 10
20.825481
 20
1640.50003
 30
0.0
 11
20.825481
 21
1632.50003
 31
0.0
  0
LINE
  5
897
  8
DETAIL
  6
CONTINUOUS
 62
     5
 10
9.66863
 20
1640.50003
 30
0.0
 11
9.66863
 21
1632.50003
 31
0.0
  0
LINE
  5
909
  8
DETAIL
  6
CONTINUOUS
 62
     5
 10
-9.66863
 20
1640.50003
 30
0.0
 11
-9.66863
 21
1632.50003
 31
0.0
  0
LINE
  5
90A
  8
DETAIL
  6
CONTINUOUS
 62
     5
 10
-20.825481
 20
1640.50003
 30
0.0
 11
-20.825481
 21
1632.50003
 31
0.0
  0
LINE
  5
90B
  8
DETAIL
  6
CONTINUOUS
 62
     5
 10
-31.956959
 20
1640.50003
 30
0.0
 11
-31.956959
 21
1632.50003
 31
0.0
  0
LINE
  5
90C
  8
DETAIL
  6
CONTINUOUS
 62
     5
 10
-43.049502
 20
1640.50003
 30
0.0
 11
-43.049502
 21
1632.50003
 31
0.0
  0
LINE
  5
90D
  8
DETAIL
  6
CONTINUOUS
 62
     5
 10
-54.089596
 20
1640.50003
 30
0.0
 11
-54.089596
 21
1632.50003
 31
0.0
  0
LINE
  5
90E
  8
DETAIL
  6
CONTINUOUS
 62
     5
 10
-385.500007
 20
755.500014
 30
0.0
 11
385.500007
 21
755.500014
 31
0.0
  0
LINE
  5
90F
  8
DETAIL
  6
CONTINUOUS
 62
     5
 10
379.700007
 20
739.500014
 30
0.0
 11
-379.700007
 21
739.500014
 31
0.0
  0
LINE
  5
910
  8
DETAIL
  6
CONTINUOUS
 62
     5
 10
384.700007
 20
732.500014
 30
0.0
 11
-384.700007
 21
732.500014
 31
0.0
  0
LINE
  5
911
  8
DETAIL
  6
CONTINUOUS
 62
     5
 10
-385.500007
 20
731.500014
 30
0.0
 11
-384.700007
 21
731.500014
 31
0.0
  0
LINE
  5
96D
  8
DETAIL
  6
CONTINUOUS
 62
     5
 10
-65.06379
 20
1640.50003
 30
0.0
 11
-65.06379
 21
1632.50003
 31
0.0
  0
LINE
  5
96E
  8
DETAIL
  6
CONTINUOUS
 62
     5
 10
-75.958714
 20
1640.50003
 30
0.0
 11
-75.958714
 21
1632.50003
 31
0.0
  0
LINE
  5
96F
  8
DETAIL
  6
CONTINUOUS
 62
     5
 10
-80.000001
 20
1649.300031
 30
0.0
 11
-80.000001
 21
1650.000031
 31
0.0
  0
LINE
  5
970
  8
DETAIL
  6
CONTINUOUS
 62
     5
 10
-86.761094
 20
1640.50003
 30
0.0
 11
-86.761094
 21
1632.50003
 31
0.0
  0
LINE
  5
971
  8
DETAIL
  6
CONTINUOUS
 62
     5
 10
-97.457769
 20
1640.50003
 30
0.0
 11
-97.457769
 21
1632.50003
 31
0.0
  0
LINE
  5
972
  8
DETAIL
  6
CONTINUOUS
 62
     5
 10
-100.000002
 20
1649.300031
 30
0.0
 11
-100.000002
 21
1648.60003
 31
0.0
  0
LINE
  5
973
  8
DETAIL
  6
CONTINUOUS
 62
     5
 10
-108.035707
 20
1640.50003
 30
0.0
 11
-108.035707
 21
1632.50003
 31
0.0
  0
LINE
  5
9BB
  8
DETAIL
  6
CONTINUOUS
 62
     5
 10
-118.482019
 20
1640.50003
 30
0.0
 11
-118.482019
 21
1632.50003
 31
0.0
  0
LINE
  5
9BC
  8
DETAIL
  6
CONTINUOUS
 62
     5
 10
-120.000002
 20
1648.60003
 30
0.0
 11
-120.000002
 21
1647.90003
 31
0.0
  0
LINE
  5
9BD
  8
DETAIL
  6
CONTINUOUS
 62
     5
 10
-128.78398
 20
1640.50003
 30
0.0
 11
-128.78398
 21
1632.50003
 31
0.0
  0
LINE
  5
9BE
  8
DETAIL
  6
CONTINUOUS
 62
     5
 10
-138.929037
 20
1640.50003
 30
0.0
 11
-138.929037
 21
1632.50003
 31
0.0
  0
LINE
  5
9BF
  8
DETAIL
  6
CONTINUOUS
 62
     5
 10
-140.000003
 20
1647.90003
 30
0.0
 11
-140.000003
 21
1647.20003
 31
0.0
  0
LINE
  5
9C0
  8
DETAIL
  6
CONTINUOUS
 62
     5
 10
-148.904831
 20
1640.50003
 30
0.0
 11
-148.904831
 21
1632.50003
 31
0.0
  0
LINE
  5
9C1
  8
DETAIL
  6
CONTINUOUS
 62
     5
 10
-158.699207
 20
1640.50003
 30
0.0
 11
-158.699207
 21
1634.580928
 31
0.0
  0
LINE
  5
9C2
  8
DETAIL
  6
CONTINUOUS
 62
     5
 10
-160.000003
 20
1647.20003
 30
0.0
 11
-160.000003
 21
1646.50003
 31
0.0
  0
LINE
  5
9C3
  8
DETAIL
  6
CONTINUOUS
 62
     5
 10
-168.300233
 20
1640.50003
 30
0.0
 11
-168.300233
 21
1636.452401
 31
0.0
  0
LINE
  5
9C4
  8
DETAIL
  6
CONTINUOUS
 62
     5
 10
-177.69621
 20
1640.50003
 30
0.0
 11
-177.69621
 21
1637.69109
 31
0.0
  0
LINE
  5
9C5
  8
DETAIL
  6
CONTINUOUS
 62
     5
 10
-180.000003
 20
1646.50003
 30
0.0
 11
-180.000003
 21
1645.80003
 31
0.0
  0
LINE
  5
A13
  8
DETAIL
  6
CONTINUOUS
 62
     5
 10
-186.875692
 20
1640.50003
 30
0.0
 11
-186.875692
 21
1638.515137
 31
0.0
  0
LINE
  5
A14
  8
DETAIL
  6
CONTINUOUS
 62
     5
 10
-195.827495
 20
1640.50003
 30
0.0
 11
-195.827495
 21
1639.065566
 31
0.0
  0
LINE
  5
A15
  8
DETAIL
  6
CONTINUOUS
 62
     5
 10
-200.000004
 20
1645.80003
 30
0.0
 11
-200.000004
 21
1645.10003
 31
0.0
  0
LINE
  5
A16
  8
DETAIL
  6
CONTINUOUS
 62
     5
 10
-204.540712
 20
1640.50003
 30
0.0
 11
-204.540712
 21
1639.502009
 31
0.0
  0
LINE
  5
A17
  8
DETAIL
  6
CONTINUOUS
 62
     5
 10
-213.004728
 20
1640.50003
 30
0.0
 11
-213.004728
 21
1639.810268
 31
0.0
  0
LINE
  5
A18
  8
DETAIL
  6
CONTINUOUS
 62
     5
 10
-220.000004
 20
1645.10003
 30
0.0
 11
-220.000004
 21
1644.40003
 31
0.0
  0
LINE
  5
A19
  8
DETAIL
  6
CONTINUOUS
 62
     5
 10
-221.209231
 20
1640.50003
 30
0.0
 11
-221.209231
 21
1640.017882
 31
0.0
  0
LINE
  5
A1A
  8
DETAIL
  6
CONTINUOUS
 62
     5
 10
-229.144224
 20
1640.50003
 30
0.0
 11
-229.144224
 21
1640.209993
 31
0.0
  0
LINE
  5
A1B
  8
DETAIL
  6
CONTINUOUS
 62
     5
 10
-236.80004
 20
1640.50003
 30
0.0
 11
-236.80004
 21
1640.326022
 31
0.0
  0
LINE
  5
A1C
  8
DETAIL
  6
CONTINUOUS
 62
     5
 10
-240.000004
 20
1644.40003
 30
0.0
 11
-240.000004
 21
1643.70003
 31
0.0
  0
LINE
  5
A25
  8
DETAIL
  6
CONTINUOUS
 62
     5
 10
-9.949285
 20
1640.295965
 30
0.0
 11
-10.016567
 21
1639.692097
 31
0.0
  0
LINE
  5
A26
  8
DETAIL
  6
CONTINUOUS
 62
     5
 10
-9.879141
 20
1640.50003
 30
0.0
 11
-9.949285
 21
1640.295965
 31
0.0
  0
LINE
  5
A2A
  8
DETAIL
  6
CONTINUOUS
 62
     5
 10
-12.947458
 20
1640.295965
 30
0.0
 11
-13.014739
 21
1639.692097
 31
0.0
  0
LINE
  5
A2B
  8
DETAIL
  6
CONTINUOUS
 62
     5
 10
-12.877314
 20
1640.50003
 30
0.0
 11
-12.947458
 21
1640.295965
 31
0.0
  0
LINE
  5
A8A
  8
DETAIL
  6
CONTINUOUS
 62
     5
 10
-260.000005
 20
1643.70003
 30
0.0
 11
-260.000005
 21
1643.00003
 31
0.0
  0
LINE
  5
A8B
  8
DETAIL
  6
CONTINUOUS
 62
     5
 10
-280.000005
 20
1643.00003
 30
0.0
 11
-280.000005
 21
1642.30003
 31
0.0
  0
LINE
  5
A8C
  8
DETAIL
  6
CONTINUOUS
 62
     5
 10
-300.000006
 20
1642.30003
 30
0.0
 11
-300.000006
 21
1641.60003
 31
0.0
  0
LINE
  5
AE8
  8
DETAIL
  6
CONTINUOUS
 62
     5
 10
-320.000006
 20
1641.60003
 30
0.0
 11
-320.000006
 21
1640.50003
 31
0.0
  0
LINE
  5
B2E
  8
DETAIL
  6
CONTINUOUS
 62
     5
 10
-393.625478
 20
1410.081245
 30
0.0
 11
-395.831524
 21
1410.000026
 31
0.0
  0
LINE
  5
B2F
  8
DETAIL
  6
CONTINUOUS
 62
     5
 10
-391.431312
 20
1410.324474
 30
0.0
 11
-393.625478
 21
1410.081245
 31
0.0
  0
LINE
  5
B30
  8
DETAIL
  6
CONTINUOUS
 62
     5
 10
-389.260971
 20
1410.728394
 30
0.0
 11
-391.431312
 21
1410.324474
 31
0.0
  0
LINE
  5
B31
  8
DETAIL
  6
CONTINUOUS
 62
     5
 10
-387.126202
 20
1411.290821
 30
0.0
 11
-389.260971
 21
1410.728394
 31
0.0
  0
LINE
  5
B32
  8
DETAIL
  6
CONTINUOUS
 62
     5
 10
-385.038571
 20
1412.008709
 30
0.0
 11
-387.126202
 21
1411.290821
 31
0.0
  0
LINE
  5
B33
  8
DETAIL
  6
CONTINUOUS
 62
     5
 10
-383.009385
 20
1412.878169
 30
0.0
 11
-385.038571
 21
1412.008709
 31
0.0
  0
LINE
  5
B34
  8
DETAIL
  6
CONTINUOUS
 62
     5
 10
-381.049631
 20
1413.894494
 30
0.0
 11
-383.009385
 21
1412.878169
 31
0.0
  0
LINE
  5
B35
  8
DETAIL
  6
CONTINUOUS
 62
     5
 10
-379.169922
 20
1415.05218
 30
0.0
 11
-381.049631
 21
1413.894494
 31
0.0
  0
LINE
  5
B36
  8
DETAIL
  6
CONTINUOUS
 62
     5
 10
-377.380436
 20
1416.344958
 30
0.0
 11
-379.169922
 21
1415.05218
 31
0.0
  0
LINE
  5
B37
  8
DETAIL
  6
CONTINUOUS
 62
     5
 10
-375.690863
 20
1417.765827
 30
0.0
 11
-377.380436
 21
1416.344958
 31
0.0
  0
LINE
  5
B38
  8
DETAIL
  6
CONTINUOUS
 62
     5
 10
-374.110352
 20
1419.307091
 30
0.0
 11
-375.690863
 21
1417.765827
 31
0.0
  0
LINE
  5
B39
  8
DETAIL
  6
CONTINUOUS
 62
     5
 10
-372.647463
 20
1420.960405
 30
0.0
 11
-374.110352
 21
1419.307091
 31
0.0
  0
LINE
  5
B3A
  8
DETAIL
  6
CONTINUOUS
 62
     5
 10
-371.310115
 20
1422.716816
 30
0.0
 11
-372.647463
 21
1420.960405
 31
0.0
  0
LINE
  5
B3B
  8
DETAIL
  6
CONTINUOUS
 62
     5
 10
-370.105551
 20
1424.56681
 30
0.0
 11
-371.310115
 21
1422.716816
 31
0.0
  0
LINE
  5
B3C
  8
DETAIL
  6
CONTINUOUS
 62
     5
 10
-369.040294
 20
1426.500368
 30
0.0
 11
-370.105551
 21
1424.56681
 31
0.0
  0
LINE
  5
B3D
  8
DETAIL
  6
CONTINUOUS
 62
     5
 10
-368.120113
 20
1428.507015
 30
0.0
 11
-369.040294
 21
1426.500368
 31
0.0
  0
LINE
  5
B3E
  8
DETAIL
  6
CONTINUOUS
 62
     5
 10
-367.349988
 20
1430.575882
 30
0.0
 11
-368.120113
 21
1428.507015
 31
0.0
  0
LINE
  5
B3F
  8
DETAIL
  6
CONTINUOUS
 62
     5
 10
-366.73409
 20
1432.695755
 30
0.0
 11
-367.349988
 21
1430.575882
 31
0.0
  0
LINE
  5
B40
  8
DETAIL
  6
CONTINUOUS
 62
     5
 10
-366.27575
 20
1434.855147
 30
0.0
 11
-366.73409
 21
1432.695755
 31
0.0
  0
LINE
  5
B41
  8
DETAIL
  6
CONTINUOUS
 62
     5
 10
-365.977444
 20
1437.042361
 30
0.0
 11
-366.27575
 21
1434.855147
 31
0.0
  0
LINE
  5
B42
  8
DETAIL
  6
CONTINUOUS
 62
     5
 10
-365.859844
 20
1438.691445
 30
0.0
 11
-365.977444
 21
1437.042361
 31
0.0
  0
LINE
  5
B43
  8
DETAIL
  6
CONTINUOUS
 62
     5
 10
-365.859844
 20
1438.691445
 30
0.0
 11
-360.999525
 21
1550.012167
 31
0.0
  0
LINE
  5
B44
  8
DETAIL
  6
CONTINUOUS
 62
     5
 10
-374.000007
 20
739.500014
 30
0.0
 11
-374.000007
 21
732.500014
 31
0.0
  0
LINE
  5
B45
  8
DETAIL
  6
CONTINUOUS
 62
     5
 10
-382.200007
 20
39.000001
 30
0.0
 11
-382.200007
 21
21.0
 31
0.0
  0
LINE
  5
B46
  8
DETAIL
  6
CONTINUOUS
 62
     5
 10
-384.500007
 20
21.0
 30
0.0
 11
-384.500007
 21
39.000001
 31
0.0
  0
LINE
  5
B47
  8
DETAIL
  6
CONTINUOUS
 62
     5
 10
-384.700007
 20
744.500014
 30
0.0
 11
-384.700007
 21
755.500014
 31
0.0
  0
LINE
  5
B48
  8
DETAIL
  6
CONTINUOUS
 62
     5
 10
-384.700007
 20
731.500014
 30
0.0
 11
-384.700007
 21
732.500014
 31
0.0
  0
LINE
  5
B49
  8
DETAIL
  6
CONTINUOUS
 62
     5
 10
-384.700007
 20
85.500002
 30
0.0
 11
-384.700007
 21
54.000009
 31
0.0
  0
LINE
  5
B4A
  8
DETAIL
  6
CONTINUOUS
 62
     5
 10
-384.700007
 20
1370.000025
 30
0.0
 11
-384.700007
 21
1322.500024
 31
0.0
  0
LINE
  5
B4B
  8
DETAIL
  6
CONTINUOUS
 62
     5
 10
-385.500007
 20
755.500014
 30
0.0
 11
-385.500007
 21
1322.500024
 31
0.0
  0
LINE
  5
B4C
  8
DETAIL
  6
CONTINUOUS
 62
     5
 10
-385.500007
 20
731.500014
 30
0.0
 11
-385.500007
 21
85.500002
 31
0.0
  0
LINE
  5
B4E
  8
DETAIL
  6
CONTINUOUS
 62
     5
 10
-388.000007
 20
62.000001
 30
0.0
 11
-388.000007
 21
84.000002
 31
0.0
  0
LINE
  5
B4F
  8
DETAIL
  6
CONTINUOUS
 62
     5
 10
-388.000007
 20
1370.000025
 30
0.0
 11
-388.000007
 21
1328.000025
 31
0.0
  0
LINE
  5
B50
  8
DETAIL
  6
CONTINUOUS
 62
     5
 10
-409.343153
 20
1370.000025
 30
0.0
 11
-409.343153
 21
1410.000026
 31
0.0
  0
LINE
  5
B51
  8
DETAIL
  6
CONTINUOUS
 62
     5
 10
-408.414221
 20
59.000001
 30
0.0
 11
-408.414221
 21
1370.000025
 31
0.0
  0
LINE
  5
B55
  8
DETAIL
  6
CONTINUOUS
 62
     5
 10
-21.386449
 20
1640.295965
 30
0.0
 11
-21.52093
 21
1639.692097
 31
0.0
  0
LINE
  5
B56
  8
DETAIL
  6
CONTINUOUS
 62
     5
 10
-21.246246
 20
1640.50003
 30
0.0
 11
-21.386449
 21
1640.295965
 31
0.0
  0
LINE
  5
B5A
  8
DETAIL
  6
CONTINUOUS
 62
     5
 10
-24.379141
 20
1640.295965
 30
0.0
 11
-24.513622
 21
1639.692097
 31
0.0
  0
LINE
  5
B5B
  8
DETAIL
  6
CONTINUOUS
 62
     5
 10
-24.238938
 20
1640.50003
 30
0.0
 11
-24.379141
 21
1640.295965
 31
0.0
  0
LINE
  5
B9B
  8
DETAIL
  6
CONTINUOUS
 62
     5
 10
-349.84252
 20
1561.32024
 30
0.0
 11
-350.639647
 21
1550.000029
 31
0.0
  0
LINE
  5
B9C
  8
DETAIL
  6
CONTINUOUS
 62
     5
 10
-348.335059
 20
1572.563388
 30
0.0
 11
-349.84252
 21
1561.32024
 31
0.0
  0
LINE
  5
B9D
  8
DETAIL
  6
CONTINUOUS
 62
     5
 10
-346.123603
 20
1583.68218
 30
0.0
 11
-348.335059
 21
1572.563388
 31
0.0
  0
LINE
  5
B9E
  8
DETAIL
  6
CONTINUOUS
 62
     5
 10
-438.000008
 20
39.000001
 30
0.0
 11
-438.000008
 21
21.0
 31
0.0
  0
LINE
  5
B9F
  8
DETAIL
  6
CONTINUOUS
 62
     5
 10
-440.300008
 20
21.0
 30
0.0
 11
-440.300008
 21
39.000001
 31
0.0
  0
LINE
  5
BA0
  8
DETAIL
  6
CONTINUOUS
 62
     5
 10
-454.500008
 20
9.0
 30
0.0
 11
-454.500008
 21
54.0
 31
0.0
  0
LINE
  5
BA1
  8
DETAIL
  6
CONTINUOUS
 62
     5
 10
-455.200008
 20
54.0
 30
0.0
 11
-455.200008
 21
1370.000025
 31
0.0
  0
LINE
  5
BA2
  8
DETAIL
  6
CONTINUOUS
 62
     5
 10
-460.000009
 20
1410.000026
 30
0.0
 11
-460.000009
 21
1370.000025
 31
0.0
  0
LINE
  5
BF4
  8
DETAIL
  6
CONTINUOUS
 62
     5
 10
-32.797557
 20
1640.295965
 30
0.0
 11
-32.999073
 21
1639.692097
 31
0.0
  0
LINE
  5
BF5
  8
DETAIL
  6
CONTINUOUS
 62
     5
 10
-32.587466
 20
1640.50003
 30
0.0
 11
-32.797557
 21
1640.295965
 31
0.0
  0
LINE
  5
BF9
  8
DETAIL
  6
CONTINUOUS
 62
     5
 10
-35.781123
 20
1640.295965
 30
0.0
 11
-35.982639
 21
1639.692097
 31
0.0
  0
LINE
  5
BFA
  8
DETAIL
  6
CONTINUOUS
 62
     5
 10
-35.571032
 20
1640.50003
 30
0.0
 11
-35.781123
 21
1640.295965
 31
0.0
  0
LINE
  5
C4B
  8
DETAIL
  6
CONTINUOUS
 62
     5
 10
-384.748035
 20
56.110742
 30
0.0
 11
-384.700007
 21
56.109966
 31
0.0
  0
LINE
  5
C4C
  8
DETAIL
  6
CONTINUOUS
 62
     5
 10
-349.116755
 20
1561.32024
 30
0.0
 11
-349.913881
 21
1550.000029
 31
0.0
  0
LINE
  5
C4D
  8
DETAIL
  6
CONTINUOUS
 62
     5
 10
-347.609293
 20
1572.563388
 30
0.0
 11
-349.116755
 21
1561.32024
 31
0.0
  0
LINE
  5
C4E
  8
DETAIL
  6
CONTINUOUS
 62
     5
 10
-345.397837
 20
1583.68218
 30
0.0
 11
-347.609293
 21
1572.563388
 31
0.0
  0
LINE
  5
C4F
  8
DETAIL
  6
CONTINUOUS
 62
     5
 10
-342.49169
 20
1594.629844
 30
0.0
 11
-345.397837
 21
1583.68218
 31
0.0
  0
LINE
  5
C54
  8
DETAIL
  6
CONTINUOUS
 62
     5
 10
-343.217455
 20
1594.629844
 30
0.0
 11
-346.123603
 21
1583.68218
 31
0.0
  0
LINE
  5
C55
  8
DETAIL
  6
CONTINUOUS
 62
     5
 10
-339.62884
 20
1605.360332
 30
0.0
 11
-343.217455
 21
1594.629844
 31
0.0
  0
LINE
  5
C59
  8
DETAIL
  6
CONTINUOUS
 62
     5
 10
-345.812318
 20
1561.32024
 30
0.0
 11
-346.602023
 21
1550.000029
 31
0.0
  0
LINE
  5
C5A
  8
DETAIL
  6
CONTINUOUS
 62
     5
 10
-344.318892
 20
1572.563388
 30
0.0
 11
-345.812318
 21
1561.32024
 31
0.0
  0
LINE
  5
C61
  8
DETAIL
  6
CONTINUOUS
 62
     5
 10
-346.63923
 20
1561.32024
 30
0.0
 11
-347.428935
 21
1550.000029
 31
0.0
  0
LINE
  5
C62
  8
DETAIL
  6
CONTINUOUS
 62
     5
 10
-345.145804
 20
1572.563388
 30
0.0
 11
-346.63923
 21
1561.32024
 31
0.0
  0
LINE
  5
C63
  8
DETAIL
  6
CONTINUOUS
 62
     5
 10
-342.954938
 20
1583.68218
 30
0.0
 11
-345.145804
 21
1572.563388
 31
0.0
  0
LINE
  5
C71
  8
DETAIL
  6
CONTINUOUS
 62
     5
 10
-343.013614
 20
1561.32024
 30
0.0
 11
-343.794934
 21
1550.000029
 31
0.0
  0
LINE
  5
CD9
  8
DETAIL
  6
CONTINUOUS
 62
     5
 10
-385.500007
 20
85.500002
 30
0.0
 11
-384.700007
 21
85.500002
 31
0.0
  0
LINE
  5
CDA
  8
DETAIL
  6
CONTINUOUS
 62
     5
 10
385.500007
 20
85.500002
 30
0.0
 11
384.500007
 21
85.500002
 31
0.0
  0
LINE
  5
CDB
  8
DETAIL
  6
CONTINUOUS
 62
     5
 10
384.700007
 20
84.000002
 30
0.0
 11
388.000007
 21
84.000002
 31
0.0
  0
LINE
  5
CDC
  8
DETAIL
  6
CONTINUOUS
 62
     5
 10
-388.000007
 20
84.000002
 30
0.0
 11
-384.700007
 21
84.000002
 31
0.0
  0
LINE
  5
CE0
  8
DETAIL
  6
CONTINUOUS
 62
     5
 10
-55.486042
 20
1640.295965
 30
0.0
 11
-55.820812
 21
1639.692097
 31
0.0
  0
LINE
  5
CE1
  8
DETAIL
  6
CONTINUOUS
 62
     5
 10
-55.137028
 20
1640.50003
 30
0.0
 11
-55.486042
 21
1640.295965
 31
0.0
  0
LINE
  5
CE5
  8
DETAIL
  6
CONTINUOUS
 62
     5
 10
-58.440465
 20
1640.295965
 30
0.0
 11
-58.775235
 21
1639.692097
 31
0.0
  0
LINE
  5
CE6
  8
DETAIL
  6
CONTINUOUS
 62
     5
 10
-58.091451
 20
1640.50003
 30
0.0
 11
-58.440465
 21
1640.295965
 31
0.0
  0
LINE
  5
CEA
  8
DETAIL
  6
CONTINUOUS
 62
     5
 10
-44.168706
 20
1640.295965
 30
0.0
 11
-44.437012
 21
1639.692097
 31
0.0
  0
LINE
  5
CEB
  8
DETAIL
  6
CONTINUOUS
 62
     5
 10
-43.888983
 20
1640.50003
 30
0.0
 11
-44.168706
 21
1640.295965
 31
0.0
  0
LINE
  5
CEF
  8
DETAIL
  6
CONTINUOUS
 62
     5
 10
-47.13951
 20
1640.295965
 30
0.0
 11
-47.407817
 21
1639.692097
 31
0.0
  0
LINE
  5
CF0
  8
DETAIL
  6
CONTINUOUS
 62
     5
 10
-46.859787
 20
1640.50003
 30
0.0
 11
-47.13951
 21
1640.295965
 31
0.0
  0
LINE
  5
CF1
  8
DETAIL
  6
CONTINUOUS
 62
     5
 10
-359.906717
 20
1561.32024
 30
0.0
 11
-360.727746
 21
1550.000029
 31
0.0
  0
LINE
  5
CF2
  8
DETAIL
  6
CONTINUOUS
 62
     5
 10
-358.354053
 20
1572.563388
 30
0.0
 11
-359.906717
 21
1561.32024
 31
0.0
  0
LINE
  5
CF3
  8
DETAIL
  6
CONTINUOUS
 62
     5
 10
-356.076285
 20
1583.68218
 30
0.0
 11
-358.354053
 21
1572.563388
 31
0.0
  0
LINE
  5
CF4
  8
DETAIL
  6
CONTINUOUS
 62
     5
 10
-353.082994
 20
1594.629844
 30
0.0
 11
-356.076285
 21
1583.68218
 31
0.0
  0
LINE
  5
CF5
  8
DETAIL
  6
CONTINUOUS
 62
     5
 10
-349.386771
 20
1605.360332
 30
0.0
 11
-353.082994
 21
1594.629844
 31
0.0
  0
LINE
  5
CF6
  8
DETAIL
  6
CONTINUOUS
 62
     5
 10
-345.003165
 20
1615.828505
 30
0.0
 11
-349.386771
 21
1605.360332
 31
0.0
  0
LINE
  5
CF7
  8
DETAIL
  6
CONTINUOUS
 62
     5
 10
-339.950613
 20
1625.990329
 30
0.0
 11
-345.003165
 21
1615.828505
 31
0.0
  0
LINE
  5
CF8
  8
DETAIL
  6
CONTINUOUS
 62
     5
 10
-334.250371
 20
1635.803061
 30
0.0
 11
-339.950613
 21
1625.990329
 31
0.0
  0
LINE
  5
CF9
  8
DETAIL
  6
CONTINUOUS
 62
     5
 10
-360.011416
 20
1561.32024
 30
0.0
 11
-360.832444
 21
1550.000029
 31
0.0
  0
LINE
  5
CFA
  8
DETAIL
  6
CONTINUOUS
 62
     5
 10
-358.458752
 20
1572.563388
 30
0.0
 11
-360.011416
 21
1561.32024
 31
0.0
  0
LINE
  5
CFB
  8
DETAIL
  6
CONTINUOUS
 62
     5
 10
-356.180984
 20
1583.68218
 30
0.0
 11
-358.458752
 21
1572.563388
 31
0.0
  0
LINE
  5
CFC
  8
DETAIL
  6
CONTINUOUS
 62
     5
 10
-353.187693
 20
1594.629844
 30
0.0
 11
-356.180984
 21
1583.68218
 31
0.0
  0
LINE
  5
CFD
  8
DETAIL
  6
CONTINUOUS
 62
     5
 10
-349.49147
 20
1605.360332
 30
0.0
 11
-353.187693
 21
1594.629844
 31
0.0
  0
LINE
  5
CFE
  8
DETAIL
  6
CONTINUOUS
 62
     5
 10
-345.107863
 20
1615.828505
 30
0.0
 11
-349.49147
 21
1605.360332
 31
0.0
  0
LINE
  5
CFF
  8
DETAIL
  6
CONTINUOUS
 62
     5
 10
-340.055312
 20
1625.990329
 30
0.0
 11
-345.107863
 21
1615.828505
 31
0.0
  0
LINE
  5
D00
  8
DETAIL
  6
CONTINUOUS
 62
     5
 10
-334.355069
 20
1635.803061
 30
0.0
 11
-340.055312
 21
1625.990329
 31
0.0
  0
LINE
  5
D01
  8
DETAIL
  6
CONTINUOUS
 62
     5
 10
-359.196466
 20
1561.32024
 30
0.0
 11
-360.015994
 21
1550.000029
 31
0.0
  0
LINE
  5
D02
  8
DETAIL
  6
CONTINUOUS
 62
     5
 10
-357.64664
 20
1572.563388
 30
0.0
 11
-359.196466
 21
1561.32024
 31
0.0
  0
LINE
  5
D03
  8
DETAIL
  6
CONTINUOUS
 62
     5
 10
-355.373036
 20
1583.68218
 30
0.0
 11
-357.64664
 21
1572.563388
 31
0.0
  0
LINE
  5
D04
  8
DETAIL
  6
CONTINUOUS
 62
     5
 10
-352.385216
 20
1594.629844
 30
0.0
 11
-355.373036
 21
1583.68218
 31
0.0
  0
LINE
  5
D05
  8
DETAIL
  6
CONTINUOUS
 62
     5
 10
-348.69575
 20
1605.360332
 30
0.0
 11
-352.385216
 21
1594.629844
 31
0.0
  0
LINE
  5
D06
  8
DETAIL
  6
CONTINUOUS
 62
     5
 10
-344.320156
 20
1615.828505
 30
0.0
 11
-348.69575
 21
1605.360332
 31
0.0
  0
LINE
  5
D07
  8
DETAIL
  6
CONTINUOUS
 62
     5
 10
-339.27684
 20
1625.990329
 30
0.0
 11
-344.320156
 21
1615.828505
 31
0.0
  0
LINE
  5
D08
  8
DETAIL
  6
CONTINUOUS
 62
     5
 10
-333.587016
 20
1635.803061
 30
0.0
 11
-339.27684
 21
1625.990329
 31
0.0
  0
LINE
  5
D09
  8
DETAIL
  6
CONTINUOUS
 62
     5
 10
-359.405736
 20
1561.32024
 30
0.0
 11
-360.225264
 21
1550.000029
 31
0.0
  0
LINE
  5
D0A
  8
DETAIL
  6
CONTINUOUS
 62
     5
 10
-357.85591
 20
1572.563388
 30
0.0
 11
-359.405736
 21
1561.32024
 31
0.0
  0
LINE
  5
D0B
  8
DETAIL
  6
CONTINUOUS
 62
     5
 10
-355.582305
 20
1583.68218
 30
0.0
 11
-357.85591
 21
1572.563388
 31
0.0
  0
LINE
  5
D0C
  8
DETAIL
  6
CONTINUOUS
 62
     5
 10
-352.594486
 20
1594.629844
 30
0.0
 11
-355.582305
 21
1583.68218
 31
0.0
  0
LINE
  5
D0D
  8
DETAIL
  6
CONTINUOUS
 62
     5
 10
-348.905019
 20
1605.360332
 30
0.0
 11
-352.594486
 21
1594.629844
 31
0.0
  0
LINE
  5
D0E
  8
DETAIL
  6
CONTINUOUS
 62
     5
 10
-344.529425
 20
1615.828505
 30
0.0
 11
-348.905019
 21
1605.360332
 31
0.0
  0
LINE
  5
D0F
  8
DETAIL
  6
CONTINUOUS
 62
     5
 10
-339.486109
 20
1625.990329
 30
0.0
 11
-344.529425
 21
1615.828505
 31
0.0
  0
LINE
  5
D10
  8
DETAIL
  6
CONTINUOUS
 62
     5
 10
-333.796286
 20
1635.803061
 30
0.0
 11
-339.486109
 21
1625.990329
 31
0.0
  0
LINE
  5
D11
  8
DETAIL
  6
CONTINUOUS
 62
     5
 10
-358.04859
 20
1561.32024
 30
0.0
 11
-358.865618
 21
1550.000029
 31
0.0
  0
LINE
  5
D12
  8
DETAIL
  6
CONTINUOUS
 62
     5
 10
-356.50349
 20
1572.563388
 30
0.0
 11
-358.04859
 21
1561.32024
 31
0.0
  0
LINE
  5
D13
  8
DETAIL
  6
CONTINUOUS
 62
     5
 10
-354.236819
 20
1583.68218
 30
0.0
 11
-356.50349
 21
1572.563388
 31
0.0
  0
LINE
  5
D14
  8
DETAIL
  6
CONTINUOUS
 62
     5
 10
-351.258111
 20
1594.629844
 30
0.0
 11
-354.236819
 21
1583.68218
 31
0.0
  0
LINE
  5
D15
  8
DETAIL
  6
CONTINUOUS
 62
     5
 10
-347.579896
 20
1605.360332
 30
0.0
 11
-351.258111
 21
1594.629844
 31
0.0
  0
LINE
  5
D16
  8
DETAIL
  6
CONTINUOUS
 62
     5
 10
-343.217645
 20
1615.828505
 30
0.0
 11
-347.579896
 21
1605.360332
 31
0.0
  0
LINE
  5
D17
  8
DETAIL
  6
CONTINUOUS
 62
     5
 10
-338.18971
 20
1625.990329
 30
0.0
 11
-343.217645
 21
1615.828505
 31
0.0
  0
LINE
  5
D18
  8
DETAIL
  6
CONTINUOUS
 62
     5
 10
-332.517238
 20
1635.803061
 30
0.0
 11
-338.18971
 21
1625.990329
 31
0.0
  0
LINE
  5
D19
  8
DETAIL
  6
CONTINUOUS
 62
     5
 10
-358.362175
 20
1561.32024
 30
0.0
 11
-359.179204
 21
1550.000029
 31
0.0
  0
LINE
  5
D1A
  8
DETAIL
  6
CONTINUOUS
 62
     5
 10
-356.817075
 20
1572.563388
 30
0.0
 11
-358.362175
 21
1561.32024
 31
0.0
  0
LINE
  5
D1B
  8
DETAIL
  6
CONTINUOUS
 62
     5
 10
-354.550404
 20
1583.68218
 30
0.0
 11
-356.817075
 21
1572.563388
 31
0.0
  0
LINE
  5
D1C
  8
DETAIL
  6
CONTINUOUS
 62
     5
 10
-351.571696
 20
1594.629844
 30
0.0
 11
-354.550404
 21
1583.68218
 31
0.0
  0
LINE
  5
D1D
  8
DETAIL
  6
CONTINUOUS
 62
     5
 10
-347.893481
 20
1605.360332
 30
0.0
 11
-351.571696
 21
1594.629844
 31
0.0
  0
LINE
  5
D1E
  8
DETAIL
  6
CONTINUOUS
 62
     5
 10
-343.531231
 20
1615.828505
 30
0.0
 11
-347.893481
 21
1605.360332
 31
0.0
  0
LINE
  5
D1F
  8
DETAIL
  6
CONTINUOUS
 62
     5
 10
-338.503295
 20
1625.990329
 30
0.0
 11
-343.531231
 21
1615.828505
 31
0.0
  0
LINE
  5
D20
  8
DETAIL
  6
CONTINUOUS
 62
     5
 10
-332.830823
 20
1635.803061
 30
0.0
 11
-338.503295
 21
1625.990329
 31
0.0
  0
LINE
  5
D21
  8
DETAIL
  6
CONTINUOUS
 62
     5
 10
-356.464486
 20
1561.32024
 30
0.0
 11
-357.27802
 21
1550.000029
 31
0.0
  0
LINE
  5
D22
  8
DETAIL
  6
CONTINUOUS
 62
     5
 10
-354.925995
 20
1572.563388
 30
0.0
 11
-356.464486
 21
1561.32024
 31
0.0
  0
LINE
  5
D23
  8
DETAIL
  6
CONTINUOUS
 62
     5
 10
-352.669019
 20
1583.68218
 30
0.0
 11
-354.925995
 21
1572.563388
 31
0.0
  0
LINE
  5
D24
  8
DETAIL
  6
CONTINUOUS
 62
     5
 10
-349.703052
 20
1594.629844
 30
0.0
 11
-352.669019
 21
1583.68218
 31
0.0
  0
LINE
  5
D25
  8
DETAIL
  6
CONTINUOUS
 62
     5
 10
-346.040569
 20
1605.360332
 30
0.0
 11
-349.703052
 21
1594.629844
 31
0.0
  0
LINE
  5
D26
  8
DETAIL
  6
CONTINUOUS
 62
     5
 10
-341.696977
 20
1615.828505
 30
0.0
 11
-346.040569
 21
1605.360332
 31
0.0
  0
LINE
  5
D27
  8
DETAIL
  6
CONTINUOUS
 62
     5
 10
-336.690547
 20
1625.990329
 30
0.0
 11
-341.696977
 21
1615.828505
 31
0.0
  0
LINE
  5
D28
  8
DETAIL
  6
CONTINUOUS
 62
     5
 10
-331.042338
 20
1635.803061
 30
0.0
 11
-336.690547
 21
1625.990329
 31
0.0
  0
LINE
  5
D29
  8
DETAIL
  6
CONTINUOUS
 62
     5
 10
-356.882005
 20
1561.32024
 30
0.0
 11
-357.695539
 21
1550.000029
 31
0.0
  0
LINE
  5
D2A
  8
DETAIL
  6
CONTINUOUS
 62
     5
 10
-355.343514
 20
1572.563388
 30
0.0
 11
-356.882005
 21
1561.32024
 31
0.0
  0
LINE
  5
D2B
  8
DETAIL
  6
CONTINUOUS
 62
     5
 10
-353.086538
 20
1583.68218
 30
0.0
 11
-355.343514
 21
1572.563388
 31
0.0
  0
LINE
  5
D2C
  8
DETAIL
  6
CONTINUOUS
 62
     5
 10
-350.120571
 20
1594.629844
 30
0.0
 11
-353.086538
 21
1583.68218
 31
0.0
  0
LINE
  5
D2D
  8
DETAIL
  6
CONTINUOUS
 62
     5
 10
-346.458089
 20
1605.360332
 30
0.0
 11
-350.120571
 21
1594.629844
 31
0.0
  0
LINE
  5
D2E
  8
DETAIL
  6
CONTINUOUS
 62
     5
 10
-342.114497
 20
1615.828505
 30
0.0
 11
-346.458089
 21
1605.360332
 31
0.0
  0
LINE
  5
D2F
  8
DETAIL
  6
CONTINUOUS
 62
     5
 10
-337.108067
 20
1625.990329
 30
0.0
 11
-342.114497
 21
1615.828505
 31
0.0
  0
LINE
  5
D30
  8
DETAIL
  6
CONTINUOUS
 62
     5
 10
-331.459858
 20
1635.803061
 30
0.0
 11
-337.108067
 21
1625.990329
 31
0.0
  0
LINE
  5
D31
  8
DETAIL
  6
CONTINUOUS
 62
     5
 10
-354.446085
 20
1561.32024
 30
0.0
 11
-355.255133
 21
1550.000029
 31
0.0
  0
LINE
  5
D32
  8
DETAIL
  6
CONTINUOUS
 62
     5
 10
-352.916077
 20
1572.563388
 30
0.0
 11
-354.446085
 21
1561.32024
 31
0.0
  0
LINE
  5
D33
  8
DETAIL
  6
CONTINUOUS
 62
     5
 10
-350.671546
 20
1583.68218
 30
0.0
 11
-352.916077
 21
1572.563388
 31
0.0
  0
LINE
  5
D34
  8
DETAIL
  6
CONTINUOUS
 62
     5
 10
-347.721933
 20
1594.629844
 30
0.0
 11
-350.671546
 21
1583.68218
 31
0.0
  0
LINE
  5
D35
  8
DETAIL
  6
CONTINUOUS
 62
     5
 10
-344.079646
 20
1605.360332
 30
0.0
 11
-347.721933
 21
1594.629844
 31
0.0
  0
LINE
  5
D36
  8
DETAIL
  6
CONTINUOUS
 62
     5
 10
-339.760004
 20
1615.828505
 30
0.0
 11
-344.079646
 21
1605.360332
 31
0.0
  0
LINE
  5
D37
  8
DETAIL
  6
CONTINUOUS
 62
     5
 10
-334.78118
 20
1625.990329
 30
0.0
 11
-339.760004
 21
1615.828505
 31
0.0
  0
LINE
  5
D38
  8
DETAIL
  6
CONTINUOUS
 62
     5
 10
-329.164115
 20
1635.803061
 30
0.0
 11
-334.78118
 21
1625.990329
 31
0.0
  0
LINE
  5
D39
  8
DETAIL
  6
CONTINUOUS
 62
     5
 10
-354.96703
 20
1561.32024
 30
0.0
 11
-355.776078
 21
1550.000029
 31
0.0
  0
LINE
  5
D3A
  8
DETAIL
  6
CONTINUOUS
 62
     5
 10
-353.437022
 20
1572.563388
 30
0.0
 11
-354.96703
 21
1561.32024
 31
0.0
  0
LINE
  5
D3B
  8
DETAIL
  6
CONTINUOUS
 62
     5
 10
-351.192491
 20
1583.68218
 30
0.0
 11
-353.437022
 21
1572.563388
 31
0.0
  0
LINE
  5
D3C
  8
DETAIL
  6
CONTINUOUS
 62
     5
 10
-348.242878
 20
1594.629844
 30
0.0
 11
-351.192491
 21
1583.68218
 31
0.0
  0
LINE
  5
D3D
  8
DETAIL
  6
CONTINUOUS
 62
     5
 10
-344.60059
 20
1605.360332
 30
0.0
 11
-348.242878
 21
1594.629844
 31
0.0
  0
LINE
  5
D3E
  8
DETAIL
  6
CONTINUOUS
 62
     5
 10
-340.280949
 20
1615.828505
 30
0.0
 11
-344.60059
 21
1605.360332
 31
0.0
  0
LINE
  5
D3F
  8
DETAIL
  6
CONTINUOUS
 62
     5
 10
-335.302124
 20
1625.990329
 30
0.0
 11
-340.280949
 21
1615.828505
 31
0.0
  0
LINE
  5
D40
  8
DETAIL
  6
CONTINUOUS
 62
     5
 10
-329.685059
 20
1635.803061
 30
0.0
 11
-335.302124
 21
1625.990329
 31
0.0
  0
LINE
  5
D41
  8
DETAIL
  6
CONTINUOUS
 62
     5
 10
-351.995846
 20
1561.32024
 30
0.0
 11
-352.799423
 21
1550.000029
 31
0.0
  0
LINE
  5
D42
  8
DETAIL
  6
CONTINUOUS
 62
     5
 10
-350.476186
 20
1572.563388
 30
0.0
 11
-351.995846
 21
1561.32024
 31
0.0
  0
LINE
  5
D43
  8
DETAIL
  6
CONTINUOUS
 62
     5
 10
-348.246834
 20
1583.68218
 30
0.0
 11
-350.476186
 21
1572.563388
 31
0.0
  0
LINE
  5
D44
  8
DETAIL
  6
CONTINUOUS
 62
     5
 10
-345.317169
 20
1594.629844
 30
0.0
 11
-348.246834
 21
1583.68218
 31
0.0
  0
LINE
  5
D45
  8
DETAIL
  6
CONTINUOUS
 62
     5
 10
-341.699514
 20
1605.360332
 30
0.0
 11
-345.317169
 21
1594.629844
 31
0.0
  0
LINE
  5
D46
  8
DETAIL
  6
CONTINUOUS
 62
     5
 10
-337.409086
 20
1615.828505
 30
0.0
 11
-341.699514
 21
1605.360332
 31
0.0
  0
LINE
  5
D49
  8
DETAIL
  6
CONTINUOUS
 62
     5
 10
-352.619581
 20
1561.32024
 30
0.0
 11
-353.423158
 21
1550.000029
 31
0.0
  0
LINE
  5
D4A
  8
DETAIL
  6
CONTINUOUS
 62
     5
 10
-351.099921
 20
1572.563388
 30
0.0
 11
-352.619581
 21
1561.32024
 31
0.0
  0
LINE
  5
D4B
  8
DETAIL
  6
CONTINUOUS
 62
     5
 10
-348.87057
 20
1583.68218
 30
0.0
 11
-351.099921
 21
1572.563388
 31
0.0
  0
LINE
  5
D4C
  8
DETAIL
  6
CONTINUOUS
 62
     5
 10
-345.940904
 20
1594.629844
 30
0.0
 11
-348.87057
 21
1583.68218
 31
0.0
  0
LINE
  5
D4D
  8
DETAIL
  6
CONTINUOUS
 62
     5
 10
-342.323249
 20
1605.360332
 30
0.0
 11
-345.940904
 21
1594.629844
 31
0.0
  0
LINE
  5
D4E
  8
DETAIL
  6
CONTINUOUS
 62
     5
 10
-338.032821
 20
1615.828505
 30
0.0
 11
-342.323249
 21
1605.360332
 31
0.0
  0
LINE
  5
D4F
  8
DETAIL
  6
CONTINUOUS
 62
     5
 10
-333.087668
 20
1625.990329
 30
0.0
 11
-338.032821
 21
1615.828505
 31
0.0
  0
LINE
  5
D51
  8
DETAIL
  6
CONTINUOUS
 62
     5
 10
-442.663622
 20
54.00158
 30
0.0
 11
-442.578676
 21
54.000406
 31
0.0
  0
LINE
  5
D52
  8
DETAIL
  6
CONTINUOUS
 62
     5
 10
-442.737495
 20
54.00346
 30
0.0
 11
-442.663622
 21
54.00158
 31
0.0
  0
LINE
  5
D53
  8
DETAIL
  6
CONTINUOUS
 62
     5
 10
-442.801015
 20
54.005977
 30
0.0
 11
-442.737495
 21
54.00346
 31
0.0
  0
LINE
  5
D54
  8
DETAIL
  6
CONTINUOUS
 62
     5
 10
391.000007
 20
59.000001
 30
0.0
 11
455.200008
 21
59.000001
 31
0.0
  0
LINE
  5
D55
  8
DETAIL
  6
CONTINUOUS
 62
     5
 10
-455.200008
 20
59.000001
 30
0.0
 11
-391.000007
 21
59.000001
 31
0.0
  0
LINE
  5
D56
  8
DETAIL
  6
CONTINUOUS
 62
     5
 10
-455.200008
 20
54.0
 30
0.0
 11
384.700007
 21
54.0001
 31
0.0
  0
LINE
  5
D57
  8
DETAIL
  6
CONTINUOUS
 62
     5
 10
-432.000008
 20
47.300001
 30
0.0
 11
-390.500007
 21
47.300001
 31
0.0
  0
LINE
  5
D58
  8
DETAIL
  6
CONTINUOUS
 62
     5
 10
432.000008
 20
47.300001
 30
0.0
 11
390.500007
 21
47.300001
 31
0.0
  0
LINE
  5
D59
  8
DETAIL
  6
CONTINUOUS
 62
     5
 10
390.500007
 20
45.000001
 30
0.0
 11
432.000008
 21
45.000001
 31
0.0
  0
LINE
  5
D5A
  8
DETAIL
  6
CONTINUOUS
 62
     5
 10
-390.500007
 20
45.000001
 30
0.0
 11
-432.000008
 21
45.000001
 31
0.0
  0
LINE
  5
D5E
  8
DETAIL
  6
CONTINUOUS
 62
     5
 10
-99.942826
 20
1640.295965
 30
0.0
 11
-100.538568
 21
1639.692097
 31
0.0
  0
LINE
  5
D5F
  8
DETAIL
  6
CONTINUOUS
 62
     5
 10
-99.321735
 20
1640.50003
 30
0.0
 11
-99.942826
 21
1640.295965
 31
0.0
  0
LINE
  5
D63
  8
DETAIL
  6
CONTINUOUS
 62
     5
 10
-102.795995
 20
1640.295965
 30
0.0
 11
-103.391737
 21
1639.692097
 31
0.0
  0
LINE
  5
D64
  8
DETAIL
  6
CONTINUOUS
 62
     5
 10
-102.174904
 20
1640.50003
 30
0.0
 11
-102.795995
 21
1640.295965
 31
0.0
  0
LINE
  5
D68
  8
DETAIL
  6
CONTINUOUS
 62
     5
 10
-88.977718
 20
1640.295965
 30
0.0
 11
-89.509109
 21
1639.692097
 31
0.0
  0
LINE
  5
D69
  8
DETAIL
  6
CONTINUOUS
 62
     5
 10
-88.423716
 20
1640.50003
 30
0.0
 11
-88.977718
 21
1640.295965
 31
0.0
  0
LINE
  5
D6D
  8
DETAIL
  6
CONTINUOUS
 62
     5
 10
-91.861503
 20
1640.295965
 30
0.0
 11
-92.392894
 21
1639.692097
 31
0.0
  0
LINE
  5
D6E
  8
DETAIL
  6
CONTINUOUS
 62
     5
 10
-91.307502
 20
1640.50003
 30
0.0
 11
-91.861503
 21
1640.295965
 31
0.0
  0
LINE
  5
D72
  8
DETAIL
  6
CONTINUOUS
 62
     5
 10
-77.904204
 20
1640.295965
 30
0.0
 11
-78.370597
 21
1639.692097
 31
0.0
  0
LINE
  5
D73
  8
DETAIL
  6
CONTINUOUS
 62
     5
 10
-77.417967
 20
1640.50003
 30
0.0
 11
-77.904204
 21
1640.295965
 31
0.0
  0
LINE
  5
D77
  8
DETAIL
  6
CONTINUOUS
 62
     5
 10
-80.815092
 20
1640.295965
 30
0.0
 11
-81.281484
 21
1639.692097
 31
0.0
  0
LINE
  5
D78
  8
DETAIL
  6
CONTINUOUS
 62
     5
 10
-80.328855
 20
1640.50003
 30
0.0
 11
-80.815092
 21
1640.295965
 31
0.0
  0
LINE
  5
D7C
  8
DETAIL
  6
CONTINUOUS
 62
     5
 10
-66.735777
 20
1640.295965
 30
0.0
 11
-67.136602
 21
1639.692097
 31
0.0
  0
LINE
  5
D7D
  8
DETAIL
  6
CONTINUOUS
 62
     5
 10
-66.317897
 20
1640.50003
 30
0.0
 11
-66.735777
 21
1640.295965
 31
0.0
  0
LINE
  5
D81
  8
DETAIL
  6
CONTINUOUS
 62
     5
 10
-69.67022
 20
1640.295965
 30
0.0
 11
-70.071045
 21
1639.692097
 31
0.0
  0
LINE
  5
D82
  8
DETAIL
  6
CONTINUOUS
 62
     5
 10
-69.252339
 20
1640.50003
 30
0.0
 11
-69.67022
 21
1640.295965
 31
0.0
  0
LINE
  5
D83
  8
DETAIL
  6
CONTINUOUS
 62
     5
 10
-432.000008
 20
15.0
 30
0.0
 11
-390.500007
 21
15.0
 31
0.0
  0
LINE
  5
D84
  8
DETAIL
  6
CONTINUOUS
 62
     5
 10
432.000008
 20
15.0
 30
0.0
 11
390.500007
 21
15.0
 31
0.0
  0
LINE
  5
D85
  8
DETAIL
  6
CONTINUOUS
 62
     5
 10
390.500007
 20
12.7
 30
0.0
 11
432.000008
 21
12.7
 31
0.0
  0
LINE
  5
D86
  8
DETAIL
  6
CONTINUOUS
 62
     5
 10
-390.500007
 20
12.7
 30
0.0
 11
-432.000008
 21
12.7
 31
0.0
  0
LINE
  5
D87
  8
DETAIL
  6
CONTINUOUS
 62
     5
 10
-449.500008
 20
9.0
 30
0.0
 11
-454.500008
 21
9.0
 31
0.0
  0
LINE
  5
D88
  8
DETAIL
  6
CONTINUOUS
 62
     5
 10
454.500008
 20
9.0
 30
0.0
 11
449.500008
 21
9.0
 31
0.0
  0
LINE
  5
D8C
  8
DETAIL
  6
CONTINUOUS
 62
     5
 10
-110.786168
 20
1640.295965
 30
0.0
 11
-111.445536
 21
1639.692097
 31
0.0
  0
LINE
  5
D8D
  8
DETAIL
  6
CONTINUOUS
 62
     5
 10
-110.098745
 20
1640.50003
 30
0.0
 11
-110.786168
 21
1640.295965
 31
0.0
  0
LINE
  5
D91
  8
DETAIL
  6
CONTINUOUS
 62
     5
 10
-113.605246
 20
1640.295965
 30
0.0
 11
-114.264614
 21
1639.692097
 31
0.0
  0
LINE
  5
D92
  8
DETAIL
  6
CONTINUOUS
 62
     5
 10
-112.917823
 20
1640.50003
 30
0.0
 11
-113.605246
 21
1640.295965
 31
0.0
  0
LINE
  5
D96
  8
DETAIL
  6
CONTINUOUS
 62
     5
 10
-264.506884
 20
1640.295965
 30
0.0
 11
-266.066558
 21
1639.692097
 31
0.0
  0
LINE
  5
D97
  8
DETAIL
  6
CONTINUOUS
 62
     5
 10
384.700007
 20
731.500014
 30
0.0
 11
385.500007
 21
731.500014
 31
0.0
  0
LINE
  5
D98
  8
DETAIL
  6
CONTINUOUS
 62
     5
 10
409.343153
 20
1410.000026
 30
0.0
 11
409.343153
 21
1370.000025
 31
0.0
  0
LINE
  5
D99
  8
DETAIL
  6
CONTINUOUS
 62
     5
 10
-449.500008
 20
0.0
 30
0.0
 11
449.500008
 21
0.0
 31
0.0
  0
LINE
  5
D9A
  8
DETAIL
  6
CONTINUOUS
 62
     5
 10
-449.500008
 20
2.3
 30
0.0
 11
449.500008
 21
2.3
 31
0.0
  0
LINE
  5
D9B
  8
BASIS
  6
DASHDOT
 62
     6
 10
0.0
 20
-57.51034
 30
0.0
 11
0.0
 21
1735.11879
 31
0.0
  0
LINE
  5
D9C
  8
ARRANGE
  6
CONTINUOUS
 62
     1
 10
-37.897321
 20
-37.897321
 30
0.0
 11
37.897321
 21
37.897321
 31
0.0
  0
LINE
  5
D9D
  8
ARRANGE
  6
CONTINUOUS
 62
     1
 10
-37.897321
 20
37.897321
 30
0.0
 11
37.897321
 21
-37.897321
 31
0.0
  0
CIRCLE
  5
D9E
  8
ARRANGE
  6
CONTINUOUS
 62
     1
 10
0.0
 20
0.0
 30
0.0
 40
34.449674
  0
LINE
  5
D9F
  8
NOTE
  6
CONTINUOUS
 62
     4
 10
-380.0
 20
-24.072637
 30
0.0
 11
-380.0
 21
20.810449
 31
0.0
  0
LINE
  5
DA0
  8
NOTE
  6
CONTINUOUS
 62
     4
 10
380.0
 20
-24.072637
 30
0.0
 11
380.0
 21
20.810449
 31
0.0
  0
LINE
  5
DA1
  8
NOTE
  6
CONTINUOUS
 62
     4
 10
-397.207055
 20
0.0
 30
0.0
 11
-362.674576
 21
0.0
 31
0.0
  0
LINE
  5
DA2
  8
NOTE
  6
CONTINUOUS
 62
     4
 10
361.751151
 20
0.0
 30
0.0
 11
398.248863
 21
0.0
 31
0.0
  0
CIRCLE
  5
DA3
  8
FIX
  6
CONTINUOUS
 62
    11
 10
-379.940815
 20
0.0
 30
0.0
 40
18.598564
  0
CIRCLE
  5
DA4
  8
FIX
  6
CONTINUOUS
 62
    11
 10
379.842291
 20
0.0
 30
0.0
 40
18.598564
  0
LINE
  5
DA5
  8
SIZE
  6
CONTINUOUS
 62
    30
 10
-460.000009
 20
1430.000026
 30
0.0
 11
-460.000009
 21
2015.66219
 31
0.0
  0
LINE
  5
DA6
  8
SIZE
  6
CONTINUOUS
 62
    30
 10
460.000009
 20
1430.000026
 30
0.0
 11
460.000009
 21
2015.66219
 31
0.0
  0
LINE
  5
DA7
  8
SIZE
  6
CONTINUOUS
 62
    30
 10
-450.000009
 20
1985.66219
 30
0.0
 11
450.000009
 21
1985.66219
 31
0.0
  0
CIRCLE
  5
DA8
  8
SIZE
  6
CONTINUOUS
 62
    30
 10
-460.000009
 20
1985.66219
 30
0.0
 40
5.0
  0
LINE
  5
DA9
  8
SIZE
  6
CONTINUOUS
 62
    30
 10
-455.000009
 20
1985.66219
 30
0.0
 11
-450.000009
 21
1985.66219
 31
0.0
  0
CIRCLE
  5
DAA
  8
SIZE
  6
CONTINUOUS
 62
    30
 10
460.000009
 20
1985.66219
 30
0.0
 40
5.0
  0
LINE
  5
DAB
  8
SIZE
  6
CONTINUOUS
 62
    30
 10
455.000009
 20
1985.66219
 30
0.0
 11
450.000009
 21
1985.66219
 31
0.0
  0
TEXT
  5
DAC
  8
SIZE
  6
CONTINUOUS
 62
    30
 10
-67.346658
 20
2000.66219
 30
0.0
 40
55.0
  1
920
 41
0.9
 72
     1
 11
-3.703801
 21
2000.66219
 31
0.0
  0
POINT
  5
DAD
  8
DEFPOINTS
  6
CONTINUOUS
 62
     7
 10
-460.000009
 20
1410.000026
 30
0.0
  0
POINT
  5
DAE
  8
DEFPOINTS
  6
CONTINUOUS
 62
     7
 10
460.000009
 20
1410.000026
 30
0.0
  0
POINT
  5
DAF
  8
DEFPOINTS
  6
CONTINUOUS
 62
     7
 10
460.000009
 20
1985.66219
 30
0.0
  0
TEXT
  5
DB0
  8
ETC
  6
CONTINUOUS
 62
    61
 10
742.507198
 20
1945.272839
 30
0.0
 40
90.0
  1
PURY-P280_335CM-E_2
 50
0.000003
 41
0.603059
  7
STANDARD1
  0
TEXT
  5
DB1
  8
NOTE
  6
CONTINUOUS
 62
     4
 10
23.687269
 20
651.161092
 30
0.0
 40
55.0
  1
RL %%C19.05
 50
359.999997
 41
0.630952
  7
STANDARD1
  0
LINE
  5
DB2
  8
NOTE
  6
CONTINUOUS
 62
     4
 10
10.709221
 20
640.816274
 30
0.0
 11
310.677588
 21
640.816274
 31
0.0
  0
TEXT
  5
DB3
  8
NOTE
  6
CONTINUOUS
 62
     4
 10
19.962057
 20
426.333714
 30
0.0
 40
55.0
  1
CL %%C34ﾉｯｸｱｳﾄ穴
 50
359.999997
 41
0.630952
  7
STANDARD1
  0
LINE
  5
DB4
  8
NOTE
  6
CONTINUOUS
 62
     4
 10
11.844277
 20
418.385372
 30
0.0
 11
384.145552
 21
418.385372
 31
0.0
  0
TEXT
  5
DB5
  8
NOTE
  6
CONTINUOUS
 62
     4
 10
-1284.774208
 20
613.151442
 30
0.0
 40
55.0
  1
EL2 %%C52もしくは%%C27ﾉｯｸｱｳﾄ穴
 50
359.999997
 41
0.630952
  7
STANDARD1
  0
LINE
  5
DB6
  8
NOTE
  6
CONTINUOUS
 62
     4
 10
-1299.295738
 20
602.806625
 30
0.0
 11
-620.987821
 21
602.806625
 31
0.0
  0
TEXT
  5
DB7
  8
NOTE
  6
CONTINUOUS
 62
     4
 10
-1287.072492
 20
489.158487
 30
0.0
 40
55.0
  1
EL1 %%C65もしくは%%C40ﾉｯｸｱｳﾄ穴
 50
359.999997
 41
0.630952
  7
STANDARD1
  0
LINE
  5
DB8
  8
NOTE
  6
CONTINUOUS
 62
     4
 10
-1301.594022
 20
478.81367
 30
0.0
 11
-637.98595
 21
478.81367
 31
0.0
  0
LINE
  5
DB9
  8
OUTLINE
  6
CONTINUOUS
 62
     3
 10
449.500008
 20
9.0
 30
0.0
 11
449.500008
 21
0.0
 31
0.0
  0
LINE
  5
DBA
  8
OUTLINE
  6
CONTINUOUS
 62
     3
 10
-449.500008
 20
9.0
 30
0.0
 11
-449.500008
 21
0.0
 31
0.0
  0
LINE
  5
DBB
  8
OUTLINE
  6
CONTINUOUS
 62
     3
 10
-333.116963
 20
1637.398847
 30
0.0
 11
-334.355069
 21
1635.803061
 31
0.0
  0
LINE
  5
DBC
  8
OUTLINE
  6
CONTINUOUS
 62
     3
 10
-331.583582
 20
1638.713072
 30
0.0
 11
-333.116963
 21
1637.398847
 31
0.0
  0
LINE
  5
DBD
  8
OUTLINE
  6
CONTINUOUS
 62
     3
 10
-329.817508
 20
1639.692097
 30
0.0
 11
-331.583582
 21
1638.713072
 31
0.0
  0
LINE
  5
DBE
  8
OUTLINE
  6
CONTINUOUS
 62
     3
 10
-327.89082
 20
1640.295965
 30
0.0
 11
-329.817508
 21
1639.692097
 31
0.0
  0
LINE
  5
DBF
  8
OUTLINE
  6
CONTINUOUS
 62
     3
 10
-325.882152
 20
1640.50003
 30
0.0
 11
-327.89082
 21
1640.295965
 31
0.0
  0
LINE
  5
DC0
  8
OUTLINE
  6
CONTINUOUS
 62
     3
 10
-79.99997
 20
1650.000031
 30
0.0
 11
0.0
 21
1650.000031
 31
0.0
  0
LINE
  5
DC1
  8
OUTLINE
  6
CONTINUOUS
 62
     3
 10
-360.727746
 20
1550.000029
 30
0.0
 11
-360.968586
 21
1550.000029
 31
0.0
  0
LINE
  5
DC2
  8
OUTLINE
  6
CONTINUOUS
 62
     3
 10
-460.000009
 20
1410.000026
 30
0.0
 11
460.000009
 21
1410.000026
 31
0.0
  0
LINE
  5
DC3
  8
OUTLINE
  6
CONTINUOUS
 62
     3
 10
460.000009
 20
1370.000025
 30
0.0
 11
460.000009
 21
1410.000026
 31
0.0
  0
LINE
  5
DC4
  8
OUTLINE
  6
CONTINUOUS
 62
     3
 10
455.200008
 20
54.000001
 30
0.0
 11
455.200008
 21
1370.000025
 31
0.0
  0
LINE
  5
DC5
  8
OUTLINE
  6
CONTINUOUS
 62
     3
 10
454.500008
 20
54.000108
 30
0.0
 11
454.500008
 21
9.0
 31
0.0
  0
LINE
  5
DC6
  8
OUTLINE
  6
CONTINUOUS
 62
     3
 10
-80.000001
 20
1649.300031
 30
0.0
 11
-80.000001
 21
1650.000031
 31
0.0
  0
LINE
  5
DC7
  8
OUTLINE
  6
CONTINUOUS
 62
     3
 10
-100.000002
 20
1649.300031
 30
0.0
 11
-100.000002
 21
1648.60003
 31
0.0
  0
LINE
  5
DC8
  8
OUTLINE
  6
CONTINUOUS
 62
     3
 10
-120.000002
 20
1648.60003
 30
0.0
 11
-120.000002
 21
1647.90003
 31
0.0
  0
LINE
  5
DC9
  8
OUTLINE
  6
CONTINUOUS
 62
     3
 10
-140.000003
 20
1647.90003
 30
0.0
 11
-140.000003
 21
1647.20003
 31
0.0
  0
LINE
  5
DCA
  8
OUTLINE
  6
CONTINUOUS
 62
     3
 10
-160.000003
 20
1647.20003
 30
0.0
 11
-160.000003
 21
1646.50003
 31
0.0
  0
LINE
  5
DCB
  8
OUTLINE
  6
CONTINUOUS
 62
     3
 10
-180.000003
 20
1646.50003
 30
0.0
 11
-180.000003
 21
1645.80003
 31
0.0
  0
LINE
  5
DCC
  8
OUTLINE
  6
CONTINUOUS
 62
     3
 10
-200.000004
 20
1645.80003
 30
0.0
 11
-200.000004
 21
1645.10003
 31
0.0
  0
LINE
  5
DCD
  8
OUTLINE
  6
CONTINUOUS
 62
     3
 10
-220.000004
 20
1645.10003
 30
0.0
 11
-220.000004
 21
1644.40003
 31
0.0
  0
LINE
  5
DCE
  8
OUTLINE
  6
CONTINUOUS
 62
     3
 10
-240.000004
 20
1644.40003
 30
0.0
 11
-240.000004
 21
1643.70003
 31
0.0
  0
LINE
  5
DCF
  8
OUTLINE
  6
CONTINUOUS
 62
     3
 10
-260.000005
 20
1643.70003
 30
0.0
 11
-260.000005
 21
1643.00003
 31
0.0
  0
LINE
  5
DD0
  8
OUTLINE
  6
CONTINUOUS
 62
     3
 10
-280.000005
 20
1643.00003
 30
0.0
 11
-280.000005
 21
1642.30003
 31
0.0
  0
LINE
  5
DD1
  8
OUTLINE
  6
CONTINUOUS
 62
     3
 10
-300.000006
 20
1642.30003
 30
0.0
 11
-300.000006
 21
1641.60003
 31
0.0
  0
LINE
  5
DD2
  8
OUTLINE
  6
CONTINUOUS
 62
     3
 10
-320.000006
 20
1641.60003
 30
0.0
 11
-320.000006
 21
1640.50003
 31
0.0
  0
LINE
  5
DD3
  8
OUTLINE
  6
CONTINUOUS
 62
     3
 10
-393.625478
 20
1410.081245
 30
0.0
 11
-395.831524
 21
1410.000026
 31
0.0
  0
LINE
  5
DD4
  8
OUTLINE
  6
CONTINUOUS
 62
     3
 10
-391.431312
 20
1410.324474
 30
0.0
 11
-393.625478
 21
1410.081245
 31
0.0
  0
LINE
  5
DD5
  8
OUTLINE
  6
CONTINUOUS
 62
     3
 10
-389.260971
 20
1410.728394
 30
0.0
 11
-391.431312
 21
1410.324474
 31
0.0
  0
LINE
  5
DD6
  8
OUTLINE
  6
CONTINUOUS
 62
     3
 10
-387.126202
 20
1411.290821
 30
0.0
 11
-389.260971
 21
1410.728394
 31
0.0
  0
LINE
  5
DD7
  8
OUTLINE
  6
CONTINUOUS
 62
     3
 10
-385.038571
 20
1412.008709
 30
0.0
 11
-387.126202
 21
1411.290821
 31
0.0
  0
LINE
  5
DD8
  8
OUTLINE
  6
CONTINUOUS
 62
     3
 10
-383.009385
 20
1412.878169
 30
0.0
 11
-385.038571
 21
1412.008709
 31
0.0
  0
LINE
  5
DD9
  8
OUTLINE
  6
CONTINUOUS
 62
     3
 10
-381.049631
 20
1413.894494
 30
0.0
 11
-383.009385
 21
1412.878169
 31
0.0
  0
LINE
  5
DDA
  8
OUTLINE
  6
CONTINUOUS
 62
     3
 10
-379.169922
 20
1415.05218
 30
0.0
 11
-381.049631
 21
1413.894494
 31
0.0
  0
LINE
  5
DDB
  8
OUTLINE
  6
CONTINUOUS
 62
     3
 10
-377.380436
 20
1416.344958
 30
0.0
 11
-379.169922
 21
1415.05218
 31
0.0
  0
LINE
  5
DDC
  8
OUTLINE
  6
CONTINUOUS
 62
     3
 10
-375.690863
 20
1417.765827
 30
0.0
 11
-377.380436
 21
1416.344958
 31
0.0
  0
LINE
  5
DDD
  8
OUTLINE
  6
CONTINUOUS
 62
     3
 10
-374.110352
 20
1419.307091
 30
0.0
 11
-375.690863
 21
1417.765827
 31
0.0
  0
LINE
  5
DDE
  8
OUTLINE
  6
CONTINUOUS
 62
     3
 10
-372.647463
 20
1420.960405
 30
0.0
 11
-374.110352
 21
1419.307091
 31
0.0
  0
LINE
  5
DDF
  8
OUTLINE
  6
CONTINUOUS
 62
     3
 10
-371.310115
 20
1422.716816
 30
0.0
 11
-372.647463
 21
1420.960405
 31
0.0
  0
LINE
  5
DE0
  8
OUTLINE
  6
CONTINUOUS
 62
     3
 10
-370.105551
 20
1424.56681
 30
0.0
 11
-371.310115
 21
1422.716816
 31
0.0
  0
LINE
  5
DE1
  8
OUTLINE
  6
CONTINUOUS
 62
     3
 10
-369.040294
 20
1426.500368
 30
0.0
 11
-370.105551
 21
1424.56681
 31
0.0
  0
LINE
  5
DE2
  8
OUTLINE
  6
CONTINUOUS
 62
     3
 10
-368.120113
 20
1428.507015
 30
0.0
 11
-369.040294
 21
1426.500368
 31
0.0
  0
LINE
  5
DE3
  8
OUTLINE
  6
CONTINUOUS
 62
     3
 10
-367.349988
 20
1430.575882
 30
0.0
 11
-368.120113
 21
1428.507015
 31
0.0
  0
LINE
  5
DE4
  8
OUTLINE
  6
CONTINUOUS
 62
     3
 10
-366.73409
 20
1432.695755
 30
0.0
 11
-367.349988
 21
1430.575882
 31
0.0
  0
LINE
  5
DE5
  8
OUTLINE
  6
CONTINUOUS
 62
     3
 10
-366.27575
 20
1434.855147
 30
0.0
 11
-366.73409
 21
1432.695755
 31
0.0
  0
LINE
  5
DE6
  8
OUTLINE
  6
CONTINUOUS
 62
     3
 10
-365.977444
 20
1437.042361
 30
0.0
 11
-366.27575
 21
1434.855147
 31
0.0
  0
LINE
  5
DE7
  8
OUTLINE
  6
CONTINUOUS
 62
     3
 10
-365.859844
 20
1438.691445
 30
0.0
 11
-365.977444
 21
1437.042361
 31
0.0
  0
LINE
  5
DE8
  8
OUTLINE
  6
CONTINUOUS
 62
     3
 10
-365.859844
 20
1438.691445
 30
0.0
 11
-360.999525
 21
1550.012167
 31
0.0
  0
LINE
  5
DE9
  8
OUTLINE
  6
CONTINUOUS
 62
     3
 10
-454.500008
 20
9.0
 30
0.0
 11
-454.500008
 21
54.0
 31
0.0
  0
LINE
  5
DEA
  8
OUTLINE
  6
CONTINUOUS
 62
     3
 10
-455.200008
 20
54.0
 30
0.0
 11
-455.200008
 21
1370.000025
 31
0.0
  0
LINE
  5
DEB
  8
OUTLINE
  6
CONTINUOUS
 62
     3
 10
-460.000009
 20
1410.000026
 30
0.0
 11
-460.000009
 21
1370.000025
 31
0.0
  0
LINE
  5
DEC
  8
OUTLINE
  6
CONTINUOUS
 62
     3
 10
-360.011416
 20
1561.32024
 30
0.0
 11
-360.832444
 21
1550.000029
 31
0.0
  0
LINE
  5
DED
  8
OUTLINE
  6
CONTINUOUS
 62
     3
 10
-358.458752
 20
1572.563388
 30
0.0
 11
-360.011416
 21
1561.32024
 31
0.0
  0
LINE
  5
DEE
  8
OUTLINE
  6
CONTINUOUS
 62
     3
 10
-356.180984
 20
1583.68218
 30
0.0
 11
-358.458752
 21
1572.563388
 31
0.0
  0
LINE
  5
DEF
  8
OUTLINE
  6
CONTINUOUS
 62
     3
 10
-353.187693
 20
1594.629844
 30
0.0
 11
-356.180984
 21
1583.68218
 31
0.0
  0
LINE
  5
DF0
  8
OUTLINE
  6
CONTINUOUS
 62
     3
 10
-349.49147
 20
1605.360332
 30
0.0
 11
-353.187693
 21
1594.629844
 31
0.0
  0
LINE
  5
DF1
  8
OUTLINE
  6
CONTINUOUS
 62
     3
 10
-345.107863
 20
1615.828505
 30
0.0
 11
-349.49147
 21
1605.360332
 31
0.0
  0
LINE
  5
DF2
  8
OUTLINE
  6
CONTINUOUS
 62
     3
 10
-340.055312
 20
1625.990329
 30
0.0
 11
-345.107863
 21
1615.828505
 31
0.0
  0
LINE
  5
DF3
  8
OUTLINE
  6
CONTINUOUS
 62
     3
 10
-334.355069
 20
1635.803061
 30
0.0
 11
-340.055312
 21
1625.990329
 31
0.0
  0
LINE
  5
DF4
  8
OUTLINE
  6
CONTINUOUS
 62
     3
 10
-449.500008
 20
9.0
 30
0.0
 11
-454.500008
 21
9.0
 31
0.0
  0
LINE
  5
DF5
  8
OUTLINE
  6
CONTINUOUS
 62
     3
 10
454.500008
 20
9.0
 30
0.0
 11
449.500008
 21
9.0
 31
0.0
  0
LINE
  5
DF6
  8
OUTLINE
  6
CONTINUOUS
 62
     3
 10
-449.500008
 20
0.0
 30
0.0
 11
449.500008
 21
0.0
 31
0.0
  0
LINE
  5
DF7
  8
OUTLINE
  6
CONTINUOUS
 62
     3
 10
-460.000009
 20
1370.000025
 30
0.0
 11
-455.200008
 21
1370.000025
 31
0.0
  0
LINE
  5
DF8
  8
OUTLINE
  6
CONTINUOUS
 62
     3
 10
455.200008
 20
1370.000025
 30
0.0
 11
460.000009
 21
1370.000025
 31
0.0
  0
LINE
  5
DF9
  8
OUTLINE
  6
CONTINUOUS
 62
     3
 10
-325.882152
 20
1640.50003
 30
0.0
 11
-320.000006
 21
1640.50003
 31
0.0
  0
LINE
  5
DFA
  8
OUTLINE
  6
CONTINUOUS
 62
     3
 10
-320.000006
 20
1641.60003
 30
0.0
 11
-300.000006
 21
1641.60003
 31
0.0
  0
LINE
  5
DFB
  8
OUTLINE
  6
CONTINUOUS
 62
     3
 10
-300.000006
 20
1642.30003
 30
0.0
 11
-280.000005
 21
1642.30003
 31
0.0
  0
LINE
  5
DFC
  8
OUTLINE
  6
CONTINUOUS
 62
     3
 10
-280.000005
 20
1643.00003
 30
0.0
 11
-260.000005
 21
1643.00003
 31
0.0
  0
LINE
  5
DFD
  8
OUTLINE
  6
CONTINUOUS
 62
     3
 10
-260.000005
 20
1643.70003
 30
0.0
 11
-240.000004
 21
1643.70003
 31
0.0
  0
LINE
  5
DFE
  8
OUTLINE
  6
CONTINUOUS
 62
     3
 10
-240.000004
 20
1644.40003
 30
0.0
 11
-220.000004
 21
1644.40003
 31
0.0
  0
LINE
  5
DFF
  8
OUTLINE
  6
CONTINUOUS
 62
     3
 10
-220.000004
 20
1645.10003
 30
0.0
 11
-200.000004
 21
1645.10003
 31
0.0
  0
LINE
  5
E00
  8
OUTLINE
  6
CONTINUOUS
 62
     3
 10
-200.000004
 20
1645.80003
 30
0.0
 11
-180.000003
 21
1645.80003
 31
0.0
  0
LINE
  5
E01
  8
OUTLINE
  6
CONTINUOUS
 62
     3
 10
-180.000003
 20
1646.50003
 30
0.0
 11
-160.000003
 21
1646.50003
 31
0.0
  0
LINE
  5
E02
  8
OUTLINE
  6
CONTINUOUS
 62
     3
 10
-160.000003
 20
1647.20003
 30
0.0
 11
-140.000003
 21
1647.20003
 31
0.0
  0
LINE
  5
E03
  8
OUTLINE
  6
CONTINUOUS
 62
     3
 10
-140.000003
 20
1647.90003
 30
0.0
 11
-120.000002
 21
1647.90003
 31
0.0
  0
LINE
  5
E04
  8
OUTLINE
  6
CONTINUOUS
 62
     3
 10
-120.000002
 20
1648.60003
 30
0.0
 11
-100.000002
 21
1648.60003
 31
0.0
  0
LINE
  5
E05
  8
OUTLINE
  6
CONTINUOUS
 62
     3
 10
-100.000002
 20
1649.300031
 30
0.0
 11
-80.000001
 21
1649.300031
 31
0.0
  0
LINE
  5
E06
  8
OUTLINE
  6
CONTINUOUS
 62
     3
 10
333.116963
 20
1637.398847
 30
0.0
 11
334.355069
 21
1635.803061
 31
0.0
  0
LINE
  5
E07
  8
OUTLINE
  6
CONTINUOUS
 62
     3
 10
331.583582
 20
1638.713072
 30
0.0
 11
333.116963
 21
1637.398847
 31
0.0
  0
LINE
  5
E08
  8
OUTLINE
  6
CONTINUOUS
 62
     3
 10
329.817508
 20
1639.692097
 30
0.0
 11
331.583582
 21
1638.713072
 31
0.0
  0
LINE
  5
E09
  8
OUTLINE
  6
CONTINUOUS
 62
     3
 10
327.89082
 20
1640.295965
 30
0.0
 11
329.817508
 21
1639.692097
 31
0.0
  0
LINE
  5
E0A
  8
OUTLINE
  6
CONTINUOUS
 62
     3
 10
325.882152
 20
1640.50003
 30
0.0
 11
327.89082
 21
1640.295965
 31
0.0
  0
LINE
  5
E0B
  8
OUTLINE
  6
CONTINUOUS
 62
     3
 10
79.99997
 20
1650.000031
 30
0.0
 11
0.0
 21
1650.000031
 31
0.0
  0
LINE
  5
E0C
  8
OUTLINE
  6
CONTINUOUS
 62
     3
 10
360.727746
 20
1550.000029
 30
0.0
 11
360.968586
 21
1550.000029
 31
0.0
  0
LINE
  5
E0D
  8
OUTLINE
  6
CONTINUOUS
 62
     3
 10
80.000001
 20
1649.300031
 30
0.0
 11
80.000001
 21
1650.000031
 31
0.0
  0
LINE
  5
E0E
  8
OUTLINE
  6
CONTINUOUS
 62
     3
 10
100.000002
 20
1649.300031
 30
0.0
 11
100.000002
 21
1648.60003
 31
0.0
  0
LINE
  5
E0F
  8
OUTLINE
  6
CONTINUOUS
 62
     3
 10
120.000002
 20
1648.60003
 30
0.0
 11
120.000002
 21
1647.90003
 31
0.0
  0
LINE
  5
E10
  8
OUTLINE
  6
CONTINUOUS
 62
     3
 10
140.000003
 20
1647.90003
 30
0.0
 11
140.000003
 21
1647.20003
 31
0.0
  0
LINE
  5
E11
  8
OUTLINE
  6
CONTINUOUS
 62
     3
 10
160.000003
 20
1647.20003
 30
0.0
 11
160.000003
 21
1646.50003
 31
0.0
  0
LINE
  5
E12
  8
OUTLINE
  6
CONTINUOUS
 62
     3
 10
180.000003
 20
1646.50003
 30
0.0
 11
180.000003
 21
1645.80003
 31
0.0
  0
LINE
  5
E13
  8
OUTLINE
  6
CONTINUOUS
 62
     3
 10
200.000004
 20
1645.80003
 30
0.0
 11
200.000004
 21
1645.10003
 31
0.0
  0
LINE
  5
E14
  8
OUTLINE
  6
CONTINUOUS
 62
     3
 10
220.000004
 20
1645.10003
 30
0.0
 11
220.000004
 21
1644.40003
 31
0.0
  0
LINE
  5
E15
  8
OUTLINE
  6
CONTINUOUS
 62
     3
 10
240.000004
 20
1644.40003
 30
0.0
 11
240.000004
 21
1643.70003
 31
0.0
  0
LINE
  5
E16
  8
OUTLINE
  6
CONTINUOUS
 62
     3
 10
260.000005
 20
1643.70003
 30
0.0
 11
260.000005
 21
1643.00003
 31
0.0
  0
LINE
  5
E17
  8
OUTLINE
  6
CONTINUOUS
 62
     3
 10
280.000005
 20
1643.00003
 30
0.0
 11
280.000005
 21
1642.30003
 31
0.0
  0
LINE
  5
E18
  8
OUTLINE
  6
CONTINUOUS
 62
     3
 10
300.000006
 20
1642.30003
 30
0.0
 11
300.000006
 21
1641.60003
 31
0.0
  0
LINE
  5
E19
  8
OUTLINE
  6
CONTINUOUS
 62
     3
 10
320.000006
 20
1641.60003
 30
0.0
 11
320.000006
 21
1640.50003
 31
0.0
  0
LINE
  5
E1A
  8
OUTLINE
  6
CONTINUOUS
 62
     3
 10
393.625478
 20
1410.081245
 30
0.0
 11
395.831524
 21
1410.000026
 31
0.0
  0
LINE
  5
E1B
  8
OUTLINE
  6
CONTINUOUS
 62
     3
 10
391.431312
 20
1410.324474
 30
0.0
 11
393.625478
 21
1410.081245
 31
0.0
  0
LINE
  5
E1C
  8
OUTLINE
  6
CONTINUOUS
 62
     3
 10
389.260971
 20
1410.728394
 30
0.0
 11
391.431312
 21
1410.324474
 31
0.0
  0
LINE
  5
E1D
  8
OUTLINE
  6
CONTINUOUS
 62
     3
 10
387.126202
 20
1411.290821
 30
0.0
 11
389.260971
 21
1410.728394
 31
0.0
  0
LINE
  5
E1E
  8
OUTLINE
  6
CONTINUOUS
 62
     3
 10
385.038571
 20
1412.008709
 30
0.0
 11
387.126202
 21
1411.290821
 31
0.0
  0
LINE
  5
E1F
  8
OUTLINE
  6
CONTINUOUS
 62
     3
 10
383.009385
 20
1412.878169
 30
0.0
 11
385.038571
 21
1412.008709
 31
0.0
  0
LINE
  5
E20
  8
OUTLINE
  6
CONTINUOUS
 62
     3
 10
381.049631
 20
1413.894494
 30
0.0
 11
383.009385
 21
1412.878169
 31
0.0
  0
LINE
  5
E21
  8
OUTLINE
  6
CONTINUOUS
 62
     3
 10
379.169922
 20
1415.05218
 30
0.0
 11
381.049631
 21
1413.894494
 31
0.0
  0
LINE
  5
E22
  8
OUTLINE
  6
CONTINUOUS
 62
     3
 10
377.380436
 20
1416.344958
 30
0.0
 11
379.169922
 21
1415.05218
 31
0.0
  0
LINE
  5
E23
  8
OUTLINE
  6
CONTINUOUS
 62
     3
 10
375.690863
 20
1417.765827
 30
0.0
 11
377.380436
 21
1416.344958
 31
0.0
  0
LINE
  5
E24
  8
OUTLINE
  6
CONTINUOUS
 62
     3
 10
374.110352
 20
1419.307091
 30
0.0
 11
375.690863
 21
1417.765827
 31
0.0
  0
LINE
  5
E25
  8
OUTLINE
  6
CONTINUOUS
 62
     3
 10
372.647463
 20
1420.960405
 30
0.0
 11
374.110352
 21
1419.307091
 31
0.0
  0
LINE
  5
E26
  8
OUTLINE
  6
CONTINUOUS
 62
     3
 10
371.310115
 20
1422.716816
 30
0.0
 11
372.647463
 21
1420.960405
 31
0.0
  0
LINE
  5
E27
  8
OUTLINE
  6
CONTINUOUS
 62
     3
 10
370.105551
 20
1424.56681
 30
0.0
 11
371.310115
 21
1422.716816
 31
0.0
  0
LINE
  5
E28
  8
OUTLINE
  6
CONTINUOUS
 62
     3
 10
369.040294
 20
1426.500368
 30
0.0
 11
370.105551
 21
1424.56681
 31
0.0
  0
LINE
  5
E29
  8
OUTLINE
  6
CONTINUOUS
 62
     3
 10
368.120113
 20
1428.507015
 30
0.0
 11
369.040294
 21
1426.500368
 31
0.0
  0
LINE
  5
E2A
  8
OUTLINE
  6
CONTINUOUS
 62
     3
 10
367.349988
 20
1430.575882
 30
0.0
 11
368.120113
 21
1428.507015
 31
0.0
  0
LINE
  5
E2B
  8
OUTLINE
  6
CONTINUOUS
 62
     3
 10
366.73409
 20
1432.695755
 30
0.0
 11
367.349988
 21
1430.575882
 31
0.0
  0
LINE
  5
E2C
  8
OUTLINE
  6
CONTINUOUS
 62
     3
 10
366.27575
 20
1434.855147
 30
0.0
 11
366.73409
 21
1432.695755
 31
0.0
  0
LINE
  5
E2D
  8
OUTLINE
  6
CONTINUOUS
 62
     3
 10
365.977444
 20
1437.042361
 30
0.0
 11
366.27575
 21
1434.855147
 31
0.0
  0
LINE
  5
E2E
  8
OUTLINE
  6
CONTINUOUS
 62
     3
 10
365.859844
 20
1438.691445
 30
0.0
 11
365.977444
 21
1437.042361
 31
0.0
  0
LINE
  5
E2F
  8
OUTLINE
  6
CONTINUOUS
 62
     3
 10
365.859844
 20
1438.691445
 30
0.0
 11
360.999525
 21
1550.012167
 31
0.0
  0
LINE
  5
E30
  8
OUTLINE
  6
CONTINUOUS
 62
     3
 10
360.011416
 20
1561.32024
 30
0.0
 11
360.832444
 21
1550.000029
 31
0.0
  0
LINE
  5
E31
  8
OUTLINE
  6
CONTINUOUS
 62
     3
 10
358.458752
 20
1572.563388
 30
0.0
 11
360.011416
 21
1561.32024
 31
0.0
  0
LINE
  5
E32
  8
OUTLINE
  6
CONTINUOUS
 62
     3
 10
356.180984
 20
1583.68218
 30
0.0
 11
358.458752
 21
1572.563388
 31
0.0
  0
LINE
  5
E33
  8
OUTLINE
  6
CONTINUOUS
 62
     3
 10
353.187693
 20
1594.629844
 30
0.0
 11
356.180984
 21
1583.68218
 31
0.0
  0
LINE
  5
E34
  8
OUTLINE
  6
CONTINUOUS
 62
     3
 10
349.49147
 20
1605.360332
 30
0.0
 11
353.187693
 21
1594.629844
 31
0.0
  0
LINE
  5
E35
  8
OUTLINE
  6
CONTINUOUS
 62
     3
 10
345.107863
 20
1615.828505
 30
0.0
 11
349.49147
 21
1605.360332
 31
0.0
  0
LINE
  5
E36
  8
OUTLINE
  6
CONTINUOUS
 62
     3
 10
340.055312
 20
1625.990329
 30
0.0
 11
345.107863
 21
1615.828505
 31
0.0
  0
LINE
  5
E37
  8
OUTLINE
  6
CONTINUOUS
 62
     3
 10
334.355069
 20
1635.803061
 30
0.0
 11
340.055312
 21
1625.990329
 31
0.0
  0
LINE
  5
E38
  8
OUTLINE
  6
CONTINUOUS
 62
     3
 10
325.882152
 20
1640.50003
 30
0.0
 11
320.000006
 21
1640.50003
 31
0.0
  0
LINE
  5
E39
  8
OUTLINE
  6
CONTINUOUS
 62
     3
 10
320.000006
 20
1641.60003
 30
0.0
 11
300.000006
 21
1641.60003
 31
0.0
  0
LINE
  5
E3A
  8
OUTLINE
  6
CONTINUOUS
 62
     3
 10
300.000006
 20
1642.30003
 30
0.0
 11
280.000005
 21
1642.30003
 31
0.0
  0
LINE
  5
E3B
  8
OUTLINE
  6
CONTINUOUS
 62
     3
 10
280.000005
 20
1643.00003
 30
0.0
 11
260.000005
 21
1643.00003
 31
0.0
  0
LINE
  5
E3C
  8
OUTLINE
  6
CONTINUOUS
 62
     3
 10
260.000005
 20
1643.70003
 30
0.0
 11
240.000004
 21
1643.70003
 31
0.0
  0
LINE
  5
E3D
  8
OUTLINE
  6
CONTINUOUS
 62
     3
 10
240.000004
 20
1644.40003
 30
0.0
 11
220.000004
 21
1644.40003
 31
0.0
  0
LINE
  5
E3E
  8
OUTLINE
  6
CONTINUOUS
 62
     3
 10
220.000004
 20
1645.10003
 30
0.0
 11
200.000004
 21
1645.10003
 31
0.0
  0
LINE
  5
E3F
  8
OUTLINE
  6
CONTINUOUS
 62
     3
 10
200.000004
 20
1645.80003
 30
0.0
 11
180.000003
 21
1645.80003
 31
0.0
  0
LINE
  5
E40
  8
OUTLINE
  6
CONTINUOUS
 62
     3
 10
180.000003
 20
1646.50003
 30
0.0
 11
160.000003
 21
1646.50003
 31
0.0
  0
LINE
  5
E41
  8
OUTLINE
  6
CONTINUOUS
 62
     3
 10
160.000003
 20
1647.20003
 30
0.0
 11
140.000003
 21
1647.20003
 31
0.0
  0
LINE
  5
E42
  8
OUTLINE
  6
CONTINUOUS
 62
     3
 10
140.000003
 20
1647.90003
 30
0.0
 11
120.000002
 21
1647.90003
 31
0.0
  0
LINE
  5
E43
  8
OUTLINE
  6
CONTINUOUS
 62
     3
 10
120.000002
 20
1648.60003
 30
0.0
 11
100.000002
 21
1648.60003
 31
0.0
  0
LINE
  5
E44
  8
OUTLINE
  6
CONTINUOUS
 62
     3
 10
100.000002
 20
1649.300031
 30
0.0
 11
80.000001
 21
1649.300031
 31
0.0
  0
LINE
  5
E45
  8
NOTE
  6
CONTINUOUS
 62
     4
 10
-379.918115
 20
-0.021704
 30
0.0
 11
-406.349643
 21
-20.331443
 31
0.0
  0
LINE
  5
E46
  8
NOTE
  6
CONTINUOUS
 62
     4
 10
-379.918115
 20
-0.021704
 30
0.0
 11
-412.963359
 21
-4.39469
 31
0.0
  0
LINE
  5
E47
  8
NOTE
  6
CONTINUOUS
 62
     4
 10
-593.943108
 20
-88.841591
 30
0.0
 11
-379.918115
 21
-0.021704
 31
0.0
  0
TEXT
  5
E48
  8
NOTE
  6
CONTINUOUS
 62
     4
 10
-1099.861813
 20
-75.443481
 30
0.0
 40
55.0
  1
AH  2X2-14X20長穴
 50
0.000003
 41
0.630952
  7
STANDARD1
  0
LINE
  5
E49
  8
NOTE
  6
CONTINUOUS
 62
     4
 10
-1126.599588
 20
-88.841591
 30
0.0
 11
-593.943108
 21
-88.841591
 31
0.0
  0
LINE
  5
E4A
  8
NOTE
  6
CONTINUOUS
 62
     4
 10
-442.000008
 20
1439.000027
 30
0.0
 11
-442.000008
 21
1381.000026
 31
0.0
  0
LINE
  5
E4B
  8
NOTE
  6
CONTINUOUS
 62
     4
 10
-413.000008
 20
1410.000026
 30
0.0
 11
-471.000009
 21
1410.000026
 31
0.0
  0
LINE
  5
E4C
  8
NOTE
  6
CONTINUOUS
 62
     4
 10
442.000008
 20
1439.000027
 30
0.0
 11
442.000008
 21
1381.000026
 31
0.0
  0
LINE
  5
E4D
  8
NOTE
  6
CONTINUOUS
 62
     4
 10
471.000009
 20
1410.000026
 30
0.0
 11
413.000008
 21
1410.000026
 31
0.0
  0
LINE
  5
E4E
  8
SIZE
  6
CONTINUOUS
 62
    30
 10
-460.000009
 20
1430.000026
 30
0.0
 11
-460.000009
 21
1865.234759
 31
0.0
  0
LINE
  5
E4F
  8
SIZE
  6
CONTINUOUS
 62
    30
 10
-442.000008
 20
1459.000027
 30
0.0
 11
-442.000008
 21
1865.234759
 31
0.0
  0
LINE
  5
E50
  8
SIZE
  6
CONTINUOUS
 62
    30
 10
-432.000008
 20
1835.234759
 30
0.0
 11
-422.000008
 21
1835.234759
 31
0.0
  0
LINE
  5
E51
  8
SIZE
  6
CONTINUOUS
 62
    30
 10
-470.000009
 20
1835.234759
 30
0.0
 11
-580.714294
 21
1835.234759
 31
0.0
  0
LINE
  5
E52
  8
SIZE
  6
CONTINUOUS
 62
    30
 10
-442.000008
 20
1835.234759
 30
0.0
 11
-460.000009
 21
1835.234759
 31
0.0
  0
CIRCLE
  5
E53
  8
SIZE
  6
CONTINUOUS
 62
    30
 10
-442.000008
 20
1835.234759
 30
0.0
 40
5.0
  0
LINE
  5
E54
  8
SIZE
  6
CONTINUOUS
 62
    30
 10
-437.000008
 20
1835.234759
 30
0.0
 11
-432.000008
 21
1835.234759
 31
0.0
  0
CIRCLE
  5
E55
  8
SIZE
  6
CONTINUOUS
 62
    30
 10
-460.000009
 20
1835.234759
 30
0.0
 40
5.0
  0
LINE
  5
E56
  8
SIZE
  6
CONTINUOUS
 62
    30
 10
-465.000009
 20
1835.234759
 30
0.0
 11
-470.000009
 21
1835.234759
 31
0.0
  0
TEXT
  5
E57
  8
SIZE
  6
CONTINUOUS
 62
    30
 10
-565.714294
 20
1850.234759
 30
0.0
 40
55.0
  1
18
 41
0.9
 72
     1
 11
-530.357151
 21
1850.234759
 31
0.0
  0
POINT
  5
E58
  8
DEFPOINTS
  6
CONTINUOUS
 62
     7
 10
-460.000009
 20
1410.000026
 30
0.0
  0
POINT
  5
E59
  8
DEFPOINTS
  6
CONTINUOUS
 62
     7
 10
-442.000008
 20
1439.000027
 30
0.0
  0
POINT
  5
E5A
  8
DEFPOINTS
  6
CONTINUOUS
 62
     7
 10
-442.000008
 20
1835.234759
 30
0.0
  0
LINE
  5
E5B
  8
SIZE
  6
CONTINUOUS
 62
    30
 10
-442.000008
 20
1459.000027
 30
0.0
 11
-442.000008
 21
1865.234759
 31
0.0
  0
LINE
  5
E5C
  8
SIZE
  6
CONTINUOUS
 62
    30
 10
442.000008
 20
1459.000027
 30
0.0
 11
442.000008
 21
1865.234759
 31
0.0
  0
LINE
  5
E5D
  8
SIZE
  6
CONTINUOUS
 62
    30
 10
-432.000008
 20
1835.234759
 30
0.0
 11
432.000008
 21
1835.234759
 31
0.0
  0
CIRCLE
  5
E5E
  8
SIZE
  6
CONTINUOUS
 62
    30
 10
-442.000008
 20
1835.234759
 30
0.0
 40
5.0
  0
LINE
  5
E5F
  8
SIZE
  6
CONTINUOUS
 62
    30
 10
-437.000008
 20
1835.234759
 30
0.0
 11
-432.000008
 21
1835.234759
 31
0.0
  0
CIRCLE
  5
E60
  8
SIZE
  6
CONTINUOUS
 62
    30
 10
442.000008
 20
1835.234759
 30
0.0
 40
5.0
  0
LINE
  5
E61
  8
SIZE
  6
CONTINUOUS
 62
    30
 10
437.000008
 20
1835.234759
 30
0.0
 11
432.000008
 21
1835.234759
 31
0.0
  0
TEXT
  5
E62
  8
SIZE
  6
CONTINUOUS
 62
    30
 10
-95.464286
 20
1849.639521
 30
0.0
 40
55.0
  1
(884)
 41
0.9
 72
     1
 11
0.0
 21
1849.639521
 31
0.0
  0
POINT
  5
E63
  8
DEFPOINTS
  6
CONTINUOUS
 62
     7
 10
-442.000008
 20
1439.000027
 30
0.0
  0
POINT
  5
E64
  8
DEFPOINTS
  6
CONTINUOUS
 62
     7
 10
442.000008
 20
1439.000027
 30
0.0
  0
POINT
  5
E65
  8
DEFPOINTS
  6
CONTINUOUS
 62
     7
 10
442.000008
 20
1835.234759
 30
0.0
  0
LINE
  5
E66
  8
SIZE
  6
CONTINUOUS
 62
    30
 10
442.000008
 20
1459.000027
 30
0.0
 11
442.000008
 21
1865.234759
 31
0.0
  0
LINE
  5
E67
  8
SIZE
  6
CONTINUOUS
 62
    30
 10
460.000009
 20
1430.000026
 30
0.0
 11
460.000009
 21
1865.234759
 31
0.0
  0
LINE
  5
E68
  8
SIZE
  6
CONTINUOUS
 62
    30
 10
432.000008
 20
1835.234759
 30
0.0
 11
422.000008
 21
1835.234759
 31
0.0
  0
LINE
  5
E69
  8
SIZE
  6
CONTINUOUS
 62
    30
 10
470.000009
 20
1835.234759
 30
0.0
 11
480.000009
 21
1835.234759
 31
0.0
  0
LINE
  5
E6A
  8
SIZE
  6
CONTINUOUS
 62
    30
 10
582.915252
 20
1835.234759
 30
0.0
 11
460.000009
 21
1835.234759
 31
0.0
  0
TEXT
  5
E6B
  8
SIZE
  6
CONTINUOUS
 62
    30
 10
497.200967
 20
1850.234759
 30
0.0
 40
55.0
  1
18
 41
0.9
 72
     1
 11
532.55811
 21
1850.234759
 31
0.0
  0
LINE
  5
E6C
  8
SIZE
  6
CONTINUOUS
 62
    30
 10
442.000008
 20
1835.234759
 30
0.0
 11
460.000009
 21
1835.234759
 31
0.0
  0
LINE
  5
E6D
  8
SIZE
  6
CONTINUOUS
 62
    30
 10
442.000008
 20
1835.234759
 30
0.0
 11
460.000009
 21
1835.234759
 31
0.0
  0
CIRCLE
  5
E6E
  8
SIZE
  6
CONTINUOUS
 62
    30
 10
442.000008
 20
1835.234759
 30
0.0
 40
5.0
  0
LINE
  5
E6F
  8
SIZE
  6
CONTINUOUS
 62
    30
 10
437.000008
 20
1835.234759
 30
0.0
 11
432.000008
 21
1835.234759
 31
0.0
  0
CIRCLE
  5
E70
  8
SIZE
  6
CONTINUOUS
 62
    30
 10
460.000009
 20
1835.234759
 30
0.0
 40
5.0
  0
LINE
  5
E71
  8
SIZE
  6
CONTINUOUS
 62
    30
 10
465.000009
 20
1835.234759
 30
0.0
 11
470.000009
 21
1835.234759
 31
0.0
  0
POINT
  5
E72
  8
DEFPOINTS
  6
CONTINUOUS
 62
     7
 10
442.000008
 20
1439.000027
 30
0.0
  0
POINT
  5
E73
  8
DEFPOINTS
  6
CONTINUOUS
 62
     7
 10
460.000009
 20
1410.000026
 30
0.0
  0
POINT
  5
E74
  8
DEFPOINTS
  6
CONTINUOUS
 62
     7
 10
460.000009
 20
1835.234759
 30
0.0
  0
LINE
  5
E75
  8
NOTE
  6
CONTINUOUS
 62
     4
 10
-442.000008
 20
1410.000026
 30
0.0
 11
-471.518867
 21
1425.483829
 31
0.0
  0
LINE
  5
E76
  8
NOTE
  6
CONTINUOUS
 62
     4
 10
-442.000008
 20
1410.000026
 30
0.0
 11
-459.822188
 21
1438.168822
 31
0.0
  0
LINE
  5
E77
  8
NOTE
  6
CONTINUOUS
 62
     4
 10
-571.720981
 20
1529.614166
 30
0.0
 11
-442.000008
 21
1410.000026
 31
0.0
  0
TEXT
  5
E78
  8
NOTE
  6
CONTINUOUS
 62
     4
 10
-1182.471758
 20
1464.386166
 30
0.0
 40
55.0
  1
＜防雪ﾌ-ﾄﾞ（別売品）取付用穴＞
 50
0.000003
 41
0.638665
  7
STANDARD1
  0
TEXT
  5
E79
  8
NOTE
  6
CONTINUOUS
 62
     4
 10
-1150.130766
 20
1540.118561
 30
0.0
 40
55.0
  1
(樹脂部の開口加工必要）
 50
0.000003
 41
0.693662
  7
STANDARD1
  0
TEXT
  5
E7A
  8
NOTE
  6
CONTINUOUS
 62
     4
 10
-1150.130766
 20
1610.118562
 30
0.0
 40
55.0
  1
2X5-φ4.6穴
 50
0.000003
 41
0.603058
  7
STANDARD1
  0
LINE
  5
E7B
  8
NOTE
  6
CONTINUOUS
 62
     4
 10
-1203.017485
 20
1529.614166
 30
0.0
 11
-571.720981
 21
1529.614166
 31
0.0
  0
TEXT
  5
E7C
  8
NOTE
  6
CONTINUOUS
 62
     4
 10
-84.922551
 20
1745.661143
 30
0.0
 40
55.0
  1
空気吹出
 50
0.000003
 41
0.703125
  7
STANDARD1
  0
LINE
  5
E7D
  8
NOTE
  6
CONTINUOUS
 62
     4
 10
-230.757189
 20
1785.849464
 30
0.0
 11
-180.757188
 21
1735.953417
 31
0.0
  0
LINE
  5
E7E
  8
NOTE
  6
CONTINUOUS
 62
     4
 10
-280.75719
 20
1735.953417
 30
0.0
 11
-230.757189
 21
1785.849464
 31
0.0
  0
LINE
  5
E7F
  8
NOTE
  6
CONTINUOUS
 62
     4
 10
-280.75719
 20
1735.953417
 30
0.0
 11
-255.757189
 21
1735.953417
 31
0.0
  0
LINE
  5
E80
  8
NOTE
  6
CONTINUOUS
 62
     4
 10
-205.757188
 20
1735.953417
 30
0.0
 11
-180.757188
 21
1735.953417
 31
0.0
  0
LINE
  5
E81
  8
NOTE
  6
CONTINUOUS
 62
     4
 10
-205.757188
 20
1735.953417
 30
0.0
 11
-205.757188
 21
1695.267329
 31
0.0
  0
LINE
  5
E82
  8
NOTE
  6
CONTINUOUS
 62
     4
 10
-255.757189
 20
1735.953417
 30
0.0
 11
-255.757189
 21
1695.267329
 31
0.0
  0
LINE
  5
E83
  8
NOTE
  6
CONTINUOUS
 62
     4
 10
-205.757188
 20
1695.267329
 30
0.0
 11
-255.757189
 21
1695.267329
 31
0.0
  0
LINE
  5
E84
  8
NOTE
  6
CONTINUOUS
 62
     4
 10
200.894608
 20
1695.267329
 30
0.0
 11
250.894609
 21
1695.267329
 31
0.0
  0
LINE
  5
E85
  8
NOTE
  6
CONTINUOUS
 62
     4
 10
250.894609
 20
1735.953417
 30
0.0
 11
250.894609
 21
1695.267329
 31
0.0
  0
LINE
  5
E86
  8
NOTE
  6
CONTINUOUS
 62
     4
 10
200.894608
 20
1735.953417
 30
0.0
 11
200.894608
 21
1695.267329
 31
0.0
  0
LINE
  5
E87
  8
NOTE
  6
CONTINUOUS
 62
     4
 10
200.894608
 20
1735.953417
 30
0.0
 11
175.894608
 21
1735.953417
 31
0.0
  0
LINE
  5
E88
  8
NOTE
  6
CONTINUOUS
 62
     4
 10
275.89461
 20
1735.953417
 30
0.0
 11
250.894609
 21
1735.953417
 31
0.0
  0
LINE
  5
E89
  8
NOTE
  6
CONTINUOUS
 62
     4
 10
275.89461
 20
1735.953417
 30
0.0
 11
225.894609
 21
1785.849464
 31
0.0
  0
LINE
  5
E8A
  8
NOTE
  6
CONTINUOUS
 62
     4
 10
225.894609
 20
1785.849464
 30
0.0
 11
175.894608
 21
1735.953417
 31
0.0
  0
LINE
  5
E8B
  8
SIZE
  6
CONTINUOUS
 62
    30
 10
-454.500008
 20
-31.0
 30
0.0
 11
-454.500008
 21
-399.47416
 31
0.0
  0
LINE
  5
E8C
  8
SIZE
  6
CONTINUOUS
 62
    30
 10
-460.000009
 20
1350.000025
 30
0.0
 11
-460.000009
 21
-399.47416
 31
0.0
  0
LINE
  5
E8D
  8
SIZE
  6
CONTINUOUS
 62
    30
 10
-444.500008
 20
-369.47416
 30
0.0
 11
-434.500008
 21
-369.47416
 31
0.0
  0
LINE
  5
E8E
  8
SIZE
  6
CONTINUOUS
 62
    30
 10
-470.000009
 20
-369.47416
 30
0.0
 11
-613.714294
 21
-369.47416
 31
0.0
  0
LINE
  5
E8F
  8
SIZE
  6
CONTINUOUS
 62
    30
 10
-454.500008
 20
-369.47416
 30
0.0
 11
-460.000009
 21
-369.47416
 31
0.0
  0
CIRCLE
  5
E90
  8
SIZE
  6
CONTINUOUS
 62
    30
 10
-454.500008
 20
-369.47416
 30
0.0
 40
5.0
  0
LINE
  5
E91
  8
SIZE
  6
CONTINUOUS
 62
    30
 10
-449.500008
 20
-369.47416
 30
0.0
 11
-444.500008
 21
-369.47416
 31
0.0
  0
CIRCLE
  5
E92
  8
SIZE
  6
CONTINUOUS
 62
    30
 10
-460.000009
 20
-369.47416
 30
0.0
 40
5.0
  0
LINE
  5
E93
  8
SIZE
  6
CONTINUOUS
 62
    30
 10
-465.000009
 20
-369.47416
 30
0.0
 11
-470.000009
 21
-369.47416
 31
0.0
  0
TEXT
  5
E94
  8
SIZE
  6
CONTINUOUS
 62
    30
 10
-598.714294
 20
-354.47416
 30
0.0
 40
55.0
  1
5.5
 41
0.9
 72
     1
 11
-546.857151
 21
-354.47416
 31
0.0
  0
POINT
  5
E95
  8
DEFPOINTS
  6
CONTINUOUS
 62
     7
 10
-454.500008
 20
-11.0
 30
0.0
  0
POINT
  5
E96
  8
DEFPOINTS
  6
CONTINUOUS
 62
     7
 10
-460.000009
 20
1370.000025
 30
0.0
  0
POINT
  5
E97
  8
DEFPOINTS
  6
CONTINUOUS
 62
     7
 10
-460.000009
 20
-369.47416
 30
0.0
  0
LINE
  5
E98
  8
SIZE
  6
CONTINUOUS
 62
    30
 10
-460.000009
 20
112.000002
 30
0.0
 11
-460.000009
 21
-536.245495
 31
0.0
  0
LINE
  5
E99
  8
SIZE
  6
CONTINUOUS
 62
    30
 10
-380.0
 20
-44.072637
 30
0.0
 11
-380.0
 21
-536.245495
 31
0.0
  0
LINE
  5
E9A
  8
SIZE
  6
CONTINUOUS
 62
    30
 10
-390.0
 20
-506.245495
 30
0.0
 11
-450.000009
 21
-506.245495
 31
0.0
  0
LINE
  5
E9B
  8
SIZE
  6
CONTINUOUS
 62
    30
 10
-460.000009
 20
-506.245495
 30
0.0
 11
-585.981541
 21
-506.245495
 31
0.0
  0
CIRCLE
  5
E9C
  8
SIZE
  6
CONTINUOUS
 62
    30
 10
-380.0
 20
-506.245495
 30
0.0
 40
5.0
  0
LINE
  5
E9D
  8
SIZE
  6
CONTINUOUS
 62
    30
 10
-385.0
 20
-506.245495
 30
0.0
 11
-390.0
 21
-506.245495
 31
0.0
  0
CIRCLE
  5
E9E
  8
SIZE
  6
CONTINUOUS
 62
    30
 10
-460.000009
 20
-506.245495
 30
0.0
 40
5.0
  0
LINE
  5
E9F
  8
SIZE
  6
CONTINUOUS
 62
    30
 10
-455.000009
 20
-506.245495
 30
0.0
 11
-450.000009
 21
-506.245495
 31
0.0
  0
TEXT
  5
EA0
  8
SIZE
  6
CONTINUOUS
 62
    30
 10
-570.981541
 20
-491.245495
 30
0.0
 40
55.0
  1
80
 41
0.9
 72
     1
 11
-530.910112
 21
-491.245495
 31
0.0
  0
POINT
  5
EA1
  8
DEFPOINTS
  6
CONTINUOUS
 62
     7
 10
-460.000009
 20
132.000002
 30
0.0
  0
POINT
  5
EA2
  8
DEFPOINTS
  6
CONTINUOUS
 62
     7
 10
-380.0
 20
-24.072637
 30
0.0
  0
POINT
  5
EA3
  8
DEFPOINTS
  6
CONTINUOUS
 62
     7
 10
-380.0
 20
-506.245495
 30
0.0
  0
LINE
  5
EA4
  8
SIZE
  6
CONTINUOUS
 62
    30
 10
-380.0
 20
-44.072637
 30
0.0
 11
-380.0
 21
-536.245495
 31
0.0
  0
LINE
  5
EA5
  8
SIZE
  6
CONTINUOUS
 62
    30
 10
380.0
 20
-38.597895
 30
0.0
 11
380.0
 21
-536.245495
 31
0.0
  0
LINE
  5
EA6
  8
SIZE
  6
CONTINUOUS
 62
    30
 10
-370.0
 20
-506.245495
 30
0.0
 11
370.0
 21
-506.245495
 31
0.0
  0
CIRCLE
  5
EA7
  8
SIZE
  6
CONTINUOUS
 62
    30
 10
-380.0
 20
-506.245495
 30
0.0
 40
5.0
  0
LINE
  5
EA8
  8
SIZE
  6
CONTINUOUS
 62
    30
 10
-375.0
 20
-506.245495
 30
0.0
 11
-370.0
 21
-506.245495
 31
0.0
  0
CIRCLE
  5
EA9
  8
SIZE
  6
CONTINUOUS
 62
    30
 10
380.0
 20
-506.245495
 30
0.0
 40
5.0
  0
LINE
  5
EAA
  8
SIZE
  6
CONTINUOUS
 62
    30
 10
375.0
 20
-506.245495
 30
0.0
 11
370.0
 21
-506.245495
 31
0.0
  0
TEXT
  5
EAB
  8
SIZE
  6
CONTINUOUS
 62
    30
 10
-243.964286
 20
-491.840733
 30
0.0
 40
55.0
  1
760(据付ピッチ)
 41
0.9
 72
     1
 11
0.0
 21
-491.840733
 31
0.0
  0
POINT
  5
EAC
  8
DEFPOINTS
  6
CONTINUOUS
 62
     7
 10
-380.0
 20
-24.072637
 30
0.0
  0
POINT
  5
EAD
  8
DEFPOINTS
  6
CONTINUOUS
 62
     7
 10
380.0
 20
-18.597895
 30
0.0
  0
POINT
  5
EAE
  8
DEFPOINTS
  6
CONTINUOUS
 62
     7
 10
380.0
 20
-506.245495
 30
0.0
  0
LINE
  5
EAF
  8
SIZE
  6
CONTINUOUS
 62
    30
 10
380.0
 20
-38.597895
 30
0.0
 11
380.0
 21
-536.245495
 31
0.0
  0
LINE
  5
EB0
  8
SIZE
  6
CONTINUOUS
 62
    30
 10
460.000009
 20
1350.000025
 30
0.0
 11
460.000009
 21
-536.245495
 31
0.0
  0
LINE
  5
EB1
  8
SIZE
  6
CONTINUOUS
 62
    30
 10
390.0
 20
-506.245495
 30
0.0
 11
450.000009
 21
-506.245495
 31
0.0
  0
LINE
  5
EB2
  8
SIZE
  6
CONTINUOUS
 62
    30
 10
637.168742
 20
-506.245495
 30
0.0
 11
460.000009
 21
-506.245495
 31
0.0
  0
TEXT
  5
EB3
  8
SIZE
  6
CONTINUOUS
 62
    30
 10
493.383027
 20
-491.840733
 30
0.0
 40
55.0
  1
(80)
 41
0.9
 72
     1
 11
565.275884
 21
-491.840733
 31
0.0
  0
CIRCLE
  5
EB4
  8
SIZE
  6
CONTINUOUS
 62
    30
 10
380.0
 20
-506.245495
 30
0.0
 40
5.0
  0
LINE
  5
EB5
  8
SIZE
  6
CONTINUOUS
 62
    30
 10
385.0
 20
-506.245495
 30
0.0
 11
390.0
 21
-506.245495
 31
0.0
  0
CIRCLE
  5
EB6
  8
SIZE
  6
CONTINUOUS
 62
    30
 10
460.000009
 20
-506.245495
 30
0.0
 40
5.0
  0
LINE
  5
EB7
  8
SIZE
  6
CONTINUOUS
 62
    30
 10
455.000009
 20
-506.245495
 30
0.0
 11
450.000009
 21
-506.245495
 31
0.0
  0
POINT
  5
EB8
  8
DEFPOINTS
  6
CONTINUOUS
 62
     7
 10
380.0
 20
-18.597895
 30
0.0
  0
POINT
  5
EB9
  8
DEFPOINTS
  6
CONTINUOUS
 62
     7
 10
460.000009
 20
1370.000025
 30
0.0
  0
POINT
  5
EBA
  8
DEFPOINTS
  6
CONTINUOUS
 62
     7
 10
460.000009
 20
-506.245495
 30
0.0
  0
LINE
  5
EBB
  8
NOTE
  6
CONTINUOUS
 62
     4
 10
-209.000004
 20
280.750028
 30
0.0
 11
-209.000004
 21
241.250027
 31
0.0
  0
LINE
  5
EBC
  8
NOTE
  6
CONTINUOUS
 62
     4
 10
-189.250004
 20
261.000027
 30
0.0
 11
-228.750004
 21
261.000027
 31
0.0
  0
LINE
  5
EBD
  8
NOTE
  6
CONTINUOUS
 62
     4
 10
-126.000012
 20
282.74999
 30
0.0
 11
-126.000012
 21
243.24999
 31
0.0
  0
LINE
  5
EBE
  8
NOTE
  6
CONTINUOUS
 62
     4
 10
-106.250011
 20
262.99999
 30
0.0
 11
-145.750012
 21
262.99999
 31
0.0
  0
TEXT
  5
EBF
  8
NOTE
  6
CONTINUOUS
 62
     4
 10
39.812844
 20
533.184136
 30
0.0
 40
55.0
  1
RG %%C22.2
 50
359.999997
 41
0.630952
  7
STANDARD1
  0
LINE
  5
EC0
  8
NOTE
  6
CONTINUOUS
 62
     4
 10
28.88004
 20
522.839319
 30
0.0
 11
346.803163
 21
522.839319
 31
0.0
  0
LINE
  5
EC1
  8
NOTE
  6
CONTINUOUS
 62
     4
 10
-126.000028
 20
262.999964
 30
0.0
 11
-102.104015
 21
286.239837
 31
0.0
  0
LINE
  5
EC2
  8
NOTE
  6
CONTINUOUS
 62
     4
 10
-126.000028
 20
262.999964
 30
0.0
 11
-116.925411
 21
295.074291
 31
0.0
  0
LINE
  5
EC3
  8
NOTE
  6
CONTINUOUS
 62
     4
 10
28.88004
 20
522.839319
 30
0.0
 11
-126.000028
 21
262.999964
 31
0.0
  0
LINE
  5
EC4
  8
NOTE
  6
CONTINUOUS
 62
     4
 10
-209.000027
 20
261.000039
 30
0.0
 11
-185.410166
 21
284.550614
 31
0.0
  0
LINE
  5
EC5
  8
NOTE
  6
CONTINUOUS
 62
     4
 10
-209.000027
 20
261.000039
 30
0.0
 11
-200.345896
 21
293.190366
 31
0.0
  0
LINE
  5
EC6
  8
NOTE
  6
CONTINUOUS
 62
     4
 10
10.709221
 20
640.816274
 30
0.0
 11
-209.000027
 21
261.000039
 31
0.0
  0
LINE
  5
EC7
  8
NOTE
  6
CONTINUOUS
 62
     4
 10
-269.500012
 20
165.750008
 30
0.0
 11
-269.500012
 21
126.250008
 31
0.0
  0
LINE
  5
EC8
  8
NOTE
  6
CONTINUOUS
 62
     4
 10
-249.750012
 20
146.000008
 30
0.0
 11
-289.250012
 21
146.000008
 31
0.0
  0
LINE
  5
EC9
  8
NOTE
  6
CONTINUOUS
 62
     4
 10
-269.499991
 20
145.999986
 30
0.0
 11
-290.62015
 21
171.78855
 31
0.0
  0
LINE
  5
ECA
  8
NOTE
  6
CONTINUOUS
 62
     4
 10
-269.499991
 20
145.999986
 30
0.0
 11
-300.684867
 21
157.773457
 31
0.0
  0
LINE
  5
ECB
  8
NOTE
  6
CONTINUOUS
 62
     4
 10
-557.219342
 20
352.621094
 30
0.0
 11
-269.499991
 21
145.999986
 31
0.0
  0
LINE
  5
ECC
  8
NOTE
  6
CONTINUOUS
 62
     4
 10
-253.499993
 20
236.750029
 30
0.0
 11
-253.499993
 21
197.250028
 31
0.0
  0
LINE
  5
ECD
  8
NOTE
  6
CONTINUOUS
 62
     4
 10
-233.749992
 20
217.000029
 30
0.0
 11
-273.249993
 21
217.000029
 31
0.0
  0
LINE
  5
ECE
  8
NOTE
  6
CONTINUOUS
 62
     4
 10
-253.499929
 20
217.000052
 30
0.0
 11
-275.257402
 21
242.253239
 31
0.0
  0
LINE
  5
ECF
  8
NOTE
  6
CONTINUOUS
 62
     4
 10
-253.499929
 20
217.000052
 30
0.0
 11
-284.969048
 21
227.991216
 31
0.0
  0
LINE
  5
ED0
  8
NOTE
  6
CONTINUOUS
 62
     4
 10
-637.98595
 20
478.81367
 30
0.0
 11
-253.499929
 21
217.000052
 31
0.0
  0
LINE
  5
ED1
  8
NOTE
  6
CONTINUOUS
 62
     4
 10
-178.499993
 20
236.750029
 30
0.0
 11
-178.499993
 21
197.250028
 31
0.0
  0
LINE
  5
ED2
  8
NOTE
  6
CONTINUOUS
 62
     4
 10
-158.749992
 20
217.000029
 30
0.0
 11
-198.249993
 21
217.000029
 31
0.0
  0
LINE
  5
ED3
  8
NOTE
  6
CONTINUOUS
 62
     4
 10
-178.499974
 20
217.00001
 30
0.0
 11
-197.098584
 21
244.662309
 31
0.0
  0
LINE
  5
ED4
  8
NOTE
  6
CONTINUOUS
 62
     4
 10
-178.499974
 20
217.00001
 30
0.0
 11
-208.437993
 21
231.656958
 31
0.0
  0
LINE
  5
ED5
  8
NOTE
  6
CONTINUOUS
 62
     4
 10
-620.987821
 20
602.806625
 30
0.0
 11
-178.499974
 21
217.00001
 31
0.0
  0
LINE
  5
ED6
  8
NOTE
  6
CONTINUOUS
 62
     4
 10
-120.499993
 20
236.750029
 30
0.0
 11
-120.499993
 21
197.250028
 31
0.0
  0
LINE
  5
ED7
  8
NOTE
  6
CONTINUOUS
 62
     4
 10
-100.749992
 20
217.000029
 30
0.0
 11
-140.249993
 21
217.000029
 31
0.0
  0
LINE
  5
ED8
  8
NOTE
  6
CONTINUOUS
 62
     4
 10
-120.500016
 20
217.00001
 30
0.0
 11
-95.607552
 21
239.169276
 31
0.0
  0
LINE
  5
ED9
  8
NOTE
  6
CONTINUOUS
 62
     4
 10
-120.500016
 20
217.00001
 30
0.0
 11
-110.027143
 21
248.64539
 31
0.0
  0
LINE
  5
EDA
  8
NOTE
  6
CONTINUOUS
 62
     4
 10
11.844277
 20
418.385372
 30
0.0
 11
-120.500016
 21
217.00001
 31
0.0
  0
POLYLINE
  5
EDB
  8
DETAIL
  6
CONTINUOUS
 62
     5
 66
     1
 10
0.0
 20
0.0
 30
0.0
 70
     1
  0
VERTEX
  5
EDC
  8
DETAIL
  6
CONTINUOUS
 62
     5
 10
-233.500008
 20
162.000008
 30
0.0
 42
-0.414214
  0
VERTEX
  5
EDD
  8
DETAIL
  6
CONTINUOUS
 62
     5
 10
-228.500008
 20
167.000008
 30
0.0
  0
VERTEX
  5
EDE
  8
DETAIL
  6
CONTINUOUS
 62
     5
 10
-98.500008
 20
167.000008
 30
0.0
 42
-0.414214
  0
VERTEX
  5
EDF
  8
DETAIL
  6
CONTINUOUS
 62
     5
 10
-93.500008
 20
162.000008
 30
0.0
  0
VERTEX
  5
EE0
  8
DETAIL
  6
CONTINUOUS
 62
     5
 10
-93.500008
 20
95.000008
 30
0.0
 42
-0.414214
  0
VERTEX
  5
EE1
  8
DETAIL
  6
CONTINUOUS
 62
     5
 10
-98.500008
 20
90.000008
 30
0.0
  0
VERTEX
  5
EE2
  8
DETAIL
  6
CONTINUOUS
 62
     5
 10
-228.500008
 20
90.000008
 30
0.0
 42
-0.414214
  0
VERTEX
  5
EE3
  8
DETAIL
  6
CONTINUOUS
 62
     5
 10
-233.500008
 20
95.000008
 30
0.0
  0
SEQEND
  5
EE4
  8
DETAIL
  6
CONTINUOUS
 62
     5
  0
LINE
  5
EE5
  8
SIZE
  6
CONTINUOUS
 62
    30
 10
-454.500008
 20
-11.096394
 30
0.0
 11
-454.500008
 21
-399.47416
 31
0.0
  0
LINE
  5
EE6
  8
SIZE
  6
CONTINUOUS
 62
    30
 10
-233.500008
 20
74.903614
 30
0.0
 11
-233.500008
 21
-399.47416
 31
0.0
  0
LINE
  5
EE7
  8
SIZE
  6
CONTINUOUS
 62
    30
 10
-444.500008
 20
-369.47416
 30
0.0
 11
-243.500008
 21
-369.47416
 31
0.0
  0
CIRCLE
  5
EE8
  8
SIZE
  6
CONTINUOUS
 62
    30
 10
-454.500008
 20
-369.47416
 30
0.0
 40
5.0
  0
LINE
  5
EE9
  8
SIZE
  6
CONTINUOUS
 62
    30
 10
-449.500008
 20
-369.47416
 30
0.0
 11
-444.500008
 21
-369.47416
 31
0.0
  0
CIRCLE
  5
EEA
  8
SIZE
  6
CONTINUOUS
 62
    30
 10
-233.500008
 20
-369.47416
 30
0.0
 40
5.0
  0
LINE
  5
EEB
  8
SIZE
  6
CONTINUOUS
 62
    30
 10
-238.500008
 20
-369.47416
 30
0.0
 11
-243.500008
 21
-369.47416
 31
0.0
  0
TEXT
  5
EEC
  8
SIZE
  6
CONTINUOUS
 62
    30
 10
-367.053884
 20
-354.47416
 30
0.0
 40
55.0
  1
221
 41
0.9
 72
     1
 11
-314.01817
 21
-354.47416
 31
0.0
  0
POINT
  5
EED
  8
DEFPOINTS
  6
CONTINUOUS
 62
     7
 10
-454.500008
 20
8.903606
 30
0.0
  0
POINT
  5
EEE
  8
DEFPOINTS
  6
CONTINUOUS
 62
     7
 10
-233.500008
 20
94.903614
 30
0.0
  0
POINT
  5
EEF
  8
DEFPOINTS
  6
CONTINUOUS
 62
     7
 10
-233.500008
 20
-369.47416
 30
0.0
  0
LINE
  5
EF0
  8
SIZE
  6
CONTINUOUS
 62
    30
 10
-233.500008
 20
75.000008
 30
0.0
 11
-233.500008
 21
-399.47416
 31
0.0
  0
LINE
  5
EF1
  8
SIZE
  6
CONTINUOUS
 62
    30
 10
-93.500008
 20
75.000008
 30
0.0
 11
-93.500008
 21
-399.47416
 31
0.0
  0
LINE
  5
EF2
  8
SIZE
  6
CONTINUOUS
 62
    30
 10
-243.500008
 20
-369.47416
 30
0.0
 11
-253.500008
 21
-369.47416
 31
0.0
  0
LINE
  5
EF3
  8
SIZE
  6
CONTINUOUS
 62
    30
 10
-83.500008
 20
-369.47416
 30
0.0
 11
-73.500008
 21
-369.47416
 31
0.0
  0
LINE
  5
EF4
  8
SIZE
  6
CONTINUOUS
 62
    30
 10
-233.500008
 20
-369.47416
 30
0.0
 11
-93.500008
 21
-369.47416
 31
0.0
  0
CIRCLE
  5
EF5
  8
SIZE
  6
CONTINUOUS
 62
    30
 10
-233.500008
 20
-369.47416
 30
0.0
 40
5.0
  0
LINE
  5
EF6
  8
SIZE
  6
CONTINUOUS
 62
    30
 10
-238.500008
 20
-369.47416
 30
0.0
 11
-243.500008
 21
-369.47416
 31
0.0
  0
CIRCLE
  5
EF7
  8
SIZE
  6
CONTINUOUS
 62
    30
 10
-93.500008
 20
-369.47416
 30
0.0
 40
5.0
  0
LINE
  5
EF8
  8
SIZE
  6
CONTINUOUS
 62
    30
 10
-88.500008
 20
-369.47416
 30
0.0
 11
-83.500008
 21
-369.47416
 31
0.0
  0
TEXT
  5
EF9
  8
SIZE
  6
CONTINUOUS
 62
    30
 10
-222.428579
 20
-354.47416
 30
0.0
 40
55.0
  1
140
 41
0.9
 72
     1
 11
-163.500008
 21
-354.47416
 31
0.0
  0
POINT
  5
EFA
  8
DEFPOINTS
  6
CONTINUOUS
 62
     7
 10
-233.500008
 20
95.000008
 30
0.0
  0
POINT
  5
EFB
  8
DEFPOINTS
  6
CONTINUOUS
 62
     7
 10
-93.500008
 20
95.000008
 30
0.0
  0
POINT
  5
EFC
  8
DEFPOINTS
  6
CONTINUOUS
 62
     7
 10
-93.500008
 20
-369.47416
 30
0.0
  0
LINE
  5
EFD
  8
SIZE
  6
CONTINUOUS
 62
    30
 10
-454.500008
 20
-11.0
 30
0.0
 11
-454.500008
 21
-298.304919
 31
0.0
  0
LINE
  5
EFE
  8
SIZE
  6
CONTINUOUS
 62
    30
 10
-253.499993
 20
177.250028
 30
0.0
 11
-253.499993
 21
-298.304919
 31
0.0
  0
LINE
  5
EFF
  8
SIZE
  6
CONTINUOUS
 62
    30
 10
-444.500008
 20
-268.304919
 30
0.0
 11
-263.499993
 21
-268.304919
 31
0.0
  0
CIRCLE
  5
F00
  8
SIZE
  6
CONTINUOUS
 62
    30
 10
-454.500008
 20
-268.304919
 30
0.0
 40
5.0
  0
LINE
  5
F01
  8
SIZE
  6
CONTINUOUS
 62
    30
 10
-449.500008
 20
-268.304919
 30
0.0
 11
-444.500008
 21
-268.304919
 31
0.0
  0
CIRCLE
  5
F02
  8
SIZE
  6
CONTINUOUS
 62
    30
 10
-253.499993
 20
-268.304919
 30
0.0
 40
5.0
  0
LINE
  5
F03
  8
SIZE
  6
CONTINUOUS
 62
    30
 10
-258.499993
 20
-268.304919
 30
0.0
 11
-263.499993
 21
-268.304919
 31
0.0
  0
TEXT
  5
F04
  8
SIZE
  6
CONTINUOUS
 62
    30
 10
-378.797646
 20
-253.304919
 30
0.0
 40
55.0
  1
201
 41
0.9
 72
     1
 11
-325.761932
 21
-253.304919
 31
0.0
  0
POINT
  5
F05
  8
DEFPOINTS
  6
CONTINUOUS
 62
     7
 10
-454.500008
 20
9.0
 30
0.0
  0
POINT
  5
F06
  8
DEFPOINTS
  6
CONTINUOUS
 62
     7
 10
-253.499993
 20
197.250028
 30
0.0
  0
POINT
  5
F07
  8
DEFPOINTS
  6
CONTINUOUS
 62
     7
 10
-253.499993
 20
-268.304919
 30
0.0
  0
LINE
  5
F08
  8
SIZE
  6
CONTINUOUS
 62
    30
 10
-253.499993
 20
177.250028
 30
0.0
 11
-253.499993
 21
-298.304919
 31
0.0
  0
LINE
  5
F09
  8
SIZE
  6
CONTINUOUS
 62
    30
 10
-178.499993
 20
177.250028
 30
0.0
 11
-178.499993
 21
-298.304919
 31
0.0
  0
LINE
  5
F0A
  8
SIZE
  6
CONTINUOUS
 62
    30
 10
-243.499993
 20
-268.304919
 30
0.0
 11
-188.499993
 21
-268.304919
 31
0.0
  0
LINE
  5
F0B
  8
SIZE
  6
CONTINUOUS
 62
    30
 10
-215.999993
 20
-268.304919
 30
0.0
 11
-79.198122
 21
-163.068981
 31
0.0
  0
LINE
  5
F0C
  8
SIZE
  6
CONTINUOUS
 62
    30
 10
-79.198122
 20
-163.068981
 30
0.0
 11
30.944735
 21
-163.068981
 31
0.0
  0
TEXT
  5
F0D
  8
SIZE
  6
CONTINUOUS
 62
    30
 10
-64.198123
 20
-148.068981
 30
0.0
 40
55.0
  1
75
 41
0.9
 72
     1
 11
-24.126694
 21
-148.068981
 31
0.0
  0
CIRCLE
  5
F0E
  8
SIZE
  6
CONTINUOUS
 62
    30
 10
-253.499993
 20
-268.304919
 30
0.0
 40
5.0
  0
LINE
  5
F0F
  8
SIZE
  6
CONTINUOUS
 62
    30
 10
-248.499993
 20
-268.304919
 30
0.0
 11
-243.499993
 21
-268.304919
 31
0.0
  0
CIRCLE
  5
F10
  8
SIZE
  6
CONTINUOUS
 62
    30
 10
-178.499993
 20
-268.304919
 30
0.0
 40
5.0
  0
LINE
  5
F11
  8
SIZE
  6
CONTINUOUS
 62
    30
 10
-183.499993
 20
-268.304919
 30
0.0
 11
-188.499993
 21
-268.304919
 31
0.0
  0
POINT
  5
F12
  8
DEFPOINTS
  6
CONTINUOUS
 62
     7
 10
-253.499993
 20
197.250028
 30
0.0
  0
POINT
  5
F13
  8
DEFPOINTS
  6
CONTINUOUS
 62
     7
 10
-178.499993
 20
197.250028
 30
0.0
  0
POINT
  5
F14
  8
DEFPOINTS
  6
CONTINUOUS
 62
     7
 10
-178.499993
 20
-268.304919
 30
0.0
  0
LINE
  5
F15
  8
SIZE
  6
CONTINUOUS
 62
    30
 10
-178.499993
 20
177.250028
 30
0.0
 11
-178.499993
 21
-298.304919
 31
0.0
  0
LINE
  5
F16
  8
SIZE
  6
CONTINUOUS
 62
    30
 10
-120.499993
 20
177.250028
 30
0.0
 11
-120.499993
 21
-298.304919
 31
0.0
  0
LINE
  5
F17
  8
SIZE
  6
CONTINUOUS
 62
    30
 10
-168.499993
 20
-268.304919
 30
0.0
 11
-130.499993
 21
-268.304919
 31
0.0
  0
LINE
  5
F18
  8
SIZE
  6
CONTINUOUS
 62
    30
 10
27.301702
 20
-268.304919
 30
0.0
 11
-120.499993
 21
-268.304919
 31
0.0
  0
TEXT
  5
F19
  8
SIZE
  6
CONTINUOUS
 62
    30
 10
-67.841155
 20
-253.304919
 30
0.0
 40
55.0
  1
58
 41
0.9
 72
     1
 11
-27.769726
 21
-253.304919
 31
0.0
  0
CIRCLE
  5
F1A
  8
SIZE
  6
CONTINUOUS
 62
    30
 10
-178.499993
 20
-268.304919
 30
0.0
 40
5.0
  0
LINE
  5
F1B
  8
SIZE
  6
CONTINUOUS
 62
    30
 10
-173.499993
 20
-268.304919
 30
0.0
 11
-168.499993
 21
-268.304919
 31
0.0
  0
CIRCLE
  5
F1C
  8
SIZE
  6
CONTINUOUS
 62
    30
 10
-120.499993
 20
-268.304919
 30
0.0
 40
5.0
  0
LINE
  5
F1D
  8
SIZE
  6
CONTINUOUS
 62
    30
 10
-125.499993
 20
-268.304919
 30
0.0
 11
-130.499993
 21
-268.304919
 31
0.0
  0
POINT
  5
F1E
  8
DEFPOINTS
  6
CONTINUOUS
 62
     7
 10
-178.499993
 20
197.250028
 30
0.0
  0
POINT
  5
F1F
  8
DEFPOINTS
  6
CONTINUOUS
 62
     7
 10
-120.499993
 20
197.250028
 30
0.0
  0
POINT
  5
F20
  8
DEFPOINTS
  6
CONTINUOUS
 62
     7
 10
-120.499993
 20
-268.304919
 30
0.0
  0
LINE
  5
F21
  8
SIZE
  6
CONTINUOUS
 62
    30
 10
-454.500008
 20
-11.0
 30
0.0
 11
-454.500008
 21
-200.089389
 31
0.0
  0
LINE
  5
F22
  8
SIZE
  6
CONTINUOUS
 62
    30
 10
-269.500012
 20
106.250008
 30
0.0
 11
-269.500012
 21
-200.089389
 31
0.0
  0
LINE
  5
F23
  8
SIZE
  6
CONTINUOUS
 62
    30
 10
-279.500012
 20
-170.089389
 30
0.0
 11
-444.500008
 21
-170.089389
 31
0.0
  0
LINE
  5
F24
  8
SIZE
  6
CONTINUOUS
 62
    30
 10
-454.500008
 20
-170.089389
 30
0.0
 11
-612.357151
 21
-170.089389
 31
0.0
  0
CIRCLE
  5
F25
  8
SIZE
  6
CONTINUOUS
 62
    30
 10
-269.500012
 20
-170.089389
 30
0.0
 40
5.0
  0
LINE
  5
F26
  8
SIZE
  6
CONTINUOUS
 62
    30
 10
-274.500012
 20
-170.089389
 30
0.0
 11
-279.500012
 21
-170.089389
 31
0.0
  0
CIRCLE
  5
F27
  8
SIZE
  6
CONTINUOUS
 62
    30
 10
-454.500008
 20
-170.089389
 30
0.0
 40
5.0
  0
LINE
  5
F28
  8
SIZE
  6
CONTINUOUS
 62
    30
 10
-449.500008
 20
-170.089389
 30
0.0
 11
-444.500008
 21
-170.089389
 31
0.0
  0
TEXT
  5
F29
  8
SIZE
  6
CONTINUOUS
 62
    30
 10
-597.357151
 20
-155.089389
 30
0.0
 40
55.0
  1
185
 41
0.9
 72
     1
 11
-538.42858
 21
-155.089389
 31
0.0
  0
POINT
  5
F2A
  8
DEFPOINTS
  6
CONTINUOUS
 62
     7
 10
-454.500008
 20
9.0
 30
0.0
  0
POINT
  5
F2B
  8
DEFPOINTS
  6
CONTINUOUS
 62
     7
 10
-269.500012
 20
126.250008
 30
0.0
  0
POINT
  5
F2C
  8
DEFPOINTS
  6
CONTINUOUS
 62
     7
 10
-269.500012
 20
-170.089389
 30
0.0
  0
LINE
  5
F2D
  8
SIZE
  6
CONTINUOUS
 62
    30
 10
-460.000009
 20
1372.000062
 30
0.0
 11
-460.000009
 21
564.553468
 31
0.0
  0
LINE
  5
F2E
  8
SIZE
  6
CONTINUOUS
 62
    30
 10
-209.000004
 20
281.000027
 30
0.0
 11
-209.000004
 21
624.553468
 31
0.0
  0
LINE
  5
F2F
  8
SIZE
  6
CONTINUOUS
 62
    30
 10
-450.000009
 20
594.553468
 30
0.0
 11
-219.000004
 21
594.553468
 31
0.0
  0
CIRCLE
  5
F30
  8
SIZE
  6
CONTINUOUS
 62
    30
 10
-460.000009
 20
594.553468
 30
0.0
 40
5.0
  0
LINE
  5
F31
  8
SIZE
  6
CONTINUOUS
 62
    30
 10
-455.000009
 20
594.553468
 30
0.0
 11
-450.000009
 21
594.553468
 31
0.0
  0
CIRCLE
  5
F32
  8
SIZE
  6
CONTINUOUS
 62
    30
 10
-209.000004
 20
594.553468
 30
0.0
 40
5.0
  0
LINE
  5
F33
  8
SIZE
  6
CONTINUOUS
 62
    30
 10
-214.000004
 20
594.553468
 30
0.0
 11
-219.000004
 21
594.553468
 31
0.0
  0
TEXT
  5
F34
  8
SIZE
  6
CONTINUOUS
 62
    30
 10
-367.484211
 20
609.553468
 30
0.0
 40
55.0
  1
251
 41
0.9
 72
     1
 11
-314.448497
 21
609.553468
 31
0.0
  0
POINT
  5
F35
  8
DEFPOINTS
  6
CONTINUOUS
 62
     7
 10
-460.000009
 20
1392.000062
 30
0.0
  0
POINT
  5
F36
  8
DEFPOINTS
  6
CONTINUOUS
 62
     7
 10
-209.000004
 20
261.000027
 30
0.0
  0
POINT
  5
F37
  8
DEFPOINTS
  6
CONTINUOUS
 62
     7
 10
-209.000004
 20
594.553468
 30
0.0
  0
LINE
  5
F38
  8
SIZE
  6
CONTINUOUS
 62
    30
 10
-209.000004
 20
281.000027
 30
0.0
 11
-209.000004
 21
624.553468
 31
0.0
  0
LINE
  5
F39
  8
SIZE
  6
CONTINUOUS
 62
    30
 10
-126.000012
 20
322.750028
 30
0.0
 11
-126.000012
 21
624.553468
 31
0.0
  0
LINE
  5
F3A
  8
SIZE
  6
CONTINUOUS
 62
    30
 10
-219.000004
 20
594.553468
 30
0.0
 11
-229.000004
 21
594.553468
 31
0.0
  0
LINE
  5
F3B
  8
SIZE
  6
CONTINUOUS
 62
    30
 10
-116.000012
 20
594.553468
 30
0.0
 11
-106.000012
 21
594.553468
 31
0.0
  0
LINE
  5
F3C
  8
SIZE
  6
CONTINUOUS
 62
    30
 10
-209.000004
 20
594.553468
 30
0.0
 11
-126.000012
 21
594.553468
 31
0.0
  0
CIRCLE
  5
F3D
  8
SIZE
  6
CONTINUOUS
 62
    30
 10
-209.000004
 20
594.553468
 30
0.0
 40
5.0
  0
LINE
  5
F3E
  8
SIZE
  6
CONTINUOUS
 62
    30
 10
-214.000004
 20
594.553468
 30
0.0
 11
-219.000004
 21
594.553468
 31
0.0
  0
CIRCLE
  5
F3F
  8
SIZE
  6
CONTINUOUS
 62
    30
 10
-126.000012
 20
594.553468
 30
0.0
 40
5.0
  0
LINE
  5
F40
  8
SIZE
  6
CONTINUOUS
 62
    30
 10
-121.000012
 20
594.553468
 30
0.0
 11
-116.000012
 21
594.553468
 31
0.0
  0
TEXT
  5
F41
  8
SIZE
  6
CONTINUOUS
 62
    30
 10
-207.571437
 20
609.553468
 30
0.0
 40
55.0
  1
83
 41
0.9
 72
     1
 11
-167.500008
 21
609.553468
 31
0.0
  0
POINT
  5
F42
  8
DEFPOINTS
  6
CONTINUOUS
 62
     7
 10
-209.000004
 20
261.000027
 30
0.0
  0
POINT
  5
F43
  8
DEFPOINTS
  6
CONTINUOUS
 62
     7
 10
-126.000012
 20
302.750028
 30
0.0
  0
POINT
  5
F44
  8
DEFPOINTS
  6
CONTINUOUS
 62
     7
 10
-126.000012
 20
594.553468
 30
0.0
  0
LINE
  5
F45
  8
DETAIL
  6
CONTINUOUS
 62
     5
 10
-279.003908
 20
262.994356
 30
0.0
 11
-107.00773
 21
262.994356
 31
0.0
  0
LINE
  5
F46
  8
DETAIL
  6
CONTINUOUS
 62
     5
 10
-301.003419
 20
54.000019
 30
0.0
 11
-301.003419
 21
240.994845
 31
0.0
  0
ARC
  5
F47
  8
DETAIL
  6
CONTINUOUS
 62
     5
 10
-279.003908
 20
240.994845
 30
0.0
 40
21.999511
 50
90.0
 51
180.0
  0
LINE
  5
F48
  8
DETAIL
  6
CONTINUOUS
 62
     5
 10
-85.008219
 20
54.000044
 30
0.0
 11
-85.008219
 21
240.994845
 31
0.0
  0
ARC
  5
F49
  8
DETAIL
  6
CONTINUOUS
 62
     5
 10
-107.00773
 20
240.994845
 30
0.0
 40
21.999511
 50
0.0
 51
90.0
  0
TEXT
  5
F4A
  8
NOTE
  6
CONTINUOUS
 62
     4
 10
-1213.387274
 20
362.965911
 30
0.0
 40
55.0
  1
前面通し穴（分岐管キット使用時）
 50
359.999997
 41
0.630952
  7
STANDARD1
  0
LINE
  5
F4B
  8
NOTE
  6
CONTINUOUS
 62
     4
 10
-1227.908804
 20
352.621094
 30
0.0
 11
-557.219342
 21
352.621094
 31
0.0
  0
LINE
  5
F4C
  8
SIZE
  6
CONTINUOUS
 62
    30
 10
-469.500008
 20
0.0
 30
0.0
 11
-579.326298
 21
0.0
 31
0.0
  0
LINE
  5
F4D
  8
SIZE
  6
CONTINUOUS
 62
    30
 10
-309.250012
 20
146.000008
 30
0.0
 11
-579.326298
 21
146.000008
 31
0.0
  0
LINE
  5
F4E
  8
SIZE
  6
CONTINUOUS
 62
    30
 10
-549.326298
 20
10.0
 30
0.0
 11
-549.326298
 21
136.000008
 31
0.0
  0
CIRCLE
  5
F4F
  8
SIZE
  6
CONTINUOUS
 62
    30
 10
-549.326298
 20
0.0
 30
0.0
 40
5.0
  0
LINE
  5
F50
  8
SIZE
  6
CONTINUOUS
 62
    30
 10
-549.326298
 20
5.0
 30
0.0
 11
-549.326298
 21
10.0
 31
0.0
  0
CIRCLE
  5
F51
  8
SIZE
  6
CONTINUOUS
 62
    30
 10
-549.326298
 20
146.000008
 30
0.0
 40
5.0
  0
LINE
  5
F52
  8
SIZE
  6
CONTINUOUS
 62
    30
 10
-549.326298
 20
141.000008
 30
0.0
 11
-549.326298
 21
136.000008
 31
0.0
  0
TEXT
  5
F53
  8
SIZE
  6
CONTINUOUS
 62
    30
 10
-564.326298
 20
15.250004
 30
0.0
 40
55.0
  1
146
 50
90.0
 41
0.9
 72
     1
 11
-564.326298
 21
73.000004
 31
0.0
  0
POINT
  5
F54
  8
DEFPOINTS
  6
CONTINUOUS
 62
     7
 10
-449.500008
 20
0.0
 30
0.0
  0
POINT
  5
F55
  8
DEFPOINTS
  6
CONTINUOUS
 62
     7
 10
-289.250012
 20
146.000008
 30
0.0
  0
POINT
  5
F56
  8
DEFPOINTS
  6
CONTINUOUS
 62
     7
 10
-549.326298
 20
146.000008
 30
0.0
  0
LINE
  5
F57
  8
SIZE
  6
CONTINUOUS
 62
    30
 10
-469.500008
 20
0.0
 30
0.0
 11
-707.797448
 21
0.0
 31
0.0
  0
LINE
  5
F58
  8
SIZE
  6
CONTINUOUS
 62
    30
 10
-160.249993
 20
217.000029
 30
0.0
 11
-707.797448
 21
217.000029
 31
0.0
  0
LINE
  5
F59
  8
SIZE
  6
CONTINUOUS
 62
    30
 10
-677.797448
 20
10.0
 30
0.0
 11
-677.797448
 21
207.000029
 31
0.0
  0
CIRCLE
  5
F5A
  8
SIZE
  6
CONTINUOUS
 62
    30
 10
-677.797448
 20
0.0
 30
0.0
 40
5.0
  0
LINE
  5
F5B
  8
SIZE
  6
CONTINUOUS
 62
    30
 10
-677.797448
 20
5.0
 30
0.0
 11
-677.797448
 21
10.0
 31
0.0
  0
CIRCLE
  5
F5C
  8
SIZE
  6
CONTINUOUS
 62
    30
 10
-677.797448
 20
217.000029
 30
0.0
 40
5.0
  0
LINE
  5
F5D
  8
SIZE
  6
CONTINUOUS
 62
    30
 10
-677.797448
 20
212.000029
 30
0.0
 11
-677.797448
 21
207.000029
 31
0.0
  0
TEXT
  5
F5E
  8
SIZE
  6
CONTINUOUS
 62
    30
 10
-692.797448
 20
49.571443
 30
0.0
 40
55.0
  1
217
 50
90.0
 41
0.9
 72
     1
 11
-692.797448
 21
108.500014
 31
0.0
  0
POINT
  5
F5F
  8
DEFPOINTS
  6
CONTINUOUS
 62
     7
 10
-449.500008
 20
0.0
 30
0.0
  0
POINT
  5
F60
  8
DEFPOINTS
  6
CONTINUOUS
 62
     7
 10
-140.249993
 20
217.000029
 30
0.0
  0
POINT
  5
F61
  8
DEFPOINTS
  6
CONTINUOUS
 62
     7
 10
-677.797448
 20
217.000029
 30
0.0
  0
LINE
  5
F62
  8
SIZE
  6
CONTINUOUS
 62
    30
 10
54.449674
 20
0.0
 30
0.0
 11
224.916771
 21
0.0
 31
0.0
  0
LINE
  5
F63
  8
SIZE
  6
CONTINUOUS
 62
    30
 10
-78.500008
 20
90.000008
 30
0.0
 11
224.916771
 21
90.000008
 31
0.0
  0
LINE
  5
F64
  8
SIZE
  6
CONTINUOUS
 62
    30
 10
194.916771
 20
80.000008
 30
0.0
 11
194.916771
 21
10.0
 31
0.0
  0
LINE
  5
F65
  8
SIZE
  6
CONTINUOUS
 62
    30
 10
194.916771
 20
0.0
 30
0.0
 11
194.916771
 21
-120.142857
 31
0.0
  0
CIRCLE
  5
F66
  8
SIZE
  6
CONTINUOUS
 62
    30
 10
194.916771
 20
90.000008
 30
0.0
 40
5.0
  0
LINE
  5
F67
  8
SIZE
  6
CONTINUOUS
 62
    30
 10
194.916771
 20
85.000008
 30
0.0
 11
194.916771
 21
80.000008
 31
0.0
  0
CIRCLE
  5
F68
  8
SIZE
  6
CONTINUOUS
 62
    30
 10
194.916771
 20
0.0
 30
0.0
 40
5.0
  0
LINE
  5
F69
  8
SIZE
  6
CONTINUOUS
 62
    30
 10
194.916771
 20
5.0
 30
0.0
 11
194.916771
 21
10.0
 31
0.0
  0
TEXT
  5
F6A
  8
SIZE
  6
CONTINUOUS
 62
    30
 10
179.916771
 20
-105.142858
 30
0.0
 40
55.0
  1
90
 50
90.0
 41
0.9
 72
     1
 11
179.916771
 21
-65.071429
 31
0.0
  0
POINT
  5
F6B
  8
DEFPOINTS
  6
CONTINUOUS
 62
     7
 10
34.449674
 20
0.0
 30
0.0
  0
POINT
  5
F6C
  8
DEFPOINTS
  6
CONTINUOUS
 62
     7
 10
-98.500008
 20
90.000008
 30
0.0
  0
POINT
  5
F6D
  8
DEFPOINTS
  6
CONTINUOUS
 62
     7
 10
194.916771
 20
90.000008
 30
0.0
  0
LINE
  5
F6E
  8
SIZE
  6
CONTINUOUS
 62
    30
 10
-78.500008
 20
90.000008
 30
0.0
 11
224.916771
 21
90.000008
 31
0.0
  0
LINE
  5
F6F
  8
SIZE
  6
CONTINUOUS
 62
    30
 10
-78.500008
 20
167.000008
 30
0.0
 11
224.916771
 21
167.000008
 31
0.0
  0
LINE
  5
F70
  8
SIZE
  6
CONTINUOUS
 62
    30
 10
194.916771
 20
80.000008
 30
0.0
 11
194.916771
 21
70.000008
 31
0.0
  0
LINE
  5
F71
  8
SIZE
  6
CONTINUOUS
 62
    30
 10
194.916771
 20
177.000008
 30
0.0
 11
194.916771
 21
187.000008
 31
0.0
  0
LINE
  5
F72
  8
SIZE
  6
CONTINUOUS
 62
    30
 10
194.916771
 20
90.000008
 30
0.0
 11
194.916771
 21
167.000008
 31
0.0
  0
CIRCLE
  5
F73
  8
SIZE
  6
CONTINUOUS
 62
    30
 10
194.916771
 20
90.000008
 30
0.0
 40
5.0
  0
LINE
  5
F74
  8
SIZE
  6
CONTINUOUS
 62
    30
 10
194.916771
 20
85.000008
 30
0.0
 11
194.916771
 21
80.000008
 31
0.0
  0
CIRCLE
  5
F75
  8
SIZE
  6
CONTINUOUS
 62
    30
 10
194.916771
 20
167.000008
 30
0.0
 40
5.0
  0
LINE
  5
F76
  8
SIZE
  6
CONTINUOUS
 62
    30
 10
194.916771
 20
172.000008
 30
0.0
 11
194.916771
 21
177.000008
 31
0.0
  0
TEXT
  5
F77
  8
SIZE
  6
CONTINUOUS
 62
    30
 10
179.916771
 20
88.428579
 30
0.0
 40
55.0
  1
77
 50
90.0
 41
0.9
 72
     1
 11
179.916771
 21
128.500008
 31
0.0
  0
POINT
  5
F78
  8
DEFPOINTS
  6
CONTINUOUS
 62
     7
 10
-98.500008
 20
90.000008
 30
0.0
  0
POINT
  5
F79
  8
DEFPOINTS
  6
CONTINUOUS
 62
     7
 10
-98.500008
 20
167.000008
 30
0.0
  0
POINT
  5
F7A
  8
DEFPOINTS
  6
CONTINUOUS
 62
     7
 10
194.916771
 20
167.000008
 30
0.0
  0
LINE
  5
F7B
  8
SIZE
  6
CONTINUOUS
 62
    30
 10
469.500008
 20
0.0
 30
0.0
 11
765.863521
 21
0.0
 31
0.0
  0
LINE
  5
F7C
  8
SIZE
  6
CONTINUOUS
 62
    30
 10
475.200008
 20
54.000001
 30
0.0
 11
765.863521
 21
54.000001
 31
0.0
  0
LINE
  5
F7D
  8
SIZE
  6
CONTINUOUS
 62
    30
 10
735.863521
 20
10.0
 30
0.0
 11
735.863521
 21
44.000001
 31
0.0
  0
LINE
  5
F7E
  8
SIZE
  6
CONTINUOUS
 62
    30
 10
735.863521
 20
54.000001
 30
0.0
 11
735.863521
 21
176.500001
 31
0.0
  0
CIRCLE
  5
F7F
  8
SIZE
  6
CONTINUOUS
 62
    30
 10
735.863521
 20
0.0
 30
0.0
 40
5.0
  0
LINE
  5
F80
  8
SIZE
  6
CONTINUOUS
 62
    30
 10
735.863521
 20
5.0
 30
0.0
 11
735.863521
 21
10.0
 31
0.0
  0
CIRCLE
  5
F81
  8
SIZE
  6
CONTINUOUS
 62
    30
 10
735.863521
 20
54.000001
 30
0.0
 40
5.0
  0
LINE
  5
F82
  8
SIZE
  6
CONTINUOUS
 62
    30
 10
735.863521
 20
49.000001
 30
0.0
 11
735.863521
 21
44.000001
 31
0.0
  0
TEXT
  5
F83
  8
SIZE
  6
CONTINUOUS
 62
    30
 10
720.863521
 20
79.000001
 30
0.0
 40
55.0
  1
54
 50
90.0
 41
0.9
 72
     1
 11
720.863521
 21
120.250001
 31
0.0
  0
POINT
  5
F84
  8
DEFPOINTS
  6
CONTINUOUS
 62
     7
 10
449.500008
 20
0.0
 30
0.0
  0
POINT
  5
F85
  8
DEFPOINTS
  6
CONTINUOUS
 62
     7
 10
455.200008
 20
54.000001
 30
0.0
  0
POINT
  5
F86
  8
DEFPOINTS
  6
CONTINUOUS
 62
     7
 10
735.863521
 20
54.000001
 30
0.0
  0
LINE
  5
F87
  8
NOTE
  6
CONTINUOUS
 62
     4
 10
-93.500008
 20
128.500008
 30
0.0
 11
-65.918425
 21
147.218112
 31
0.0
  0
LINE
  5
F88
  8
NOTE
  6
CONTINUOUS
 62
     4
 10
-93.500008
 20
128.500008
 30
0.0
 11
-78.972709
 21
158.501153
 31
0.0
  0
LINE
  5
F89
  8
NOTE
  6
CONTINUOUS
 62
     4
 10
18.394011
 20
257.959454
 30
0.0
 11
-93.500008
 21
128.500008
 31
0.0
  0
TEXT
  5
F8A
  8
NOTE
  6
CONTINUOUS
 62
     4
 10
63.083242
 20
330.377143
 30
0.0
 40
55.0
  1
前面通し穴
 50
0.000003
 41
0.630952
  7
STANDARD1
  0
TEXT
  5
F8B
  8
NOTE
  6
CONTINUOUS
 62
     4
 10
47.772009
 20
266.102925
 30
0.0
 40
55.0
  1
 （ﾉｯｸｱｳﾄ穴）
 50
0.000003
 41
0.630952
  7
STANDARD1
  0
LINE
  5
F8C
  8
NOTE
  6
CONTINUOUS
 62
     4
 10
18.394011
 20
257.959454
 30
0.0
 11
293.215021
 21
257.959454
 31
0.0
  0
LINE
  5
F8D
  8
SIZE
  6
CONTINUOUS
 62
    30
 10
-165.750012
 20
262.99999
 30
0.0
 11
-962.568739
 21
262.99999
 31
0.0
  0
LINE
  5
F8E
  8
SIZE
  6
CONTINUOUS
 62
    30
 10
-469.500008
 20
0.0
 30
0.0
 11
-962.568739
 21
0.0
 31
0.0
  0
LINE
  5
F8F
  8
SIZE
  6
CONTINUOUS
 62
    30
 10
-932.568739
 20
252.99999
 30
0.0
 11
-932.568739
 21
10.0
 31
0.0
  0
CIRCLE
  5
F90
  8
SIZE
  6
CONTINUOUS
 62
    30
 10
-932.568739
 20
262.99999
 30
0.0
 40
5.0
  0
LINE
  5
F91
  8
SIZE
  6
CONTINUOUS
 62
    30
 10
-932.568739
 20
257.99999
 30
0.0
 11
-932.568739
 21
252.99999
 31
0.0
  0
CIRCLE
  5
F92
  8
SIZE
  6
CONTINUOUS
 62
    30
 10
-932.568739
 20
0.0
 30
0.0
 40
5.0
  0
LINE
  5
F93
  8
SIZE
  6
CONTINUOUS
 62
    30
 10
-932.568739
 20
5.0
 30
0.0
 11
-932.568739
 21
10.0
 31
0.0
  0
TEXT
  5
F94
  8
SIZE
  6
CONTINUOUS
 62
    30
 10
-947.568739
 20
67.857138
 30
0.0
 40
55.0
  1
263
 50
90.0
 41
0.9
 72
     1
 11
-947.568739
 21
131.499995
 31
0.0
  0
POINT
  5
F95
  8
DEFPOINTS
  6
CONTINUOUS
 62
     7
 10
-145.750012
 20
262.99999
 30
0.0
  0
POINT
  5
F96
  8
DEFPOINTS
  6
CONTINUOUS
 62
     7
 10
-449.500008
 20
0.0
 30
0.0
  0
POINT
  5
F97
  8
DEFPOINTS
  6
CONTINUOUS
 62
     7
 10
-932.568739
 20
0.0
 30
0.0
  0
LINE
  5
F98
  8
SIZE
  6
CONTINUOUS
 62
    30
 10
-248.750004
 20
261.000027
 30
0.0
 11
-831.737103
 21
261.000027
 31
0.0
  0
LINE
  5
F99
  8
SIZE
  6
CONTINUOUS
 62
    30
 10
-469.500008
 20
0.0
 30
0.0
 11
-831.737103
 21
0.0
 31
0.0
  0
LINE
  5
F9A
  8
SIZE
  6
CONTINUOUS
 62
    30
 10
-801.737103
 20
251.000027
 30
0.0
 11
-801.737103
 21
10.0
 31
0.0
  0
CIRCLE
  5
F9B
  8
SIZE
  6
CONTINUOUS
 62
    30
 10
-801.737103
 20
261.000027
 30
0.0
 40
5.0
  0
LINE
  5
F9C
  8
SIZE
  6
CONTINUOUS
 62
    30
 10
-801.737103
 20
256.000027
 30
0.0
 11
-801.737103
 21
251.000027
 31
0.0
  0
CIRCLE
  5
F9D
  8
SIZE
  6
CONTINUOUS
 62
    30
 10
-801.737103
 20
0.0
 30
0.0
 40
5.0
  0
LINE
  5
F9E
  8
SIZE
  6
CONTINUOUS
 62
    30
 10
-801.737103
 20
5.0
 30
0.0
 11
-801.737103
 21
10.0
 31
0.0
  0
TEXT
  5
F9F
  8
SIZE
  6
CONTINUOUS
 62
    30
 10
-816.737103
 20
72.927662
 30
0.0
 40
55.0
  1
261
 50
90.0
 41
0.9
 72
     1
 11
-816.737103
 21
125.963376
 31
0.0
  0
POINT
  5
FA0
  8
DEFPOINTS
  6
CONTINUOUS
 62
     7
 10
-228.750004
 20
261.000027
 30
0.0
  0
POINT
  5
FA1
  8
DEFPOINTS
  6
CONTINUOUS
 62
     7
 10
-449.500008
 20
0.0
 30
0.0
  0
POINT
  5
FA2
  8
DEFPOINTS
  6
CONTINUOUS
 62
     7
 10
-801.737103
 20
0.0
 30
0.0
  0
TEXT
  5
FA3
  8
NOTE
  6
CONTINUOUS
 62
     4
 10
-1216.234317
 20
293.199754
 30
0.0
 40
55.0
  1
%%C45ﾉｯｸｱｳﾄ穴
 50
359.999997
 41
0.630952
  7
STANDARD1
  0
ENDSEC
  0
EOF
