  0
SECTION
  2
HEADER
  9
$ACADVER
  1
AC1009
  9
$INSBASE
 10
0.0
 20
0.0
 30
0.0
  9
$EXTMIN
 10
-1288.14695
 20
-563.310225
 30
-0.001526
  9
$EXTMAX
 10
1639.984147
 20
1957.310498
 30
0.0
  9
$LIMMIN
 10
-4200.0
 20
-2970.0
  9
$LIMMAX
 10
4200.0
 20
2970.0
  9
$ORTHOMODE
 70
     0
  9
$REGENMODE
 70
     1
  9
$FILLMODE
 70
     1
  9
$QTEXTMODE
 70
     0
  9
$MIRRTEXT
 70
     0
  9
$DRAGMODE
 70
     2
  9
$LTSCALE
 40
20.0
  9
$OSMODE
 70
    37
  9
$ATTMODE
 70
     1
  9
$TEXTSIZE
 40
64.0
  9
$TRACEWID
 40
0.05
  9
$TEXTSTYLE
  7
STANDARD
  9
$CLAYER
  8
SIZE
  9
$CELTYPE
  6
CONTINUOUS
  9
$CECOLOR
 62
     7
  9
$DIMSCALE
 40
1.0
  9
$DIMASZ
 40
10.0
  9
$DIMEXO
 40
20.0
  9
$DIMDLI
 40
200.0
  9
$DIMRND
 40
0.0
  9
$DIMDLE
 40
0.0
  9
$DIMEXE
 40
30.0
  9
$DIMTP
 40
0.0
  9
$DIMTM
 40
0.0
  9
$DIMTXT
 40
55.0
  9
$DIMCEN
 40
0.0
  9
$DIMTSZ
 40
0.0
  9
$DIMTOL
 70
     0
  9
$DIMLIM
 70
     0
  9
$DIMTIH
 70
     0
  9
$DIMTOH
 70
     0
  9
$DIMSE1
 70
     0
  9
$DIMSE2
 70
     0
  9
$DIMTAD
 70
     1
  9
$DIMZIN
 70
     8
  9
$DIMBLK
  1
_DOTBLANK
  9
$DIMASO
 70
     1
  9
$DIMSHO
 70
     0
  9
$DIMPOST
  1

  9
$DIMAPOST
  1

  9
$DIMALT
 70
     0
  9
$DIMALTD
 70
     2
  9
$DIMALTF
 40
25.4
  9
$DIMLFAC
 40
1.0
  9
$DIMTOFL
 70
     1
  9
$DIMTVP
 40
0.0
  9
$DIMTIX
 70
     1
  9
$DIMSOXD
 70
     0
  9
$DIMSAH
 70
     0
  9
$DIMBLK1
  1

  9
$DIMBLK2
  1

  9
$DIMSTYLE
  2
STANDARD
  9
$DIMCLRD
 70
     0
  9
$DIMCLRE
 70
     0
  9
$DIMCLRT
 70
     0
  9
$DIMTFAC
 40
1.0
  9
$DIMGAP
 40
0.09
  9
$LUNITS
 70
     2
  9
$LUPREC
 70
     4
  9
$SKETCHINC
 40
0.1
  9
$FILLETRAD
 40
0.0
  9
$AUNITS
 70
     1
  9
$AUPREC
 70
     3
  9
$MENU
  1
ACAD
  9
$ELEVATION
 40
0.0
  9
$PELEVATION
 40
0.0
  9
$THICKNESS
 40
0.0
  9
$LIMCHECK
 70
     0
  9
$BLIPMODE
 70
     0
  9
$CHAMFERA
 40
0.0
  9
$CHAMFERB
 40
0.0
  9
$SKPOLY
 70
     0
  9
$TDCREATE
 40
2449761.493623
  9
$TDUPDATE
 40
2454280.643726
  9
$TDINDWG
 40
4.497979
  9
$TDUSRTIMER
 40
4.497979
  9
$USRTIMER
 70
     1
  9
$ANGBASE
 50
0.0
  9
$ANGDIR
 70
     0
  9
$PDMODE
 70
    35
  9
$PDSIZE
 40
100.0
  9
$PLINEWID
 40
0.0
  9
$COORDS
 70
     2
  9
$SPLFRAME
 70
     0
  9
$SPLINETYPE
 70
     6
  9
$SPLINESEGS
 70
     8
  9
$ATTDIA
 70
     0
  9
$ATTREQ
 70
     1
  9
$HANDLING
 70
     1
  9
$HANDSEED
  5
101F
  9
$SURFTAB1
 70
     6
  9
$SURFTAB2
 70
     6
  9
$SURFTYPE
 70
     6
  9
$SURFU
 70
     6
  9
$SURFV
 70
     6
  9
$UCSNAME
  2

  9
$UCSORG
 10
0.0
 20
0.0
 30
0.0
  9
$UCSXDIR
 10
1.0
 20
0.0
 30
0.0
  9
$UCSYDIR
 10
0.0
 20
1.0
 30
0.0
  9
$PUCSNAME
  2

  9
$PUCSORG
 10
0.0
 20
0.0
 30
0.0
  9
$PUCSXDIR
 10
1.0
 20
0.0
 30
0.0
  9
$PUCSYDIR
 10
0.0
 20
1.0
 30
0.0
  9
$USERI1
 70
     0
  9
$USERI2
 70
     0
  9
$USERI3
 70
     0
  9
$USERI4
 70
     0
  9
$USERI5
 70
     0
  9
$USERR1
 40
20.0
  9
$USERR2
 40
0.0
  9
$USERR3
 40
0.0
  9
$USERR4
 40
0.0
  9
$USERR5
 40
0.0
  9
$WORLDVIEW
 70
     1
  9
$SHADEDGE
 70
     3
  9
$SHADEDIF
 70
    70
  9
$TILEMODE
 70
     1
  9
$MAXACTVP
 70
    48
  9
$PLIMCHECK
 70
     0
  9
$PEXTMIN
 10
1.000000E+020
 20
1.000000E+020
 30
1.000000E+020
  9
$PEXTMAX
 10
-1.000000E+020
 20
-1.000000E+020
 30
-1.000000E+020
  9
$PLIMMIN
 10
0.0
 20
0.0
  9
$PLIMMAX
 10
12.0
 20
9.0
  9
$UNITMODE
 70
     0
  9
$VISRETAIN
 70
     1
  9
$PLINEGEN
 70
     0
  9
$PSLTSCALE
 70
     1
  0
ENDSEC
  0
SECTION
  2
TABLES
  0
TABLE
  2
VPORT
 70
    35
  0
VPORT
  2
*ACTIVE
 70
     0
 10
0.0
 20
0.0
 11
1.0
 21
1.0
 12
175.918599
 22
697.000137
 13
0.0
 23
0.0
 14
50.0
 24
50.0
 15
100.0
 25
100.0
 16
0.0
 26
0.0
 36
1.0
 17
0.0
 27
0.0
 37
0.0
 40
2551.173702
 41
2.02834
 42
50.0
 43
0.0
 44
0.0
 50
0.0
 51
0.0
 71
     0
 72
  1000
 73
     1
 74
     0
 75
     0
 76
     0
 77
     0
 78
     0
  0
ENDTAB
  0
TABLE
  2
LTYPE
 70
     2
  0
LTYPE
  2
CONTINUOUS
 70
     0
  3
実線
 72
    65
 73
     0
 40
0.0
  0
LTYPE
  2
DASHDOT
 70
     0
  3
____ _ ____ _ ____ _ ____ _ ____ _ ____ _ ____
 72
    65
 73
     4
 40
5.5
 49
4.0
 49
-0.6
 49
0.3
 49
-0.6
  0
ENDTAB
  0
TABLE
  2
LAYER
 70
    12
  0
LAYER
  2
0
 70
     0
 62
     7
  6
CONTINUOUS
  0
LAYER
  2
SIZE
 70
     0
 62
    30
  6
CONTINUOUS
  0
LAYER
  2
OUTLINE
 70
     0
 62
     3
  6
CONTINUOUS
  0
LAYER
  2
DETAIL
 70
     0
 62
     5
  6
CONTINUOUS
  0
LAYER
  2
BASIS
 70
     0
 62
     6
  6
DASHDOT
  0
LAYER
  2
NOTE
 70
     0
 62
     4
  6
CONTINUOUS
  0
LAYER
  2
ARRANGE
 70
     0
 62
     1
  6
CONTINUOUS
  0
LAYER
  2
FIX
 70
     0
 62
    11
  6
CONTINUOUS
  0
LAYER
  2
SERVICESPACE
 70
     0
 62
     2
  6
DASHDOT
  0
LAYER
  2
ETC
 70
     0
 62
    61
  6
CONTINUOUS
  0
LAYER
  2
SYMBOLLINE
 70
     0
 62
    15
  6
CONTINUOUS
  0
LAYER
  2
DEFPOINTS
 70
     0
 62
     7
  6
CONTINUOUS
  0
ENDTAB
  0
TABLE
  2
STYLE
 70
     2
  0
STYLE
  2
STANDARD
 70
     0
 40
0.0
 41
0.9
 50
0.0
 71
     0
 42
64.0
  3
SIMPLEX
  4
BIGFONT
  0
STYLE
  2
STANDARD1
 70
     0
 40
0.0
 41
1.0
 50
0.0
 71
     0
 42
3.5
  3
MONOTXT
  4
BIGFONT
  0
ENDTAB
  0
TABLE
  2
VIEW
 70
     1
  0
VIEW
  2
ALL
 70
     0
 40
6056.230032
 10
0.0
 20
58.115016
 41
8400.0
 11
0.0
 21
0.0
 31
1.0
 12
0.0
 22
0.0
 32
0.0
 42
50.0
 43
0.0
 44
0.0
 50
0.0
 71
     0
  0
ENDTAB
  0
TABLE
  2
UCS
 70
     0
  0
ENDTAB
  0
TABLE
  2
APPID
 70
     1
  0
APPID
  2
ACAD
 70
     0
  0
ENDTAB
  0
TABLE
  2
DIMSTYLE
 70
     1
  0
DIMSTYLE
  2
STANDARD
 70
     0
  3

  4

  5

  6

  7

 40
1.0
 41
0.18
 42
0.0625
 43
0.38
 44
0.18
 45
0.0
 46
0.0
 47
0.0
 48
0.0
140
0.18
141
0.09
142
0.0
143
25.4
144
1.0
145
0.0
146
1.0
147
0.09
 71
     0
 72
     0
 73
     1
 74
     1
 75
     0
 76
     0
 77
     0
 78
     0
170
     0
171
     2
172
     0
173
     0
174
     0
175
     0
176
     0
177
     0
178
     0
  0
ENDTAB
  0
ENDSEC
  0
SECTION
  2
BLOCKS
  0
BLOCK
  8
0
  2
$MODEL_SPACE
 70
     0
 10
0.0
 20
0.0
 30
0.0
  3
$MODEL_SPACE
  1

  0
ENDBLK
  5
FDF
  8
0
  0
BLOCK
 67
     1
  8
0
  2
$PAPER_SPACE
 70
     0
 10
0.0
 20
0.0
 30
0.0
  3
$PAPER_SPACE
  1

  0
ENDBLK
  5
FDC
 67
     1
  8
0
  0
BLOCK
  8
0
  2
_DOTBLANK
 70
     0
 10
0.0
 20
0.0
 30
0.0
  3
_DOTBLANK
  1

  0
CIRCLE
  5
32
  8
0
  6
CONTINUOUS
 62
     7
 10
0.0
 20
0.0
 30
0.0
 40
0.5
  0
LINE
  5
33
  8
0
  6
CONTINUOUS
 62
     7
 10
-0.5
 20
0.0
 30
0.0
 11
-1.0
 21
0.0
 31
0.0
  0
ENDBLK
  5
34
  8
0
  0
ENDSEC
  0
SECTION
  2
ENTITIES
  0
TEXT
  5
35
  8
NOTE
  6
CONTINUOUS
 62
     4
 10
-87.811816
 20
1745.661142
 30
0.0
 40
55.0
  1
空気吹出
 50
359.999997
 41
0.703125
  7
STANDARD1
  0
LINE
  5
36
  8
NOTE
  6
CONTINUOUS
 62
     4
 10
230.757189
 20
1785.849456
 30
0.0
 11
180.757188
 21
1735.953409
 31
0.0
  0
LINE
  5
37
  8
NOTE
  6
CONTINUOUS
 62
     4
 10
280.75719
 20
1735.953409
 30
0.0
 11
230.757189
 21
1785.849456
 31
0.0
  0
LINE
  5
38
  8
NOTE
  6
CONTINUOUS
 62
     4
 10
280.75719
 20
1735.953409
 30
0.0
 11
255.757189
 21
1735.953409
 31
0.0
  0
LINE
  5
39
  8
NOTE
  6
CONTINUOUS
 62
     4
 10
205.757188
 20
1735.953409
 30
0.0
 11
180.757188
 21
1735.953409
 31
0.0
  0
LINE
  5
3A
  8
NOTE
  6
CONTINUOUS
 62
     4
 10
205.757188
 20
1735.953409
 30
0.0
 11
205.757188
 21
1695.267321
 31
0.0
  0
LINE
  5
3B
  8
NOTE
  6
CONTINUOUS
 62
     4
 10
255.757189
 20
1735.953409
 30
0.0
 11
255.757189
 21
1695.267321
 31
0.0
  0
LINE
  5
3C
  8
NOTE
  6
CONTINUOUS
 62
     4
 10
205.757188
 20
1695.267321
 30
0.0
 11
255.757189
 21
1695.267321
 31
0.0
  0
LINE
  5
3D
  8
NOTE
  6
CONTINUOUS
 62
     4
 10
-200.894608
 20
1695.267321
 30
0.0
 11
-250.894609
 21
1695.267321
 31
0.0
  0
LINE
  5
3E
  8
NOTE
  6
CONTINUOUS
 62
     4
 10
-250.894609
 20
1735.953409
 30
0.0
 11
-250.894609
 21
1695.267321
 31
0.0
  0
LINE
  5
3F
  8
NOTE
  6
CONTINUOUS
 62
     4
 10
-200.894608
 20
1735.953409
 30
0.0
 11
-200.894608
 21
1695.267321
 31
0.0
  0
LINE
  5
40
  8
NOTE
  6
CONTINUOUS
 62
     4
 10
-200.894608
 20
1735.953409
 30
0.0
 11
-175.894608
 21
1735.953409
 31
0.0
  0
LINE
  5
41
  8
NOTE
  6
CONTINUOUS
 62
     4
 10
-275.89461
 20
1735.953409
 30
0.0
 11
-250.894609
 21
1735.953409
 31
0.0
  0
LINE
  5
42
  8
NOTE
  6
CONTINUOUS
 62
     4
 10
-275.89461
 20
1735.953409
 30
0.0
 11
-225.894609
 21
1785.849456
 31
0.0
  0
LINE
  5
43
  8
NOTE
  6
CONTINUOUS
 62
     4
 10
-225.894609
 20
1785.849456
 30
0.0
 11
-175.894608
 21
1735.953409
 31
0.0
  0
TEXT
  5
44
  8
NOTE
  6
CONTINUOUS
 62
     4
 10
457.939653
 20
938.514334
 30
0.0
 40
55.0
  1
吸込
 50
359.999997
 41
0.703125
  7
STANDARD1
  0
TEXT
  5
45
  8
NOTE
  6
CONTINUOUS
 62
     4
 10
457.939653
 20
1025.181022
 30
0.0
 40
55.0
  1
空気
 50
359.999997
 41
0.703125
  7
STANDARD1
  0
LINE
  5
46
  8
NOTE
  6
CONTINUOUS
 62
     4
 10
536.918699
 20
1127.291968
 30
0.0
 11
536.918699
 21
1177.291969
 31
0.0
  0
LINE
  5
47
  8
NOTE
  6
CONTINUOUS
 62
     4
 10
496.232611
 20
1177.291969
 30
0.0
 11
536.918699
 21
1177.291969
 31
0.0
  0
LINE
  5
48
  8
NOTE
  6
CONTINUOUS
 62
     4
 10
496.232611
 20
1127.291968
 30
0.0
 11
536.918699
 21
1127.291968
 31
0.0
  0
LINE
  5
49
  8
NOTE
  6
CONTINUOUS
 62
     4
 10
496.232611
 20
1127.291968
 30
0.0
 11
496.232611
 21
1102.291968
 31
0.0
  0
LINE
  5
4A
  8
NOTE
  6
CONTINUOUS
 62
     4
 10
496.232611
 20
1202.29197
 30
0.0
 11
496.232611
 21
1177.291969
 31
0.0
  0
LINE
  5
4B
  8
NOTE
  6
CONTINUOUS
 62
     4
 10
496.232611
 20
1202.29197
 30
0.0
 11
446.336564
 21
1152.291969
 31
0.0
  0
LINE
  5
4C
  8
NOTE
  6
CONTINUOUS
 62
     4
 10
446.336564
 20
1152.291969
 30
0.0
 11
496.232611
 21
1102.291968
 31
0.0
  0
LINE
  5
4D
  8
NOTE
  6
CONTINUOUS
 62
     4
 10
498.242104
 20
815.709684
 30
0.0
 11
498.242104
 21
790.709683
 31
0.0
  0
LINE
  5
4E
  8
NOTE
  6
CONTINUOUS
 62
     4
 10
448.346058
 20
840.709684
 30
0.0
 11
498.242104
 21
790.709683
 31
0.0
  0
LINE
  5
4F
  8
NOTE
  6
CONTINUOUS
 62
     4
 10
498.242104
 20
890.709685
 30
0.0
 11
448.346058
 21
840.709684
 31
0.0
  0
LINE
  5
50
  8
NOTE
  6
CONTINUOUS
 62
     4
 10
498.242104
 20
815.709684
 30
0.0
 11
538.928192
 21
815.709684
 31
0.0
  0
LINE
  5
51
  8
NOTE
  6
CONTINUOUS
 62
     4
 10
498.242104
 20
865.709685
 30
0.0
 11
538.928192
 21
865.709685
 31
0.0
  0
LINE
  5
52
  8
NOTE
  6
CONTINUOUS
 62
     4
 10
538.928192
 20
815.709684
 30
0.0
 11
538.928192
 21
865.709685
 31
0.0
  0
LINE
  5
53
  8
NOTE
  6
CONTINUOUS
 62
     4
 10
498.242104
 20
890.709685
 30
0.0
 11
498.242104
 21
865.709685
 31
0.0
  0
LINE
  5
54
  8
SIZE
  6
CONTINUOUS
 62
    30
 10
348.499948
 20
54.000001
 30
0.0
 11
517.158621
 21
54.000001
 31
0.0
  0
LINE
  5
55
  8
SIZE
  6
CONTINUOUS
 62
    30
 10
399.499949
 20
0.0
 30
0.0
 11
517.158621
 21
0.0
 31
0.0
  0
LINE
  5
56
  8
SIZE
  6
CONTINUOUS
 62
    30
 10
487.158621
 20
10.0
 30
0.0
 11
487.158621
 21
44.000001
 31
0.0
  0
LINE
  5
57
  8
SIZE
  6
CONTINUOUS
 62
    30
 10
487.158621
 20
54.000001
 30
0.0
 11
487.158621
 21
187.837332
 31
0.0
  0
CIRCLE
  5
58
  8
SIZE
  6
CONTINUOUS
 62
    30
 10
487.158621
 20
0.0
 30
0.0
 40
5.0
  0
LINE
  5
59
  8
SIZE
  6
CONTINUOUS
 62
    30
 10
487.158621
 20
5.0
 30
0.0
 11
487.158621
 21
10.0
 31
0.0
  0
CIRCLE
  5
5A
  8
SIZE
  6
CONTINUOUS
 62
    30
 10
487.158621
 20
54.000001
 30
0.0
 40
5.0
  0
LINE
  5
5B
  8
SIZE
  6
CONTINUOUS
 62
    30
 10
487.158621
 20
49.000001
 30
0.0
 11
487.158621
 21
44.000001
 31
0.0
  0
TEXT
  5
5C
  8
SIZE
  6
CONTINUOUS
 62
    30
 10
472.158621
 20
90.337332
 30
0.0
 40
55.0
  1
54
 50
90.0
 41
0.9
 72
     1
 11
472.158621
 21
131.587332
 31
0.0
  0
POINT
  5
5D
  8
DEFPOINTS
  6
CONTINUOUS
 62
     7
 10
328.499948
 20
54.000001
 30
0.0
  0
POINT
  5
5E
  8
DEFPOINTS
  6
CONTINUOUS
 62
     7
 10
379.499949
 20
0.0
 30
0.0
  0
POINT
  5
5F
  8
DEFPOINTS
  6
CONTINUOUS
 62
     7
 10
487.158621
 20
0.0
 30
0.0
  0
ARC
  5
60
  8
DETAIL
  6
CONTINUOUS
 62
     5
 10
-374.300007
 20
55.499993
 30
0.0
 40
1.0
 50
180.0
 51
270.0
  0
ARC
  5
61
  8
DETAIL
  6
CONTINUOUS
 62
     5
 10
-176.500003
 20
61.999993
 30
0.0
 40
3.0
 50
270.0
 51
0.0
  0
ARC
  5
62
  8
DETAIL
  6
CONTINUOUS
 62
     5
 10
313.500006
 20
63.999993
 30
0.0
 40
5.0
 50
180.0
 51
270.0
  0
ARC
  5
63
  8
DETAIL
  6
CONTINUOUS
 62
     5
 10
326.02841
 20
1630.500022
 30
0.0
 40
10.0
 50
32.025932
 51
90.0
  0
ARC
  5
64
  8
DETAIL
  6
CONTINUOUS
 62
     5
 10
186.140059
 20
1543.000021
 30
0.0
 40
175.000003
 50
2.29642
 51
32.025932
  0
ARC
  5
65
  8
DETAIL
  6
CONTINUOUS
 62
     5
 10
-186.140059
 20
1543.000021
 30
0.0
 40
175.000003
 50
147.974068
 51
177.70358
  0
ARC
  5
66
  8
DETAIL
  6
CONTINUOUS
 62
     5
 10
-326.02841
 20
1630.500022
 30
0.0
 40
10.0
 50
90.0
 51
147.974068
  0
ARC
  5
67
  8
DETAIL
  6
CONTINUOUS
 62
     5
 10
-284.6077
 20
50.999993
 30
0.0
 40
5.0
 50
210.0
 51
270.0
  0
ARC
  5
68
  8
DETAIL
  6
CONTINUOUS
 62
     5
 10
-295.000003
 20
48.999997
 30
0.0
 40
4.999998
 50
29.999971
 51
90.0
  0
ARC
  5
69
  8
DETAIL
  6
CONTINUOUS
 62
     5
 10
285.426005
 20
48.999993
 30
0.0
 40
3.0
 50
270.0
 51
333.731397
  0
ARC
  5
6A
  8
DETAIL
  6
CONTINUOUS
 62
     5
 10
366.500006
 20
64.495249
 30
0.0
 40
8.0
 50
273.731401
 51
316.600916
  0
ARC
  5
6B
  8
DETAIL
  6
CONTINUOUS
 62
     5
 10
293.104088
 20
50.999993
 30
0.0
 40
3.0
 50
90.0
 51
153.731397
  0
ARC
  5
6C
  8
DETAIL
  6
CONTINUOUS
 62
     5
 10
-366.500006
 20
64.495249
 30
0.0
 40
8.0
 50
223.399084
 51
266.268599
  0
ARC
  5
6D
  8
DETAIL
  6
CONTINUOUS
 62
     5
 10
-374.300007
 20
55.499993
 30
0.0
 40
0.2
 50
180.0
 51
270.0
  0
ARC
  5
6E
  8
DETAIL
  6
CONTINUOUS
 62
     5
 10
-326.000006
 20
48.299993
 30
0.0
 40
1.0
 50
270.0
 51
0.0
  0
ARC
  5
6F
  8
DETAIL
  6
CONTINUOUS
 62
     5
 10
-326.000006
 20
11.699992
 30
0.0
 40
1.0
 50
0.0
 51
90.0
  0
ARC
  5
70
  8
DETAIL
  6
CONTINUOUS
 62
     5
 10
-305.000006
 20
13.999992
 30
0.0
 40
5.0
 50
270.0
 51
0.0
  0
ARC
  5
71
  8
DETAIL
  6
CONTINUOUS
 62
     5
 10
-321.000006
 20
49.999993
 30
0.0
 40
4.0
 50
90.0
 51
180.0
  0
ARC
  5
72
  8
DETAIL
  6
CONTINUOUS
 62
     5
 10
326.000006
 20
11.699992
 30
0.0
 40
1.0
 50
90.0
 51
180.0
  0
ARC
  5
73
  8
DETAIL
  6
CONTINUOUS
 62
     5
 10
326.000006
 20
48.299993
 30
0.0
 40
1.0
 50
180.0
 51
270.0
  0
ARC
  5
74
  8
DETAIL
  6
CONTINUOUS
 62
     5
 10
305.000006
 20
13.999992
 30
0.0
 40
5.0
 50
180.0
 51
270.0
  0
ARC
  5
75
  8
DETAIL
  6
CONTINUOUS
 62
     5
 10
321.000006
 20
49.999993
 30
0.0
 40
4.0
 50
0.0
 51
90.0
  0
LINE
  5
76
  8
DETAIL
  6
CONTINUOUS
 62
     5
 10
-194.029602
 20
1640.295957
 30
0.0
 11
-195.162771
 21
1639.692089
 31
0.0
  0
LINE
  5
77
  8
DETAIL
  6
CONTINUOUS
 62
     5
 10
-213.247229
 20
1639.692089
 30
0.0
 11
-214.383132
 21
1638.713064
 31
0.0
  0
LINE
  5
78
  8
DETAIL
  6
CONTINUOUS
 62
     5
 10
-212.008023
 20
1640.295957
 30
0.0
 11
-213.247229
 21
1639.692089
 31
0.0
  0
LINE
  5
79
  8
DETAIL
  6
CONTINUOUS
 62
     5
 10
-237.012995
 20
1640.295957
 30
0.0
 11
-238.399783
 21
1639.692089
 31
0.0
  0
LINE
  5
7C
  8
DETAIL
  6
CONTINUOUS
 62
     5
 10
-266.066558
 20
1639.692089
 30
0.0
 11
-267.496212
 21
1638.713064
 31
0.0
  0
LINE
  5
7D
  8
DETAIL
  6
CONTINUOUS
 62
     5
 10
-264.506884
 20
1640.295957
 30
0.0
 11
-266.066558
 21
1639.692089
 31
0.0
  0
LINE
  5
80
  8
DETAIL
  6
CONTINUOUS
 62
     5
 10
-92.392894
 20
1639.692089
 30
0.0
 11
-92.879987
 21
1638.713064
 31
0.0
  0
LINE
  5
81
  8
DETAIL
  6
CONTINUOUS
 62
     5
 10
-91.861503
 20
1640.295957
 30
0.0
 11
-92.392894
 21
1639.692089
 31
0.0
  0
LINE
  5
82
  8
DETAIL
  6
CONTINUOUS
 62
     5
 10
-91.307502
 20
1640.500022
 30
0.0
 11
-91.861503
 21
1640.295957
 31
0.0
  0
LINE
  5
85
  8
DETAIL
  6
CONTINUOUS
 62
     5
 10
-89.509109
 20
1639.692089
 30
0.0
 11
-89.996201
 21
1638.713064
 31
0.0
  0
LINE
  5
86
  8
DETAIL
  6
CONTINUOUS
 62
     5
 10
-88.977718
 20
1640.295957
 30
0.0
 11
-89.509109
 21
1639.692089
 31
0.0
  0
LINE
  5
87
  8
DETAIL
  6
CONTINUOUS
 62
     5
 10
-88.423716
 20
1640.500022
 30
0.0
 11
-88.977718
 21
1640.295957
 31
0.0
  0
LINE
  5
88
  8
DETAIL
  6
CONTINUOUS
 62
     5
 10
-102.174904
 20
1640.500022
 30
0.0
 11
-102.795995
 21
1640.295957
 31
0.0
  0
LINE
  5
8B
  8
DETAIL
  6
CONTINUOUS
 62
     5
 10
-100.538568
 20
1639.692089
 30
0.0
 11
-101.084647
 21
1638.713064
 31
0.0
  0
LINE
  5
8C
  8
DETAIL
  6
CONTINUOUS
 62
     5
 10
-99.942826
 20
1640.295957
 30
0.0
 11
-100.538568
 21
1639.692089
 31
0.0
  0
LINE
  5
8D
  8
DETAIL
  6
CONTINUOUS
 62
     5
 10
-99.321735
 20
1640.500022
 30
0.0
 11
-99.942826
 21
1640.295957
 31
0.0
  0
LINE
  5
90
  8
DETAIL
  6
CONTINUOUS
 62
     5
 10
-114.264614
 20
1639.692089
 30
0.0
 11
-114.869015
 21
1638.713064
 31
0.0
  0
LINE
  5
91
  8
DETAIL
  6
CONTINUOUS
 62
     5
 10
-113.605246
 20
1640.295957
 30
0.0
 11
-114.264614
 21
1639.692089
 31
0.0
  0
LINE
  5
92
  8
DETAIL
  6
CONTINUOUS
 62
     5
 10
-112.917823
 20
1640.500022
 30
0.0
 11
-113.605246
 21
1640.295957
 31
0.0
  0
LINE
  5
95
  8
DETAIL
  6
CONTINUOUS
 62
     5
 10
-111.445536
 20
1639.692089
 30
0.0
 11
-112.049937
 21
1638.713064
 31
0.0
  0
LINE
  5
96
  8
DETAIL
  6
CONTINUOUS
 62
     5
 10
-110.786168
 20
1640.295957
 30
0.0
 11
-111.445536
 21
1639.692089
 31
0.0
  0
LINE
  5
97
  8
DETAIL
  6
CONTINUOUS
 62
     5
 10
-110.098745
 20
1640.500022
 30
0.0
 11
-110.786168
 21
1640.295957
 31
0.0
  0
LINE
  5
9A
  8
DETAIL
  6
CONTINUOUS
 62
     5
 10
-124.998277
 20
1639.692089
 30
0.0
 11
-125.660263
 21
1638.713064
 31
0.0
  0
LINE
  5
9B
  8
DETAIL
  6
CONTINUOUS
 62
     5
 10
-124.276087
 20
1640.295957
 30
0.0
 11
-124.998277
 21
1639.692089
 31
0.0
  0
LINE
  5
9C
  8
DETAIL
  6
CONTINUOUS
 62
     5
 10
-123.523168
 20
1640.500022
 30
0.0
 11
-124.276087
 21
1640.295957
 31
0.0
  0
LINE
  5
9F
  8
DETAIL
  6
CONTINUOUS
 62
     5
 10
-122.216725
 20
1639.692089
 30
0.0
 11
-122.878712
 21
1638.713064
 31
0.0
  0
LINE
  5
A0
  8
DETAIL
  6
CONTINUOUS
 62
     5
 10
-121.494535
 20
1640.295957
 30
0.0
 11
-122.216725
 21
1639.692089
 31
0.0
  0
LINE
  5
A1
  8
DETAIL
  6
CONTINUOUS
 62
     5
 10
-120.741616
 20
1640.500022
 30
0.0
 11
-121.494535
 21
1640.295957
 31
0.0
  0
LINE
  5
A2
  8
DETAIL
  6
CONTINUOUS
 62
     5
 10
-133.978019
 20
1640.500022
 30
0.0
 11
-134.795516
 21
1640.295957
 31
0.0
  0
LINE
  5
A5
  8
DETAIL
  6
CONTINUOUS
 62
     5
 10
-132.839012
 20
1639.692089
 30
0.0
 11
-133.557777
 21
1638.713064
 31
0.0
  0
LINE
  5
A6
  8
DETAIL
  6
CONTINUOUS
 62
     5
 10
-132.05488
 20
1640.295957
 30
0.0
 11
-132.839012
 21
1639.692089
 31
0.0
  0
LINE
  5
A7
  8
DETAIL
  6
CONTINUOUS
 62
     5
 10
-131.237383
 20
1640.500022
 30
0.0
 11
-132.05488
 21
1640.295957
 31
0.0
  0
LINE
  5
AA
  8
DETAIL
  6
CONTINUOUS
 62
     5
 10
-145.995837
 20
1639.692089
 30
0.0
 11
-146.770505
 21
1638.713064
 31
0.0
  0
LINE
  5
AB
  8
DETAIL
  6
CONTINUOUS
 62
     5
 10
-145.150718
 20
1640.295957
 30
0.0
 11
-145.995837
 21
1639.692089
 31
0.0
  0
LINE
  5
AC
  8
DETAIL
  6
CONTINUOUS
 62
     5
 10
-144.269639
 20
1640.500022
 30
0.0
 11
-145.150718
 21
1640.295957
 31
0.0
  0
LINE
  5
AF
  8
DETAIL
  6
CONTINUOUS
 62
     5
 10
-143.299455
 20
1639.692089
 30
0.0
 11
-144.074123
 21
1638.713064
 31
0.0
  0
LINE
  5
B0
  8
DETAIL
  6
CONTINUOUS
 62
     5
 10
-142.454336
 20
1640.295957
 30
0.0
 11
-143.299455
 21
1639.692089
 31
0.0
  0
LINE
  5
B1
  8
DETAIL
  6
CONTINUOUS
 62
     5
 10
-141.573257
 20
1640.500022
 30
0.0
 11
-142.454336
 21
1640.295957
 31
0.0
  0
LINE
  5
B2
  8
DETAIL
  6
CONTINUOUS
 62
     5
 10
-154.385489
 20
1640.500022
 30
0.0
 11
-155.329076
 21
1640.295957
 31
0.0
  0
LINE
  5
B5
  8
DETAIL
  6
CONTINUOUS
 62
     5
 10
-153.58531
 20
1639.692089
 30
0.0
 11
-154.414937
 21
1638.713064
 31
0.0
  0
LINE
  5
B6
  8
DETAIL
  6
CONTINUOUS
 62
     5
 10
-152.680233
 20
1640.295957
 30
0.0
 11
-153.58531
 21
1639.692089
 31
0.0
  0
LINE
  5
B7
  8
DETAIL
  6
CONTINUOUS
 62
     5
 10
-151.736646
 20
1640.500022
 30
0.0
 11
-152.680233
 21
1640.295957
 31
0.0
  0
LINE
  5
BA
  8
DETAIL
  6
CONTINUOUS
 62
     5
 10
-166.282121
 20
1639.692089
 30
0.0
 11
-167.165696
 21
1638.713064
 31
0.0
  0
LINE
  5
BB
  8
DETAIL
  6
CONTINUOUS
 62
     5
 10
-165.31819
 20
1640.295957
 30
0.0
 11
-166.282121
 21
1639.692089
 31
0.0
  0
LINE
  5
BC
  8
DETAIL
  6
CONTINUOUS
 62
     5
 10
-164.313243
 20
1640.500022
 30
0.0
 11
-165.31819
 21
1640.295957
 31
0.0
  0
LINE
  5
BF
  8
DETAIL
  6
CONTINUOUS
 62
     5
 10
-163.684045
 20
1639.692089
 30
0.0
 11
-164.56762
 21
1638.713064
 31
0.0
  0
LINE
  5
C0
  8
DETAIL
  6
CONTINUOUS
 62
     5
 10
-162.720113
 20
1640.295957
 30
0.0
 11
-163.684045
 21
1639.692089
 31
0.0
  0
LINE
  5
C1
  8
DETAIL
  6
CONTINUOUS
 62
     5
 10
-161.715167
 20
1640.500022
 30
0.0
 11
-162.720113
 21
1640.295957
 31
0.0
  0
LINE
  5
C2
  8
DETAIL
  6
CONTINUOUS
 62
     5
 10
-174.040807
 20
1640.500022
 30
0.0
 11
-175.105888
 21
1640.295957
 31
0.0
  0
LINE
  5
C5
  8
DETAIL
  6
CONTINUOUS
 62
     5
 10
-173.583355
 20
1639.692089
 30
0.0
 11
-174.519803
 21
1638.713064
 31
0.0
  0
LINE
  5
C6
  8
DETAIL
  6
CONTINUOUS
 62
     5
 10
-172.561744
 20
1640.295957
 30
0.0
 11
-173.583355
 21
1639.692089
 31
0.0
  0
LINE
  5
C7
  8
DETAIL
  6
CONTINUOUS
 62
     5
 10
-171.496663
 20
1640.500022
 30
0.0
 11
-172.561744
 21
1640.295957
 31
0.0
  0
LINE
  5
CA
  8
DETAIL
  6
CONTINUOUS
 62
     5
 10
-185.758294
 20
1639.692089
 30
0.0
 11
-186.746473
 21
1638.713064
 31
0.0
  0
LINE
  5
CB
  8
DETAIL
  6
CONTINUOUS
 62
     5
 10
-184.680247
 20
1640.295957
 30
0.0
 11
-185.758294
 21
1639.692089
 31
0.0
  0
LINE
  5
CC
  8
DETAIL
  6
CONTINUOUS
 62
     5
 10
-183.55633
 20
1640.500022
 30
0.0
 11
-184.680247
 21
1640.295957
 31
0.0
  0
LINE
  5
CF
  8
DETAIL
  6
CONTINUOUS
 62
     5
 10
-183.271182
 20
1639.692089
 30
0.0
 11
-184.25936
 21
1638.713064
 31
0.0
  0
LINE
  5
D0
  8
DETAIL
  6
CONTINUOUS
 62
     5
 10
-182.193135
 20
1640.295957
 30
0.0
 11
-183.271182
 21
1639.692089
 31
0.0
  0
LINE
  5
D1
  8
DETAIL
  6
CONTINUOUS
 62
     5
 10
-181.069217
 20
1640.500022
 30
0.0
 11
-182.193135
 21
1640.295957
 31
0.0
  0
LINE
  5
D2
  8
DETAIL
  6
CONTINUOUS
 62
     5
 10
-192.848217
 20
1640.500022
 30
0.0
 11
-194.029602
 21
1640.295957
 31
0.0
  0
LINE
  5
D5
  8
DETAIL
  6
CONTINUOUS
 62
     5
 10
-192.73572
 20
1639.692089
 30
0.0
 11
-193.774425
 21
1638.713064
 31
0.0
  0
LINE
  5
D6
  8
DETAIL
  6
CONTINUOUS
 62
     5
 10
-191.602551
 20
1640.295957
 30
0.0
 11
-192.73572
 21
1639.692089
 31
0.0
  0
LINE
  5
D7
  8
DETAIL
  6
CONTINUOUS
 62
     5
 10
-190.421166
 20
1640.500022
 30
0.0
 11
-191.602551
 21
1640.295957
 31
0.0
  0
LINE
  5
DA
  8
DETAIL
  6
CONTINUOUS
 62
     5
 10
-204.329472
 20
1639.692089
 30
0.0
 11
-205.417439
 21
1638.713064
 31
0.0
  0
LINE
  5
DB
  8
DETAIL
  6
CONTINUOUS
 62
     5
 10
-203.142562
 20
1640.295957
 30
0.0
 11
-204.329472
 21
1639.692089
 31
0.0
  0
LINE
  5
DC
  8
DETAIL
  6
CONTINUOUS
 62
     5
 10
-201.905148
 20
1640.500022
 30
0.0
 11
-203.142562
 21
1640.295957
 31
0.0
  0
LINE
  5
DF
  8
DETAIL
  6
CONTINUOUS
 62
     5
 10
-201.96544
 20
1639.692089
 30
0.0
 11
-203.053407
 21
1638.713064
 31
0.0
  0
LINE
  5
E0
  8
DETAIL
  6
CONTINUOUS
 62
     5
 10
-200.778529
 20
1640.295957
 30
0.0
 11
-201.96544
 21
1639.692089
 31
0.0
  0
LINE
  5
E1
  8
DETAIL
  6
CONTINUOUS
 62
     5
 10
-199.541116
 20
1640.500022
 30
0.0
 11
-200.778529
 21
1640.295957
 31
0.0
  0
LINE
  5
E2
  8
DETAIL
  6
CONTINUOUS
 62
     5
 10
-210.716089
 20
1640.500022
 30
0.0
 11
-212.008023
 21
1640.295957
 31
0.0
  0
LINE
  5
E5
  8
DETAIL
  6
CONTINUOUS
 62
     5
 10
-210.949096
 20
1639.692089
 30
0.0
 11
-212.084999
 21
1638.713064
 31
0.0
  0
LINE
  5
E6
  8
DETAIL
  6
CONTINUOUS
 62
     5
 10
-209.70989
 20
1640.295957
 30
0.0
 11
-210.949096
 21
1639.692089
 31
0.0
  0
LINE
  5
E7
  8
DETAIL
  6
CONTINUOUS
 62
     5
 10
-208.417956
 20
1640.500022
 30
0.0
 11
-209.70989
 21
1640.295957
 31
0.0
  0
LINE
  5
EA
  8
DETAIL
  6
CONTINUOUS
 62
     5
 10
-221.905178
 20
1639.692089
 30
0.0
 11
-223.087632
 21
1638.713064
 31
0.0
  0
LINE
  5
EB
  8
DETAIL
  6
CONTINUOUS
 62
     5
 10
-220.615186
 20
1640.295957
 30
0.0
 11
-221.905178
 21
1639.692089
 31
0.0
  0
LINE
  5
EC
  8
DETAIL
  6
CONTINUOUS
 62
     5
 10
-219.270305
 20
1640.500022
 30
0.0
 11
-220.615186
 21
1640.295957
 31
0.0
  0
LINE
  5
EF
  8
DETAIL
  6
CONTINUOUS
 62
     5
 10
-219.675743
 20
1639.692089
 30
0.0
 11
-220.858198
 21
1638.713064
 31
0.0
  0
LINE
  5
F0
  8
DETAIL
  6
CONTINUOUS
 62
     5
 10
-218.385751
 20
1640.295957
 30
0.0
 11
-219.675743
 21
1639.692089
 31
0.0
  0
LINE
  5
F1
  8
DETAIL
  6
CONTINUOUS
 62
     5
 10
-217.040871
 20
1640.500022
 30
0.0
 11
-218.385751
 21
1640.295957
 31
0.0
  0
LINE
  5
F4
  8
DETAIL
  6
CONTINUOUS
 62
     5
 10
-230.292769
 20
1639.692089
 30
0.0
 11
-231.520334
 21
1638.713064
 31
0.0
  0
LINE
  5
F5
  8
DETAIL
  6
CONTINUOUS
 62
     5
 10
-228.953563
 20
1640.295957
 30
0.0
 11
-230.292769
 21
1639.692089
 31
0.0
  0
LINE
  5
F6
  8
DETAIL
  6
CONTINUOUS
 62
     5
 10
-227.557374
 20
1640.500022
 30
0.0
 11
-228.953563
 21
1640.295957
 31
0.0
  0
LINE
  5
F9
  8
DETAIL
  6
CONTINUOUS
 62
     5
 10
-228.134749
 20
1639.692089
 30
0.0
 11
-229.362315
 21
1638.713064
 31
0.0
  0
LINE
  5
FA
  8
DETAIL
  6
CONTINUOUS
 62
     5
 10
-226.795543
 20
1640.295957
 30
0.0
 11
-228.134749
 21
1639.692089
 31
0.0
  0
LINE
  5
FB
  8
DETAIL
  6
CONTINUOUS
 62
     5
 10
-225.399355
 20
1640.500022
 30
0.0
 11
-226.795543
 21
1640.295957
 31
0.0
  0
LINE
  5
FC
  8
DETAIL
  6
CONTINUOUS
 62
     5
 10
-235.567199
 20
1640.500022
 30
0.0
 11
-237.012995
 21
1640.295957
 31
0.0
  0
LINE
  5
FF
  8
DETAIL
  6
CONTINUOUS
 62
     5
 10
-236.315808
 20
1639.692089
 30
0.0
 11
-237.58699
 21
1638.713064
 31
0.0
  0
LINE
  5
100
  8
DETAIL
  6
CONTINUOUS
 62
     5
 10
-234.92902
 20
1640.295957
 30
0.0
 11
-236.315808
 21
1639.692089
 31
0.0
  0
LINE
  5
101
  8
DETAIL
  6
CONTINUOUS
 62
     5
 10
-233.483224
 20
1640.500022
 30
0.0
 11
-234.92902
 21
1640.295957
 31
0.0
  0
LINE
  5
104
  8
DETAIL
  6
CONTINUOUS
 62
     5
 10
-246.216344
 20
1639.692089
 30
0.0
 11
-247.529593
 21
1638.713064
 31
0.0
  0
LINE
  5
105
  8
DETAIL
  6
CONTINUOUS
 62
     5
 10
-244.783663
 20
1640.295957
 30
0.0
 11
-246.216344
 21
1639.692089
 31
0.0
  0
LINE
  5
106
  8
DETAIL
  6
CONTINUOUS
 62
     5
 10
-243.290022
 20
1640.500022
 30
0.0
 11
-244.783663
 21
1640.295957
 31
0.0
  0
LINE
  5
109
  8
DETAIL
  6
CONTINUOUS
 62
     5
 10
-244.208953
 20
1639.692089
 30
0.0
 11
-245.522201
 21
1638.713064
 31
0.0
  0
LINE
  5
10A
  8
DETAIL
  6
CONTINUOUS
 62
     5
 10
-242.776271
 20
1640.295957
 30
0.0
 11
-244.208953
 21
1639.692089
 31
0.0
  0
LINE
  5
10B
  8
DETAIL
  6
CONTINUOUS
 62
     5
 10
-241.28263
 20
1640.500022
 30
0.0
 11
-242.776271
 21
1640.295957
 31
0.0
  0
LINE
  5
10E
  8
DETAIL
  6
CONTINUOUS
 62
     5
 10
-253.732929
 20
1639.692089
 30
0.0
 11
-255.086645
 21
1638.713064
 31
0.0
  0
LINE
  5
10F
  8
DETAIL
  6
CONTINUOUS
 62
     5
 10
-252.2561
 20
1640.295957
 30
0.0
 11
-253.732929
 21
1639.692089
 31
0.0
  0
LINE
  5
110
  8
DETAIL
  6
CONTINUOUS
 62
     5
 10
-250.716433
 20
1640.500022
 30
0.0
 11
-252.2561
 21
1640.295957
 31
0.0
  0
LINE
  5
113
  8
DETAIL
  6
CONTINUOUS
 62
     5
 10
-251.804566
 20
1639.692089
 30
0.0
 11
-253.158282
 21
1638.713064
 31
0.0
  0
LINE
  5
114
  8
DETAIL
  6
CONTINUOUS
 62
     5
 10
-250.327738
 20
1640.295957
 30
0.0
 11
-251.804566
 21
1639.692089
 31
0.0
  0
LINE
  5
115
  8
DETAIL
  6
CONTINUOUS
 62
     5
 10
-248.788071
 20
1640.500022
 30
0.0
 11
-250.327738
 21
1640.295957
 31
0.0
  0
LINE
  5
118
  8
DETAIL
  6
CONTINUOUS
 62
     5
 10
-260.940379
 20
1639.692089
 30
0.0
 11
-262.332913
 21
1638.713064
 31
0.0
  0
LINE
  5
119
  8
DETAIL
  6
CONTINUOUS
 62
     5
 10
-259.421202
 20
1640.295957
 30
0.0
 11
-260.940379
 21
1639.692089
 31
0.0
  0
LINE
  5
11A
  8
DETAIL
  6
CONTINUOUS
 62
     5
 10
-257.837386
 20
1640.500022
 30
0.0
 11
-259.421202
 21
1640.295957
 31
0.0
  0
LINE
  5
11D
  8
DETAIL
  6
CONTINUOUS
 62
     5
 10
-259.093394
 20
1639.692089
 30
0.0
 11
-260.485928
 21
1638.713064
 31
0.0
  0
LINE
  5
11E
  8
DETAIL
  6
CONTINUOUS
 62
     5
 10
-257.574218
 20
1640.295957
 30
0.0
 11
-259.093394
 21
1639.692089
 31
0.0
  0
LINE
  5
11F
  8
DETAIL
  6
CONTINUOUS
 62
     5
 10
-255.990401
 20
1640.500022
 30
0.0
 11
-257.574218
 21
1640.295957
 31
0.0
  0
LINE
  5
122
  8
DETAIL
  6
CONTINUOUS
 62
     5
 10
-267.829913
 20
1639.692089
 30
0.0
 11
-269.259568
 21
1638.713064
 31
0.0
  0
LINE
  5
123
  8
DETAIL
  6
CONTINUOUS
 62
     5
 10
-266.27024
 20
1640.295957
 30
0.0
 11
-267.829913
 21
1639.692089
 31
0.0
  0
LINE
  5
124
  8
DETAIL
  6
CONTINUOUS
 62
     5
 10
-264.644202
 20
1640.500022
 30
0.0
 11
-266.27024
 21
1640.295957
 31
0.0
  0
LINE
  5
125
  8
DETAIL
  6
CONTINUOUS
 62
     5
 10
-262.880847
 20
1640.500022
 30
0.0
 11
-264.506884
 21
1640.295957
 31
0.0
  0
LINE
  5
128
  8
DETAIL
  6
CONTINUOUS
 62
     5
 10
-274.393138
 20
1639.692089
 30
0.0
 11
-275.858172
 21
1638.713064
 31
0.0
  0
LINE
  5
129
  8
DETAIL
  6
CONTINUOUS
 62
     5
 10
-272.794868
 20
1640.295957
 30
0.0
 11
-274.393138
 21
1639.692089
 31
0.0
  0
LINE
  5
12A
  8
DETAIL
  6
CONTINUOUS
 62
     5
 10
-271.128591
 20
1640.500022
 30
0.0
 11
-272.794868
 21
1640.295957
 31
0.0
  0
LINE
  5
12D
  8
DETAIL
  6
CONTINUOUS
 62
     5
 10
-272.715559
 20
1639.692089
 30
0.0
 11
-274.180594
 21
1638.713064
 31
0.0
  0
LINE
  5
12E
  8
DETAIL
  6
CONTINUOUS
 62
     5
 10
-271.117289
 20
1640.295957
 30
0.0
 11
-272.715559
 21
1639.692089
 31
0.0
  0
LINE
  5
12F
  8
DETAIL
  6
CONTINUOUS
 62
     5
 10
-269.451013
 20
1640.500022
 30
0.0
 11
-271.117289
 21
1640.295957
 31
0.0
  0
LINE
  5
132
  8
DETAIL
  6
CONTINUOUS
 62
     5
 10
-280.622057
 20
1639.692089
 30
0.0
 11
-282.120686
 21
1638.713064
 31
0.0
  0
LINE
  5
133
  8
DETAIL
  6
CONTINUOUS
 62
     5
 10
-278.987137
 20
1640.295957
 30
0.0
 11
-280.622057
 21
1639.692089
 31
0.0
  0
LINE
  5
134
  8
DETAIL
  6
CONTINUOUS
 62
     5
 10
-277.282652
 20
1640.500022
 30
0.0
 11
-278.987137
 21
1640.295957
 31
0.0
  0
LINE
  5
137
  8
DETAIL
  6
CONTINUOUS
 62
     5
 10
-279.032299
 20
1639.692089
 30
0.0
 11
-280.530928
 21
1638.713064
 31
0.0
  0
LINE
  5
138
  8
DETAIL
  6
CONTINUOUS
 62
     5
 10
-277.397379
 20
1640.295957
 30
0.0
 11
-279.032299
 21
1639.692089
 31
0.0
  0
LINE
  5
139
  8
DETAIL
  6
CONTINUOUS
 62
     5
 10
-275.692894
 20
1640.500022
 30
0.0
 11
-277.397379
 21
1640.295957
 31
0.0
  0
LINE
  5
13C
  8
DETAIL
  6
CONTINUOUS
 62
     5
 10
-286.509082
 20
1639.692089
 30
0.0
 11
-288.039479
 21
1638.713064
 31
0.0
  0
LINE
  5
13D
  8
DETAIL
  6
CONTINUOUS
 62
     5
 10
-284.839504
 20
1640.295957
 30
0.0
 11
-286.509082
 21
1639.692089
 31
0.0
  0
LINE
  5
13E
  8
DETAIL
  6
CONTINUOUS
 62
     5
 10
-283.098886
 20
1640.500022
 30
0.0
 11
-284.839504
 21
1640.295957
 31
0.0
  0
LINE
  5
141
  8
DETAIL
  6
CONTINUOUS
 62
     5
 10
-285.009082
 20
1639.692089
 30
0.0
 11
-286.539479
 21
1638.713064
 31
0.0
  0
LINE
  5
142
  8
DETAIL
  6
CONTINUOUS
 62
     5
 10
-283.339504
 20
1640.295957
 30
0.0
 11
-285.009082
 21
1639.692089
 31
0.0
  0
LINE
  5
143
  8
DETAIL
  6
CONTINUOUS
 62
     5
 10
-281.598886
 20
1640.500022
 30
0.0
 11
-283.339504
 21
1640.295957
 31
0.0
  0
LINE
  5
146
  8
DETAIL
  6
CONTINUOUS
 62
     5
 10
-292.047039
 20
1639.692089
 30
0.0
 11
-293.60734
 21
1638.713064
 31
0.0
  0
LINE
  5
147
  8
DETAIL
  6
CONTINUOUS
 62
     5
 10
-290.344837
 20
1640.295957
 30
0.0
 11
-292.047039
 21
1639.692089
 31
0.0
  0
LINE
  5
148
  8
DETAIL
  6
CONTINUOUS
 62
     5
 10
-288.570207
 20
1640.500022
 30
0.0
 11
-290.344837
 21
1640.295957
 31
0.0
  0
LINE
  5
14B
  8
DETAIL
  6
CONTINUOUS
 62
     5
 10
-290.638624
 20
1639.692089
 30
0.0
 11
-292.198925
 21
1638.713064
 31
0.0
  0
LINE
  5
14C
  8
DETAIL
  6
CONTINUOUS
 62
     5
 10
-288.936423
 20
1640.295957
 30
0.0
 11
-290.638624
 21
1639.692089
 31
0.0
  0
LINE
  5
14D
  8
DETAIL
  6
CONTINUOUS
 62
     5
 10
-287.161793
 20
1640.500022
 30
0.0
 11
-288.936423
 21
1640.295957
 31
0.0
  0
LINE
  5
150
  8
DETAIL
  6
CONTINUOUS
 62
     5
 10
-297.229182
 20
1639.692089
 30
0.0
 11
-298.817486
 21
1638.713064
 31
0.0
  0
LINE
  5
151
  8
DETAIL
  6
CONTINUOUS
 62
     5
 10
-295.49643
 20
1640.295957
 30
0.0
 11
-297.229182
 21
1639.692089
 31
0.0
  0
LINE
  5
152
  8
DETAIL
  6
CONTINUOUS
 62
     5
 10
-293.689951
 20
1640.500022
 30
0.0
 11
-295.49643
 21
1640.295957
 31
0.0
  0
LINE
  5
155
  8
DETAIL
  6
CONTINUOUS
 62
     5
 10
-295.914068
 20
1639.692089
 30
0.0
 11
-297.502373
 21
1638.713064
 31
0.0
  0
LINE
  5
156
  8
DETAIL
  6
CONTINUOUS
 62
     5
 10
-294.181317
 20
1640.295957
 30
0.0
 11
-295.914068
 21
1639.692089
 31
0.0
  0
LINE
  5
157
  8
DETAIL
  6
CONTINUOUS
 62
     5
 10
-292.374837
 20
1640.500022
 30
0.0
 11
-294.181317
 21
1640.295957
 31
0.0
  0
LINE
  5
15A
  8
DETAIL
  6
CONTINUOUS
 62
     5
 10
-302.049197
 20
1639.692089
 30
0.0
 11
-303.663569
 21
1638.713064
 31
0.0
  0
LINE
  5
15B
  8
DETAIL
  6
CONTINUOUS
 62
     5
 10
-300.288006
 20
1640.295957
 30
0.0
 11
-302.049197
 21
1639.692089
 31
0.0
  0
LINE
  5
15C
  8
DETAIL
  6
CONTINUOUS
 62
     5
 10
-298.451878
 20
1640.500022
 30
0.0
 11
-300.288006
 21
1640.295957
 31
0.0
  0
LINE
  5
15F
  8
DETAIL
  6
CONTINUOUS
 62
     5
 10
-300.828987
 20
1639.692089
 30
0.0
 11
-302.443359
 21
1638.713064
 31
0.0
  0
LINE
  5
160
  8
DETAIL
  6
CONTINUOUS
 62
     5
 10
-299.067797
 20
1640.295957
 30
0.0
 11
-300.828987
 21
1639.692089
 31
0.0
  0
LINE
  5
161
  8
DETAIL
  6
CONTINUOUS
 62
     5
 10
-297.231668
 20
1640.500022
 30
0.0
 11
-299.067797
 21
1640.295957
 31
0.0
  0
LINE
  5
164
  8
DETAIL
  6
CONTINUOUS
 62
     5
 10
-306.501211
 20
1639.692089
 30
0.0
 11
-308.139685
 21
1638.713064
 31
0.0
  0
LINE
  5
165
  8
DETAIL
  6
CONTINUOUS
 62
     5
 10
-304.713728
 20
1640.295957
 30
0.0
 11
-306.501211
 21
1639.692089
 31
0.0
  0
LINE
  5
166
  8
DETAIL
  6
CONTINUOUS
 62
     5
 10
-302.850188
 20
1640.500022
 30
0.0
 11
-304.713728
 21
1640.295957
 31
0.0
  0
LINE
  5
169
  8
DETAIL
  6
CONTINUOUS
 62
     5
 10
-305.377391
 20
1639.692089
 30
0.0
 11
-307.015865
 21
1638.713064
 31
0.0
  0
LINE
  5
16A
  8
DETAIL
  6
CONTINUOUS
 62
     5
 10
-303.589908
 20
1640.295957
 30
0.0
 11
-305.377391
 21
1639.692089
 31
0.0
  0
LINE
  5
16B
  8
DETAIL
  6
CONTINUOUS
 62
     5
 10
-301.726368
 20
1640.500022
 30
0.0
 11
-303.589908
 21
1640.295957
 31
0.0
  0
LINE
  5
16E
  8
DETAIL
  6
CONTINUOUS
 62
     5
 10
-310.579801
 20
1639.692089
 30
0.0
 11
-312.240379
 21
1638.713064
 31
0.0
  0
LINE
  5
16F
  8
DETAIL
  6
CONTINUOUS
 62
     5
 10
-308.768203
 20
1640.295957
 30
0.0
 11
-310.579801
 21
1639.692089
 31
0.0
  0
LINE
  5
170
  8
DETAIL
  6
CONTINUOUS
 62
     5
 10
-306.879522
 20
1640.500022
 30
0.0
 11
-308.768203
 21
1640.295957
 31
0.0
  0
LINE
  5
173
  8
DETAIL
  6
CONTINUOUS
 62
     5
 10
-309.553741
 20
1639.692089
 30
0.0
 11
-311.214319
 21
1638.713064
 31
0.0
  0
LINE
  5
174
  8
DETAIL
  6
CONTINUOUS
 62
     5
 10
-307.742142
 20
1640.295957
 30
0.0
 11
-309.553741
 21
1639.692089
 31
0.0
  0
LINE
  5
175
  8
DETAIL
  6
CONTINUOUS
 62
     5
 10
-305.853461
 20
1640.500022
 30
0.0
 11
-307.742142
 21
1640.295957
 31
0.0
  0
LINE
  5
178
  8
DETAIL
  6
CONTINUOUS
 62
     5
 10
-314.279997
 20
1639.692089
 30
0.0
 11
-315.960657
 21
1638.713064
 31
0.0
  0
LINE
  5
179
  8
DETAIL
  6
CONTINUOUS
 62
     5
 10
-312.446491
 20
1640.295957
 30
0.0
 11
-314.279997
 21
1639.692089
 31
0.0
  0
LINE
  5
17A
  8
DETAIL
  6
CONTINUOUS
 62
     5
 10
-310.53497
 20
1640.500022
 30
0.0
 11
-312.446491
 21
1640.295957
 31
0.0
  0
LINE
  5
17D
  8
DETAIL
  6
CONTINUOUS
 62
     5
 10
-313.352946
 20
1639.692089
 30
0.0
 11
-315.033606
 21
1638.713064
 31
0.0
  0
LINE
  5
17E
  8
DETAIL
  6
CONTINUOUS
 62
     5
 10
-311.51944
 20
1640.295957
 30
0.0
 11
-313.352946
 21
1639.692089
 31
0.0
  0
LINE
  5
17F
  8
DETAIL
  6
CONTINUOUS
 62
     5
 10
-309.607919
 20
1640.500022
 30
0.0
 11
-311.51944
 21
1640.295957
 31
0.0
  0
LINE
  5
182
  8
DETAIL
  6
CONTINUOUS
 62
     5
 10
-317.597292
 20
1639.692089
 30
0.0
 11
-319.295986
 21
1638.713064
 31
0.0
  0
LINE
  5
183
  8
DETAIL
  6
CONTINUOUS
 62
     5
 10
-315.744111
 20
1640.295957
 30
0.0
 11
-317.597292
 21
1639.692089
 31
0.0
  0
LINE
  5
184
  8
DETAIL
  6
CONTINUOUS
 62
     5
 10
-313.812079
 20
1640.500022
 30
0.0
 11
-315.744111
 21
1640.295957
 31
0.0
  0
LINE
  5
187
  8
DETAIL
  6
CONTINUOUS
 62
     5
 10
-316.77038
 20
1639.692089
 30
0.0
 11
-318.469074
 21
1638.713064
 31
0.0
  0
LINE
  5
188
  8
DETAIL
  6
CONTINUOUS
 62
     5
 10
-314.917199
 20
1640.295957
 30
0.0
 11
-316.77038
 21
1639.692089
 31
0.0
  0
LINE
  5
189
  8
DETAIL
  6
CONTINUOUS
 62
     5
 10
-312.985167
 20
1640.500022
 30
0.0
 11
-314.917199
 21
1640.295957
 31
0.0
  0
LINE
  5
18C
  8
DETAIL
  6
CONTINUOUS
 62
     5
 10
-320.527643
 20
1639.692089
 30
0.0
 11
-322.242302
 21
1638.713064
 31
0.0
  0
LINE
  5
18D
  8
DETAIL
  6
CONTINUOUS
 62
     5
 10
-318.657046
 20
1640.295957
 30
0.0
 11
-320.527643
 21
1639.692089
 31
0.0
  0
LINE
  5
18E
  8
DETAIL
  6
CONTINUOUS
 62
     5
 10
-316.706856
 20
1640.500022
 30
0.0
 11
-318.657046
 21
1640.295957
 31
0.0
  0
LINE
  5
191
  8
DETAIL
  6
CONTINUOUS
 62
     5
 10
-319.801877
 20
1639.692089
 30
0.0
 11
-321.516536
 21
1638.713064
 31
0.0
  0
LINE
  5
192
  8
DETAIL
  6
CONTINUOUS
 62
     5
 10
-317.93128
 20
1640.295957
 30
0.0
 11
-319.801877
 21
1639.692089
 31
0.0
  0
LINE
  5
193
  8
DETAIL
  6
CONTINUOUS
 62
     5
 10
-315.98109
 20
1640.500022
 30
0.0
 11
-317.93128
 21
1640.295957
 31
0.0
  0
LINE
  5
196
  8
DETAIL
  6
CONTINUOUS
 62
     5
 10
-323.067481
 20
1639.692089
 30
0.0
 11
-324.796015
 21
1638.713064
 31
0.0
  0
LINE
  5
197
  8
DETAIL
  6
CONTINUOUS
 62
     5
 10
-321.181746
 20
1640.295957
 30
0.0
 11
-323.067481
 21
1639.692089
 31
0.0
  0
LINE
  5
198
  8
DETAIL
  6
CONTINUOUS
 62
     5
 10
-319.215775
 20
1640.500022
 30
0.0
 11
-321.181746
 21
1640.295957
 31
0.0
  0
LINE
  5
19B
  8
DETAIL
  6
CONTINUOUS
 62
     5
 10
-322.443746
 20
1639.692089
 30
0.0
 11
-324.17228
 21
1638.713064
 31
0.0
  0
LINE
  5
19C
  8
DETAIL
  6
CONTINUOUS
 62
     5
 10
-320.558011
 20
1640.295957
 30
0.0
 11
-322.443746
 21
1639.692089
 31
0.0
  0
LINE
  5
19D
  8
DETAIL
  6
CONTINUOUS
 62
     5
 10
-318.59204
 20
1640.500022
 30
0.0
 11
-320.558011
 21
1640.295957
 31
0.0
  0
LINE
  5
19E
  8
DETAIL
  6
CONTINUOUS
 62
     5
 10
-328.46502
 20
1637.398839
 30
0.0
 11
-329.685059
 21
1635.803053
 31
0.0
  0
LINE
  5
1A0
  8
DETAIL
  6
CONTINUOUS
 62
     5
 10
-325.21371
 20
1639.692089
 30
0.0
 11
-326.954014
 21
1638.713064
 31
0.0
  0
LINE
  5
1A1
  8
DETAIL
  6
CONTINUOUS
 62
     5
 10
-323.315136
 20
1640.295957
 30
0.0
 11
-325.21371
 21
1639.692089
 31
0.0
  0
LINE
  5
1A2
  8
DETAIL
  6
CONTINUOUS
 62
     5
 10
-321.335778
 20
1640.500022
 30
0.0
 11
-323.315136
 21
1640.295957
 31
0.0
  0
LINE
  5
1A5
  8
DETAIL
  6
CONTINUOUS
 62
     5
 10
-324.692766
 20
1639.692089
 30
0.0
 11
-326.433069
 21
1638.713064
 31
0.0
  0
LINE
  5
1A6
  8
DETAIL
  6
CONTINUOUS
 62
     5
 10
-322.794192
 20
1640.295957
 30
0.0
 11
-324.692766
 21
1639.692089
 31
0.0
  0
LINE
  5
1A7
  8
DETAIL
  6
CONTINUOUS
 62
     5
 10
-320.814834
 20
1640.500022
 30
0.0
 11
-322.794192
 21
1640.295957
 31
0.0
  0
LINE
  5
1A8
  8
DETAIL
  6
CONTINUOUS
 62
     5
 10
-330.233054
 20
1637.398839
 30
0.0
 11
-331.459858
 21
1635.803053
 31
0.0
  0
LINE
  5
1A9
  8
DETAIL
  6
CONTINUOUS
 62
     5
 10
-328.71367
 20
1638.713064
 30
0.0
 11
-330.233054
 21
1637.398839
 31
0.0
  0
LINE
  5
1AA
  8
DETAIL
  6
CONTINUOUS
 62
     5
 10
-326.963717
 20
1639.692089
 30
0.0
 11
-328.71367
 21
1638.713064
 31
0.0
  0
LINE
  5
1AB
  8
DETAIL
  6
CONTINUOUS
 62
     5
 10
-325.054616
 20
1640.295957
 30
0.0
 11
-326.963717
 21
1639.692089
 31
0.0
  0
LINE
  5
1AC
  8
DETAIL
  6
CONTINUOUS
 62
     5
 10
-323.064284
 20
1640.500022
 30
0.0
 11
-325.054616
 21
1640.295957
 31
0.0
  0
LINE
  5
1AD
  8
DETAIL
  6
CONTINUOUS
 62
     5
 10
-329.815534
 20
1637.398839
 30
0.0
 11
-331.042338
 21
1635.803053
 31
0.0
  0
LINE
  5
1AE
  8
DETAIL
  6
CONTINUOUS
 62
     5
 10
-328.296151
 20
1638.713064
 30
0.0
 11
-329.815534
 21
1637.398839
 31
0.0
  0
LINE
  5
1AF
  8
DETAIL
  6
CONTINUOUS
 62
     5
 10
-326.546198
 20
1639.692089
 30
0.0
 11
-328.296151
 21
1638.713064
 31
0.0
  0
LINE
  5
1B0
  8
DETAIL
  6
CONTINUOUS
 62
     5
 10
-324.637097
 20
1640.295957
 30
0.0
 11
-326.546198
 21
1639.692089
 31
0.0
  0
LINE
  5
1B1
  8
DETAIL
  6
CONTINUOUS
 62
     5
 10
-322.646765
 20
1640.500022
 30
0.0
 11
-324.637097
 21
1640.295957
 31
0.0
  0
LINE
  5
1B2
  8
DETAIL
  6
CONTINUOUS
 62
     5
 10
-331.598749
 20
1637.398839
 30
0.0
 11
-332.830823
 21
1635.803053
 31
0.0
  0
LINE
  5
1B3
  8
DETAIL
  6
CONTINUOUS
 62
     5
 10
-330.072839
 20
1638.713064
 30
0.0
 11
-331.598749
 21
1637.398839
 31
0.0
  0
LINE
  5
1B4
  8
DETAIL
  6
CONTINUOUS
 62
     5
 10
-328.315369
 20
1639.692089
 30
0.0
 11
-330.072839
 21
1638.713064
 31
0.0
  0
LINE
  5
1B5
  8
DETAIL
  6
CONTINUOUS
 62
     5
 10
-326.398067
 20
1640.295957
 30
0.0
 11
-328.315369
 21
1639.692089
 31
0.0
  0
LINE
  5
1B6
  8
DETAIL
  6
CONTINUOUS
 62
     5
 10
-324.399185
 20
1640.500022
 30
0.0
 11
-326.398067
 21
1640.295957
 31
0.0
  0
LINE
  5
1B7
  8
DETAIL
  6
CONTINUOUS
 62
     5
 10
-331.285164
 20
1637.398839
 30
0.0
 11
-332.517238
 21
1635.803053
 31
0.0
  0
LINE
  5
1B8
  8
DETAIL
  6
CONTINUOUS
 62
     5
 10
-329.759254
 20
1638.713064
 30
0.0
 11
-331.285164
 21
1637.398839
 31
0.0
  0
LINE
  5
1B9
  8
DETAIL
  6
CONTINUOUS
 62
     5
 10
-328.001784
 20
1639.692089
 30
0.0
 11
-329.759254
 21
1638.713064
 31
0.0
  0
LINE
  5
1BA
  8
DETAIL
  6
CONTINUOUS
 62
     5
 10
-326.084482
 20
1640.295957
 30
0.0
 11
-328.001784
 21
1639.692089
 31
0.0
  0
LINE
  5
1BB
  8
DETAIL
  6
CONTINUOUS
 62
     5
 10
-324.0856
 20
1640.500022
 30
0.0
 11
-326.084482
 21
1640.295957
 31
0.0
  0
LINE
  5
1BC
  8
DETAIL
  6
CONTINUOUS
 62
     5
 10
-332.560443
 20
1637.398839
 30
0.0
 11
-333.796286
 21
1635.803053
 31
0.0
  0
LINE
  5
1BD
  8
DETAIL
  6
CONTINUOUS
 62
     5
 10
-331.029865
 20
1638.713064
 30
0.0
 11
-332.560443
 21
1637.398839
 31
0.0
  0
LINE
  5
1BE
  8
DETAIL
  6
CONTINUOUS
 62
     5
 10
-329.267019
 20
1639.692089
 30
0.0
 11
-331.029865
 21
1638.713064
 31
0.0
  0
LINE
  5
1BF
  8
DETAIL
  6
CONTINUOUS
 62
     5
 10
-327.343853
 20
1640.295957
 30
0.0
 11
-329.267019
 21
1639.692089
 31
0.0
  0
LINE
  5
1C0
  8
DETAIL
  6
CONTINUOUS
 62
     5
 10
-325.338856
 20
1640.500022
 30
0.0
 11
-327.343853
 21
1640.295957
 31
0.0
  0
LINE
  5
1C1
  8
DETAIL
  6
CONTINUOUS
 62
     5
 10
-332.351174
 20
1637.398839
 30
0.0
 11
-333.587016
 21
1635.803053
 31
0.0
  0
LINE
  5
1C2
  8
DETAIL
  6
CONTINUOUS
 62
     5
 10
-330.820596
 20
1638.713064
 30
0.0
 11
-332.351174
 21
1637.398839
 31
0.0
  0
LINE
  5
1C3
  8
DETAIL
  6
CONTINUOUS
 62
     5
 10
-329.05775
 20
1639.692089
 30
0.0
 11
-330.820596
 21
1638.713064
 31
0.0
  0
LINE
  5
1C4
  8
DETAIL
  6
CONTINUOUS
 62
     5
 10
-327.134583
 20
1640.295957
 30
0.0
 11
-329.05775
 21
1639.692089
 31
0.0
  0
LINE
  5
1C5
  8
DETAIL
  6
CONTINUOUS
 62
     5
 10
-325.129587
 20
1640.500022
 30
0.0
 11
-327.134583
 21
1640.295957
 31
0.0
  0
LINE
  5
1C6
  8
DETAIL
  6
CONTINUOUS
 62
     5
 10
-333.116963
 20
1637.398839
 30
0.0
 11
-334.355069
 21
1635.803053
 31
0.0
  0
LINE
  5
1C7
  8
DETAIL
  6
CONTINUOUS
 62
     5
 10
-331.583582
 20
1638.713064
 30
0.0
 11
-333.116963
 21
1637.398839
 31
0.0
  0
LINE
  5
1C8
  8
DETAIL
  6
CONTINUOUS
 62
     5
 10
-329.817508
 20
1639.692089
 30
0.0
 11
-331.583582
 21
1638.713064
 31
0.0
  0
LINE
  5
1C9
  8
DETAIL
  6
CONTINUOUS
 62
     5
 10
-327.89082
 20
1640.295957
 30
0.0
 11
-329.817508
 21
1639.692089
 31
0.0
  0
LINE
  5
1CA
  8
DETAIL
  6
CONTINUOUS
 62
     5
 10
-325.882152
 20
1640.500022
 30
0.0
 11
-327.89082
 21
1640.295957
 31
0.0
  0
LINE
  5
1CB
  8
DETAIL
  6
CONTINUOUS
 62
     5
 10
-333.012265
 20
1637.398839
 30
0.0
 11
-334.250371
 21
1635.803053
 31
0.0
  0
LINE
  5
1CC
  8
DETAIL
  6
CONTINUOUS
 62
     5
 10
-331.478884
 20
1638.713064
 30
0.0
 11
-333.012265
 21
1637.398839
 31
0.0
  0
LINE
  5
1CD
  8
DETAIL
  6
CONTINUOUS
 62
     5
 10
-329.71281
 20
1639.692089
 30
0.0
 11
-331.478884
 21
1638.713064
 31
0.0
  0
LINE
  5
1CE
  8
DETAIL
  6
CONTINUOUS
 62
     5
 10
-327.786122
 20
1640.295957
 30
0.0
 11
-329.71281
 21
1639.692089
 31
0.0
  0
LINE
  5
1CF
  8
DETAIL
  6
CONTINUOUS
 62
     5
 10
-325.777453
 20
1640.500022
 30
0.0
 11
-327.786122
 21
1640.295957
 31
0.0
  0
LINE
  5
1D0
  8
DETAIL
  6
CONTINUOUS
 62
     5
 10
-80.000001
 20
1650.000023
 30
0.0
 11
80.000001
 21
1650.000023
 31
0.0
  0
LINE
  5
1D1
  8
DETAIL
  6
CONTINUOUS
 62
     5
 10
100.000002
 20
1649.300023
 30
0.0
 11
-100.000002
 21
1649.300023
 31
0.0
  0
LINE
  5
1D2
  8
DETAIL
  6
CONTINUOUS
 62
     5
 10
120.000002
 20
1648.600022
 30
0.0
 11
-120.000002
 21
1648.600022
 31
0.0
  0
LINE
  5
1D3
  8
DETAIL
  6
CONTINUOUS
 62
     5
 10
140.000003
 20
1647.900022
 30
0.0
 11
-140.000003
 21
1647.900022
 31
0.0
  0
LINE
  5
1D4
  8
DETAIL
  6
CONTINUOUS
 62
     5
 10
160.000003
 20
1647.200022
 30
0.0
 11
-160.000003
 21
1647.200022
 31
0.0
  0
LINE
  5
1D5
  8
DETAIL
  6
CONTINUOUS
 62
     5
 10
180.000003
 20
1646.500022
 30
0.0
 11
-180.000003
 21
1646.500022
 31
0.0
  0
LINE
  5
1D6
  8
DETAIL
  6
CONTINUOUS
 62
     5
 10
200.000004
 20
1645.800022
 30
0.0
 11
-200.000004
 21
1645.800022
 31
0.0
  0
LINE
  5
1D7
  8
DETAIL
  6
CONTINUOUS
 62
     5
 10
220.000004
 20
1645.100022
 30
0.0
 11
-220.000004
 21
1645.100022
 31
0.0
  0
LINE
  5
1D8
  8
DETAIL
  6
CONTINUOUS
 62
     5
 10
240.000004
 20
1644.400022
 30
0.0
 11
-240.000004
 21
1644.400022
 31
0.0
  0
LINE
  5
1D9
  8
DETAIL
  6
CONTINUOUS
 62
     5
 10
260.000005
 20
1643.700022
 30
0.0
 11
-260.000005
 21
1643.700022
 31
0.0
  0
LINE
  5
1DA
  8
DETAIL
  6
CONTINUOUS
 62
     5
 10
280.000005
 20
1643.000022
 30
0.0
 11
-280.000005
 21
1643.000022
 31
0.0
  0
LINE
  5
1DB
  8
DETAIL
  6
CONTINUOUS
 62
     5
 10
300.000006
 20
1642.300022
 30
0.0
 11
-300.000006
 21
1642.300022
 31
0.0
  0
LINE
  5
1DC
  8
DETAIL
  6
CONTINUOUS
 62
     5
 10
320.000006
 20
1641.600022
 30
0.0
 11
-320.000006
 21
1641.600022
 31
0.0
  0
LINE
  5
1DD
  8
DETAIL
  6
CONTINUOUS
 62
     5
 10
325.338856
 20
1640.500022
 30
0.0
 11
325.777453
 21
1640.500022
 31
0.0
  0
LINE
  5
1DE
  8
DETAIL
  6
CONTINUOUS
 62
     5
 10
324.399185
 20
1640.500022
 30
0.0
 11
325.129587
 21
1640.500022
 31
0.0
  0
LINE
  5
1DF
  8
DETAIL
  6
CONTINUOUS
 62
     5
 10
323.064284
 20
1640.500022
 30
0.0
 11
324.0856
 21
1640.500022
 31
0.0
  0
LINE
  5
1E0
  8
DETAIL
  6
CONTINUOUS
 62
     5
 10
321.335778
 20
1640.500022
 30
0.0
 11
322.646765
 21
1640.500022
 31
0.0
  0
LINE
  5
1E1
  8
DETAIL
  6
CONTINUOUS
 62
     5
 10
319.215775
 20
1640.500022
 30
0.0
 11
320.814834
 21
1640.500022
 31
0.0
  0
LINE
  5
1E2
  8
DETAIL
  6
CONTINUOUS
 62
     5
 10
316.706856
 20
1640.500022
 30
0.0
 11
318.59204
 21
1640.500022
 31
0.0
  0
LINE
  5
1E3
  8
DETAIL
  6
CONTINUOUS
 62
     5
 10
313.812079
 20
1640.500022
 30
0.0
 11
315.98109
 21
1640.500022
 31
0.0
  0
LINE
  5
1E4
  8
DETAIL
  6
CONTINUOUS
 62
     5
 10
310.53497
 20
1640.500022
 30
0.0
 11
312.985167
 21
1640.500022
 31
0.0
  0
LINE
  5
1E5
  8
DETAIL
  6
CONTINUOUS
 62
     5
 10
306.879522
 20
1640.500022
 30
0.0
 11
309.607919
 21
1640.500022
 31
0.0
  0
LINE
  5
1E6
  8
DETAIL
  6
CONTINUOUS
 62
     5
 10
258.000921
 20
1640.500022
 30
0.0
 11
305.853461
 21
1640.500022
 31
0.0
  0
LINE
  5
1E7
  8
DETAIL
  6
CONTINUOUS
 62
     5
 10
251.237183
 20
1640.500022
 30
0.0
 11
257.837386
 21
1640.500022
 31
0.0
  0
LINE
  5
1E8
  8
DETAIL
  6
CONTINUOUS
 62
     5
 10
244.167352
 20
1640.500022
 30
0.0
 11
250.716433
 21
1640.500022
 31
0.0
  0
LINE
  5
1E9
  8
DETAIL
  6
CONTINUOUS
 62
     5
 10
236.80004
 20
1640.500022
 30
0.0
 11
243.290022
 21
1640.500022
 31
0.0
  0
LINE
  5
1EA
  8
DETAIL
  6
CONTINUOUS
 62
     5
 10
229.144224
 20
1640.500022
 30
0.0
 11
235.567199
 21
1640.500022
 31
0.0
  0
LINE
  5
1EB
  8
DETAIL
  6
CONTINUOUS
 62
     5
 10
221.209231
 20
1640.500022
 30
0.0
 11
227.557374
 21
1640.500022
 31
0.0
  0
LINE
  5
1EC
  8
DETAIL
  6
CONTINUOUS
 62
     5
 10
213.004728
 20
1640.500022
 30
0.0
 11
219.270305
 21
1640.500022
 31
0.0
  0
LINE
  5
1ED
  8
DETAIL
  6
CONTINUOUS
 62
     5
 10
204.540712
 20
1640.500022
 30
0.0
 11
210.716089
 21
1640.500022
 31
0.0
  0
LINE
  5
1EE
  8
DETAIL
  6
CONTINUOUS
 62
     5
 10
195.827495
 20
1640.500022
 30
0.0
 11
201.905148
 21
1640.500022
 31
0.0
  0
LINE
  5
1EF
  8
DETAIL
  6
CONTINUOUS
 62
     5
 10
186.875692
 20
1640.500022
 30
0.0
 11
192.848217
 21
1640.500022
 31
0.0
  0
LINE
  5
1F0
  8
DETAIL
  6
CONTINUOUS
 62
     5
 10
177.69621
 20
1640.500022
 30
0.0
 11
183.55633
 21
1640.500022
 31
0.0
  0
LINE
  5
1F1
  8
DETAIL
  6
CONTINUOUS
 62
     5
 10
168.300233
 20
1640.500022
 30
0.0
 11
174.040807
 21
1640.500022
 31
0.0
  0
LINE
  5
1F2
  8
DETAIL
  6
CONTINUOUS
 62
     5
 10
158.699207
 20
1640.500022
 30
0.0
 11
164.313243
 21
1640.500022
 31
0.0
  0
LINE
  5
1F3
  8
DETAIL
  6
CONTINUOUS
 62
     5
 10
148.904831
 20
1640.500022
 30
0.0
 11
154.385489
 21
1640.500022
 31
0.0
  0
LINE
  5
1F4
  8
DETAIL
  6
CONTINUOUS
 62
     5
 10
138.929037
 20
1640.500022
 30
0.0
 11
144.269639
 21
1640.500022
 31
0.0
  0
LINE
  5
1F5
  8
DETAIL
  6
CONTINUOUS
 62
     5
 10
128.78398
 20
1640.500022
 30
0.0
 11
133.978019
 21
1640.500022
 31
0.0
  0
LINE
  5
1F6
  8
DETAIL
  6
CONTINUOUS
 62
     5
 10
118.482019
 20
1640.500022
 30
0.0
 11
123.523168
 21
1640.500022
 31
0.0
  0
LINE
  5
1F7
  8
DETAIL
  6
CONTINUOUS
 62
     5
 10
108.035707
 20
1640.500022
 30
0.0
 11
112.917823
 21
1640.500022
 31
0.0
  0
LINE
  5
1F8
  8
DETAIL
  6
CONTINUOUS
 62
     5
 10
97.457769
 20
1640.500022
 30
0.0
 11
102.174904
 21
1640.500022
 31
0.0
  0
LINE
  5
1F9
  8
DETAIL
  6
CONTINUOUS
 62
     5
 10
86.761094
 20
1640.500022
 30
0.0
 11
91.307502
 21
1640.500022
 31
0.0
  0
LINE
  5
1FA
  8
DETAIL
  6
CONTINUOUS
 62
     5
 10
75.958714
 20
1640.500022
 30
0.0
 11
80.328855
 21
1640.500022
 31
0.0
  0
LINE
  5
1FB
  8
DETAIL
  6
CONTINUOUS
 62
     5
 10
65.06379
 20
1640.500022
 30
0.0
 11
69.252339
 21
1640.500022
 31
0.0
  0
LINE
  5
1FC
  8
DETAIL
  6
CONTINUOUS
 62
     5
 10
54.089596
 20
1640.500022
 30
0.0
 11
58.091451
 21
1640.500022
 31
0.0
  0
LINE
  5
1FD
  8
DETAIL
  6
CONTINUOUS
 62
     5
 10
43.049502
 20
1640.500022
 30
0.0
 11
46.859787
 21
1640.500022
 31
0.0
  0
LINE
  5
1FE
  8
DETAIL
  6
CONTINUOUS
 62
     5
 10
31.956959
 20
1640.500022
 30
0.0
 11
35.571032
 21
1640.500022
 31
0.0
  0
LINE
  5
1FF
  8
DETAIL
  6
CONTINUOUS
 62
     5
 10
20.825481
 20
1640.500022
 30
0.0
 11
24.238938
 21
1640.500022
 31
0.0
  0
LINE
  5
200
  8
DETAIL
  6
CONTINUOUS
 62
     5
 10
9.66863
 20
1640.500022
 30
0.0
 11
12.877314
 21
1640.500022
 31
0.0
  0
LINE
  5
201
  8
DETAIL
  6
CONTINUOUS
 62
     5
 10
-325.338856
 20
1640.500022
 30
0.0
 11
-325.777453
 21
1640.500022
 31
0.0
  0
LINE
  5
202
  8
DETAIL
  6
CONTINUOUS
 62
     5
 10
-324.399185
 20
1640.500022
 30
0.0
 11
-325.129587
 21
1640.500022
 31
0.0
  0
LINE
  5
203
  8
DETAIL
  6
CONTINUOUS
 62
     5
 10
-323.064284
 20
1640.500022
 30
0.0
 11
-324.0856
 21
1640.500022
 31
0.0
  0
LINE
  5
204
  8
DETAIL
  6
CONTINUOUS
 62
     5
 10
-321.335778
 20
1640.500022
 30
0.0
 11
-322.646765
 21
1640.500022
 31
0.0
  0
LINE
  5
205
  8
DETAIL
  6
CONTINUOUS
 62
     5
 10
-319.215775
 20
1640.500022
 30
0.0
 11
-320.814834
 21
1640.500022
 31
0.0
  0
LINE
  5
206
  8
DETAIL
  6
CONTINUOUS
 62
     5
 10
-258.000921
 20
1640.500022
 30
0.0
 11
-318.59204
 21
1640.500022
 31
0.0
  0
LINE
  5
207
  8
DETAIL
  6
CONTINUOUS
 62
     5
 10
-251.237183
 20
1640.500022
 30
0.0
 11
-257.837386
 21
1640.500022
 31
0.0
  0
LINE
  5
208
  8
DETAIL
  6
CONTINUOUS
 62
     5
 10
-244.167352
 20
1640.500022
 30
0.0
 11
-250.716433
 21
1640.500022
 31
0.0
  0
LINE
  5
209
  8
DETAIL
  6
CONTINUOUS
 62
     5
 10
-236.80004
 20
1640.500022
 30
0.0
 11
-243.290022
 21
1640.500022
 31
0.0
  0
LINE
  5
20A
  8
DETAIL
  6
CONTINUOUS
 62
     5
 10
-229.144224
 20
1640.500022
 30
0.0
 11
-235.567199
 21
1640.500022
 31
0.0
  0
LINE
  5
20B
  8
DETAIL
  6
CONTINUOUS
 62
     5
 10
-221.209231
 20
1640.500022
 30
0.0
 11
-227.557374
 21
1640.500022
 31
0.0
  0
LINE
  5
20C
  8
DETAIL
  6
CONTINUOUS
 62
     5
 10
-213.004728
 20
1640.500022
 30
0.0
 11
-219.270305
 21
1640.500022
 31
0.0
  0
LINE
  5
20D
  8
DETAIL
  6
CONTINUOUS
 62
     5
 10
-204.540712
 20
1640.500022
 30
0.0
 11
-210.716089
 21
1640.500022
 31
0.0
  0
LINE
  5
20E
  8
DETAIL
  6
CONTINUOUS
 62
     5
 10
-195.827495
 20
1640.500022
 30
0.0
 11
-201.905148
 21
1640.500022
 31
0.0
  0
LINE
  5
20F
  8
DETAIL
  6
CONTINUOUS
 62
     5
 10
-186.875692
 20
1640.500022
 30
0.0
 11
-192.848217
 21
1640.500022
 31
0.0
  0
LINE
  5
210
  8
DETAIL
  6
CONTINUOUS
 62
     5
 10
-177.69621
 20
1640.500022
 30
0.0
 11
-183.55633
 21
1640.500022
 31
0.0
  0
LINE
  5
211
  8
DETAIL
  6
CONTINUOUS
 62
     5
 10
-168.300233
 20
1640.500022
 30
0.0
 11
-174.040807
 21
1640.500022
 31
0.0
  0
LINE
  5
212
  8
DETAIL
  6
CONTINUOUS
 62
     5
 10
-158.699207
 20
1640.500022
 30
0.0
 11
-164.313243
 21
1640.500022
 31
0.0
  0
LINE
  5
213
  8
DETAIL
  6
CONTINUOUS
 62
     5
 10
-148.904831
 20
1640.500022
 30
0.0
 11
-154.385489
 21
1640.500022
 31
0.0
  0
LINE
  5
214
  8
DETAIL
  6
CONTINUOUS
 62
     5
 10
-138.929037
 20
1640.500022
 30
0.0
 11
-144.269639
 21
1640.500022
 31
0.0
  0
LINE
  5
215
  8
DETAIL
  6
CONTINUOUS
 62
     5
 10
-128.78398
 20
1640.500022
 30
0.0
 11
-133.978019
 21
1640.500022
 31
0.0
  0
LINE
  5
216
  8
DETAIL
  6
CONTINUOUS
 62
     5
 10
-118.482019
 20
1640.500022
 30
0.0
 11
-123.523168
 21
1640.500022
 31
0.0
  0
LINE
  5
217
  8
DETAIL
  6
CONTINUOUS
 62
     5
 10
-108.035707
 20
1640.500022
 30
0.0
 11
-112.917823
 21
1640.500022
 31
0.0
  0
LINE
  5
218
  8
DETAIL
  6
CONTINUOUS
 62
     5
 10
-97.457769
 20
1640.500022
 30
0.0
 11
-102.174904
 21
1640.500022
 31
0.0
  0
LINE
  5
219
  8
DETAIL
  6
CONTINUOUS
 62
     5
 10
-86.761094
 20
1640.500022
 30
0.0
 11
-91.307502
 21
1640.500022
 31
0.0
  0
LINE
  5
21A
  8
DETAIL
  6
CONTINUOUS
 62
     5
 10
-75.958714
 20
1640.500022
 30
0.0
 11
-80.328855
 21
1640.500022
 31
0.0
  0
LINE
  5
21B
  8
DETAIL
  6
CONTINUOUS
 62
     5
 10
-65.06379
 20
1640.500022
 30
0.0
 11
-69.252339
 21
1640.500022
 31
0.0
  0
LINE
  5
21C
  8
DETAIL
  6
CONTINUOUS
 62
     5
 10
-54.089596
 20
1640.500022
 30
0.0
 11
-58.091451
 21
1640.500022
 31
0.0
  0
LINE
  5
21D
  8
DETAIL
  6
CONTINUOUS
 62
     5
 10
-43.049502
 20
1640.500022
 30
0.0
 11
-46.859787
 21
1640.500022
 31
0.0
  0
LINE
  5
21E
  8
DETAIL
  6
CONTINUOUS
 62
     5
 10
-31.956959
 20
1640.500022
 30
0.0
 11
-35.571032
 21
1640.500022
 31
0.0
  0
LINE
  5
21F
  8
DETAIL
  6
CONTINUOUS
 62
     5
 10
-20.825481
 20
1640.500022
 30
0.0
 11
-24.238938
 21
1640.500022
 31
0.0
  0
LINE
  5
220
  8
DETAIL
  6
CONTINUOUS
 62
     5
 10
-9.66863
 20
1640.500022
 30
0.0
 11
-12.877314
 21
1640.500022
 31
0.0
  0
LINE
  5
221
  8
DETAIL
  6
CONTINUOUS
 62
     5
 10
1.5
 20
1640.500022
 30
0.0
 11
-1.5
 21
1640.500022
 31
0.0
  0
LINE
  5
26C
  8
DETAIL
  6
CONTINUOUS
 62
     5
 10
333.116963
 20
1637.398839
 30
0.0
 11
334.355069
 21
1635.803053
 31
0.0
  0
LINE
  5
26D
  8
DETAIL
  6
CONTINUOUS
 62
     5
 10
331.583582
 20
1638.713064
 30
0.0
 11
333.116963
 21
1637.398839
 31
0.0
  0
LINE
  5
26E
  8
DETAIL
  6
CONTINUOUS
 62
     5
 10
329.817508
 20
1639.692089
 30
0.0
 11
331.583582
 21
1638.713064
 31
0.0
  0
LINE
  5
26F
  8
DETAIL
  6
CONTINUOUS
 62
     5
 10
327.89082
 20
1640.295957
 30
0.0
 11
329.817508
 21
1639.692089
 31
0.0
  0
LINE
  5
270
  8
DETAIL
  6
CONTINUOUS
 62
     5
 10
325.882152
 20
1640.500022
 30
0.0
 11
327.89082
 21
1640.295957
 31
0.0
  0
LINE
  5
271
  8
DETAIL
  6
CONTINUOUS
 62
     5
 10
333.012265
 20
1637.398839
 30
0.0
 11
334.250371
 21
1635.803053
 31
0.0
  0
LINE
  5
272
  8
DETAIL
  6
CONTINUOUS
 62
     5
 10
331.478884
 20
1638.713064
 30
0.0
 11
333.012265
 21
1637.398839
 31
0.0
  0
LINE
  5
273
  8
DETAIL
  6
CONTINUOUS
 62
     5
 10
329.71281
 20
1639.692089
 30
0.0
 11
331.478884
 21
1638.713064
 31
0.0
  0
LINE
  5
274
  8
DETAIL
  6
CONTINUOUS
 62
     5
 10
327.786122
 20
1640.295957
 30
0.0
 11
329.71281
 21
1639.692089
 31
0.0
  0
LINE
  5
275
  8
DETAIL
  6
CONTINUOUS
 62
     5
 10
325.777453
 20
1640.500022
 30
0.0
 11
327.786122
 21
1640.295957
 31
0.0
  0
LINE
  5
276
  8
DETAIL
  6
CONTINUOUS
 62
     5
 10
332.560443
 20
1637.398839
 30
0.0
 11
333.796286
 21
1635.803053
 31
0.0
  0
LINE
  5
277
  8
DETAIL
  6
CONTINUOUS
 62
     5
 10
331.029865
 20
1638.713064
 30
0.0
 11
332.560443
 21
1637.398839
 31
0.0
  0
LINE
  5
278
  8
DETAIL
  6
CONTINUOUS
 62
     5
 10
329.267019
 20
1639.692089
 30
0.0
 11
331.029865
 21
1638.713064
 31
0.0
  0
LINE
  5
279
  8
DETAIL
  6
CONTINUOUS
 62
     5
 10
327.343853
 20
1640.295957
 30
0.0
 11
329.267019
 21
1639.692089
 31
0.0
  0
LINE
  5
27A
  8
DETAIL
  6
CONTINUOUS
 62
     5
 10
325.338856
 20
1640.500022
 30
0.0
 11
327.343853
 21
1640.295957
 31
0.0
  0
LINE
  5
27B
  8
DETAIL
  6
CONTINUOUS
 62
     5
 10
332.351174
 20
1637.398839
 30
0.0
 11
333.587016
 21
1635.803053
 31
0.0
  0
LINE
  5
27C
  8
DETAIL
  6
CONTINUOUS
 62
     5
 10
330.820596
 20
1638.713064
 30
0.0
 11
332.351174
 21
1637.398839
 31
0.0
  0
LINE
  5
27D
  8
DETAIL
  6
CONTINUOUS
 62
     5
 10
329.05775
 20
1639.692089
 30
0.0
 11
330.820596
 21
1638.713064
 31
0.0
  0
LINE
  5
27E
  8
DETAIL
  6
CONTINUOUS
 62
     5
 10
327.134583
 20
1640.295957
 30
0.0
 11
329.05775
 21
1639.692089
 31
0.0
  0
LINE
  5
27F
  8
DETAIL
  6
CONTINUOUS
 62
     5
 10
325.129587
 20
1640.500022
 30
0.0
 11
327.134583
 21
1640.295957
 31
0.0
  0
LINE
  5
280
  8
DETAIL
  6
CONTINUOUS
 62
     5
 10
331.598749
 20
1637.398839
 30
0.0
 11
332.830823
 21
1635.803053
 31
0.0
  0
LINE
  5
281
  8
DETAIL
  6
CONTINUOUS
 62
     5
 10
330.072839
 20
1638.713064
 30
0.0
 11
331.598749
 21
1637.398839
 31
0.0
  0
LINE
  5
282
  8
DETAIL
  6
CONTINUOUS
 62
     5
 10
328.315369
 20
1639.692089
 30
0.0
 11
330.072839
 21
1638.713064
 31
0.0
  0
LINE
  5
283
  8
DETAIL
  6
CONTINUOUS
 62
     5
 10
326.398067
 20
1640.295957
 30
0.0
 11
328.315369
 21
1639.692089
 31
0.0
  0
LINE
  5
284
  8
DETAIL
  6
CONTINUOUS
 62
     5
 10
324.399185
 20
1640.500022
 30
0.0
 11
326.398067
 21
1640.295957
 31
0.0
  0
LINE
  5
285
  8
DETAIL
  6
CONTINUOUS
 62
     5
 10
331.285164
 20
1637.398839
 30
0.0
 11
332.517238
 21
1635.803053
 31
0.0
  0
LINE
  5
286
  8
DETAIL
  6
CONTINUOUS
 62
     5
 10
329.759254
 20
1638.713064
 30
0.0
 11
331.285164
 21
1637.398839
 31
0.0
  0
LINE
  5
287
  8
DETAIL
  6
CONTINUOUS
 62
     5
 10
328.001784
 20
1639.692089
 30
0.0
 11
329.759254
 21
1638.713064
 31
0.0
  0
LINE
  5
288
  8
DETAIL
  6
CONTINUOUS
 62
     5
 10
326.084482
 20
1640.295957
 30
0.0
 11
328.001784
 21
1639.692089
 31
0.0
  0
LINE
  5
289
  8
DETAIL
  6
CONTINUOUS
 62
     5
 10
324.0856
 20
1640.500022
 30
0.0
 11
326.084482
 21
1640.295957
 31
0.0
  0
LINE
  5
28A
  8
DETAIL
  6
CONTINUOUS
 62
     5
 10
330.233054
 20
1637.398839
 30
0.0
 11
331.459858
 21
1635.803053
 31
0.0
  0
LINE
  5
28B
  8
DETAIL
  6
CONTINUOUS
 62
     5
 10
328.71367
 20
1638.713064
 30
0.0
 11
330.233054
 21
1637.398839
 31
0.0
  0
LINE
  5
28C
  8
DETAIL
  6
CONTINUOUS
 62
     5
 10
326.963717
 20
1639.692089
 30
0.0
 11
328.71367
 21
1638.713064
 31
0.0
  0
LINE
  5
28D
  8
DETAIL
  6
CONTINUOUS
 62
     5
 10
325.054616
 20
1640.295957
 30
0.0
 11
326.963717
 21
1639.692089
 31
0.0
  0
LINE
  5
28E
  8
DETAIL
  6
CONTINUOUS
 62
     5
 10
323.064284
 20
1640.500022
 30
0.0
 11
325.054616
 21
1640.295957
 31
0.0
  0
LINE
  5
28F
  8
DETAIL
  6
CONTINUOUS
 62
     5
 10
329.815534
 20
1637.398839
 30
0.0
 11
331.042338
 21
1635.803053
 31
0.0
  0
LINE
  5
290
  8
DETAIL
  6
CONTINUOUS
 62
     5
 10
328.296151
 20
1638.713064
 30
0.0
 11
329.815534
 21
1637.398839
 31
0.0
  0
LINE
  5
291
  8
DETAIL
  6
CONTINUOUS
 62
     5
 10
326.546198
 20
1639.692089
 30
0.0
 11
328.296151
 21
1638.713064
 31
0.0
  0
LINE
  5
292
  8
DETAIL
  6
CONTINUOUS
 62
     5
 10
324.637097
 20
1640.295957
 30
0.0
 11
326.546198
 21
1639.692089
 31
0.0
  0
LINE
  5
293
  8
DETAIL
  6
CONTINUOUS
 62
     5
 10
322.646765
 20
1640.500022
 30
0.0
 11
324.637097
 21
1640.295957
 31
0.0
  0
LINE
  5
294
  8
DETAIL
  6
CONTINUOUS
 62
     5
 10
328.46502
 20
1637.398839
 30
0.0
 11
329.685059
 21
1635.803053
 31
0.0
  0
LINE
  5
296
  8
DETAIL
  6
CONTINUOUS
 62
     5
 10
325.21371
 20
1639.692089
 30
0.0
 11
326.954014
 21
1638.713064
 31
0.0
  0
LINE
  5
297
  8
DETAIL
  6
CONTINUOUS
 62
     5
 10
323.315136
 20
1640.295957
 30
0.0
 11
325.21371
 21
1639.692089
 31
0.0
  0
LINE
  5
298
  8
DETAIL
  6
CONTINUOUS
 62
     5
 10
321.335778
 20
1640.500022
 30
0.0
 11
323.315136
 21
1640.295957
 31
0.0
  0
LINE
  5
29B
  8
DETAIL
  6
CONTINUOUS
 62
     5
 10
324.692766
 20
1639.692089
 30
0.0
 11
326.433069
 21
1638.713064
 31
0.0
  0
LINE
  5
29C
  8
DETAIL
  6
CONTINUOUS
 62
     5
 10
322.794192
 20
1640.295957
 30
0.0
 11
324.692766
 21
1639.692089
 31
0.0
  0
LINE
  5
29D
  8
DETAIL
  6
CONTINUOUS
 62
     5
 10
320.814834
 20
1640.500022
 30
0.0
 11
322.794192
 21
1640.295957
 31
0.0
  0
LINE
  5
2A0
  8
DETAIL
  6
CONTINUOUS
 62
     5
 10
323.067481
 20
1639.692089
 30
0.0
 11
324.796015
 21
1638.713064
 31
0.0
  0
LINE
  5
2A1
  8
DETAIL
  6
CONTINUOUS
 62
     5
 10
321.181746
 20
1640.295957
 30
0.0
 11
323.067481
 21
1639.692089
 31
0.0
  0
LINE
  5
2A2
  8
DETAIL
  6
CONTINUOUS
 62
     5
 10
319.215775
 20
1640.500022
 30
0.0
 11
321.181746
 21
1640.295957
 31
0.0
  0
LINE
  5
2A5
  8
DETAIL
  6
CONTINUOUS
 62
     5
 10
322.443746
 20
1639.692089
 30
0.0
 11
324.17228
 21
1638.713064
 31
0.0
  0
LINE
  5
2A6
  8
DETAIL
  6
CONTINUOUS
 62
     5
 10
320.558011
 20
1640.295957
 30
0.0
 11
322.443746
 21
1639.692089
 31
0.0
  0
LINE
  5
2A7
  8
DETAIL
  6
CONTINUOUS
 62
     5
 10
318.59204
 20
1640.500022
 30
0.0
 11
320.558011
 21
1640.295957
 31
0.0
  0
LINE
  5
2AA
  8
DETAIL
  6
CONTINUOUS
 62
     5
 10
320.527643
 20
1639.692089
 30
0.0
 11
322.242302
 21
1638.713064
 31
0.0
  0
LINE
  5
2AB
  8
DETAIL
  6
CONTINUOUS
 62
     5
 10
318.657046
 20
1640.295957
 30
0.0
 11
320.527643
 21
1639.692089
 31
0.0
  0
LINE
  5
2AC
  8
DETAIL
  6
CONTINUOUS
 62
     5
 10
316.706856
 20
1640.500022
 30
0.0
 11
318.657046
 21
1640.295957
 31
0.0
  0
LINE
  5
2AF
  8
DETAIL
  6
CONTINUOUS
 62
     5
 10
319.801877
 20
1639.692089
 30
0.0
 11
321.516536
 21
1638.713064
 31
0.0
  0
LINE
  5
2B0
  8
DETAIL
  6
CONTINUOUS
 62
     5
 10
317.93128
 20
1640.295957
 30
0.0
 11
319.801877
 21
1639.692089
 31
0.0
  0
LINE
  5
2B1
  8
DETAIL
  6
CONTINUOUS
 62
     5
 10
315.98109
 20
1640.500022
 30
0.0
 11
317.93128
 21
1640.295957
 31
0.0
  0
LINE
  5
2B4
  8
DETAIL
  6
CONTINUOUS
 62
     5
 10
317.597292
 20
1639.692089
 30
0.0
 11
319.295986
 21
1638.713064
 31
0.0
  0
LINE
  5
2B5
  8
DETAIL
  6
CONTINUOUS
 62
     5
 10
315.744111
 20
1640.295957
 30
0.0
 11
317.597292
 21
1639.692089
 31
0.0
  0
LINE
  5
2B6
  8
DETAIL
  6
CONTINUOUS
 62
     5
 10
313.812079
 20
1640.500022
 30
0.0
 11
315.744111
 21
1640.295957
 31
0.0
  0
LINE
  5
2B9
  8
DETAIL
  6
CONTINUOUS
 62
     5
 10
316.77038
 20
1639.692089
 30
0.0
 11
318.469074
 21
1638.713064
 31
0.0
  0
LINE
  5
2BA
  8
DETAIL
  6
CONTINUOUS
 62
     5
 10
314.917199
 20
1640.295957
 30
0.0
 11
316.77038
 21
1639.692089
 31
0.0
  0
LINE
  5
2BB
  8
DETAIL
  6
CONTINUOUS
 62
     5
 10
312.985167
 20
1640.500022
 30
0.0
 11
314.917199
 21
1640.295957
 31
0.0
  0
LINE
  5
2BE
  8
DETAIL
  6
CONTINUOUS
 62
     5
 10
314.279997
 20
1639.692089
 30
0.0
 11
315.960657
 21
1638.713064
 31
0.0
  0
LINE
  5
2BF
  8
DETAIL
  6
CONTINUOUS
 62
     5
 10
312.446491
 20
1640.295957
 30
0.0
 11
314.279997
 21
1639.692089
 31
0.0
  0
LINE
  5
2C0
  8
DETAIL
  6
CONTINUOUS
 62
     5
 10
310.53497
 20
1640.500022
 30
0.0
 11
312.446491
 21
1640.295957
 31
0.0
  0
LINE
  5
2C3
  8
DETAIL
  6
CONTINUOUS
 62
     5
 10
313.352946
 20
1639.692089
 30
0.0
 11
315.033606
 21
1638.713064
 31
0.0
  0
LINE
  5
2C4
  8
DETAIL
  6
CONTINUOUS
 62
     5
 10
311.51944
 20
1640.295957
 30
0.0
 11
313.352946
 21
1639.692089
 31
0.0
  0
LINE
  5
2C5
  8
DETAIL
  6
CONTINUOUS
 62
     5
 10
309.607919
 20
1640.500022
 30
0.0
 11
311.51944
 21
1640.295957
 31
0.0
  0
LINE
  5
2C8
  8
DETAIL
  6
CONTINUOUS
 62
     5
 10
310.579801
 20
1639.692089
 30
0.0
 11
312.240379
 21
1638.713064
 31
0.0
  0
LINE
  5
2C9
  8
DETAIL
  6
CONTINUOUS
 62
     5
 10
308.768203
 20
1640.295957
 30
0.0
 11
310.579801
 21
1639.692089
 31
0.0
  0
LINE
  5
2CA
  8
DETAIL
  6
CONTINUOUS
 62
     5
 10
306.879522
 20
1640.500022
 30
0.0
 11
308.768203
 21
1640.295957
 31
0.0
  0
LINE
  5
2CD
  8
DETAIL
  6
CONTINUOUS
 62
     5
 10
309.553741
 20
1639.692089
 30
0.0
 11
311.214319
 21
1638.713064
 31
0.0
  0
LINE
  5
2CE
  8
DETAIL
  6
CONTINUOUS
 62
     5
 10
307.742142
 20
1640.295957
 30
0.0
 11
309.553741
 21
1639.692089
 31
0.0
  0
LINE
  5
2CF
  8
DETAIL
  6
CONTINUOUS
 62
     5
 10
305.853461
 20
1640.500022
 30
0.0
 11
307.742142
 21
1640.295957
 31
0.0
  0
LINE
  5
2D2
  8
DETAIL
  6
CONTINUOUS
 62
     5
 10
306.501211
 20
1639.692089
 30
0.0
 11
308.139685
 21
1638.713064
 31
0.0
  0
LINE
  5
2D3
  8
DETAIL
  6
CONTINUOUS
 62
     5
 10
304.713728
 20
1640.295957
 30
0.0
 11
306.501211
 21
1639.692089
 31
0.0
  0
LINE
  5
2D4
  8
DETAIL
  6
CONTINUOUS
 62
     5
 10
302.850188
 20
1640.500022
 30
0.0
 11
304.713728
 21
1640.295957
 31
0.0
  0
LINE
  5
2D7
  8
DETAIL
  6
CONTINUOUS
 62
     5
 10
305.377391
 20
1639.692089
 30
0.0
 11
307.015865
 21
1638.713064
 31
0.0
  0
LINE
  5
2D8
  8
DETAIL
  6
CONTINUOUS
 62
     5
 10
303.589908
 20
1640.295957
 30
0.0
 11
305.377391
 21
1639.692089
 31
0.0
  0
LINE
  5
2D9
  8
DETAIL
  6
CONTINUOUS
 62
     5
 10
301.726368
 20
1640.500022
 30
0.0
 11
303.589908
 21
1640.295957
 31
0.0
  0
LINE
  5
2DC
  8
DETAIL
  6
CONTINUOUS
 62
     5
 10
302.049197
 20
1639.692089
 30
0.0
 11
303.663569
 21
1638.713064
 31
0.0
  0
LINE
  5
2DD
  8
DETAIL
  6
CONTINUOUS
 62
     5
 10
300.288006
 20
1640.295957
 30
0.0
 11
302.049197
 21
1639.692089
 31
0.0
  0
LINE
  5
2DE
  8
DETAIL
  6
CONTINUOUS
 62
     5
 10
298.451878
 20
1640.500022
 30
0.0
 11
300.288006
 21
1640.295957
 31
0.0
  0
LINE
  5
2E1
  8
DETAIL
  6
CONTINUOUS
 62
     5
 10
300.828987
 20
1639.692089
 30
0.0
 11
302.443359
 21
1638.713064
 31
0.0
  0
LINE
  5
2E2
  8
DETAIL
  6
CONTINUOUS
 62
     5
 10
299.067797
 20
1640.295957
 30
0.0
 11
300.828987
 21
1639.692089
 31
0.0
  0
LINE
  5
2E3
  8
DETAIL
  6
CONTINUOUS
 62
     5
 10
297.231668
 20
1640.500022
 30
0.0
 11
299.067797
 21
1640.295957
 31
0.0
  0
LINE
  5
2E6
  8
DETAIL
  6
CONTINUOUS
 62
     5
 10
297.229182
 20
1639.692089
 30
0.0
 11
298.817486
 21
1638.713064
 31
0.0
  0
LINE
  5
2E7
  8
DETAIL
  6
CONTINUOUS
 62
     5
 10
295.49643
 20
1640.295957
 30
0.0
 11
297.229182
 21
1639.692089
 31
0.0
  0
LINE
  5
2E8
  8
DETAIL
  6
CONTINUOUS
 62
     5
 10
293.689951
 20
1640.500022
 30
0.0
 11
295.49643
 21
1640.295957
 31
0.0
  0
LINE
  5
2EB
  8
DETAIL
  6
CONTINUOUS
 62
     5
 10
295.914068
 20
1639.692089
 30
0.0
 11
297.502373
 21
1638.713064
 31
0.0
  0
LINE
  5
2EC
  8
DETAIL
  6
CONTINUOUS
 62
     5
 10
294.181317
 20
1640.295957
 30
0.0
 11
295.914068
 21
1639.692089
 31
0.0
  0
LINE
  5
2ED
  8
DETAIL
  6
CONTINUOUS
 62
     5
 10
292.374837
 20
1640.500022
 30
0.0
 11
294.181317
 21
1640.295957
 31
0.0
  0
LINE
  5
2F0
  8
DETAIL
  6
CONTINUOUS
 62
     5
 10
292.047039
 20
1639.692089
 30
0.0
 11
293.60734
 21
1638.713064
 31
0.0
  0
LINE
  5
2F1
  8
DETAIL
  6
CONTINUOUS
 62
     5
 10
290.344837
 20
1640.295957
 30
0.0
 11
292.047039
 21
1639.692089
 31
0.0
  0
LINE
  5
2F2
  8
DETAIL
  6
CONTINUOUS
 62
     5
 10
288.570207
 20
1640.500022
 30
0.0
 11
290.344837
 21
1640.295957
 31
0.0
  0
LINE
  5
2F5
  8
DETAIL
  6
CONTINUOUS
 62
     5
 10
290.638624
 20
1639.692089
 30
0.0
 11
292.198925
 21
1638.713064
 31
0.0
  0
LINE
  5
2F6
  8
DETAIL
  6
CONTINUOUS
 62
     5
 10
288.936423
 20
1640.295957
 30
0.0
 11
290.638624
 21
1639.692089
 31
0.0
  0
LINE
  5
2F7
  8
DETAIL
  6
CONTINUOUS
 62
     5
 10
287.161793
 20
1640.500022
 30
0.0
 11
288.936423
 21
1640.295957
 31
0.0
  0
LINE
  5
2FA
  8
DETAIL
  6
CONTINUOUS
 62
     5
 10
286.509082
 20
1639.692089
 30
0.0
 11
288.039479
 21
1638.713064
 31
0.0
  0
LINE
  5
2FB
  8
DETAIL
  6
CONTINUOUS
 62
     5
 10
284.839504
 20
1640.295957
 30
0.0
 11
286.509082
 21
1639.692089
 31
0.0
  0
LINE
  5
2FC
  8
DETAIL
  6
CONTINUOUS
 62
     5
 10
283.098886
 20
1640.500022
 30
0.0
 11
284.839504
 21
1640.295957
 31
0.0
  0
LINE
  5
2FF
  8
DETAIL
  6
CONTINUOUS
 62
     5
 10
285.009082
 20
1639.692089
 30
0.0
 11
286.539479
 21
1638.713064
 31
0.0
  0
LINE
  5
300
  8
DETAIL
  6
CONTINUOUS
 62
     5
 10
283.339504
 20
1640.295957
 30
0.0
 11
285.009082
 21
1639.692089
 31
0.0
  0
LINE
  5
301
  8
DETAIL
  6
CONTINUOUS
 62
     5
 10
281.598886
 20
1640.500022
 30
0.0
 11
283.339504
 21
1640.295957
 31
0.0
  0
LINE
  5
304
  8
DETAIL
  6
CONTINUOUS
 62
     5
 10
280.622057
 20
1639.692089
 30
0.0
 11
282.120686
 21
1638.713064
 31
0.0
  0
LINE
  5
305
  8
DETAIL
  6
CONTINUOUS
 62
     5
 10
278.987137
 20
1640.295957
 30
0.0
 11
280.622057
 21
1639.692089
 31
0.0
  0
LINE
  5
306
  8
DETAIL
  6
CONTINUOUS
 62
     5
 10
277.282652
 20
1640.500022
 30
0.0
 11
278.987137
 21
1640.295957
 31
0.0
  0
LINE
  5
309
  8
DETAIL
  6
CONTINUOUS
 62
     5
 10
279.032299
 20
1639.692089
 30
0.0
 11
280.530928
 21
1638.713064
 31
0.0
  0
LINE
  5
30A
  8
DETAIL
  6
CONTINUOUS
 62
     5
 10
277.397379
 20
1640.295957
 30
0.0
 11
279.032299
 21
1639.692089
 31
0.0
  0
LINE
  5
30B
  8
DETAIL
  6
CONTINUOUS
 62
     5
 10
275.692894
 20
1640.500022
 30
0.0
 11
277.397379
 21
1640.295957
 31
0.0
  0
LINE
  5
30E
  8
DETAIL
  6
CONTINUOUS
 62
     5
 10
274.393138
 20
1639.692089
 30
0.0
 11
275.858172
 21
1638.713064
 31
0.0
  0
LINE
  5
30F
  8
DETAIL
  6
CONTINUOUS
 62
     5
 10
272.794868
 20
1640.295957
 30
0.0
 11
274.393138
 21
1639.692089
 31
0.0
  0
LINE
  5
310
  8
DETAIL
  6
CONTINUOUS
 62
     5
 10
271.128591
 20
1640.500022
 30
0.0
 11
272.794868
 21
1640.295957
 31
0.0
  0
LINE
  5
313
  8
DETAIL
  6
CONTINUOUS
 62
     5
 10
272.715559
 20
1639.692089
 30
0.0
 11
274.180594
 21
1638.713064
 31
0.0
  0
LINE
  5
314
  8
DETAIL
  6
CONTINUOUS
 62
     5
 10
271.117289
 20
1640.295957
 30
0.0
 11
272.715559
 21
1639.692089
 31
0.0
  0
LINE
  5
315
  8
DETAIL
  6
CONTINUOUS
 62
     5
 10
269.451013
 20
1640.500022
 30
0.0
 11
271.117289
 21
1640.295957
 31
0.0
  0
LINE
  5
318
  8
DETAIL
  6
CONTINUOUS
 62
     5
 10
267.829913
 20
1639.692089
 30
0.0
 11
269.259568
 21
1638.713064
 31
0.0
  0
LINE
  5
319
  8
DETAIL
  6
CONTINUOUS
 62
     5
 10
266.27024
 20
1640.295957
 30
0.0
 11
267.829913
 21
1639.692089
 31
0.0
  0
LINE
  5
31A
  8
DETAIL
  6
CONTINUOUS
 62
     5
 10
264.644202
 20
1640.500022
 30
0.0
 11
266.27024
 21
1640.295957
 31
0.0
  0
LINE
  5
31B
  8
DETAIL
  6
CONTINUOUS
 62
     5
 10
262.880847
 20
1640.500022
 30
0.0
 11
264.506884
 21
1640.295957
 31
0.0
  0
LINE
  5
31E
  8
DETAIL
  6
CONTINUOUS
 62
     5
 10
260.940379
 20
1639.692089
 30
0.0
 11
262.332913
 21
1638.713064
 31
0.0
  0
LINE
  5
31F
  8
DETAIL
  6
CONTINUOUS
 62
     5
 10
259.421202
 20
1640.295957
 30
0.0
 11
260.940379
 21
1639.692089
 31
0.0
  0
LINE
  5
320
  8
DETAIL
  6
CONTINUOUS
 62
     5
 10
257.837386
 20
1640.500022
 30
0.0
 11
259.421202
 21
1640.295957
 31
0.0
  0
LINE
  5
323
  8
DETAIL
  6
CONTINUOUS
 62
     5
 10
259.093394
 20
1639.692089
 30
0.0
 11
260.485928
 21
1638.713064
 31
0.0
  0
LINE
  5
324
  8
DETAIL
  6
CONTINUOUS
 62
     5
 10
257.574218
 20
1640.295957
 30
0.0
 11
259.093394
 21
1639.692089
 31
0.0
  0
LINE
  5
325
  8
DETAIL
  6
CONTINUOUS
 62
     5
 10
255.990401
 20
1640.500022
 30
0.0
 11
257.574218
 21
1640.295957
 31
0.0
  0
LINE
  5
328
  8
DETAIL
  6
CONTINUOUS
 62
     5
 10
253.732929
 20
1639.692089
 30
0.0
 11
255.086645
 21
1638.713064
 31
0.0
  0
LINE
  5
329
  8
DETAIL
  6
CONTINUOUS
 62
     5
 10
252.2561
 20
1640.295957
 30
0.0
 11
253.732929
 21
1639.692089
 31
0.0
  0
LINE
  5
32A
  8
DETAIL
  6
CONTINUOUS
 62
     5
 10
250.716433
 20
1640.500022
 30
0.0
 11
252.2561
 21
1640.295957
 31
0.0
  0
LINE
  5
32D
  8
DETAIL
  6
CONTINUOUS
 62
     5
 10
251.804566
 20
1639.692089
 30
0.0
 11
253.158282
 21
1638.713064
 31
0.0
  0
LINE
  5
32E
  8
DETAIL
  6
CONTINUOUS
 62
     5
 10
250.327738
 20
1640.295957
 30
0.0
 11
251.804566
 21
1639.692089
 31
0.0
  0
LINE
  5
32F
  8
DETAIL
  6
CONTINUOUS
 62
     5
 10
248.788071
 20
1640.500022
 30
0.0
 11
250.327738
 21
1640.295957
 31
0.0
  0
LINE
  5
332
  8
DETAIL
  6
CONTINUOUS
 62
     5
 10
246.216344
 20
1639.692089
 30
0.0
 11
247.529593
 21
1638.713064
 31
0.0
  0
LINE
  5
333
  8
DETAIL
  6
CONTINUOUS
 62
     5
 10
244.783663
 20
1640.295957
 30
0.0
 11
246.216344
 21
1639.692089
 31
0.0
  0
LINE
  5
334
  8
DETAIL
  6
CONTINUOUS
 62
     5
 10
243.290022
 20
1640.500022
 30
0.0
 11
244.783663
 21
1640.295957
 31
0.0
  0
LINE
  5
337
  8
DETAIL
  6
CONTINUOUS
 62
     5
 10
244.208953
 20
1639.692089
 30
0.0
 11
245.522201
 21
1638.713064
 31
0.0
  0
LINE
  5
338
  8
DETAIL
  6
CONTINUOUS
 62
     5
 10
242.776271
 20
1640.295957
 30
0.0
 11
244.208953
 21
1639.692089
 31
0.0
  0
LINE
  5
339
  8
DETAIL
  6
CONTINUOUS
 62
     5
 10
241.28263
 20
1640.500022
 30
0.0
 11
242.776271
 21
1640.295957
 31
0.0
  0
LINE
  5
33C
  8
DETAIL
  6
CONTINUOUS
 62
     5
 10
238.399783
 20
1639.692089
 30
0.0
 11
239.670965
 21
1638.713064
 31
0.0
  0
LINE
  5
33D
  8
DETAIL
  6
CONTINUOUS
 62
     5
 10
237.012995
 20
1640.295957
 30
0.0
 11
238.399783
 21
1639.692089
 31
0.0
  0
LINE
  5
33E
  8
DETAIL
  6
CONTINUOUS
 62
     5
 10
235.567199
 20
1640.500022
 30
0.0
 11
237.012995
 21
1640.295957
 31
0.0
  0
LINE
  5
341
  8
DETAIL
  6
CONTINUOUS
 62
     5
 10
236.315808
 20
1639.692089
 30
0.0
 11
237.58699
 21
1638.713064
 31
0.0
  0
LINE
  5
342
  8
DETAIL
  6
CONTINUOUS
 62
     5
 10
234.92902
 20
1640.295957
 30
0.0
 11
236.315808
 21
1639.692089
 31
0.0
  0
LINE
  5
343
  8
DETAIL
  6
CONTINUOUS
 62
     5
 10
233.483224
 20
1640.500022
 30
0.0
 11
234.92902
 21
1640.295957
 31
0.0
  0
LINE
  5
346
  8
DETAIL
  6
CONTINUOUS
 62
     5
 10
230.292769
 20
1639.692089
 30
0.0
 11
231.520334
 21
1638.713064
 31
0.0
  0
LINE
  5
347
  8
DETAIL
  6
CONTINUOUS
 62
     5
 10
228.953563
 20
1640.295957
 30
0.0
 11
230.292769
 21
1639.692089
 31
0.0
  0
LINE
  5
348
  8
DETAIL
  6
CONTINUOUS
 62
     5
 10
227.557374
 20
1640.500022
 30
0.0
 11
228.953563
 21
1640.295957
 31
0.0
  0
LINE
  5
34B
  8
DETAIL
  6
CONTINUOUS
 62
     5
 10
228.134749
 20
1639.692089
 30
0.0
 11
229.362315
 21
1638.713064
 31
0.0
  0
LINE
  5
34C
  8
DETAIL
  6
CONTINUOUS
 62
     5
 10
226.795543
 20
1640.295957
 30
0.0
 11
228.134749
 21
1639.692089
 31
0.0
  0
LINE
  5
34D
  8
DETAIL
  6
CONTINUOUS
 62
     5
 10
225.399355
 20
1640.500022
 30
0.0
 11
226.795543
 21
1640.295957
 31
0.0
  0
LINE
  5
350
  8
DETAIL
  6
CONTINUOUS
 62
     5
 10
221.905178
 20
1639.692089
 30
0.0
 11
223.087632
 21
1638.713064
 31
0.0
  0
LINE
  5
351
  8
DETAIL
  6
CONTINUOUS
 62
     5
 10
220.615186
 20
1640.295957
 30
0.0
 11
221.905178
 21
1639.692089
 31
0.0
  0
LINE
  5
352
  8
DETAIL
  6
CONTINUOUS
 62
     5
 10
219.270305
 20
1640.500022
 30
0.0
 11
220.615186
 21
1640.295957
 31
0.0
  0
LINE
  5
355
  8
DETAIL
  6
CONTINUOUS
 62
     5
 10
219.675743
 20
1639.692089
 30
0.0
 11
220.858198
 21
1638.713064
 31
0.0
  0
LINE
  5
356
  8
DETAIL
  6
CONTINUOUS
 62
     5
 10
218.385751
 20
1640.295957
 30
0.0
 11
219.675743
 21
1639.692089
 31
0.0
  0
LINE
  5
357
  8
DETAIL
  6
CONTINUOUS
 62
     5
 10
217.040871
 20
1640.500022
 30
0.0
 11
218.385751
 21
1640.295957
 31
0.0
  0
LINE
  5
35A
  8
DETAIL
  6
CONTINUOUS
 62
     5
 10
213.247229
 20
1639.692089
 30
0.0
 11
214.383132
 21
1638.713064
 31
0.0
  0
LINE
  5
35B
  8
DETAIL
  6
CONTINUOUS
 62
     5
 10
212.008023
 20
1640.295957
 30
0.0
 11
213.247229
 21
1639.692089
 31
0.0
  0
LINE
  5
35C
  8
DETAIL
  6
CONTINUOUS
 62
     5
 10
210.716089
 20
1640.500022
 30
0.0
 11
212.008023
 21
1640.295957
 31
0.0
  0
LINE
  5
35F
  8
DETAIL
  6
CONTINUOUS
 62
     5
 10
210.949096
 20
1639.692089
 30
0.0
 11
212.084999
 21
1638.713064
 31
0.0
  0
LINE
  5
360
  8
DETAIL
  6
CONTINUOUS
 62
     5
 10
209.70989
 20
1640.295957
 30
0.0
 11
210.949096
 21
1639.692089
 31
0.0
  0
LINE
  5
361
  8
DETAIL
  6
CONTINUOUS
 62
     5
 10
208.417956
 20
1640.500022
 30
0.0
 11
209.70989
 21
1640.295957
 31
0.0
  0
LINE
  5
364
  8
DETAIL
  6
CONTINUOUS
 62
     5
 10
204.329472
 20
1639.692089
 30
0.0
 11
205.417439
 21
1638.713064
 31
0.0
  0
LINE
  5
365
  8
DETAIL
  6
CONTINUOUS
 62
     5
 10
203.142562
 20
1640.295957
 30
0.0
 11
204.329472
 21
1639.692089
 31
0.0
  0
LINE
  5
366
  8
DETAIL
  6
CONTINUOUS
 62
     5
 10
201.905148
 20
1640.500022
 30
0.0
 11
203.142562
 21
1640.295957
 31
0.0
  0
LINE
  5
369
  8
DETAIL
  6
CONTINUOUS
 62
     5
 10
201.96544
 20
1639.692089
 30
0.0
 11
203.053407
 21
1638.713064
 31
0.0
  0
LINE
  5
36A
  8
DETAIL
  6
CONTINUOUS
 62
     5
 10
200.778529
 20
1640.295957
 30
0.0
 11
201.96544
 21
1639.692089
 31
0.0
  0
LINE
  5
36B
  8
DETAIL
  6
CONTINUOUS
 62
     5
 10
199.541116
 20
1640.500022
 30
0.0
 11
200.778529
 21
1640.295957
 31
0.0
  0
LINE
  5
36E
  8
DETAIL
  6
CONTINUOUS
 62
     5
 10
195.162771
 20
1639.692089
 30
0.0
 11
196.201476
 21
1638.713064
 31
0.0
  0
LINE
  5
36F
  8
DETAIL
  6
CONTINUOUS
 62
     5
 10
194.029602
 20
1640.295957
 30
0.0
 11
195.162771
 21
1639.692089
 31
0.0
  0
LINE
  5
370
  8
DETAIL
  6
CONTINUOUS
 62
     5
 10
192.848217
 20
1640.500022
 30
0.0
 11
194.029602
 21
1640.295957
 31
0.0
  0
LINE
  5
373
  8
DETAIL
  6
CONTINUOUS
 62
     5
 10
192.73572
 20
1639.692089
 30
0.0
 11
193.774425
 21
1638.713064
 31
0.0
  0
LINE
  5
374
  8
DETAIL
  6
CONTINUOUS
 62
     5
 10
191.602551
 20
1640.295957
 30
0.0
 11
192.73572
 21
1639.692089
 31
0.0
  0
LINE
  5
375
  8
DETAIL
  6
CONTINUOUS
 62
     5
 10
190.421166
 20
1640.500022
 30
0.0
 11
191.602551
 21
1640.295957
 31
0.0
  0
LINE
  5
378
  8
DETAIL
  6
CONTINUOUS
 62
     5
 10
185.758294
 20
1639.692089
 30
0.0
 11
186.746473
 21
1638.713064
 31
0.0
  0
LINE
  5
379
  8
DETAIL
  6
CONTINUOUS
 62
     5
 10
184.680247
 20
1640.295957
 30
0.0
 11
185.758294
 21
1639.692089
 31
0.0
  0
LINE
  5
37A
  8
DETAIL
  6
CONTINUOUS
 62
     5
 10
183.55633
 20
1640.500022
 30
0.0
 11
184.680247
 21
1640.295957
 31
0.0
  0
LINE
  5
37D
  8
DETAIL
  6
CONTINUOUS
 62
     5
 10
183.271182
 20
1639.692089
 30
0.0
 11
184.25936
 21
1638.713064
 31
0.0
  0
LINE
  5
37E
  8
DETAIL
  6
CONTINUOUS
 62
     5
 10
182.193135
 20
1640.295957
 30
0.0
 11
183.271182
 21
1639.692089
 31
0.0
  0
LINE
  5
37F
  8
DETAIL
  6
CONTINUOUS
 62
     5
 10
181.069217
 20
1640.500022
 30
0.0
 11
182.193135
 21
1640.295957
 31
0.0
  0
LINE
  5
382
  8
DETAIL
  6
CONTINUOUS
 62
     5
 10
176.1275
 20
1639.692089
 30
0.0
 11
177.063947
 21
1638.713064
 31
0.0
  0
LINE
  5
383
  8
DETAIL
  6
CONTINUOUS
 62
     5
 10
175.105888
 20
1640.295957
 30
0.0
 11
176.1275
 21
1639.692089
 31
0.0
  0
LINE
  5
384
  8
DETAIL
  6
CONTINUOUS
 62
     5
 10
174.040807
 20
1640.500022
 30
0.0
 11
175.105888
 21
1640.295957
 31
0.0
  0
LINE
  5
387
  8
DETAIL
  6
CONTINUOUS
 62
     5
 10
173.583355
 20
1639.692089
 30
0.0
 11
174.519803
 21
1638.713064
 31
0.0
  0
LINE
  5
388
  8
DETAIL
  6
CONTINUOUS
 62
     5
 10
172.561744
 20
1640.295957
 30
0.0
 11
173.583355
 21
1639.692089
 31
0.0
  0
LINE
  5
389
  8
DETAIL
  6
CONTINUOUS
 62
     5
 10
171.496663
 20
1640.500022
 30
0.0
 11
172.561744
 21
1640.295957
 31
0.0
  0
LINE
  5
38C
  8
DETAIL
  6
CONTINUOUS
 62
     5
 10
166.282121
 20
1639.692089
 30
0.0
 11
167.165696
 21
1638.713064
 31
0.0
  0
LINE
  5
38D
  8
DETAIL
  6
CONTINUOUS
 62
     5
 10
165.31819
 20
1640.295957
 30
0.0
 11
166.282121
 21
1639.692089
 31
0.0
  0
LINE
  5
38E
  8
DETAIL
  6
CONTINUOUS
 62
     5
 10
164.313243
 20
1640.500022
 30
0.0
 11
165.31819
 21
1640.295957
 31
0.0
  0
LINE
  5
391
  8
DETAIL
  6
CONTINUOUS
 62
     5
 10
163.684045
 20
1639.692089
 30
0.0
 11
164.56762
 21
1638.713064
 31
0.0
  0
LINE
  5
392
  8
DETAIL
  6
CONTINUOUS
 62
     5
 10
162.720113
 20
1640.295957
 30
0.0
 11
163.684045
 21
1639.692089
 31
0.0
  0
LINE
  5
393
  8
DETAIL
  6
CONTINUOUS
 62
     5
 10
161.715167
 20
1640.500022
 30
0.0
 11
162.720113
 21
1640.295957
 31
0.0
  0
LINE
  5
396
  8
DETAIL
  6
CONTINUOUS
 62
     5
 10
156.234153
 20
1639.692089
 30
0.0
 11
157.06378
 21
1638.713064
 31
0.0
  0
LINE
  5
397
  8
DETAIL
  6
CONTINUOUS
 62
     5
 10
155.329076
 20
1640.295957
 30
0.0
 11
156.234153
 21
1639.692089
 31
0.0
  0
LINE
  5
398
  8
DETAIL
  6
CONTINUOUS
 62
     5
 10
154.385489
 20
1640.500022
 30
0.0
 11
155.329076
 21
1640.295957
 31
0.0
  0
LINE
  5
39B
  8
DETAIL
  6
CONTINUOUS
 62
     5
 10
153.58531
 20
1639.692089
 30
0.0
 11
154.414937
 21
1638.713064
 31
0.0
  0
LINE
  5
39C
  8
DETAIL
  6
CONTINUOUS
 62
     5
 10
152.680233
 20
1640.295957
 30
0.0
 11
153.58531
 21
1639.692089
 31
0.0
  0
LINE
  5
39D
  8
DETAIL
  6
CONTINUOUS
 62
     5
 10
151.736646
 20
1640.500022
 30
0.0
 11
152.680233
 21
1640.295957
 31
0.0
  0
LINE
  5
3A0
  8
DETAIL
  6
CONTINUOUS
 62
     5
 10
145.995837
 20
1639.692089
 30
0.0
 11
146.770505
 21
1638.713064
 31
0.0
  0
LINE
  5
3A1
  8
DETAIL
  6
CONTINUOUS
 62
     5
 10
145.150718
 20
1640.295957
 30
0.0
 11
145.995837
 21
1639.692089
 31
0.0
  0
LINE
  5
3A2
  8
DETAIL
  6
CONTINUOUS
 62
     5
 10
144.269639
 20
1640.500022
 30
0.0
 11
145.150718
 21
1640.295957
 31
0.0
  0
LINE
  5
3A5
  8
DETAIL
  6
CONTINUOUS
 62
     5
 10
143.299455
 20
1639.692089
 30
0.0
 11
144.074123
 21
1638.713064
 31
0.0
  0
LINE
  5
3A6
  8
DETAIL
  6
CONTINUOUS
 62
     5
 10
142.454336
 20
1640.295957
 30
0.0
 11
143.299455
 21
1639.692089
 31
0.0
  0
LINE
  5
3A7
  8
DETAIL
  6
CONTINUOUS
 62
     5
 10
141.573257
 20
1640.500022
 30
0.0
 11
142.454336
 21
1640.295957
 31
0.0
  0
LINE
  5
3AA
  8
DETAIL
  6
CONTINUOUS
 62
     5
 10
135.579649
 20
1639.692089
 30
0.0
 11
136.298414
 21
1638.713064
 31
0.0
  0
LINE
  5
3AB
  8
DETAIL
  6
CONTINUOUS
 62
     5
 10
134.795516
 20
1640.295957
 30
0.0
 11
135.579649
 21
1639.692089
 31
0.0
  0
LINE
  5
3AC
  8
DETAIL
  6
CONTINUOUS
 62
     5
 10
133.978019
 20
1640.500022
 30
0.0
 11
134.795516
 21
1640.295957
 31
0.0
  0
LINE
  5
3AF
  8
DETAIL
  6
CONTINUOUS
 62
     5
 10
132.839012
 20
1639.692089
 30
0.0
 11
133.557777
 21
1638.713064
 31
0.0
  0
LINE
  5
3B0
  8
DETAIL
  6
CONTINUOUS
 62
     5
 10
132.05488
 20
1640.295957
 30
0.0
 11
132.839012
 21
1639.692089
 31
0.0
  0
LINE
  5
3B1
  8
DETAIL
  6
CONTINUOUS
 62
     5
 10
131.237383
 20
1640.500022
 30
0.0
 11
132.05488
 21
1640.295957
 31
0.0
  0
LINE
  5
3B4
  8
DETAIL
  6
CONTINUOUS
 62
     5
 10
124.998277
 20
1639.692089
 30
0.0
 11
125.660263
 21
1638.713064
 31
0.0
  0
LINE
  5
3B5
  8
DETAIL
  6
CONTINUOUS
 62
     5
 10
124.276087
 20
1640.295957
 30
0.0
 11
124.998277
 21
1639.692089
 31
0.0
  0
LINE
  5
3B6
  8
DETAIL
  6
CONTINUOUS
 62
     5
 10
123.523168
 20
1640.500022
 30
0.0
 11
124.276087
 21
1640.295957
 31
0.0
  0
LINE
  5
3B9
  8
DETAIL
  6
CONTINUOUS
 62
     5
 10
122.216725
 20
1639.692089
 30
0.0
 11
122.878712
 21
1638.713064
 31
0.0
  0
LINE
  5
3BA
  8
DETAIL
  6
CONTINUOUS
 62
     5
 10
121.494535
 20
1640.295957
 30
0.0
 11
122.216725
 21
1639.692089
 31
0.0
  0
LINE
  5
3BB
  8
DETAIL
  6
CONTINUOUS
 62
     5
 10
120.741616
 20
1640.500022
 30
0.0
 11
121.494535
 21
1640.295957
 31
0.0
  0
LINE
  5
3BC
  8
DETAIL
  6
CONTINUOUS
 62
     5
 10
-238.399783
 20
1639.692089
 30
0.0
 11
-239.670965
 21
1638.713064
 31
0.0
  0
LINE
  5
3BD
  8
DETAIL
  6
CONTINUOUS
 62
     5
 10
-155.329076
 20
1640.295957
 30
0.0
 11
-156.234153
 21
1639.692089
 31
0.0
  0
LINE
  5
3BE
  8
DETAIL
  6
CONTINUOUS
 62
     5
 10
-175.105888
 20
1640.295957
 30
0.0
 11
-176.1275
 21
1639.692089
 31
0.0
  0
LINE
  5
3C1
  8
DETAIL
  6
CONTINUOUS
 62
     5
 10
-70.071045
 20
1639.692089
 30
0.0
 11
-70.438456
 21
1638.713064
 31
0.0
  0
LINE
  5
3C2
  8
DETAIL
  6
CONTINUOUS
 62
     5
 10
-69.67022
 20
1640.295957
 30
0.0
 11
-70.071045
 21
1639.692089
 31
0.0
  0
LINE
  5
3C3
  8
DETAIL
  6
CONTINUOUS
 62
     5
 10
-69.252339
 20
1640.500022
 30
0.0
 11
-69.67022
 21
1640.295957
 31
0.0
  0
LINE
  5
3C6
  8
DETAIL
  6
CONTINUOUS
 62
     5
 10
-67.136602
 20
1639.692089
 30
0.0
 11
-67.504013
 21
1638.713064
 31
0.0
  0
LINE
  5
3C7
  8
DETAIL
  6
CONTINUOUS
 62
     5
 10
-66.735777
 20
1640.295957
 30
0.0
 11
-67.136602
 21
1639.692089
 31
0.0
  0
LINE
  5
3C8
  8
DETAIL
  6
CONTINUOUS
 62
     5
 10
-66.317897
 20
1640.500022
 30
0.0
 11
-66.735777
 21
1640.295957
 31
0.0
  0
LINE
  5
3C9
  8
DETAIL
  6
CONTINUOUS
 62
     5
 10
-80.328855
 20
1640.500022
 30
0.0
 11
-80.815092
 21
1640.295957
 31
0.0
  0
LINE
  5
3CC
  8
DETAIL
  6
CONTINUOUS
 62
     5
 10
-78.370597
 20
1639.692089
 30
0.0
 11
-78.798109
 21
1638.713064
 31
0.0
  0
LINE
  5
3CD
  8
DETAIL
  6
CONTINUOUS
 62
     5
 10
-77.904204
 20
1640.295957
 30
0.0
 11
-78.370597
 21
1639.692089
 31
0.0
  0
LINE
  5
3CE
  8
DETAIL
  6
CONTINUOUS
 62
     5
 10
-77.417967
 20
1640.500022
 30
0.0
 11
-77.904204
 21
1640.295957
 31
0.0
  0
LINE
  5
42F
  8
DETAIL
  6
CONTINUOUS
 62
     5
 10
-346.63923
 20
1561.320232
 30
0.0
 11
-347.428935
 21
1550.000021
 31
0.0
  0
LINE
  5
430
  8
DETAIL
  6
CONTINUOUS
 62
     5
 10
-345.145804
 20
1572.56338
 30
0.0
 11
-346.63923
 21
1561.320232
 31
0.0
  0
LINE
  5
437
  8
DETAIL
  6
CONTINUOUS
 62
     5
 10
-345.812318
 20
1561.320232
 30
0.0
 11
-346.602023
 21
1550.000021
 31
0.0
  0
LINE
  5
43F
  8
DETAIL
  6
CONTINUOUS
 62
     5
 10
-343.217455
 20
1594.629836
 30
0.0
 11
-346.123603
 21
1583.682172
 31
0.0
  0
LINE
  5
444
  8
DETAIL
  6
CONTINUOUS
 62
     5
 10
-349.116755
 20
1561.320232
 30
0.0
 11
-349.913881
 21
1550.000021
 31
0.0
  0
LINE
  5
445
  8
DETAIL
  6
CONTINUOUS
 62
     5
 10
-347.609293
 20
1572.56338
 30
0.0
 11
-349.116755
 21
1561.320232
 31
0.0
  0
LINE
  5
446
  8
DETAIL
  6
CONTINUOUS
 62
     5
 10
-345.397837
 20
1583.682172
 30
0.0
 11
-347.609293
 21
1572.56338
 31
0.0
  0
LINE
  5
44C
  8
DETAIL
  6
CONTINUOUS
 62
     5
 10
-352.619581
 20
1561.320232
 30
0.0
 11
-353.423158
 21
1550.000021
 31
0.0
  0
LINE
  5
44D
  8
DETAIL
  6
CONTINUOUS
 62
     5
 10
-351.099921
 20
1572.56338
 30
0.0
 11
-352.619581
 21
1561.320232
 31
0.0
  0
LINE
  5
44E
  8
DETAIL
  6
CONTINUOUS
 62
     5
 10
-348.87057
 20
1583.682172
 30
0.0
 11
-351.099921
 21
1572.56338
 31
0.0
  0
LINE
  5
44F
  8
DETAIL
  6
CONTINUOUS
 62
     5
 10
-345.940904
 20
1594.629836
 30
0.0
 11
-348.87057
 21
1583.682172
 31
0.0
  0
LINE
  5
450
  8
DETAIL
  6
CONTINUOUS
 62
     5
 10
-342.323249
 20
1605.360324
 30
0.0
 11
-345.940904
 21
1594.629836
 31
0.0
  0
LINE
  5
451
  8
DETAIL
  6
CONTINUOUS
 62
     5
 10
-338.032821
 20
1615.828497
 30
0.0
 11
-342.323249
 21
1605.360324
 31
0.0
  0
LINE
  5
454
  8
DETAIL
  6
CONTINUOUS
 62
     5
 10
-351.995846
 20
1561.320232
 30
0.0
 11
-352.799423
 21
1550.000021
 31
0.0
  0
LINE
  5
455
  8
DETAIL
  6
CONTINUOUS
 62
     5
 10
-350.476186
 20
1572.56338
 30
0.0
 11
-351.995846
 21
1561.320232
 31
0.0
  0
LINE
  5
456
  8
DETAIL
  6
CONTINUOUS
 62
     5
 10
-348.246834
 20
1583.682172
 30
0.0
 11
-350.476186
 21
1572.56338
 31
0.0
  0
LINE
  5
457
  8
DETAIL
  6
CONTINUOUS
 62
     5
 10
-345.317169
 20
1594.629836
 30
0.0
 11
-348.246834
 21
1583.682172
 31
0.0
  0
LINE
  5
458
  8
DETAIL
  6
CONTINUOUS
 62
     5
 10
-341.699514
 20
1605.360324
 30
0.0
 11
-345.317169
 21
1594.629836
 31
0.0
  0
LINE
  5
45C
  8
DETAIL
  6
CONTINUOUS
 62
     5
 10
-354.96703
 20
1561.320232
 30
0.0
 11
-355.776078
 21
1550.000021
 31
0.0
  0
LINE
  5
45D
  8
DETAIL
  6
CONTINUOUS
 62
     5
 10
-353.437022
 20
1572.56338
 30
0.0
 11
-354.96703
 21
1561.320232
 31
0.0
  0
LINE
  5
45E
  8
DETAIL
  6
CONTINUOUS
 62
     5
 10
-351.192491
 20
1583.682172
 30
0.0
 11
-353.437022
 21
1572.56338
 31
0.0
  0
LINE
  5
45F
  8
DETAIL
  6
CONTINUOUS
 62
     5
 10
-348.242878
 20
1594.629836
 30
0.0
 11
-351.192491
 21
1583.682172
 31
0.0
  0
LINE
  5
460
  8
DETAIL
  6
CONTINUOUS
 62
     5
 10
-344.60059
 20
1605.360324
 30
0.0
 11
-348.242878
 21
1594.629836
 31
0.0
  0
LINE
  5
461
  8
DETAIL
  6
CONTINUOUS
 62
     5
 10
-340.280949
 20
1615.828497
 30
0.0
 11
-344.60059
 21
1605.360324
 31
0.0
  0
LINE
  5
462
  8
DETAIL
  6
CONTINUOUS
 62
     5
 10
-335.302124
 20
1625.990321
 30
0.0
 11
-340.280949
 21
1615.828497
 31
0.0
  0
LINE
  5
463
  8
DETAIL
  6
CONTINUOUS
 62
     5
 10
-329.685059
 20
1635.803053
 30
0.0
 11
-335.302124
 21
1625.990321
 31
0.0
  0
LINE
  5
464
  8
DETAIL
  6
CONTINUOUS
 62
     5
 10
-354.446085
 20
1561.320232
 30
0.0
 11
-355.255133
 21
1550.000021
 31
0.0
  0
LINE
  5
465
  8
DETAIL
  6
CONTINUOUS
 62
     5
 10
-352.916077
 20
1572.56338
 30
0.0
 11
-354.446085
 21
1561.320232
 31
0.0
  0
LINE
  5
466
  8
DETAIL
  6
CONTINUOUS
 62
     5
 10
-350.671546
 20
1583.682172
 30
0.0
 11
-352.916077
 21
1572.56338
 31
0.0
  0
LINE
  5
467
  8
DETAIL
  6
CONTINUOUS
 62
     5
 10
-347.721933
 20
1594.629836
 30
0.0
 11
-350.671546
 21
1583.682172
 31
0.0
  0
LINE
  5
468
  8
DETAIL
  6
CONTINUOUS
 62
     5
 10
-344.079646
 20
1605.360324
 30
0.0
 11
-347.721933
 21
1594.629836
 31
0.0
  0
LINE
  5
469
  8
DETAIL
  6
CONTINUOUS
 62
     5
 10
-339.760004
 20
1615.828497
 30
0.0
 11
-344.079646
 21
1605.360324
 31
0.0
  0
LINE
  5
46A
  8
DETAIL
  6
CONTINUOUS
 62
     5
 10
-334.78118
 20
1625.990321
 30
0.0
 11
-339.760004
 21
1615.828497
 31
0.0
  0
LINE
  5
46C
  8
DETAIL
  6
CONTINUOUS
 62
     5
 10
-356.882005
 20
1561.320232
 30
0.0
 11
-357.695539
 21
1550.000021
 31
0.0
  0
LINE
  5
46D
  8
DETAIL
  6
CONTINUOUS
 62
     5
 10
-355.343514
 20
1572.56338
 30
0.0
 11
-356.882005
 21
1561.320232
 31
0.0
  0
LINE
  5
46E
  8
DETAIL
  6
CONTINUOUS
 62
     5
 10
-353.086538
 20
1583.682172
 30
0.0
 11
-355.343514
 21
1572.56338
 31
0.0
  0
LINE
  5
46F
  8
DETAIL
  6
CONTINUOUS
 62
     5
 10
-350.120571
 20
1594.629836
 30
0.0
 11
-353.086538
 21
1583.682172
 31
0.0
  0
LINE
  5
470
  8
DETAIL
  6
CONTINUOUS
 62
     5
 10
-346.458089
 20
1605.360324
 30
0.0
 11
-350.120571
 21
1594.629836
 31
0.0
  0
LINE
  5
471
  8
DETAIL
  6
CONTINUOUS
 62
     5
 10
-342.114497
 20
1615.828497
 30
0.0
 11
-346.458089
 21
1605.360324
 31
0.0
  0
LINE
  5
472
  8
DETAIL
  6
CONTINUOUS
 62
     5
 10
-337.108067
 20
1625.990321
 30
0.0
 11
-342.114497
 21
1615.828497
 31
0.0
  0
LINE
  5
473
  8
DETAIL
  6
CONTINUOUS
 62
     5
 10
-331.459858
 20
1635.803053
 30
0.0
 11
-337.108067
 21
1625.990321
 31
0.0
  0
LINE
  5
474
  8
DETAIL
  6
CONTINUOUS
 62
     5
 10
-356.464486
 20
1561.320232
 30
0.0
 11
-357.27802
 21
1550.000021
 31
0.0
  0
LINE
  5
475
  8
DETAIL
  6
CONTINUOUS
 62
     5
 10
-354.925995
 20
1572.56338
 30
0.0
 11
-356.464486
 21
1561.320232
 31
0.0
  0
LINE
  5
476
  8
DETAIL
  6
CONTINUOUS
 62
     5
 10
-352.669019
 20
1583.682172
 30
0.0
 11
-354.925995
 21
1572.56338
 31
0.0
  0
LINE
  5
477
  8
DETAIL
  6
CONTINUOUS
 62
     5
 10
-349.703052
 20
1594.629836
 30
0.0
 11
-352.669019
 21
1583.682172
 31
0.0
  0
LINE
  5
478
  8
DETAIL
  6
CONTINUOUS
 62
     5
 10
-346.040569
 20
1605.360324
 30
0.0
 11
-349.703052
 21
1594.629836
 31
0.0
  0
LINE
  5
479
  8
DETAIL
  6
CONTINUOUS
 62
     5
 10
-341.696977
 20
1615.828497
 30
0.0
 11
-346.040569
 21
1605.360324
 31
0.0
  0
LINE
  5
47A
  8
DETAIL
  6
CONTINUOUS
 62
     5
 10
-336.690547
 20
1625.990321
 30
0.0
 11
-341.696977
 21
1615.828497
 31
0.0
  0
LINE
  5
47B
  8
DETAIL
  6
CONTINUOUS
 62
     5
 10
-331.042338
 20
1635.803053
 30
0.0
 11
-336.690547
 21
1625.990321
 31
0.0
  0
LINE
  5
47C
  8
DETAIL
  6
CONTINUOUS
 62
     5
 10
-358.362175
 20
1561.320232
 30
0.0
 11
-359.179204
 21
1550.000021
 31
0.0
  0
LINE
  5
47D
  8
DETAIL
  6
CONTINUOUS
 62
     5
 10
-356.817075
 20
1572.56338
 30
0.0
 11
-358.362175
 21
1561.320232
 31
0.0
  0
LINE
  5
47E
  8
DETAIL
  6
CONTINUOUS
 62
     5
 10
-354.550404
 20
1583.682172
 30
0.0
 11
-356.817075
 21
1572.56338
 31
0.0
  0
LINE
  5
47F
  8
DETAIL
  6
CONTINUOUS
 62
     5
 10
-351.571696
 20
1594.629836
 30
0.0
 11
-354.550404
 21
1583.682172
 31
0.0
  0
LINE
  5
480
  8
DETAIL
  6
CONTINUOUS
 62
     5
 10
-347.893481
 20
1605.360324
 30
0.0
 11
-351.571696
 21
1594.629836
 31
0.0
  0
LINE
  5
481
  8
DETAIL
  6
CONTINUOUS
 62
     5
 10
-343.531231
 20
1615.828497
 30
0.0
 11
-347.893481
 21
1605.360324
 31
0.0
  0
LINE
  5
482
  8
DETAIL
  6
CONTINUOUS
 62
     5
 10
-338.503295
 20
1625.990321
 30
0.0
 11
-343.531231
 21
1615.828497
 31
0.0
  0
LINE
  5
483
  8
DETAIL
  6
CONTINUOUS
 62
     5
 10
-332.830823
 20
1635.803053
 30
0.0
 11
-338.503295
 21
1625.990321
 31
0.0
  0
LINE
  5
484
  8
DETAIL
  6
CONTINUOUS
 62
     5
 10
-358.04859
 20
1561.320232
 30
0.0
 11
-358.865618
 21
1550.000021
 31
0.0
  0
LINE
  5
485
  8
DETAIL
  6
CONTINUOUS
 62
     5
 10
-356.50349
 20
1572.56338
 30
0.0
 11
-358.04859
 21
1561.320232
 31
0.0
  0
LINE
  5
486
  8
DETAIL
  6
CONTINUOUS
 62
     5
 10
-354.236819
 20
1583.682172
 30
0.0
 11
-356.50349
 21
1572.56338
 31
0.0
  0
LINE
  5
487
  8
DETAIL
  6
CONTINUOUS
 62
     5
 10
-351.258111
 20
1594.629836
 30
0.0
 11
-354.236819
 21
1583.682172
 31
0.0
  0
LINE
  5
488
  8
DETAIL
  6
CONTINUOUS
 62
     5
 10
-347.579896
 20
1605.360324
 30
0.0
 11
-351.258111
 21
1594.629836
 31
0.0
  0
LINE
  5
489
  8
DETAIL
  6
CONTINUOUS
 62
     5
 10
-343.217645
 20
1615.828497
 30
0.0
 11
-347.579896
 21
1605.360324
 31
0.0
  0
LINE
  5
48A
  8
DETAIL
  6
CONTINUOUS
 62
     5
 10
-338.18971
 20
1625.990321
 30
0.0
 11
-343.217645
 21
1615.828497
 31
0.0
  0
LINE
  5
48B
  8
DETAIL
  6
CONTINUOUS
 62
     5
 10
-332.517238
 20
1635.803053
 30
0.0
 11
-338.18971
 21
1625.990321
 31
0.0
  0
LINE
  5
48C
  8
DETAIL
  6
CONTINUOUS
 62
     5
 10
-359.405736
 20
1561.320232
 30
0.0
 11
-360.225264
 21
1550.000021
 31
0.0
  0
LINE
  5
48D
  8
DETAIL
  6
CONTINUOUS
 62
     5
 10
-357.85591
 20
1572.56338
 30
0.0
 11
-359.405736
 21
1561.320232
 31
0.0
  0
LINE
  5
48E
  8
DETAIL
  6
CONTINUOUS
 62
     5
 10
-355.582305
 20
1583.682172
 30
0.0
 11
-357.85591
 21
1572.56338
 31
0.0
  0
LINE
  5
48F
  8
DETAIL
  6
CONTINUOUS
 62
     5
 10
-352.594486
 20
1594.629836
 30
0.0
 11
-355.582305
 21
1583.682172
 31
0.0
  0
LINE
  5
490
  8
DETAIL
  6
CONTINUOUS
 62
     5
 10
-348.905019
 20
1605.360324
 30
0.0
 11
-352.594486
 21
1594.629836
 31
0.0
  0
LINE
  5
491
  8
DETAIL
  6
CONTINUOUS
 62
     5
 10
-344.529425
 20
1615.828497
 30
0.0
 11
-348.905019
 21
1605.360324
 31
0.0
  0
LINE
  5
492
  8
DETAIL
  6
CONTINUOUS
 62
     5
 10
-339.486109
 20
1625.990321
 30
0.0
 11
-344.529425
 21
1615.828497
 31
0.0
  0
LINE
  5
493
  8
DETAIL
  6
CONTINUOUS
 62
     5
 10
-333.796286
 20
1635.803053
 30
0.0
 11
-339.486109
 21
1625.990321
 31
0.0
  0
LINE
  5
494
  8
DETAIL
  6
CONTINUOUS
 62
     5
 10
-359.196466
 20
1561.320232
 30
0.0
 11
-360.015994
 21
1550.000021
 31
0.0
  0
LINE
  5
495
  8
DETAIL
  6
CONTINUOUS
 62
     5
 10
-357.64664
 20
1572.56338
 30
0.0
 11
-359.196466
 21
1561.320232
 31
0.0
  0
LINE
  5
496
  8
DETAIL
  6
CONTINUOUS
 62
     5
 10
-355.373036
 20
1583.682172
 30
0.0
 11
-357.64664
 21
1572.56338
 31
0.0
  0
LINE
  5
497
  8
DETAIL
  6
CONTINUOUS
 62
     5
 10
-352.385216
 20
1594.629836
 30
0.0
 11
-355.373036
 21
1583.682172
 31
0.0
  0
LINE
  5
498
  8
DETAIL
  6
CONTINUOUS
 62
     5
 10
-348.69575
 20
1605.360324
 30
0.0
 11
-352.385216
 21
1594.629836
 31
0.0
  0
LINE
  5
499
  8
DETAIL
  6
CONTINUOUS
 62
     5
 10
-344.320156
 20
1615.828497
 30
0.0
 11
-348.69575
 21
1605.360324
 31
0.0
  0
LINE
  5
49A
  8
DETAIL
  6
CONTINUOUS
 62
     5
 10
-339.27684
 20
1625.990321
 30
0.0
 11
-344.320156
 21
1615.828497
 31
0.0
  0
LINE
  5
49B
  8
DETAIL
  6
CONTINUOUS
 62
     5
 10
-333.587016
 20
1635.803053
 30
0.0
 11
-339.27684
 21
1625.990321
 31
0.0
  0
LINE
  5
49C
  8
DETAIL
  6
CONTINUOUS
 62
     5
 10
-360.011416
 20
1561.320232
 30
0.0
 11
-360.832444
 21
1550.000021
 31
0.0
  0
LINE
  5
49D
  8
DETAIL
  6
CONTINUOUS
 62
     5
 10
-358.458752
 20
1572.56338
 30
0.0
 11
-360.011416
 21
1561.320232
 31
0.0
  0
LINE
  5
49E
  8
DETAIL
  6
CONTINUOUS
 62
     5
 10
-356.180984
 20
1583.682172
 30
0.0
 11
-358.458752
 21
1572.56338
 31
0.0
  0
LINE
  5
49F
  8
DETAIL
  6
CONTINUOUS
 62
     5
 10
-353.187693
 20
1594.629836
 30
0.0
 11
-356.180984
 21
1583.682172
 31
0.0
  0
LINE
  5
4A0
  8
DETAIL
  6
CONTINUOUS
 62
     5
 10
-349.49147
 20
1605.360324
 30
0.0
 11
-353.187693
 21
1594.629836
 31
0.0
  0
LINE
  5
4A1
  8
DETAIL
  6
CONTINUOUS
 62
     5
 10
-345.107863
 20
1615.828497
 30
0.0
 11
-349.49147
 21
1605.360324
 31
0.0
  0
LINE
  5
4A2
  8
DETAIL
  6
CONTINUOUS
 62
     5
 10
-340.055312
 20
1625.990321
 30
0.0
 11
-345.107863
 21
1615.828497
 31
0.0
  0
LINE
  5
4A3
  8
DETAIL
  6
CONTINUOUS
 62
     5
 10
-334.355069
 20
1635.803053
 30
0.0
 11
-340.055312
 21
1625.990321
 31
0.0
  0
LINE
  5
4A4
  8
DETAIL
  6
CONTINUOUS
 62
     5
 10
-359.906717
 20
1561.320232
 30
0.0
 11
-360.727746
 21
1550.000021
 31
0.0
  0
LINE
  5
4A5
  8
DETAIL
  6
CONTINUOUS
 62
     5
 10
-358.354053
 20
1572.56338
 30
0.0
 11
-359.906717
 21
1561.320232
 31
0.0
  0
LINE
  5
4A6
  8
DETAIL
  6
CONTINUOUS
 62
     5
 10
-356.076285
 20
1583.682172
 30
0.0
 11
-358.354053
 21
1572.56338
 31
0.0
  0
LINE
  5
4A7
  8
DETAIL
  6
CONTINUOUS
 62
     5
 10
-353.082994
 20
1594.629836
 30
0.0
 11
-356.076285
 21
1583.682172
 31
0.0
  0
LINE
  5
4A8
  8
DETAIL
  6
CONTINUOUS
 62
     5
 10
-349.386771
 20
1605.360324
 30
0.0
 11
-353.082994
 21
1594.629836
 31
0.0
  0
LINE
  5
4A9
  8
DETAIL
  6
CONTINUOUS
 62
     5
 10
-345.003165
 20
1615.828497
 30
0.0
 11
-349.386771
 21
1605.360324
 31
0.0
  0
LINE
  5
4AA
  8
DETAIL
  6
CONTINUOUS
 62
     5
 10
-339.950613
 20
1625.990321
 30
0.0
 11
-345.003165
 21
1615.828497
 31
0.0
  0
LINE
  5
4AB
  8
DETAIL
  6
CONTINUOUS
 62
     5
 10
-334.250371
 20
1635.803053
 30
0.0
 11
-339.950613
 21
1625.990321
 31
0.0
  0
LINE
  5
4AD
  8
DETAIL
  6
CONTINUOUS
 62
     5
 10
-176.1275
 20
1639.692089
 30
0.0
 11
-177.063947
 21
1638.713064
 31
0.0
  0
LINE
  5
4AE
  8
DETAIL
  6
CONTINUOUS
 62
     5
 10
-195.162771
 20
1639.692089
 30
0.0
 11
-196.201476
 21
1638.713064
 31
0.0
  0
LINE
  5
4AF
  8
DETAIL
  6
CONTINUOUS
 62
     5
 10
-134.795516
 20
1640.295957
 30
0.0
 11
-135.579649
 21
1639.692089
 31
0.0
  0
LINE
  5
4B2
  8
DETAIL
  6
CONTINUOUS
 62
     5
 10
-47.407817
 20
1639.692089
 30
0.0
 11
-47.653756
 21
1638.713064
 31
0.0
  0
LINE
  5
4B3
  8
DETAIL
  6
CONTINUOUS
 62
     5
 10
-47.13951
 20
1640.295957
 30
0.0
 11
-47.407817
 21
1639.692089
 31
0.0
  0
LINE
  5
4B4
  8
DETAIL
  6
CONTINUOUS
 62
     5
 10
-46.859787
 20
1640.500022
 30
0.0
 11
-47.13951
 21
1640.295957
 31
0.0
  0
LINE
  5
4B7
  8
DETAIL
  6
CONTINUOUS
 62
     5
 10
-44.437012
 20
1639.692089
 30
0.0
 11
-44.682952
 21
1638.713064
 31
0.0
  0
LINE
  5
4B8
  8
DETAIL
  6
CONTINUOUS
 62
     5
 10
-44.168706
 20
1640.295957
 30
0.0
 11
-44.437012
 21
1639.692089
 31
0.0
  0
LINE
  5
4B9
  8
DETAIL
  6
CONTINUOUS
 62
     5
 10
-43.888983
 20
1640.500022
 30
0.0
 11
-44.168706
 21
1640.295957
 31
0.0
  0
LINE
  5
4BA
  8
DETAIL
  6
CONTINUOUS
 62
     5
 10
-58.091451
 20
1640.500022
 30
0.0
 11
-58.440465
 21
1640.295957
 31
0.0
  0
LINE
  5
4BD
  8
DETAIL
  6
CONTINUOUS
 62
     5
 10
-55.820812
 20
1639.692089
 30
0.0
 11
-56.127674
 21
1638.713064
 31
0.0
  0
LINE
  5
4BE
  8
DETAIL
  6
CONTINUOUS
 62
     5
 10
-55.486042
 20
1640.295957
 30
0.0
 11
-55.820812
 21
1639.692089
 31
0.0
  0
LINE
  5
4BF
  8
DETAIL
  6
CONTINUOUS
 62
     5
 10
-55.137028
 20
1640.500022
 30
0.0
 11
-55.486042
 21
1640.295957
 31
0.0
  0
LINE
  5
4C0
  8
DETAIL
  6
CONTINUOUS
 62
     5
 10
-338.694358
 20
1550.000021
 30
0.0
 11
338.694358
 21
1550.000021
 31
0.0
  0
LINE
  5
4C1
  8
DETAIL
  6
CONTINUOUS
 62
     5
 10
-342.838001
 20
1550.000021
 30
0.0
 11
-338.716012
 21
1550.000021
 31
0.0
  0
LINE
  5
4C2
  8
DETAIL
  6
CONTINUOUS
 62
     5
 10
-357.255201
 20
1550.000021
 30
0.0
 11
-342.867883
 21
1550.000021
 31
0.0
  0
LINE
  5
4C3
  8
DETAIL
  6
CONTINUOUS
 62
     5
 10
-358.83437
 20
1550.000021
 30
0.0
 11
-357.27802
 21
1550.000021
 31
0.0
  0
LINE
  5
4C4
  8
DETAIL
  6
CONTINUOUS
 62
     5
 10
-359.951218
 20
1550.000021
 30
0.0
 11
-358.865618
 21
1550.000021
 31
0.0
  0
LINE
  5
4C5
  8
DETAIL
  6
CONTINUOUS
 62
     5
 10
-360.984277
 20
1550.000021
 30
0.0
 11
-360.015994
 21
1550.000021
 31
0.0
  0
LINE
  5
4C6
  8
DETAIL
  6
CONTINUOUS
 62
     5
 10
342.838001
 20
1550.000021
 30
0.0
 11
338.716012
 21
1550.000021
 31
0.0
  0
LINE
  5
4C7
  8
DETAIL
  6
CONTINUOUS
 62
     5
 10
357.255201
 20
1550.000021
 30
0.0
 11
342.867883
 21
1550.000021
 31
0.0
  0
LINE
  5
4C8
  8
DETAIL
  6
CONTINUOUS
 62
     5
 10
358.83437
 20
1550.000021
 30
0.0
 11
357.27802
 21
1550.000021
 31
0.0
  0
LINE
  5
4C9
  8
DETAIL
  6
CONTINUOUS
 62
     5
 10
359.951218
 20
1550.000021
 30
0.0
 11
358.865618
 21
1550.000021
 31
0.0
  0
LINE
  5
4CA
  8
DETAIL
  6
CONTINUOUS
 62
     5
 10
360.984277
 20
1550.000021
 30
0.0
 11
360.015994
 21
1550.000021
 31
0.0
  0
LINE
  5
546
  8
DETAIL
  6
CONTINUOUS
 62
     5
 10
-156.234153
 20
1639.692089
 30
0.0
 11
-157.06378
 21
1638.713064
 31
0.0
  0
LINE
  5
547
  8
DETAIL
  6
CONTINUOUS
 62
     5
 10
-102.795995
 20
1640.295957
 30
0.0
 11
-103.391737
 21
1639.692089
 31
0.0
  0
LINE
  5
548
  8
DETAIL
  6
CONTINUOUS
 62
     5
 10
-288.937828
 20
48.499993
 30
0.0
 11
-290.669878
 21
51.499993
 31
0.0
  0
LINE
  5
596
  8
DETAIL
  6
CONTINUOUS
 62
     5
 10
-135.579649
 20
1639.692089
 30
0.0
 11
-136.298414
 21
1638.713064
 31
0.0
  0
LINE
  5
597
  8
DETAIL
  6
CONTINUOUS
 62
     5
 10
-80.815092
 20
1640.295957
 30
0.0
 11
-81.281484
 21
1639.692089
 31
0.0
  0
LINE
  5
59A
  8
DETAIL
  6
CONTINUOUS
 62
     5
 10
-35.982639
 20
1639.692089
 30
0.0
 11
-36.167357
 21
1638.713064
 31
0.0
  0
LINE
  5
59B
  8
DETAIL
  6
CONTINUOUS
 62
     5
 10
-35.781123
 20
1640.295957
 30
0.0
 11
-35.982639
 21
1639.692089
 31
0.0
  0
LINE
  5
59C
  8
DETAIL
  6
CONTINUOUS
 62
     5
 10
-35.571032
 20
1640.500022
 30
0.0
 11
-35.781123
 21
1640.295957
 31
0.0
  0
LINE
  5
59F
  8
DETAIL
  6
CONTINUOUS
 62
     5
 10
-32.999073
 20
1639.692089
 30
0.0
 11
-33.183791
 21
1638.713064
 31
0.0
  0
LINE
  5
5A0
  8
DETAIL
  6
CONTINUOUS
 62
     5
 10
-32.797557
 20
1640.295957
 30
0.0
 11
-32.999073
 21
1639.692089
 31
0.0
  0
LINE
  5
5A1
  8
DETAIL
  6
CONTINUOUS
 62
     5
 10
-32.587466
 20
1640.500022
 30
0.0
 11
-32.797557
 21
1640.295957
 31
0.0
  0
LINE
  5
5A2
  8
DETAIL
  6
CONTINUOUS
 62
     5
 10
-366.875504
 20
1416.070994
 30
0.0
 11
-366.820243
 21
1416.694685
 31
0.0
  0
LINE
  5
5A3
  8
DETAIL
  6
CONTINUOUS
 62
     5
 10
-367.020435
 20
1415.310887
 30
0.0
 11
-366.875504
 21
1416.070994
 31
0.0
  0
LINE
  5
5A4
  8
DETAIL
  6
CONTINUOUS
 62
     5
 10
-367.248377
 20
1414.571421
 30
0.0
 11
-367.020435
 21
1415.310887
 31
0.0
  0
LINE
  5
5A5
  8
DETAIL
  6
CONTINUOUS
 62
     5
 10
-367.556544
 20
1413.861631
 30
0.0
 11
-367.248377
 21
1414.571421
 31
0.0
  0
LINE
  5
5A6
  8
DETAIL
  6
CONTINUOUS
 62
     5
 10
-367.94117
 20
1413.190192
 30
0.0
 11
-367.556544
 21
1413.861631
 31
0.0
  0
LINE
  5
5A7
  8
DETAIL
  6
CONTINUOUS
 62
     5
 10
-368.397556
 20
1412.565308
 30
0.0
 11
-367.94117
 21
1413.190192
 31
0.0
  0
LINE
  5
5A8
  8
DETAIL
  6
CONTINUOUS
 62
     5
 10
-368.920124
 20
1411.994615
 30
0.0
 11
-368.397556
 21
1412.565308
 31
0.0
  0
LINE
  5
5A9
  8
DETAIL
  6
CONTINUOUS
 62
     5
 10
-369.502488
 20
1411.485087
 30
0.0
 11
-368.920124
 21
1411.994615
 31
0.0
  0
LINE
  5
5AA
  8
DETAIL
  6
CONTINUOUS
 62
     5
 10
-370.137534
 20
1411.04295
 30
0.0
 11
-369.502488
 21
1411.485087
 31
0.0
  0
LINE
  5
5AB
  8
DETAIL
  6
CONTINUOUS
 62
     5
 10
-370.817499
 20
1410.673606
 30
0.0
 11
-370.137534
 21
1411.04295
 31
0.0
  0
LINE
  5
5AC
  8
DETAIL
  6
CONTINUOUS
 62
     5
 10
-371.534077
 20
1410.38157
 30
0.0
 11
-370.817499
 21
1410.673606
 31
0.0
  0
LINE
  5
5AD
  8
DETAIL
  6
CONTINUOUS
 62
     5
 10
-372.278509
 20
1410.17041
 30
0.0
 11
-371.534077
 21
1410.38157
 31
0.0
  0
LINE
  5
5AE
  8
DETAIL
  6
CONTINUOUS
 62
     5
 10
-373.041699
 20
1410.042706
 30
0.0
 11
-372.278509
 21
1410.17041
 31
0.0
  0
LINE
  5
5AF
  8
DETAIL
  6
CONTINUOUS
 62
     5
 10
-373.813584
 20
1410.000018
 30
0.0
 11
-373.041699
 21
1410.042706
 31
0.0
  0
LINE
  5
5B0
  8
DETAIL
  6
CONTINUOUS
 62
     5
 10
-380.000007
 20
1410.000018
 30
0.0
 11
380.000007
 21
1410.000018
 31
0.0
  0
LINE
  5
5F6
  8
DETAIL
  6
CONTINUOUS
 62
     5
 10
-349.84252
 20
1561.320232
 30
0.0
 11
-350.639647
 21
1550.000021
 31
0.0
  0
LINE
  5
5F7
  8
DETAIL
  6
CONTINUOUS
 62
     5
 10
-348.335059
 20
1572.56338
 30
0.0
 11
-349.84252
 21
1561.320232
 31
0.0
  0
LINE
  5
5F8
  8
DETAIL
  6
CONTINUOUS
 62
     5
 10
-346.123603
 20
1583.682172
 30
0.0
 11
-348.335059
 21
1572.56338
 31
0.0
  0
LINE
  5
637
  8
DETAIL
  6
CONTINUOUS
 62
     5
 10
-58.440465
 20
1640.295957
 30
0.0
 11
-58.775235
 21
1639.692089
 31
0.0
  0
LINE
  5
638
  8
DETAIL
  6
CONTINUOUS
 62
     5
 10
-103.391737
 20
1639.692089
 30
0.0
 11
-103.937817
 21
1638.713064
 31
0.0
  0
LINE
  5
63B
  8
DETAIL
  6
CONTINUOUS
 62
     5
 10
-24.513622
 20
1639.692089
 30
0.0
 11
-24.636892
 21
1638.713064
 31
0.0
  0
LINE
  5
63C
  8
DETAIL
  6
CONTINUOUS
 62
     5
 10
-24.379141
 20
1640.295957
 30
0.0
 11
-24.513622
 21
1639.692089
 31
0.0
  0
LINE
  5
63D
  8
DETAIL
  6
CONTINUOUS
 62
     5
 10
-24.238938
 20
1640.500022
 30
0.0
 11
-24.379141
 21
1640.295957
 31
0.0
  0
LINE
  5
640
  8
DETAIL
  6
CONTINUOUS
 62
     5
 10
-21.52093
 20
1639.692089
 30
0.0
 11
-21.6442
 21
1638.713064
 31
0.0
  0
LINE
  5
641
  8
DETAIL
  6
CONTINUOUS
 62
     5
 10
-21.386449
 20
1640.295957
 30
0.0
 11
-21.52093
 21
1639.692089
 31
0.0
  0
LINE
  5
642
  8
DETAIL
  6
CONTINUOUS
 62
     5
 10
-21.246246
 20
1640.500022
 30
0.0
 11
-21.386449
 21
1640.295957
 31
0.0
  0
LINE
  5
68A
  8
DETAIL
  6
CONTINUOUS
 62
     5
 10
-81.281484
 20
1639.692089
 30
0.0
 11
-81.708996
 21
1638.713064
 31
0.0
  0
LINE
  5
68B
  8
DETAIL
  6
CONTINUOUS
 62
     5
 10
-380.000007
 20
1370.000017
 30
0.0
 11
-380.000007
 21
1410.000018
 31
0.0
  0
LINE
  5
68C
  8
DETAIL
  6
CONTINUOUS
 62
     5
 10
-375.500007
 20
58.999993
 30
0.0
 11
-375.500007
 21
1370.000017
 31
0.0
  0
LINE
  5
68D
  8
DETAIL
  6
CONTINUOUS
 62
     5
 10
-375.300007
 20
58.999993
 30
0.0
 11
-375.300007
 21
55.499993
 31
0.0
  0
LINE
  5
68E
  8
DETAIL
  6
CONTINUOUS
 62
     5
 10
-374.500007
 20
58.999993
 30
0.0
 11
-374.500007
 21
55.499993
 31
0.0
  0
LINE
  5
68F
  8
DETAIL
  6
CONTINUOUS
 62
     5
 10
-360.999525
 20
1550.012159
 30
0.0
 11
-366.820202
 21
1416.69564
 31
0.0
  0
LINE
  5
6DD
  8
DETAIL
  6
CONTINUOUS
 62
     5
 10
-368.300007
 20
55.299993
 30
0.0
 11
-368.300007
 21
54.499993
 31
0.0
  0
LINE
  5
6DE
  8
DETAIL
  6
CONTINUOUS
 62
     5
 10
-328.000006
 20
12.699992
 30
0.0
 11
-328.000006
 21
47.299993
 31
0.0
  0
LINE
  5
6DF
  8
DETAIL
  6
CONTINUOUS
 62
     5
 10
-325.000006
 20
49.999993
 30
0.0
 11
-325.000006
 21
7.299992
 31
0.0
  0
LINE
  5
6E0
  8
DETAIL
  6
CONTINUOUS
 62
     5
 10
-322.700006
 20
7.299992
 30
0.0
 11
-322.700006
 21
8.999992
 31
0.0
  0
LINE
  5
6E1
  8
DETAIL
  6
CONTINUOUS
 62
     5
 10
-320.000006
 20
1641.600022
 30
0.0
 11
-320.000006
 21
1640.500022
 31
0.0
  0
LINE
  5
729
  8
DETAIL
  6
CONTINUOUS
 62
     5
 10
-58.775235
 20
1639.692089
 30
0.0
 11
-59.082097
 21
1638.713064
 31
0.0
  0
LINE
  5
72C
  8
DETAIL
  6
CONTINUOUS
 62
     5
 10
-13.014739
 20
1639.692089
 30
0.0
 11
-13.076412
 21
1638.713064
 31
0.0
  0
LINE
  5
72D
  8
DETAIL
  6
CONTINUOUS
 62
     5
 10
-12.947458
 20
1640.295957
 30
0.0
 11
-13.014739
 21
1639.692089
 31
0.0
  0
LINE
  5
72E
  8
DETAIL
  6
CONTINUOUS
 62
     5
 10
-12.877314
 20
1640.500022
 30
0.0
 11
-12.947458
 21
1640.295957
 31
0.0
  0
LINE
  5
731
  8
DETAIL
  6
CONTINUOUS
 62
     5
 10
-10.016567
 20
1639.692089
 30
0.0
 11
-10.07824
 21
1638.713064
 31
0.0
  0
LINE
  5
732
  8
DETAIL
  6
CONTINUOUS
 62
     5
 10
-9.949285
 20
1640.295957
 30
0.0
 11
-10.016567
 21
1639.692089
 31
0.0
  0
LINE
  5
733
  8
DETAIL
  6
CONTINUOUS
 62
     5
 10
-9.879141
 20
1640.500022
 30
0.0
 11
-9.949285
 21
1640.295957
 31
0.0
  0
LINE
  5
734
  8
DETAIL
  6
CONTINUOUS
 62
     5
 10
-300.000006
 20
1642.300022
 30
0.0
 11
-300.000006
 21
1641.600022
 31
0.0
  0
LINE
  5
735
  8
DETAIL
  6
CONTINUOUS
 62
     5
 10
-300.000006
 20
13.999992
 30
0.0
 11
-300.000006
 21
53.999993
 31
0.0
  0
LINE
  5
736
  8
DETAIL
  6
CONTINUOUS
 62
     5
 10
-280.000005
 20
1643.000022
 30
0.0
 11
-280.000005
 21
1642.300022
 31
0.0
  0
LINE
  5
737
  8
DETAIL
  6
CONTINUOUS
 62
     5
 10
-260.000005
 20
1643.700022
 30
0.0
 11
-260.000005
 21
1643.000022
 31
0.0
  0
LINE
  5
790
  8
DETAIL
  6
CONTINUOUS
 62
     5
 10
-240.000004
 20
1644.400022
 30
0.0
 11
-240.000004
 21
1643.700022
 31
0.0
  0
LINE
  5
791
  8
DETAIL
  6
CONTINUOUS
 62
     5
 10
-236.80004
 20
1640.500022
 30
0.0
 11
-236.80004
 21
1640.326014
 31
0.0
  0
LINE
  5
792
  8
DETAIL
  6
CONTINUOUS
 62
     5
 10
-229.144224
 20
1640.500022
 30
0.0
 11
-229.144224
 21
1640.209985
 31
0.0
  0
LINE
  5
793
  8
DETAIL
  6
CONTINUOUS
 62
     5
 10
-221.209231
 20
1640.500022
 30
0.0
 11
-221.209231
 21
1640.017874
 31
0.0
  0
LINE
  5
794
  8
DETAIL
  6
CONTINUOUS
 62
     5
 10
-220.000004
 20
1645.100022
 30
0.0
 11
-220.000004
 21
1644.400022
 31
0.0
  0
LINE
  5
795
  8
DETAIL
  6
CONTINUOUS
 62
     5
 10
-213.004728
 20
1640.500022
 30
0.0
 11
-213.004728
 21
1639.81026
 31
0.0
  0
LINE
  5
796
  8
DETAIL
  6
CONTINUOUS
 62
     5
 10
-204.540712
 20
1640.500022
 30
0.0
 11
-204.540712
 21
1639.502001
 31
0.0
  0
LINE
  5
797
  8
DETAIL
  6
CONTINUOUS
 62
     5
 10
-200.000004
 20
1645.800022
 30
0.0
 11
-200.000004
 21
1645.100022
 31
0.0
  0
LINE
  5
798
  8
DETAIL
  6
CONTINUOUS
 62
     5
 10
-195.827495
 20
1640.500022
 30
0.0
 11
-195.827495
 21
1639.065558
 31
0.0
  0
LINE
  5
7CB
  8
DETAIL
  6
CONTINUOUS
 62
     5
 10
-186.875692
 20
1640.500022
 30
0.0
 11
-186.875692
 21
1638.515129
 31
0.0
  0
LINE
  5
7CC
  8
DETAIL
  6
CONTINUOUS
 62
     5
 10
-180.000003
 20
1646.500022
 30
0.0
 11
-180.000003
 21
1645.800022
 31
0.0
  0
LINE
  5
7CD
  8
DETAIL
  6
CONTINUOUS
 62
     5
 10
-177.69621
 20
1640.500022
 30
0.0
 11
-177.69621
 21
1637.691082
 31
0.0
  0
LINE
  5
7CE
  8
DETAIL
  6
CONTINUOUS
 62
     5
 10
-173.500003
 20
61.999993
 30
0.0
 11
-173.500003
 21
83.999994
 31
0.0
  0
LINE
  5
7CF
  8
DETAIL
  6
CONTINUOUS
 62
     5
 10
-168.300233
 20
1640.500022
 30
0.0
 11
-168.300233
 21
1636.452393
 31
0.0
  0
LINE
  5
7D0
  8
DETAIL
  6
CONTINUOUS
 62
     5
 10
-160.000003
 20
1647.200022
 30
0.0
 11
-160.000003
 21
1646.500022
 31
0.0
  0
LINE
  5
7D1
  8
DETAIL
  6
CONTINUOUS
 62
     5
 10
-158.699207
 20
1640.500022
 30
0.0
 11
-158.699207
 21
1634.58092
 31
0.0
  0
LINE
  5
7D2
  8
DETAIL
  6
CONTINUOUS
 62
     5
 10
-148.904831
 20
1640.500022
 30
0.0
 11
-148.904831
 21
1632.500022
 31
0.0
  0
LINE
  5
7D3
  8
DETAIL
  6
CONTINUOUS
 62
     5
 10
-140.000003
 20
1647.900022
 30
0.0
 11
-140.000003
 21
1647.200022
 31
0.0
  0
LINE
  5
7D4
  8
DETAIL
  6
CONTINUOUS
 62
     5
 10
-138.929037
 20
1640.500022
 30
0.0
 11
-138.929037
 21
1632.500022
 31
0.0
  0
LINE
  5
80A
  8
DETAIL
  6
CONTINUOUS
 62
     5
 10
-128.78398
 20
1640.500022
 30
0.0
 11
-128.78398
 21
1632.500022
 31
0.0
  0
LINE
  5
80B
  8
DETAIL
  6
CONTINUOUS
 62
     5
 10
-120.000002
 20
1648.600022
 30
0.0
 11
-120.000002
 21
1647.900022
 31
0.0
  0
LINE
  5
80C
  8
DETAIL
  6
CONTINUOUS
 62
     5
 10
-118.482019
 20
1640.500022
 30
0.0
 11
-118.482019
 21
1632.500022
 31
0.0
  0
LINE
  5
80D
  8
DETAIL
  6
CONTINUOUS
 62
     5
 10
-108.035707
 20
1640.500022
 30
0.0
 11
-108.035707
 21
1632.500022
 31
0.0
  0
LINE
  5
80E
  8
DETAIL
  6
CONTINUOUS
 62
     5
 10
-100.000002
 20
1649.300023
 30
0.0
 11
-100.000002
 21
1648.600022
 31
0.0
  0
LINE
  5
80F
  8
DETAIL
  6
CONTINUOUS
 62
     5
 10
-97.457769
 20
1640.500022
 30
0.0
 11
-97.457769
 21
1632.500022
 31
0.0
  0
LINE
  5
810
  8
DETAIL
  6
CONTINUOUS
 62
     5
 10
-86.761094
 20
1640.500022
 30
0.0
 11
-86.761094
 21
1632.500022
 31
0.0
  0
LINE
  5
811
  8
DETAIL
  6
CONTINUOUS
 62
     5
 10
-80.000001
 20
1649.300023
 30
0.0
 11
-80.000001
 21
1650.000023
 31
0.0
  0
LINE
  5
812
  8
DETAIL
  6
CONTINUOUS
 62
     5
 10
-75.958714
 20
1640.500022
 30
0.0
 11
-75.958714
 21
1632.500022
 31
0.0
  0
LINE
  5
85C
  8
DETAIL
  6
CONTINUOUS
 62
     5
 10
-65.06379
 20
1640.500022
 30
0.0
 11
-65.06379
 21
1632.500022
 31
0.0
  0
LINE
  5
85D
  8
DETAIL
  6
CONTINUOUS
 62
     5
 10
-54.089596
 20
1640.500022
 30
0.0
 11
-54.089596
 21
1632.500022
 31
0.0
  0
LINE
  5
85E
  8
DETAIL
  6
CONTINUOUS
 62
     5
 10
-43.049502
 20
1640.500022
 30
0.0
 11
-43.049502
 21
1632.500022
 31
0.0
  0
LINE
  5
85F
  8
DETAIL
  6
CONTINUOUS
 62
     5
 10
-31.956959
 20
1640.500022
 30
0.0
 11
-31.956959
 21
1632.500022
 31
0.0
  0
LINE
  5
860
  8
DETAIL
  6
CONTINUOUS
 62
     5
 10
-20.825481
 20
1640.500022
 30
0.0
 11
-20.825481
 21
1632.500022
 31
0.0
  0
LINE
  5
861
  8
DETAIL
  6
CONTINUOUS
 62
     5
 10
-9.66863
 20
1640.500022
 30
0.0
 11
-9.66863
 21
1632.500022
 31
0.0
  0
LINE
  5
8D1
  8
DETAIL
  6
CONTINUOUS
 62
     5
 10
9.66863
 20
1640.500022
 30
0.0
 11
9.66863
 21
1632.500022
 31
0.0
  0
LINE
  5
8D2
  8
DETAIL
  6
CONTINUOUS
 62
     5
 10
20.825481
 20
1640.500022
 30
0.0
 11
20.825481
 21
1632.500022
 31
0.0
  0
LINE
  5
8D3
  8
DETAIL
  6
CONTINUOUS
 62
     5
 10
31.956959
 20
1640.500022
 30
0.0
 11
31.956959
 21
1632.500022
 31
0.0
  0
LINE
  5
8D4
  8
DETAIL
  6
CONTINUOUS
 62
     5
 10
43.049502
 20
1640.500022
 30
0.0
 11
43.049502
 21
1632.500022
 31
0.0
  0
LINE
  5
928
  8
DETAIL
  6
CONTINUOUS
 62
     5
 10
54.089596
 20
1640.500022
 30
0.0
 11
54.089596
 21
1632.500022
 31
0.0
  0
LINE
  5
929
  8
DETAIL
  6
CONTINUOUS
 62
     5
 10
65.06379
 20
1640.500022
 30
0.0
 11
65.06379
 21
1632.500022
 31
0.0
  0
LINE
  5
92A
  8
DETAIL
  6
CONTINUOUS
 62
     5
 10
75.958714
 20
1640.500022
 30
0.0
 11
75.958714
 21
1632.500022
 31
0.0
  0
LINE
  5
92B
  8
DETAIL
  6
CONTINUOUS
 62
     5
 10
80.000001
 20
1649.300023
 30
0.0
 11
80.000001
 21
1650.000023
 31
0.0
  0
LINE
  5
92C
  8
DETAIL
  6
CONTINUOUS
 62
     5
 10
86.761094
 20
1640.500022
 30
0.0
 11
86.761094
 21
1632.500022
 31
0.0
  0
LINE
  5
92D
  8
DETAIL
  6
CONTINUOUS
 62
     5
 10
97.457769
 20
1640.500022
 30
0.0
 11
97.457769
 21
1632.500022
 31
0.0
  0
LINE
  5
92E
  8
DETAIL
  6
CONTINUOUS
 62
     5
 10
100.000002
 20
1649.300023
 30
0.0
 11
100.000002
 21
1648.600022
 31
0.0
  0
LINE
  5
92F
  8
DETAIL
  6
CONTINUOUS
 62
     5
 10
108.035707
 20
1640.500022
 30
0.0
 11
108.035707
 21
1632.500022
 31
0.0
  0
LINE
  5
97D
  8
DETAIL
  6
CONTINUOUS
 62
     5
 10
118.482019
 20
1640.500022
 30
0.0
 11
118.482019
 21
1632.500022
 31
0.0
  0
LINE
  5
97E
  8
DETAIL
  6
CONTINUOUS
 62
     5
 10
120.000002
 20
1648.600022
 30
0.0
 11
120.000002
 21
1647.900022
 31
0.0
  0
LINE
  5
97F
  8
DETAIL
  6
CONTINUOUS
 62
     5
 10
128.78398
 20
1640.500022
 30
0.0
 11
128.78398
 21
1632.500022
 31
0.0
  0
LINE
  5
980
  8
DETAIL
  6
CONTINUOUS
 62
     5
 10
138.929037
 20
1640.500022
 30
0.0
 11
138.929037
 21
1632.500022
 31
0.0
  0
LINE
  5
981
  8
DETAIL
  6
CONTINUOUS
 62
     5
 10
140.000003
 20
1647.900022
 30
0.0
 11
140.000003
 21
1647.200022
 31
0.0
  0
LINE
  5
982
  8
DETAIL
  6
CONTINUOUS
 62
     5
 10
148.904831
 20
1640.500022
 30
0.0
 11
148.904831
 21
1632.500022
 31
0.0
  0
LINE
  5
983
  8
DETAIL
  6
CONTINUOUS
 62
     5
 10
158.699207
 20
1640.500022
 30
0.0
 11
158.699207
 21
1634.58092
 31
0.0
  0
LINE
  5
984
  8
DETAIL
  6
CONTINUOUS
 62
     5
 10
160.000003
 20
1647.200022
 30
0.0
 11
160.000003
 21
1646.500022
 31
0.0
  0
LINE
  5
985
  8
DETAIL
  6
CONTINUOUS
 62
     5
 10
168.300233
 20
1640.500022
 30
0.0
 11
168.300233
 21
1636.452393
 31
0.0
  0
LINE
  5
9CD
  8
DETAIL
  6
CONTINUOUS
 62
     5
 10
177.69621
 20
1640.500022
 30
0.0
 11
177.69621
 21
1637.691082
 31
0.0
  0
LINE
  5
9CE
  8
DETAIL
  6
CONTINUOUS
 62
     5
 10
180.000003
 20
1646.500022
 30
0.0
 11
180.000003
 21
1645.800022
 31
0.0
  0
LINE
  5
9CF
  8
DETAIL
  6
CONTINUOUS
 62
     5
 10
186.875692
 20
1640.500022
 30
0.0
 11
186.875692
 21
1638.515129
 31
0.0
  0
LINE
  5
9D0
  8
DETAIL
  6
CONTINUOUS
 62
     5
 10
195.827495
 20
1640.500022
 30
0.0
 11
195.827495
 21
1639.065558
 31
0.0
  0
LINE
  5
9D1
  8
DETAIL
  6
CONTINUOUS
 62
     5
 10
200.000004
 20
1645.800022
 30
0.0
 11
200.000004
 21
1645.100022
 31
0.0
  0
LINE
  5
9D2
  8
DETAIL
  6
CONTINUOUS
 62
     5
 10
204.540712
 20
1640.500022
 30
0.0
 11
204.540712
 21
1639.502001
 31
0.0
  0
LINE
  5
9D3
  8
DETAIL
  6
CONTINUOUS
 62
     5
 10
213.004728
 20
1640.500022
 30
0.0
 11
213.004728
 21
1639.81026
 31
0.0
  0
LINE
  5
9D4
  8
DETAIL
  6
CONTINUOUS
 62
     5
 10
220.000004
 20
1645.100022
 30
0.0
 11
220.000004
 21
1644.400022
 31
0.0
  0
LINE
  5
9D5
  8
DETAIL
  6
CONTINUOUS
 62
     5
 10
221.209231
 20
1640.500022
 30
0.0
 11
221.209231
 21
1640.017874
 31
0.0
  0
LINE
  5
9D6
  8
DETAIL
  6
CONTINUOUS
 62
     5
 10
229.144224
 20
1640.500022
 30
0.0
 11
229.144224
 21
1640.209985
 31
0.0
  0
LINE
  5
9D9
  8
DETAIL
  6
CONTINUOUS
 62
     5
 10
10.016567
 20
1639.692089
 30
0.0
 11
10.07824
 21
1638.713064
 31
0.0
  0
LINE
  5
9DA
  8
DETAIL
  6
CONTINUOUS
 62
     5
 10
9.949285
 20
1640.295957
 30
0.0
 11
10.016567
 21
1639.692089
 31
0.0
  0
LINE
  5
9DB
  8
DETAIL
  6
CONTINUOUS
 62
     5
 10
9.879141
 20
1640.500022
 30
0.0
 11
9.949285
 21
1640.295957
 31
0.0
  0
LINE
  5
9DE
  8
DETAIL
  6
CONTINUOUS
 62
     5
 10
13.014739
 20
1639.692089
 30
0.0
 11
13.076412
 21
1638.713064
 31
0.0
  0
LINE
  5
9DF
  8
DETAIL
  6
CONTINUOUS
 62
     5
 10
12.947458
 20
1640.295957
 30
0.0
 11
13.014739
 21
1639.692089
 31
0.0
  0
LINE
  5
9E0
  8
DETAIL
  6
CONTINUOUS
 62
     5
 10
12.877314
 20
1640.500022
 30
0.0
 11
12.947458
 21
1640.295957
 31
0.0
  0
LINE
  5
A37
  8
DETAIL
  6
CONTINUOUS
 62
     5
 10
236.80004
 20
1640.500022
 30
0.0
 11
236.80004
 21
1640.326014
 31
0.0
  0
LINE
  5
A38
  8
DETAIL
  6
CONTINUOUS
 62
     5
 10
240.000004
 20
1644.400022
 30
0.0
 11
240.000004
 21
1643.700022
 31
0.0
  0
LINE
  5
A39
  8
DETAIL
  6
CONTINUOUS
 62
     5
 10
260.000005
 20
1643.700022
 30
0.0
 11
260.000005
 21
1643.000022
 31
0.0
  0
LINE
  5
A3A
  8
DETAIL
  6
CONTINUOUS
 62
     5
 10
280.000005
 20
1643.000022
 30
0.0
 11
280.000005
 21
1642.300022
 31
0.0
  0
LINE
  5
A8B
  8
DETAIL
  6
CONTINUOUS
 62
     5
 10
300.000006
 20
53.999993
 30
0.0
 11
300.000006
 21
13.999992
 31
0.0
  0
LINE
  5
A8C
  8
DETAIL
  6
CONTINUOUS
 62
     5
 10
300.000006
 20
1642.300022
 30
0.0
 11
300.000006
 21
1641.600022
 31
0.0
  0
LINE
  5
A8D
  8
DETAIL
  6
CONTINUOUS
 62
     5
 10
308.500006
 20
63.999993
 30
0.0
 11
308.500006
 21
83.999994
 31
0.0
  0
LINE
  5
A8E
  8
DETAIL
  6
CONTINUOUS
 62
     5
 10
320.000006
 20
1641.600022
 30
0.0
 11
320.000006
 21
1640.500022
 31
0.0
  0
LINE
  5
A8F
  8
DETAIL
  6
CONTINUOUS
 62
     5
 10
322.700006
 20
7.299992
 30
0.0
 11
322.700006
 21
8.999992
 31
0.0
  0
LINE
  5
A90
  8
DETAIL
  6
CONTINUOUS
 62
     5
 10
325.000006
 20
49.999993
 30
0.0
 11
325.000006
 21
7.299992
 31
0.0
  0
LINE
  5
A91
  8
DETAIL
  6
CONTINUOUS
 62
     5
 10
328.000006
 20
12.699992
 30
0.0
 11
328.000006
 21
47.299993
 31
0.0
  0
LINE
  5
AE3
  8
DETAIL
  6
CONTINUOUS
 62
     5
 10
366.778446
 20
1417.652001
 30
0.0
 11
360.999525
 21
1550.012159
 31
0.0
  0
LINE
  5
AE4
  8
DETAIL
  6
CONTINUOUS
 62
     5
 10
375.700007
 20
58.999993
 30
0.0
 11
375.700007
 21
1370.000017
 31
0.0
  0
LINE
  5
AE5
  8
DETAIL
  6
CONTINUOUS
 62
     5
 10
380.000007
 20
1410.000018
 30
0.0
 11
380.000007
 21
1370.000017
 31
0.0
  0
LINE
  5
B20
  8
DETAIL
  6
CONTINUOUS
 62
     5
 10
373.134521
 20
1410.169159
 30
0.0
 11
373.948742
 21
1410.042374
 31
0.0
  0
LINE
  5
B21
  8
DETAIL
  6
CONTINUOUS
 62
     5
 10
372.337661
 20
1410.379029
 30
0.0
 11
373.134521
 21
1410.169159
 31
0.0
  0
LINE
  5
B22
  8
DETAIL
  6
CONTINUOUS
 62
     5
 10
371.566617
 20
1410.669757
 30
0.0
 11
372.337661
 21
1410.379029
 31
0.0
  0
LINE
  5
B23
  8
DETAIL
  6
CONTINUOUS
 62
     5
 10
370.82957
 20
1411.038257
 30
0.0
 11
371.566617
 21
1410.669757
 31
0.0
  0
LINE
  5
B24
  8
DETAIL
  6
CONTINUOUS
 62
     5
 10
370.134339
 20
1411.480621
 30
0.0
 11
370.82957
 21
1411.038257
 31
0.0
  0
LINE
  5
B25
  8
DETAIL
  6
CONTINUOUS
 62
     5
 10
369.488302
 20
1411.992154
 30
0.0
 11
370.134339
 21
1411.480621
 31
0.0
  0
LINE
  5
B26
  8
DETAIL
  6
CONTINUOUS
 62
     5
 10
368.898312
 20
1412.56743
 30
0.0
 11
369.488302
 21
1411.992154
 31
0.0
  0
LINE
  5
B27
  8
DETAIL
  6
CONTINUOUS
 62
     5
 10
368.370628
 20
1413.200345
 30
0.0
 11
368.898312
 21
1412.56743
 31
0.0
  0
LINE
  5
B28
  8
DETAIL
  6
CONTINUOUS
 62
     5
 10
367.910851
 20
1413.884184
 30
0.0
 11
368.370628
 21
1413.200345
 31
0.0
  0
LINE
  5
B29
  8
DETAIL
  6
CONTINUOUS
 62
     5
 10
367.523857
 20
1414.611692
 30
0.0
 11
367.910851
 21
1413.884184
 31
0.0
  0
LINE
  5
B2A
  8
DETAIL
  6
CONTINUOUS
 62
     5
 10
367.213753
 20
1415.375149
 30
0.0
 11
367.523857
 21
1414.611692
 31
0.0
  0
LINE
  5
B2B
  8
DETAIL
  6
CONTINUOUS
 62
     5
 10
366.98383
 20
1416.166455
 30
0.0
 11
367.213753
 21
1415.375149
 31
0.0
  0
LINE
  5
B2C
  8
DETAIL
  6
CONTINUOUS
 62
     5
 10
366.836525
 20
1416.977216
 30
0.0
 11
366.98383
 21
1416.166455
 31
0.0
  0
LINE
  5
B2D
  8
DETAIL
  6
CONTINUOUS
 62
     5
 10
366.778487
 20
1417.651066
 30
0.0
 11
366.836525
 21
1416.977216
 31
0.0
  0
LINE
  5
B30
  8
DETAIL
  6
CONTINUOUS
 62
     5
 10
21.52093
 20
1639.692089
 30
0.0
 11
21.6442
 21
1638.713064
 31
0.0
  0
LINE
  5
B31
  8
DETAIL
  6
CONTINUOUS
 62
     5
 10
21.386449
 20
1640.295957
 30
0.0
 11
21.52093
 21
1639.692089
 31
0.0
  0
LINE
  5
B32
  8
DETAIL
  6
CONTINUOUS
 62
     5
 10
21.246246
 20
1640.500022
 30
0.0
 11
21.386449
 21
1640.295957
 31
0.0
  0
LINE
  5
B35
  8
DETAIL
  6
CONTINUOUS
 62
     5
 10
24.513622
 20
1639.692089
 30
0.0
 11
24.636892
 21
1638.713064
 31
0.0
  0
LINE
  5
B36
  8
DETAIL
  6
CONTINUOUS
 62
     5
 10
24.379141
 20
1640.295957
 30
0.0
 11
24.513622
 21
1639.692089
 31
0.0
  0
LINE
  5
B37
  8
DETAIL
  6
CONTINUOUS
 62
     5
 10
24.238938
 20
1640.500022
 30
0.0
 11
24.379141
 21
1640.295957
 31
0.0
  0
LINE
  5
B85
  8
DETAIL
  6
CONTINUOUS
 62
     5
 10
349.84252
 20
1561.320232
 30
0.0
 11
350.639647
 21
1550.000021
 31
0.0
  0
LINE
  5
B86
  8
DETAIL
  6
CONTINUOUS
 62
     5
 10
348.335059
 20
1572.56338
 30
0.0
 11
349.84252
 21
1561.320232
 31
0.0
  0
LINE
  5
B87
  8
DETAIL
  6
CONTINUOUS
 62
     5
 10
346.123603
 20
1583.682172
 30
0.0
 11
348.335059
 21
1572.56338
 31
0.0
  0
LINE
  5
BCD
  8
DETAIL
  6
CONTINUOUS
 62
     5
 10
290.4139
 20
52.327733
 30
0.0
 11
288.116192
 21
47.672253
 31
0.0
  0
LINE
  5
BD0
  8
DETAIL
  6
CONTINUOUS
 62
     5
 10
32.999073
 20
1639.692089
 30
0.0
 11
33.183791
 21
1638.713064
 31
0.0
  0
LINE
  5
BD1
  8
DETAIL
  6
CONTINUOUS
 62
     5
 10
32.797557
 20
1640.295957
 30
0.0
 11
32.999073
 21
1639.692089
 31
0.0
  0
LINE
  5
BD2
  8
DETAIL
  6
CONTINUOUS
 62
     5
 10
32.587466
 20
1640.500022
 30
0.0
 11
32.797557
 21
1640.295957
 31
0.0
  0
LINE
  5
BD5
  8
DETAIL
  6
CONTINUOUS
 62
     5
 10
35.982639
 20
1639.692089
 30
0.0
 11
36.167357
 21
1638.713064
 31
0.0
  0
LINE
  5
BD6
  8
DETAIL
  6
CONTINUOUS
 62
     5
 10
35.781123
 20
1640.295957
 30
0.0
 11
35.982639
 21
1639.692089
 31
0.0
  0
LINE
  5
BD7
  8
DETAIL
  6
CONTINUOUS
 62
     5
 10
35.571032
 20
1640.500022
 30
0.0
 11
35.781123
 21
1640.295957
 31
0.0
  0
LINE
  5
C42
  8
DETAIL
  6
CONTINUOUS
 62
     5
 10
44.437012
 20
1639.692089
 30
0.0
 11
44.682952
 21
1638.713064
 31
0.0
  0
LINE
  5
C43
  8
DETAIL
  6
CONTINUOUS
 62
     5
 10
44.168706
 20
1640.295957
 30
0.0
 11
44.437012
 21
1639.692089
 31
0.0
  0
LINE
  5
C44
  8
DETAIL
  6
CONTINUOUS
 62
     5
 10
43.888983
 20
1640.500022
 30
0.0
 11
44.168706
 21
1640.295957
 31
0.0
  0
LINE
  5
C47
  8
DETAIL
  6
CONTINUOUS
 62
     5
 10
47.407817
 20
1639.692089
 30
0.0
 11
47.653756
 21
1638.713064
 31
0.0
  0
LINE
  5
C48
  8
DETAIL
  6
CONTINUOUS
 62
     5
 10
47.13951
 20
1640.295957
 30
0.0
 11
47.407817
 21
1639.692089
 31
0.0
  0
LINE
  5
C49
  8
DETAIL
  6
CONTINUOUS
 62
     5
 10
46.859787
 20
1640.500022
 30
0.0
 11
47.13951
 21
1640.295957
 31
0.0
  0
LINE
  5
C4A
  8
DETAIL
  6
CONTINUOUS
 62
     5
 10
359.906717
 20
1561.320232
 30
0.0
 11
360.727746
 21
1550.000021
 31
0.0
  0
LINE
  5
C4B
  8
DETAIL
  6
CONTINUOUS
 62
     5
 10
358.354053
 20
1572.56338
 30
0.0
 11
359.906717
 21
1561.320232
 31
0.0
  0
LINE
  5
C4C
  8
DETAIL
  6
CONTINUOUS
 62
     5
 10
356.076285
 20
1583.682172
 30
0.0
 11
358.354053
 21
1572.56338
 31
0.0
  0
LINE
  5
C4D
  8
DETAIL
  6
CONTINUOUS
 62
     5
 10
353.082994
 20
1594.629836
 30
0.0
 11
356.076285
 21
1583.682172
 31
0.0
  0
LINE
  5
C4E
  8
DETAIL
  6
CONTINUOUS
 62
     5
 10
349.386771
 20
1605.360324
 30
0.0
 11
353.082994
 21
1594.629836
 31
0.0
  0
LINE
  5
C4F
  8
DETAIL
  6
CONTINUOUS
 62
     5
 10
345.003165
 20
1615.828497
 30
0.0
 11
349.386771
 21
1605.360324
 31
0.0
  0
LINE
  5
C50
  8
DETAIL
  6
CONTINUOUS
 62
     5
 10
339.950613
 20
1625.990321
 30
0.0
 11
345.003165
 21
1615.828497
 31
0.0
  0
LINE
  5
C51
  8
DETAIL
  6
CONTINUOUS
 62
     5
 10
334.250371
 20
1635.803053
 30
0.0
 11
339.950613
 21
1625.990321
 31
0.0
  0
LINE
  5
C52
  8
DETAIL
  6
CONTINUOUS
 62
     5
 10
360.011416
 20
1561.320232
 30
0.0
 11
360.832444
 21
1550.000021
 31
0.0
  0
LINE
  5
C53
  8
DETAIL
  6
CONTINUOUS
 62
     5
 10
358.458752
 20
1572.56338
 30
0.0
 11
360.011416
 21
1561.320232
 31
0.0
  0
LINE
  5
C54
  8
DETAIL
  6
CONTINUOUS
 62
     5
 10
356.180984
 20
1583.682172
 30
0.0
 11
358.458752
 21
1572.56338
 31
0.0
  0
LINE
  5
C55
  8
DETAIL
  6
CONTINUOUS
 62
     5
 10
353.187693
 20
1594.629836
 30
0.0
 11
356.180984
 21
1583.682172
 31
0.0
  0
LINE
  5
C56
  8
DETAIL
  6
CONTINUOUS
 62
     5
 10
349.49147
 20
1605.360324
 30
0.0
 11
353.187693
 21
1594.629836
 31
0.0
  0
LINE
  5
C57
  8
DETAIL
  6
CONTINUOUS
 62
     5
 10
345.107863
 20
1615.828497
 30
0.0
 11
349.49147
 21
1605.360324
 31
0.0
  0
LINE
  5
C58
  8
DETAIL
  6
CONTINUOUS
 62
     5
 10
340.055312
 20
1625.990321
 30
0.0
 11
345.107863
 21
1615.828497
 31
0.0
  0
LINE
  5
C59
  8
DETAIL
  6
CONTINUOUS
 62
     5
 10
334.355069
 20
1635.803053
 30
0.0
 11
340.055312
 21
1625.990321
 31
0.0
  0
LINE
  5
C5A
  8
DETAIL
  6
CONTINUOUS
 62
     5
 10
359.196466
 20
1561.320232
 30
0.0
 11
360.015994
 21
1550.000021
 31
0.0
  0
LINE
  5
C5B
  8
DETAIL
  6
CONTINUOUS
 62
     5
 10
357.64664
 20
1572.56338
 30
0.0
 11
359.196466
 21
1561.320232
 31
0.0
  0
LINE
  5
C5C
  8
DETAIL
  6
CONTINUOUS
 62
     5
 10
355.373036
 20
1583.682172
 30
0.0
 11
357.64664
 21
1572.56338
 31
0.0
  0
LINE
  5
C5D
  8
DETAIL
  6
CONTINUOUS
 62
     5
 10
352.385216
 20
1594.629836
 30
0.0
 11
355.373036
 21
1583.682172
 31
0.0
  0
LINE
  5
C5E
  8
DETAIL
  6
CONTINUOUS
 62
     5
 10
348.69575
 20
1605.360324
 30
0.0
 11
352.385216
 21
1594.629836
 31
0.0
  0
LINE
  5
C5F
  8
DETAIL
  6
CONTINUOUS
 62
     5
 10
344.320156
 20
1615.828497
 30
0.0
 11
348.69575
 21
1605.360324
 31
0.0
  0
LINE
  5
C60
  8
DETAIL
  6
CONTINUOUS
 62
     5
 10
339.27684
 20
1625.990321
 30
0.0
 11
344.320156
 21
1615.828497
 31
0.0
  0
LINE
  5
C61
  8
DETAIL
  6
CONTINUOUS
 62
     5
 10
333.587016
 20
1635.803053
 30
0.0
 11
339.27684
 21
1625.990321
 31
0.0
  0
LINE
  5
C62
  8
DETAIL
  6
CONTINUOUS
 62
     5
 10
359.405736
 20
1561.320232
 30
0.0
 11
360.225264
 21
1550.000021
 31
0.0
  0
LINE
  5
C63
  8
DETAIL
  6
CONTINUOUS
 62
     5
 10
357.85591
 20
1572.56338
 30
0.0
 11
359.405736
 21
1561.320232
 31
0.0
  0
LINE
  5
C64
  8
DETAIL
  6
CONTINUOUS
 62
     5
 10
355.582305
 20
1583.682172
 30
0.0
 11
357.85591
 21
1572.56338
 31
0.0
  0
LINE
  5
C65
  8
DETAIL
  6
CONTINUOUS
 62
     5
 10
352.594486
 20
1594.629836
 30
0.0
 11
355.582305
 21
1583.682172
 31
0.0
  0
LINE
  5
C66
  8
DETAIL
  6
CONTINUOUS
 62
     5
 10
348.905019
 20
1605.360324
 30
0.0
 11
352.594486
 21
1594.629836
 31
0.0
  0
LINE
  5
C67
  8
DETAIL
  6
CONTINUOUS
 62
     5
 10
344.529425
 20
1615.828497
 30
0.0
 11
348.905019
 21
1605.360324
 31
0.0
  0
LINE
  5
C68
  8
DETAIL
  6
CONTINUOUS
 62
     5
 10
339.486109
 20
1625.990321
 30
0.0
 11
344.529425
 21
1615.828497
 31
0.0
  0
LINE
  5
C69
  8
DETAIL
  6
CONTINUOUS
 62
     5
 10
333.796286
 20
1635.803053
 30
0.0
 11
339.486109
 21
1625.990321
 31
0.0
  0
LINE
  5
C6A
  8
DETAIL
  6
CONTINUOUS
 62
     5
 10
358.04859
 20
1561.320232
 30
0.0
 11
358.865618
 21
1550.000021
 31
0.0
  0
LINE
  5
C6B
  8
DETAIL
  6
CONTINUOUS
 62
     5
 10
356.50349
 20
1572.56338
 30
0.0
 11
358.04859
 21
1561.320232
 31
0.0
  0
LINE
  5
C6C
  8
DETAIL
  6
CONTINUOUS
 62
     5
 10
354.236819
 20
1583.682172
 30
0.0
 11
356.50349
 21
1572.56338
 31
0.0
  0
LINE
  5
C6D
  8
DETAIL
  6
CONTINUOUS
 62
     5
 10
351.258111
 20
1594.629836
 30
0.0
 11
354.236819
 21
1583.682172
 31
0.0
  0
LINE
  5
C6E
  8
DETAIL
  6
CONTINUOUS
 62
     5
 10
347.579896
 20
1605.360324
 30
0.0
 11
351.258111
 21
1594.629836
 31
0.0
  0
LINE
  5
C6F
  8
DETAIL
  6
CONTINUOUS
 62
     5
 10
343.217645
 20
1615.828497
 30
0.0
 11
347.579896
 21
1605.360324
 31
0.0
  0
LINE
  5
C70
  8
DETAIL
  6
CONTINUOUS
 62
     5
 10
338.18971
 20
1625.990321
 30
0.0
 11
343.217645
 21
1615.828497
 31
0.0
  0
LINE
  5
C71
  8
DETAIL
  6
CONTINUOUS
 62
     5
 10
332.517238
 20
1635.803053
 30
0.0
 11
338.18971
 21
1625.990321
 31
0.0
  0
LINE
  5
C72
  8
DETAIL
  6
CONTINUOUS
 62
     5
 10
358.362175
 20
1561.320232
 30
0.0
 11
359.179204
 21
1550.000021
 31
0.0
  0
LINE
  5
C73
  8
DETAIL
  6
CONTINUOUS
 62
     5
 10
356.817075
 20
1572.56338
 30
0.0
 11
358.362175
 21
1561.320232
 31
0.0
  0
LINE
  5
C74
  8
DETAIL
  6
CONTINUOUS
 62
     5
 10
354.550404
 20
1583.682172
 30
0.0
 11
356.817075
 21
1572.56338
 31
0.0
  0
LINE
  5
C75
  8
DETAIL
  6
CONTINUOUS
 62
     5
 10
351.571696
 20
1594.629836
 30
0.0
 11
354.550404
 21
1583.682172
 31
0.0
  0
LINE
  5
C76
  8
DETAIL
  6
CONTINUOUS
 62
     5
 10
347.893481
 20
1605.360324
 30
0.0
 11
351.571696
 21
1594.629836
 31
0.0
  0
LINE
  5
C77
  8
DETAIL
  6
CONTINUOUS
 62
     5
 10
343.531231
 20
1615.828497
 30
0.0
 11
347.893481
 21
1605.360324
 31
0.0
  0
LINE
  5
C78
  8
DETAIL
  6
CONTINUOUS
 62
     5
 10
338.503295
 20
1625.990321
 30
0.0
 11
343.531231
 21
1615.828497
 31
0.0
  0
LINE
  5
C79
  8
DETAIL
  6
CONTINUOUS
 62
     5
 10
332.830823
 20
1635.803053
 30
0.0
 11
338.503295
 21
1625.990321
 31
0.0
  0
LINE
  5
C7A
  8
DETAIL
  6
CONTINUOUS
 62
     5
 10
356.464486
 20
1561.320232
 30
0.0
 11
357.27802
 21
1550.000021
 31
0.0
  0
LINE
  5
C7B
  8
DETAIL
  6
CONTINUOUS
 62
     5
 10
354.925995
 20
1572.56338
 30
0.0
 11
356.464486
 21
1561.320232
 31
0.0
  0
LINE
  5
C7C
  8
DETAIL
  6
CONTINUOUS
 62
     5
 10
352.669019
 20
1583.682172
 30
0.0
 11
354.925995
 21
1572.56338
 31
0.0
  0
LINE
  5
C7D
  8
DETAIL
  6
CONTINUOUS
 62
     5
 10
349.703052
 20
1594.629836
 30
0.0
 11
352.669019
 21
1583.682172
 31
0.0
  0
LINE
  5
C7E
  8
DETAIL
  6
CONTINUOUS
 62
     5
 10
346.040569
 20
1605.360324
 30
0.0
 11
349.703052
 21
1594.629836
 31
0.0
  0
LINE
  5
C7F
  8
DETAIL
  6
CONTINUOUS
 62
     5
 10
341.696977
 20
1615.828497
 30
0.0
 11
346.040569
 21
1605.360324
 31
0.0
  0
LINE
  5
C80
  8
DETAIL
  6
CONTINUOUS
 62
     5
 10
336.690547
 20
1625.990321
 30
0.0
 11
341.696977
 21
1615.828497
 31
0.0
  0
LINE
  5
C81
  8
DETAIL
  6
CONTINUOUS
 62
     5
 10
331.042338
 20
1635.803053
 30
0.0
 11
336.690547
 21
1625.990321
 31
0.0
  0
LINE
  5
C82
  8
DETAIL
  6
CONTINUOUS
 62
     5
 10
356.882005
 20
1561.320232
 30
0.0
 11
357.695539
 21
1550.000021
 31
0.0
  0
LINE
  5
C83
  8
DETAIL
  6
CONTINUOUS
 62
     5
 10
355.343514
 20
1572.56338
 30
0.0
 11
356.882005
 21
1561.320232
 31
0.0
  0
LINE
  5
C84
  8
DETAIL
  6
CONTINUOUS
 62
     5
 10
353.086538
 20
1583.682172
 30
0.0
 11
355.343514
 21
1572.56338
 31
0.0
  0
LINE
  5
C85
  8
DETAIL
  6
CONTINUOUS
 62
     5
 10
350.120571
 20
1594.629836
 30
0.0
 11
353.086538
 21
1583.682172
 31
0.0
  0
LINE
  5
C86
  8
DETAIL
  6
CONTINUOUS
 62
     5
 10
346.458089
 20
1605.360324
 30
0.0
 11
350.120571
 21
1594.629836
 31
0.0
  0
LINE
  5
C87
  8
DETAIL
  6
CONTINUOUS
 62
     5
 10
342.114497
 20
1615.828497
 30
0.0
 11
346.458089
 21
1605.360324
 31
0.0
  0
LINE
  5
C88
  8
DETAIL
  6
CONTINUOUS
 62
     5
 10
337.108067
 20
1625.990321
 30
0.0
 11
342.114497
 21
1615.828497
 31
0.0
  0
LINE
  5
C89
  8
DETAIL
  6
CONTINUOUS
 62
     5
 10
331.459858
 20
1635.803053
 30
0.0
 11
337.108067
 21
1625.990321
 31
0.0
  0
LINE
  5
C8A
  8
DETAIL
  6
CONTINUOUS
 62
     5
 10
354.446085
 20
1561.320232
 30
0.0
 11
355.255133
 21
1550.000021
 31
0.0
  0
LINE
  5
C8B
  8
DETAIL
  6
CONTINUOUS
 62
     5
 10
352.916077
 20
1572.56338
 30
0.0
 11
354.446085
 21
1561.320232
 31
0.0
  0
LINE
  5
C8C
  8
DETAIL
  6
CONTINUOUS
 62
     5
 10
350.671546
 20
1583.682172
 30
0.0
 11
352.916077
 21
1572.56338
 31
0.0
  0
LINE
  5
C8D
  8
DETAIL
  6
CONTINUOUS
 62
     5
 10
347.721933
 20
1594.629836
 30
0.0
 11
350.671546
 21
1583.682172
 31
0.0
  0
LINE
  5
C8E
  8
DETAIL
  6
CONTINUOUS
 62
     5
 10
344.079646
 20
1605.360324
 30
0.0
 11
347.721933
 21
1594.629836
 31
0.0
  0
LINE
  5
C8F
  8
DETAIL
  6
CONTINUOUS
 62
     5
 10
339.760004
 20
1615.828497
 30
0.0
 11
344.079646
 21
1605.360324
 31
0.0
  0
LINE
  5
C90
  8
DETAIL
  6
CONTINUOUS
 62
     5
 10
334.78118
 20
1625.990321
 30
0.0
 11
339.760004
 21
1615.828497
 31
0.0
  0
LINE
  5
C91
  8
DETAIL
  6
CONTINUOUS
 62
     5
 10
329.164115
 20
1635.803053
 30
0.0
 11
334.78118
 21
1625.990321
 31
0.0
  0
LINE
  5
C92
  8
DETAIL
  6
CONTINUOUS
 62
     5
 10
354.96703
 20
1561.320232
 30
0.0
 11
355.776078
 21
1550.000021
 31
0.0
  0
LINE
  5
C93
  8
DETAIL
  6
CONTINUOUS
 62
     5
 10
353.437022
 20
1572.56338
 30
0.0
 11
354.96703
 21
1561.320232
 31
0.0
  0
LINE
  5
C94
  8
DETAIL
  6
CONTINUOUS
 62
     5
 10
351.192491
 20
1583.682172
 30
0.0
 11
353.437022
 21
1572.56338
 31
0.0
  0
LINE
  5
C95
  8
DETAIL
  6
CONTINUOUS
 62
     5
 10
348.242878
 20
1594.629836
 30
0.0
 11
351.192491
 21
1583.682172
 31
0.0
  0
LINE
  5
C96
  8
DETAIL
  6
CONTINUOUS
 62
     5
 10
344.60059
 20
1605.360324
 30
0.0
 11
348.242878
 21
1594.629836
 31
0.0
  0
LINE
  5
C97
  8
DETAIL
  6
CONTINUOUS
 62
     5
 10
340.280949
 20
1615.828497
 30
0.0
 11
344.60059
 21
1605.360324
 31
0.0
  0
LINE
  5
C98
  8
DETAIL
  6
CONTINUOUS
 62
     5
 10
335.302124
 20
1625.990321
 30
0.0
 11
340.280949
 21
1615.828497
 31
0.0
  0
LINE
  5
C99
  8
DETAIL
  6
CONTINUOUS
 62
     5
 10
329.685059
 20
1635.803053
 30
0.0
 11
335.302124
 21
1625.990321
 31
0.0
  0
LINE
  5
C9A
  8
DETAIL
  6
CONTINUOUS
 62
     5
 10
351.995846
 20
1561.320232
 30
0.0
 11
352.799423
 21
1550.000021
 31
0.0
  0
LINE
  5
C9B
  8
DETAIL
  6
CONTINUOUS
 62
     5
 10
350.476186
 20
1572.56338
 30
0.0
 11
351.995846
 21
1561.320232
 31
0.0
  0
LINE
  5
C9C
  8
DETAIL
  6
CONTINUOUS
 62
     5
 10
348.246834
 20
1583.682172
 30
0.0
 11
350.476186
 21
1572.56338
 31
0.0
  0
LINE
  5
C9D
  8
DETAIL
  6
CONTINUOUS
 62
     5
 10
345.317169
 20
1594.629836
 30
0.0
 11
348.246834
 21
1583.682172
 31
0.0
  0
LINE
  5
C9E
  8
DETAIL
  6
CONTINUOUS
 62
     5
 10
341.699514
 20
1605.360324
 30
0.0
 11
345.317169
 21
1594.629836
 31
0.0
  0
LINE
  5
C9F
  8
DETAIL
  6
CONTINUOUS
 62
     5
 10
337.409086
 20
1615.828497
 30
0.0
 11
341.699514
 21
1605.360324
 31
0.0
  0
LINE
  5
CA2
  8
DETAIL
  6
CONTINUOUS
 62
     5
 10
352.619581
 20
1561.320232
 30
0.0
 11
353.423158
 21
1550.000021
 31
0.0
  0
LINE
  5
CA3
  8
DETAIL
  6
CONTINUOUS
 62
     5
 10
351.099921
 20
1572.56338
 30
0.0
 11
352.619581
 21
1561.320232
 31
0.0
  0
LINE
  5
CA4
  8
DETAIL
  6
CONTINUOUS
 62
     5
 10
348.87057
 20
1583.682172
 30
0.0
 11
351.099921
 21
1572.56338
 31
0.0
  0
LINE
  5
CA5
  8
DETAIL
  6
CONTINUOUS
 62
     5
 10
345.940904
 20
1594.629836
 30
0.0
 11
348.87057
 21
1583.682172
 31
0.0
  0
LINE
  5
CA6
  8
DETAIL
  6
CONTINUOUS
 62
     5
 10
342.323249
 20
1605.360324
 30
0.0
 11
345.940904
 21
1594.629836
 31
0.0
  0
LINE
  5
CA7
  8
DETAIL
  6
CONTINUOUS
 62
     5
 10
338.032821
 20
1615.828497
 30
0.0
 11
342.323249
 21
1605.360324
 31
0.0
  0
LINE
  5
CA8
  8
DETAIL
  6
CONTINUOUS
 62
     5
 10
333.087668
 20
1625.990321
 30
0.0
 11
338.032821
 21
1615.828497
 31
0.0
  0
LINE
  5
CAA
  8
DETAIL
  6
CONTINUOUS
 62
     5
 10
349.116755
 20
1561.320232
 30
0.0
 11
349.913881
 21
1550.000021
 31
0.0
  0
LINE
  5
CAB
  8
DETAIL
  6
CONTINUOUS
 62
     5
 10
347.609293
 20
1572.56338
 30
0.0
 11
349.116755
 21
1561.320232
 31
0.0
  0
LINE
  5
CAC
  8
DETAIL
  6
CONTINUOUS
 62
     5
 10
345.397837
 20
1583.682172
 30
0.0
 11
347.609293
 21
1572.56338
 31
0.0
  0
LINE
  5
CAD
  8
DETAIL
  6
CONTINUOUS
 62
     5
 10
342.49169
 20
1594.629836
 30
0.0
 11
345.397837
 21
1583.682172
 31
0.0
  0
LINE
  5
CB2
  8
DETAIL
  6
CONTINUOUS
 62
     5
 10
343.217455
 20
1594.629836
 30
0.0
 11
346.123603
 21
1583.682172
 31
0.0
  0
LINE
  5
CB3
  8
DETAIL
  6
CONTINUOUS
 62
     5
 10
339.62884
 20
1605.360324
 30
0.0
 11
343.217455
 21
1594.629836
 31
0.0
  0
LINE
  5
CB7
  8
DETAIL
  6
CONTINUOUS
 62
     5
 10
345.812318
 20
1561.320232
 30
0.0
 11
346.602023
 21
1550.000021
 31
0.0
  0
LINE
  5
CB8
  8
DETAIL
  6
CONTINUOUS
 62
     5
 10
344.318892
 20
1572.56338
 30
0.0
 11
345.812318
 21
1561.320232
 31
0.0
  0
LINE
  5
CBF
  8
DETAIL
  6
CONTINUOUS
 62
     5
 10
346.63923
 20
1561.320232
 30
0.0
 11
347.428935
 21
1550.000021
 31
0.0
  0
LINE
  5
CC0
  8
DETAIL
  6
CONTINUOUS
 62
     5
 10
345.145804
 20
1572.56338
 30
0.0
 11
346.63923
 21
1561.320232
 31
0.0
  0
LINE
  5
CC1
  8
DETAIL
  6
CONTINUOUS
 62
     5
 10
342.954938
 20
1583.682172
 30
0.0
 11
345.145804
 21
1572.56338
 31
0.0
  0
LINE
  5
CCF
  8
DETAIL
  6
CONTINUOUS
 62
     5
 10
343.013614
 20
1561.320232
 30
0.0
 11
343.794934
 21
1550.000021
 31
0.0
  0
LINE
  5
CEF
  8
DETAIL
  6
CONTINUOUS
 62
     5
 10
-173.500003
 20
83.999994
 30
0.0
 11
308.500006
 21
83.999994
 31
0.0
  0
LINE
  5
CF0
  8
DETAIL
  6
CONTINUOUS
 62
     5
 10
-176.500003
 20
58.999993
 30
0.0
 11
-375.500007
 21
58.999993
 31
0.0
  0
LINE
  5
CF1
  8
DETAIL
  6
CONTINUOUS
 62
     5
 10
375.700007
 20
58.999993
 30
0.0
 11
313.500006
 21
58.999993
 31
0.0
  0
LINE
  5
CF2
  8
DETAIL
  6
CONTINUOUS
 62
     5
 10
-368.300007
 20
55.299993
 30
0.0
 11
-374.300007
 21
55.299993
 31
0.0
  0
LINE
  5
CF3
  8
DETAIL
  6
CONTINUOUS
 62
     5
 10
-374.300007
 20
54.499993
 30
0.0
 11
-368.300007
 21
54.499993
 31
0.0
  0
LINE
  5
CF4
  8
DETAIL
  6
CONTINUOUS
 62
     5
 10
293.104088
 20
53.999993
 30
0.0
 11
328.500006
 21
53.999993
 31
0.0
  0
LINE
  5
CF5
  8
DETAIL
  6
CONTINUOUS
 62
     5
 10
-328.500006
 20
53.999993
 30
0.0
 11
-295.000005
 21
53.999993
 31
0.0
  0
LINE
  5
CF6
  8
DETAIL
  6
CONTINUOUS
 62
     5
 10
326.000006
 20
47.299993
 30
0.0
 11
328.000006
 21
47.299993
 31
0.0
  0
LINE
  5
CF7
  8
DETAIL
  6
CONTINUOUS
 62
     5
 10
-326.000006
 20
47.299993
 30
0.0
 11
-328.000006
 21
47.299993
 31
0.0
  0
LINE
  5
CF8
  8
DETAIL
  6
CONTINUOUS
 62
     5
 10
-284.6077
 20
45.999993
 30
0.0
 11
285.426005
 21
45.999993
 31
0.0
  0
LINE
  5
CFB
  8
DETAIL
  6
CONTINUOUS
 62
     5
 10
67.136602
 20
1639.692089
 30
0.0
 11
67.504013
 21
1638.713064
 31
0.0
  0
LINE
  5
CFC
  8
DETAIL
  6
CONTINUOUS
 62
     5
 10
66.735777
 20
1640.295957
 30
0.0
 11
67.136602
 21
1639.692089
 31
0.0
  0
LINE
  5
CFD
  8
DETAIL
  6
CONTINUOUS
 62
     5
 10
66.317897
 20
1640.500022
 30
0.0
 11
66.735777
 21
1640.295957
 31
0.0
  0
LINE
  5
D00
  8
DETAIL
  6
CONTINUOUS
 62
     5
 10
70.071045
 20
1639.692089
 30
0.0
 11
70.438456
 21
1638.713064
 31
0.0
  0
LINE
  5
D01
  8
DETAIL
  6
CONTINUOUS
 62
     5
 10
69.67022
 20
1640.295957
 30
0.0
 11
70.071045
 21
1639.692089
 31
0.0
  0
LINE
  5
D02
  8
DETAIL
  6
CONTINUOUS
 62
     5
 10
69.252339
 20
1640.500022
 30
0.0
 11
69.67022
 21
1640.295957
 31
0.0
  0
LINE
  5
D05
  8
DETAIL
  6
CONTINUOUS
 62
     5
 10
55.820812
 20
1639.692089
 30
0.0
 11
56.127674
 21
1638.713064
 31
0.0
  0
LINE
  5
D06
  8
DETAIL
  6
CONTINUOUS
 62
     5
 10
55.486042
 20
1640.295957
 30
0.0
 11
55.820812
 21
1639.692089
 31
0.0
  0
LINE
  5
D07
  8
DETAIL
  6
CONTINUOUS
 62
     5
 10
55.137028
 20
1640.500022
 30
0.0
 11
55.486042
 21
1640.295957
 31
0.0
  0
LINE
  5
D0A
  8
DETAIL
  6
CONTINUOUS
 62
     5
 10
58.775235
 20
1639.692089
 30
0.0
 11
59.082097
 21
1638.713064
 31
0.0
  0
LINE
  5
D0B
  8
DETAIL
  6
CONTINUOUS
 62
     5
 10
58.440465
 20
1640.295957
 30
0.0
 11
58.775235
 21
1639.692089
 31
0.0
  0
LINE
  5
D0C
  8
DETAIL
  6
CONTINUOUS
 62
     5
 10
58.091451
 20
1640.500022
 30
0.0
 11
58.440465
 21
1640.295957
 31
0.0
  0
LINE
  5
D0D
  8
DETAIL
  6
CONTINUOUS
 62
     5
 10
328.591637
 20
54.005969
 30
0.0
 11
329.016906
 21
54.066248
 31
0.0
  0
LINE
  5
D0E
  8
DETAIL
  6
CONTINUOUS
 62
     5
 10
367.02064
 20
56.512208
 30
0.0
 11
328.500006
 21
53.999993
 31
0.0
  0
LINE
  5
D0F
  8
DETAIL
  6
CONTINUOUS
 62
     5
 10
326.000006
 20
12.699992
 30
0.0
 11
328.000006
 21
12.699992
 31
0.0
  0
LINE
  5
D10
  8
DETAIL
  6
CONTINUOUS
 62
     5
 10
-326.000006
 20
12.699992
 30
0.0
 11
-328.000006
 21
12.699992
 31
0.0
  0
LINE
  5
D11
  8
DETAIL
  6
CONTINUOUS
 62
     5
 10
305.000006
 20
8.999992
 30
0.0
 11
325.000006
 21
8.999992
 31
0.0
  0
LINE
  5
D12
  8
DETAIL
  6
CONTINUOUS
 62
     5
 10
-325.000006
 20
8.999992
 30
0.0
 11
-305.000006
 21
8.999992
 31
0.0
  0
LINE
  5
D13
  8
DETAIL
  6
CONTINUOUS
 62
     5
 10
-367.02064
 20
56.512208
 30
0.0
 11
-328.500006
 21
53.999993
 31
0.0
  0
LINE
  5
D16
  8
DETAIL
  6
CONTINUOUS
 62
     5
 10
111.445536
 20
1639.692089
 30
0.0
 11
112.049937
 21
1638.713064
 31
0.0
  0
LINE
  5
D17
  8
DETAIL
  6
CONTINUOUS
 62
     5
 10
110.786168
 20
1640.295957
 30
0.0
 11
111.445536
 21
1639.692089
 31
0.0
  0
LINE
  5
D18
  8
DETAIL
  6
CONTINUOUS
 62
     5
 10
110.098745
 20
1640.500022
 30
0.0
 11
110.786168
 21
1640.295957
 31
0.0
  0
LINE
  5
D1B
  8
DETAIL
  6
CONTINUOUS
 62
     5
 10
114.264614
 20
1639.692089
 30
0.0
 11
114.869015
 21
1638.713064
 31
0.0
  0
LINE
  5
D1C
  8
DETAIL
  6
CONTINUOUS
 62
     5
 10
113.605246
 20
1640.295957
 30
0.0
 11
114.264614
 21
1639.692089
 31
0.0
  0
LINE
  5
D1D
  8
DETAIL
  6
CONTINUOUS
 62
     5
 10
112.917823
 20
1640.500022
 30
0.0
 11
113.605246
 21
1640.295957
 31
0.0
  0
LINE
  5
D20
  8
DETAIL
  6
CONTINUOUS
 62
     5
 10
100.538568
 20
1639.692089
 30
0.0
 11
101.084647
 21
1638.713064
 31
0.0
  0
LINE
  5
D21
  8
DETAIL
  6
CONTINUOUS
 62
     5
 10
99.942826
 20
1640.295957
 30
0.0
 11
100.538568
 21
1639.692089
 31
0.0
  0
LINE
  5
D22
  8
DETAIL
  6
CONTINUOUS
 62
     5
 10
99.321735
 20
1640.500022
 30
0.0
 11
99.942826
 21
1640.295957
 31
0.0
  0
LINE
  5
D25
  8
DETAIL
  6
CONTINUOUS
 62
     5
 10
103.391737
 20
1639.692089
 30
0.0
 11
103.937817
 21
1638.713064
 31
0.0
  0
LINE
  5
D26
  8
DETAIL
  6
CONTINUOUS
 62
     5
 10
102.795995
 20
1640.295957
 30
0.0
 11
103.391737
 21
1639.692089
 31
0.0
  0
LINE
  5
D27
  8
DETAIL
  6
CONTINUOUS
 62
     5
 10
102.174904
 20
1640.500022
 30
0.0
 11
102.795995
 21
1640.295957
 31
0.0
  0
LINE
  5
D2A
  8
DETAIL
  6
CONTINUOUS
 62
     5
 10
89.509109
 20
1639.692089
 30
0.0
 11
89.996201
 21
1638.713064
 31
0.0
  0
LINE
  5
D2B
  8
DETAIL
  6
CONTINUOUS
 62
     5
 10
88.977718
 20
1640.295957
 30
0.0
 11
89.509109
 21
1639.692089
 31
0.0
  0
LINE
  5
D2C
  8
DETAIL
  6
CONTINUOUS
 62
     5
 10
88.423716
 20
1640.500022
 30
0.0
 11
88.977718
 21
1640.295957
 31
0.0
  0
LINE
  5
D2F
  8
DETAIL
  6
CONTINUOUS
 62
     5
 10
92.392894
 20
1639.692089
 30
0.0
 11
92.879987
 21
1638.713064
 31
0.0
  0
LINE
  5
D30
  8
DETAIL
  6
CONTINUOUS
 62
     5
 10
91.861503
 20
1640.295957
 30
0.0
 11
92.392894
 21
1639.692089
 31
0.0
  0
LINE
  5
D31
  8
DETAIL
  6
CONTINUOUS
 62
     5
 10
91.307502
 20
1640.500022
 30
0.0
 11
91.861503
 21
1640.295957
 31
0.0
  0
LINE
  5
D34
  8
DETAIL
  6
CONTINUOUS
 62
     5
 10
78.370597
 20
1639.692089
 30
0.0
 11
78.798109
 21
1638.713064
 31
0.0
  0
LINE
  5
D35
  8
DETAIL
  6
CONTINUOUS
 62
     5
 10
77.904204
 20
1640.295957
 30
0.0
 11
78.370597
 21
1639.692089
 31
0.0
  0
LINE
  5
D36
  8
DETAIL
  6
CONTINUOUS
 62
     5
 10
77.417967
 20
1640.500022
 30
0.0
 11
77.904204
 21
1640.295957
 31
0.0
  0
LINE
  5
D39
  8
DETAIL
  6
CONTINUOUS
 62
     5
 10
81.281484
 20
1639.692089
 30
0.0
 11
81.708996
 21
1638.713064
 31
0.0
  0
LINE
  5
D3A
  8
DETAIL
  6
CONTINUOUS
 62
     5
 10
80.815092
 20
1640.295957
 30
0.0
 11
81.281484
 21
1639.692089
 31
0.0
  0
LINE
  5
D3B
  8
DETAIL
  6
CONTINUOUS
 62
     5
 10
80.328855
 20
1640.500022
 30
0.0
 11
80.815092
 21
1640.295957
 31
0.0
  0
LINE
  5
D3E
  8
DETAIL
  6
CONTINUOUS
 62
     5
 10
266.066558
 20
1639.692089
 30
0.0
 11
267.496212
 21
1638.713064
 31
0.0
  0
LINE
  5
D3F
  8
DETAIL
  6
CONTINUOUS
 62
     5
 10
264.506884
 20
1640.295957
 30
0.0
 11
266.066558
 21
1639.692089
 31
0.0
  0
LINE
  5
D40
  8
DETAIL
  6
CONTINUOUS
 62
     5
 10
-380.000007
 20
-0.000008
 30
0.0
 11
-330.000006
 21
-0.000008
 31
0.0
  0
LINE
  5
D41
  8
DETAIL
  6
CONTINUOUS
 62
     5
 10
-380.000007
 20
2.299992
 30
0.0
 11
-330.000006
 21
2.299992
 31
0.0
  0
ARC
  5
D42
  8
DETAIL
  6
CONTINUOUS
 62
     5
 10
-330.000006
 20
7.299992
 30
0.0
 40
5.0
 50
270.0
 51
0.0
  0
ARC
  5
D43
  8
DETAIL
  6
CONTINUOUS
 62
     5
 10
-330.000006
 20
7.299992
 30
0.0
 40
7.3
 50
270.0
 51
0.0
  0
LINE
  5
D44
  8
DETAIL
  6
CONTINUOUS
 62
     5
 10
-380.000007
 20
2.299992
 30
0.0
 11
-380.000007
 21
-0.000008
 31
0.0
  0
LINE
  5
D45
  8
DETAIL
  6
CONTINUOUS
 62
     5
 10
380.000007
 20
2.299992
 30
0.0
 11
380.000007
 21
-0.000008
 31
0.0
  0
LINE
  5
D46
  8
DETAIL
  6
CONTINUOUS
 62
     5
 10
330.000006
 20
-0.000008
 30
0.0
 11
380.000007
 21
-0.000008
 31
0.0
  0
LINE
  5
D47
  8
DETAIL
  6
CONTINUOUS
 62
     5
 10
330.000006
 20
2.299992
 30
0.0
 11
380.000007
 21
2.299992
 31
0.0
  0
ARC
  5
D48
  8
DETAIL
  6
CONTINUOUS
 62
     5
 10
330.000006
 20
7.299992
 30
0.0
 40
5.0
 50
180.0
 51
270.0
  0
ARC
  5
D49
  8
DETAIL
  6
CONTINUOUS
 62
     5
 10
330.000006
 20
7.299992
 30
0.0
 40
7.3
 50
180.0
 51
270.0
  0
LINE
  5
D4A
  8
DETAIL
  6
CONTINUOUS
 62
     5
 10
-173.500003
 20
83.999994
 30
0.0
 11
-375.500007
 21
83.999994
 31
0.0
  0
LINE
  5
D4B
  8
ARRANGE
  6
CONTINUOUS
 62
     1
 10
37.897321
 20
-37.897321
 30
0.0
 11
-37.897321
 21
37.897321
 31
0.0
  0
LINE
  5
D4C
  8
ARRANGE
  6
CONTINUOUS
 62
     1
 10
37.897321
 20
37.897321
 30
0.0
 11
-37.897321
 21
-37.897321
 31
0.0
  0
CIRCLE
  5
D4D
  8
ARRANGE
  6
CONTINUOUS
 62
     1
 10
0.0
 20
0.0
 30
0.0
 40
34.449674
  0
TEXT
  5
D4E
  8
ETC
  6
CONTINUOUS
 62
    61
 10
626.227878
 20
1814.397296
 30
0.0
 40
90.0
  1
PURY-P280_335CM-E_4
 50
359.999997
 41
0.603059
  7
STANDARD1
  0
LINE
  5
D4F
  8
SIZE
  6
CONTINUOUS
 62
    30
 10
-380.000007
 20
-20.000008
 30
0.0
 11
-380.000007
 21
-182.29804
 31
0.0
  0
LINE
  5
D50
  8
SIZE
  6
CONTINUOUS
 62
    30
 10
-325.000006
 20
-11.000008
 30
0.0
 11
-325.000006
 21
-182.29804
 31
0.0
  0
LINE
  5
D51
  8
SIZE
  6
CONTINUOUS
 62
    30
 10
-335.000006
 20
-152.29804
 30
0.0
 11
-370.000007
 21
-152.29804
 31
0.0
  0
LINE
  5
D52
  8
SIZE
  6
CONTINUOUS
 62
    30
 10
-380.000007
 20
-152.29804
 30
0.0
 11
-500.142864
 21
-152.29804
 31
0.0
  0
CIRCLE
  5
D53
  8
SIZE
  6
CONTINUOUS
 62
    30
 10
-325.000006
 20
-152.29804
 30
0.0
 40
5.0
  0
LINE
  5
D54
  8
SIZE
  6
CONTINUOUS
 62
    30
 10
-330.000006
 20
-152.29804
 30
0.0
 11
-335.000006
 21
-152.29804
 31
0.0
  0
CIRCLE
  5
D55
  8
SIZE
  6
CONTINUOUS
 62
    30
 10
-380.000007
 20
-152.29804
 30
0.0
 40
5.0
  0
LINE
  5
D56
  8
SIZE
  6
CONTINUOUS
 62
    30
 10
-375.000007
 20
-152.29804
 30
0.0
 11
-370.000007
 21
-152.29804
 31
0.0
  0
TEXT
  5
D57
  8
SIZE
  6
CONTINUOUS
 62
    30
 10
-485.142865
 20
-137.29804
 30
0.0
 40
55.0
  1
55
 41
0.9
 72
     1
 11
-445.071436
 21
-137.29804
 31
0.0
  0
POINT
  5
D58
  8
DEFPOINTS
  6
CONTINUOUS
 62
     7
 10
-380.000007
 20
-0.000008
 30
0.0
  0
POINT
  5
D59
  8
DEFPOINTS
  6
CONTINUOUS
 62
     7
 10
-325.000006
 20
8.999992
 30
0.0
  0
POINT
  5
D5A
  8
DEFPOINTS
  6
CONTINUOUS
 62
     7
 10
-325.000006
 20
-152.29804
 30
0.0
  0
LINE
  5
D5B
  8
SIZE
  6
CONTINUOUS
 62
    30
 10
-325.000006
 20
-11.000008
 30
0.0
 11
-325.000006
 21
-182.29804
 31
0.0
  0
LINE
  5
D5C
  8
SIZE
  6
CONTINUOUS
 62
    30
 10
-300.000006
 20
-6.000008
 30
0.0
 11
-300.000006
 21
-182.29804
 31
0.0
  0
LINE
  5
D5D
  8
SIZE
  6
CONTINUOUS
 62
    30
 10
-335.000006
 20
-152.29804
 30
0.0
 11
-345.000006
 21
-152.29804
 31
0.0
  0
LINE
  5
D5E
  8
SIZE
  6
CONTINUOUS
 62
    30
 10
-290.000006
 20
-152.29804
 30
0.0
 11
-280.000006
 21
-152.29804
 31
0.0
  0
LINE
  5
D5F
  8
SIZE
  6
CONTINUOUS
 62
    30
 10
-125.520266
 20
-152.29804
 30
0.0
 11
-300.000006
 21
-152.29804
 31
0.0
  0
TEXT
  5
D60
  8
SIZE
  6
CONTINUOUS
 62
    30
 10
-220.663124
 20
-137.29804
 30
0.0
 40
55.0
  1
25
 41
0.9
 72
     1
 11
-180.591695
 21
-137.29804
 31
0.0
  0
LINE
  5
D61
  8
SIZE
  6
CONTINUOUS
 62
    30
 10
-325.000006
 20
-152.29804
 30
0.0
 11
-300.000006
 21
-152.29804
 31
0.0
  0
LINE
  5
D62
  8
SIZE
  6
CONTINUOUS
 62
    30
 10
-325.000006
 20
-152.29804
 30
0.0
 11
-300.000006
 21
-152.29804
 31
0.0
  0
CIRCLE
  5
D63
  8
SIZE
  6
CONTINUOUS
 62
    30
 10
-325.000006
 20
-152.29804
 30
0.0
 40
5.0
  0
LINE
  5
D64
  8
SIZE
  6
CONTINUOUS
 62
    30
 10
-330.000006
 20
-152.29804
 30
0.0
 11
-335.000006
 21
-152.29804
 31
0.0
  0
CIRCLE
  5
D65
  8
SIZE
  6
CONTINUOUS
 62
    30
 10
-300.000006
 20
-152.29804
 30
0.0
 40
5.0
  0
LINE
  5
D66
  8
SIZE
  6
CONTINUOUS
 62
    30
 10
-295.000006
 20
-152.29804
 30
0.0
 11
-290.000006
 21
-152.29804
 31
0.0
  0
POINT
  5
D67
  8
DEFPOINTS
  6
CONTINUOUS
 62
     7
 10
-325.000006
 20
8.999992
 30
0.0
  0
POINT
  5
D68
  8
DEFPOINTS
  6
CONTINUOUS
 62
     7
 10
-300.000006
 20
13.999992
 30
0.0
  0
POINT
  5
D69
  8
DEFPOINTS
  6
CONTINUOUS
 62
     7
 10
-300.000006
 20
-152.29804
 30
0.0
  0
LINE
  5
D6A
  8
BASIS
  6
DASHDOT
 62
     6
 10
0.0
 20
-57.510348
 30
0.0
 11
0.0
 21
1735.11879
 31
0.0
  0
LINE
  5
D6B
  8
SIZE
  6
CONTINUOUS
 62
    30
 10
380.000007
 20
-20.000008
 30
0.0
 11
380.000007
 21
-182.29804
 31
0.0
  0
LINE
  5
D6C
  8
SIZE
  6
CONTINUOUS
 62
    30
 10
325.000006
 20
-11.000008
 30
0.0
 11
325.000006
 21
-182.29804
 31
0.0
  0
LINE
  5
D6D
  8
SIZE
  6
CONTINUOUS
 62
    30
 10
335.000006
 20
-152.29804
 30
0.0
 11
370.000007
 21
-152.29804
 31
0.0
  0
LINE
  5
D6E
  8
SIZE
  6
CONTINUOUS
 62
    30
 10
380.000007
 20
-152.29804
 30
0.0
 11
500.142864
 21
-152.29804
 31
0.0
  0
CIRCLE
  5
D6F
  8
SIZE
  6
CONTINUOUS
 62
    30
 10
325.000006
 20
-152.29804
 30
0.0
 40
5.0
  0
LINE
  5
D70
  8
SIZE
  6
CONTINUOUS
 62
    30
 10
330.000006
 20
-152.29804
 30
0.0
 11
335.000006
 21
-152.29804
 31
0.0
  0
CIRCLE
  5
D71
  8
SIZE
  6
CONTINUOUS
 62
    30
 10
380.000007
 20
-152.29804
 30
0.0
 40
5.0
  0
LINE
  5
D72
  8
SIZE
  6
CONTINUOUS
 62
    30
 10
375.000007
 20
-152.29804
 30
0.0
 11
370.000007
 21
-152.29804
 31
0.0
  0
TEXT
  5
D73
  8
SIZE
  6
CONTINUOUS
 62
    30
 10
405.000007
 20
-137.29804
 30
0.0
 40
55.0
  1
55
 41
0.9
 72
     1
 11
445.071436
 21
-137.29804
 31
0.0
  0
POINT
  5
D74
  8
DEFPOINTS
  6
CONTINUOUS
 62
     7
 10
380.000007
 20
-0.000008
 30
0.0
  0
POINT
  5
D75
  8
DEFPOINTS
  6
CONTINUOUS
 62
     7
 10
325.000006
 20
8.999992
 30
0.0
  0
POINT
  5
D76
  8
DEFPOINTS
  6
CONTINUOUS
 62
     7
 10
325.000006
 20
-152.29804
 30
0.0
  0
LINE
  5
D77
  8
SIZE
  6
CONTINUOUS
 62
    30
 10
325.000006
 20
-11.000008
 30
0.0
 11
325.000006
 21
-182.29804
 31
0.0
  0
LINE
  5
D78
  8
SIZE
  6
CONTINUOUS
 62
    30
 10
300.000006
 20
-6.000008
 30
0.0
 11
300.000006
 21
-182.29804
 31
0.0
  0
LINE
  5
D79
  8
SIZE
  6
CONTINUOUS
 62
    30
 10
335.000006
 20
-152.29804
 30
0.0
 11
345.000006
 21
-152.29804
 31
0.0
  0
LINE
  5
D7A
  8
SIZE
  6
CONTINUOUS
 62
    30
 10
290.000006
 20
-152.29804
 30
0.0
 11
280.000006
 21
-152.29804
 31
0.0
  0
LINE
  5
D7B
  8
SIZE
  6
CONTINUOUS
 62
    30
 10
169.376393
 20
-152.29804
 30
0.0
 11
300.000006
 21
-152.29804
 31
0.0
  0
TEXT
  5
D7C
  8
SIZE
  6
CONTINUOUS
 62
    30
 10
184.376392
 20
-137.29804
 30
0.0
 40
55.0
  1
25
 41
0.9
 72
     1
 11
224.447821
 21
-137.29804
 31
0.0
  0
LINE
  5
D7D
  8
SIZE
  6
CONTINUOUS
 62
    30
 10
325.000006
 20
-152.29804
 30
0.0
 11
300.000006
 21
-152.29804
 31
0.0
  0
LINE
  5
D7E
  8
SIZE
  6
CONTINUOUS
 62
    30
 10
325.000006
 20
-152.29804
 30
0.0
 11
300.000006
 21
-152.29804
 31
0.0
  0
CIRCLE
  5
D7F
  8
SIZE
  6
CONTINUOUS
 62
    30
 10
325.000006
 20
-152.29804
 30
0.0
 40
5.0
  0
LINE
  5
D80
  8
SIZE
  6
CONTINUOUS
 62
    30
 10
330.000006
 20
-152.29804
 30
0.0
 11
335.000006
 21
-152.29804
 31
0.0
  0
CIRCLE
  5
D81
  8
SIZE
  6
CONTINUOUS
 62
    30
 10
300.000006
 20
-152.29804
 30
0.0
 40
5.0
  0
LINE
  5
D82
  8
SIZE
  6
CONTINUOUS
 62
    30
 10
295.000006
 20
-152.29804
 30
0.0
 11
290.000006
 21
-152.29804
 31
0.0
  0
POINT
  5
D83
  8
DEFPOINTS
  6
CONTINUOUS
 62
     7
 10
325.000006
 20
8.999992
 30
0.0
  0
POINT
  5
D84
  8
DEFPOINTS
  6
CONTINUOUS
 62
     7
 10
300.000006
 20
13.999992
 30
0.0
  0
POINT
  5
D85
  8
DEFPOINTS
  6
CONTINUOUS
 62
     7
 10
300.000006
 20
-152.29804
 30
0.0
  0
LINE
  5
D86
  8
NOTE
  6
CONTINUOUS
 62
     4
 10
362.000007
 20
-24.072645
 30
0.0
 11
362.000007
 21
20.810441
 31
0.0
  0
LINE
  5
D87
  8
NOTE
  6
CONTINUOUS
 62
     4
 10
380.248856
 20
-0.000008
 30
0.0
 11
343.751144
 21
-0.000008
 31
0.0
  0
CIRCLE
  5
D88
  8
FIX
  6
CONTINUOUS
 62
    11
 10
362.157716
 20
-0.000008
 30
0.0
 40
18.598564
  0
LINE
  5
D89
  8
NOTE
  6
CONTINUOUS
 62
     4
 10
-362.000007
 20
-24.072645
 30
0.0
 11
-362.000007
 21
20.810441
 31
0.0
  0
LINE
  5
D8A
  8
NOTE
  6
CONTINUOUS
 62
     4
 10
-380.248856
 20
-0.000008
 30
0.0
 11
-343.751144
 21
-0.000008
 31
0.0
  0
CIRCLE
  5
D8B
  8
FIX
  6
CONTINUOUS
 62
    11
 10
-362.157716
 20
-0.000008
 30
0.0
 40
18.598564
  0
LINE
  5
D8C
  8
SIZE
  6
CONTINUOUS
 62
    30
 10
-380.000007
 20
-20.000008
 30
0.0
 11
-380.000007
 21
-404.118069
 31
0.0
  0
LINE
  5
D8D
  8
SIZE
  6
CONTINUOUS
 62
    30
 10
-362.000007
 20
-44.072645
 30
0.0
 11
-362.000007
 21
-404.118069
 31
0.0
  0
LINE
  5
D8E
  8
SIZE
  6
CONTINUOUS
 62
    30
 10
-352.000007
 20
-374.118069
 30
0.0
 11
-342.000007
 21
-374.118069
 31
0.0
  0
LINE
  5
D8F
  8
SIZE
  6
CONTINUOUS
 62
    30
 10
-390.000007
 20
-374.118069
 30
0.0
 11
-500.714293
 21
-374.118069
 31
0.0
  0
LINE
  5
D90
  8
SIZE
  6
CONTINUOUS
 62
    30
 10
-362.000007
 20
-374.118069
 30
0.0
 11
-380.000007
 21
-374.118069
 31
0.0
  0
CIRCLE
  5
D91
  8
SIZE
  6
CONTINUOUS
 62
    30
 10
-362.000007
 20
-374.118069
 30
0.0
 40
5.0
  0
LINE
  5
D92
  8
SIZE
  6
CONTINUOUS
 62
    30
 10
-357.000007
 20
-374.118069
 30
0.0
 11
-352.000007
 21
-374.118069
 31
0.0
  0
CIRCLE
  5
D93
  8
SIZE
  6
CONTINUOUS
 62
    30
 10
-380.000007
 20
-374.118069
 30
0.0
 40
5.0
  0
LINE
  5
D94
  8
SIZE
  6
CONTINUOUS
 62
    30
 10
-385.000007
 20
-374.118069
 30
0.0
 11
-390.000007
 21
-374.118069
 31
0.0
  0
TEXT
  5
D95
  8
SIZE
  6
CONTINUOUS
 62
    30
 10
-485.714293
 20
-359.118069
 30
0.0
 40
55.0
  1
18
 41
0.9
 72
     1
 11
-450.35715
 21
-359.118069
 31
0.0
  0
POINT
  5
D96
  8
DEFPOINTS
  6
CONTINUOUS
 62
     7
 10
-380.000007
 20
-0.000008
 30
0.0
  0
POINT
  5
D97
  8
DEFPOINTS
  6
CONTINUOUS
 62
     7
 10
-362.000007
 20
-24.072645
 30
0.0
  0
POINT
  5
D98
  8
DEFPOINTS
  6
CONTINUOUS
 62
     7
 10
-362.000007
 20
-374.118069
 30
0.0
  0
LINE
  5
D99
  8
SIZE
  6
CONTINUOUS
 62
    30
 10
-362.000007
 20
-44.072645
 30
0.0
 11
-362.000007
 21
-404.118069
 31
0.0
  0
LINE
  5
D9A
  8
SIZE
  6
CONTINUOUS
 62
    30
 10
362.000007
 20
-44.072645
 30
0.0
 11
362.000007
 21
-404.118069
 31
0.0
  0
LINE
  5
D9B
  8
SIZE
  6
CONTINUOUS
 62
    30
 10
-352.000007
 20
-374.118069
 30
0.0
 11
352.000007
 21
-374.118069
 31
0.0
  0
CIRCLE
  5
D9C
  8
SIZE
  6
CONTINUOUS
 62
    30
 10
-362.000007
 20
-374.118069
 30
0.0
 40
5.0
  0
LINE
  5
D9D
  8
SIZE
  6
CONTINUOUS
 62
    30
 10
-357.000007
 20
-374.118069
 30
0.0
 11
-352.000007
 21
-374.118069
 31
0.0
  0
CIRCLE
  5
D9E
  8
SIZE
  6
CONTINUOUS
 62
    30
 10
362.000007
 20
-374.118069
 30
0.0
 40
5.0
  0
LINE
  5
D9F
  8
SIZE
  6
CONTINUOUS
 62
    30
 10
357.000007
 20
-374.118069
 30
0.0
 11
352.000007
 21
-374.118069
 31
0.0
  0
TEXT
  5
DA0
  8
SIZE
  6
CONTINUOUS
 62
    30
 10
-276.964286
 20
-359.713307
 30
0.0
 40
55.0
  1
(724)(据付ピッチ)
 41
0.9
 72
     1
 11
0.0
 21
-359.713307
 31
0.0
  0
POINT
  5
DA1
  8
DEFPOINTS
  6
CONTINUOUS
 62
     7
 10
-362.000007
 20
-24.072645
 30
0.0
  0
POINT
  5
DA2
  8
DEFPOINTS
  6
CONTINUOUS
 62
     7
 10
362.000007
 20
-24.072645
 30
0.0
  0
POINT
  5
DA3
  8
DEFPOINTS
  6
CONTINUOUS
 62
     7
 10
362.000007
 20
-374.118069
 30
0.0
  0
LINE
  5
DA4
  8
SIZE
  6
CONTINUOUS
 62
    30
 10
362.000007
 20
-44.072645
 30
0.0
 11
362.000007
 21
-404.118069
 31
0.0
  0
LINE
  5
DA5
  8
SIZE
  6
CONTINUOUS
 62
    30
 10
380.000007
 20
-20.000008
 30
0.0
 11
380.000007
 21
-404.118069
 31
0.0
  0
LINE
  5
DA6
  8
SIZE
  6
CONTINUOUS
 62
    30
 10
352.000007
 20
-374.118069
 30
0.0
 11
342.000007
 21
-374.118069
 31
0.0
  0
LINE
  5
DA7
  8
SIZE
  6
CONTINUOUS
 62
    30
 10
390.000007
 20
-374.118069
 30
0.0
 11
400.000007
 21
-374.118069
 31
0.0
  0
LINE
  5
DA8
  8
SIZE
  6
CONTINUOUS
 62
    30
 10
509.324316
 20
-374.118069
 30
0.0
 11
380.000007
 21
-374.118069
 31
0.0
  0
TEXT
  5
DA9
  8
SIZE
  6
CONTINUOUS
 62
    30
 10
423.61003
 20
-359.118069
 30
0.0
 40
55.0
  1
18
 41
0.9
 72
     1
 11
458.967173
 21
-359.118069
 31
0.0
  0
LINE
  5
DAA
  8
SIZE
  6
CONTINUOUS
 62
    30
 10
362.000007
 20
-374.118069
 30
0.0
 11
380.000007
 21
-374.118069
 31
0.0
  0
LINE
  5
DAB
  8
SIZE
  6
CONTINUOUS
 62
    30
 10
362.000007
 20
-374.118069
 30
0.0
 11
380.000007
 21
-374.118069
 31
0.0
  0
CIRCLE
  5
DAC
  8
SIZE
  6
CONTINUOUS
 62
    30
 10
362.000007
 20
-374.118069
 30
0.0
 40
5.0
  0
LINE
  5
DAD
  8
SIZE
  6
CONTINUOUS
 62
    30
 10
357.000007
 20
-374.118069
 30
0.0
 11
352.000007
 21
-374.118069
 31
0.0
  0
CIRCLE
  5
DAE
  8
SIZE
  6
CONTINUOUS
 62
    30
 10
380.000007
 20
-374.118069
 30
0.0
 40
5.0
  0
LINE
  5
DAF
  8
SIZE
  6
CONTINUOUS
 62
    30
 10
385.000007
 20
-374.118069
 30
0.0
 11
390.000007
 21
-374.118069
 31
0.0
  0
POINT
  5
DB0
  8
DEFPOINTS
  6
CONTINUOUS
 62
     7
 10
362.000007
 20
-24.072645
 30
0.0
  0
POINT
  5
DB1
  8
DEFPOINTS
  6
CONTINUOUS
 62
     7
 10
380.000007
 20
-0.000008
 30
0.0
  0
POINT
  5
DB2
  8
DEFPOINTS
  6
CONTINUOUS
 62
     7
 10
380.000007
 20
-374.118069
 30
0.0
  0
LINE
  5
DB3
  8
SIZE
  6
CONTINUOUS
 62
    30
 10
380.000007
 20
-20.000008
 30
0.0
 11
380.000007
 21
-563.27225
 31
0.0
  0
LINE
  5
DB4
  8
SIZE
  6
CONTINUOUS
 62
    30
 10
-380.000007
 20
-20.000008
 30
0.0
 11
-380.000007
 21
-563.27225
 31
0.0
  0
LINE
  5
DB5
  8
SIZE
  6
CONTINUOUS
 62
    30
 10
370.000007
 20
-533.27225
 30
0.0
 11
-370.000007
 21
-533.27225
 31
0.0
  0
CIRCLE
  5
DB6
  8
SIZE
  6
CONTINUOUS
 62
    30
 10
380.000007
 20
-533.27225
 30
0.0
 40
5.0
  0
LINE
  5
DB7
  8
SIZE
  6
CONTINUOUS
 62
    30
 10
375.000007
 20
-533.27225
 30
0.0
 11
370.000007
 21
-533.27225
 31
0.0
  0
CIRCLE
  5
DB8
  8
SIZE
  6
CONTINUOUS
 62
    30
 10
-380.000007
 20
-533.27225
 30
0.0
 40
5.0
  0
LINE
  5
DB9
  8
SIZE
  6
CONTINUOUS
 62
    30
 10
-375.000007
 20
-533.27225
 30
0.0
 11
-370.000007
 21
-533.27225
 31
0.0
  0
TEXT
  5
DBA
  8
SIZE
  6
CONTINUOUS
 62
    30
 10
-63.642857
 20
-518.27225
 30
0.0
 40
55.0
  1
760
 41
0.9
 72
     1
 11
0.0
 21
-518.27225
 31
0.0
  0
POINT
  5
DBB
  8
DEFPOINTS
  6
CONTINUOUS
 62
     7
 10
380.000007
 20
-0.000008
 30
0.0
  0
POINT
  5
DBC
  8
DEFPOINTS
  6
CONTINUOUS
 62
     7
 10
-380.000007
 20
-0.000008
 30
0.0
  0
POINT
  5
DBD
  8
DEFPOINTS
  6
CONTINUOUS
 62
     7
 10
-380.000007
 20
-533.27225
 30
0.0
  0
ARC
  5
DBE
  8
OUTLINE
  6
CONTINUOUS
 62
     3
 10
-374.300007
 20
55.499993
 30
0.0
 40
1.0
 50
180.0
 51
270.0
  0
ARC
  5
DBF
  8
OUTLINE
  6
CONTINUOUS
 62
     3
 10
326.02841
 20
1630.500022
 30
0.0
 40
10.0
 50
32.025932
 51
90.0
  0
ARC
  5
DC0
  8
OUTLINE
  6
CONTINUOUS
 62
     3
 10
186.140059
 20
1543.000021
 30
0.0
 40
175.000003
 50
2.29642
 51
32.025932
  0
ARC
  5
DC1
  8
OUTLINE
  6
CONTINUOUS
 62
     3
 10
-186.140059
 20
1543.000021
 30
0.0
 40
175.000003
 50
147.974068
 51
177.70358
  0
ARC
  5
DC2
  8
OUTLINE
  6
CONTINUOUS
 62
     3
 10
-326.02841
 20
1630.500022
 30
0.0
 40
10.0
 50
90.0
 51
147.974068
  0
ARC
  5
DC3
  8
OUTLINE
  6
CONTINUOUS
 62
     3
 10
-284.6077
 20
50.999993
 30
0.0
 40
5.0
 50
210.0
 51
270.0
  0
ARC
  5
DC4
  8
OUTLINE
  6
CONTINUOUS
 62
     3
 10
-295.000003
 20
48.999997
 30
0.0
 40
4.999998
 50
29.999971
 51
90.0
  0
ARC
  5
DC5
  8
OUTLINE
  6
CONTINUOUS
 62
     3
 10
285.426005
 20
48.999993
 30
0.0
 40
3.0
 50
270.0
 51
333.731397
  0
ARC
  5
DC6
  8
OUTLINE
  6
CONTINUOUS
 62
     3
 10
366.500006
 20
64.495249
 30
0.0
 40
8.0
 50
273.731401
 51
316.600916
  0
ARC
  5
DC7
  8
OUTLINE
  6
CONTINUOUS
 62
     3
 10
293.104088
 20
50.999993
 30
0.0
 40
3.0
 50
90.0
 51
153.731397
  0
ARC
  5
DC8
  8
OUTLINE
  6
CONTINUOUS
 62
     3
 10
-366.500006
 20
64.495249
 30
0.0
 40
8.0
 50
223.399084
 51
266.268599
  0
ARC
  5
DC9
  8
OUTLINE
  6
CONTINUOUS
 62
     3
 10
-374.300007
 20
55.499993
 30
0.0
 40
0.2
 50
180.0
 51
270.0
  0
ARC
  5
DCA
  8
OUTLINE
  6
CONTINUOUS
 62
     3
 10
-326.000006
 20
48.299993
 30
0.0
 40
1.0
 50
270.0
 51
0.0
  0
ARC
  5
DCB
  8
OUTLINE
  6
CONTINUOUS
 62
     3
 10
-326.000006
 20
11.699992
 30
0.0
 40
1.0
 50
0.0
 51
90.0
  0
ARC
  5
DCC
  8
OUTLINE
  6
CONTINUOUS
 62
     3
 10
-305.000006
 20
13.999992
 30
0.0
 40
5.0
 50
270.0
 51
0.0
  0
ARC
  5
DCD
  8
OUTLINE
  6
CONTINUOUS
 62
     3
 10
-321.000006
 20
49.999993
 30
0.0
 40
4.0
 50
90.0
 51
180.0
  0
ARC
  5
DCE
  8
OUTLINE
  6
CONTINUOUS
 62
     3
 10
326.000006
 20
11.699992
 30
0.0
 40
1.0
 50
90.0
 51
180.0
  0
ARC
  5
DCF
  8
OUTLINE
  6
CONTINUOUS
 62
     3
 10
326.000006
 20
48.299993
 30
0.0
 40
1.0
 50
180.0
 51
270.0
  0
ARC
  5
DD0
  8
OUTLINE
  6
CONTINUOUS
 62
     3
 10
305.000006
 20
13.999992
 30
0.0
 40
5.0
 50
180.0
 51
270.0
  0
ARC
  5
DD1
  8
OUTLINE
  6
CONTINUOUS
 62
     3
 10
321.000006
 20
49.999993
 30
0.0
 40
4.0
 50
0.0
 51
90.0
  0
LINE
  5
DD2
  8
OUTLINE
  6
CONTINUOUS
 62
     3
 10
-80.000001
 20
1650.000023
 30
0.0
 11
80.000001
 21
1650.000023
 31
0.0
  0
LINE
  5
DD3
  8
OUTLINE
  6
CONTINUOUS
 62
     3
 10
-288.937828
 20
48.499993
 30
0.0
 11
-290.669878
 21
51.499993
 31
0.0
  0
LINE
  5
DD4
  8
OUTLINE
  6
CONTINUOUS
 62
     3
 10
-366.875504
 20
1416.070994
 30
0.0
 11
-366.820243
 21
1416.694685
 31
0.0
  0
LINE
  5
DD5
  8
OUTLINE
  6
CONTINUOUS
 62
     3
 10
-367.020435
 20
1415.310887
 30
0.0
 11
-366.875504
 21
1416.070994
 31
0.0
  0
LINE
  5
DD6
  8
OUTLINE
  6
CONTINUOUS
 62
     3
 10
-367.248377
 20
1414.571421
 30
0.0
 11
-367.020435
 21
1415.310887
 31
0.0
  0
LINE
  5
DD7
  8
OUTLINE
  6
CONTINUOUS
 62
     3
 10
-367.556544
 20
1413.861631
 30
0.0
 11
-367.248377
 21
1414.571421
 31
0.0
  0
LINE
  5
DD8
  8
OUTLINE
  6
CONTINUOUS
 62
     3
 10
-367.94117
 20
1413.190192
 30
0.0
 11
-367.556544
 21
1413.861631
 31
0.0
  0
LINE
  5
DD9
  8
OUTLINE
  6
CONTINUOUS
 62
     3
 10
-368.397556
 20
1412.565308
 30
0.0
 11
-367.94117
 21
1413.190192
 31
0.0
  0
LINE
  5
DDA
  8
OUTLINE
  6
CONTINUOUS
 62
     3
 10
-368.920124
 20
1411.994615
 30
0.0
 11
-368.397556
 21
1412.565308
 31
0.0
  0
LINE
  5
DDB
  8
OUTLINE
  6
CONTINUOUS
 62
     3
 10
-369.502488
 20
1411.485087
 30
0.0
 11
-368.920124
 21
1411.994615
 31
0.0
  0
LINE
  5
DDC
  8
OUTLINE
  6
CONTINUOUS
 62
     3
 10
-370.137534
 20
1411.04295
 30
0.0
 11
-369.502488
 21
1411.485087
 31
0.0
  0
LINE
  5
DDD
  8
OUTLINE
  6
CONTINUOUS
 62
     3
 10
-370.817499
 20
1410.673606
 30
0.0
 11
-370.137534
 21
1411.04295
 31
0.0
  0
LINE
  5
DDE
  8
OUTLINE
  6
CONTINUOUS
 62
     3
 10
-371.534077
 20
1410.38157
 30
0.0
 11
-370.817499
 21
1410.673606
 31
0.0
  0
LINE
  5
DDF
  8
OUTLINE
  6
CONTINUOUS
 62
     3
 10
-372.278509
 20
1410.17041
 30
0.0
 11
-371.534077
 21
1410.38157
 31
0.0
  0
LINE
  5
DE0
  8
OUTLINE
  6
CONTINUOUS
 62
     3
 10
-373.041699
 20
1410.042706
 30
0.0
 11
-372.278509
 21
1410.17041
 31
0.0
  0
LINE
  5
DE1
  8
OUTLINE
  6
CONTINUOUS
 62
     3
 10
-373.813584
 20
1410.000018
 30
0.0
 11
-373.041699
 21
1410.042706
 31
0.0
  0
LINE
  5
DE2
  8
OUTLINE
  6
CONTINUOUS
 62
     3
 10
-380.000007
 20
1370.000017
 30
0.0
 11
-380.000007
 21
1410.000018
 31
0.0
  0
LINE
  5
DE3
  8
OUTLINE
  6
CONTINUOUS
 62
     3
 10
-375.500007
 20
58.999993
 30
0.0
 11
-375.500007
 21
1370.000017
 31
0.0
  0
LINE
  5
DE4
  8
OUTLINE
  6
CONTINUOUS
 62
     3
 10
-375.300007
 20
58.999993
 30
0.0
 11
-375.300007
 21
55.499993
 31
0.0
  0
LINE
  5
DE5
  8
OUTLINE
  6
CONTINUOUS
 62
     3
 10
-374.500007
 20
58.999993
 30
0.0
 11
-374.500007
 21
55.499993
 31
0.0
  0
LINE
  5
DE6
  8
OUTLINE
  6
CONTINUOUS
 62
     3
 10
-360.999525
 20
1550.012159
 30
0.0
 11
-366.820202
 21
1416.69564
 31
0.0
  0
LINE
  5
DE7
  8
OUTLINE
  6
CONTINUOUS
 62
     3
 10
-368.300007
 20
55.299993
 30
0.0
 11
-368.300007
 21
54.499993
 31
0.0
  0
LINE
  5
DE8
  8
OUTLINE
  6
CONTINUOUS
 62
     3
 10
-328.000006
 20
12.699992
 30
0.0
 11
-328.000006
 21
47.299993
 31
0.0
  0
LINE
  5
DE9
  8
OUTLINE
  6
CONTINUOUS
 62
     3
 10
-325.000006
 20
49.999993
 30
0.0
 11
-325.000006
 21
47.299993
 31
0.0
  0
LINE
  5
DEA
  8
OUTLINE
  6
CONTINUOUS
 62
     3
 10
-322.700006
 20
7.299992
 30
0.0
 11
-322.700006
 21
8.999992
 31
0.0
  0
LINE
  5
DEB
  8
OUTLINE
  6
CONTINUOUS
 62
     3
 10
-320.000006
 20
1641.600022
 30
0.0
 11
-320.000006
 21
1640.500022
 31
0.0
  0
LINE
  5
DEC
  8
OUTLINE
  6
CONTINUOUS
 62
     3
 10
-300.000006
 20
1642.300022
 30
0.0
 11
-300.000006
 21
1641.600022
 31
0.0
  0
LINE
  5
DED
  8
OUTLINE
  6
CONTINUOUS
 62
     3
 10
-300.000006
 20
13.999992
 30
0.0
 11
-300.000006
 21
53.999993
 31
0.0
  0
LINE
  5
DEE
  8
OUTLINE
  6
CONTINUOUS
 62
     3
 10
-280.000005
 20
1643.000022
 30
0.0
 11
-280.000005
 21
1642.300022
 31
0.0
  0
LINE
  5
DEF
  8
OUTLINE
  6
CONTINUOUS
 62
     3
 10
-260.000005
 20
1643.700022
 30
0.0
 11
-260.000005
 21
1643.000022
 31
0.0
  0
LINE
  5
DF0
  8
OUTLINE
  6
CONTINUOUS
 62
     3
 10
-240.000004
 20
1644.400022
 30
0.0
 11
-240.000004
 21
1643.700022
 31
0.0
  0
LINE
  5
DF1
  8
OUTLINE
  6
CONTINUOUS
 62
     3
 10
-220.000004
 20
1645.100022
 30
0.0
 11
-220.000004
 21
1644.400022
 31
0.0
  0
LINE
  5
DF2
  8
OUTLINE
  6
CONTINUOUS
 62
     3
 10
-200.000004
 20
1645.800022
 30
0.0
 11
-200.000004
 21
1645.100022
 31
0.0
  0
LINE
  5
DF3
  8
OUTLINE
  6
CONTINUOUS
 62
     3
 10
-180.000003
 20
1646.500022
 30
0.0
 11
-180.000003
 21
1645.800022
 31
0.0
  0
LINE
  5
DF4
  8
OUTLINE
  6
CONTINUOUS
 62
     3
 10
-160.000003
 20
1647.200022
 30
0.0
 11
-160.000003
 21
1646.500022
 31
0.0
  0
LINE
  5
DF5
  8
OUTLINE
  6
CONTINUOUS
 62
     3
 10
-140.000003
 20
1647.900022
 30
0.0
 11
-140.000003
 21
1647.200022
 31
0.0
  0
LINE
  5
DF6
  8
OUTLINE
  6
CONTINUOUS
 62
     3
 10
-120.000002
 20
1648.600022
 30
0.0
 11
-120.000002
 21
1647.900022
 31
0.0
  0
LINE
  5
DF7
  8
OUTLINE
  6
CONTINUOUS
 62
     3
 10
-100.000002
 20
1649.300023
 30
0.0
 11
-100.000002
 21
1648.600022
 31
0.0
  0
LINE
  5
DF8
  8
OUTLINE
  6
CONTINUOUS
 62
     3
 10
-80.000001
 20
1649.300023
 30
0.0
 11
-80.000001
 21
1650.000023
 31
0.0
  0
LINE
  5
DF9
  8
OUTLINE
  6
CONTINUOUS
 62
     3
 10
80.000001
 20
1649.300023
 30
0.0
 11
80.000001
 21
1650.000023
 31
0.0
  0
LINE
  5
DFA
  8
OUTLINE
  6
CONTINUOUS
 62
     3
 10
100.000002
 20
1649.300023
 30
0.0
 11
100.000002
 21
1648.600022
 31
0.0
  0
LINE
  5
DFB
  8
OUTLINE
  6
CONTINUOUS
 62
     3
 10
120.000002
 20
1648.600022
 30
0.0
 11
120.000002
 21
1647.900022
 31
0.0
  0
LINE
  5
DFC
  8
OUTLINE
  6
CONTINUOUS
 62
     3
 10
140.000003
 20
1647.900022
 30
0.0
 11
140.000003
 21
1647.200022
 31
0.0
  0
LINE
  5
DFD
  8
OUTLINE
  6
CONTINUOUS
 62
     3
 10
160.000003
 20
1647.200022
 30
0.0
 11
160.000003
 21
1646.500022
 31
0.0
  0
LINE
  5
DFE
  8
OUTLINE
  6
CONTINUOUS
 62
     3
 10
180.000003
 20
1646.500022
 30
0.0
 11
180.000003
 21
1645.800022
 31
0.0
  0
LINE
  5
DFF
  8
OUTLINE
  6
CONTINUOUS
 62
     3
 10
200.000004
 20
1645.800022
 30
0.0
 11
200.000004
 21
1645.100022
 31
0.0
  0
LINE
  5
E00
  8
OUTLINE
  6
CONTINUOUS
 62
     3
 10
220.000004
 20
1645.100022
 30
0.0
 11
220.000004
 21
1644.400022
 31
0.0
  0
LINE
  5
E01
  8
OUTLINE
  6
CONTINUOUS
 62
     3
 10
240.000004
 20
1644.400022
 30
0.0
 11
240.000004
 21
1643.700022
 31
0.0
  0
LINE
  5
E02
  8
OUTLINE
  6
CONTINUOUS
 62
     3
 10
260.000005
 20
1643.700022
 30
0.0
 11
260.000005
 21
1643.000022
 31
0.0
  0
LINE
  5
E03
  8
OUTLINE
  6
CONTINUOUS
 62
     3
 10
280.000005
 20
1643.000022
 30
0.0
 11
280.000005
 21
1642.300022
 31
0.0
  0
LINE
  5
E04
  8
OUTLINE
  6
CONTINUOUS
 62
     3
 10
300.000006
 20
53.999993
 30
0.0
 11
300.000006
 21
13.999992
 31
0.0
  0
LINE
  5
E05
  8
OUTLINE
  6
CONTINUOUS
 62
     3
 10
300.000006
 20
1642.300022
 30
0.0
 11
300.000006
 21
1641.600022
 31
0.0
  0
LINE
  5
E06
  8
OUTLINE
  6
CONTINUOUS
 62
     3
 10
320.000006
 20
1641.600022
 30
0.0
 11
320.000006
 21
1640.500022
 31
0.0
  0
LINE
  5
E07
  8
OUTLINE
  6
CONTINUOUS
 62
     3
 10
322.700006
 20
7.299992
 30
0.0
 11
322.700006
 21
8.999992
 31
0.0
  0
LINE
  5
E08
  8
OUTLINE
  6
CONTINUOUS
 62
     3
 10
325.000006
 20
49.999993
 30
0.0
 11
325.000006
 21
47.299993
 31
0.0
  0
LINE
  5
E09
  8
OUTLINE
  6
CONTINUOUS
 62
     3
 10
328.000006
 20
12.699992
 30
0.0
 11
328.000006
 21
47.299993
 31
0.0
  0
LINE
  5
E0A
  8
OUTLINE
  6
CONTINUOUS
 62
     3
 10
366.778446
 20
1417.652001
 30
0.0
 11
360.999525
 21
1550.012159
 31
0.0
  0
LINE
  5
E0B
  8
OUTLINE
  6
CONTINUOUS
 62
     3
 10
375.700007
 20
58.999993
 30
0.0
 11
375.700007
 21
1370.000017
 31
0.0
  0
LINE
  5
E0C
  8
OUTLINE
  6
CONTINUOUS
 62
     3
 10
380.000007
 20
1410.000018
 30
0.0
 11
380.000007
 21
1370.000017
 31
0.0
  0
LINE
  5
E0D
  8
OUTLINE
  6
CONTINUOUS
 62
     3
 10
373.134521
 20
1410.169159
 30
0.0
 11
373.948742
 21
1410.042374
 31
0.0
  0
LINE
  5
E0E
  8
OUTLINE
  6
CONTINUOUS
 62
     3
 10
372.337661
 20
1410.379029
 30
0.0
 11
373.134521
 21
1410.169159
 31
0.0
  0
LINE
  5
E0F
  8
OUTLINE
  6
CONTINUOUS
 62
     3
 10
371.566617
 20
1410.669757
 30
0.0
 11
372.337661
 21
1410.379029
 31
0.0
  0
LINE
  5
E10
  8
OUTLINE
  6
CONTINUOUS
 62
     3
 10
370.82957
 20
1411.038257
 30
0.0
 11
371.566617
 21
1410.669757
 31
0.0
  0
LINE
  5
E11
  8
OUTLINE
  6
CONTINUOUS
 62
     3
 10
370.134339
 20
1411.480621
 30
0.0
 11
370.82957
 21
1411.038257
 31
0.0
  0
LINE
  5
E12
  8
OUTLINE
  6
CONTINUOUS
 62
     3
 10
369.488302
 20
1411.992154
 30
0.0
 11
370.134339
 21
1411.480621
 31
0.0
  0
LINE
  5
E13
  8
OUTLINE
  6
CONTINUOUS
 62
     3
 10
368.898312
 20
1412.56743
 30
0.0
 11
369.488302
 21
1411.992154
 31
0.0
  0
LINE
  5
E14
  8
OUTLINE
  6
CONTINUOUS
 62
     3
 10
368.370628
 20
1413.200345
 30
0.0
 11
368.898312
 21
1412.56743
 31
0.0
  0
LINE
  5
E15
  8
OUTLINE
  6
CONTINUOUS
 62
     3
 10
367.910851
 20
1413.884184
 30
0.0
 11
368.370628
 21
1413.200345
 31
0.0
  0
LINE
  5
E16
  8
OUTLINE
  6
CONTINUOUS
 62
     3
 10
367.523857
 20
1414.611692
 30
0.0
 11
367.910851
 21
1413.884184
 31
0.0
  0
LINE
  5
E17
  8
OUTLINE
  6
CONTINUOUS
 62
     3
 10
367.213753
 20
1415.375149
 30
0.0
 11
367.523857
 21
1414.611692
 31
0.0
  0
LINE
  5
E18
  8
OUTLINE
  6
CONTINUOUS
 62
     3
 10
366.98383
 20
1416.166455
 30
0.0
 11
367.213753
 21
1415.375149
 31
0.0
  0
LINE
  5
E19
  8
OUTLINE
  6
CONTINUOUS
 62
     3
 10
366.836525
 20
1416.977216
 30
0.0
 11
366.98383
 21
1416.166455
 31
0.0
  0
LINE
  5
E1A
  8
OUTLINE
  6
CONTINUOUS
 62
     3
 10
366.778487
 20
1417.651066
 30
0.0
 11
366.836525
 21
1416.977216
 31
0.0
  0
LINE
  5
E1B
  8
OUTLINE
  6
CONTINUOUS
 62
     3
 10
290.4139
 20
52.327733
 30
0.0
 11
288.116192
 21
47.672253
 31
0.0
  0
LINE
  5
E1C
  8
OUTLINE
  6
CONTINUOUS
 62
     3
 10
-176.500003
 20
58.999993
 30
0.0
 11
-375.500007
 21
58.999993
 31
0.0
  0
LINE
  5
E1D
  8
OUTLINE
  6
CONTINUOUS
 62
     3
 10
375.700007
 20
58.999993
 30
0.0
 11
313.500006
 21
58.999993
 31
0.0
  0
LINE
  5
E1E
  8
OUTLINE
  6
CONTINUOUS
 62
     3
 10
-368.300007
 20
55.299993
 30
0.0
 11
-374.300007
 21
55.299993
 31
0.0
  0
LINE
  5
E1F
  8
OUTLINE
  6
CONTINUOUS
 62
     3
 10
-374.300007
 20
54.499993
 30
0.0
 11
-368.300007
 21
54.499993
 31
0.0
  0
LINE
  5
E20
  8
OUTLINE
  6
CONTINUOUS
 62
     3
 10
293.104088
 20
53.999993
 30
0.0
 11
328.500006
 21
53.999993
 31
0.0
  0
LINE
  5
E21
  8
OUTLINE
  6
CONTINUOUS
 62
     3
 10
-328.500006
 20
53.999993
 30
0.0
 11
-295.000005
 21
53.999993
 31
0.0
  0
LINE
  5
E22
  8
OUTLINE
  6
CONTINUOUS
 62
     3
 10
326.000006
 20
47.299993
 30
0.0
 11
328.000006
 21
47.299993
 31
0.0
  0
LINE
  5
E23
  8
OUTLINE
  6
CONTINUOUS
 62
     3
 10
-326.000006
 20
47.299993
 30
0.0
 11
-328.000006
 21
47.299993
 31
0.0
  0
LINE
  5
E24
  8
OUTLINE
  6
CONTINUOUS
 62
     3
 10
-284.6077
 20
45.999993
 30
0.0
 11
285.426005
 21
45.999993
 31
0.0
  0
LINE
  5
E25
  8
OUTLINE
  6
CONTINUOUS
 62
     3
 10
328.591637
 20
54.005969
 30
0.0
 11
329.016906
 21
54.066248
 31
0.0
  0
LINE
  5
E26
  8
OUTLINE
  6
CONTINUOUS
 62
     3
 10
367.02064
 20
56.512208
 30
0.0
 11
328.500006
 21
53.999993
 31
0.0
  0
LINE
  5
E27
  8
OUTLINE
  6
CONTINUOUS
 62
     3
 10
326.000006
 20
12.699992
 30
0.0
 11
328.000006
 21
12.699992
 31
0.0
  0
LINE
  5
E28
  8
OUTLINE
  6
CONTINUOUS
 62
     3
 10
-326.000006
 20
12.699992
 30
0.0
 11
-328.000006
 21
12.699992
 31
0.0
  0
LINE
  5
E29
  8
OUTLINE
  6
CONTINUOUS
 62
     3
 10
305.000006
 20
8.999992
 30
0.0
 11
322.90071
 21
8.999992
 31
0.0
  0
LINE
  5
E2A
  8
OUTLINE
  6
CONTINUOUS
 62
     3
 10
-322.90071
 20
8.999992
 30
0.0
 11
-305.000006
 21
8.999992
 31
0.0
  0
LINE
  5
E2B
  8
OUTLINE
  6
CONTINUOUS
 62
     3
 10
-367.02064
 20
56.512208
 30
0.0
 11
-328.500006
 21
53.999993
 31
0.0
  0
LINE
  5
E2C
  8
OUTLINE
  6
CONTINUOUS
 62
     3
 10
-380.000007
 20
-0.000008
 30
0.0
 11
-330.000006
 21
-0.000008
 31
0.0
  0
LINE
  5
E2D
  8
OUTLINE
  6
CONTINUOUS
 62
     3
 10
-380.000007
 20
2.299992
 30
0.0
 11
-330.000006
 21
2.299992
 31
0.0
  0
ARC
  5
E2E
  8
OUTLINE
  6
CONTINUOUS
 62
     3
 10
-330.000006
 20
7.299992
 30
0.0
 40
5.0
 50
270.0
 51
0.0
  0
ARC
  5
E2F
  8
OUTLINE
  6
CONTINUOUS
 62
     3
 10
-330.000006
 20
7.299992
 30
0.0
 40
7.3
 50
270.0
 51
0.0
  0
LINE
  5
E30
  8
OUTLINE
  6
CONTINUOUS
 62
     3
 10
-380.000007
 20
2.299992
 30
0.0
 11
-380.000007
 21
-0.000008
 31
0.0
  0
LINE
  5
E31
  8
OUTLINE
  6
CONTINUOUS
 62
     3
 10
380.000007
 20
2.299992
 30
0.0
 11
380.000007
 21
-0.000008
 31
0.0
  0
LINE
  5
E32
  8
OUTLINE
  6
CONTINUOUS
 62
     3
 10
330.000006
 20
-0.000008
 30
0.0
 11
380.000007
 21
-0.000008
 31
0.0
  0
LINE
  5
E33
  8
OUTLINE
  6
CONTINUOUS
 62
     3
 10
330.000006
 20
2.299992
 30
0.0
 11
380.000007
 21
2.299992
 31
0.0
  0
ARC
  5
E34
  8
OUTLINE
  6
CONTINUOUS
 62
     3
 10
330.000006
 20
7.299992
 30
0.0
 40
5.0
 50
180.0
 51
270.0
  0
ARC
  5
E35
  8
OUTLINE
  6
CONTINUOUS
 62
     3
 10
330.000006
 20
7.299992
 30
0.0
 40
7.3
 50
180.0
 51
270.0
  0
LINE
  5
E36
  8
OUTLINE
  6
CONTINUOUS
 62
     3
 10
380.000007
 20
1410.000018
 30
0.0
 11
373.134521
 21
1410.169159
 31
0.0
  0
LINE
  5
E37
  8
OUTLINE
  6
CONTINUOUS
 62
     3
 10
380.000007
 20
1370.000017
 30
0.0
 11
375.700007
 21
1370.000017
 31
0.0
  0
LINE
  5
E38
  8
OUTLINE
  6
CONTINUOUS
 62
     3
 10
-380.000007
 20
1410.000018
 30
0.0
 11
-373.813584
 21
1410.000018
 31
0.0
  0
LINE
  5
E39
  8
OUTLINE
  6
CONTINUOUS
 62
     3
 10
-380.000007
 20
1370.000017
 30
0.0
 11
-375.500007
 21
1370.000017
 31
0.0
  0
LINE
  5
E3A
  8
OUTLINE
  6
CONTINUOUS
 62
     3
 10
326.02841
 20
1640.500022
 30
0.0
 11
320.000006
 21
1640.500022
 31
0.0
  0
LINE
  5
E3B
  8
OUTLINE
  6
CONTINUOUS
 62
     3
 10
320.000006
 20
1640.500022
 30
0.0
 11
320.000006
 21
1641.600022
 31
0.0
  0
LINE
  5
E3C
  8
OUTLINE
  6
CONTINUOUS
 62
     3
 10
320.000006
 20
1641.600022
 30
0.0
 11
300.000006
 21
1641.600022
 31
0.0
  0
LINE
  5
E3D
  8
OUTLINE
  6
CONTINUOUS
 62
     3
 10
300.000006
 20
1642.300022
 30
0.0
 11
280.000005
 21
1642.300022
 31
0.0
  0
LINE
  5
E3E
  8
OUTLINE
  6
CONTINUOUS
 62
     3
 10
280.000005
 20
1643.000022
 30
0.0
 11
260.000005
 21
1643.000022
 31
0.0
  0
LINE
  5
E3F
  8
OUTLINE
  6
CONTINUOUS
 62
     3
 10
260.000005
 20
1643.700022
 30
0.0
 11
240.000004
 21
1643.700022
 31
0.0
  0
LINE
  5
E40
  8
OUTLINE
  6
CONTINUOUS
 62
     3
 10
240.000004
 20
1644.400022
 30
0.0
 11
220.000004
 21
1644.400022
 31
0.0
  0
LINE
  5
E41
  8
OUTLINE
  6
CONTINUOUS
 62
     3
 10
220.000004
 20
1645.100022
 30
0.0
 11
200.000004
 21
1645.100022
 31
0.0
  0
LINE
  5
E42
  8
OUTLINE
  6
CONTINUOUS
 62
     3
 10
200.000004
 20
1645.800022
 30
0.0
 11
180.000003
 21
1645.800022
 31
0.0
  0
LINE
  5
E43
  8
OUTLINE
  6
CONTINUOUS
 62
     3
 10
180.000003
 20
1646.500022
 30
0.0
 11
160.000003
 21
1646.500022
 31
0.0
  0
LINE
  5
E44
  8
OUTLINE
  6
CONTINUOUS
 62
     3
 10
160.000003
 20
1647.200022
 30
0.0
 11
140.000003
 21
1647.200022
 31
0.0
  0
LINE
  5
E45
  8
OUTLINE
  6
CONTINUOUS
 62
     3
 10
140.000003
 20
1647.900022
 30
0.0
 11
120.000002
 21
1647.900022
 31
0.0
  0
LINE
  5
E46
  8
OUTLINE
  6
CONTINUOUS
 62
     3
 10
120.000002
 20
1648.600022
 30
0.0
 11
100.000002
 21
1648.600022
 31
0.0
  0
LINE
  5
E47
  8
OUTLINE
  6
CONTINUOUS
 62
     3
 10
100.000002
 20
1649.300023
 30
0.0
 11
80.000001
 21
1649.300023
 31
0.0
  0
LINE
  5
E48
  8
OUTLINE
  6
CONTINUOUS
 62
     3
 10
-80.000001
 20
1649.300023
 30
0.0
 11
-100.000002
 21
1649.300023
 31
0.0
  0
LINE
  5
E49
  8
OUTLINE
  6
CONTINUOUS
 62
     3
 10
-100.000002
 20
1648.600022
 30
0.0
 11
-120.000002
 21
1648.600022
 31
0.0
  0
LINE
  5
E4A
  8
OUTLINE
  6
CONTINUOUS
 62
     3
 10
-120.000002
 20
1647.900022
 30
0.0
 11
-140.000003
 21
1647.900022
 31
0.0
  0
LINE
  5
E4B
  8
OUTLINE
  6
CONTINUOUS
 62
     3
 10
-140.000003
 20
1647.200022
 30
0.0
 11
-160.000003
 21
1647.200022
 31
0.0
  0
LINE
  5
E4C
  8
OUTLINE
  6
CONTINUOUS
 62
     3
 10
-160.000003
 20
1646.500022
 30
0.0
 11
-180.000003
 21
1646.500022
 31
0.0
  0
LINE
  5
E4D
  8
OUTLINE
  6
CONTINUOUS
 62
     3
 10
-180.000003
 20
1645.800022
 30
0.0
 11
-200.000004
 21
1645.800022
 31
0.0
  0
LINE
  5
E4E
  8
OUTLINE
  6
CONTINUOUS
 62
     3
 10
-200.000004
 20
1645.100022
 30
0.0
 11
-220.000004
 21
1645.100022
 31
0.0
  0
LINE
  5
E4F
  8
OUTLINE
  6
CONTINUOUS
 62
     3
 10
-220.000004
 20
1644.400022
 30
0.0
 11
-240.000004
 21
1644.400022
 31
0.0
  0
LINE
  5
E50
  8
OUTLINE
  6
CONTINUOUS
 62
     3
 10
-240.000004
 20
1643.700022
 30
0.0
 11
-260.000005
 21
1643.700022
 31
0.0
  0
LINE
  5
E51
  8
OUTLINE
  6
CONTINUOUS
 62
     3
 10
-260.000005
 20
1643.000022
 30
0.0
 11
-280.000005
 21
1643.000022
 31
0.0
  0
LINE
  5
E52
  8
OUTLINE
  6
CONTINUOUS
 62
     3
 10
-280.000005
 20
1642.300022
 30
0.0
 11
-300.000006
 21
1642.300022
 31
0.0
  0
LINE
  5
E53
  8
OUTLINE
  6
CONTINUOUS
 62
     3
 10
-300.000006
 20
1641.600022
 30
0.0
 11
-320.000006
 21
1641.600022
 31
0.0
  0
LINE
  5
E54
  8
OUTLINE
  6
CONTINUOUS
 62
     3
 10
-326.02841
 20
1640.500022
 30
0.0
 11
-320.000006
 21
1640.500022
 31
0.0
  0
LINE
  5
E55
  8
OUTLINE
  6
CONTINUOUS
 62
     3
 10
313.500006
 20
58.999993
 30
0.0
 11
-176.500003
 21
58.999993
 31
0.0
  0
LINE
  5
E56
  8
OUTLINE
  6
CONTINUOUS
 62
     3
 10
325.000006
 20
12.618827
 30
0.0
 11
325.000006
 21
7.299992
 31
0.0
  0
LINE
  5
E57
  8
OUTLINE
  6
CONTINUOUS
 62
     3
 10
-325.000006
 20
12.699992
 30
0.0
 11
-325.000006
 21
7.299992
 31
0.0
  0
LINE
  5
E58
  8
NOTE
  6
CONTINUOUS
 62
     4
 10
362.000007
 20
-0.000008
 30
0.0
 11
394.987601
 21
-4.788514
 31
0.0
  0
LINE
  5
E59
  8
NOTE
  6
CONTINUOUS
 62
     4
 10
362.000007
 20
-0.000008
 30
0.0
 11
388.173848
 21
-20.640773
 31
0.0
  0
LINE
  5
E5A
  8
NOTE
  6
CONTINUOUS
 62
     4
 10
579.599226
 20
-93.530352
 30
0.0
 11
362.000007
 21
-0.000008
 31
0.0
  0
TEXT
  5
E5B
  8
NOTE
  6
CONTINUOUS
 62
     4
 10
588.399962
 20
-80.132242
 30
0.0
 40
55.0
  1
AH  2X2-14X20長穴
 50
0.000003
 41
0.630952
  7
STANDARD1
  0
LINE
  5
E5C
  8
NOTE
  6
CONTINUOUS
 62
     4
 10
579.599226
 20
-93.530352
 30
0.0
 11
1087.79726
 21
-93.530352
 31
0.0
  0
LINE
  5
E5D
  8
OUTLINE
  6
CONTINUOUS
 62
     3
 10
-380.000007
 20
1410.000018
 30
0.0
 11
380.000007
 21
1410.000018
 31
0.0
  0
LINE
  5
E5E
  8
NOTE
  6
CONTINUOUS
 62
     4
 10
-300.000007
 20
1439.000019
 30
0.0
 11
-300.000007
 21
1381.000018
 31
0.0
  0
LINE
  5
E5F
  8
NOTE
  6
CONTINUOUS
 62
     4
 10
-329.000008
 20
1410.000018
 30
0.0
 11
-271.000006
 21
1410.000018
 31
0.0
  0
LINE
  5
E60
  8
NOTE
  6
CONTINUOUS
 62
     4
 10
-150.000007
 20
1439.000019
 30
0.0
 11
-150.000007
 21
1381.000018
 31
0.0
  0
LINE
  5
E61
  8
NOTE
  6
CONTINUOUS
 62
     4
 10
-179.000008
 20
1410.000018
 30
0.0
 11
-121.000006
 21
1410.000018
 31
0.0
  0
LINE
  5
E62
  8
NOTE
  6
CONTINUOUS
 62
     4
 10
0.0
 20
1439.000019
 30
0.0
 11
0.0
 21
1381.000018
 31
0.0
  0
LINE
  5
E63
  8
NOTE
  6
CONTINUOUS
 62
     4
 10
-29.000001
 20
1410.000018
 30
0.0
 11
29.000001
 21
1410.000018
 31
0.0
  0
LINE
  5
E64
  8
NOTE
  6
CONTINUOUS
 62
     4
 10
149.999993
 20
1439.000019
 30
0.0
 11
149.999993
 21
1381.000018
 31
0.0
  0
LINE
  5
E65
  8
NOTE
  6
CONTINUOUS
 62
     4
 10
120.999992
 20
1410.000018
 30
0.0
 11
178.999994
 21
1410.000018
 31
0.0
  0
LINE
  5
E66
  8
NOTE
  6
CONTINUOUS
 62
     4
 10
299.999993
 20
1439.000019
 30
0.0
 11
299.999993
 21
1381.000018
 31
0.0
  0
LINE
  5
E67
  8
NOTE
  6
CONTINUOUS
 62
     4
 10
270.999992
 20
1410.000018
 30
0.0
 11
328.999994
 21
1410.000018
 31
0.0
  0
LINE
  5
E68
  8
SIZE
  6
CONTINUOUS
 62
    30
 10
-380.000013
 20
1430.000018
 30
0.0
 11
-380.000013
 21
1917.202958
 31
0.0
  0
LINE
  5
E69
  8
SIZE
  6
CONTINUOUS
 62
    30
 10
-300.000007
 20
1459.000019
 30
0.0
 11
-300.000007
 21
1917.202958
 31
0.0
  0
LINE
  5
E6A
  8
SIZE
  6
CONTINUOUS
 62
    30
 10
-390.000013
 20
1887.202958
 30
0.0
 11
-400.000013
 21
1887.202958
 31
0.0
  0
LINE
  5
E6B
  8
SIZE
  6
CONTINUOUS
 62
    30
 10
-290.000007
 20
1887.202958
 30
0.0
 11
-280.000007
 21
1887.202958
 31
0.0
  0
LINE
  5
E6C
  8
SIZE
  6
CONTINUOUS
 62
    30
 10
-380.000013
 20
1887.202958
 30
0.0
 11
-300.000007
 21
1887.202958
 31
0.0
  0
CIRCLE
  5
E6D
  8
SIZE
  6
CONTINUOUS
 62
    30
 10
-380.000013
 20
1887.202958
 30
0.0
 40
5.0
  0
LINE
  5
E6E
  8
SIZE
  6
CONTINUOUS
 62
    30
 10
-385.000013
 20
1887.202958
 30
0.0
 11
-390.000013
 21
1887.202958
 31
0.0
  0
CIRCLE
  5
E6F
  8
SIZE
  6
CONTINUOUS
 62
    30
 10
-300.000007
 20
1887.202958
 30
0.0
 40
5.0
  0
LINE
  5
E70
  8
SIZE
  6
CONTINUOUS
 62
    30
 10
-295.000007
 20
1887.202958
 30
0.0
 11
-290.000007
 21
1887.202958
 31
0.0
  0
TEXT
  5
E71
  8
SIZE
  6
CONTINUOUS
 62
    30
 10
-380.071439
 20
1902.202958
 30
0.0
 40
55.0
  1
80
 41
0.9
 72
     1
 11
-340.00001
 21
1902.202958
 31
0.0
  0
POINT
  5
E72
  8
DEFPOINTS
  6
CONTINUOUS
 62
     7
 10
-380.000013
 20
1410.000018
 30
0.0
  0
POINT
  5
E73
  8
DEFPOINTS
  6
CONTINUOUS
 62
     7
 10
-300.000007
 20
1439.000019
 30
0.0
  0
POINT
  5
E74
  8
DEFPOINTS
  6
CONTINUOUS
 62
     7
 10
-300.000007
 20
1887.202958
 30
0.0
  0
LINE
  5
E75
  8
SIZE
  6
CONTINUOUS
 62
    30
 10
-300.000007
 20
1459.000019
 30
0.0
 11
-300.000007
 21
1917.202958
 31
0.0
  0
LINE
  5
E76
  8
SIZE
  6
CONTINUOUS
 62
    30
 10
-150.000007
 20
1459.000019
 30
0.0
 11
-150.000007
 21
1917.202958
 31
0.0
  0
LINE
  5
E77
  8
SIZE
  6
CONTINUOUS
 62
    30
 10
-290.000007
 20
1887.202958
 30
0.0
 11
-160.000007
 21
1887.202958
 31
0.0
  0
CIRCLE
  5
E78
  8
SIZE
  6
CONTINUOUS
 62
    30
 10
-300.000007
 20
1887.202958
 30
0.0
 40
5.0
  0
LINE
  5
E79
  8
SIZE
  6
CONTINUOUS
 62
    30
 10
-295.000007
 20
1887.202958
 30
0.0
 11
-290.000007
 21
1887.202958
 31
0.0
  0
CIRCLE
  5
E7A
  8
SIZE
  6
CONTINUOUS
 62
    30
 10
-150.000007
 20
1887.202958
 30
0.0
 40
5.0
  0
LINE
  5
E7B
  8
SIZE
  6
CONTINUOUS
 62
    30
 10
-155.000007
 20
1887.202958
 30
0.0
 11
-160.000007
 21
1887.202958
 31
0.0
  0
TEXT
  5
E7C
  8
SIZE
  6
CONTINUOUS
 62
    30
 10
-283.928578
 20
1902.202958
 30
0.0
 40
55.0
  1
150
 41
0.9
 72
     1
 11
-225.000007
 21
1902.202958
 31
0.0
  0
POINT
  5
E7D
  8
DEFPOINTS
  6
CONTINUOUS
 62
     7
 10
-300.000007
 20
1439.000019
 30
0.0
  0
POINT
  5
E7E
  8
DEFPOINTS
  6
CONTINUOUS
 62
     7
 10
-150.000007
 20
1439.000019
 30
0.0
  0
POINT
  5
E7F
  8
DEFPOINTS
  6
CONTINUOUS
 62
     7
 10
-150.000007
 20
1887.202958
 30
0.0
  0
LINE
  5
E80
  8
SIZE
  6
CONTINUOUS
 62
    30
 10
-150.000007
 20
1459.000019
 30
0.0
 11
-150.000007
 21
1917.202958
 31
0.0
  0
LINE
  5
E81
  8
SIZE
  6
CONTINUOUS
 62
    30
 10
0.0
 20
1459.000019
 30
0.0
 11
0.0
 21
1917.202958
 31
0.0
  0
LINE
  5
E82
  8
SIZE
  6
CONTINUOUS
 62
    30
 10
-140.000007
 20
1887.202958
 30
0.0
 11
-10.0
 21
1887.202958
 31
0.0
  0
CIRCLE
  5
E83
  8
SIZE
  6
CONTINUOUS
 62
    30
 10
-150.000007
 20
1887.202958
 30
0.0
 40
5.0
  0
LINE
  5
E84
  8
SIZE
  6
CONTINUOUS
 62
    30
 10
-145.000007
 20
1887.202958
 30
0.0
 11
-140.000007
 21
1887.202958
 31
0.0
  0
CIRCLE
  5
E85
  8
SIZE
  6
CONTINUOUS
 62
    30
 10
0.0
 20
1887.202958
 30
0.0
 40
5.0
  0
LINE
  5
E86
  8
SIZE
  6
CONTINUOUS
 62
    30
 10
-5.0
 20
1887.202958
 30
0.0
 11
-10.0
 21
1887.202958
 31
0.0
  0
TEXT
  5
E87
  8
SIZE
  6
CONTINUOUS
 62
    30
 10
-133.928575
 20
1902.202958
 30
0.0
 40
55.0
  1
150
 41
0.9
 72
     1
 11
-75.000004
 21
1902.202958
 31
0.0
  0
POINT
  5
E88
  8
DEFPOINTS
  6
CONTINUOUS
 62
     7
 10
-150.000007
 20
1439.000019
 30
0.0
  0
POINT
  5
E89
  8
DEFPOINTS
  6
CONTINUOUS
 62
     7
 10
0.0
 20
1439.000019
 30
0.0
  0
POINT
  5
E8A
  8
DEFPOINTS
  6
CONTINUOUS
 62
     7
 10
0.0
 20
1887.202958
 30
0.0
  0
LINE
  5
E8B
  8
SIZE
  6
CONTINUOUS
 62
    30
 10
0.0
 20
1459.000019
 30
0.0
 11
0.0
 21
1917.202958
 31
0.0
  0
LINE
  5
E8C
  8
SIZE
  6
CONTINUOUS
 62
    30
 10
149.999993
 20
1459.000019
 30
0.0
 11
149.999993
 21
1917.202958
 31
0.0
  0
LINE
  5
E8D
  8
SIZE
  6
CONTINUOUS
 62
    30
 10
10.0
 20
1887.202958
 30
0.0
 11
139.999993
 21
1887.202958
 31
0.0
  0
CIRCLE
  5
E8E
  8
SIZE
  6
CONTINUOUS
 62
    30
 10
0.0
 20
1887.202958
 30
0.0
 40
5.0
  0
LINE
  5
E8F
  8
SIZE
  6
CONTINUOUS
 62
    30
 10
5.0
 20
1887.202958
 30
0.0
 11
10.0
 21
1887.202958
 31
0.0
  0
CIRCLE
  5
E90
  8
SIZE
  6
CONTINUOUS
 62
    30
 10
149.999993
 20
1887.202958
 30
0.0
 40
5.0
  0
LINE
  5
E91
  8
SIZE
  6
CONTINUOUS
 62
    30
 10
144.999993
 20
1887.202958
 30
0.0
 11
139.999993
 21
1887.202958
 31
0.0
  0
TEXT
  5
E92
  8
SIZE
  6
CONTINUOUS
 62
    30
 10
16.071425
 20
1902.202958
 30
0.0
 40
55.0
  1
150
 41
0.9
 72
     1
 11
74.999996
 21
1902.202958
 31
0.0
  0
POINT
  5
E93
  8
DEFPOINTS
  6
CONTINUOUS
 62
     7
 10
0.0
 20
1439.000019
 30
0.0
  0
POINT
  5
E94
  8
DEFPOINTS
  6
CONTINUOUS
 62
     7
 10
149.999993
 20
1439.000019
 30
0.0
  0
POINT
  5
E95
  8
DEFPOINTS
  6
CONTINUOUS
 62
     7
 10
149.999993
 20
1887.202958
 30
0.0
  0
LINE
  5
E96
  8
SIZE
  6
CONTINUOUS
 62
    30
 10
149.999993
 20
1459.000019
 30
0.0
 11
149.999993
 21
1917.202958
 31
0.0
  0
LINE
  5
E97
  8
SIZE
  6
CONTINUOUS
 62
    30
 10
299.999993
 20
1459.000019
 30
0.0
 11
299.999993
 21
1917.202958
 31
0.0
  0
LINE
  5
E98
  8
SIZE
  6
CONTINUOUS
 62
    30
 10
159.999993
 20
1887.202958
 30
0.0
 11
289.999993
 21
1887.202958
 31
0.0
  0
CIRCLE
  5
E99
  8
SIZE
  6
CONTINUOUS
 62
    30
 10
149.999993
 20
1887.202958
 30
0.0
 40
5.0
  0
LINE
  5
E9A
  8
SIZE
  6
CONTINUOUS
 62
    30
 10
154.999993
 20
1887.202958
 30
0.0
 11
159.999993
 21
1887.202958
 31
0.0
  0
CIRCLE
  5
E9B
  8
SIZE
  6
CONTINUOUS
 62
    30
 10
299.999993
 20
1887.202958
 30
0.0
 40
5.0
  0
LINE
  5
E9C
  8
SIZE
  6
CONTINUOUS
 62
    30
 10
294.999993
 20
1887.202958
 30
0.0
 11
289.999993
 21
1887.202958
 31
0.0
  0
TEXT
  5
E9D
  8
SIZE
  6
CONTINUOUS
 62
    30
 10
166.071422
 20
1902.202958
 30
0.0
 40
55.0
  1
150
 41
0.9
 72
     1
 11
224.999993
 21
1902.202958
 31
0.0
  0
POINT
  5
E9E
  8
DEFPOINTS
  6
CONTINUOUS
 62
     7
 10
149.999993
 20
1439.000019
 30
0.0
  0
POINT
  5
E9F
  8
DEFPOINTS
  6
CONTINUOUS
 62
     7
 10
299.999993
 20
1439.000019
 30
0.0
  0
POINT
  5
EA0
  8
DEFPOINTS
  6
CONTINUOUS
 62
     7
 10
299.999993
 20
1887.202958
 30
0.0
  0
LINE
  5
EA1
  8
NOTE
  6
CONTINUOUS
 62
     4
 10
299.999993
 20
1439.000019
 30
0.0
 11
299.999993
 21
1381.000018
 31
0.0
  0
LINE
  5
EA2
  8
NOTE
  6
CONTINUOUS
 62
     4
 10
270.999992
 20
1410.000018
 30
0.0
 11
328.999994
 21
1410.000018
 31
0.0
  0
LINE
  5
EA3
  8
NOTE
  6
CONTINUOUS
 62
     4
 10
299.999993
 20
1410.000018
 30
0.0
 11
329.518851
 21
1425.483821
 31
0.0
  0
LINE
  5
EA4
  8
NOTE
  6
CONTINUOUS
 62
     4
 10
299.999993
 20
1410.000018
 30
0.0
 11
317.822173
 21
1438.168814
 31
0.0
  0
LINE
  5
EA5
  8
NOTE
  6
CONTINUOUS
 62
     4
 10
429.720965
 20
1529.614158
 30
0.0
 11
299.999993
 21
1410.000018
 31
0.0
  0
TEXT
  5
EA6
  8
NOTE
  6
CONTINUOUS
 62
     4
 10
449.253196
 20
1462.154787
 30
0.0
 40
55.0
  1
＜防雪ﾌ-ﾄﾞ（別売品）取付用穴＞
 50
359.999997
 41
0.638665
  7
STANDARD1
  0
TEXT
  5
EA7
  8
NOTE
  6
CONTINUOUS
 62
     4
 10
466.928126
 20
1542.842099
 30
0.0
 40
55.0
  1
(樹脂部の開口加工必要）
 50
359.999997
 41
0.693662
  7
STANDARD1
  0
TEXT
  5
EA8
  8
NOTE
  6
CONTINUOUS
 62
     4
 10
449.054681
 20
1615.565614
 30
0.0
 40
55.0
  1
2X5-φ4.6穴
 50
359.999997
 41
0.603058
  7
STANDARD1
  0
LINE
  5
EA9
  8
NOTE
  6
CONTINUOUS
 62
     4
 10
1061.01747
 20
1529.614158
 30
0.0
 11
429.720965
 21
1529.614158
 31
0.0
  0
LINE
  5
EAA
  8
NOTE
  6
CONTINUOUS
 62
     4
 10
-235.00006
 20
304.750047
 30
0.0
 11
-235.00006
 21
265.250046
 31
0.0
  0
LINE
  5
EAB
  8
NOTE
  6
CONTINUOUS
 62
     4
 10
-254.75006
 20
263.000019
 30
0.0
 11
-215.250059
 21
263.000019
 31
0.0
  0
LINE
  5
EAC
  8
NOTE
  6
CONTINUOUS
 62
     4
 10
-235.000069
 20
263.000031
 30
0.0
 11
-250.99461
 21
292.245301
 31
0.0
  0
LINE
  5
EAD
  8
NOTE
  6
CONTINUOUS
 62
     4
 10
-235.000069
 20
263.000031
 30
0.0
 11
-234.229112
 21
296.324448
 31
0.0
  0
LINE
  5
EAE
  8
NOTE
  6
CONTINUOUS
 62
     4
 10
-452.892136
 20
1158.547262
 30
0.0
 11
-235.000069
 21
263.000031
 31
0.0
  0
LINE
  5
EAF
  8
NOTE
  6
CONTINUOUS
 62
     4
 10
-235.00006
 20
280.750036
 30
0.0
 11
-235.00006
 21
241.250035
 31
0.0
  0
LINE
  5
EB0
  8
NOTE
  6
CONTINUOUS
 62
     4
 10
-254.75006
 20
261.000035
 30
0.0
 11
-215.250059
 21
261.000035
 31
0.0
  0
LINE
  5
EB1
  8
NOTE
  6
CONTINUOUS
 62
     4
 10
-235.000039
 20
261.000037
 30
0.0
 11
-209.722023
 21
282.728661
 31
0.0
  0
LINE
  5
EB2
  8
NOTE
  6
CONTINUOUS
 62
     4
 10
-235.000039
 20
261.000037
 30
0.0
 11
-202.244323
 21
267.178569
 31
0.0
  0
LINE
  5
EB3
  8
NOTE
  6
CONTINUOUS
 62
     4
 10
443.242846
 20
587.152257
 30
0.0
 11
-235.000039
 21
261.000037
 31
0.0
  0
LINE
  5
EB4
  8
SIZE
  6
CONTINUOUS
 62
    30
 10
40.000001
 20
1650.000023
 30
0.0
 11
-1106.575722
 21
1650.000023
 31
0.0
  0
LINE
  5
EB5
  8
SIZE
  6
CONTINUOUS
 62
    30
 10
-420.000007
 20
-0.000008
 30
0.0
 11
-1106.575722
 21
-0.000008
 31
0.0
  0
LINE
  5
EB6
  8
SIZE
  6
CONTINUOUS
 62
    30
 10
-1076.575722
 20
1640.000023
 30
0.0
 11
-1076.575722
 21
9.999992
 31
0.0
  0
CIRCLE
  5
EB7
  8
SIZE
  6
CONTINUOUS
 62
    30
 10
-1076.575722
 20
1650.000023
 30
0.0
 40
5.0
  0
LINE
  5
EB8
  8
SIZE
  6
CONTINUOUS
 62
    30
 10
-1076.575722
 20
1645.000023
 30
0.0
 11
-1076.575722
 21
1640.000023
 31
0.0
  0
CIRCLE
  5
EB9
  8
SIZE
  6
CONTINUOUS
 62
    30
 10
-1076.575722
 20
-0.000008
 30
0.0
 40
5.0
  0
LINE
  5
EBA
  8
SIZE
  6
CONTINUOUS
 62
    30
 10
-1076.575722
 20
4.999992
 30
0.0
 11
-1076.575722
 21
9.999992
 31
0.0
  0
TEXT
  5
EBB
  8
SIZE
  6
CONTINUOUS
 62
    30
 10
-1091.575722
 20
720.565719
 30
0.0
 40
55.0
  1
1650
 50
90.0
 41
0.9
 72
     1
 11
-1091.575722
 21
803.065719
 31
0.0
  0
POINT
  5
EBC
  8
DEFPOINTS
  6
CONTINUOUS
 62
     7
 10
60.000001
 20
1650.000023
 30
0.0
  0
POINT
  5
EBD
  8
DEFPOINTS
  6
CONTINUOUS
 62
     7
 10
-400.000007
 20
-0.000008
 30
0.0
  0
POINT
  5
EBE
  8
DEFPOINTS
  6
CONTINUOUS
 62
     7
 10
-1076.575722
 20
-0.000008
 30
0.0
  0
TEXT
  5
EBF
  8
NOTE
  6
CONTINUOUS
 62
     4
 10
-746.382901
 20
1168.892067
 30
0.0
 40
55.0
  1
RG %%C22.2
 50
0.000003
 41
0.630952
  7
STANDARD1
  0
LINE
  5
EC0
  8
NOTE
  6
CONTINUOUS
 62
     4
 10
-452.892136
 20
1158.547262
 30
0.0
 11
-766.500208
 21
1158.547262
 31
0.0
  0
LINE
  5
EC1
  8
NOTE
  6
CONTINUOUS
 62
     4
 10
-375.500007
 20
236.749982
 30
0.0
 11
-375.500007
 21
197.249982
 31
0.0
  0
LINE
  5
EC2
  8
NOTE
  6
CONTINUOUS
 62
     4
 10
-395.250007
 20
216.999982
 30
0.0
 11
-355.750007
 21
216.999982
 31
0.0
  0
LINE
  5
EC3
  8
NOTE
  6
CONTINUOUS
 62
     4
 10
-375.500007
 20
165.75
 30
0.0
 11
-375.500007
 21
126.25
 31
0.0
  0
LINE
  5
EC4
  8
NOTE
  6
CONTINUOUS
 62
     4
 10
-395.250007
 20
146.0
 30
0.0
 11
-355.750007
 21
146.0
 31
0.0
  0
LINE
  5
EC5
  8
SIZE
  6
CONTINUOUS
 62
    30
 10
-400.248856
 20
-0.000008
 30
0.0
 11
-986.354428
 21
-0.000008
 31
0.0
  0
LINE
  5
EC6
  8
SIZE
  6
CONTINUOUS
 62
    30
 10
-400.000007
 20
1410.000018
 30
0.0
 11
-986.354428
 21
1410.000018
 31
0.0
  0
LINE
  5
EC7
  8
SIZE
  6
CONTINUOUS
 62
    30
 10
-956.354428
 20
9.999992
 30
0.0
 11
-956.354428
 21
1400.000018
 31
0.0
  0
CIRCLE
  5
EC8
  8
SIZE
  6
CONTINUOUS
 62
    30
 10
-956.354428
 20
-0.000008
 30
0.0
 40
5.0
  0
LINE
  5
EC9
  8
SIZE
  6
CONTINUOUS
 62
    30
 10
-956.354428
 20
4.999992
 30
0.0
 11
-956.354428
 21
9.999992
 31
0.0
  0
CIRCLE
  5
ECA
  8
SIZE
  6
CONTINUOUS
 62
    30
 10
-956.354428
 20
1410.000018
 30
0.0
 40
5.0
  0
LINE
  5
ECB
  8
SIZE
  6
CONTINUOUS
 62
    30
 10
-956.354428
 20
1405.000018
 30
0.0
 11
-956.354428
 21
1400.000018
 31
0.0
  0
TEXT
  5
ECC
  8
SIZE
  6
CONTINUOUS
 62
    30
 10
-971.354428
 20
627.214291
 30
0.0
 40
55.0
  1
1410
 50
90.0
 41
0.9
 72
     1
 11
-971.354428
 21
705.000005
 31
0.0
  0
POINT
  5
ECD
  8
DEFPOINTS
  6
CONTINUOUS
 62
     7
 10
-380.248856
 20
-0.000008
 30
0.0
  0
POINT
  5
ECE
  8
DEFPOINTS
  6
CONTINUOUS
 62
     7
 10
-380.000007
 20
1410.000018
 30
0.0
  0
POINT
  5
ECF
  8
DEFPOINTS
  6
CONTINUOUS
 62
     7
 10
-956.354428
 20
1410.000018
 30
0.0
  0
LINE
  5
ED0
  8
SIZE
  6
CONTINUOUS
 62
    30
 10
-400.000007
 20
1410.000018
 30
0.0
 11
-986.354428
 21
1410.000018
 31
0.0
  0
LINE
  5
ED1
  8
SIZE
  6
CONTINUOUS
 62
    30
 10
20.000001
 20
1650.000023
 30
0.0
 11
-986.354428
 21
1650.000023
 31
0.0
  0
LINE
  5
ED2
  8
SIZE
  6
CONTINUOUS
 62
    30
 10
-956.354428
 20
1420.000018
 30
0.0
 11
-956.354428
 21
1640.000023
 31
0.0
  0
CIRCLE
  5
ED3
  8
SIZE
  6
CONTINUOUS
 62
    30
 10
-956.354428
 20
1410.000018
 30
0.0
 40
5.0
  0
LINE
  5
ED4
  8
SIZE
  6
CONTINUOUS
 62
    30
 10
-956.354428
 20
1415.000018
 30
0.0
 11
-956.354428
 21
1420.000018
 31
0.0
  0
CIRCLE
  5
ED5
  8
SIZE
  6
CONTINUOUS
 62
    30
 10
-956.354428
 20
1650.000023
 30
0.0
 40
5.0
  0
LINE
  5
ED6
  8
SIZE
  6
CONTINUOUS
 62
    30
 10
-956.354428
 20
1645.000023
 30
0.0
 11
-956.354428
 21
1640.000023
 31
0.0
  0
TEXT
  5
ED7
  8
SIZE
  6
CONTINUOUS
 62
    30
 10
-970.759189
 20
1434.535734
 30
0.0
 40
55.0
  1
(240)
 50
90.0
 41
0.9
 72
     1
 11
-970.759189
 21
1530.00002
 31
0.0
  0
POINT
  5
ED8
  8
DEFPOINTS
  6
CONTINUOUS
 62
     7
 10
-380.000007
 20
1410.000018
 30
0.0
  0
POINT
  5
ED9
  8
DEFPOINTS
  6
CONTINUOUS
 62
     7
 10
40.000001
 20
1650.000023
 30
0.0
  0
POINT
  5
EDA
  8
DEFPOINTS
  6
CONTINUOUS
 62
     7
 10
-956.354428
 20
1650.000023
 30
0.0
  0
LINE
  5
EDB
  8
NOTE
  6
CONTINUOUS
 62
     4
 10
-375.500001
 20
216.999981
 30
0.0
 11
-389.183133
 21
247.395425
 31
0.0
  0
LINE
  5
EDC
  8
NOTE
  6
CONTINUOUS
 62
     4
 10
-375.500001
 20
216.999981
 30
0.0
 11
-372.152218
 21
250.164774
 31
0.0
  0
LINE
  5
EDD
  8
NOTE
  6
CONTINUOUS
 62
     4
 10
-453.898513
 20
699.134411
 30
0.0
 11
-375.500001
 21
216.999981
 31
0.0
  0
LINE
  5
EDE
  8
NOTE
  6
CONTINUOUS
 62
     4
 10
-375.500007
 20
146.0
 30
0.0
 11
-386.866444
 21
114.664473
 31
0.0
  0
LINE
  5
EDF
  8
NOTE
  6
CONTINUOUS
 62
     4
 10
-375.500007
 20
146.0
 30
0.0
 11
-401.011394
 21
124.545857
 31
0.0
  0
LINE
  5
EE0
  8
NOTE
  6
CONTINUOUS
 62
     4
 10
-616.984328
 20
-199.678682
 30
0.0
 11
-375.500007
 21
146.0
 31
0.0
  0
TEXT
  5
EE1
  8
NOTE
  6
CONTINUOUS
 62
     4
 10
-738.98385
 20
381.152884
 30
0.0
 40
55.0
  1
%%C27ﾉｯｸｱｳﾄ穴
 50
0.000003
 41
0.630952
  7
STANDARD1
  0
LINE
  5
EE2
  8
NOTE
  6
CONTINUOUS
 62
     4
 10
-401.07253
 20
374.265684
 30
0.0
 11
-863.907705
 21
374.265684
 31
0.0
  0
LINE
  5
EE3
  8
NOTE
  6
CONTINUOUS
 62
     4
 10
-453.898513
 20
699.134411
 30
0.0
 11
-833.619239
 21
699.134411
 31
0.0
  0
TEXT
  5
EE4
  8
NOTE
  6
CONTINUOUS
 62
     4
 10
-812.236282
 20
710.197936
 30
0.0
 40
55.0
  1
CL %%C34ﾉｯｸｱｳﾄ穴
 50
0.000003
 41
0.630952
  7
STANDARD1
  0
LINE
  5
EE5
  8
SIZE
  6
CONTINUOUS
 62
    30
 10
-400.000007
 20
0.0
 30
0.0
 11
-585.608303
 21
0.0
 31
0.0
  0
LINE
  5
EE6
  8
SIZE
  6
CONTINUOUS
 62
    30
 10
-395.500007
 20
146.0
 30
0.0
 11
-585.608303
 21
146.0
 31
0.0
  0
LINE
  5
EE7
  8
SIZE
  6
CONTINUOUS
 62
    30
 10
-555.608303
 20
10.0
 30
0.0
 11
-555.608303
 21
136.0
 31
0.0
  0
CIRCLE
  5
EE8
  8
SIZE
  6
CONTINUOUS
 62
    30
 10
-555.608303
 20
0.0
 30
0.0
 40
5.0
  0
LINE
  5
EE9
  8
SIZE
  6
CONTINUOUS
 62
    30
 10
-555.608303
 20
5.0
 30
0.0
 11
-555.608303
 21
10.0
 31
0.0
  0
CIRCLE
  5
EEA
  8
SIZE
  6
CONTINUOUS
 62
    30
 10
-555.608303
 20
146.0
 30
0.0
 40
5.0
  0
LINE
  5
EEB
  8
SIZE
  6
CONTINUOUS
 62
    30
 10
-555.608303
 20
141.0
 30
0.0
 11
-555.608303
 21
136.0
 31
0.0
  0
TEXT
  5
EEC
  8
SIZE
  6
CONTINUOUS
 62
    30
 10
-570.608303
 20
11.805187
 30
0.0
 40
55.0
  1
146
 50
90.0
 41
0.9
 72
     1
 11
-570.608303
 21
69.555187
 31
0.0
  0
POINT
  5
EED
  8
DEFPOINTS
  6
CONTINUOUS
 62
     7
 10
-380.000007
 20
0.0
 30
0.0
  0
POINT
  5
EEE
  8
DEFPOINTS
  6
CONTINUOUS
 62
     7
 10
-375.500007
 20
146.0
 30
0.0
  0
POINT
  5
EEF
  8
DEFPOINTS
  6
CONTINUOUS
 62
     7
 10
-555.608303
 20
146.0
 30
0.0
  0
LINE
  5
EF0
  8
SIZE
  6
CONTINUOUS
 62
    30
 10
-400.000007
 20
-0.000008
 30
0.0
 11
-684.752365
 21
-0.000008
 31
0.0
  0
LINE
  5
EF1
  8
SIZE
  6
CONTINUOUS
 62
    30
 10
-395.500022
 20
217.0
 30
0.0
 11
-684.752365
 21
217.0
 31
0.0
  0
LINE
  5
EF2
  8
SIZE
  6
CONTINUOUS
 62
    30
 10
-654.752365
 20
9.999992
 30
0.0
 11
-654.752365
 21
207.0
 31
0.0
  0
CIRCLE
  5
EF3
  8
SIZE
  6
CONTINUOUS
 62
    30
 10
-654.752365
 20
-0.000008
 30
0.0
 40
5.0
  0
LINE
  5
EF4
  8
SIZE
  6
CONTINUOUS
 62
    30
 10
-654.752365
 20
4.999992
 30
0.0
 11
-654.752365
 21
9.999992
 31
0.0
  0
CIRCLE
  5
EF5
  8
SIZE
  6
CONTINUOUS
 62
    30
 10
-654.752365
 20
217.0
 30
0.0
 40
5.0
  0
LINE
  5
EF6
  8
SIZE
  6
CONTINUOUS
 62
    30
 10
-654.752365
 20
212.0
 30
0.0
 11
-654.752365
 21
207.0
 31
0.0
  0
TEXT
  5
EF7
  8
SIZE
  6
CONTINUOUS
 62
    30
 10
-669.752365
 20
39.592252
 30
0.0
 40
55.0
  1
217
 50
90.0
 41
0.9
 72
     1
 11
-669.752365
 21
98.520823
 31
0.0
  0
POINT
  5
EF8
  8
DEFPOINTS
  6
CONTINUOUS
 62
     7
 10
-380.000007
 20
-0.000008
 30
0.0
  0
POINT
  5
EF9
  8
DEFPOINTS
  6
CONTINUOUS
 62
     7
 10
-375.500022
 20
217.0
 30
0.0
  0
POINT
  5
EFA
  8
DEFPOINTS
  6
CONTINUOUS
 62
     7
 10
-654.752365
 20
217.0
 30
0.0
  0
TEXT
  5
EFB
  8
NOTE
  6
CONTINUOUS
 62
     4
 10
451.828676
 20
597.497062
 30
0.0
 40
55.0
  1
RL %%C19.05
 50
0.000003
 41
0.630952
  7
STANDARD1
  0
LINE
  5
EFC
  8
NOTE
  6
CONTINUOUS
 62
     4
 10
753.647106
 20
587.152257
 30
0.0
 11
443.242846
 21
587.152257
 31
0.0
  0
TEXT
  5
EFD
  8
NOTE
  6
CONTINUOUS
 62
     4
 10
-859.175405
 20
449.371839
 30
0.0
 40
55.0
  1
EL2 %%C52 もしくは
 50
0.000003
 41
0.630952
  7
STANDARD1
  0
TEXT
  5
EFE
  8
NOTE
  6
CONTINUOUS
 62
     4
 10
-735.129822
 20
536.37058
 30
0.0
 40
55.0
  1
%%C40ﾉｯｸｱｳﾄ穴
 50
0.000003
 41
0.630952
  7
STANDARD1
  0
LINE
  5
EFF
  8
NOTE
  6
CONTINUOUS
 62
     4
 10
-426.12463
 20
528.33085
 30
0.0
 11
-864.666184
 21
528.33085
 31
0.0
  0
TEXT
  5
F00
  8
NOTE
  6
CONTINUOUS
 62
     4
 10
-859.933884
 20
603.437006
 30
0.0
 40
55.0
  1
EL1 %%C65 もしくは
 50
0.000003
 41
0.630952
  7
STANDARD1
  0
TEXT
  5
F01
  8
NOTE
  6
CONTINUOUS
 62
     4
 10
-1270.029658
 20
-189.333893
 30
0.0
 40
55.0
  1
前面通し穴（分岐管キット使用時）
 50
0.000003
 41
0.630952
  7
STANDARD1
  0
LINE
  5
F02
  8
NOTE
  6
CONTINUOUS
 62
     4
 10
-616.984328
 20
-199.678682
 30
0.0
 11
-1287.67379
 21
-199.678682
 31
0.0
  0
LINE
  5
F03
  8
DETAIL
  6
CONTINUOUS
 62
     5
 10
-380.000007
 20
1370.000017
 30
0.0
 11
380.000007
 21
1370.000017
 31
0.0
  0
LINE
  5
F04
  8
DETAIL
  6
CONTINUOUS
 62
     5
 10
328.997049
 20
59.000018
 30
0.0
 11
328.997049
 21
1410.000018
 31
0.0
  0
LINE
  5
F05
  8
DETAIL
  6
CONTINUOUS
 62
     5
 10
307.299993
 20
1290.000018
 30
0.0
 11
-172.500007
 21
1290.000018
 31
0.0
  0
LINE
  5
F06
  8
DETAIL
  6
CONTINUOUS
 62
     5
 10
-0.250007
 20
398.750018
 30
0.0
 11
-128.750007
 21
398.750018
 31
0.0
  0
LINE
  5
F07
  8
DETAIL
  6
CONTINUOUS
 62
     5
 10
-0.250007
 20
395.250018
 30
0.0
 11
-128.750007
 21
395.250018
 31
0.0
  0
LINE
  5
F08
  8
DETAIL
  6
CONTINUOUS
 62
     5
 10
-0.250007
 20
253.750018
 30
0.0
 11
-128.750007
 21
253.750018
 31
0.0
  0
LINE
  5
F09
  8
DETAIL
  6
CONTINUOUS
 62
     5
 10
-0.250007
 20
250.250018
 30
0.0
 11
-128.750007
 21
250.250018
 31
0.0
  0
LINE
  5
F0A
  8
DETAIL
  6
CONTINUOUS
 62
     5
 10
-128.750007
 20
106.000018
 30
0.0
 11
-0.250007
 21
106.000018
 31
0.0
  0
LINE
  5
F0B
  8
DETAIL
  6
CONTINUOUS
 62
     5
 10
-128.750007
 20
102.500018
 30
0.0
 11
-0.250007
 21
102.500018
 31
0.0
  0
LINE
  5
F0C
  8
DETAIL
  6
CONTINUOUS
 62
     5
 10
-0.250007
 20
978.750018
 30
0.0
 11
-128.750007
 21
978.750018
 31
0.0
  0
LINE
  5
F0D
  8
DETAIL
  6
CONTINUOUS
 62
     5
 10
-0.250007
 20
975.250018
 30
0.0
 11
-128.750007
 21
975.250018
 31
0.0
  0
LINE
  5
F0E
  8
DETAIL
  6
CONTINUOUS
 62
     5
 10
-0.250007
 20
833.750018
 30
0.0
 11
-128.750007
 21
833.750018
 31
0.0
  0
LINE
  5
F0F
  8
DETAIL
  6
CONTINUOUS
 62
     5
 10
-0.250007
 20
830.250018
 30
0.0
 11
-128.750007
 21
830.250018
 31
0.0
  0
LINE
  5
F10
  8
DETAIL
  6
CONTINUOUS
 62
     5
 10
-128.750007
 20
688.000018
 30
0.0
 11
-0.250007
 21
688.000018
 31
0.0
  0
LINE
  5
F11
  8
DETAIL
  6
CONTINUOUS
 62
     5
 10
-128.750007
 20
684.500018
 30
0.0
 11
-0.250007
 21
684.500018
 31
0.0
  0
LINE
  5
F12
  8
DETAIL
  6
CONTINUOUS
 62
     5
 10
-0.250007
 20
543.750018
 30
0.0
 11
-128.750007
 21
543.750018
 31
0.0
  0
LINE
  5
F13
  8
DETAIL
  6
CONTINUOUS
 62
     5
 10
-0.250007
 20
540.250018
 30
0.0
 11
-128.750007
 21
540.250018
 31
0.0
  0
LINE
  5
F14
  8
DETAIL
  6
CONTINUOUS
 62
     5
 10
-128.750007
 20
1270.000018
 30
0.0
 11
-0.250007
 21
1270.000018
 31
0.0
  0
LINE
  5
F15
  8
DETAIL
  6
CONTINUOUS
 62
     5
 10
-128.750007
 20
1266.500018
 30
0.0
 11
-0.250007
 21
1266.500018
 31
0.0
  0
LINE
  5
F16
  8
DETAIL
  6
CONTINUOUS
 62
     5
 10
-0.250007
 20
1123.750018
 30
0.0
 11
-128.750007
 21
1123.750018
 31
0.0
  0
LINE
  5
F17
  8
DETAIL
  6
CONTINUOUS
 62
     5
 10
-0.250007
 20
1120.250018
 30
0.0
 11
-128.750007
 21
1120.250018
 31
0.0
  0
LINE
  5
F18
  8
DETAIL
  6
CONTINUOUS
 62
     5
 10
275.569484
 20
833.750018
 30
0.0
 11
275.569484
 21
975.250018
 31
0.0
  0
LINE
  5
F19
  8
DETAIL
  6
CONTINUOUS
 62
     5
 10
292.499993
 20
1266.500018
 30
0.0
 11
292.499993
 21
688.000018
 31
0.0
  0
LINE
  5
F1A
  8
DETAIL
  6
CONTINUOUS
 62
     5
 10
263.749993
 20
94.000018
 30
0.0
 11
263.749993
 21
1280.000018
 31
0.0
  0
LINE
  5
F1B
  8
DETAIL
  6
CONTINUOUS
 62
     5
 10
267.249993
 20
94.000018
 30
0.0
 11
267.249993
 21
1280.000018
 31
0.0
  0
LINE
  5
F1C
  8
DETAIL
  6
CONTINUOUS
 62
     5
 10
131.749993
 20
94.000018
 30
0.0
 11
131.749993
 21
1280.000018
 31
0.0
  0
LINE
  5
F1D
  8
DETAIL
  6
CONTINUOUS
 62
     5
 10
135.249993
 20
94.000018
 30
0.0
 11
135.249993
 21
1280.000018
 31
0.0
  0
LINE
  5
F1E
  8
DETAIL
  6
CONTINUOUS
 62
     5
 10
-0.250007
 20
94.000018
 30
0.0
 11
-0.250007
 21
1280.000018
 31
0.0
  0
LINE
  5
F1F
  8
DETAIL
  6
CONTINUOUS
 62
     5
 10
3.249993
 20
94.000018
 30
0.0
 11
3.249993
 21
1280.000018
 31
0.0
  0
LINE
  5
F20
  8
DETAIL
  6
CONTINUOUS
 62
     5
 10
307.299993
 20
84.000018
 30
0.0
 11
307.299993
 21
1290.000018
 31
0.0
  0
LINE
  5
F21
  8
DETAIL
  6
CONTINUOUS
 62
     5
 10
307.299993
 20
84.000018
 30
0.0
 11
307.299993
 21
1290.000018
 31
0.0
  0
LINE
  5
F22
  8
DETAIL
  6
CONTINUOUS
 62
     5
 10
292.499993
 20
684.500018
 30
0.0
 11
292.499993
 21
106.000018
 31
0.0
  0
LINE
  5
F23
  8
DETAIL
  6
CONTINUOUS
 62
     5
 10
275.569484
 20
398.750018
 30
0.0
 11
275.569484
 21
540.250018
 31
0.0
  0
LINE
  5
F24
  8
DETAIL
  6
CONTINUOUS
 62
     5
 10
263.749993
 20
398.750018
 30
0.0
 11
135.249993
 21
398.750018
 31
0.0
  0
LINE
  5
F25
  8
DETAIL
  6
CONTINUOUS
 62
     5
 10
263.749993
 20
395.250018
 30
0.0
 11
135.249993
 21
395.250018
 31
0.0
  0
LINE
  5
F26
  8
DETAIL
  6
CONTINUOUS
 62
     5
 10
263.749993
 20
253.750018
 30
0.0
 11
135.249993
 21
253.750018
 31
0.0
  0
LINE
  5
F27
  8
DETAIL
  6
CONTINUOUS
 62
     5
 10
263.749993
 20
250.250018
 30
0.0
 11
135.249993
 21
250.250018
 31
0.0
  0
LINE
  5
F28
  8
DETAIL
  6
CONTINUOUS
 62
     5
 10
135.249993
 20
106.000018
 30
0.0
 11
263.749993
 21
106.000018
 31
0.0
  0
LINE
  5
F29
  8
DETAIL
  6
CONTINUOUS
 62
     5
 10
135.249993
 20
102.500018
 30
0.0
 11
263.749993
 21
102.500018
 31
0.0
  0
LINE
  5
F2A
  8
DETAIL
  6
CONTINUOUS
 62
     5
 10
275.569484
 20
253.750018
 30
0.0
 11
275.569484
 21
395.250018
 31
0.0
  0
LINE
  5
F2B
  8
DETAIL
  6
CONTINUOUS
 62
     5
 10
267.249993
 20
106.000018
 30
0.0
 11
298.499993
 21
106.000018
 31
0.0
  0
LINE
  5
F2C
  8
DETAIL
  6
CONTINUOUS
 62
     5
 10
267.249993
 20
102.500018
 30
0.0
 11
293.321914
 21
102.500018
 31
0.0
  0
LINE
  5
F2D
  8
DETAIL
  6
CONTINUOUS
 62
     5
 10
292.499993
 20
102.500018
 30
0.0
 11
292.499993
 21
84.000018
 31
0.0
  0
LINE
  5
F2E
  8
DETAIL
  6
CONTINUOUS
 62
     5
 10
275.569484
 20
106.000018
 30
0.0
 11
275.569484
 21
250.250018
 31
0.0
  0
LINE
  5
F2F
  8
DETAIL
  6
CONTINUOUS
 62
     5
 10
267.249993
 20
94.000018
 30
0.0
 11
263.749993
 21
94.000018
 31
0.0
  0
LINE
  5
F30
  8
DETAIL
  6
CONTINUOUS
 62
     5
 10
275.569484
 20
84.000018
 30
0.0
 11
275.569484
 21
102.500018
 31
0.0
  0
LINE
  5
F31
  8
DETAIL
  6
CONTINUOUS
 62
     5
 10
282.499993
 20
253.750018
 30
0.0
 11
267.249993
 21
253.750018
 31
0.0
  0
LINE
  5
F32
  8
DETAIL
  6
CONTINUOUS
 62
     5
 10
282.499993
 20
250.250018
 30
0.0
 11
267.249993
 21
250.250018
 31
0.0
  0
LINE
  5
F33
  8
DETAIL
  6
CONTINUOUS
 62
     5
 10
282.499993
 20
253.750018
 30
0.0
 11
282.499993
 21
250.250018
 31
0.0
  0
LINE
  5
F34
  8
DETAIL
  6
CONTINUOUS
 62
     5
 10
282.499993
 20
398.750018
 30
0.0
 11
282.499993
 21
395.250018
 31
0.0
  0
LINE
  5
F35
  8
DETAIL
  6
CONTINUOUS
 62
     5
 10
282.499993
 20
398.750018
 30
0.0
 11
267.249993
 21
398.750018
 31
0.0
  0
LINE
  5
F36
  8
DETAIL
  6
CONTINUOUS
 62
     5
 10
282.499993
 20
395.250018
 30
0.0
 11
267.249993
 21
395.250018
 31
0.0
  0
LINE
  5
F37
  8
DETAIL
  6
CONTINUOUS
 62
     5
 10
131.749993
 20
253.750018
 30
0.0
 11
3.249993
 21
253.750018
 31
0.0
  0
LINE
  5
F38
  8
DETAIL
  6
CONTINUOUS
 62
     5
 10
131.749993
 20
250.250018
 30
0.0
 11
3.249993
 21
250.250018
 31
0.0
  0
LINE
  5
F39
  8
DETAIL
  6
CONTINUOUS
 62
     5
 10
3.249993
 20
106.000018
 30
0.0
 11
131.749993
 21
106.000018
 31
0.0
  0
LINE
  5
F3A
  8
DETAIL
  6
CONTINUOUS
 62
     5
 10
3.249993
 20
102.500018
 30
0.0
 11
131.749993
 21
102.500018
 31
0.0
  0
LINE
  5
F3B
  8
DETAIL
  6
CONTINUOUS
 62
     5
 10
135.249993
 20
94.000018
 30
0.0
 11
131.749993
 21
94.000018
 31
0.0
  0
LINE
  5
F3C
  8
DETAIL
  6
CONTINUOUS
 62
     5
 10
3.249993
 20
94.000018
 30
0.0
 11
-0.250007
 21
94.000018
 31
0.0
  0
LINE
  5
F3D
  8
DETAIL
  6
CONTINUOUS
 62
     5
 10
131.749993
 20
398.750018
 30
0.0
 11
3.249993
 21
398.750018
 31
0.0
  0
LINE
  5
F3E
  8
DETAIL
  6
CONTINUOUS
 62
     5
 10
131.749993
 20
395.250018
 30
0.0
 11
3.249993
 21
395.250018
 31
0.0
  0
LINE
  5
F3F
  8
DETAIL
  6
CONTINUOUS
 62
     5
 10
263.749993
 20
833.750018
 30
0.0
 11
135.249993
 21
833.750018
 31
0.0
  0
LINE
  5
F40
  8
DETAIL
  6
CONTINUOUS
 62
     5
 10
263.749993
 20
830.250018
 30
0.0
 11
135.249993
 21
830.250018
 31
0.0
  0
LINE
  5
F41
  8
DETAIL
  6
CONTINUOUS
 62
     5
 10
135.249993
 20
688.000018
 30
0.0
 11
263.749993
 21
688.000018
 31
0.0
  0
LINE
  5
F42
  8
DETAIL
  6
CONTINUOUS
 62
     5
 10
135.249993
 20
684.500018
 30
0.0
 11
263.749993
 21
684.500018
 31
0.0
  0
LINE
  5
F43
  8
DETAIL
  6
CONTINUOUS
 62
     5
 10
263.749993
 20
543.750018
 30
0.0
 11
135.249993
 21
543.750018
 31
0.0
  0
LINE
  5
F44
  8
DETAIL
  6
CONTINUOUS
 62
     5
 10
263.749993
 20
540.250018
 30
0.0
 11
135.249993
 21
540.250018
 31
0.0
  0
LINE
  5
F45
  8
DETAIL
  6
CONTINUOUS
 62
     5
 10
275.569484
 20
543.750018
 30
0.0
 11
275.569484
 21
684.500018
 31
0.0
  0
LINE
  5
F46
  8
DETAIL
  6
CONTINUOUS
 62
     5
 10
282.499993
 20
543.750018
 30
0.0
 11
282.499993
 21
540.250018
 31
0.0
  0
LINE
  5
F47
  8
DETAIL
  6
CONTINUOUS
 62
     5
 10
282.499993
 20
543.750018
 30
0.0
 11
267.249993
 21
543.750018
 31
0.0
  0
LINE
  5
F48
  8
DETAIL
  6
CONTINUOUS
 62
     5
 10
282.499993
 20
540.250018
 30
0.0
 11
267.249993
 21
540.250018
 31
0.0
  0
LINE
  5
F49
  8
DETAIL
  6
CONTINUOUS
 62
     5
 10
267.249993
 20
688.000018
 30
0.0
 11
298.499993
 21
688.000018
 31
0.0
  0
LINE
  5
F4A
  8
DETAIL
  6
CONTINUOUS
 62
     5
 10
267.249993
 20
684.500018
 30
0.0
 11
293.321914
 21
684.500018
 31
0.0
  0
LINE
  5
F4B
  8
DETAIL
  6
CONTINUOUS
 62
     5
 10
275.569484
 20
688.000018
 30
0.0
 11
275.569484
 21
830.250018
 31
0.0
  0
LINE
  5
F4C
  8
DETAIL
  6
CONTINUOUS
 62
     5
 10
282.499993
 20
833.750018
 30
0.0
 11
267.249993
 21
833.750018
 31
0.0
  0
LINE
  5
F4D
  8
DETAIL
  6
CONTINUOUS
 62
     5
 10
282.499993
 20
833.750018
 30
0.0
 11
282.499993
 21
830.250018
 31
0.0
  0
LINE
  5
F4E
  8
DETAIL
  6
CONTINUOUS
 62
     5
 10
282.499993
 20
830.250018
 30
0.0
 11
267.249993
 21
830.250018
 31
0.0
  0
LINE
  5
F4F
  8
DETAIL
  6
CONTINUOUS
 62
     5
 10
131.749993
 20
543.750018
 30
0.0
 11
3.249993
 21
543.750018
 31
0.0
  0
LINE
  5
F50
  8
DETAIL
  6
CONTINUOUS
 62
     5
 10
131.749993
 20
540.250018
 30
0.0
 11
3.249993
 21
540.250018
 31
0.0
  0
LINE
  5
F51
  8
DETAIL
  6
CONTINUOUS
 62
     5
 10
131.749993
 20
833.750018
 30
0.0
 11
3.249993
 21
833.750018
 31
0.0
  0
LINE
  5
F52
  8
DETAIL
  6
CONTINUOUS
 62
     5
 10
131.749993
 20
830.250018
 30
0.0
 11
3.249993
 21
830.250018
 31
0.0
  0
LINE
  5
F53
  8
DETAIL
  6
CONTINUOUS
 62
     5
 10
3.249993
 20
688.000018
 30
0.0
 11
131.749993
 21
688.000018
 31
0.0
  0
LINE
  5
F54
  8
DETAIL
  6
CONTINUOUS
 62
     5
 10
3.249993
 20
684.500018
 30
0.0
 11
131.749993
 21
684.500018
 31
0.0
  0
LINE
  5
F55
  8
DETAIL
  6
CONTINUOUS
 62
     5
 10
275.569484
 20
1123.750018
 30
0.0
 11
275.569484
 21
1266.500018
 31
0.0
  0
LINE
  5
F56
  8
DETAIL
  6
CONTINUOUS
 62
     5
 10
263.749993
 20
1123.750018
 30
0.0
 11
135.249993
 21
1123.750018
 31
0.0
  0
LINE
  5
F57
  8
DETAIL
  6
CONTINUOUS
 62
     5
 10
263.749993
 20
1120.250018
 30
0.0
 11
135.249993
 21
1120.250018
 31
0.0
  0
LINE
  5
F58
  8
DETAIL
  6
CONTINUOUS
 62
     5
 10
263.749993
 20
978.750018
 30
0.0
 11
135.249993
 21
978.750018
 31
0.0
  0
LINE
  5
F59
  8
DETAIL
  6
CONTINUOUS
 62
     5
 10
263.749993
 20
975.250018
 30
0.0
 11
135.249993
 21
975.250018
 31
0.0
  0
LINE
  5
F5A
  8
DETAIL
  6
CONTINUOUS
 62
     5
 10
275.569484
 20
978.750018
 30
0.0
 11
275.569484
 21
1120.250018
 31
0.0
  0
LINE
  5
F5B
  8
DETAIL
  6
CONTINUOUS
 62
     5
 10
282.499993
 20
978.750018
 30
0.0
 11
282.499993
 21
975.250018
 31
0.0
  0
LINE
  5
F5C
  8
DETAIL
  6
CONTINUOUS
 62
     5
 10
282.499993
 20
978.750018
 30
0.0
 11
267.249993
 21
978.750018
 31
0.0
  0
LINE
  5
F5D
  8
DETAIL
  6
CONTINUOUS
 62
     5
 10
282.499993
 20
975.250018
 30
0.0
 11
267.249993
 21
975.250018
 31
0.0
  0
LINE
  5
F5E
  8
DETAIL
  6
CONTINUOUS
 62
     5
 10
282.499993
 20
1123.750018
 30
0.0
 11
282.499993
 21
1120.250018
 31
0.0
  0
LINE
  5
F5F
  8
DETAIL
  6
CONTINUOUS
 62
     5
 10
282.499993
 20
1123.750018
 30
0.0
 11
267.249993
 21
1123.750018
 31
0.0
  0
LINE
  5
F60
  8
DETAIL
  6
CONTINUOUS
 62
     5
 10
282.499993
 20
1120.250018
 30
0.0
 11
267.249993
 21
1120.250018
 31
0.0
  0
LINE
  5
F61
  8
DETAIL
  6
CONTINUOUS
 62
     5
 10
131.749993
 20
978.750018
 30
0.0
 11
3.249993
 21
978.750018
 31
0.0
  0
LINE
  5
F62
  8
DETAIL
  6
CONTINUOUS
 62
     5
 10
131.749993
 20
975.250018
 30
0.0
 11
3.249993
 21
975.250018
 31
0.0
  0
LINE
  5
F63
  8
DETAIL
  6
CONTINUOUS
 62
     5
 10
131.749993
 20
1123.750018
 30
0.0
 11
3.249993
 21
1123.750018
 31
0.0
  0
LINE
  5
F64
  8
DETAIL
  6
CONTINUOUS
 62
     5
 10
131.749993
 20
1120.250018
 30
0.0
 11
3.249993
 21
1120.250018
 31
0.0
  0
LINE
  5
F65
  8
DETAIL
  6
CONTINUOUS
 62
     5
 10
135.249993
 20
1270.000018
 30
0.0
 11
263.749993
 21
1270.000018
 31
0.0
  0
LINE
  5
F66
  8
DETAIL
  6
CONTINUOUS
 62
     5
 10
135.249993
 20
1266.500018
 30
0.0
 11
263.749993
 21
1266.500018
 31
0.0
  0
LINE
  5
F67
  8
DETAIL
  6
CONTINUOUS
 62
     5
 10
267.249993
 20
1270.000018
 30
0.0
 11
298.499993
 21
1270.000018
 31
0.0
  0
LINE
  5
F68
  8
DETAIL
  6
CONTINUOUS
 62
     5
 10
267.249993
 20
1266.500018
 30
0.0
 11
293.321914
 21
1266.500018
 31
0.0
  0
LINE
  5
F69
  8
DETAIL
  6
CONTINUOUS
 62
     5
 10
308.499993
 20
1370.000018
 30
0.0
 11
308.499993
 21
1290.000018
 31
0.0
  0
LINE
  5
F6A
  8
DETAIL
  6
CONTINUOUS
 62
     5
 10
292.499993
 20
1290.000018
 30
0.0
 11
292.499993
 21
1270.000018
 31
0.0
  0
LINE
  5
F6B
  8
DETAIL
  6
CONTINUOUS
 62
     5
 10
307.299993
 20
1290.000018
 30
0.0
 11
308.499993
 21
1290.000018
 31
0.0
  0
LINE
  5
F6C
  8
DETAIL
  6
CONTINUOUS
 62
     5
 10
267.249993
 20
1280.000018
 30
0.0
 11
263.749993
 21
1280.000018
 31
0.0
  0
LINE
  5
F6D
  8
DETAIL
  6
CONTINUOUS
 62
     5
 10
275.569484
 20
1270.000018
 30
0.0
 11
275.569484
 21
1290.000018
 31
0.0
  0
LINE
  5
F6E
  8
DETAIL
  6
CONTINUOUS
 62
     5
 10
3.249993
 20
1270.000018
 30
0.0
 11
131.749993
 21
1270.000018
 31
0.0
  0
LINE
  5
F6F
  8
DETAIL
  6
CONTINUOUS
 62
     5
 10
3.249993
 20
1266.500018
 30
0.0
 11
131.749993
 21
1266.500018
 31
0.0
  0
LINE
  5
F70
  8
DETAIL
  6
CONTINUOUS
 62
     5
 10
135.249993
 20
1280.000018
 30
0.0
 11
131.749993
 21
1280.000018
 31
0.0
  0
LINE
  5
F71
  8
DETAIL
  6
CONTINUOUS
 62
     5
 10
3.249993
 20
1280.000018
 30
0.0
 11
-0.250007
 21
1280.000018
 31
0.0
  0
LINE
  5
F72
  8
DETAIL
  6
CONTINUOUS
 62
     5
 10
-128.750007
 20
94.000018
 30
0.0
 11
-128.750007
 21
1280.000018
 31
0.0
  0
LINE
  5
F73
  8
DETAIL
  6
CONTINUOUS
 62
     5
 10
-132.250007
 20
94.000018
 30
0.0
 11
-132.250007
 21
1280.000018
 31
0.0
  0
LINE
  5
F74
  8
DETAIL
  6
CONTINUOUS
 62
     5
 10
-172.500007
 20
84.000018
 30
0.0
 11
-172.500007
 21
1290.000018
 31
0.0
  0
LINE
  5
F75
  8
DETAIL
  6
CONTINUOUS
 62
     5
 10
-172.500007
 20
84.000018
 30
0.0
 11
-172.500007
 21
1290.000018
 31
0.0
  0
LINE
  5
F76
  8
DETAIL
  6
CONTINUOUS
 62
     5
 10
-143.468228
 20
833.750018
 30
0.0
 11
-143.468228
 21
975.250018
 31
0.0
  0
LINE
  5
F77
  8
DETAIL
  6
CONTINUOUS
 62
     5
 10
-328.914221
 20
83.999994
 30
0.0
 11
-328.914221
 21
1410.000018
 31
0.0
  0
LINE
  5
F78
  8
DETAIL
  6
CONTINUOUS
 62
     5
 10
-157.500007
 20
688.000018
 30
0.0
 11
-157.500007
 21
1266.500018
 31
0.0
  0
LINE
  5
F79
  8
DETAIL
  6
CONTINUOUS
 62
     5
 10
-143.468228
 20
398.750018
 30
0.0
 11
-143.468228
 21
540.250018
 31
0.0
  0
LINE
  5
F7A
  8
DETAIL
  6
CONTINUOUS
 62
     5
 10
-157.500007
 20
106.000018
 30
0.0
 11
-157.500007
 21
684.500018
 31
0.0
  0
LINE
  5
F7B
  8
DETAIL
  6
CONTINUOUS
 62
     5
 10
-143.468228
 20
253.750018
 30
0.0
 11
-143.468228
 21
395.250018
 31
0.0
  0
LINE
  5
F7C
  8
DETAIL
  6
CONTINUOUS
 62
     5
 10
-143.468228
 20
106.000018
 30
0.0
 11
-143.468228
 21
250.250018
 31
0.0
  0
LINE
  5
F7D
  8
DETAIL
  6
CONTINUOUS
 62
     5
 10
-128.750007
 20
94.000018
 30
0.0
 11
-132.250007
 21
94.000018
 31
0.0
  0
LINE
  5
F7E
  8
DETAIL
  6
CONTINUOUS
 62
     5
 10
-163.500007
 20
106.000018
 30
0.0
 11
-132.250007
 21
106.000018
 31
0.0
  0
LINE
  5
F7F
  8
DETAIL
  6
CONTINUOUS
 62
     5
 10
-158.321928
 20
102.500018
 30
0.0
 11
-132.250007
 21
102.500018
 31
0.0
  0
LINE
  5
F80
  8
DETAIL
  6
CONTINUOUS
 62
     5
 10
-143.468228
 20
84.000018
 30
0.0
 11
-143.468228
 21
102.500018
 31
0.0
  0
LINE
  5
F81
  8
DETAIL
  6
CONTINUOUS
 62
     5
 10
-157.500007
 20
84.000018
 30
0.0
 11
-157.500007
 21
102.500018
 31
0.0
  0
LINE
  5
F82
  8
DETAIL
  6
CONTINUOUS
 62
     5
 10
-132.250007
 20
253.750018
 30
0.0
 11
-147.500007
 21
253.750018
 31
0.0
  0
LINE
  5
F83
  8
DETAIL
  6
CONTINUOUS
 62
     5
 10
-132.250007
 20
250.250018
 30
0.0
 11
-147.500007
 21
250.250018
 31
0.0
  0
LINE
  5
F84
  8
DETAIL
  6
CONTINUOUS
 62
     5
 10
-147.500007
 20
253.750018
 30
0.0
 11
-147.500007
 21
250.250018
 31
0.0
  0
LINE
  5
F85
  8
DETAIL
  6
CONTINUOUS
 62
     5
 10
-132.250007
 20
398.750018
 30
0.0
 11
-147.500007
 21
398.750018
 31
0.0
  0
LINE
  5
F86
  8
DETAIL
  6
CONTINUOUS
 62
     5
 10
-132.250007
 20
395.250018
 30
0.0
 11
-147.500007
 21
395.250018
 31
0.0
  0
LINE
  5
F87
  8
DETAIL
  6
CONTINUOUS
 62
     5
 10
-147.500007
 20
398.750018
 30
0.0
 11
-147.500007
 21
395.250018
 31
0.0
  0
LINE
  5
F88
  8
DETAIL
  6
CONTINUOUS
 62
     5
 10
-143.468228
 20
543.750018
 30
0.0
 11
-143.468228
 21
684.500018
 31
0.0
  0
LINE
  5
F89
  8
DETAIL
  6
CONTINUOUS
 62
     5
 10
-147.500007
 20
543.750018
 30
0.0
 11
-147.500007
 21
540.250018
 31
0.0
  0
LINE
  5
F8A
  8
DETAIL
  6
CONTINUOUS
 62
     5
 10
-132.250007
 20
543.750018
 30
0.0
 11
-147.500007
 21
543.750018
 31
0.0
  0
LINE
  5
F8B
  8
DETAIL
  6
CONTINUOUS
 62
     5
 10
-132.250007
 20
540.250018
 30
0.0
 11
-147.500007
 21
540.250018
 31
0.0
  0
LINE
  5
F8C
  8
DETAIL
  6
CONTINUOUS
 62
     5
 10
-143.468228
 20
688.000018
 30
0.0
 11
-143.468228
 21
830.250018
 31
0.0
  0
LINE
  5
F8D
  8
DETAIL
  6
CONTINUOUS
 62
     5
 10
-163.500007
 20
688.000018
 30
0.0
 11
-132.250007
 21
688.000018
 31
0.0
  0
LINE
  5
F8E
  8
DETAIL
  6
CONTINUOUS
 62
     5
 10
-158.321928
 20
684.500018
 30
0.0
 11
-132.250007
 21
684.500018
 31
0.0
  0
LINE
  5
F8F
  8
DETAIL
  6
CONTINUOUS
 62
     5
 10
-132.250007
 20
833.750018
 30
0.0
 11
-147.500007
 21
833.750018
 31
0.0
  0
LINE
  5
F90
  8
DETAIL
  6
CONTINUOUS
 62
     5
 10
-147.500007
 20
833.750018
 30
0.0
 11
-147.500007
 21
830.250018
 31
0.0
  0
LINE
  5
F91
  8
DETAIL
  6
CONTINUOUS
 62
     5
 10
-132.250007
 20
830.250018
 30
0.0
 11
-147.500007
 21
830.250018
 31
0.0
  0
LINE
  5
F92
  8
DETAIL
  6
CONTINUOUS
 62
     5
 10
-143.468228
 20
1123.750018
 30
0.0
 11
-143.468228
 21
1266.500018
 31
0.0
  0
LINE
  5
F93
  8
DETAIL
  6
CONTINUOUS
 62
     5
 10
-143.468228
 20
978.750018
 30
0.0
 11
-143.468228
 21
1120.250018
 31
0.0
  0
LINE
  5
F94
  8
DETAIL
  6
CONTINUOUS
 62
     5
 10
-147.500007
 20
978.750018
 30
0.0
 11
-147.500007
 21
975.250018
 31
0.0
  0
LINE
  5
F95
  8
DETAIL
  6
CONTINUOUS
 62
     5
 10
-132.250007
 20
978.750018
 30
0.0
 11
-147.500007
 21
978.750018
 31
0.0
  0
LINE
  5
F96
  8
DETAIL
  6
CONTINUOUS
 62
     5
 10
-132.250007
 20
975.250018
 30
0.0
 11
-147.500007
 21
975.250018
 31
0.0
  0
LINE
  5
F97
  8
DETAIL
  6
CONTINUOUS
 62
     5
 10
-147.500007
 20
1123.750018
 30
0.0
 11
-147.500007
 21
1120.250018
 31
0.0
  0
LINE
  5
F98
  8
DETAIL
  6
CONTINUOUS
 62
     5
 10
-132.250007
 20
1123.750018
 30
0.0
 11
-147.500007
 21
1123.750018
 31
0.0
  0
LINE
  5
F99
  8
DETAIL
  6
CONTINUOUS
 62
     5
 10
-132.250007
 20
1120.250018
 30
0.0
 11
-147.500007
 21
1120.250018
 31
0.0
  0
LINE
  5
F9A
  8
DETAIL
  6
CONTINUOUS
 62
     5
 10
-173.500007
 20
1370.000018
 30
0.0
 11
-173.500007
 21
1290.000018
 31
0.0
  0
LINE
  5
F9B
  8
DETAIL
  6
CONTINUOUS
 62
     5
 10
-172.500007
 20
1290.000018
 30
0.0
 11
-173.500007
 21
1290.000018
 31
0.0
  0
LINE
  5
F9C
  8
DETAIL
  6
CONTINUOUS
 62
     5
 10
-163.500007
 20
1270.000018
 30
0.0
 11
-132.250007
 21
1270.000018
 31
0.0
  0
LINE
  5
F9D
  8
DETAIL
  6
CONTINUOUS
 62
     5
 10
-158.321928
 20
1266.500018
 30
0.0
 11
-132.250007
 21
1266.500018
 31
0.0
  0
LINE
  5
F9E
  8
DETAIL
  6
CONTINUOUS
 62
     5
 10
-128.750007
 20
1280.000018
 30
0.0
 11
-132.250007
 21
1280.000018
 31
0.0
  0
LINE
  5
F9F
  8
DETAIL
  6
CONTINUOUS
 62
     5
 10
-157.500007
 20
1270.000018
 30
0.0
 11
-157.500007
 21
1290.000018
 31
0.0
  0
LINE
  5
FA0
  8
DETAIL
  6
CONTINUOUS
 62
     5
 10
-143.468228
 20
1270.000018
 30
0.0
 11
-143.468228
 21
1290.000018
 31
0.0
  0
LINE
  5
FA1
  8
SIZE
  6
CONTINUOUS
 62
    30
 10
-274.75006
 20
263.000019
 30
0.0
 11
-882.823755
 21
263.000019
 31
0.0
  0
LINE
  5
FA2
  8
SIZE
  6
CONTINUOUS
 62
    30
 10
-400.000007
 20
-0.000008
 30
0.0
 11
-882.823755
 21
-0.000008
 31
0.0
  0
LINE
  5
FA3
  8
SIZE
  6
CONTINUOUS
 62
    30
 10
-852.823755
 20
253.000019
 30
0.0
 11
-852.823755
 21
9.999992
 31
0.0
  0
CIRCLE
  5
FA4
  8
SIZE
  6
CONTINUOUS
 62
    30
 10
-852.823755
 20
263.000019
 30
0.0
 40
5.0
  0
LINE
  5
FA5
  8
SIZE
  6
CONTINUOUS
 62
    30
 10
-852.823755
 20
258.000019
 30
0.0
 11
-852.823755
 21
253.000019
 31
0.0
  0
CIRCLE
  5
FA6
  8
SIZE
  6
CONTINUOUS
 62
    30
 10
-852.823755
 20
-0.000008
 30
0.0
 40
5.0
  0
LINE
  5
FA7
  8
SIZE
  6
CONTINUOUS
 62
    30
 10
-852.823755
 20
4.999992
 30
0.0
 11
-852.823755
 21
9.999992
 31
0.0
  0
TEXT
  5
FA8
  8
SIZE
  6
CONTINUOUS
 62
    30
 10
-867.823755
 20
67.857149
 30
0.0
 40
55.0
  1
263
 50
90.0
 41
0.9
 72
     1
 11
-867.823755
 21
131.500006
 31
0.0
  0
POINT
  5
FA9
  8
DEFPOINTS
  6
CONTINUOUS
 62
     7
 10
-254.75006
 20
263.000019
 30
0.0
  0
POINT
  5
FAA
  8
DEFPOINTS
  6
CONTINUOUS
 62
     7
 10
-380.000007
 20
-0.000008
 30
0.0
  0
POINT
  5
FAB
  8
DEFPOINTS
  6
CONTINUOUS
 62
     7
 10
-852.823755
 20
-0.000008
 30
0.0
  0
LINE
  5
FAC
  8
SIZE
  6
CONTINUOUS
 62
    30
 10
-274.75006
 20
261.000035
 30
0.0
 11
-779.740583
 21
261.000035
 31
0.0
  0
LINE
  5
FAD
  8
SIZE
  6
CONTINUOUS
 62
    30
 10
-400.000007
 20
-0.000008
 30
0.0
 11
-779.740583
 21
-0.000008
 31
0.0
  0
LINE
  5
FAE
  8
SIZE
  6
CONTINUOUS
 62
    30
 10
-749.740583
 20
251.000035
 30
0.0
 11
-749.740583
 21
9.999992
 31
0.0
  0
CIRCLE
  5
FAF
  8
SIZE
  6
CONTINUOUS
 62
    30
 10
-749.740583
 20
261.000035
 30
0.0
 40
5.0
  0
LINE
  5
FB0
  8
SIZE
  6
CONTINUOUS
 62
    30
 10
-749.740583
 20
256.000035
 30
0.0
 11
-749.740583
 21
251.000035
 31
0.0
  0
CIRCLE
  5
FB1
  8
SIZE
  6
CONTINUOUS
 62
    30
 10
-749.740583
 20
-0.000008
 30
0.0
 40
5.0
  0
LINE
  5
FB2
  8
SIZE
  6
CONTINUOUS
 62
    30
 10
-749.740583
 20
4.999992
 30
0.0
 11
-749.740583
 21
9.999992
 31
0.0
  0
TEXT
  5
FB3
  8
SIZE
  6
CONTINUOUS
 62
    30
 10
-764.740583
 20
77.4643
 30
0.0
 40
55.0
  1
261
 50
90.0
 41
0.9
 72
     1
 11
-764.740583
 21
130.500014
 31
0.0
  0
POINT
  5
FB4
  8
DEFPOINTS
  6
CONTINUOUS
 62
     7
 10
-254.75006
 20
261.000035
 30
0.0
  0
POINT
  5
FB5
  8
DEFPOINTS
  6
CONTINUOUS
 62
     7
 10
-380.000007
 20
-0.000008
 30
0.0
  0
POINT
  5
FB6
  8
DEFPOINTS
  6
CONTINUOUS
 62
     7
 10
-749.740583
 20
-0.000008
 30
0.0
  0
LINE
  5
FB7
  8
SIZE
  6
CONTINUOUS
 62
    30
 10
-235.00006
 20
241.000019
 30
0.0
 11
-235.00006
 21
-278.119774
 31
0.0
  0
LINE
  5
FB8
  8
SIZE
  6
CONTINUOUS
 62
    30
 10
-380.000007
 20
-20.000008
 30
0.0
 11
-380.000007
 21
-278.119774
 31
0.0
  0
LINE
  5
FB9
  8
SIZE
  6
CONTINUOUS
 62
    30
 10
-245.00006
 20
-248.119774
 30
0.0
 11
-370.000007
 21
-248.119774
 31
0.0
  0
LINE
  5
FBA
  8
SIZE
  6
CONTINUOUS
 62
    30
 10
-380.000007
 20
-248.119774
 30
0.0
 11
-537.85715
 21
-248.119774
 31
0.0
  0
CIRCLE
  5
FBB
  8
SIZE
  6
CONTINUOUS
 62
    30
 10
-235.00006
 20
-248.119774
 30
0.0
 40
5.0
  0
LINE
  5
FBC
  8
SIZE
  6
CONTINUOUS
 62
    30
 10
-240.00006
 20
-248.119774
 30
0.0
 11
-245.00006
 21
-248.119774
 31
0.0
  0
CIRCLE
  5
FBD
  8
SIZE
  6
CONTINUOUS
 62
    30
 10
-380.000007
 20
-248.119774
 30
0.0
 40
5.0
  0
LINE
  5
FBE
  8
SIZE
  6
CONTINUOUS
 62
    30
 10
-375.000007
 20
-248.119774
 30
0.0
 11
-370.000007
 21
-248.119774
 31
0.0
  0
TEXT
  5
FBF
  8
SIZE
  6
CONTINUOUS
 62
    30
 10
-522.857149
 20
-233.119774
 30
0.0
 40
55.0
  1
145
 41
0.9
 72
     1
 11
-463.928578
 21
-233.119774
 31
0.0
  0
POINT
  5
FC0
  8
DEFPOINTS
  6
CONTINUOUS
 62
     7
 10
-235.00006
 20
261.000019
 30
0.0
  0
POINT
  5
FC1
  8
DEFPOINTS
  6
CONTINUOUS
 62
     7
 10
-380.000007
 20
-0.000008
 30
0.0
  0
POINT
  5
FC2
  8
DEFPOINTS
  6
CONTINUOUS
 62
     7
 10
-380.000007
 20
-248.119774
 30
0.0
  0
TEXT
  5
FC3
  8
NOTE
  6
CONTINUOUS
 62
     4
 10
-1271.256003
 20
-270.507955
 30
0.0
 40
55.0
  1
%%C45ﾉｯｸｱｳﾄ穴
 50
359.999997
 41
0.630952
  7
STANDARD1
  0
ENDSEC
  0
EOF
