  0
SECTION
  2
HEADER
  9
$ACADVER
  1
AC1009
  9
$INSBASE
 10
0.0
 20
0.0
 30
0.0
  9
$EXTMIN
 10
-1203.552223047652
 20
-392.91227565020381
 30
-0.0000000000130561
  9
$EXTMAX
 10
1693.1762861706959
 20
2056.1050542701309
 30
0.0000000000011552
  9
$LIMMIN
 10
-4200.0
 20
-2970.0
  9
$LIMMAX
 10
4200.0
 20
2970.0
  9
$ORTHOMODE
 70
     0
  9
$REGENMODE
 70
     1
  9
$FILLMODE
 70
     1
  9
$QTEXTMODE
 70
     0
  9
$MIRRTEXT
 70
     0
  9
$DRAGMODE
 70
     2
  9
$LTSCALE
 40
20.0
  9
$OSMODE
 70
   959
  9
$ATTMODE
 70
     1
  9
$TEXTSIZE
 40
64.0
  9
$TRACEWID
 40
0.05
  9
$TEXTSTYLE
  7
STANDARD
  9
$CLAYER
  8
SYMBOLLINE
  9
$CELTYPE
  6
CONTINUOUS
  9
$CECOLOR
 62
     7
  9
$DIMSCALE
 40
1.0
  9
$DIMASZ
 40
10.0
  9
$DIMEXO
 40
20.0
  9
$DIMDLI
 40
200.0
  9
$DIMRND
 40
0.0
  9
$DIMDLE
 40
0.0
  9
$DIMEXE
 40
30.0
  9
$DIMTP
 40
0.0
  9
$DIMTM
 40
0.0
  9
$DIMTXT
 40
55.0
  9
$DIMCEN
 40
0.0
  9
$DIMTSZ
 40
0.0
  9
$DIMTOL
 70
     0
  9
$DIMLIM
 70
     0
  9
$DIMTIH
 70
     0
  9
$DIMTOH
 70
     0
  9
$DIMSE1
 70
     0
  9
$DIMSE2
 70
     0
  9
$DIMTAD
 70
     1
  9
$DIMZIN
 70
     8
  9
$DIMBLK
  1
DOTBLANK
  9
$DIMASO
 70
     1
  9
$DIMSHO
 70
     0
  9
$DIMPOST
  1

  9
$DIMAPOST
  1

  9
$DIMALT
 70
     0
  9
$DIMALTD
 70
     2
  9
$DIMALTF
 40
25.399999999999999
  9
$DIMLFAC
 40
1.0
  9
$DIMTOFL
 70
     1
  9
$DIMTVP
 40
0.0
  9
$DIMTIX
 70
     1
  9
$DIMSOXD
 70
     0
  9
$DIMSAH
 70
     0
  9
$DIMBLK1
  1

  9
$DIMBLK2
  1

  9
$DIMSTYLE
  2
STANDARD
  9
$DIMCLRD
 70
     0
  9
$DIMCLRE
 70
     0
  9
$DIMCLRT
 70
     0
  9
$DIMTFAC
 40
1.0
  9
$DIMGAP
 40
0.09
  9
$LUNITS
 70
     2
  9
$LUPREC
 70
     4
  9
$SKETCHINC
 40
0.1
  9
$FILLETRAD
 40
0.0
  9
$AUNITS
 70
     1
  9
$AUPREC
 70
     3
  9
$MENU
  1
ACAD
  9
$ELEVATION
 40
0.0
  9
$PELEVATION
 40
0.0
  9
$THICKNESS
 40
0.0
  9
$LIMCHECK
 70
     0
  9
$BLIPMODE
 70
     0
  9
$CHAMFERA
 40
0.0
  9
$CHAMFERB
 40
0.0
  9
$SKPOLY
 70
     0
  9
$TDCREATE
 40
2449761.4936229978
  9
$TDUPDATE
 40
2455622.618483067
  9
$TDINDWG
 40
4.5059687384
  9
$TDUSRTIMER
 40
4.5059680093000001
  9
$USRTIMER
 70
     1
  9
$ANGBASE
 50
0.0
  9
$ANGDIR
 70
     0
  9
$PDMODE
 70
    35
  9
$PDSIZE
 40
100.0
  9
$PLINEWID
 40
0.0
  9
$COORDS
 70
     0
  9
$SPLFRAME
 70
     0
  9
$SPLINETYPE
 70
     6
  9
$SPLINESEGS
 70
     8
  9
$ATTDIA
 70
     0
  9
$ATTREQ
 70
     1
  9
$HANDLING
 70
     1
  9
$HANDSEED
  5
10CA
  9
$SURFTAB1
 70
     6
  9
$SURFTAB2
 70
     6
  9
$SURFTYPE
 70
     6
  9
$SURFU
 70
     6
  9
$SURFV
 70
     6
  9
$UCSNAME
  2

  9
$UCSORG
 10
0.0
 20
0.0
 30
0.0
  9
$UCSXDIR
 10
1.0
 20
0.0
 30
0.0
  9
$UCSYDIR
 10
0.0
 20
1.0
 30
0.0
  9
$PUCSNAME
  2

  9
$PUCSORG
 10
0.0
 20
0.0
 30
0.0
  9
$PUCSXDIR
 10
1.0
 20
0.0
 30
0.0
  9
$PUCSYDIR
 10
0.0
 20
1.0
 30
0.0
  9
$USERI1
 70
     0
  9
$USERI2
 70
     0
  9
$USERI3
 70
     0
  9
$USERI4
 70
     0
  9
$USERI5
 70
     0
  9
$USERR1
 40
20.0
  9
$USERR2
 40
0.0
  9
$USERR3
 40
0.0
  9
$USERR4
 40
0.0
  9
$USERR5
 40
0.0
  9
$WORLDVIEW
 70
     1
  9
$SHADEDGE
 70
     3
  9
$SHADEDIF
 70
    70
  9
$TILEMODE
 70
     1
  9
$MAXACTVP
 70
    48
  9
$PLIMCHECK
 70
     0
  9
$PEXTMIN
 10
1.0000000000000000E+020
 20
1.0000000000000000E+020
 30
1.0000000000000000E+020
  9
$PEXTMAX
 10
-1.0000000000000000E+020
 20
-1.0000000000000000E+020
 30
-1.0000000000000000E+020
  9
$PLIMMIN
 10
0.0
 20
0.0
  9
$PLIMMAX
 10
12.0
 20
9.0
  9
$UNITMODE
 70
     0
  9
$VISRETAIN
 70
     1
  9
$PLINEGEN
 70
     0
  9
$PSLTSCALE
 70
     1
  0
ENDSEC
  0
SECTION
  2
TABLES
  0
TABLE
  2
VPORT
 70
     1
  0
VPORT
  2
*ACTIVE
 70
     0
 10
0.0
 20
0.0
 11
1.0
 21
1.0
 12
0.0000000000003411
 22
0.0
 13
0.0
 23
0.0
 14
50.0
 24
50.0
 15
100.0
 25
100.0
 16
0.0
 26
0.0
 36
1.0
 17
0.0
 27
0.0
 37
0.0
 40
5985.5172413793098
 41
1.5639386189258311
 42
50.0
 43
0.0
 44
0.0
 50
0.0
 51
0.0
 71
     0
 72
  1000
 73
     1
 74
     0
 75
     0
 76
     0
 77
     0
 78
     0
  0
ENDTAB
  0
TABLE
  2
LTYPE
 70
     3
  0
LTYPE
  2
CONTINUOUS
 70
     0
  3
実線
 72
    65
 73
     0
 40
0.0
  0
LTYPE
  2
DASHDOT
 70
     0
  3
____ _ ____ _ ____ _ ____ _ ____ _ ____ _ ____
 72
    65
 73
     4
 40
5.5
 49
4.0
 49
-0.6
 49
0.3
 49
-0.6
  0
ENDTAB
  0
TABLE
  2
LAYER
 70
    12
  0
LAYER
  2
0
 70
     0
 62
     7
  6
CONTINUOUS
  0
LAYER
  2
SIZE
 70
     0
 62
    30
  6
CONTINUOUS
  0
LAYER
  2
OUTLINE
 70
     0
 62
     3
  6
CONTINUOUS
  0
LAYER
  2
DETAIL
 70
     0
 62
     5
  6
CONTINUOUS
  0
LAYER
  2
BASIS
 70
     0
 62
     6
  6
DASHDOT
  0
LAYER
  2
NOTE
 70
     0
 62
     4
  6
CONTINUOUS
  0
LAYER
  2
ARRANGE
 70
     0
 62
     1
  6
CONTINUOUS
  0
LAYER
  2
FIX
 70
     0
 62
    11
  6
CONTINUOUS
  0
LAYER
  2
SERVICESPACE
 70
     0
 62
     2
  6
DASHDOT
  0
LAYER
  2
ETC
 70
     0
 62
    61
  6
CONTINUOUS
  0
LAYER
  2
SYMBOLLINE
 70
     0
 62
    15
  6
CONTINUOUS
  0
LAYER
  2
DEFPOINTS
 70
     0
 62
     7
  6
CONTINUOUS
  0
ENDTAB
  0
TABLE
  2
STYLE
 70
     3
  0
STYLE
  2
STANDARD
 70
     0
 40
0.0
 41
0.9
 50
0.0
 71
     0
 42
64.0
  3
SIMPLEX
  4
BIGFONT
  0
STYLE
  2
ANNOTATIVE
 70
     0
 40
0.0
 41
1.0
 50
0.0
 71
     0
 42
0.2
  3
txt
  4

  0
STYLE
  2
STANDARD1
 70
     0
 40
0.0
 41
1.0
 50
0.0
 71
     0
 42
3.5
  3
MONOTXT
  4
BIGFONT
  0
ENDTAB
  0
TABLE
  2
VIEW
 70
     5
  0
VIEW
  2
ALL
 70
     0
 40
6056.2300320000013
 10
0.0
 20
58.115015999999997
 41
8400.0
 11
0.0
 21
0.0
 31
1.0
 12
0.0
 22
0.0
 32
0.0
 42
50.0
 43
0.0
 44
0.0
 50
0.0
 71
     0
  0
ENDTAB
  0
TABLE
  2
UCS
 70
     0
  0
ENDTAB
  0
TABLE
  2
APPID
 70
     4
  0
APPID
  2
ACAD
 70
     0
  0
APPID
  2
ACADANNOTATIVE
 70
     0
  0
APPID
  2
ACAD_MLEADERVER
 70
     0
  0
APPID
  2
ACAD_EXEMPT_FROM_CAD_STANDARDS
 70
     0
  0
ENDTAB
  0
TABLE
  2
DIMSTYLE
 70
     3
  0
DIMSTYLE
  2
STANDARD
 70
     0
  3

  4

  5

  6

  7

 40
1.0
 41
0.18
 42
0.0625
 43
0.38
 44
0.18
 45
0.0
 46
0.0
 47
0.0
 48
0.0
140
0.18
141
0.09
142
0.0
143
25.399999999999999
144
1.0
145
0.0
146
1.0
147
0.09
 71
     0
 72
     0
 73
     1
 74
     1
 75
     0
 76
     0
 77
     0
 78
     0
170
     0
171
     2
172
     0
173
     0
174
     0
175
     0
176
     0
177
     0
178
     0
  0
DIMSTYLE
  2
ANNOTATIVE
 70
     0
  3

  4

  5

  6

  7

 40
1.0
 41
0.18
 42
0.0625
 43
0.38
 44
0.18
 45
0.0
 46
0.0
 47
0.0
 48
0.0
140
0.18
141
0.09
142
0.0
143
25.399999999999999
144
1.0
145
0.0
146
1.0
147
0.09
 71
     0
 72
     0
 73
     1
 74
     1
 75
     0
 76
     0
 77
     0
 78
     0
170
     0
171
     2
172
     0
173
     0
174
     0
175
     0
176
     0
177
     0
178
     0
  0
ENDTAB
  0
ENDSEC
  0
SECTION
  2
BLOCKS
  0
BLOCK
  8
0
  2
$MODEL_SPACE
 70
     0
 10
0.0
 20
0.0
 30
0.0
  3
$MODEL_SPACE
  1

  0
ENDBLK
  5
1017
  8
0
  0
BLOCK
 67
     1
  8
0
  2
$PAPER_SPACE
 70
     0
 10
0.0
 20
0.0
 30
0.0
  3
$PAPER_SPACE
  1

  0
ENDBLK
  5
1013
 67
     1
  8
0
  0
BLOCK
  8
0
  2
_DOTBLANK
 70
     0
 10
0.0
 20
0.0
 30
0.0
  3
_DOTBLANK
  1

  0
CIRCLE
  5
32
  8
0
  6
CONTINUOUS
 62
     7
 10
0.0
 20
0.0
 30
0.0
 40
0.5
  0
LINE
  5
33
  8
0
  6
CONTINUOUS
 62
     7
 10
-0.5
 20
0.0
 30
0.0
 11
-1.0
 21
0.0
 31
0.0
  0
ENDBLK
  5
34
  8
0
  0
ENDSEC
  0
SECTION
  2
ENTITIES
  0
LINE
  5
35
  8
SIZE
  6
CONTINUOUS
 62
    30
 10
469.50002799999999
 20
0.000008
 30
0.0
 11
1068.8906380000001
 21
0.000008
 31
0.0
  0
LINE
  5
36
  8
SIZE
  6
CONTINUOUS
 62
    30
 10
100.000006
 20
1650.000008
 30
0.0
 11
1068.8906380000001
 21
1650.000008
 31
0.0
  0
LINE
  5
37
  8
SIZE
  6
CONTINUOUS
 62
    30
 10
1038.8906380000001
 20
10.000007999999999
 30
0.0
 11
1038.8906380000001
 21
1640.000008
 31
0.0
  0
CIRCLE
  5
38
  8
SIZE
  6
CONTINUOUS
 62
    30
 10
1038.8906380000001
 20
0.000008
 30
0.0
 40
5.0
  0
LINE
  5
39
  8
SIZE
  6
CONTINUOUS
 62
    30
 10
1038.8906380000001
 20
5.0000080000000002
 30
0.0
 11
1038.8906380000001
 21
10.000007999999999
 31
0.0
  0
CIRCLE
  5
3A
  8
SIZE
  6
CONTINUOUS
 62
    30
 10
1038.8906380000001
 20
1650.000008
 30
0.0
 40
5.0
  0
LINE
  5
3B
  8
SIZE
  6
CONTINUOUS
 62
    30
 10
1038.8906380000001
 20
1645.000008
 30
0.0
 11
1038.8906380000001
 21
1640.000008
 31
0.0
  0
TEXT
  5
3C
  8
SIZE
  6
CONTINUOUS
 62
    30
 10
1023.890638
 20
745.56204100000002
 30
0.0
 40
55.0
  1
1650
 50
90.0
 41
0.9
 72
     1
 11
1023.890638
 21
828.06204100000002
 31
0.0
  0
POINT
  5
3D
  8
DEFPOINTS
  6
CONTINUOUS
 62
     7
 10
449.50002799999999
 20
0.000008
 30
0.0
  0
POINT
  5
3E
  8
DEFPOINTS
  6
CONTINUOUS
 62
     7
 10
80.000005999999985
 20
1650.000008
 30
0.0
  0
POINT
  5
3F
  8
DEFPOINTS
  6
CONTINUOUS
 62
     7
 10
1038.8906380000001
 20
1650.000008
 30
0.0
  0
LINE
  5
40
  8
SIZE
  6
CONTINUOUS
 62
    30
 10
469.50002799999999
 20
0.000008
 30
0.0
 11
926.09401899999989
 21
0.000008
 31
0.0
  0
LINE
  5
41
  8
SIZE
  6
CONTINUOUS
 62
    30
 10
476.00002799999999
 20
1410.000004
 30
0.0
 11
926.09401899999989
 21
1410.000004
 31
0.0
  0
LINE
  5
42
  8
SIZE
  6
CONTINUOUS
 62
    30
 10
896.094019
 20
10.000007999999999
 30
0.0
 11
896.094019
 21
1400.000004
 31
0.0
  0
CIRCLE
  5
43
  8
SIZE
  6
CONTINUOUS
 62
    30
 10
896.094019
 20
0.000008
 30
0.0
 40
5.0
  0
LINE
  5
44
  8
SIZE
  6
CONTINUOUS
 62
    30
 10
896.094019
 20
5.0000080000000002
 30
0.0
 11
896.094019
 21
10.000007999999999
 31
0.0
  0
CIRCLE
  5
45
  8
SIZE
  6
CONTINUOUS
 62
    30
 10
896.094019
 20
1410.000004
 30
0.0
 40
5.0
  0
LINE
  5
46
  8
SIZE
  6
CONTINUOUS
 62
    30
 10
896.094019
 20
1405.000004
 30
0.0
 11
896.094019
 21
1400.000004
 31
0.0
  0
TEXT
  5
47
  8
SIZE
  6
CONTINUOUS
 62
    30
 10
881.094019
 20
627.21427371428581
 30
0.0
 40
55.0
  1
1410
 50
90.0
 41
0.9
 72
     1
 11
881.094019
 21
704.99998800000003
 31
0.0
  0
POINT
  5
48
  8
DEFPOINTS
  6
CONTINUOUS
 62
     7
 10
449.50002799999999
 20
0.000008
 30
0.0
  0
POINT
  5
49
  8
DEFPOINTS
  6
CONTINUOUS
 62
     7
 10
456.00002799999999
 20
1410.000004
 30
0.0
  0
POINT
  5
4A
  8
DEFPOINTS
  6
CONTINUOUS
 62
     7
 10
896.094019
 20
1410.000004
 30
0.0
  0
LINE
  5
4B
  8
NOTE
  6
CONTINUOUS
 62
     4
 10
-554.40128900000002
 20
1246.2450269999999
 30
0.0
 11
-604.29733499999986
 21
1196.2450260000001
 31
0.0
  0
LINE
  5
4C
  8
NOTE
  6
CONTINUOUS
 62
     4
 10
-604.29733499999986
 20
1296.245028
 30
0.0
 11
-554.40128900000002
 21
1246.2450269999999
 31
0.0
  0
LINE
  5
4D
  8
NOTE
  6
CONTINUOUS
 62
     4
 10
-604.29733499999986
 20
1296.245028
 30
0.0
 11
-604.29733499999986
 21
1271.2450269999999
 31
0.0
  0
LINE
  5
4E
  8
NOTE
  6
CONTINUOUS
 62
     4
 10
-604.29733499999986
 20
1221.2450260000001
 30
0.0
 11
-604.29733499999986
 21
1196.2450260000001
 31
0.0
  0
LINE
  5
4F
  8
NOTE
  6
CONTINUOUS
 62
     4
 10
-604.29733499999986
 20
1221.2450260000001
 30
0.0
 11
-644.98342400000001
 21
1221.2450260000001
 31
0.0
  0
LINE
  5
50
  8
NOTE
  6
CONTINUOUS
 62
     4
 10
-604.29733499999986
 20
1271.2450269999999
 30
0.0
 11
-644.98342400000001
 21
1271.2450269999999
 31
0.0
  0
LINE
  5
51
  8
NOTE
  6
CONTINUOUS
 62
     4
 10
-644.98342400000001
 20
1221.2450260000001
 30
0.0
 11
-644.98342400000001
 21
1271.2450269999999
 31
0.0
  0
LINE
  5
52
  8
NOTE
  6
CONTINUOUS
 62
     4
 10
-558.62234999999998
 20
975.90970299999992
 30
0.0
 11
-608.51839600000005
 21
925.90970199999981
 31
0.0
  0
LINE
  5
53
  8
NOTE
  6
CONTINUOUS
 62
     4
 10
-608.51839600000005
 20
1025.9097039999999
 30
0.0
 11
-558.62234999999998
 21
975.90970299999992
 31
0.0
  0
LINE
  5
54
  8
NOTE
  6
CONTINUOUS
 62
     4
 10
-608.51839600000005
 20
1025.9097039999999
 30
0.0
 11
-608.51839600000005
 21
1000.909703
 31
0.0
  0
LINE
  5
55
  8
NOTE
  6
CONTINUOUS
 62
     4
 10
-608.51839600000005
 20
950.90970199999981
 30
0.0
 11
-608.51839600000005
 21
925.90970199999981
 31
0.0
  0
LINE
  5
56
  8
NOTE
  6
CONTINUOUS
 62
     4
 10
-608.51839600000005
 20
950.90970199999981
 30
0.0
 11
-649.20448399999998
 21
950.90970199999981
 31
0.0
  0
LINE
  5
57
  8
NOTE
  6
CONTINUOUS
 62
     4
 10
-608.51839600000005
 20
1000.909703
 30
0.0
 11
-649.20448399999998
 21
1000.909703
 31
0.0
  0
LINE
  5
58
  8
NOTE
  6
CONTINUOUS
 62
     4
 10
-649.20448399999998
 20
950.90970199999981
 30
0.0
 11
-649.20448399999998
 21
1000.909703
 31
0.0
  0
TEXT
  5
59
  8
NOTE
  6
CONTINUOUS
 62
     4
 10
-661.61462000000006
 20
1042.2888800000001
 30
0.0
 40
55.0
  1
吸込
 50
359.99999700000001
 41
0.703125
  7
STANDARD1
  0
TEXT
  5
5A
  8
NOTE
  6
CONTINUOUS
 62
     4
 10
-661.61462000000006
 20
1128.9555680000001
 30
0.0
 40
55.0
  1
空気
 50
359.99999700000001
 41
0.703125
  7
STANDARD1
  0
LINE
  5
5B
  8
SIZE
  6
CONTINUOUS
 62
    30
 10
476.00002799999999
 20
1410.000004
 30
0.0
 11
926.16355899999985
 21
1410.000004
 31
0.0
  0
LINE
  5
5C
  8
SIZE
  6
CONTINUOUS
 62
    30
 10
100.000006
 20
1650.000008
 30
0.0
 11
926.16355899999985
 21
1650.000008
 31
0.0
  0
LINE
  5
5D
  8
SIZE
  6
CONTINUOUS
 62
    30
 10
896.16355899999996
 20
1420.000004
 30
0.0
 11
896.16355899999996
 21
1640.000008
 31
0.0
  0
CIRCLE
  5
5E
  8
SIZE
  6
CONTINUOUS
 62
    30
 10
896.16355899999996
 20
1410.000004
 30
0.0
 40
5.0
  0
LINE
  5
5F
  8
SIZE
  6
CONTINUOUS
 62
    30
 10
896.16355899999996
 20
1415.000004
 30
0.0
 11
896.16355899999996
 21
1420.000004
 31
0.0
  0
CIRCLE
  5
60
  8
SIZE
  6
CONTINUOUS
 62
    30
 10
896.16355899999996
 20
1650.000008
 30
0.0
 40
5.0
  0
LINE
  5
61
  8
SIZE
  6
CONTINUOUS
 62
    30
 10
896.16355899999996
 20
1645.000008
 30
0.0
 11
896.16355899999996
 21
1640.000008
 31
0.0
  0
TEXT
  5
62
  8
SIZE
  6
CONTINUOUS
 62
    30
 10
866.75879700000007
 20
1442.9939412857141
 30
0.0
 40
55.0
  1
(240)
 50
90.0
 41
0.9
 72
     1
 11
866.75879700000007
 21
1538.4582270000001
 31
0.0
  0
POINT
  5
63
  8
DEFPOINTS
  6
CONTINUOUS
 62
     7
 10
456.00002799999999
 20
1410.000004
 30
0.0
  0
POINT
  5
64
  8
DEFPOINTS
  6
CONTINUOUS
 62
     7
 10
80.000005999999985
 20
1650.000008
 30
0.0
  0
POINT
  5
65
  8
DEFPOINTS
  6
CONTINUOUS
 62
     7
 10
896.16355899999996
 20
1650.000008
 30
0.0
  0
TEXT
  5
66
  8
NOTE
  6
CONTINUOUS
 62
     4
 10
572.92495399999984
 20
1024.102905
 30
0.0
 40
55.0
  1
吸込
 50
359.99999700000001
 41
0.703125
  7
STANDARD1
  0
TEXT
  5
67
  8
NOTE
  6
CONTINUOUS
 62
     4
 10
572.92495399999984
 20
1110.7695940000001
 30
0.0
 40
55.0
  1
空気
 50
359.99999700000001
 41
0.703125
  7
STANDARD1
  0
LINE
  5
68
  8
NOTE
  6
CONTINUOUS
 62
     4
 10
662.39803600000005
 20
1200.661603
 30
0.0
 11
662.39803600000005
 21
1250.6616039999999
 31
0.0
  0
LINE
  5
69
  8
NOTE
  6
CONTINUOUS
 62
     4
 10
621.71194800000001
 20
1250.6616039999999
 30
0.0
 11
662.39803600000005
 21
1250.6616039999999
 31
0.0
  0
LINE
  5
6A
  8
NOTE
  6
CONTINUOUS
 62
     4
 10
621.71194800000001
 20
1200.661603
 30
0.0
 11
662.39803600000005
 21
1200.661603
 31
0.0
  0
LINE
  5
6B
  8
NOTE
  6
CONTINUOUS
 62
     4
 10
621.71194800000001
 20
1200.661603
 30
0.0
 11
621.71194800000001
 21
1175.6616019999999
 31
0.0
  0
LINE
  5
6C
  8
NOTE
  6
CONTINUOUS
 62
     4
 10
621.71194800000001
 20
1275.6616039999999
 30
0.0
 11
621.71194800000001
 21
1250.6616039999999
 31
0.0
  0
LINE
  5
6D
  8
NOTE
  6
CONTINUOUS
 62
     4
 10
621.71194800000001
 20
1275.6616039999999
 30
0.0
 11
571.81590199999994
 21
1225.661603
 31
0.0
  0
LINE
  5
6E
  8
NOTE
  6
CONTINUOUS
 62
     4
 10
571.81590199999994
 20
1225.661603
 30
0.0
 11
621.71194800000001
 21
1175.6616019999999
 31
0.0
  0
LINE
  5
6F
  8
NOTE
  6
CONTINUOUS
 62
     4
 10
617.46968300000003
 20
920.65636300000006
 30
0.0
 11
617.46968300000003
 21
895.65636300000006
 31
0.0
  0
LINE
  5
70
  8
NOTE
  6
CONTINUOUS
 62
     4
 10
567.57363600000008
 20
945.65636400000005
 30
0.0
 11
617.46968300000003
 21
895.65636300000006
 31
0.0
  0
LINE
  5
71
  8
NOTE
  6
CONTINUOUS
 62
     4
 10
617.46968300000003
 20
995.65636500000005
 30
0.0
 11
567.57363600000008
 21
945.65636400000005
 31
0.0
  0
LINE
  5
72
  8
NOTE
  6
CONTINUOUS
 62
     4
 10
617.46968300000003
 20
920.65636300000006
 30
0.0
 11
658.15577099999985
 21
920.65636300000006
 31
0.0
  0
LINE
  5
73
  8
NOTE
  6
CONTINUOUS
 62
     4
 10
617.46968300000003
 20
970.65636400000005
 30
0.0
 11
658.15577099999985
 21
970.65636400000005
 31
0.0
  0
LINE
  5
74
  8
NOTE
  6
CONTINUOUS
 62
     4
 10
658.15577099999985
 20
920.65636300000006
 30
0.0
 11
658.15577099999985
 21
970.65636400000005
 31
0.0
  0
LINE
  5
75
  8
NOTE
  6
CONTINUOUS
 62
     4
 10
617.46968300000003
 20
995.65636500000005
 30
0.0
 11
617.46968300000003
 21
970.65636400000005
 31
0.0
  0
LINE
  5
76
  8
DETAIL
  6
CONTINUOUS
 62
     5
 10
-449.50000799999992
 20
9.0
 30
0.0
 11
-449.50000799999992
 21
0.0
 31
0.0
  0
LINE
  5
78
  8
DETAIL
  6
CONTINUOUS
 62
     5
 10
449.50000799999992
 20
9.0
 30
0.0
 11
449.50000799999992
 21
0.0
 31
0.0
  0
ARC
  5
79
  8
DETAIL
  6
CONTINUOUS
 62
     5
 10
186.14005900000001
 20
1543.000029
 30
0.0
 40
175.00000299999999
 50
2.296419999999999
 51
32.025931999999997
  0
ARC
  5
7A
  8
DETAIL
  6
CONTINUOUS
 62
     5
 10
326.02841000000001
 20
1630.5000299999999
 30
0.0
 40
10.0
 50
32.025931999999997
 51
90.0
  0
ARC
  5
7B
  8
DETAIL
  6
CONTINUOUS
 62
     5
 10
-186.14005900000001
 20
1543.000029
 30
0.0
 40
175.00000299999999
 50
147.97406799999999
 51
177.70357999999999
  0
ARC
  5
7C
  8
DETAIL
  6
CONTINUOUS
 62
     5
 10
-326.02841000000001
 20
1630.5000299999999
 30
0.0
 40
10.0
 50
90.0
 51
147.97406799999999
  0
ARC
  5
7D
  8
DETAIL
  6
CONTINUOUS
 62
     5
 10
-432.00000799999992
 20
39.000000999999997
 30
0.0
 40
8.3000000000000007
 50
90.0
 51
180.0
  0
ARC
  5
7E
  8
DETAIL
  6
CONTINUOUS
 62
     5
 10
-432.00000799999992
 20
21.0
 30
0.0
 40
8.3000000000000007
 50
180.0
 51
270.0
  0
ARC
  5
7F
  8
DETAIL
  6
CONTINUOUS
 62
     5
 10
-390.50000699999998
 20
21.0
 30
0.0
 40
8.3000000000000007
 50
270.0
 51
0.0
  0
ARC
  5
80
  8
DETAIL
  6
CONTINUOUS
 62
     5
 10
-390.50000699999998
 20
39.000000999999997
 30
0.0
 40
8.3000000000000007
 50
0.0
 51
90.0
  0
ARC
  5
81
  8
DETAIL
  6
CONTINUOUS
 62
     5
 10
-432.00000799999992
 20
39.000000999999997
 30
0.0
 40
6.0
 50
90.0
 51
180.0
  0
ARC
  5
82
  8
DETAIL
  6
CONTINUOUS
 62
     5
 10
-390.50000699999998
 20
39.000000999999997
 30
0.0
 40
6.0
 50
0.0
 51
90.0
  0
ARC
  5
83
  8
DETAIL
  6
CONTINUOUS
 62
     5
 10
-390.50000699999998
 20
21.0
 30
0.0
 40
6.0
 50
270.0
 51
0.0
  0
ARC
  5
84
  8
DETAIL
  6
CONTINUOUS
 62
     5
 10
-432.00000799999992
 20
21.0
 30
0.0
 40
6.0
 50
180.0
 51
270.0
  0
ARC
  5
85
  8
DETAIL
  6
CONTINUOUS
 62
     5
 10
432.00000799999992
 20
39.000000999999997
 30
0.0
 40
8.3000000000000007
 50
0.0
 51
90.0
  0
ARC
  5
86
  8
DETAIL
  6
CONTINUOUS
 62
     5
 10
390.50000699999998
 20
39.000000999999997
 30
0.0
 40
8.3000000000000007
 50
90.0
 51
180.0
  0
ARC
  5
87
  8
DETAIL
  6
CONTINUOUS
 62
     5
 10
390.50000699999998
 20
21.0
 30
0.0
 40
8.3000000000000007
 50
180.0
 51
270.0
  0
ARC
  5
88
  8
DETAIL
  6
CONTINUOUS
 62
     5
 10
432.00000799999992
 20
21.0
 30
0.0
 40
8.3000000000000007
 50
270.0
 51
0.0
  0
ARC
  5
89
  8
DETAIL
  6
CONTINUOUS
 62
     5
 10
432.00000799999992
 20
21.0
 30
0.0
 40
6.0
 50
270.0
 51
0.0
  0
ARC
  5
8A
  8
DETAIL
  6
CONTINUOUS
 62
     5
 10
390.50000699999998
 20
21.0
 30
0.0
 40
6.0
 50
180.0
 51
270.0
  0
ARC
  5
8B
  8
DETAIL
  6
CONTINUOUS
 62
     5
 10
390.50000699999998
 20
39.000000999999997
 30
0.0
 40
6.0
 50
90.0
 51
180.0
  0
ARC
  5
8C
  8
DETAIL
  6
CONTINUOUS
 62
     5
 10
432.00000799999992
 20
39.000000999999997
 30
0.0
 40
6.0
 50
0.0
 51
90.0
  0
LINE
  5
19B
  8
DETAIL
  6
CONTINUOUS
 62
     5
 10
-328.4650200000001
 20
1637.3988469999999
 30
0.0
 11
-329.68505900000002
 21
1635.8030610000001
 31
0.0
  0
LINE
  5
19C
  8
DETAIL
  6
CONTINUOUS
 62
     5
 10
-326.95401399999997
 20
1638.713072
 30
0.0
 11
-328.4650200000001
 21
1637.3988469999999
 31
0.0
  0
LINE
  5
19D
  8
DETAIL
  6
CONTINUOUS
 62
     5
 10
-325.21370999999999
 20
1639.6920970000001
 30
0.0
 11
-326.95401399999997
 21
1638.713072
 31
0.0
  0
LINE
  5
19E
  8
DETAIL
  6
CONTINUOUS
 62
     5
 10
-323.315136
 20
1640.295965
 30
0.0
 11
-325.21370999999999
 21
1639.6920970000001
 31
0.0
  0
LINE
  5
19F
  8
DETAIL
  6
CONTINUOUS
 62
     5
 10
-321.335778
 20
1640.5000299999999
 30
0.0
 11
-323.315136
 21
1640.295965
 31
0.0
  0
LINE
  5
1A0
  8
DETAIL
  6
CONTINUOUS
 62
     5
 10
-327.944075
 20
1637.3988469999999
 30
0.0
 11
-329.16411499999998
 21
1635.8030610000001
 31
0.0
  0
LINE
  5
1A1
  8
DETAIL
  6
CONTINUOUS
 62
     5
 10
-326.43306899999999
 20
1638.713072
 30
0.0
 11
-327.944075
 21
1637.3988469999999
 31
0.0
  0
LINE
  5
1A2
  8
DETAIL
  6
CONTINUOUS
 62
     5
 10
-324.69276600000001
 20
1639.6920970000001
 30
0.0
 11
-326.43306899999999
 21
1638.713072
 31
0.0
  0
LINE
  5
1A3
  8
DETAIL
  6
CONTINUOUS
 62
     5
 10
-322.79419200000001
 20
1640.295965
 30
0.0
 11
-324.69276600000001
 21
1639.6920970000001
 31
0.0
  0
LINE
  5
1A4
  8
DETAIL
  6
CONTINUOUS
 62
     5
 10
-320.81483400000002
 20
1640.5000299999999
 30
0.0
 11
-322.79419200000001
 21
1640.295965
 31
0.0
  0
LINE
  5
1A5
  8
DETAIL
  6
CONTINUOUS
 62
     5
 10
-330.23305399999998
 20
1637.3988469999999
 30
0.0
 11
-331.459858
 21
1635.8030610000001
 31
0.0
  0
LINE
  5
1A6
  8
DETAIL
  6
CONTINUOUS
 62
     5
 10
-328.71366999999998
 20
1638.713072
 30
0.0
 11
-330.23305399999998
 21
1637.3988469999999
 31
0.0
  0
LINE
  5
1A7
  8
DETAIL
  6
CONTINUOUS
 62
     5
 10
-326.96371699999997
 20
1639.6920970000001
 30
0.0
 11
-328.71366999999998
 21
1638.713072
 31
0.0
  0
LINE
  5
1A8
  8
DETAIL
  6
CONTINUOUS
 62
     5
 10
-325.05461600000001
 20
1640.295965
 30
0.0
 11
-326.96371699999997
 21
1639.6920970000001
 31
0.0
  0
LINE
  5
1A9
  8
DETAIL
  6
CONTINUOUS
 62
     5
 10
-323.06428399999999
 20
1640.5000299999999
 30
0.0
 11
-325.05461600000001
 21
1640.295965
 31
0.0
  0
LINE
  5
1AA
  8
DETAIL
  6
CONTINUOUS
 62
     5
 10
-329.81553400000001
 20
1637.3988469999999
 30
0.0
 11
-331.04233799999997
 21
1635.8030610000001
 31
0.0
  0
LINE
  5
1AB
  8
DETAIL
  6
CONTINUOUS
 62
     5
 10
-328.29615100000001
 20
1638.713072
 30
0.0
 11
-329.81553400000001
 21
1637.3988469999999
 31
0.0
  0
LINE
  5
1AC
  8
DETAIL
  6
CONTINUOUS
 62
     5
 10
-326.546198
 20
1639.6920970000001
 30
0.0
 11
-328.29615100000001
 21
1638.713072
 31
0.0
  0
LINE
  5
1AD
  8
DETAIL
  6
CONTINUOUS
 62
     5
 10
-324.63709699999998
 20
1640.295965
 30
0.0
 11
-326.546198
 21
1639.6920970000001
 31
0.0
  0
LINE
  5
1AE
  8
DETAIL
  6
CONTINUOUS
 62
     5
 10
-322.64676500000002
 20
1640.5000299999999
 30
0.0
 11
-324.63709699999998
 21
1640.295965
 31
0.0
  0
LINE
  5
1AF
  8
DETAIL
  6
CONTINUOUS
 62
     5
 10
-331.598749
 20
1637.3988469999999
 30
0.0
 11
-332.83082300000001
 21
1635.8030610000001
 31
0.0
  0
LINE
  5
1B0
  8
DETAIL
  6
CONTINUOUS
 62
     5
 10
-330.07283899999999
 20
1638.713072
 30
0.0
 11
-331.598749
 21
1637.3988469999999
 31
0.0
  0
LINE
  5
1B1
  8
DETAIL
  6
CONTINUOUS
 62
     5
 10
-328.31536899999998
 20
1639.6920970000001
 30
0.0
 11
-330.07283899999999
 21
1638.713072
 31
0.0
  0
LINE
  5
1B2
  8
DETAIL
  6
CONTINUOUS
 62
     5
 10
-326.39806700000003
 20
1640.295965
 30
0.0
 11
-328.31536899999998
 21
1639.6920970000001
 31
0.0
  0
LINE
  5
1B3
  8
DETAIL
  6
CONTINUOUS
 62
     5
 10
-324.39918499999999
 20
1640.5000299999999
 30
0.0
 11
-326.39806700000003
 21
1640.295965
 31
0.0
  0
LINE
  5
1B4
  8
DETAIL
  6
CONTINUOUS
 62
     5
 10
-331.28516400000001
 20
1637.3988469999999
 30
0.0
 11
-332.51723800000002
 21
1635.8030610000001
 31
0.0
  0
LINE
  5
1B5
  8
DETAIL
  6
CONTINUOUS
 62
     5
 10
-329.759254
 20
1638.713072
 30
0.0
 11
-331.28516400000001
 21
1637.3988469999999
 31
0.0
  0
LINE
  5
1B6
  8
DETAIL
  6
CONTINUOUS
 62
     5
 10
-328.00178399999999
 20
1639.6920970000001
 30
0.0
 11
-329.759254
 21
1638.713072
 31
0.0
  0
LINE
  5
1B7
  8
DETAIL
  6
CONTINUOUS
 62
     5
 10
-326.08448199999998
 20
1640.295965
 30
0.0
 11
-328.00178399999999
 21
1639.6920970000001
 31
0.0
  0
LINE
  5
1B8
  8
DETAIL
  6
CONTINUOUS
 62
     5
 10
-324.0856
 20
1640.5000299999999
 30
0.0
 11
-326.08448199999998
 21
1640.295965
 31
0.0
  0
LINE
  5
1B9
  8
DETAIL
  6
CONTINUOUS
 62
     5
 10
-332.56044300000002
 20
1637.3988469999999
 30
0.0
 11
-333.79628600000001
 21
1635.8030610000001
 31
0.0
  0
LINE
  5
1BA
  8
DETAIL
  6
CONTINUOUS
 62
     5
 10
-331.02986499999997
 20
1638.713072
 30
0.0
 11
-332.56044300000002
 21
1637.3988469999999
 31
0.0
  0
LINE
  5
1BB
  8
DETAIL
  6
CONTINUOUS
 62
     5
 10
-329.267019
 20
1639.6920970000001
 30
0.0
 11
-331.02986499999997
 21
1638.713072
 31
0.0
  0
LINE
  5
1BC
  8
DETAIL
  6
CONTINUOUS
 62
     5
 10
-327.34385300000002
 20
1640.295965
 30
0.0
 11
-329.267019
 21
1639.6920970000001
 31
0.0
  0
LINE
  5
1BD
  8
DETAIL
  6
CONTINUOUS
 62
     5
 10
-325.33885600000002
 20
1640.5000299999999
 30
0.0
 11
-327.34385300000002
 21
1640.295965
 31
0.0
  0
LINE
  5
1BE
  8
DETAIL
  6
CONTINUOUS
 62
     5
 10
-332.35117400000001
 20
1637.3988469999999
 30
0.0
 11
-333.58701600000001
 21
1635.8030610000001
 31
0.0
  0
LINE
  5
1BF
  8
DETAIL
  6
CONTINUOUS
 62
     5
 10
-330.82059600000002
 20
1638.713072
 30
0.0
 11
-332.35117400000001
 21
1637.3988469999999
 31
0.0
  0
LINE
  5
1C0
  8
DETAIL
  6
CONTINUOUS
 62
     5
 10
-329.05775
 20
1639.6920970000001
 30
0.0
 11
-330.82059600000002
 21
1638.713072
 31
0.0
  0
LINE
  5
1C1
  8
DETAIL
  6
CONTINUOUS
 62
     5
 10
-327.13458300000002
 20
1640.295965
 30
0.0
 11
-329.05775
 21
1639.6920970000001
 31
0.0
  0
LINE
  5
1C2
  8
DETAIL
  6
CONTINUOUS
 62
     5
 10
-325.12958700000001
 20
1640.5000299999999
 30
0.0
 11
-327.13458300000002
 21
1640.295965
 31
0.0
  0
LINE
  5
1C3
  8
DETAIL
  6
CONTINUOUS
 62
     5
 10
-333.116963
 20
1637.3988469999999
 30
0.0
 11
-334.35506900000001
 21
1635.8030610000001
 31
0.0
  0
LINE
  5
1C4
  8
DETAIL
  6
CONTINUOUS
 62
     5
 10
-331.58358199999998
 20
1638.713072
 30
0.0
 11
-333.116963
 21
1637.3988469999999
 31
0.0
  0
LINE
  5
1C5
  8
DETAIL
  6
CONTINUOUS
 62
     5
 10
-329.81750799999998
 20
1639.6920970000001
 30
0.0
 11
-331.58358199999998
 21
1638.713072
 31
0.0
  0
LINE
  5
1C6
  8
DETAIL
  6
CONTINUOUS
 62
     5
 10
-327.89082000000002
 20
1640.295965
 30
0.0
 11
-329.81750799999998
 21
1639.6920970000001
 31
0.0
  0
LINE
  5
1C7
  8
DETAIL
  6
CONTINUOUS
 62
     5
 10
-325.88215200000002
 20
1640.5000299999999
 30
0.0
 11
-327.89082000000002
 21
1640.295965
 31
0.0
  0
LINE
  5
1C8
  8
DETAIL
  6
CONTINUOUS
 62
     5
 10
-333.01226500000001
 20
1637.3988469999999
 30
0.0
 11
-334.25037099999997
 21
1635.8030610000001
 31
0.0
  0
LINE
  5
1C9
  8
DETAIL
  6
CONTINUOUS
 62
     5
 10
-331.47888399999999
 20
1638.713072
 30
0.0
 11
-333.01226500000001
 21
1637.3988469999999
 31
0.0
  0
LINE
  5
1CA
  8
DETAIL
  6
CONTINUOUS
 62
     5
 10
-329.71280999999999
 20
1639.6920970000001
 30
0.0
 11
-331.47888399999999
 21
1638.713072
 31
0.0
  0
LINE
  5
1CB
  8
DETAIL
  6
CONTINUOUS
 62
     5
 10
-327.78612200000009
 20
1640.295965
 30
0.0
 11
-329.71280999999999
 21
1639.6920970000001
 31
0.0
  0
LINE
  5
1CC
  8
DETAIL
  6
CONTINUOUS
 62
     5
 10
-325.77745299999998
 20
1640.5000299999999
 30
0.0
 11
-327.78612200000009
 21
1640.295965
 31
0.0
  0
LINE
  5
1CD
  8
DETAIL
  6
CONTINUOUS
 62
     5
 10
333.116963
 20
1637.3988469999999
 30
0.0
 11
334.35506900000001
 21
1635.8030610000001
 31
0.0
  0
LINE
  5
1CE
  8
DETAIL
  6
CONTINUOUS
 62
     5
 10
331.58358199999998
 20
1638.713072
 30
0.0
 11
333.116963
 21
1637.3988469999999
 31
0.0
  0
LINE
  5
1CF
  8
DETAIL
  6
CONTINUOUS
 62
     5
 10
329.81750799999998
 20
1639.6920970000001
 30
0.0
 11
331.58358199999998
 21
1638.713072
 31
0.0
  0
LINE
  5
1D0
  8
DETAIL
  6
CONTINUOUS
 62
     5
 10
327.89082000000002
 20
1640.295965
 30
0.0
 11
329.81750799999998
 21
1639.6920970000001
 31
0.0
  0
LINE
  5
1D1
  8
DETAIL
  6
CONTINUOUS
 62
     5
 10
325.88215200000002
 20
1640.5000299999999
 30
0.0
 11
327.89082000000002
 21
1640.295965
 31
0.0
  0
LINE
  5
1D2
  8
DETAIL
  6
CONTINUOUS
 62
     5
 10
333.01226500000001
 20
1637.3988469999999
 30
0.0
 11
334.25037099999997
 21
1635.8030610000001
 31
0.0
  0
LINE
  5
1D3
  8
DETAIL
  6
CONTINUOUS
 62
     5
 10
331.47888399999999
 20
1638.713072
 30
0.0
 11
333.01226500000001
 21
1637.3988469999999
 31
0.0
  0
LINE
  5
1D4
  8
DETAIL
  6
CONTINUOUS
 62
     5
 10
329.71280999999999
 20
1639.6920970000001
 30
0.0
 11
331.47888399999999
 21
1638.713072
 31
0.0
  0
LINE
  5
1D5
  8
DETAIL
  6
CONTINUOUS
 62
     5
 10
327.78612200000009
 20
1640.295965
 30
0.0
 11
329.71280999999999
 21
1639.6920970000001
 31
0.0
  0
LINE
  5
1D6
  8
DETAIL
  6
CONTINUOUS
 62
     5
 10
325.77745299999998
 20
1640.5000299999999
 30
0.0
 11
327.78612200000009
 21
1640.295965
 31
0.0
  0
LINE
  5
1D7
  8
DETAIL
  6
CONTINUOUS
 62
     5
 10
332.56044300000002
 20
1637.3988469999999
 30
0.0
 11
333.79628600000001
 21
1635.8030610000001
 31
0.0
  0
LINE
  5
1D8
  8
DETAIL
  6
CONTINUOUS
 62
     5
 10
331.02986499999997
 20
1638.713072
 30
0.0
 11
332.56044300000002
 21
1637.3988469999999
 31
0.0
  0
LINE
  5
1D9
  8
DETAIL
  6
CONTINUOUS
 62
     5
 10
329.267019
 20
1639.6920970000001
 30
0.0
 11
331.02986499999997
 21
1638.713072
 31
0.0
  0
LINE
  5
1DA
  8
DETAIL
  6
CONTINUOUS
 62
     5
 10
327.34385300000002
 20
1640.295965
 30
0.0
 11
329.267019
 21
1639.6920970000001
 31
0.0
  0
LINE
  5
1DB
  8
DETAIL
  6
CONTINUOUS
 62
     5
 10
325.33885600000002
 20
1640.5000299999999
 30
0.0
 11
327.34385300000002
 21
1640.295965
 31
0.0
  0
LINE
  5
1DC
  8
DETAIL
  6
CONTINUOUS
 62
     5
 10
332.35117400000001
 20
1637.3988469999999
 30
0.0
 11
333.58701600000001
 21
1635.8030610000001
 31
0.0
  0
LINE
  5
1DD
  8
DETAIL
  6
CONTINUOUS
 62
     5
 10
330.82059600000002
 20
1638.713072
 30
0.0
 11
332.35117400000001
 21
1637.3988469999999
 31
0.0
  0
LINE
  5
1DE
  8
DETAIL
  6
CONTINUOUS
 62
     5
 10
329.05775
 20
1639.6920970000001
 30
0.0
 11
330.82059600000002
 21
1638.713072
 31
0.0
  0
LINE
  5
1DF
  8
DETAIL
  6
CONTINUOUS
 62
     5
 10
327.13458300000002
 20
1640.295965
 30
0.0
 11
329.05775
 21
1639.6920970000001
 31
0.0
  0
LINE
  5
1E0
  8
DETAIL
  6
CONTINUOUS
 62
     5
 10
325.12958700000001
 20
1640.5000299999999
 30
0.0
 11
327.13458300000002
 21
1640.295965
 31
0.0
  0
LINE
  5
1E1
  8
DETAIL
  6
CONTINUOUS
 62
     5
 10
331.598749
 20
1637.3988469999999
 30
0.0
 11
332.83082300000001
 21
1635.8030610000001
 31
0.0
  0
LINE
  5
1E2
  8
DETAIL
  6
CONTINUOUS
 62
     5
 10
330.07283899999999
 20
1638.713072
 30
0.0
 11
331.598749
 21
1637.3988469999999
 31
0.0
  0
LINE
  5
1E3
  8
DETAIL
  6
CONTINUOUS
 62
     5
 10
328.31536899999998
 20
1639.6920970000001
 30
0.0
 11
330.07283899999999
 21
1638.713072
 31
0.0
  0
LINE
  5
1E4
  8
DETAIL
  6
CONTINUOUS
 62
     5
 10
326.39806700000003
 20
1640.295965
 30
0.0
 11
328.31536899999998
 21
1639.6920970000001
 31
0.0
  0
LINE
  5
1E5
  8
DETAIL
  6
CONTINUOUS
 62
     5
 10
324.39918499999999
 20
1640.5000299999999
 30
0.0
 11
326.39806700000003
 21
1640.295965
 31
0.0
  0
LINE
  5
1E6
  8
DETAIL
  6
CONTINUOUS
 62
     5
 10
331.28516400000001
 20
1637.3988469999999
 30
0.0
 11
332.51723800000002
 21
1635.8030610000001
 31
0.0
  0
LINE
  5
1E7
  8
DETAIL
  6
CONTINUOUS
 62
     5
 10
329.759254
 20
1638.713072
 30
0.0
 11
331.28516400000001
 21
1637.3988469999999
 31
0.0
  0
LINE
  5
1E8
  8
DETAIL
  6
CONTINUOUS
 62
     5
 10
328.00178399999999
 20
1639.6920970000001
 30
0.0
 11
329.759254
 21
1638.713072
 31
0.0
  0
LINE
  5
1E9
  8
DETAIL
  6
CONTINUOUS
 62
     5
 10
326.08448199999998
 20
1640.295965
 30
0.0
 11
328.00178399999999
 21
1639.6920970000001
 31
0.0
  0
LINE
  5
1EA
  8
DETAIL
  6
CONTINUOUS
 62
     5
 10
324.0856
 20
1640.5000299999999
 30
0.0
 11
326.08448199999998
 21
1640.295965
 31
0.0
  0
LINE
  5
1EB
  8
DETAIL
  6
CONTINUOUS
 62
     5
 10
330.23305399999998
 20
1637.3988469999999
 30
0.0
 11
331.459858
 21
1635.8030610000001
 31
0.0
  0
LINE
  5
1EC
  8
DETAIL
  6
CONTINUOUS
 62
     5
 10
328.71366999999998
 20
1638.713072
 30
0.0
 11
330.23305399999998
 21
1637.3988469999999
 31
0.0
  0
LINE
  5
1ED
  8
DETAIL
  6
CONTINUOUS
 62
     5
 10
326.96371699999997
 20
1639.6920970000001
 30
0.0
 11
328.71366999999998
 21
1638.713072
 31
0.0
  0
LINE
  5
1EE
  8
DETAIL
  6
CONTINUOUS
 62
     5
 10
325.05461600000001
 20
1640.295965
 30
0.0
 11
326.96371699999997
 21
1639.6920970000001
 31
0.0
  0
LINE
  5
1EF
  8
DETAIL
  6
CONTINUOUS
 62
     5
 10
323.06428399999999
 20
1640.5000299999999
 30
0.0
 11
325.05461600000001
 21
1640.295965
 31
0.0
  0
LINE
  5
1F0
  8
DETAIL
  6
CONTINUOUS
 62
     5
 10
329.81553400000001
 20
1637.3988469999999
 30
0.0
 11
331.04233799999997
 21
1635.8030610000001
 31
0.0
  0
LINE
  5
1F1
  8
DETAIL
  6
CONTINUOUS
 62
     5
 10
328.29615100000001
 20
1638.713072
 30
0.0
 11
329.81553400000001
 21
1637.3988469999999
 31
0.0
  0
LINE
  5
1F2
  8
DETAIL
  6
CONTINUOUS
 62
     5
 10
326.546198
 20
1639.6920970000001
 30
0.0
 11
328.29615100000001
 21
1638.713072
 31
0.0
  0
LINE
  5
1F3
  8
DETAIL
  6
CONTINUOUS
 62
     5
 10
324.63709699999998
 20
1640.295965
 30
0.0
 11
326.546198
 21
1639.6920970000001
 31
0.0
  0
LINE
  5
1F4
  8
DETAIL
  6
CONTINUOUS
 62
     5
 10
322.64676500000002
 20
1640.5000299999999
 30
0.0
 11
324.63709699999998
 21
1640.295965
 31
0.0
  0
LINE
  5
1F5
  8
DETAIL
  6
CONTINUOUS
 62
     5
 10
328.4650200000001
 20
1637.3988469999999
 30
0.0
 11
329.68505900000002
 21
1635.8030610000001
 31
0.0
  0
LINE
  5
1F6
  8
DETAIL
  6
CONTINUOUS
 62
     5
 10
326.95401399999997
 20
1638.713072
 30
0.0
 11
328.4650200000001
 21
1637.3988469999999
 31
0.0
  0
LINE
  5
1F7
  8
DETAIL
  6
CONTINUOUS
 62
     5
 10
325.21370999999999
 20
1639.6920970000001
 30
0.0
 11
326.95401399999997
 21
1638.713072
 31
0.0
  0
LINE
  5
1FA
  8
DETAIL
  6
CONTINUOUS
 62
     5
 10
327.944075
 20
1637.3988469999999
 30
0.0
 11
329.16411499999998
 21
1635.8030610000001
 31
0.0
  0
LINE
  5
345
  8
DETAIL
  6
CONTINUOUS
 62
     5
 10
79.99996999999999
 20
1650.000031
 30
0.0
 11
-79.99996999999999
 21
1650.000031
 31
0.0
  0
LINE
  5
346
  8
DETAIL
  6
CONTINUOUS
 62
     5
 10
100.00000199999999
 20
1649.300031
 30
0.0
 11
-100.00000199999999
 21
1649.300031
 31
0.0
  0
LINE
  5
347
  8
DETAIL
  6
CONTINUOUS
 62
     5
 10
119.999972
 20
1648.6000300000001
 30
0.0
 11
-119.999972
 21
1648.6000300000001
 31
0.0
  0
LINE
  5
348
  8
DETAIL
  6
CONTINUOUS
 62
     5
 10
139.99997200000001
 20
1647.90003
 30
0.0
 11
-139.99997200000001
 21
1647.90003
 31
0.0
  0
LINE
  5
349
  8
DETAIL
  6
CONTINUOUS
 62
     5
 10
159.99997300000001
 20
1647.20003
 30
0.0
 11
-159.99997300000001
 21
1647.20003
 31
0.0
  0
LINE
  5
34A
  8
DETAIL
  6
CONTINUOUS
 62
     5
 10
179.99997400000001
 20
1646.5000299999999
 30
0.0
 11
-179.99997400000001
 21
1646.5000299999999
 31
0.0
  0
LINE
  5
34B
  8
DETAIL
  6
CONTINUOUS
 62
     5
 10
200.00000399999999
 20
1645.8000300000001
 30
0.0
 11
-200.00000399999999
 21
1645.8000300000001
 31
0.0
  0
LINE
  5
34C
  8
DETAIL
  6
CONTINUOUS
 62
     5
 10
220.00000399999999
 20
1645.1000300000001
 30
0.0
 11
-220.00000399999999
 21
1645.1000300000001
 31
0.0
  0
LINE
  5
34D
  8
DETAIL
  6
CONTINUOUS
 62
     5
 10
239.99997400000001
 20
1644.40003
 30
0.0
 11
-239.99997400000001
 21
1644.40003
 31
0.0
  0
LINE
  5
34E
  8
DETAIL
  6
CONTINUOUS
 62
     5
 10
259.99997500000001
 20
1643.70003
 30
0.0
 11
-259.99997500000001
 21
1643.70003
 31
0.0
  0
LINE
  5
34F
  8
DETAIL
  6
CONTINUOUS
 62
     5
 10
280.00000499999999
 20
1643.0000299999999
 30
0.0
 11
-280.00000499999999
 21
1643.0000299999999
 31
0.0
  0
LINE
  5
350
  8
DETAIL
  6
CONTINUOUS
 62
     5
 10
299.99997500000001
 20
1642.3000300000001
 30
0.0
 11
-299.99997500000001
 21
1642.3000300000001
 31
0.0
  0
LINE
  5
351
  8
DETAIL
  6
CONTINUOUS
 62
     5
 10
320.00000599999998
 20
1641.6000300000001
 30
0.0
 11
-320.00000599999998
 21
1641.6000300000001
 31
0.0
  0
LINE
  5
352
  8
DETAIL
  6
CONTINUOUS
 62
     5
 10
326.02841000000001
 20
1640.5000299999999
 30
0.0
 11
-326.02841000000001
 21
1640.5000299999999
 31
0.0
  0
LINE
  5
469
  8
DETAIL
  6
CONTINUOUS
 62
     5
 10
360.99951962187947
 20
1550.012167120816
 30
0.0
 11
-360.99952500000001
 21
1550.0121670000001
 31
0.0
  0
LINE
  5
4B0
  8
DETAIL
  6
CONTINUOUS
 62
     5
 10
-343.01361400000002
 20
1561.32024
 30
0.0
 11
-343.7940962360741
 21
1550.0121670028791
 31
0.0
  0
LINE
  5
4C0
  8
DETAIL
  6
CONTINUOUS
 62
     5
 10
-346.63923
 20
1561.32024
 30
0.0
 11
-347.42808824536939
 21
1550.0121670022711
 31
0.0
  0
LINE
  5
4C1
  8
DETAIL
  6
CONTINUOUS
 62
     5
 10
-345.145804
 20
1572.563388
 30
0.0
 11
-346.63923
 21
1561.32024
 31
0.0
  0
LINE
  5
4C2
  8
DETAIL
  6
CONTINUOUS
 62
     5
 10
-342.95493800000003
 20
1583.68218
 30
0.0
 11
-345.145804
 21
1572.563388
 31
0.0
  0
LINE
  5
4C8
  8
DETAIL
  6
CONTINUOUS
 62
     5
 10
-345.812318
 20
1561.32024
 30
0.0
 11
-346.60117624535968
 21
1550.0121670024089
 31
0.0
  0
LINE
  5
4C9
  8
DETAIL
  6
CONTINUOUS
 62
     5
 10
-344.31889200000001
 20
1572.563388
 30
0.0
 11
-345.812318
 21
1561.32024
 31
0.0
  0
LINE
  5
4D0
  8
DETAIL
  6
CONTINUOUS
 62
     5
 10
-343.21745499999997
 20
1594.629844
 30
0.0
 11
-346.123603
 21
1583.68218
 31
0.0
  0
LINE
  5
4D1
  8
DETAIL
  6
CONTINUOUS
 62
     5
 10
-339.62883999999991
 20
1605.360332
 30
0.0
 11
-343.21745499999997
 21
1594.629844
 31
0.0
  0
LINE
  5
4D5
  8
DETAIL
  6
CONTINUOUS
 62
     5
 10
-349.11675500000001
 20
1561.32024
 30
0.0
 11
-349.91302628829311
 21
1550.012167001855
 31
0.0
  0
LINE
  5
4D6
  8
DETAIL
  6
CONTINUOUS
 62
     5
 10
-347.60929299999998
 20
1572.563388
 30
0.0
 11
-349.11675500000001
 21
1561.32024
 31
0.0
  0
LINE
  5
4D7
  8
DETAIL
  6
CONTINUOUS
 62
     5
 10
-345.3978370000001
 20
1583.68218
 30
0.0
 11
-347.60929299999998
 21
1572.563388
 31
0.0
  0
LINE
  5
4D8
  8
DETAIL
  6
CONTINUOUS
 62
     5
 10
-342.49169000000001
 20
1594.629844
 30
0.0
 11
-345.3978370000001
 21
1583.68218
 31
0.0
  0
LINE
  5
4DD
  8
DETAIL
  6
CONTINUOUS
 62
     5
 10
-352.61958099999998
 20
1561.32024
 30
0.0
 11
-353.42229637130379
 21
1550.012167001267
 31
0.0
  0
LINE
  5
4DE
  8
DETAIL
  6
CONTINUOUS
 62
     5
 10
-351.09992099999999
 20
1572.563388
 30
0.0
 11
-352.61958099999998
 21
1561.32024
 31
0.0
  0
LINE
  5
4DF
  8
DETAIL
  6
CONTINUOUS
 62
     5
 10
-348.8705700000001
 20
1583.68218
 30
0.0
 11
-351.09992099999999
 21
1572.563388
 31
0.0
  0
LINE
  5
4E0
  8
DETAIL
  6
CONTINUOUS
 62
     5
 10
-345.94090399999999
 20
1594.629844
 30
0.0
 11
-348.8705700000001
 21
1583.68218
 31
0.0
  0
LINE
  5
4E1
  8
DETAIL
  6
CONTINUOUS
 62
     5
 10
-342.32324899999998
 20
1605.360332
 30
0.0
 11
-345.94090399999999
 21
1594.629844
 31
0.0
  0
LINE
  5
4E2
  8
DETAIL
  6
CONTINUOUS
 62
     5
 10
-338.03282100000001
 20
1615.828505
 30
0.0
 11
-342.32324899999998
 21
1605.360332
 31
0.0
  0
LINE
  5
4E3
  8
DETAIL
  6
CONTINUOUS
 62
     5
 10
-333.08766800000001
 20
1625.990329
 30
0.0
 11
-338.03282100000001
 21
1615.828505
 31
0.0
  0
LINE
  5
4E5
  8
DETAIL
  6
CONTINUOUS
 62
     5
 10
-351.99584599999997
 20
1561.32024
 30
0.0
 11
-352.79856137129627
 21
1550.0121670013721
 31
0.0
  0
LINE
  5
4E6
  8
DETAIL
  6
CONTINUOUS
 62
     5
 10
-350.47618599999998
 20
1572.563388
 30
0.0
 11
-351.99584599999997
 21
1561.32024
 31
0.0
  0
LINE
  5
4E7
  8
DETAIL
  6
CONTINUOUS
 62
     5
 10
-348.24683399999998
 20
1583.68218
 30
0.0
 11
-350.47618599999998
 21
1572.563388
 31
0.0
  0
LINE
  5
4E8
  8
DETAIL
  6
CONTINUOUS
 62
     5
 10
-345.31716899999998
 20
1594.629844
 30
0.0
 11
-348.24683399999998
 21
1583.68218
 31
0.0
  0
LINE
  5
4E9
  8
DETAIL
  6
CONTINUOUS
 62
     5
 10
-341.69951400000002
 20
1605.360332
 30
0.0
 11
-345.31716899999998
 21
1594.629844
 31
0.0
  0
LINE
  5
4EA
  8
DETAIL
  6
CONTINUOUS
 62
     5
 10
-337.409086
 20
1615.828505
 30
0.0
 11
-341.69951400000002
 21
1605.360332
 31
0.0
  0
LINE
  5
4ED
  8
DETAIL
  6
CONTINUOUS
 62
     5
 10
-354.96703000000002
 20
1561.32024
 30
0.0
 11
-355.77521050509807
 21
1550.0121670008739
 31
0.0
  0
LINE
  5
4EE
  8
DETAIL
  6
CONTINUOUS
 62
     5
 10
-353.43702200000001
 20
1572.563388
 30
0.0
 11
-354.96703000000002
 21
1561.32024
 31
0.0
  0
LINE
  5
4EF
  8
DETAIL
  6
CONTINUOUS
 62
     5
 10
-351.19249100000002
 20
1583.68218
 30
0.0
 11
-353.43702200000001
 21
1572.563388
 31
0.0
  0
LINE
  5
4F0
  8
DETAIL
  6
CONTINUOUS
 62
     5
 10
-348.24287800000002
 20
1594.629844
 30
0.0
 11
-351.19249100000002
 21
1583.68218
 31
0.0
  0
LINE
  5
4F1
  8
DETAIL
  6
CONTINUOUS
 62
     5
 10
-344.60059000000001
 20
1605.360332
 30
0.0
 11
-348.24287800000002
 21
1594.629844
 31
0.0
  0
LINE
  5
4F2
  8
DETAIL
  6
CONTINUOUS
 62
     5
 10
-340.28094900000002
 20
1615.828505
 30
0.0
 11
-344.60059000000001
 21
1605.360332
 31
0.0
  0
LINE
  5
4F3
  8
DETAIL
  6
CONTINUOUS
 62
     5
 10
-335.30212399999999
 20
1625.990329
 30
0.0
 11
-340.28094900000002
 21
1615.828505
 31
0.0
  0
LINE
  5
4F4
  8
DETAIL
  6
CONTINUOUS
 62
     5
 10
-329.68505900000002
 20
1635.8030610000001
 30
0.0
 11
-335.30212399999999
 21
1625.990329
 31
0.0
  0
LINE
  5
4F5
  8
DETAIL
  6
CONTINUOUS
 62
     5
 10
-354.44608499999998
 20
1561.32024
 30
0.0
 11
-355.25426550509178
 21
1550.012167000961
 31
0.0
  0
LINE
  5
4F6
  8
DETAIL
  6
CONTINUOUS
 62
     5
 10
-352.91607699999997
 20
1572.563388
 30
0.0
 11
-354.44608499999998
 21
1561.32024
 31
0.0
  0
LINE
  5
4F7
  8
DETAIL
  6
CONTINUOUS
 62
     5
 10
-350.67154599999998
 20
1583.68218
 30
0.0
 11
-352.91607699999997
 21
1572.563388
 31
0.0
  0
LINE
  5
4F8
  8
DETAIL
  6
CONTINUOUS
 62
     5
 10
-347.72193299999998
 20
1594.629844
 30
0.0
 11
-350.67154599999998
 21
1583.68218
 31
0.0
  0
LINE
  5
4F9
  8
DETAIL
  6
CONTINUOUS
 62
     5
 10
-344.07964600000003
 20
1605.360332
 30
0.0
 11
-347.72193299999998
 21
1594.629844
 31
0.0
  0
LINE
  5
4FA
  8
DETAIL
  6
CONTINUOUS
 62
     5
 10
-339.76000399999998
 20
1615.828505
 30
0.0
 11
-344.07964600000003
 21
1605.360332
 31
0.0
  0
LINE
  5
4FB
  8
DETAIL
  6
CONTINUOUS
 62
     5
 10
-334.78118000000001
 20
1625.990329
 30
0.0
 11
-339.76000399999998
 21
1615.828505
 31
0.0
  0
LINE
  5
4FC
  8
DETAIL
  6
CONTINUOUS
 62
     5
 10
-329.16411499999998
 20
1635.8030610000001
 30
0.0
 11
-334.78118000000001
 21
1625.990329
 31
0.0
  0
LINE
  5
4FD
  8
DETAIL
  6
CONTINUOUS
 62
     5
 10
-356.88200499999999
 20
1561.32024
 30
0.0
 11
-357.69466669504538
 21
1550.0121670005531
 31
0.0
  0
LINE
  5
4FE
  8
DETAIL
  6
CONTINUOUS
 62
     5
 10
-355.34351400000003
 20
1572.563388
 30
0.0
 11
-356.88200499999999
 21
1561.32024
 31
0.0
  0
LINE
  5
4FF
  8
DETAIL
  6
CONTINUOUS
 62
     5
 10
-353.08653800000002
 20
1583.68218
 30
0.0
 11
-355.34351400000003
 21
1572.563388
 31
0.0
  0
LINE
  5
500
  8
DETAIL
  6
CONTINUOUS
 62
     5
 10
-350.12057099999998
 20
1594.629844
 30
0.0
 11
-353.08653800000002
 21
1583.68218
 31
0.0
  0
LINE
  5
501
  8
DETAIL
  6
CONTINUOUS
 62
     5
 10
-346.45808900000009
 20
1605.360332
 30
0.0
 11
-350.12057099999998
 21
1594.629844
 31
0.0
  0
LINE
  5
502
  8
DETAIL
  6
CONTINUOUS
 62
     5
 10
-342.11449699999997
 20
1615.828505
 30
0.0
 11
-346.45808900000009
 21
1605.360332
 31
0.0
  0
LINE
  5
503
  8
DETAIL
  6
CONTINUOUS
 62
     5
 10
-337.10806700000001
 20
1625.990329
 30
0.0
 11
-342.11449699999997
 21
1615.828505
 31
0.0
  0
LINE
  5
504
  8
DETAIL
  6
CONTINUOUS
 62
     5
 10
-331.459858
 20
1635.8030610000001
 30
0.0
 11
-337.10806700000001
 21
1625.990329
 31
0.0
  0
LINE
  5
505
  8
DETAIL
  6
CONTINUOUS
 62
     5
 10
-356.46448600000002
 20
1561.32024
 30
0.0
 11
-357.27714769504041
 21
1550.0121670006231
 31
0.0
  0
LINE
  5
506
  8
DETAIL
  6
CONTINUOUS
 62
     5
 10
-354.925995
 20
1572.563388
 30
0.0
 11
-356.46448600000002
 21
1561.32024
 31
0.0
  0
LINE
  5
507
  8
DETAIL
  6
CONTINUOUS
 62
     5
 10
-352.66901899999999
 20
1583.68218
 30
0.0
 11
-354.925995
 21
1572.563388
 31
0.0
  0
LINE
  5
508
  8
DETAIL
  6
CONTINUOUS
 62
     5
 10
-349.70305200000001
 20
1594.629844
 30
0.0
 11
-352.66901899999999
 21
1583.68218
 31
0.0
  0
LINE
  5
509
  8
DETAIL
  6
CONTINUOUS
 62
     5
 10
-346.040569
 20
1605.360332
 30
0.0
 11
-349.70305200000001
 21
1594.629844
 31
0.0
  0
LINE
  5
50A
  8
DETAIL
  6
CONTINUOUS
 62
     5
 10
-341.696977
 20
1615.828505
 30
0.0
 11
-346.040569
 21
1605.360332
 31
0.0
  0
LINE
  5
50B
  8
DETAIL
  6
CONTINUOUS
 62
     5
 10
-336.69054699999998
 20
1625.990329
 30
0.0
 11
-341.696977
 21
1615.828505
 31
0.0
  0
LINE
  5
50C
  8
DETAIL
  6
CONTINUOUS
 62
     5
 10
-331.04233799999997
 20
1635.8030610000001
 30
0.0
 11
-336.69054699999998
 21
1625.990329
 31
0.0
  0
LINE
  5
50D
  8
DETAIL
  6
CONTINUOUS
 62
     5
 10
-358.36217499999998
 20
1561.32024
 30
0.0
 11
-359.17832794757919
 21
1550.0121670003041
 31
0.0
  0
LINE
  5
50E
  8
DETAIL
  6
CONTINUOUS
 62
     5
 10
-356.81707499999999
 20
1572.563388
 30
0.0
 11
-358.36217499999998
 21
1561.32024
 31
0.0
  0
LINE
  5
50F
  8
DETAIL
  6
CONTINUOUS
 62
     5
 10
-354.55040400000001
 20
1583.68218
 30
0.0
 11
-356.81707499999999
 21
1572.563388
 31
0.0
  0
LINE
  5
510
  8
DETAIL
  6
CONTINUOUS
 62
     5
 10
-351.57169599999997
 20
1594.629844
 30
0.0
 11
-354.55040400000001
 21
1583.68218
 31
0.0
  0
LINE
  5
511
  8
DETAIL
  6
CONTINUOUS
 62
     5
 10
-347.89348100000001
 20
1605.360332
 30
0.0
 11
-351.57169599999997
 21
1594.629844
 31
0.0
  0
LINE
  5
512
  8
DETAIL
  6
CONTINUOUS
 62
     5
 10
-343.53123099999999
 20
1615.828505
 30
0.0
 11
-347.89348100000001
 21
1605.360332
 31
0.0
  0
LINE
  5
513
  8
DETAIL
  6
CONTINUOUS
 62
     5
 10
-338.50329499999998
 20
1625.990329
 30
0.0
 11
-343.53123099999999
 21
1615.828505
 31
0.0
  0
LINE
  5
514
  8
DETAIL
  6
CONTINUOUS
 62
     5
 10
-332.83082300000001
 20
1635.8030610000001
 30
0.0
 11
-338.50329499999998
 21
1625.990329
 31
0.0
  0
LINE
  5
515
  8
DETAIL
  6
CONTINUOUS
 62
     5
 10
-358.04858999999999
 20
1561.32024
 30
0.0
 11
-358.86474194864769
 21
1550.0121670003571
 31
0.0
  0
LINE
  5
516
  8
DETAIL
  6
CONTINUOUS
 62
     5
 10
-356.50349
 20
1572.563388
 30
0.0
 11
-358.04858999999999
 21
1561.32024
 31
0.0
  0
LINE
  5
517
  8
DETAIL
  6
CONTINUOUS
 62
     5
 10
-354.23681900000003
 20
1583.68218
 30
0.0
 11
-356.50349
 21
1572.563388
 31
0.0
  0
LINE
  5
518
  8
DETAIL
  6
CONTINUOUS
 62
     5
 10
-351.25811099999999
 20
1594.629844
 30
0.0
 11
-354.23681900000003
 21
1583.68218
 31
0.0
  0
LINE
  5
519
  8
DETAIL
  6
CONTINUOUS
 62
     5
 10
-347.57989600000002
 20
1605.360332
 30
0.0
 11
-351.25811099999999
 21
1594.629844
 31
0.0
  0
LINE
  5
51A
  8
DETAIL
  6
CONTINUOUS
 62
     5
 10
-343.217645
 20
1615.828505
 30
0.0
 11
-347.57989600000002
 21
1605.360332
 31
0.0
  0
LINE
  5
51B
  8
DETAIL
  6
CONTINUOUS
 62
     5
 10
-338.18970999999999
 20
1625.990329
 30
0.0
 11
-343.217645
 21
1615.828505
 31
0.0
  0
LINE
  5
51C
  8
DETAIL
  6
CONTINUOUS
 62
     5
 10
-332.51723800000002
 20
1635.8030610000001
 30
0.0
 11
-338.18970999999999
 21
1625.990329
 31
0.0
  0
LINE
  5
51D
  8
DETAIL
  6
CONTINUOUS
 62
     5
 10
-359.40573599999999
 20
1561.32024
 30
0.0
 11
-360.22438526806019
 21
1550.012167000129
 31
0.0
  0
LINE
  5
51E
  8
DETAIL
  6
CONTINUOUS
 62
     5
 10
-357.85590999999999
 20
1572.563388
 30
0.0
 11
-359.40573599999999
 21
1561.32024
 31
0.0
  0
LINE
  5
51F
  8
DETAIL
  6
CONTINUOUS
 62
     5
 10
-355.58230500000002
 20
1583.68218
 30
0.0
 11
-357.85590999999999
 21
1572.563388
 31
0.0
  0
LINE
  5
520
  8
DETAIL
  6
CONTINUOUS
 62
     5
 10
-352.59448600000002
 20
1594.629844
 30
0.0
 11
-355.58230500000002
 21
1583.68218
 31
0.0
  0
LINE
  5
521
  8
DETAIL
  6
CONTINUOUS
 62
     5
 10
-348.90501899999998
 20
1605.360332
 30
0.0
 11
-352.59448600000002
 21
1594.629844
 31
0.0
  0
LINE
  5
522
  8
DETAIL
  6
CONTINUOUS
 62
     5
 10
-344.529425
 20
1615.828505
 30
0.0
 11
-348.90501899999998
 21
1605.360332
 31
0.0
  0
LINE
  5
523
  8
DETAIL
  6
CONTINUOUS
 62
     5
 10
-339.486109
 20
1625.990329
 30
0.0
 11
-344.529425
 21
1615.828505
 31
0.0
  0
LINE
  5
524
  8
DETAIL
  6
CONTINUOUS
 62
     5
 10
-333.79628600000001
 20
1635.8030610000001
 30
0.0
 11
-339.486109
 21
1625.990329
 31
0.0
  0
LINE
  5
525
  8
DETAIL
  6
CONTINUOUS
 62
     5
 10
-359.19646599999999
 20
1561.32024
 30
0.0
 11
-360.01511526805763
 21
1550.012167000164
 31
0.0
  0
LINE
  5
526
  8
DETAIL
  6
CONTINUOUS
 62
     5
 10
-357.64663999999999
 20
1572.563388
 30
0.0
 11
-359.19646599999999
 21
1561.32024
 31
0.0
  0
LINE
  5
527
  8
DETAIL
  6
CONTINUOUS
 62
     5
 10
-355.37303600000001
 20
1583.68218
 30
0.0
 11
-357.64663999999999
 21
1572.563388
 31
0.0
  0
LINE
  5
528
  8
DETAIL
  6
CONTINUOUS
 62
     5
 10
-352.38521600000001
 20
1594.629844
 30
0.0
 11
-355.37303600000001
 21
1583.68218
 31
0.0
  0
LINE
  5
529
  8
DETAIL
  6
CONTINUOUS
 62
     5
 10
-348.69574999999998
 20
1605.360332
 30
0.0
 11
-352.38521600000001
 21
1594.629844
 31
0.0
  0
LINE
  5
52A
  8
DETAIL
  6
CONTINUOUS
 62
     5
 10
-344.320156
 20
1615.828505
 30
0.0
 11
-348.69574999999998
 21
1605.360332
 31
0.0
  0
LINE
  5
52B
  8
DETAIL
  6
CONTINUOUS
 62
     5
 10
-339.27683999999999
 20
1625.990329
 30
0.0
 11
-344.320156
 21
1615.828505
 31
0.0
  0
LINE
  5
52C
  8
DETAIL
  6
CONTINUOUS
 62
     5
 10
-333.58701600000001
 20
1635.8030610000001
 30
0.0
 11
-339.27683999999999
 21
1625.990329
 31
0.0
  0
LINE
  5
52D
  8
DETAIL
  6
CONTINUOUS
 62
     5
 10
-360.011416
 20
1561.32024
 30
0.0
 11
-360.83156365970541
 21
1550.0121670000281
 31
0.0
  0
LINE
  5
52E
  8
DETAIL
  6
CONTINUOUS
 62
     5
 10
-358.458752
 20
1572.563388
 30
0.0
 11
-360.011416
 21
1561.32024
 31
0.0
  0
LINE
  5
52F
  8
DETAIL
  6
CONTINUOUS
 62
     5
 10
-356.18098400000002
 20
1583.68218
 30
0.0
 11
-358.458752
 21
1572.563388
 31
0.0
  0
LINE
  5
530
  8
DETAIL
  6
CONTINUOUS
 62
     5
 10
-353.18769300000002
 20
1594.629844
 30
0.0
 11
-356.18098400000002
 21
1583.68218
 31
0.0
  0
LINE
  5
531
  8
DETAIL
  6
CONTINUOUS
 62
     5
 10
-349.49146999999999
 20
1605.360332
 30
0.0
 11
-353.18769300000002
 21
1594.629844
 31
0.0
  0
LINE
  5
532
  8
DETAIL
  6
CONTINUOUS
 62
     5
 10
-345.10786300000001
 20
1615.828505
 30
0.0
 11
-349.49146999999999
 21
1605.360332
 31
0.0
  0
LINE
  5
533
  8
DETAIL
  6
CONTINUOUS
 62
     5
 10
-340.05531200000001
 20
1625.990329
 30
0.0
 11
-345.10786300000001
 21
1615.828505
 31
0.0
  0
LINE
  5
534
  8
DETAIL
  6
CONTINUOUS
 62
     5
 10
-334.35506900000001
 20
1635.8030610000001
 30
0.0
 11
-340.05531200000001
 21
1625.990329
 31
0.0
  0
LINE
  5
535
  8
DETAIL
  6
CONTINUOUS
 62
     5
 10
-359.90671700000001
 20
1561.32024
 30
0.0
 11
-360.72686565863182
 21
1550.0121670000451
 31
0.0
  0
LINE
  5
536
  8
DETAIL
  6
CONTINUOUS
 62
     5
 10
-358.35405300000002
 20
1572.563388
 30
0.0
 11
-359.90671700000001
 21
1561.32024
 31
0.0
  0
LINE
  5
537
  8
DETAIL
  6
CONTINUOUS
 62
     5
 10
-356.07628499999998
 20
1583.68218
 30
0.0
 11
-358.35405300000002
 21
1572.563388
 31
0.0
  0
LINE
  5
538
  8
DETAIL
  6
CONTINUOUS
 62
     5
 10
-353.08299399999999
 20
1594.629844
 30
0.0
 11
-356.07628499999998
 21
1583.68218
 31
0.0
  0
LINE
  5
539
  8
DETAIL
  6
CONTINUOUS
 62
     5
 10
-349.38677100000001
 20
1605.360332
 30
0.0
 11
-353.08299399999999
 21
1594.629844
 31
0.0
  0
LINE
  5
53A
  8
DETAIL
  6
CONTINUOUS
 62
     5
 10
-345.00316500000002
 20
1615.828505
 30
0.0
 11
-349.38677100000001
 21
1605.360332
 31
0.0
  0
LINE
  5
53B
  8
DETAIL
  6
CONTINUOUS
 62
     5
 10
-339.95061299999998
 20
1625.990329
 30
0.0
 11
-345.00316500000002
 21
1615.828505
 31
0.0
  0
LINE
  5
53C
  8
DETAIL
  6
CONTINUOUS
 62
     5
 10
-334.25037099999997
 20
1635.8030610000001
 30
0.0
 11
-339.95061299999998
 21
1625.990329
 31
0.0
  0
LINE
  5
5B1
  8
DETAIL
  6
CONTINUOUS
 62
     5
 10
-365.97744399999999
 20
1437.0423619999999
 30
0.0
 11
-365.85984400000001
 21
1438.6914449999999
 31
0.0
  0
LINE
  5
5B2
  8
DETAIL
  6
CONTINUOUS
 62
     5
 10
-366.27575000000002
 20
1434.8551480000001
 30
0.0
 11
-365.97744399999999
 21
1437.0423619999999
 31
0.0
  0
LINE
  5
5B3
  8
DETAIL
  6
CONTINUOUS
 62
     5
 10
-366.7340890000001
 20
1432.695757
 30
0.0
 11
-366.27575000000002
 21
1434.8551480000001
 31
0.0
  0
LINE
  5
5B4
  8
DETAIL
  6
CONTINUOUS
 62
     5
 10
-367.349987
 20
1430.575885
 30
0.0
 11
-366.7340890000001
 21
1432.695757
 31
0.0
  0
LINE
  5
5B5
  8
DETAIL
  6
CONTINUOUS
 62
     5
 10
-368.12011100000001
 20
1428.5070189999999
 30
0.0
 11
-367.349987
 21
1430.575885
 31
0.0
  0
LINE
  5
5B6
  8
DETAIL
  6
CONTINUOUS
 62
     5
 10
-369.04029200000002
 20
1426.500372
 30
0.0
 11
-368.12011100000001
 21
1428.5070189999999
 31
0.0
  0
LINE
  5
5B7
  8
DETAIL
  6
CONTINUOUS
 62
     5
 10
-370.105548
 20
1424.5668149999999
 30
0.0
 11
-369.04029200000002
 21
1426.500372
 31
0.0
  0
LINE
  5
5B8
  8
DETAIL
  6
CONTINUOUS
 62
     5
 10
-371.310112
 20
1422.716821
 30
0.0
 11
-370.105548
 21
1424.5668149999999
 31
0.0
  0
LINE
  5
5B9
  8
DETAIL
  6
CONTINUOUS
 62
     5
 10
-372.64745799999997
 20
1420.960411
 30
0.0
 11
-371.310112
 21
1422.716821
 31
0.0
  0
LINE
  5
5BA
  8
DETAIL
  6
CONTINUOUS
 62
     5
 10
-374.11034699999999
 20
1419.3070970000001
 30
0.0
 11
-372.64745799999997
 21
1420.960411
 31
0.0
  0
LINE
  5
5BB
  8
DETAIL
  6
CONTINUOUS
 62
     5
 10
-375.69085699999999
 20
1417.765832
 30
0.0
 11
-374.11034699999999
 21
1419.3070970000001
 31
0.0
  0
LINE
  5
5BC
  8
DETAIL
  6
CONTINUOUS
 62
     5
 10
-377.38042899999999
 20
1416.3449639999999
 30
0.0
 11
-375.69085699999999
 21
1417.765832
 31
0.0
  0
LINE
  5
5BD
  8
DETAIL
  6
CONTINUOUS
 62
     5
 10
-379.16991400000001
 20
1415.0521859999999
 30
0.0
 11
-377.38042899999999
 21
1416.3449639999999
 31
0.0
  0
LINE
  5
5BE
  8
DETAIL
  6
CONTINUOUS
 62
     5
 10
-381.049622
 20
1413.8945000000001
 30
0.0
 11
-379.16991400000001
 21
1415.0521859999999
 31
0.0
  0
LINE
  5
5BF
  8
DETAIL
  6
CONTINUOUS
 62
     5
 10
-383.00937499999992
 20
1412.8781739999999
 30
0.0
 11
-381.049622
 21
1413.8945000000001
 31
0.0
  0
LINE
  5
5C0
  8
DETAIL
  6
CONTINUOUS
 62
     5
 10
-385.03856100000002
 20
1412.0087129999999
 30
0.0
 11
-383.00937499999992
 21
1412.8781739999999
 31
0.0
  0
LINE
  5
5C1
  8
DETAIL
  6
CONTINUOUS
 62
     5
 10
-387.12619000000001
 20
1411.2908239999999
 30
0.0
 11
-385.03856100000002
 21
1412.0087129999999
 31
0.0
  0
LINE
  5
5C2
  8
DETAIL
  6
CONTINUOUS
 62
     5
 10
-389.26095800000002
 20
1410.7283970000001
 30
0.0
 11
-387.12619000000001
 21
1411.2908239999999
 31
0.0
  0
LINE
  5
5C3
  8
DETAIL
  6
CONTINUOUS
 62
     5
 10
-391.43129900000002
 20
1410.3244749999999
 30
0.0
 11
-389.26095800000002
 21
1410.7283970000001
 31
0.0
  0
LINE
  5
5C4
  8
DETAIL
  6
CONTINUOUS
 62
     5
 10
-393.62546500000002
 20
1410.081246
 30
0.0
 11
-391.43129900000002
 21
1410.3244749999999
 31
0.0
  0
LINE
  5
5C5
  8
DETAIL
  6
CONTINUOUS
 62
     5
 10
-395.831525
 20
1410.0000259999999
 30
0.0
 11
-393.62546500000002
 21
1410.081246
 31
0.0
  0
LINE
  5
5C6
  8
DETAIL
  6
CONTINUOUS
 62
     5
 10
460.00000899999992
 20
1410.0000259999999
 30
0.0
 11
-460.00000899999992
 21
1410.0000259999999
 31
0.0
  0
LINE
  5
610
  8
DETAIL
  6
CONTINUOUS
 62
     5
 10
460.00000899999992
 20
1370.0000250000001
 30
0.0
 11
-460.00000899999992
 21
1370.0000250000001
 31
0.0
  0
LINE
  5
611
  8
DETAIL
  6
CONTINUOUS
 62
     5
 10
-349.84251999999998
 20
1561.32024
 30
0.0
 11
-350.63879228722948
 21
1550.012167001734
 31
0.0
  0
LINE
  5
612
  8
DETAIL
  6
CONTINUOUS
 62
     5
 10
-348.335059
 20
1572.563388
 30
0.0
 11
-349.84251999999998
 21
1561.32024
 31
0.0
  0
LINE
  5
613
  8
DETAIL
  6
CONTINUOUS
 62
     5
 10
-346.123603
 20
1583.68218
 30
0.0
 11
-348.335059
 21
1572.563388
 31
0.0
  0
LINE
  5
664
  8
DETAIL
  6
CONTINUOUS
 62
     5
 10
-460.00000899999992
 20
1370.0000250000001
 30
0.0
 11
-460.00000899999992
 21
1410.0000259999999
 31
0.0
  0
LINE
  5
665
  8
DETAIL
  6
CONTINUOUS
 62
     5
 10
-455.20000800000003
 20
54.00000099999999
 30
0.0
 11
-455.20000800000003
 21
1370.0000250000001
 31
0.0
  0
LINE
  5
666
  8
DETAIL
  6
CONTINUOUS
 62
     5
 10
-454.50000799999998
 20
54.000107999999997
 30
0.0
 11
-454.50000799999998
 21
9.0
 31
0.0
  0
LINE
  5
6AD
  8
DETAIL
  6
CONTINUOUS
 62
     5
 10
-440.30000799999988
 20
21.0
 30
0.0
 11
-440.30000799999988
 21
39.000000999999997
 31
0.0
  0
LINE
  5
6AE
  8
DETAIL
  6
CONTINUOUS
 62
     5
 10
-438.00000799999998
 20
39.000000999999997
 30
0.0
 11
-438.00000799999998
 21
21.0
 31
0.0
  0
LINE
  5
6AF
  8
DETAIL
  6
CONTINUOUS
 62
     5
 10
-360.99952500000001
 20
1550.0121670000001
 30
0.0
 11
-365.85984400000001
 21
1438.6914449999999
 31
0.0
  0
LINE
  5
6FA
  8
DETAIL
  6
CONTINUOUS
 62
     5
 10
-384.50000699999998
 20
21.0
 30
0.0
 11
-384.50000699999998
 21
39.000000999999997
 31
0.0
  0
LINE
  5
6FB
  8
DETAIL
  6
CONTINUOUS
 62
     5
 10
-382.20000699999991
 20
39.000000999999997
 30
0.0
 11
-382.20000699999991
 21
21.0
 31
0.0
  0
LINE
  5
758
  8
DETAIL
  6
CONTINUOUS
 62
     5
 10
-320.00000599999998
 20
1641.6000300000001
 30
0.0
 11
-320.00000599999998
 21
1640.5000299999999
 31
0.0
  0
LINE
  5
759
  8
DETAIL
  6
CONTINUOUS
 62
     5
 10
-300.00000599999998
 20
1642.3000300000001
 30
0.0
 11
-300.00000599999998
 21
1641.6000300000001
 31
0.0
  0
LINE
  5
75A
  8
DETAIL
  6
CONTINUOUS
 62
     5
 10
-280.00000499999999
 20
1643.0000299999999
 30
0.0
 11
-280.00000499999999
 21
1642.3000300000001
 31
0.0
  0
LINE
  5
79B
  8
DETAIL
  6
CONTINUOUS
 62
     5
 10
-260.00000499999999
 20
1643.70003
 30
0.0
 11
-260.00000499999999
 21
1643.0000299999999
 31
0.0
  0
LINE
  5
79C
  8
DETAIL
  6
CONTINUOUS
 62
     5
 10
-240.00000399999999
 20
1644.40003
 30
0.0
 11
-240.00000399999999
 21
1643.70003
 31
0.0
  0
LINE
  5
7A0
  8
DETAIL
  6
CONTINUOUS
 62
     5
 10
-220.00000399999999
 20
1645.1000300000001
 30
0.0
 11
-220.00000399999999
 21
1644.40003
 31
0.0
  0
LINE
  5
7A3
  8
DETAIL
  6
CONTINUOUS
 62
     5
 10
-200.00000399999999
 20
1645.8000300000001
 30
0.0
 11
-200.00000399999999
 21
1645.1000300000001
 31
0.0
  0
LINE
  5
7EA
  8
DETAIL
  6
CONTINUOUS
 62
     5
 10
-180.00000299999991
 20
1646.5000299999999
 30
0.0
 11
-180.00000299999991
 21
1645.8000300000001
 31
0.0
  0
LINE
  5
7ED
  8
DETAIL
  6
CONTINUOUS
 62
     5
 10
-160.00000299999999
 20
1647.20003
 30
0.0
 11
-160.00000299999999
 21
1646.5000299999999
 31
0.0
  0
LINE
  5
7F0
  8
DETAIL
  6
CONTINUOUS
 62
     5
 10
-140.00000299999999
 20
1647.90003
 30
0.0
 11
-140.00000299999999
 21
1647.20003
 31
0.0
  0
LINE
  5
820
  8
DETAIL
  6
CONTINUOUS
 62
     5
 10
-120.00000199999999
 20
1648.6000300000001
 30
0.0
 11
-120.00000199999999
 21
1647.90003
 31
0.0
  0
LINE
  5
823
  8
DETAIL
  6
CONTINUOUS
 62
     5
 10
-100.00000199999999
 20
1649.300031
 30
0.0
 11
-100.00000199999999
 21
1648.6000300000001
 31
0.0
  0
LINE
  5
826
  8
DETAIL
  6
CONTINUOUS
 62
     5
 10
-80.000000999999983
 20
1649.300031
 30
0.0
 11
-80.000000999999983
 21
1650.000031
 31
0.0
  0
LINE
  5
94A
  8
DETAIL
  6
CONTINUOUS
 62
     5
 10
80.000000999999983
 20
1649.300031
 30
0.0
 11
80.000000999999983
 21
1650.000031
 31
0.0
  0
LINE
  5
94D
  8
DETAIL
  6
CONTINUOUS
 62
     5
 10
100.00000199999999
 20
1649.300031
 30
0.0
 11
100.00000199999999
 21
1648.6000300000001
 31
0.0
  0
LINE
  5
997
  8
DETAIL
  6
CONTINUOUS
 62
     5
 10
120.00000199999999
 20
1648.6000300000001
 30
0.0
 11
120.00000199999999
 21
1647.90003
 31
0.0
  0
LINE
  5
99A
  8
DETAIL
  6
CONTINUOUS
 62
     5
 10
140.00000299999999
 20
1647.90003
 30
0.0
 11
140.00000299999999
 21
1647.20003
 31
0.0
  0
LINE
  5
99D
  8
DETAIL
  6
CONTINUOUS
 62
     5
 10
160.00000299999999
 20
1647.20003
 30
0.0
 11
160.00000299999999
 21
1646.5000299999999
 31
0.0
  0
LINE
  5
9A0
  8
DETAIL
  6
CONTINUOUS
 62
     5
 10
180.00000299999991
 20
1646.5000299999999
 30
0.0
 11
180.00000299999991
 21
1645.8000300000001
 31
0.0
  0
LINE
  5
9EF
  8
DETAIL
  6
CONTINUOUS
 62
     5
 10
200.00000399999999
 20
1645.8000300000001
 30
0.0
 11
200.00000399999999
 21
1645.1000300000001
 31
0.0
  0
LINE
  5
9F2
  8
DETAIL
  6
CONTINUOUS
 62
     5
 10
220.00000399999999
 20
1645.1000300000001
 30
0.0
 11
220.00000399999999
 21
1644.40003
 31
0.0
  0
LINE
  5
9F6
  8
DETAIL
  6
CONTINUOUS
 62
     5
 10
240.00000399999999
 20
1644.40003
 30
0.0
 11
240.00000399999999
 21
1643.70003
 31
0.0
  0
LINE
  5
A5F
  8
DETAIL
  6
CONTINUOUS
 62
     5
 10
260.00000499999999
 20
1643.70003
 30
0.0
 11
260.00000499999999
 21
1643.0000299999999
 31
0.0
  0
LINE
  5
A60
  8
DETAIL
  6
CONTINUOUS
 62
     5
 10
280.00000499999999
 20
1643.0000299999999
 30
0.0
 11
280.00000499999999
 21
1642.3000300000001
 31
0.0
  0
LINE
  5
A61
  8
DETAIL
  6
CONTINUOUS
 62
     5
 10
300.00000599999998
 20
1642.3000300000001
 30
0.0
 11
300.00000599999998
 21
1641.6000300000001
 31
0.0
  0
LINE
  5
ABD
  8
DETAIL
  6
CONTINUOUS
 62
     5
 10
320.00000599999998
 20
1641.6000300000001
 30
0.0
 11
320.00000599999998
 21
1640.5000299999999
 31
0.0
  0
LINE
  5
B03
  8
DETAIL
  6
CONTINUOUS
 62
     5
 10
393.62547799999999
 20
1410.0812450000001
 30
0.0
 11
395.831524
 21
1410.0000259999999
 31
0.0
  0
LINE
  5
B04
  8
DETAIL
  6
CONTINUOUS
 62
     5
 10
391.43131199999999
 20
1410.324474
 30
0.0
 11
393.62547799999999
 21
1410.0812450000001
 31
0.0
  0
LINE
  5
B05
  8
DETAIL
  6
CONTINUOUS
 62
     5
 10
389.26097099999998
 20
1410.728394
 30
0.0
 11
391.43131199999999
 21
1410.324474
 31
0.0
  0
LINE
  5
B06
  8
DETAIL
  6
CONTINUOUS
 62
     5
 10
387.12620199999998
 20
1411.2908210000001
 30
0.0
 11
389.26097099999998
 21
1410.728394
 31
0.0
  0
LINE
  5
B07
  8
DETAIL
  6
CONTINUOUS
 62
     5
 10
385.03857099999999
 20
1412.008709
 30
0.0
 11
387.12620199999998
 21
1411.2908210000001
 31
0.0
  0
LINE
  5
B08
  8
DETAIL
  6
CONTINUOUS
 62
     5
 10
383.00938500000001
 20
1412.8781690000001
 30
0.0
 11
385.03857099999999
 21
1412.008709
 31
0.0
  0
LINE
  5
B09
  8
DETAIL
  6
CONTINUOUS
 62
     5
 10
381.04963099999998
 20
1413.8944939999999
 30
0.0
 11
383.00938500000001
 21
1412.8781690000001
 31
0.0
  0
LINE
  5
B0A
  8
DETAIL
  6
CONTINUOUS
 62
     5
 10
379.16992199999999
 20
1415.0521799999999
 30
0.0
 11
381.04963099999998
 21
1413.8944939999999
 31
0.0
  0
LINE
  5
B0B
  8
DETAIL
  6
CONTINUOUS
 62
     5
 10
377.38043599999997
 20
1416.3449579999999
 30
0.0
 11
379.16992199999999
 21
1415.0521799999999
 31
0.0
  0
LINE
  5
B0C
  8
DETAIL
  6
CONTINUOUS
 62
     5
 10
375.69086299999998
 20
1417.7658269999999
 30
0.0
 11
377.38043599999997
 21
1416.3449579999999
 31
0.0
  0
LINE
  5
B0D
  8
DETAIL
  6
CONTINUOUS
 62
     5
 10
374.11035199999998
 20
1419.3070909999999
 30
0.0
 11
375.69086299999998
 21
1417.7658269999999
 31
0.0
  0
LINE
  5
B0E
  8
DETAIL
  6
CONTINUOUS
 62
     5
 10
372.64746300000002
 20
1420.960405
 30
0.0
 11
374.11035199999998
 21
1419.3070909999999
 31
0.0
  0
LINE
  5
B0F
  8
DETAIL
  6
CONTINUOUS
 62
     5
 10
371.310115
 20
1422.7168160000001
 30
0.0
 11
372.64746300000002
 21
1420.960405
 31
0.0
  0
LINE
  5
B10
  8
DETAIL
  6
CONTINUOUS
 62
     5
 10
370.10555099999999
 20
1424.56681
 30
0.0
 11
371.310115
 21
1422.7168160000001
 31
0.0
  0
LINE
  5
B11
  8
DETAIL
  6
CONTINUOUS
 62
     5
 10
369.04029400000002
 20
1426.500368
 30
0.0
 11
370.10555099999999
 21
1424.56681
 31
0.0
  0
LINE
  5
B12
  8
DETAIL
  6
CONTINUOUS
 62
     5
 10
368.120113
 20
1428.5070149999999
 30
0.0
 11
369.04029400000002
 21
1426.500368
 31
0.0
  0
LINE
  5
B13
  8
DETAIL
  6
CONTINUOUS
 62
     5
 10
367.349988
 20
1430.5758820000001
 30
0.0
 11
368.120113
 21
1428.5070149999999
 31
0.0
  0
LINE
  5
B14
  8
DETAIL
  6
CONTINUOUS
 62
     5
 10
366.73408999999998
 20
1432.695755
 30
0.0
 11
367.349988
 21
1430.5758820000001
 31
0.0
  0
LINE
  5
B15
  8
DETAIL
  6
CONTINUOUS
 62
     5
 10
366.27575000000002
 20
1434.855147
 30
0.0
 11
366.73408999999998
 21
1432.695755
 31
0.0
  0
LINE
  5
B16
  8
DETAIL
  6
CONTINUOUS
 62
     5
 10
365.97744399999999
 20
1437.042361
 30
0.0
 11
366.27575000000002
 21
1434.855147
 31
0.0
  0
LINE
  5
B17
  8
DETAIL
  6
CONTINUOUS
 62
     5
 10
365.85984400000001
 20
1438.6914449999999
 30
0.0
 11
365.97744399999999
 21
1437.042361
 31
0.0
  0
LINE
  5
B18
  8
DETAIL
  6
CONTINUOUS
 62
     5
 10
365.85984400000001
 20
1438.6914449999999
 30
0.0
 11
360.99952500000001
 21
1550.0121670000001
 31
0.0
  0
LINE
  5
B19
  8
DETAIL
  6
CONTINUOUS
 62
     5
 10
382.20000699999991
 20
39.000000999999997
 30
0.0
 11
382.20000699999991
 21
21.0
 31
0.0
  0
LINE
  5
B1A
  8
DETAIL
  6
CONTINUOUS
 62
     5
 10
384.50000699999998
 20
21.0
 30
0.0
 11
384.50000699999998
 21
39.000000999999997
 31
0.0
  0
LINE
  5
B1B
  8
DETAIL
  6
CONTINUOUS
 62
     5
 10
409.34315299999997
 20
1370.0000250000001
 30
0.0
 11
409.34315299999997
 21
1410.0000259999999
 31
0.0
  0
LINE
  5
B65
  8
DETAIL
  6
CONTINUOUS
 62
     5
 10
349.84251999999998
 20
1561.32024
 30
0.0
 11
350.63879227896621
 21
1550.0121671190821
 31
0.0
  0
LINE
  5
B66
  8
DETAIL
  6
CONTINUOUS
 62
     5
 10
348.335059
 20
1572.563388
 30
0.0
 11
349.84251999999998
 21
1561.32024
 31
0.0
  0
LINE
  5
B67
  8
DETAIL
  6
CONTINUOUS
 62
     5
 10
346.123603
 20
1583.68218
 30
0.0
 11
348.335059
 21
1572.563388
 31
0.0
  0
LINE
  5
B68
  8
DETAIL
  6
CONTINUOUS
 62
     5
 10
438.00000799999998
 20
39.000000999999997
 30
0.0
 11
438.00000799999998
 21
21.0
 31
0.0
  0
LINE
  5
B69
  8
DETAIL
  6
CONTINUOUS
 62
     5
 10
440.30000799999988
 20
21.0
 30
0.0
 11
440.30000799999988
 21
39.000000999999997
 31
0.0
  0
LINE
  5
B6A
  8
DETAIL
  6
CONTINUOUS
 62
     5
 10
454.50000799999998
 20
9.0
 30
0.0
 11
454.50000799999998
 21
54.0
 31
0.0
  0
LINE
  5
B6B
  8
DETAIL
  6
CONTINUOUS
 62
     5
 10
455.20000800000003
 20
54.0
 30
0.0
 11
455.20000800000003
 21
1370.0000250000001
 31
0.0
  0
LINE
  5
B6C
  8
DETAIL
  6
CONTINUOUS
 62
     5
 10
460.00000899999992
 20
1410.0000259999999
 30
0.0
 11
460.00000899999992
 21
1370.0000250000001
 31
0.0
  0
LINE
  5
C15
  8
DETAIL
  6
CONTINUOUS
 62
     5
 10
349.11675500000001
 20
1561.32024
 30
0.0
 11
349.91302628004689
 21
1550.0121671189611
 31
0.0
  0
LINE
  5
C16
  8
DETAIL
  6
CONTINUOUS
 62
     5
 10
347.60929299999998
 20
1572.563388
 30
0.0
 11
349.11675500000001
 21
1561.32024
 31
0.0
  0
LINE
  5
C17
  8
DETAIL
  6
CONTINUOUS
 62
     5
 10
345.3978370000001
 20
1583.68218
 30
0.0
 11
347.60929299999998
 21
1572.563388
 31
0.0
  0
LINE
  5
C18
  8
DETAIL
  6
CONTINUOUS
 62
     5
 10
342.49169000000001
 20
1594.629844
 30
0.0
 11
345.3978370000001
 21
1583.68218
 31
0.0
  0
LINE
  5
C19
  8
DETAIL
  6
CONTINUOUS
 62
     5
 10
338.903074
 20
1605.360332
 30
0.0
 11
342.49169000000001
 21
1594.629844
 31
0.0
  0
LINE
  5
C1D
  8
DETAIL
  6
CONTINUOUS
 62
     5
 10
343.21745499999997
 20
1594.629844
 30
0.0
 11
346.123603
 21
1583.68218
 31
0.0
  0
LINE
  5
C1E
  8
DETAIL
  6
CONTINUOUS
 62
     5
 10
339.62883999999991
 20
1605.360332
 30
0.0
 11
343.21745499999997
 21
1594.629844
 31
0.0
  0
LINE
  5
C1F
  8
DETAIL
  6
CONTINUOUS
 62
     5
 10
335.37285200000002
 20
1615.828505
 30
0.0
 11
339.62883999999991
 21
1605.360332
 31
0.0
  0
LINE
  5
C22
  8
DETAIL
  6
CONTINUOUS
 62
     5
 10
345.812318
 20
1561.32024
 30
0.0
 11
346.60117623726768
 21
1550.012167118407
 31
0.0
  0
LINE
  5
C23
  8
DETAIL
  6
CONTINUOUS
 62
     5
 10
344.31889200000001
 20
1572.563388
 30
0.0
 11
345.812318
 21
1561.32024
 31
0.0
  0
LINE
  5
C24
  8
DETAIL
  6
CONTINUOUS
 62
     5
 10
342.12802599999998
 20
1583.68218
 30
0.0
 11
344.31889200000001
 21
1572.563388
 31
0.0
  0
LINE
  5
C2A
  8
DETAIL
  6
CONTINUOUS
 62
     5
 10
346.63923
 20
1561.32024
 30
0.0
 11
347.42808823725812
 21
1550.012167118545
 31
0.0
  0
LINE
  5
C2B
  8
DETAIL
  6
CONTINUOUS
 62
     5
 10
345.145804
 20
1572.563388
 30
0.0
 11
346.63923
 21
1561.32024
 31
0.0
  0
LINE
  5
C2C
  8
DETAIL
  6
CONTINUOUS
 62
     5
 10
342.95493800000003
 20
1583.68218
 30
0.0
 11
345.145804
 21
1572.563388
 31
0.0
  0
LINE
  5
C2D
  8
DETAIL
  6
CONTINUOUS
 62
     5
 10
340.07584800000001
 20
1594.629844
 30
0.0
 11
342.95493800000003
 21
1583.68218
 31
0.0
  0
LINE
  5
C32
  8
DETAIL
  6
CONTINUOUS
 62
     5
 10
342.08656300000001
 20
1561.32024
 30
0.0
 11
342.86704522814352
 21
1550.0121671177819
 31
0.0
  0
LINE
  5
C3A
  8
DETAIL
  6
CONTINUOUS
 62
     5
 10
343.01361400000002
 20
1561.32024
 30
0.0
 11
343.7940962281329
 21
1550.012167117937
 31
0.0
  0
LINE
  5
C3B
  8
DETAIL
  6
CONTINUOUS
 62
     5
 10
341.53604200000001
 20
1572.563388
 30
0.0
 11
343.01361400000002
 21
1561.32024
 31
0.0
  0
LINE
  5
CB6
  8
DETAIL
  6
CONTINUOUS
 62
     5
 10
359.90671700000001
 20
1561.32024
 30
0.0
 11
360.72686564987578
 21
1550.012167120771
 31
0.0
  0
LINE
  5
CB7
  8
DETAIL
  6
CONTINUOUS
 62
     5
 10
358.35405300000002
 20
1572.563388
 30
0.0
 11
359.90671700000001
 21
1561.32024
 31
0.0
  0
LINE
  5
CB8
  8
DETAIL
  6
CONTINUOUS
 62
     5
 10
356.07628499999998
 20
1583.68218
 30
0.0
 11
358.35405300000002
 21
1572.563388
 31
0.0
  0
LINE
  5
CB9
  8
DETAIL
  6
CONTINUOUS
 62
     5
 10
353.08299399999999
 20
1594.629844
 30
0.0
 11
356.07628499999998
 21
1583.68218
 31
0.0
  0
LINE
  5
CBA
  8
DETAIL
  6
CONTINUOUS
 62
     5
 10
349.38677100000001
 20
1605.360332
 30
0.0
 11
353.08299399999999
 21
1594.629844
 31
0.0
  0
LINE
  5
CBB
  8
DETAIL
  6
CONTINUOUS
 62
     5
 10
345.00316500000002
 20
1615.828505
 30
0.0
 11
349.38677100000001
 21
1605.360332
 31
0.0
  0
LINE
  5
CBC
  8
DETAIL
  6
CONTINUOUS
 62
     5
 10
339.95061299999998
 20
1625.990329
 30
0.0
 11
345.00316500000002
 21
1615.828505
 31
0.0
  0
LINE
  5
CBD
  8
DETAIL
  6
CONTINUOUS
 62
     5
 10
334.25037099999997
 20
1635.8030610000001
 30
0.0
 11
339.95061299999998
 21
1625.990329
 31
0.0
  0
LINE
  5
CBF
  8
DETAIL
  6
CONTINUOUS
 62
     5
 10
358.458752
 20
1572.563388
 30
0.0
 11
360.011416
 21
1561.32024
 31
0.0
  0
LINE
  5
CC0
  8
DETAIL
  6
CONTINUOUS
 62
     5
 10
356.18098400000002
 20
1583.68218
 30
0.0
 11
358.458752
 21
1572.563388
 31
0.0
  0
LINE
  5
CC1
  8
DETAIL
  6
CONTINUOUS
 62
     5
 10
353.18769300000002
 20
1594.629844
 30
0.0
 11
356.18098400000002
 21
1583.68218
 31
0.0
  0
LINE
  5
CC2
  8
DETAIL
  6
CONTINUOUS
 62
     5
 10
349.49146999999999
 20
1605.360332
 30
0.0
 11
353.18769300000002
 21
1594.629844
 31
0.0
  0
LINE
  5
CC3
  8
DETAIL
  6
CONTINUOUS
 62
     5
 10
345.10786300000001
 20
1615.828505
 30
0.0
 11
349.49146999999999
 21
1605.360332
 31
0.0
  0
LINE
  5
CC4
  8
DETAIL
  6
CONTINUOUS
 62
     5
 10
340.05531200000001
 20
1625.990329
 30
0.0
 11
345.10786300000001
 21
1615.828505
 31
0.0
  0
LINE
  5
CC5
  8
DETAIL
  6
CONTINUOUS
 62
     5
 10
334.35506900000001
 20
1635.8030610000001
 30
0.0
 11
340.05531200000001
 21
1625.990329
 31
0.0
  0
LINE
  5
CC6
  8
DETAIL
  6
CONTINUOUS
 62
     5
 10
359.19646599999999
 20
1561.32024
 30
0.0
 11
360.015115259335
 21
1550.0121671206509
 31
0.0
  0
LINE
  5
CC7
  8
DETAIL
  6
CONTINUOUS
 62
     5
 10
357.64663999999999
 20
1572.563388
 30
0.0
 11
359.19646599999999
 21
1561.32024
 31
0.0
  0
LINE
  5
CC8
  8
DETAIL
  6
CONTINUOUS
 62
     5
 10
355.37303600000001
 20
1583.68218
 30
0.0
 11
357.64663999999999
 21
1572.563388
 31
0.0
  0
LINE
  5
CC9
  8
DETAIL
  6
CONTINUOUS
 62
     5
 10
352.38521600000001
 20
1594.629844
 30
0.0
 11
355.37303600000001
 21
1583.68218
 31
0.0
  0
LINE
  5
CCA
  8
DETAIL
  6
CONTINUOUS
 62
     5
 10
348.69574999999998
 20
1605.360332
 30
0.0
 11
352.38521600000001
 21
1594.629844
 31
0.0
  0
LINE
  5
CCB
  8
DETAIL
  6
CONTINUOUS
 62
     5
 10
344.320156
 20
1615.828505
 30
0.0
 11
348.69574999999998
 21
1605.360332
 31
0.0
  0
LINE
  5
CCC
  8
DETAIL
  6
CONTINUOUS
 62
     5
 10
339.27683999999999
 20
1625.990329
 30
0.0
 11
344.320156
 21
1615.828505
 31
0.0
  0
LINE
  5
CCD
  8
DETAIL
  6
CONTINUOUS
 62
     5
 10
333.58701600000001
 20
1635.8030610000001
 30
0.0
 11
339.27683999999999
 21
1625.990329
 31
0.0
  0
LINE
  5
CCE
  8
DETAIL
  6
CONTINUOUS
 62
     5
 10
359.40573599999999
 20
1561.32024
 30
0.0
 11
360.22438525933251
 21
1550.0121671206871
 31
0.0
  0
LINE
  5
CCF
  8
DETAIL
  6
CONTINUOUS
 62
     5
 10
357.85590999999999
 20
1572.563388
 30
0.0
 11
359.40573599999999
 21
1561.32024
 31
0.0
  0
LINE
  5
CD0
  8
DETAIL
  6
CONTINUOUS
 62
     5
 10
355.58230500000002
 20
1583.68218
 30
0.0
 11
357.85590999999999
 21
1572.563388
 31
0.0
  0
LINE
  5
CD1
  8
DETAIL
  6
CONTINUOUS
 62
     5
 10
352.59448600000002
 20
1594.629844
 30
0.0
 11
355.58230500000002
 21
1583.68218
 31
0.0
  0
LINE
  5
CD2
  8
DETAIL
  6
CONTINUOUS
 62
     5
 10
348.90501899999998
 20
1605.360332
 30
0.0
 11
352.59448600000002
 21
1594.629844
 31
0.0
  0
LINE
  5
CD3
  8
DETAIL
  6
CONTINUOUS
 62
     5
 10
344.529425
 20
1615.828505
 30
0.0
 11
348.90501899999998
 21
1605.360332
 31
0.0
  0
LINE
  5
CD4
  8
DETAIL
  6
CONTINUOUS
 62
     5
 10
339.486109
 20
1625.990329
 30
0.0
 11
344.529425
 21
1615.828505
 31
0.0
  0
LINE
  5
CD5
  8
DETAIL
  6
CONTINUOUS
 62
     5
 10
333.79628600000001
 20
1635.8030610000001
 30
0.0
 11
339.486109
 21
1625.990329
 31
0.0
  0
LINE
  5
CD6
  8
DETAIL
  6
CONTINUOUS
 62
     5
 10
358.04858999999999
 20
1561.32024
 30
0.0
 11
358.86474193997941
 21
1550.012167120459
 31
0.0
  0
LINE
  5
CD7
  8
DETAIL
  6
CONTINUOUS
 62
     5
 10
356.50349
 20
1572.563388
 30
0.0
 11
358.04858999999999
 21
1561.32024
 31
0.0
  0
LINE
  5
CD8
  8
DETAIL
  6
CONTINUOUS
 62
     5
 10
354.23681900000003
 20
1583.68218
 30
0.0
 11
356.50349
 21
1572.563388
 31
0.0
  0
LINE
  5
CD9
  8
DETAIL
  6
CONTINUOUS
 62
     5
 10
351.25811099999999
 20
1594.629844
 30
0.0
 11
354.23681900000003
 21
1583.68218
 31
0.0
  0
LINE
  5
CDA
  8
DETAIL
  6
CONTINUOUS
 62
     5
 10
347.57989600000002
 20
1605.360332
 30
0.0
 11
351.25811099999999
 21
1594.629844
 31
0.0
  0
LINE
  5
CDB
  8
DETAIL
  6
CONTINUOUS
 62
     5
 10
343.217645
 20
1615.828505
 30
0.0
 11
347.57989600000002
 21
1605.360332
 31
0.0
  0
LINE
  5
CDC
  8
DETAIL
  6
CONTINUOUS
 62
     5
 10
338.18970999999999
 20
1625.990329
 30
0.0
 11
343.217645
 21
1615.828505
 31
0.0
  0
LINE
  5
CDD
  8
DETAIL
  6
CONTINUOUS
 62
     5
 10
332.51723800000002
 20
1635.8030610000001
 30
0.0
 11
338.18970999999999
 21
1625.990329
 31
0.0
  0
LINE
  5
CDE
  8
DETAIL
  6
CONTINUOUS
 62
     5
 10
358.36217499999998
 20
1561.32024
 30
0.0
 11
359.17832793890329
 21
1550.0121671205111
 31
0.0
  0
LINE
  5
CDF
  8
DETAIL
  6
CONTINUOUS
 62
     5
 10
356.81707499999999
 20
1572.563388
 30
0.0
 11
358.36217499999998
 21
1561.32024
 31
0.0
  0
LINE
  5
CE0
  8
DETAIL
  6
CONTINUOUS
 62
     5
 10
354.55040400000001
 20
1583.68218
 30
0.0
 11
356.81707499999999
 21
1572.563388
 31
0.0
  0
LINE
  5
CE1
  8
DETAIL
  6
CONTINUOUS
 62
     5
 10
351.57169599999997
 20
1594.629844
 30
0.0
 11
354.55040400000001
 21
1583.68218
 31
0.0
  0
LINE
  5
CE2
  8
DETAIL
  6
CONTINUOUS
 62
     5
 10
347.89348100000001
 20
1605.360332
 30
0.0
 11
351.57169599999997
 21
1594.629844
 31
0.0
  0
LINE
  5
CE3
  8
DETAIL
  6
CONTINUOUS
 62
     5
 10
343.53123099999999
 20
1615.828505
 30
0.0
 11
347.89348100000001
 21
1605.360332
 31
0.0
  0
LINE
  5
CE4
  8
DETAIL
  6
CONTINUOUS
 62
     5
 10
338.50329499999998
 20
1625.990329
 30
0.0
 11
343.53123099999999
 21
1615.828505
 31
0.0
  0
LINE
  5
CE5
  8
DETAIL
  6
CONTINUOUS
 62
     5
 10
332.83082300000001
 20
1635.8030610000001
 30
0.0
 11
338.50329499999998
 21
1625.990329
 31
0.0
  0
LINE
  5
CE6
  8
DETAIL
  6
CONTINUOUS
 62
     5
 10
356.46448600000002
 20
1561.32024
 30
0.0
 11
357.27714768644739
 21
1550.012167120193
 31
0.0
  0
LINE
  5
CE7
  8
DETAIL
  6
CONTINUOUS
 62
     5
 10
354.925995
 20
1572.563388
 30
0.0
 11
356.46448600000002
 21
1561.32024
 31
0.0
  0
LINE
  5
CE8
  8
DETAIL
  6
CONTINUOUS
 62
     5
 10
352.66901899999999
 20
1583.68218
 30
0.0
 11
354.925995
 21
1572.563388
 31
0.0
  0
LINE
  5
CE9
  8
DETAIL
  6
CONTINUOUS
 62
     5
 10
349.70305200000001
 20
1594.629844
 30
0.0
 11
352.66901899999999
 21
1583.68218
 31
0.0
  0
LINE
  5
CEA
  8
DETAIL
  6
CONTINUOUS
 62
     5
 10
346.040569
 20
1605.360332
 30
0.0
 11
349.70305200000001
 21
1594.629844
 31
0.0
  0
LINE
  5
CEB
  8
DETAIL
  6
CONTINUOUS
 62
     5
 10
341.696977
 20
1615.828505
 30
0.0
 11
346.040569
 21
1605.360332
 31
0.0
  0
LINE
  5
CEC
  8
DETAIL
  6
CONTINUOUS
 62
     5
 10
336.69054699999998
 20
1625.990329
 30
0.0
 11
341.696977
 21
1615.828505
 31
0.0
  0
LINE
  5
CED
  8
DETAIL
  6
CONTINUOUS
 62
     5
 10
331.04233799999997
 20
1635.8030610000001
 30
0.0
 11
336.69054699999998
 21
1625.990329
 31
0.0
  0
LINE
  5
CEE
  8
DETAIL
  6
CONTINUOUS
 62
     5
 10
356.88200499999999
 20
1561.32024
 30
0.0
 11
357.69466668644242
 21
1550.012167120263
 31
0.0
  0
LINE
  5
CEF
  8
DETAIL
  6
CONTINUOUS
 62
     5
 10
355.34351400000003
 20
1572.563388
 30
0.0
 11
356.88200499999999
 21
1561.32024
 31
0.0
  0
LINE
  5
CF0
  8
DETAIL
  6
CONTINUOUS
 62
     5
 10
353.08653800000002
 20
1583.68218
 30
0.0
 11
355.34351400000003
 21
1572.563388
 31
0.0
  0
LINE
  5
CF1
  8
DETAIL
  6
CONTINUOUS
 62
     5
 10
350.12057099999998
 20
1594.629844
 30
0.0
 11
353.08653800000002
 21
1583.68218
 31
0.0
  0
LINE
  5
CF2
  8
DETAIL
  6
CONTINUOUS
 62
     5
 10
346.45808900000009
 20
1605.360332
 30
0.0
 11
350.12057099999998
 21
1594.629844
 31
0.0
  0
LINE
  5
CF3
  8
DETAIL
  6
CONTINUOUS
 62
     5
 10
342.11449699999997
 20
1615.828505
 30
0.0
 11
346.45808900000009
 21
1605.360332
 31
0.0
  0
LINE
  5
CF4
  8
DETAIL
  6
CONTINUOUS
 62
     5
 10
337.10806700000001
 20
1625.990329
 30
0.0
 11
342.11449699999997
 21
1615.828505
 31
0.0
  0
LINE
  5
CF5
  8
DETAIL
  6
CONTINUOUS
 62
     5
 10
331.459858
 20
1635.8030610000001
 30
0.0
 11
337.10806700000001
 21
1625.990329
 31
0.0
  0
LINE
  5
CF6
  8
DETAIL
  6
CONTINUOUS
 62
     5
 10
354.44608499999998
 20
1561.32024
 30
0.0
 11
355.25426549659448
 21
1550.0121671198549
 31
0.0
  0
LINE
  5
CF7
  8
DETAIL
  6
CONTINUOUS
 62
     5
 10
352.91607699999997
 20
1572.563388
 30
0.0
 11
354.44608499999998
 21
1561.32024
 31
0.0
  0
LINE
  5
CF8
  8
DETAIL
  6
CONTINUOUS
 62
     5
 10
350.67154599999998
 20
1583.68218
 30
0.0
 11
352.91607699999997
 21
1572.563388
 31
0.0
  0
LINE
  5
CF9
  8
DETAIL
  6
CONTINUOUS
 62
     5
 10
347.72193299999998
 20
1594.629844
 30
0.0
 11
350.67154599999998
 21
1583.68218
 31
0.0
  0
LINE
  5
CFA
  8
DETAIL
  6
CONTINUOUS
 62
     5
 10
344.07964600000003
 20
1605.360332
 30
0.0
 11
347.72193299999998
 21
1594.629844
 31
0.0
  0
LINE
  5
CFB
  8
DETAIL
  6
CONTINUOUS
 62
     5
 10
339.76000399999998
 20
1615.828505
 30
0.0
 11
344.07964600000003
 21
1605.360332
 31
0.0
  0
LINE
  5
CFC
  8
DETAIL
  6
CONTINUOUS
 62
     5
 10
334.78118000000001
 20
1625.990329
 30
0.0
 11
339.76000399999998
 21
1615.828505
 31
0.0
  0
LINE
  5
CFD
  8
DETAIL
  6
CONTINUOUS
 62
     5
 10
329.16411499999998
 20
1635.8030610000001
 30
0.0
 11
334.78118000000001
 21
1625.990329
 31
0.0
  0
LINE
  5
CFE
  8
DETAIL
  6
CONTINUOUS
 62
     5
 10
354.96703000000002
 20
1561.32024
 30
0.0
 11
355.77521049658839
 21
1550.012167119942
 31
0.0
  0
LINE
  5
CFF
  8
DETAIL
  6
CONTINUOUS
 62
     5
 10
353.43702200000001
 20
1572.563388
 30
0.0
 11
354.96703000000002
 21
1561.32024
 31
0.0
  0
LINE
  5
D00
  8
DETAIL
  6
CONTINUOUS
 62
     5
 10
351.19249100000002
 20
1583.68218
 30
0.0
 11
353.43702200000001
 21
1572.563388
 31
0.0
  0
LINE
  5
D01
  8
DETAIL
  6
CONTINUOUS
 62
     5
 10
348.24287800000002
 20
1594.629844
 30
0.0
 11
351.19249100000002
 21
1583.68218
 31
0.0
  0
LINE
  5
D02
  8
DETAIL
  6
CONTINUOUS
 62
     5
 10
344.60059000000001
 20
1605.360332
 30
0.0
 11
348.24287800000002
 21
1594.629844
 31
0.0
  0
LINE
  5
D03
  8
DETAIL
  6
CONTINUOUS
 62
     5
 10
340.28094900000002
 20
1615.828505
 30
0.0
 11
344.60059000000001
 21
1605.360332
 31
0.0
  0
LINE
  5
D04
  8
DETAIL
  6
CONTINUOUS
 62
     5
 10
335.30212399999999
 20
1625.990329
 30
0.0
 11
340.28094900000002
 21
1615.828505
 31
0.0
  0
LINE
  5
D05
  8
DETAIL
  6
CONTINUOUS
 62
     5
 10
329.68505900000002
 20
1635.8030610000001
 30
0.0
 11
335.30212399999999
 21
1625.990329
 31
0.0
  0
LINE
  5
D06
  8
DETAIL
  6
CONTINUOUS
 62
     5
 10
351.99584599999997
 20
1561.32024
 30
0.0
 11
352.79856136291482
 21
1550.012167119444
 31
0.0
  0
LINE
  5
D07
  8
DETAIL
  6
CONTINUOUS
 62
     5
 10
350.47618599999998
 20
1572.563388
 30
0.0
 11
351.99584599999997
 21
1561.32024
 31
0.0
  0
LINE
  5
D08
  8
DETAIL
  6
CONTINUOUS
 62
     5
 10
348.24683399999998
 20
1583.68218
 30
0.0
 11
350.47618599999998
 21
1572.563388
 31
0.0
  0
LINE
  5
D09
  8
DETAIL
  6
CONTINUOUS
 62
     5
 10
345.31716899999998
 20
1594.629844
 30
0.0
 11
348.24683399999998
 21
1583.68218
 31
0.0
  0
LINE
  5
D0A
  8
DETAIL
  6
CONTINUOUS
 62
     5
 10
341.69951400000002
 20
1605.360332
 30
0.0
 11
345.31716899999998
 21
1594.629844
 31
0.0
  0
LINE
  5
D0B
  8
DETAIL
  6
CONTINUOUS
 62
     5
 10
337.409086
 20
1615.828505
 30
0.0
 11
341.69951400000002
 21
1605.360332
 31
0.0
  0
LINE
  5
D0C
  8
DETAIL
  6
CONTINUOUS
 62
     5
 10
332.463933
 20
1625.990329
 30
0.0
 11
337.409086
 21
1615.828505
 31
0.0
  0
LINE
  5
D0E
  8
DETAIL
  6
CONTINUOUS
 62
     5
 10
352.61958099999998
 20
1561.32024
 30
0.0
 11
353.42229636290739
 21
1550.0121671195479
 31
0.0
  0
LINE
  5
D0F
  8
DETAIL
  6
CONTINUOUS
 62
     5
 10
351.09992099999999
 20
1572.563388
 30
0.0
 11
352.61958099999998
 21
1561.32024
 31
0.0
  0
LINE
  5
D10
  8
DETAIL
  6
CONTINUOUS
 62
     5
 10
348.8705700000001
 20
1583.68218
 30
0.0
 11
351.09992099999999
 21
1572.563388
 31
0.0
  0
LINE
  5
D11
  8
DETAIL
  6
CONTINUOUS
 62
     5
 10
345.94090399999999
 20
1594.629844
 30
0.0
 11
348.8705700000001
 21
1583.68218
 31
0.0
  0
LINE
  5
D12
  8
DETAIL
  6
CONTINUOUS
 62
     5
 10
342.32324899999998
 20
1605.360332
 30
0.0
 11
345.94090399999999
 21
1594.629844
 31
0.0
  0
LINE
  5
D13
  8
DETAIL
  6
CONTINUOUS
 62
     5
 10
338.03282100000001
 20
1615.828505
 30
0.0
 11
342.32324899999998
 21
1605.360332
 31
0.0
  0
LINE
  5
D14
  8
DETAIL
  6
CONTINUOUS
 62
     5
 10
333.08766800000001
 20
1625.990329
 30
0.0
 11
338.03282100000001
 21
1615.828505
 31
0.0
  0
LINE
  5
D15
  8
DETAIL
  6
CONTINUOUS
 62
     5
 10
327.50859000000003
 20
1635.8030610000001
 30
0.0
 11
333.08766800000001
 21
1625.990329
 31
0.0
  0
LINE
  5
D19
  8
DETAIL
  6
CONTINUOUS
 62
     5
 10
455.20000800000003
 20
54.0
 30
0.0
 11
-455.20000800000003
 21
54.000100000000003
 31
0.0
  0
LINE
  5
D1A
  8
DETAIL
  6
CONTINUOUS
 62
     5
 10
432.00000799999992
 20
47.300001000000002
 30
0.0
 11
390.50000699999998
 21
47.300001000000002
 31
0.0
  0
LINE
  5
D1B
  8
DETAIL
  6
CONTINUOUS
 62
     5
 10
-432.00000799999992
 20
47.300001000000002
 30
0.0
 11
-390.50000699999998
 21
47.300001000000002
 31
0.0
  0
LINE
  5
D1C
  8
DETAIL
  6
CONTINUOUS
 62
     5
 10
-390.50000699999998
 20
45.000000999999997
 30
0.0
 11
-432.00000799999992
 21
45.000000999999997
 31
0.0
  0
LINE
  5
D1D
  8
DETAIL
  6
CONTINUOUS
 62
     5
 10
390.50000699999998
 20
45.000000999999997
 30
0.0
 11
432.00000799999992
 21
45.000000999999997
 31
0.0
  0
LINE
  5
D46
  8
DETAIL
  6
CONTINUOUS
 62
     5
 10
432.00000799999992
 20
15.0
 30
0.0
 11
390.50000699999998
 21
15.0
 31
0.0
  0
LINE
  5
D47
  8
DETAIL
  6
CONTINUOUS
 62
     5
 10
-432.00000799999992
 20
15.0
 30
0.0
 11
-390.50000699999998
 21
15.0
 31
0.0
  0
LINE
  5
D48
  8
DETAIL
  6
CONTINUOUS
 62
     5
 10
-390.50000699999998
 20
12.699999999999999
 30
0.0
 11
-432.00000799999992
 21
12.699999999999999
 31
0.0
  0
LINE
  5
D49
  8
DETAIL
  6
CONTINUOUS
 62
     5
 10
390.50000699999998
 20
12.699999999999999
 30
0.0
 11
432.00000799999992
 21
12.699999999999999
 31
0.0
  0
LINE
  5
D4A
  8
DETAIL
  6
CONTINUOUS
 62
     5
 10
449.50000799999992
 20
9.0
 30
0.0
 11
454.50000799999998
 21
9.0
 31
0.0
  0
LINE
  5
D4B
  8
DETAIL
  6
CONTINUOUS
 62
     5
 10
-454.50000799999998
 20
9.0
 30
0.0
 11
-449.50000799999992
 21
9.0
 31
0.0
  0
LINE
  5
D5A
  8
DETAIL
  6
CONTINUOUS
 62
     5
 10
-409.34315299999997
 20
1410.0000259999999
 30
0.0
 11
-409.34315299999997
 21
1370.0000250000001
 31
0.0
  0
LINE
  5
D5B
  8
DETAIL
  6
CONTINUOUS
 62
     5
 10
449.50000799999992
 20
0.0
 30
0.0
 11
-449.50000799999992
 21
0.0
 31
0.0
  0
LINE
  5
D5C
  8
DETAIL
  6
CONTINUOUS
 62
     5
 10
449.50000799999992
 20
2.2999999999999989
 30
0.0
 11
-449.50000799999992
 21
2.2999999999999989
 31
0.0
  0
LINE
  5
D5D
  8
BASIS
  6
DASHDOT
 62
     6
 10
0.0
 20
-57.510339999999999
 30
0.0
 11
0.0
 21
1735.11879
 31
0.0
  0
LINE
  5
D5E
  8
ARRANGE
  6
CONTINUOUS
 62
     1
 10
37.897321000000012
 20
-37.897321000000012
 30
0.0
 11
-37.897321000000012
 21
37.897321000000012
 31
0.0
  0
LINE
  5
D5F
  8
ARRANGE
  6
CONTINUOUS
 62
     1
 10
37.897321000000012
 20
37.897321000000012
 30
0.0
 11
-37.897321000000012
 21
-37.897321000000012
 31
0.0
  0
CIRCLE
  5
D60
  8
ARRANGE
  6
CONTINUOUS
 62
     1
 10
0.0
 20
0.0
 30
0.0
 40
34.449674000000002
  0
LINE
  5
D61
  8
NOTE
  6
CONTINUOUS
 62
     4
 10
380.0
 20
-22.0
 30
0.0
 11
380.0
 21
22.0
 31
0.0
  0
LINE
  5
D63
  8
NOTE
  6
CONTINUOUS
 62
     4
 10
402.0
 20
0.0
 30
0.0
 11
358.0
 21
0.0
 31
0.0
  0
CIRCLE
  5
D65
  8
FIX
  6
CONTINUOUS
 62
    11
 10
380.0
 20
0.0
 30
0.0
 40
18.598564
  0
CIRCLE
  5
D66
  8
FIX
  6
CONTINUOUS
 62
    11
 10
-380.0
 20
0.0
 30
0.0
 40
18.598564
  0
TEXT
  5
D67
  8
ETC
  6
CONTINUOUS
 62
    61
 10
679.96540400000004
 20
1954.5455059999999
 30
0.0
 40
90.0
  1
PURY-P280_335CM-G_3
 50
359.99999700000001
 41
0.6030590000000001
  7
STANDARD1
  0
LINE
  5
D68
  8
OUTLINE
  6
CONTINUOUS
 62
     3
 10
-449.50000799999992
 20
9.0
 30
0.0
 11
-449.50000799999992
 21
0.0
 31
0.0
  0
LINE
  5
D69
  8
OUTLINE
  6
CONTINUOUS
 62
     3
 10
449.50000799999992
 20
9.0
 30
0.0
 11
449.50000799999992
 21
0.0
 31
0.0
  0
LINE
  5
D6F
  8
OUTLINE
  6
CONTINUOUS
 62
     3
 10
79.99996999999999
 20
1650.000031
 30
0.0
 11
0.0
 21
1650.000031
 31
0.0
  0
LINE
  5
D71
  8
OUTLINE
  6
CONTINUOUS
 62
     3
 10
460.00000899999992
 20
1410.0000259999999
 30
0.0
 11
-460.00000899999992
 21
1410.0000259999999
 31
0.0
  0
LINE
  5
D72
  8
OUTLINE
  6
CONTINUOUS
 62
     3
 10
-460.00000899999992
 20
1370.0000250000001
 30
0.0
 11
-460.00000899999992
 21
1410.0000259999999
 31
0.0
  0
LINE
  5
D73
  8
OUTLINE
  6
CONTINUOUS
 62
     3
 10
-455.20000800000003
 20
54.00000099999999
 30
0.0
 11
-455.20000800000003
 21
1370.0000250000001
 31
0.0
  0
LINE
  5
D74
  8
OUTLINE
  6
CONTINUOUS
 62
     3
 10
-454.50000799999998
 20
54.000107999999997
 30
0.0
 11
-454.50000799999998
 21
9.0
 31
0.0
  0
LINE
  5
D75
  8
OUTLINE
  6
CONTINUOUS
 62
     3
 10
80.000000999999983
 20
1649.300031
 30
0.0
 11
80.000000999999983
 21
1650.000031
 31
0.0
  0
LINE
  5
D76
  8
OUTLINE
  6
CONTINUOUS
 62
     3
 10
100.00000199999999
 20
1649.300031
 30
0.0
 11
100.00000199999999
 21
1648.6000300000001
 31
0.0
  0
LINE
  5
D77
  8
OUTLINE
  6
CONTINUOUS
 62
     3
 10
120.00000199999999
 20
1648.6000300000001
 30
0.0
 11
120.00000199999999
 21
1647.90003
 31
0.0
  0
LINE
  5
D78
  8
OUTLINE
  6
CONTINUOUS
 62
     3
 10
140.00000299999999
 20
1647.90003
 30
0.0
 11
140.00000299999999
 21
1647.20003
 31
0.0
  0
LINE
  5
D79
  8
OUTLINE
  6
CONTINUOUS
 62
     3
 10
160.00000299999999
 20
1647.20003
 30
0.0
 11
160.00000299999999
 21
1646.5000299999999
 31
0.0
  0
LINE
  5
D7A
  8
OUTLINE
  6
CONTINUOUS
 62
     3
 10
180.00000299999991
 20
1646.5000299999999
 30
0.0
 11
180.00000299999991
 21
1645.8000300000001
 31
0.0
  0
LINE
  5
D7B
  8
OUTLINE
  6
CONTINUOUS
 62
     3
 10
200.00000399999999
 20
1645.8000300000001
 30
0.0
 11
200.00000399999999
 21
1645.1000300000001
 31
0.0
  0
LINE
  5
D7C
  8
OUTLINE
  6
CONTINUOUS
 62
     3
 10
220.00000399999999
 20
1645.1000300000001
 30
0.0
 11
220.00000399999999
 21
1644.40003
 31
0.0
  0
LINE
  5
D7D
  8
OUTLINE
  6
CONTINUOUS
 62
     3
 10
240.00000399999999
 20
1644.40003
 30
0.0
 11
240.00000399999999
 21
1643.70003
 31
0.0
  0
LINE
  5
D7E
  8
OUTLINE
  6
CONTINUOUS
 62
     3
 10
260.00000499999999
 20
1643.70003
 30
0.0
 11
260.00000499999999
 21
1643.0000299999999
 31
0.0
  0
LINE
  5
D7F
  8
OUTLINE
  6
CONTINUOUS
 62
     3
 10
280.00000499999999
 20
1643.0000299999999
 30
0.0
 11
280.00000499999999
 21
1642.3000300000001
 31
0.0
  0
LINE
  5
D80
  8
OUTLINE
  6
CONTINUOUS
 62
     3
 10
300.00000599999998
 20
1642.3000300000001
 30
0.0
 11
300.00000599999998
 21
1641.6000300000001
 31
0.0
  0
LINE
  5
D81
  8
OUTLINE
  6
CONTINUOUS
 62
     3
 10
320.00000599999998
 20
1641.6000300000001
 30
0.0
 11
320.00000599999998
 21
1640.5000299999999
 31
0.0
  0
LINE
  5
D82
  8
OUTLINE
  6
CONTINUOUS
 62
     3
 10
393.62547799999999
 20
1410.0812450000001
 30
0.0
 11
395.831524
 21
1410.0000259999999
 31
0.0
  0
LINE
  5
D83
  8
OUTLINE
  6
CONTINUOUS
 62
     3
 10
391.43131199999999
 20
1410.324474
 30
0.0
 11
393.62547799999999
 21
1410.0812450000001
 31
0.0
  0
LINE
  5
D84
  8
OUTLINE
  6
CONTINUOUS
 62
     3
 10
389.26097099999998
 20
1410.728394
 30
0.0
 11
391.43131199999999
 21
1410.324474
 31
0.0
  0
LINE
  5
D85
  8
OUTLINE
  6
CONTINUOUS
 62
     3
 10
387.12620199999998
 20
1411.2908210000001
 30
0.0
 11
389.26097099999998
 21
1410.728394
 31
0.0
  0
LINE
  5
D86
  8
OUTLINE
  6
CONTINUOUS
 62
     3
 10
385.03857099999999
 20
1412.008709
 30
0.0
 11
387.12620199999998
 21
1411.2908210000001
 31
0.0
  0
LINE
  5
D87
  8
OUTLINE
  6
CONTINUOUS
 62
     3
 10
383.00938500000001
 20
1412.8781690000001
 30
0.0
 11
385.03857099999999
 21
1412.008709
 31
0.0
  0
LINE
  5
D88
  8
OUTLINE
  6
CONTINUOUS
 62
     3
 10
381.04963099999998
 20
1413.8944939999999
 30
0.0
 11
383.00938500000001
 21
1412.8781690000001
 31
0.0
  0
LINE
  5
D89
  8
OUTLINE
  6
CONTINUOUS
 62
     3
 10
379.16992199999999
 20
1415.0521799999999
 30
0.0
 11
381.04963099999998
 21
1413.8944939999999
 31
0.0
  0
LINE
  5
D8A
  8
OUTLINE
  6
CONTINUOUS
 62
     3
 10
377.38043599999997
 20
1416.3449579999999
 30
0.0
 11
379.16992199999999
 21
1415.0521799999999
 31
0.0
  0
LINE
  5
D8B
  8
OUTLINE
  6
CONTINUOUS
 62
     3
 10
375.69086299999998
 20
1417.7658269999999
 30
0.0
 11
377.38043599999997
 21
1416.3449579999999
 31
0.0
  0
LINE
  5
D8C
  8
OUTLINE
  6
CONTINUOUS
 62
     3
 10
374.11035199999998
 20
1419.3070909999999
 30
0.0
 11
375.69086299999998
 21
1417.7658269999999
 31
0.0
  0
LINE
  5
D8D
  8
OUTLINE
  6
CONTINUOUS
 62
     3
 10
372.64746300000002
 20
1420.960405
 30
0.0
 11
374.11035199999998
 21
1419.3070909999999
 31
0.0
  0
LINE
  5
D8E
  8
OUTLINE
  6
CONTINUOUS
 62
     3
 10
371.310115
 20
1422.7168160000001
 30
0.0
 11
372.64746300000002
 21
1420.960405
 31
0.0
  0
LINE
  5
D8F
  8
OUTLINE
  6
CONTINUOUS
 62
     3
 10
370.10555099999999
 20
1424.56681
 30
0.0
 11
371.310115
 21
1422.7168160000001
 31
0.0
  0
LINE
  5
D90
  8
OUTLINE
  6
CONTINUOUS
 62
     3
 10
369.04029400000002
 20
1426.500368
 30
0.0
 11
370.10555099999999
 21
1424.56681
 31
0.0
  0
LINE
  5
D91
  8
OUTLINE
  6
CONTINUOUS
 62
     3
 10
368.120113
 20
1428.5070149999999
 30
0.0
 11
369.04029400000002
 21
1426.500368
 31
0.0
  0
LINE
  5
D92
  8
OUTLINE
  6
CONTINUOUS
 62
     3
 10
367.349988
 20
1430.5758820000001
 30
0.0
 11
368.120113
 21
1428.5070149999999
 31
0.0
  0
LINE
  5
D93
  8
OUTLINE
  6
CONTINUOUS
 62
     3
 10
366.73408999999998
 20
1432.695755
 30
0.0
 11
367.349988
 21
1430.5758820000001
 31
0.0
  0
LINE
  5
D94
  8
OUTLINE
  6
CONTINUOUS
 62
     3
 10
366.27575000000002
 20
1434.855147
 30
0.0
 11
366.73408999999998
 21
1432.695755
 31
0.0
  0
LINE
  5
D95
  8
OUTLINE
  6
CONTINUOUS
 62
     3
 10
365.97744399999999
 20
1437.042361
 30
0.0
 11
366.27575000000002
 21
1434.855147
 31
0.0
  0
LINE
  5
D96
  8
OUTLINE
  6
CONTINUOUS
 62
     3
 10
365.85984400000001
 20
1438.6914449999999
 30
0.0
 11
365.97744399999999
 21
1437.042361
 31
0.0
  0
LINE
  5
D97
  8
OUTLINE
  6
CONTINUOUS
 62
     3
 10
365.85984400000001
 20
1438.6914449999999
 30
0.0
 11
360.99952500000001
 21
1550.0121670000001
 31
0.0
  0
LINE
  5
D98
  8
OUTLINE
  6
CONTINUOUS
 62
     3
 10
454.50000799999998
 20
9.0
 30
0.0
 11
454.50000799999998
 21
54.0
 31
0.0
  0
LINE
  5
D99
  8
OUTLINE
  6
CONTINUOUS
 62
     3
 10
455.20000800000003
 20
54.0
 30
0.0
 11
455.20000800000003
 21
1370.0000250000001
 31
0.0
  0
LINE
  5
D9A
  8
OUTLINE
  6
CONTINUOUS
 62
     3
 10
460.00000899999992
 20
1410.0000259999999
 30
0.0
 11
460.00000899999992
 21
1370.0000250000001
 31
0.0
  0
LINE
  5
DA3
  8
OUTLINE
  6
CONTINUOUS
 62
     3
 10
449.50000799999992
 20
9.0
 30
0.0
 11
454.50000799999998
 21
9.0
 31
0.0
  0
LINE
  5
DA4
  8
OUTLINE
  6
CONTINUOUS
 62
     3
 10
-454.50000799999998
 20
9.0
 30
0.0
 11
-449.50000799999992
 21
9.0
 31
0.0
  0
LINE
  5
DA5
  8
OUTLINE
  6
CONTINUOUS
 62
     3
 10
449.50000799999992
 20
0.0
 30
0.0
 11
-449.50000799999992
 21
0.0
 31
0.0
  0
LINE
  5
DA6
  8
OUTLINE
  6
CONTINUOUS
 62
     3
 10
460.00000899999992
 20
1370.0000250000001
 30
0.0
 11
455.20000800000003
 21
1370.0000250000001
 31
0.0
  0
LINE
  5
DA7
  8
OUTLINE
  6
CONTINUOUS
 62
     3
 10
-455.20000800000003
 20
1370.0000250000001
 30
0.0
 11
-460.00000899999992
 21
1370.0000250000001
 31
0.0
  0
LINE
  5
DA8
  8
OUTLINE
  6
CONTINUOUS
 62
     3
 10
326.02841000000001
 20
1640.5000299999999
 30
0.0
 11
320.00000599999998
 21
1640.5000299999999
 31
0.0
  0
LINE
  5
DA9
  8
OUTLINE
  6
CONTINUOUS
 62
     3
 10
320.00000599999998
 20
1641.6000300000001
 30
0.0
 11
300.00000599999998
 21
1641.6000300000001
 31
0.0
  0
LINE
  5
DAA
  8
OUTLINE
  6
CONTINUOUS
 62
     3
 10
300.00000599999998
 20
1642.3000300000001
 30
0.0
 11
280.00000499999999
 21
1642.3000300000001
 31
0.0
  0
LINE
  5
DAB
  8
OUTLINE
  6
CONTINUOUS
 62
     3
 10
280.00000499999999
 20
1643.0000299999999
 30
0.0
 11
260.00000499999999
 21
1643.0000299999999
 31
0.0
  0
LINE
  5
DAC
  8
OUTLINE
  6
CONTINUOUS
 62
     3
 10
260.00000499999999
 20
1643.70003
 30
0.0
 11
240.00000399999999
 21
1643.70003
 31
0.0
  0
LINE
  5
DAD
  8
OUTLINE
  6
CONTINUOUS
 62
     3
 10
240.00000399999999
 20
1644.40003
 30
0.0
 11
220.00000399999999
 21
1644.40003
 31
0.0
  0
LINE
  5
DAE
  8
OUTLINE
  6
CONTINUOUS
 62
     3
 10
220.00000399999999
 20
1645.1000300000001
 30
0.0
 11
200.00000399999999
 21
1645.1000300000001
 31
0.0
  0
LINE
  5
DAF
  8
OUTLINE
  6
CONTINUOUS
 62
     3
 10
200.00000399999999
 20
1645.8000300000001
 30
0.0
 11
180.00000299999991
 21
1645.8000300000001
 31
0.0
  0
LINE
  5
DB0
  8
OUTLINE
  6
CONTINUOUS
 62
     3
 10
180.00000299999991
 20
1646.5000299999999
 30
0.0
 11
160.00000299999999
 21
1646.5000299999999
 31
0.0
  0
LINE
  5
DB1
  8
OUTLINE
  6
CONTINUOUS
 62
     3
 10
160.00000299999999
 20
1647.20003
 30
0.0
 11
140.00000299999999
 21
1647.20003
 31
0.0
  0
LINE
  5
DB2
  8
OUTLINE
  6
CONTINUOUS
 62
     3
 10
140.00000299999999
 20
1647.90003
 30
0.0
 11
120.00000199999999
 21
1647.90003
 31
0.0
  0
LINE
  5
DB3
  8
OUTLINE
  6
CONTINUOUS
 62
     3
 10
120.00000199999999
 20
1648.6000300000001
 30
0.0
 11
100.00000199999999
 21
1648.6000300000001
 31
0.0
  0
LINE
  5
DB4
  8
OUTLINE
  6
CONTINUOUS
 62
     3
 10
100.00000199999999
 20
1649.300031
 30
0.0
 11
80.000000999999983
 21
1649.300031
 31
0.0
  0
LINE
  5
DBA
  8
OUTLINE
  6
CONTINUOUS
 62
     3
 10
-79.99996999999999
 20
1650.000031
 30
0.0
 11
0.0
 21
1650.000031
 31
0.0
  0
LINE
  5
DBC
  8
OUTLINE
  6
CONTINUOUS
 62
     3
 10
-80.000000999999983
 20
1649.300031
 30
0.0
 11
-80.000000999999983
 21
1650.000031
 31
0.0
  0
LINE
  5
DBD
  8
OUTLINE
  6
CONTINUOUS
 62
     3
 10
-100.00000199999999
 20
1649.300031
 30
0.0
 11
-100.00000199999999
 21
1648.6000300000001
 31
0.0
  0
LINE
  5
DBE
  8
OUTLINE
  6
CONTINUOUS
 62
     3
 10
-120.00000199999999
 20
1648.6000300000001
 30
0.0
 11
-120.00000199999999
 21
1647.90003
 31
0.0
  0
LINE
  5
DBF
  8
OUTLINE
  6
CONTINUOUS
 62
     3
 10
-140.00000299999999
 20
1647.90003
 30
0.0
 11
-140.00000299999999
 21
1647.20003
 31
0.0
  0
LINE
  5
DC0
  8
OUTLINE
  6
CONTINUOUS
 62
     3
 10
-160.00000299999999
 20
1647.20003
 30
0.0
 11
-160.00000299999999
 21
1646.5000299999999
 31
0.0
  0
LINE
  5
DC1
  8
OUTLINE
  6
CONTINUOUS
 62
     3
 10
-180.00000299999991
 20
1646.5000299999999
 30
0.0
 11
-180.00000299999991
 21
1645.8000300000001
 31
0.0
  0
LINE
  5
DC2
  8
OUTLINE
  6
CONTINUOUS
 62
     3
 10
-200.00000399999999
 20
1645.8000300000001
 30
0.0
 11
-200.00000399999999
 21
1645.1000300000001
 31
0.0
  0
LINE
  5
DC3
  8
OUTLINE
  6
CONTINUOUS
 62
     3
 10
-220.00000399999999
 20
1645.1000300000001
 30
0.0
 11
-220.00000399999999
 21
1644.40003
 31
0.0
  0
LINE
  5
DC4
  8
OUTLINE
  6
CONTINUOUS
 62
     3
 10
-240.00000399999999
 20
1644.40003
 30
0.0
 11
-240.00000399999999
 21
1643.70003
 31
0.0
  0
LINE
  5
DC5
  8
OUTLINE
  6
CONTINUOUS
 62
     3
 10
-260.00000499999999
 20
1643.70003
 30
0.0
 11
-260.00000499999999
 21
1643.0000299999999
 31
0.0
  0
LINE
  5
DC6
  8
OUTLINE
  6
CONTINUOUS
 62
     3
 10
-280.00000499999999
 20
1643.0000299999999
 30
0.0
 11
-280.00000499999999
 21
1642.3000300000001
 31
0.0
  0
LINE
  5
DC7
  8
OUTLINE
  6
CONTINUOUS
 62
     3
 10
-300.00000599999998
 20
1642.3000300000001
 30
0.0
 11
-300.00000599999998
 21
1641.6000300000001
 31
0.0
  0
LINE
  5
DC8
  8
OUTLINE
  6
CONTINUOUS
 62
     3
 10
-320.00000599999998
 20
1641.6000300000001
 30
0.0
 11
-320.00000599999998
 21
1640.5000299999999
 31
0.0
  0
LINE
  5
DC9
  8
OUTLINE
  6
CONTINUOUS
 62
     3
 10
-393.62547799999999
 20
1410.0812450000001
 30
0.0
 11
-395.831524
 21
1410.0000259999999
 31
0.0
  0
LINE
  5
DCA
  8
OUTLINE
  6
CONTINUOUS
 62
     3
 10
-391.43131199999999
 20
1410.324474
 30
0.0
 11
-393.62547799999999
 21
1410.0812450000001
 31
0.0
  0
LINE
  5
DCB
  8
OUTLINE
  6
CONTINUOUS
 62
     3
 10
-389.26097099999998
 20
1410.728394
 30
0.0
 11
-391.43131199999999
 21
1410.324474
 31
0.0
  0
LINE
  5
DCC
  8
OUTLINE
  6
CONTINUOUS
 62
     3
 10
-387.12620199999998
 20
1411.2908210000001
 30
0.0
 11
-389.26097099999998
 21
1410.728394
 31
0.0
  0
LINE
  5
DCD
  8
OUTLINE
  6
CONTINUOUS
 62
     3
 10
-385.03857099999999
 20
1412.008709
 30
0.0
 11
-387.12620199999998
 21
1411.2908210000001
 31
0.0
  0
LINE
  5
DCE
  8
OUTLINE
  6
CONTINUOUS
 62
     3
 10
-383.00938500000001
 20
1412.8781690000001
 30
0.0
 11
-385.03857099999999
 21
1412.008709
 31
0.0
  0
LINE
  5
DCF
  8
OUTLINE
  6
CONTINUOUS
 62
     3
 10
-381.04963099999998
 20
1413.8944939999999
 30
0.0
 11
-383.00938500000001
 21
1412.8781690000001
 31
0.0
  0
LINE
  5
DD0
  8
OUTLINE
  6
CONTINUOUS
 62
     3
 10
-379.16992199999999
 20
1415.0521799999999
 30
0.0
 11
-381.04963099999998
 21
1413.8944939999999
 31
0.0
  0
LINE
  5
DD1
  8
OUTLINE
  6
CONTINUOUS
 62
     3
 10
-377.38043599999997
 20
1416.3449579999999
 30
0.0
 11
-379.16992199999999
 21
1415.0521799999999
 31
0.0
  0
LINE
  5
DD2
  8
OUTLINE
  6
CONTINUOUS
 62
     3
 10
-375.69086299999998
 20
1417.7658269999999
 30
0.0
 11
-377.38043599999997
 21
1416.3449579999999
 31
0.0
  0
LINE
  5
DD3
  8
OUTLINE
  6
CONTINUOUS
 62
     3
 10
-374.11035199999998
 20
1419.3070909999999
 30
0.0
 11
-375.69086299999998
 21
1417.7658269999999
 31
0.0
  0
LINE
  5
DD4
  8
OUTLINE
  6
CONTINUOUS
 62
     3
 10
-372.64746300000002
 20
1420.960405
 30
0.0
 11
-374.11035199999998
 21
1419.3070909999999
 31
0.0
  0
LINE
  5
DD5
  8
OUTLINE
  6
CONTINUOUS
 62
     3
 10
-371.310115
 20
1422.7168160000001
 30
0.0
 11
-372.64746300000002
 21
1420.960405
 31
0.0
  0
LINE
  5
DD6
  8
OUTLINE
  6
CONTINUOUS
 62
     3
 10
-370.10555099999999
 20
1424.56681
 30
0.0
 11
-371.310115
 21
1422.7168160000001
 31
0.0
  0
LINE
  5
DD7
  8
OUTLINE
  6
CONTINUOUS
 62
     3
 10
-369.04029400000002
 20
1426.500368
 30
0.0
 11
-370.10555099999999
 21
1424.56681
 31
0.0
  0
LINE
  5
DD8
  8
OUTLINE
  6
CONTINUOUS
 62
     3
 10
-368.120113
 20
1428.5070149999999
 30
0.0
 11
-369.04029400000002
 21
1426.500368
 31
0.0
  0
LINE
  5
DD9
  8
OUTLINE
  6
CONTINUOUS
 62
     3
 10
-367.349988
 20
1430.5758820000001
 30
0.0
 11
-368.120113
 21
1428.5070149999999
 31
0.0
  0
LINE
  5
DDA
  8
OUTLINE
  6
CONTINUOUS
 62
     3
 10
-366.73408999999998
 20
1432.695755
 30
0.0
 11
-367.349988
 21
1430.5758820000001
 31
0.0
  0
LINE
  5
DDB
  8
OUTLINE
  6
CONTINUOUS
 62
     3
 10
-366.27575000000002
 20
1434.855147
 30
0.0
 11
-366.73408999999998
 21
1432.695755
 31
0.0
  0
LINE
  5
DDC
  8
OUTLINE
  6
CONTINUOUS
 62
     3
 10
-365.97744399999999
 20
1437.042361
 30
0.0
 11
-366.27575000000002
 21
1434.855147
 31
0.0
  0
LINE
  5
DDD
  8
OUTLINE
  6
CONTINUOUS
 62
     3
 10
-365.85984400000001
 20
1438.6914449999999
 30
0.0
 11
-365.97744399999999
 21
1437.042361
 31
0.0
  0
LINE
  5
DDE
  8
OUTLINE
  6
CONTINUOUS
 62
     3
 10
-365.85984400000001
 20
1438.6914449999999
 30
0.0
 11
-360.99952500000001
 21
1550.0121670000001
 31
0.0
  0
LINE
  5
DE7
  8
OUTLINE
  6
CONTINUOUS
 62
     3
 10
-326.02841000000001
 20
1640.5000299999999
 30
0.0
 11
-320.00000599999998
 21
1640.5000299999999
 31
0.0
  0
LINE
  5
DE8
  8
OUTLINE
  6
CONTINUOUS
 62
     3
 10
-320.00000599999998
 20
1641.6000300000001
 30
0.0
 11
-300.00000599999998
 21
1641.6000300000001
 31
0.0
  0
LINE
  5
DE9
  8
OUTLINE
  6
CONTINUOUS
 62
     3
 10
-300.00000599999998
 20
1642.3000300000001
 30
0.0
 11
-280.00000499999999
 21
1642.3000300000001
 31
0.0
  0
LINE
  5
DEA
  8
OUTLINE
  6
CONTINUOUS
 62
     3
 10
-280.00000499999999
 20
1643.0000299999999
 30
0.0
 11
-260.00000499999999
 21
1643.0000299999999
 31
0.0
  0
LINE
  5
DEB
  8
OUTLINE
  6
CONTINUOUS
 62
     3
 10
-260.00000499999999
 20
1643.70003
 30
0.0
 11
-240.00000399999999
 21
1643.70003
 31
0.0
  0
LINE
  5
DEC
  8
OUTLINE
  6
CONTINUOUS
 62
     3
 10
-240.00000399999999
 20
1644.40003
 30
0.0
 11
-220.00000399999999
 21
1644.40003
 31
0.0
  0
LINE
  5
DED
  8
OUTLINE
  6
CONTINUOUS
 62
     3
 10
-220.00000399999999
 20
1645.1000300000001
 30
0.0
 11
-200.00000399999999
 21
1645.1000300000001
 31
0.0
  0
LINE
  5
DEE
  8
OUTLINE
  6
CONTINUOUS
 62
     3
 10
-200.00000399999999
 20
1645.8000300000001
 30
0.0
 11
-180.00000299999991
 21
1645.8000300000001
 31
0.0
  0
LINE
  5
DEF
  8
OUTLINE
  6
CONTINUOUS
 62
     3
 10
-180.00000299999991
 20
1646.5000299999999
 30
0.0
 11
-160.00000299999999
 21
1646.5000299999999
 31
0.0
  0
LINE
  5
DF0
  8
OUTLINE
  6
CONTINUOUS
 62
     3
 10
-160.00000299999999
 20
1647.20003
 30
0.0
 11
-140.00000299999999
 21
1647.20003
 31
0.0
  0
LINE
  5
DF1
  8
OUTLINE
  6
CONTINUOUS
 62
     3
 10
-140.00000299999999
 20
1647.90003
 30
0.0
 11
-120.00000199999999
 21
1647.90003
 31
0.0
  0
LINE
  5
DF2
  8
OUTLINE
  6
CONTINUOUS
 62
     3
 10
-120.00000199999999
 20
1648.6000300000001
 30
0.0
 11
-100.00000199999999
 21
1648.6000300000001
 31
0.0
  0
LINE
  5
DF3
  8
OUTLINE
  6
CONTINUOUS
 62
     3
 10
-100.00000199999999
 20
1649.300031
 30
0.0
 11
-80.000000999999983
 21
1649.300031
 31
0.0
  0
LINE
  5
DF4
  8
SIZE
  6
CONTINUOUS
 62
    30
 10
380.0
 20
-44.072637
 30
0.0
 11
380.0
 21
-392.90489100000002
 31
0.0
  0
LINE
  5
DF5
  8
SIZE
  6
CONTINUOUS
 62
    30
 10
-380.0
 20
-44.072637
 30
0.0
 11
-380.0
 21
-392.90489100000002
 31
0.0
  0
LINE
  5
DF6
  8
SIZE
  6
CONTINUOUS
 62
    30
 10
370.0
 20
-362.90489100000002
 30
0.0
 11
-370.0
 21
-362.90489100000002
 31
0.0
  0
CIRCLE
  5
DF7
  8
SIZE
  6
CONTINUOUS
 62
    30
 10
380.0
 20
-362.90489100000002
 30
0.0
 40
5.0
  0
LINE
  5
DF8
  8
SIZE
  6
CONTINUOUS
 62
    30
 10
375.0
 20
-362.90489100000002
 30
0.0
 11
370.0
 21
-362.90489100000002
 31
0.0
  0
CIRCLE
  5
DF9
  8
SIZE
  6
CONTINUOUS
 62
    30
 10
-380.0
 20
-362.90489100000002
 30
0.0
 40
5.0
  0
LINE
  5
DFA
  8
SIZE
  6
CONTINUOUS
 62
    30
 10
-375.0
 20
-362.90489100000002
 30
0.0
 11
-370.0
 21
-362.90489100000002
 31
0.0
  0
TEXT
  5
DFB
  8
SIZE
  6
CONTINUOUS
 62
    30
 10
-243.96428571428569
 20
-348.50012900000002
 30
0.0
 40
55.0
  1
760(据付ピッチ)
 41
0.9
 72
     1
 11
0.0
 21
-348.50012900000002
 31
0.0
  0
POINT
  5
DFC
  8
DEFPOINTS
  6
CONTINUOUS
 62
     7
 10
380.0
 20
-24.072637
 30
0.0
  0
POINT
  5
DFD
  8
DEFPOINTS
  6
CONTINUOUS
 62
     7
 10
-380.0
 20
-22.0
 30
0.0
  0
POINT
  5
DFE
  8
DEFPOINTS
  6
CONTINUOUS
 62
     7
 10
-380.0
 20
-362.90489100000002
 30
0.0
  0
LINE
  5
DFF
  8
SIZE
  6
CONTINUOUS
 62
    30
 10
-380.0
 20
-44.072637
 30
0.0
 11
-380.0
 21
-392.90489100000002
 31
0.0
  0
LINE
  5
E00
  8
SIZE
  6
CONTINUOUS
 62
    30
 10
-460.00000899999992
 20
1350.0000250000001
 30
0.0
 11
-460.00000899999992
 21
-392.90489100000002
 31
0.0
  0
LINE
  5
E01
  8
SIZE
  6
CONTINUOUS
 62
    30
 10
-390.0
 20
-362.90489100000002
 30
0.0
 11
-450.00000899999992
 21
-362.90489100000002
 31
0.0
  0
LINE
  5
E02
  8
SIZE
  6
CONTINUOUS
 62
    30
 10
-647.00319200000001
 20
-362.90489100000002
 30
0.0
 11
-460.00000899999992
 21
-362.90489100000002
 31
0.0
  0
TEXT
  5
E03
  8
SIZE
  6
CONTINUOUS
 62
    30
 10
-647.00319214285707
 20
-348.50012900000002
 30
0.0
 40
55.0
  1
(80)
 41
0.9
 72
     1
 11
-575.11033499999996
 21
-348.50012900000002
 31
0.0
  0
CIRCLE
  5
E04
  8
SIZE
  6
CONTINUOUS
 62
    30
 10
-380.0
 20
-362.90489100000002
 30
0.0
 40
5.0
  0
LINE
  5
E05
  8
SIZE
  6
CONTINUOUS
 62
    30
 10
-385.0
 20
-362.90489100000002
 30
0.0
 11
-390.0
 21
-362.90489100000002
 31
0.0
  0
CIRCLE
  5
E06
  8
SIZE
  6
CONTINUOUS
 62
    30
 10
-460.00000899999992
 20
-362.90489100000002
 30
0.0
 40
5.0
  0
LINE
  5
E07
  8
SIZE
  6
CONTINUOUS
 62
    30
 10
-455.00000899999998
 20
-362.90489100000002
 30
0.0
 11
-450.00000899999992
 21
-362.90489100000002
 31
0.0
  0
POINT
  5
E08
  8
DEFPOINTS
  6
CONTINUOUS
 62
     7
 10
-380.0
 20
-22.0
 30
0.0
  0
POINT
  5
E09
  8
DEFPOINTS
  6
CONTINUOUS
 62
     7
 10
-460.00000899999992
 20
1370.0000250000001
 30
0.0
  0
POINT
  5
E0A
  8
DEFPOINTS
  6
CONTINUOUS
 62
     7
 10
-460.00000899999992
 20
-362.90489100000002
 30
0.0
  0
LINE
  5
E0B
  8
NOTE
  6
CONTINUOUS
 62
     4
 10
380.0
 20
0.0
 30
0.0
 11
399.10415599999999
 21
-27.315607
 31
0.0
  0
LINE
  5
E0C
  8
NOTE
  6
CONTINUOUS
 62
     4
 10
380.0
 20
0.0
 30
0.0
 11
410.20248800000002
 21
-14.103930999999999
 31
0.0
  0
LINE
  5
E0D
  8
NOTE
  6
CONTINUOUS
 62
     4
 10
535.49707199999989
 20
-130.62370999999999
 30
0.0
 11
380.0
 21
0.0
 31
0.0
  0
TEXT
  5
E0E
  8
NOTE
  6
CONTINUOUS
 62
     4
 10
562.23484699999995
 20
-117.225599
 30
0.0
 40
55.0
  1
AH  2X2-14X20長穴
 50
0.000003
 41
0.6309520000000001
  7
STANDARD1
  0
LINE
  5
E0F
  8
NOTE
  6
CONTINUOUS
 62
     4
 10
535.49707199999989
 20
-130.62370999999999
 30
0.0
 11
1061.632145
 21
-130.62370999999999
 31
0.0
  0
LINE
  5
E10
  8
SIZE
  6
CONTINUOUS
 62
    30
 10
-460.00000899999992
 20
1430.0000259999999
 30
0.0
 11
-460.00000899999992
 21
2015.66219
 31
0.0
  0
LINE
  5
E11
  8
SIZE
  6
CONTINUOUS
 62
    30
 10
460.00000899999992
 20
1430.0000259999999
 30
0.0
 11
460.00000899999992
 21
2015.66219
 31
0.0
  0
LINE
  5
E12
  8
SIZE
  6
CONTINUOUS
 62
    30
 10
-450.00000899999992
 20
1985.66219
 30
0.0
 11
450.00000899999992
 21
1985.66219
 31
0.0
  0
CIRCLE
  5
E13
  8
SIZE
  6
CONTINUOUS
 62
    30
 10
-460.00000899999992
 20
1985.66219
 30
0.0
 40
5.0
  0
LINE
  5
E14
  8
SIZE
  6
CONTINUOUS
 62
    30
 10
-455.00000899999998
 20
1985.66219
 30
0.0
 11
-450.00000899999992
 21
1985.66219
 31
0.0
  0
CIRCLE
  5
E15
  8
SIZE
  6
CONTINUOUS
 62
    30
 10
460.00000899999992
 20
1985.66219
 30
0.0
 40
5.0
  0
LINE
  5
E16
  8
SIZE
  6
CONTINUOUS
 62
    30
 10
455.00000899999998
 20
1985.66219
 30
0.0
 11
450.00000899999992
 21
1985.66219
 31
0.0
  0
TEXT
  5
E17
  8
SIZE
  6
CONTINUOUS
 62
    30
 10
-67.346658142857123
 20
2000.66219
 30
0.0
 40
55.0
  1
920
 41
0.9
 72
     1
 11
-3.7038009999999999
 21
2000.66219
 31
0.0
  0
POINT
  5
E18
  8
DEFPOINTS
  6
CONTINUOUS
 62
     7
 10
-460.00000899999992
 20
1410.0000259999999
 30
0.0
  0
POINT
  5
E19
  8
DEFPOINTS
  6
CONTINUOUS
 62
     7
 10
460.00000899999992
 20
1410.0000259999999
 30
0.0
  0
POINT
  5
E1A
  8
DEFPOINTS
  6
CONTINUOUS
 62
     7
 10
460.00000899999992
 20
1985.66219
 30
0.0
  0
LINE
  5
E1B
  8
SIZE
  6
CONTINUOUS
 62
    30
 10
-460.00000899999992
 20
1430.0000259999999
 30
0.0
 11
-460.00000899999992
 21
1865.2347589999999
 31
0.0
  0
LINE
  5
E1C
  8
SIZE
  6
CONTINUOUS
 62
    30
 10
-442.00000799999998
 20
1459.000027
 30
0.0
 11
-442.00000799999998
 21
1865.2347589999999
 31
0.0
  0
LINE
  5
E1D
  8
SIZE
  6
CONTINUOUS
 62
    30
 10
-432.00000799999992
 20
1835.2347589999999
 30
0.0
 11
-422.00000799999998
 21
1835.2347589999999
 31
0.0
  0
LINE
  5
E1E
  8
SIZE
  6
CONTINUOUS
 62
    30
 10
-470.00000899999992
 20
1835.2347589999999
 30
0.0
 11
-580.714294
 21
1835.2347589999999
 31
0.0
  0
LINE
  5
E1F
  8
SIZE
  6
CONTINUOUS
 62
    30
 10
-442.00000799999998
 20
1835.2347589999999
 30
0.0
 11
-460.00000899999992
 21
1835.2347589999999
 31
0.0
  0
CIRCLE
  5
E20
  8
SIZE
  6
CONTINUOUS
 62
    30
 10
-442.00000799999998
 20
1835.2347589999999
 30
0.0
 40
5.0
  0
LINE
  5
E21
  8
SIZE
  6
CONTINUOUS
 62
    30
 10
-437.00000799999992
 20
1835.2347589999999
 30
0.0
 11
-432.00000799999992
 21
1835.2347589999999
 31
0.0
  0
CIRCLE
  5
E22
  8
SIZE
  6
CONTINUOUS
 62
    30
 10
-460.00000899999992
 20
1835.2347589999999
 30
0.0
 40
5.0
  0
LINE
  5
E23
  8
SIZE
  6
CONTINUOUS
 62
    30
 10
-465.00000899999992
 20
1835.2347589999999
 30
0.0
 11
-470.00000899999992
 21
1835.2347589999999
 31
0.0
  0
TEXT
  5
E24
  8
SIZE
  6
CONTINUOUS
 62
    30
 10
-565.71429385714282
 20
1850.2347589999999
 30
0.0
 40
55.0
  1
18
 41
0.9
 72
     1
 11
-530.35715099999993
 21
1850.2347589999999
 31
0.0
  0
POINT
  5
E25
  8
DEFPOINTS
  6
CONTINUOUS
 62
     7
 10
-460.00000899999992
 20
1410.0000259999999
 30
0.0
  0
POINT
  5
E26
  8
DEFPOINTS
  6
CONTINUOUS
 62
     7
 10
-442.00000799999998
 20
1439.000027
 30
0.0
  0
POINT
  5
E27
  8
DEFPOINTS
  6
CONTINUOUS
 62
     7
 10
-442.00000799999998
 20
1835.2347589999999
 30
0.0
  0
LINE
  5
E28
  8
SIZE
  6
CONTINUOUS
 62
    30
 10
-442.00000799999998
 20
1459.000027
 30
0.0
 11
-442.00000799999998
 21
1865.2347589999999
 31
0.0
  0
LINE
  5
E29
  8
SIZE
  6
CONTINUOUS
 62
    30
 10
442.00000799999998
 20
1459.000027
 30
0.0
 11
442.00000799999998
 21
1865.2347589999999
 31
0.0
  0
LINE
  5
E2A
  8
SIZE
  6
CONTINUOUS
 62
    30
 10
-432.00000799999992
 20
1835.2347589999999
 30
0.0
 11
432.00000799999992
 21
1835.2347589999999
 31
0.0
  0
CIRCLE
  5
E2B
  8
SIZE
  6
CONTINUOUS
 62
    30
 10
-442.00000799999998
 20
1835.2347589999999
 30
0.0
 40
5.0
  0
LINE
  5
E2C
  8
SIZE
  6
CONTINUOUS
 62
    30
 10
-437.00000799999992
 20
1835.2347589999999
 30
0.0
 11
-432.00000799999992
 21
1835.2347589999999
 31
0.0
  0
CIRCLE
  5
E2D
  8
SIZE
  6
CONTINUOUS
 62
    30
 10
442.00000799999998
 20
1835.2347589999999
 30
0.0
 40
5.0
  0
LINE
  5
E2E
  8
SIZE
  6
CONTINUOUS
 62
    30
 10
437.00000799999992
 20
1835.2347589999999
 30
0.0
 11
432.00000799999992
 21
1835.2347589999999
 31
0.0
  0
TEXT
  5
E2F
  8
SIZE
  6
CONTINUOUS
 62
    30
 10
-95.464285714285694
 20
1849.6395210000001
 30
0.0
 40
55.0
  1
(884)
 41
0.9
 72
     1
 11
0.0
 21
1849.6395210000001
 31
0.0
  0
POINT
  5
E30
  8
DEFPOINTS
  6
CONTINUOUS
 62
     7
 10
-442.00000799999998
 20
1439.000027
 30
0.0
  0
POINT
  5
E31
  8
DEFPOINTS
  6
CONTINUOUS
 62
     7
 10
442.00000799999998
 20
1439.000027
 30
0.0
  0
POINT
  5
E32
  8
DEFPOINTS
  6
CONTINUOUS
 62
     7
 10
442.00000799999998
 20
1835.2347589999999
 30
0.0
  0
LINE
  5
E33
  8
SIZE
  6
CONTINUOUS
 62
    30
 10
442.00000799999998
 20
1459.000027
 30
0.0
 11
442.00000799999998
 21
1865.2347589999999
 31
0.0
  0
LINE
  5
E34
  8
SIZE
  6
CONTINUOUS
 62
    30
 10
460.00000899999992
 20
1430.0000259999999
 30
0.0
 11
460.00000899999992
 21
1865.2347589999999
 31
0.0
  0
LINE
  5
E35
  8
SIZE
  6
CONTINUOUS
 62
    30
 10
432.00000799999992
 20
1835.2347589999999
 30
0.0
 11
422.00000799999998
 21
1835.2347589999999
 31
0.0
  0
LINE
  5
E36
  8
SIZE
  6
CONTINUOUS
 62
    30
 10
470.00000899999992
 20
1835.2347589999999
 30
0.0
 11
480.00000899999998
 21
1835.2347589999999
 31
0.0
  0
LINE
  5
E37
  8
SIZE
  6
CONTINUOUS
 62
    30
 10
582.91525200000001
 20
1835.2347589999999
 30
0.0
 11
460.00000899999992
 21
1835.2347589999999
 31
0.0
  0
TEXT
  5
E38
  8
SIZE
  6
CONTINUOUS
 62
    30
 10
497.20096714285711
 20
1850.2347589999999
 30
0.0
 40
55.0
  1
18
 41
0.9
 72
     1
 11
532.55810999999994
 21
1850.2347589999999
 31
0.0
  0
LINE
  5
E39
  8
SIZE
  6
CONTINUOUS
 62
    30
 10
442.00000799999998
 20
1835.2347589999999
 30
0.0
 11
460.00000899999992
 21
1835.2347589999999
 31
0.0
  0
LINE
  5
E3A
  8
SIZE
  6
CONTINUOUS
 62
    30
 10
442.00000799999998
 20
1835.2347589999999
 30
0.0
 11
460.00000899999992
 21
1835.2347589999999
 31
0.0
  0
CIRCLE
  5
E3B
  8
SIZE
  6
CONTINUOUS
 62
    30
 10
442.00000799999998
 20
1835.2347589999999
 30
0.0
 40
5.0
  0
LINE
  5
E3C
  8
SIZE
  6
CONTINUOUS
 62
    30
 10
437.00000799999992
 20
1835.2347589999999
 30
0.0
 11
432.00000799999992
 21
1835.2347589999999
 31
0.0
  0
CIRCLE
  5
E3D
  8
SIZE
  6
CONTINUOUS
 62
    30
 10
460.00000899999992
 20
1835.2347589999999
 30
0.0
 40
5.0
  0
LINE
  5
E3E
  8
SIZE
  6
CONTINUOUS
 62
    30
 10
465.00000899999992
 20
1835.2347589999999
 30
0.0
 11
470.00000899999992
 21
1835.2347589999999
 31
0.0
  0
POINT
  5
E3F
  8
DEFPOINTS
  6
CONTINUOUS
 62
     7
 10
442.00000799999998
 20
1439.000027
 30
0.0
  0
POINT
  5
E40
  8
DEFPOINTS
  6
CONTINUOUS
 62
     7
 10
460.00000899999992
 20
1410.0000259999999
 30
0.0
  0
POINT
  5
E41
  8
DEFPOINTS
  6
CONTINUOUS
 62
     7
 10
460.00000899999992
 20
1835.2347589999999
 30
0.0
  0
LINE
  5
E42
  8
NOTE
  6
CONTINUOUS
 62
     4
 10
-442.00000799999998
 20
1439.000027
 30
0.0
 11
-442.00000799999998
 21
1381.0000259999999
 31
0.0
  0
LINE
  5
E43
  8
NOTE
  6
CONTINUOUS
 62
     4
 10
-413.00000799999998
 20
1410.0000259999999
 30
0.0
 11
-471.00000899999998
 21
1410.0000259999999
 31
0.0
  0
LINE
  5
E44
  8
NOTE
  6
CONTINUOUS
 62
     4
 10
442.00000799999998
 20
1439.000027
 30
0.0
 11
442.00000799999998
 21
1381.0000259999999
 31
0.0
  0
LINE
  5
E45
  8
NOTE
  6
CONTINUOUS
 62
     4
 10
471.00000899999998
 20
1410.0000259999999
 30
0.0
 11
413.00000799999998
 21
1410.0000259999999
 31
0.0
  0
LINE
  5
E46
  8
NOTE
  6
CONTINUOUS
 62
     4
 10
-442.00000799999998
 20
1410.0000259999999
 30
0.0
 11
-471.51886699999989
 21
1425.483829
 31
0.0
  0
LINE
  5
E47
  8
NOTE
  6
CONTINUOUS
 62
     4
 10
-442.00000799999998
 20
1410.0000259999999
 30
0.0
 11
-459.82218799999993
 21
1438.1688220000001
 31
0.0
  0
LINE
  5
E48
  8
NOTE
  6
CONTINUOUS
 62
     4
 10
-571.72098099999994
 20
1529.6141660000001
 30
0.0
 11
-442.00000799999998
 21
1410.0000259999999
 31
0.0
  0
TEXT
  5
E49
  8
NOTE
  6
CONTINUOUS
 62
     4
 10
-1180.2729629999999
 20
1459.431276
 30
0.0
 40
55.0
  1
＜防雪ﾌ-ﾄﾞ（別売品）取付用穴＞
 50
0.000003
 41
0.638665
  7
STANDARD1
  0
TEXT
  5
E4A
  8
NOTE
  6
CONTINUOUS
 62
     4
 10
-1150.130766
 20
1540.118561
 30
0.0
 40
55.0
  1
(樹脂部の開口加工必要）
 50
0.000003
 41
0.693662
  7
STANDARD1
  0
TEXT
  5
E4B
  8
NOTE
  6
CONTINUOUS
 62
     4
 10
-1150.130766
 20
1610.1185620000001
 30
0.0
 40
55.0
  1
2X5-φ4.6穴
 50
0.000003
 41
0.603058
  7
STANDARD1
  0
LINE
  5
E4C
  8
NOTE
  6
CONTINUOUS
 62
     4
 10
-1203.0174850000001
 20
1529.6141660000001
 30
0.0
 11
-571.72098099999994
 21
1529.6141660000001
 31
0.0
  0
TEXT
  5
E4D
  8
NOTE
  6
CONTINUOUS
 62
     4
 10
-84.922550999999984
 20
1745.661143
 30
0.0
 40
55.0
  1
空気吹出
 50
0.000003
 41
0.703125
  7
STANDARD1
  0
LINE
  5
E4E
  8
NOTE
  6
CONTINUOUS
 62
     4
 10
-230.75718900000001
 20
1785.8494639999999
 30
0.0
 11
-180.75718800000001
 21
1735.9534169999999
 31
0.0
  0
LINE
  5
E4F
  8
NOTE
  6
CONTINUOUS
 62
     4
 10
-280.75718999999998
 20
1735.9534169999999
 30
0.0
 11
-230.75718900000001
 21
1785.8494639999999
 31
0.0
  0
LINE
  5
E50
  8
NOTE
  6
CONTINUOUS
 62
     4
 10
-280.75718999999998
 20
1735.9534169999999
 30
0.0
 11
-255.75718900000001
 21
1735.9534169999999
 31
0.0
  0
LINE
  5
E51
  8
NOTE
  6
CONTINUOUS
 62
     4
 10
-205.75718800000001
 20
1735.9534169999999
 30
0.0
 11
-180.75718800000001
 21
1735.9534169999999
 31
0.0
  0
LINE
  5
E52
  8
NOTE
  6
CONTINUOUS
 62
     4
 10
-205.75718800000001
 20
1735.9534169999999
 30
0.0
 11
-205.75718800000001
 21
1695.267329
 31
0.0
  0
LINE
  5
E53
  8
NOTE
  6
CONTINUOUS
 62
     4
 10
-255.75718900000001
 20
1735.9534169999999
 30
0.0
 11
-255.75718900000001
 21
1695.267329
 31
0.0
  0
LINE
  5
E54
  8
NOTE
  6
CONTINUOUS
 62
     4
 10
-205.75718800000001
 20
1695.267329
 30
0.0
 11
-255.75718900000001
 21
1695.267329
 31
0.0
  0
LINE
  5
E55
  8
NOTE
  6
CONTINUOUS
 62
     4
 10
200.89460800000001
 20
1695.267329
 30
0.0
 11
250.894609
 21
1695.267329
 31
0.0
  0
LINE
  5
E56
  8
NOTE
  6
CONTINUOUS
 62
     4
 10
250.894609
 20
1735.9534169999999
 30
0.0
 11
250.894609
 21
1695.267329
 31
0.0
  0
LINE
  5
E57
  8
NOTE
  6
CONTINUOUS
 62
     4
 10
200.89460800000001
 20
1735.9534169999999
 30
0.0
 11
200.89460800000001
 21
1695.267329
 31
0.0
  0
LINE
  5
E58
  8
NOTE
  6
CONTINUOUS
 62
     4
 10
200.89460800000001
 20
1735.9534169999999
 30
0.0
 11
175.89460800000001
 21
1735.9534169999999
 31
0.0
  0
LINE
  5
E59
  8
NOTE
  6
CONTINUOUS
 62
     4
 10
275.89461
 20
1735.9534169999999
 30
0.0
 11
250.894609
 21
1735.9534169999999
 31
0.0
  0
LINE
  5
E5A
  8
NOTE
  6
CONTINUOUS
 62
     4
 10
275.89461
 20
1735.9534169999999
 30
0.0
 11
225.894609
 21
1785.8494639999999
 31
0.0
  0
LINE
  5
E5B
  8
NOTE
  6
CONTINUOUS
 62
     4
 10
225.894609
 20
1785.8494639999999
 30
0.0
 11
175.89460800000001
 21
1735.9534169999999
 31
0.0
  0
LINE
  5
E5C
  8
DETAIL
  6
CONTINUOUS
 62
     5
 10
408.414221
 20
54.000006000000013
 30
0.0
 11
408.414221
 21
1370.0000250000001
 31
0.0
  0
LINE
  5
E5D
  8
DETAIL
  6
CONTINUOUS
 62
     5
 10
-408.414221
 20
54.000103000000003
 30
0.0
 11
-408.414221
 21
1370.0000250000001
 31
0.0
  0
LINE
  5
E5E
  8
DETAIL
  6
CONTINUOUS
 62
     5
 10
371.91716400000001
 20
1290.0000239999999
 30
0.0
 11
371.91716400000001
 21
84.000001999999995
 31
0.0
  0
LINE
  5
E5F
  8
DETAIL
  6
CONTINUOUS
 62
     5
 10
386.71716400000003
 20
84.000001999999995
 30
0.0
 11
386.71716400000003
 21
1290.0000239999999
 31
0.0
  0
LINE
  5
E60
  8
DETAIL
  6
CONTINUOUS
 62
     5
 10
387.91716400000001
 20
54.000007999999987
 30
0.0
 11
387.91716400000001
 21
84.000001999999995
 31
0.0
  0
LINE
  5
E61
  8
DETAIL
  6
CONTINUOUS
 62
     5
 10
0.0
 20
84.000001999999995
 30
0.0
 11
387.91716400000001
 21
84.000001999999995
 31
0.0
  0
LINE
  5
E62
  8
DETAIL
  6
CONTINUOUS
 62
     5
 10
387.91716400000001
 20
1290.0000239999999
 30
0.0
 11
0.0
 21
1290.0000239999999
 31
0.0
  0
LINE
  5
E63
  8
DETAIL
  6
CONTINUOUS
 62
     5
 10
387.91716400000001
 20
1370.0000250000001
 30
0.0
 11
387.91716400000001
 21
1290.0000239999999
 31
0.0
  0
LINE
  5
E64
  8
DETAIL
  6
CONTINUOUS
 62
     5
 10
-371.91716400000001
 20
1290.0000239999999
 30
0.0
 11
-371.91716400000001
 21
84.000001999999995
 31
0.0
  0
LINE
  5
E65
  8
DETAIL
  6
CONTINUOUS
 62
     5
 10
-386.71716400000003
 20
84.000001999999995
 30
0.0
 11
-386.71716400000003
 21
1290.0000239999999
 31
0.0
  0
LINE
  5
E66
  8
DETAIL
  6
CONTINUOUS
 62
     5
 10
-387.91716400000001
 20
54.000007999999987
 30
0.0
 11
-387.91716400000001
 21
84.000001999999995
 31
0.0
  0
LINE
  5
E67
  8
DETAIL
  6
CONTINUOUS
 62
     5
 10
0.0
 20
84.000001999999995
 30
0.0
 11
-387.91716400000001
 21
84.000001999999995
 31
0.0
  0
LINE
  5
E68
  8
DETAIL
  6
CONTINUOUS
 62
     5
 10
-387.91716400000001
 20
1290.0000239999999
 30
0.0
 11
0.0
 21
1290.0000239999999
 31
0.0
  0
LINE
  5
E69
  8
DETAIL
  6
CONTINUOUS
 62
     5
 10
-387.91716400000001
 20
1370.0000250000001
 30
0.0
 11
-387.91716400000001
 21
1290.0000239999999
 31
0.0
  0
TEXT
  5
E6A
  8
NOTE
  6
CONTINUOUS
 62
     4
 10
494.64622199999991
 20
520.03261199999986
 30
0.0
 40
55.0
  1
RL %%C19.05
 50
0.000003
 41
0.6309520000000001
  7
STANDARD1
  0
LINE
  5
E6B
  8
NOTE
  6
CONTINUOUS
 62
     4
 10
792.19503399999985
 20
509.68780700000002
 30
0.0
 11
490.75001299999991
 21
509.68780700000002
 31
0.0
  0
LINE
  5
E6C
  8
NOTE
  6
CONTINUOUS
 62
     4
 10
208.99994699999999
 20
280.75002799999999
 30
0.0
 11
208.99994699999999
 21
241.25002699999999
 31
0.0
  0
LINE
  5
E6D
  8
NOTE
  6
CONTINUOUS
 62
     4
 10
189.24994699999999
 20
261.00002699999999
 30
0.0
 11
228.74994699999999
 21
261.00002699999999
 31
0.0
  0
LINE
  5
E6E
  8
NOTE
  6
CONTINUOUS
 62
     4
 10
126.000012
 20
282.74999000000003
 30
0.0
 11
126.000012
 21
243.24999
 31
0.0
  0
LINE
  5
E6F
  8
NOTE
  6
CONTINUOUS
 62
     4
 10
106.250011
 20
262.99999000000003
 30
0.0
 11
145.750012
 21
262.99999000000003
 31
0.0
  0
TEXT
  5
E70
  8
NOTE
  6
CONTINUOUS
 62
     4
 10
492.2440509999999
 20
759.72142800000006
 30
0.0
 40
55.0
  1
RG %%C22.2
 50
0.000003
 41
0.6309520000000001
  7
STANDARD1
  0
LINE
  5
E71
  8
NOTE
  6
CONTINUOUS
 62
     4
 10
790.04986600000007
 20
749.376623
 30
0.0
 11
478.85337500000003
 21
749.376623
 31
0.0
  0
LINE
  5
E72
  8
NOTE
  6
CONTINUOUS
 62
     4
 10
125.999967
 20
262.99998299999999
 30
0.0
 11
137.923779
 21
294.12768499999999
 31
0.0
  0
LINE
  5
E73
  8
NOTE
  6
CONTINUOUS
 62
     4
 10
125.999967
 20
262.99998299999999
 30
0.0
 11
151.89014299999999
 21
283.99545699999999
 31
0.0
  0
LINE
  5
E74
  8
NOTE
  6
CONTINUOUS
 62
     4
 10
478.85337500000003
 20
749.376623
 30
0.0
 11
125.999967
 21
262.99998299999999
 31
0.0
  0
LINE
  5
E75
  8
NOTE
  6
CONTINUOUS
 62
     4
 10
208.99996300000001
 20
261.00000699999998
 30
0.0
 11
227.43017800000001
 21
288.77478500000001
 31
0.0
  0
LINE
  5
E76
  8
NOTE
  6
CONTINUOUS
 62
     4
 10
208.99996300000001
 20
261.00000699999998
 30
0.0
 11
238.848387
 21
275.83856200000002
 31
0.0
  0
LINE
  5
E77
  8
NOTE
  6
CONTINUOUS
 62
     4
 10
490.75001299999991
 20
509.68780700000002
 30
0.0
 11
208.99996300000001
 21
261.00000699999998
 31
0.0
  0
LINE
  5
E78
  8
SIZE
  6
CONTINUOUS
 62
    30
 10
460.00000899999992
 20
1350.0000250000001
 30
0.0
 11
460.00000899999992
 21
-221.679925
 31
0.0
  0
LINE
  5
E79
  8
SIZE
  6
CONTINUOUS
 62
    30
 10
208.99994699999999
 20
221.25002699999999
 30
0.0
 11
209.00000399999999
 21
-221.679925
 31
0.0
  0
LINE
  5
E7A
  8
SIZE
  6
CONTINUOUS
 62
    30
 10
450.00000899999992
 20
-191.679925
 30
0.0
 11
219.00000399999999
 21
-191.679925
 31
0.0
  0
CIRCLE
  5
E7B
  8
SIZE
  6
CONTINUOUS
 62
    30
 10
460.00000899999992
 20
-191.679925
 30
0.0
 40
5.0
  0
LINE
  5
E7C
  8
SIZE
  6
CONTINUOUS
 62
    30
 10
455.00000899999998
 20
-191.679925
 30
0.0
 11
450.00000899999992
 21
-191.679925
 31
0.0
  0
CIRCLE
  5
E7D
  8
SIZE
  6
CONTINUOUS
 62
    30
 10
209.00000399999999
 20
-191.679925
 30
0.0
 40
5.0
  0
LINE
  5
E7E
  8
SIZE
  6
CONTINUOUS
 62
    30
 10
214.00000399999999
 20
-191.679925
 30
0.0
 11
219.00000399999999
 21
-191.679925
 31
0.0
  0
TEXT
  5
E7F
  8
SIZE
  6
CONTINUOUS
 62
    30
 10
239.97929271428569
 20
-176.679925
 30
0.0
 40
55.0
  1
251
 41
0.9
 72
     1
 11
293.01500700000003
 21
-176.679925
 31
0.0
  0
POINT
  5
E81
  8
DEFPOINTS
  6
CONTINUOUS
 62
     7
 10
208.99994699999999
 20
221.25002699999999
 30
0.0
  0
POINT
  5
E82
  8
DEFPOINTS
  6
CONTINUOUS
 62
     7
 10
209.00000399999999
 20
-191.679925
 30
0.0
  0
LINE
  5
E83
  8
SIZE
  6
CONTINUOUS
 62
    30
 10
469.50000799999992
 20
0.0
 30
0.0
 11
599.60848199999998
 21
0.0
 31
0.0
  0
LINE
  5
E84
  8
SIZE
  6
CONTINUOUS
 62
    30
 10
475.20000800000003
 20
54.0
 30
0.0
 11
599.60848199999998
 21
54.0
 31
0.0
  0
LINE
  5
E85
  8
SIZE
  6
CONTINUOUS
 62
    30
 10
569.60848199999998
 20
10.0
 30
0.0
 11
569.60848199999998
 21
44.0
 31
0.0
  0
LINE
  5
E86
  8
SIZE
  6
CONTINUOUS
 62
    30
 10
569.60848199999998
 20
54.0
 30
0.0
 11
569.60848199999998
 21
176.5
 31
0.0
  0
CIRCLE
  5
E87
  8
SIZE
  6
CONTINUOUS
 62
    30
 10
569.60848199999998
 20
0.0
 30
0.0
 40
5.0
  0
LINE
  5
E88
  8
SIZE
  6
CONTINUOUS
 62
    30
 10
569.60848199999998
 20
5.0
 30
0.0
 11
569.60848199999998
 21
10.0
 31
0.0
  0
CIRCLE
  5
E89
  8
SIZE
  6
CONTINUOUS
 62
    30
 10
569.60848199999998
 20
54.0
 30
0.0
 40
5.0
  0
LINE
  5
E8A
  8
SIZE
  6
CONTINUOUS
 62
    30
 10
569.60848199999998
 20
49.0
 30
0.0
 11
569.60848199999998
 21
44.0
 31
0.0
  0
TEXT
  5
E8B
  8
SIZE
  6
CONTINUOUS
 62
    30
 10
554.60848199999987
 20
79.0
 30
0.0
 40
55.0
  1
54
 50
90.0
 41
0.9
 72
     1
 11
554.60848199999987
 21
120.25
 31
0.0
  0
POINT
  5
E8C
  8
DEFPOINTS
  6
CONTINUOUS
 62
     7
 10
449.50000799999992
 20
0.0
 30
0.0
  0
POINT
  5
E8D
  8
DEFPOINTS
  6
CONTINUOUS
 62
     7
 10
455.20000800000003
 20
54.0
 30
0.0
  0
POINT
  5
E8E
  8
DEFPOINTS
  6
CONTINUOUS
 62
     7
 10
569.60848199999998
 20
54.0
 30
0.0
  0
LINE
  5
E8F
  8
SIZE
  6
CONTINUOUS
 62
    30
 10
380.0
 20
-44.532131
 30
0.0
 11
380.0
 21
-392.90489100000002
 31
0.0
  0
LINE
  5
E90
  8
SIZE
  6
CONTINUOUS
 62
    30
 10
460.00000899999992
 20
1349.540532
 30
0.0
 11
460.00000899999992
 21
-392.90489100000002
 31
0.0
  0
LINE
  5
E91
  8
SIZE
  6
CONTINUOUS
 62
    30
 10
390.0
 20
-362.90489100000002
 30
0.0
 11
450.00000899999992
 21
-362.90489100000002
 31
0.0
  0
LINE
  5
E92
  8
SIZE
  6
CONTINUOUS
 62
    30
 10
460.00000899999992
 20
-362.90489100000002
 30
0.0
 11
580.14286600000003
 21
-362.90489100000002
 31
0.0
  0
CIRCLE
  5
E93
  8
SIZE
  6
CONTINUOUS
 62
    30
 10
380.0
 20
-362.90489100000002
 30
0.0
 40
5.0
  0
LINE
  5
E94
  8
SIZE
  6
CONTINUOUS
 62
    30
 10
385.0
 20
-362.90489100000002
 30
0.0
 11
390.0
 21
-362.90489100000002
 31
0.0
  0
CIRCLE
  5
E95
  8
SIZE
  6
CONTINUOUS
 62
    30
 10
460.00000899999992
 20
-362.90489100000002
 30
0.0
 40
5.0
  0
LINE
  5
E96
  8
SIZE
  6
CONTINUOUS
 62
    30
 10
455.00000899999998
 20
-362.90489100000002
 30
0.0
 11
450.00000899999992
 21
-362.90489100000002
 31
0.0
  0
TEXT
  5
E97
  8
SIZE
  6
CONTINUOUS
 62
    30
 10
485.00000842857139
 20
-347.90489100000002
 30
0.0
 40
55.0
  1
80
 41
0.9
 72
     1
 11
525.07143699999995
 21
-347.90489100000002
 31
0.0
  0
POINT
  5
E98
  8
DEFPOINTS
  6
CONTINUOUS
 62
     7
 10
380.0
 20
-24.532131
 30
0.0
  0
POINT
  5
E9A
  8
DEFPOINTS
  6
CONTINUOUS
 62
     7
 10
460.00000899999992
 20
-362.90489100000002
 30
0.0
  0
LINE
  5
E9B
  8
DETAIL
  6
CONTINUOUS
 62
     5
 10
130.25
 20
94.000026000000005
 30
0.0
 11
130.25
 21
1280.0000259999999
 31
0.0
  0
LINE
  5
E9C
  8
DETAIL
  6
CONTINUOUS
 62
     5
 10
133.75
 20
94.000026000000005
 30
0.0
 11
133.75
 21
1280.0000259999999
 31
0.0
  0
LINE
  5
E9D
  8
DETAIL
  6
CONTINUOUS
 62
     5
 10
-1.75
 20
94.000026000000005
 30
0.0
 11
-1.75
 21
1280.0000259999999
 31
0.0
  0
LINE
  5
E9E
  8
DETAIL
  6
CONTINUOUS
 62
     5
 10
1.75
 20
94.000026000000005
 30
0.0
 11
1.75
 21
1280.0000259999999
 31
0.0
  0
LINE
  5
E9F
  8
DETAIL
  6
CONTINUOUS
 62
     5
 10
262.25
 20
398.75002599999999
 30
0.0
 11
133.75
 21
398.75002599999999
 31
0.0
  0
LINE
  5
EA0
  8
DETAIL
  6
CONTINUOUS
 62
     5
 10
262.25
 20
395.25002599999999
 30
0.0
 11
133.75
 21
395.25002599999999
 31
0.0
  0
LINE
  5
EA1
  8
DETAIL
  6
CONTINUOUS
 62
     5
 10
262.25
 20
253.75002599999999
 30
0.0
 11
133.75
 21
253.75002599999999
 31
0.0
  0
LINE
  5
EA2
  8
DETAIL
  6
CONTINUOUS
 62
     5
 10
262.25
 20
250.25002599999999
 30
0.0
 11
133.75
 21
250.25002599999999
 31
0.0
  0
LINE
  5
EA3
  8
DETAIL
  6
CONTINUOUS
 62
     5
 10
133.75
 20
106.00002600000001
 30
0.0
 11
262.25
 21
106.00002600000001
 31
0.0
  0
LINE
  5
EA4
  8
DETAIL
  6
CONTINUOUS
 62
     5
 10
133.75
 20
102.50002600000001
 30
0.0
 11
262.25
 21
102.50002600000001
 31
0.0
  0
LINE
  5
EA5
  8
DETAIL
  6
CONTINUOUS
 62
     5
 10
130.25
 20
253.75002599999999
 30
0.0
 11
1.75
 21
253.75002599999999
 31
0.0
  0
LINE
  5
EA6
  8
DETAIL
  6
CONTINUOUS
 62
     5
 10
130.25
 20
250.25002599999999
 30
0.0
 11
1.75
 21
250.25002599999999
 31
0.0
  0
LINE
  5
EA7
  8
DETAIL
  6
CONTINUOUS
 62
     5
 10
1.75
 20
106.00002600000001
 30
0.0
 11
130.25
 21
106.00002600000001
 31
0.0
  0
LINE
  5
EA8
  8
DETAIL
  6
CONTINUOUS
 62
     5
 10
1.75
 20
102.50002600000001
 30
0.0
 11
130.25
 21
102.50002600000001
 31
0.0
  0
LINE
  5
EA9
  8
DETAIL
  6
CONTINUOUS
 62
     5
 10
133.75
 20
94.000026000000005
 30
0.0
 11
130.25
 21
94.000026000000005
 31
0.0
  0
LINE
  5
EAA
  8
DETAIL
  6
CONTINUOUS
 62
     5
 10
1.75
 20
94.000026000000005
 30
0.0
 11
-1.75
 21
94.000026000000005
 31
0.0
  0
LINE
  5
EAB
  8
DETAIL
  6
CONTINUOUS
 62
     5
 10
130.25
 20
398.75002599999999
 30
0.0
 11
1.75
 21
398.75002599999999
 31
0.0
  0
LINE
  5
EAC
  8
DETAIL
  6
CONTINUOUS
 62
     5
 10
130.25
 20
395.25002599999999
 30
0.0
 11
1.75
 21
395.25002599999999
 31
0.0
  0
LINE
  5
EAD
  8
DETAIL
  6
CONTINUOUS
 62
     5
 10
262.25
 20
833.75002599999982
 30
0.0
 11
133.75
 21
833.75002599999982
 31
0.0
  0
LINE
  5
EAE
  8
DETAIL
  6
CONTINUOUS
 62
     5
 10
262.25
 20
830.25002599999982
 30
0.0
 11
133.75
 21
830.25002599999982
 31
0.0
  0
LINE
  5
EAF
  8
DETAIL
  6
CONTINUOUS
 62
     5
 10
133.75
 20
688.00002599999993
 30
0.0
 11
262.25
 21
688.00002599999993
 31
0.0
  0
LINE
  5
EB0
  8
DETAIL
  6
CONTINUOUS
 62
     5
 10
133.75
 20
684.50002599999993
 30
0.0
 11
262.25
 21
684.50002599999993
 31
0.0
  0
LINE
  5
EB1
  8
DETAIL
  6
CONTINUOUS
 62
     5
 10
262.25
 20
543.75002599999993
 30
0.0
 11
133.75
 21
543.75002599999993
 31
0.0
  0
LINE
  5
EB2
  8
DETAIL
  6
CONTINUOUS
 62
     5
 10
262.25
 20
540.25002599999993
 30
0.0
 11
133.75
 21
540.25002599999993
 31
0.0
  0
LINE
  5
EB3
  8
DETAIL
  6
CONTINUOUS
 62
     5
 10
130.25
 20
543.75002599999993
 30
0.0
 11
1.75
 21
543.75002599999993
 31
0.0
  0
LINE
  5
EB4
  8
DETAIL
  6
CONTINUOUS
 62
     5
 10
130.25
 20
540.25002599999993
 30
0.0
 11
1.75
 21
540.25002599999993
 31
0.0
  0
LINE
  5
EB5
  8
DETAIL
  6
CONTINUOUS
 62
     5
 10
130.25
 20
833.75002599999982
 30
0.0
 11
1.75
 21
833.75002599999982
 31
0.0
  0
LINE
  5
EB6
  8
DETAIL
  6
CONTINUOUS
 62
     5
 10
130.25
 20
830.25002599999982
 30
0.0
 11
1.75
 21
830.25002599999982
 31
0.0
  0
LINE
  5
EB7
  8
DETAIL
  6
CONTINUOUS
 62
     5
 10
1.75
 20
688.00002599999993
 30
0.0
 11
130.25
 21
688.00002599999993
 31
0.0
  0
LINE
  5
EB8
  8
DETAIL
  6
CONTINUOUS
 62
     5
 10
1.75
 20
684.50002599999993
 30
0.0
 11
130.25
 21
684.50002599999993
 31
0.0
  0
LINE
  5
EB9
  8
DETAIL
  6
CONTINUOUS
 62
     5
 10
262.25
 20
1123.7500259999999
 30
0.0
 11
133.75
 21
1123.7500259999999
 31
0.0
  0
LINE
  5
EBA
  8
DETAIL
  6
CONTINUOUS
 62
     5
 10
262.25
 20
1120.2500259999999
 30
0.0
 11
133.75
 21
1120.2500259999999
 31
0.0
  0
LINE
  5
EBB
  8
DETAIL
  6
CONTINUOUS
 62
     5
 10
262.25
 20
978.75002599999993
 30
0.0
 11
133.75
 21
978.75002599999993
 31
0.0
  0
LINE
  5
EBC
  8
DETAIL
  6
CONTINUOUS
 62
     5
 10
262.25
 20
975.25002599999993
 30
0.0
 11
133.75
 21
975.25002599999993
 31
0.0
  0
LINE
  5
EBD
  8
DETAIL
  6
CONTINUOUS
 62
     5
 10
130.25
 20
978.75002599999993
 30
0.0
 11
1.75
 21
978.75002599999993
 31
0.0
  0
LINE
  5
EBE
  8
DETAIL
  6
CONTINUOUS
 62
     5
 10
130.25
 20
975.25002599999993
 30
0.0
 11
1.75
 21
975.25002599999993
 31
0.0
  0
LINE
  5
EBF
  8
DETAIL
  6
CONTINUOUS
 62
     5
 10
130.25
 20
1123.7500259999999
 30
0.0
 11
1.75
 21
1123.7500259999999
 31
0.0
  0
LINE
  5
EC0
  8
DETAIL
  6
CONTINUOUS
 62
     5
 10
130.25
 20
1120.2500259999999
 30
0.0
 11
1.75
 21
1120.2500259999999
 31
0.0
  0
LINE
  5
EC1
  8
DETAIL
  6
CONTINUOUS
 62
     5
 10
133.75
 20
1270.0000259999999
 30
0.0
 11
262.25
 21
1270.0000259999999
 31
0.0
  0
LINE
  5
EC2
  8
DETAIL
  6
CONTINUOUS
 62
     5
 10
133.75
 20
1266.5000259999999
 30
0.0
 11
262.25
 21
1266.5000259999999
 31
0.0
  0
LINE
  5
EC3
  8
DETAIL
  6
CONTINUOUS
 62
     5
 10
1.75
 20
1270.0000259999999
 30
0.0
 11
130.25
 21
1270.0000259999999
 31
0.0
  0
LINE
  5
EC4
  8
DETAIL
  6
CONTINUOUS
 62
     5
 10
1.75
 20
1266.5000259999999
 30
0.0
 11
130.25
 21
1266.5000259999999
 31
0.0
  0
LINE
  5
EC5
  8
DETAIL
  6
CONTINUOUS
 62
     5
 10
262.25
 20
94.000026000000005
 30
0.0
 11
262.25
 21
1280.0000259999999
 31
0.0
  0
LINE
  5
EC6
  8
DETAIL
  6
CONTINUOUS
 62
     5
 10
265.75
 20
94.000026000000005
 30
0.0
 11
265.75
 21
1280.0000259999999
 31
0.0
  0
LINE
  5
EC7
  8
DETAIL
  6
CONTINUOUS
 62
     5
 10
386.71716400000003
 20
398.75002599999999
 30
0.0
 11
265.75
 21
398.75002599999999
 31
0.0
  0
LINE
  5
EC8
  8
DETAIL
  6
CONTINUOUS
 62
     5
 10
386.71716400000003
 20
395.25002599999999
 30
0.0
 11
265.75
 21
395.25002599999999
 31
0.0
  0
LINE
  5
EC9
  8
DETAIL
  6
CONTINUOUS
 62
     5
 10
386.71716400000003
 20
253.75002599999999
 30
0.0
 11
265.75
 21
253.75002599999999
 31
0.0
  0
LINE
  5
ECA
  8
DETAIL
  6
CONTINUOUS
 62
     5
 10
386.71716400000003
 20
250.25002599999999
 30
0.0
 11
265.75
 21
250.25002599999999
 31
0.0
  0
LINE
  5
ECB
  8
DETAIL
  6
CONTINUOUS
 62
     5
 10
265.75
 20
106.00002600000001
 30
0.0
 11
386.71716400000003
 21
106.00002600000001
 31
0.0
  0
LINE
  5
ECC
  8
DETAIL
  6
CONTINUOUS
 62
     5
 10
265.75
 20
102.50002600000001
 30
0.0
 11
386.71716400000003
 21
102.50002600000001
 31
0.0
  0
LINE
  5
ECD
  8
DETAIL
  6
CONTINUOUS
 62
     5
 10
265.75
 20
94.000026000000005
 30
0.0
 11
262.25
 21
94.000026000000005
 31
0.0
  0
LINE
  5
ECE
  8
DETAIL
  6
CONTINUOUS
 62
     5
 10
386.71716400000003
 20
833.75002599999982
 30
0.0
 11
265.75
 21
833.75002599999982
 31
0.0
  0
LINE
  5
ECF
  8
DETAIL
  6
CONTINUOUS
 62
     5
 10
386.71716400000003
 20
830.25002599999982
 30
0.0
 11
265.75
 21
830.25002599999982
 31
0.0
  0
LINE
  5
ED0
  8
DETAIL
  6
CONTINUOUS
 62
     5
 10
265.75
 20
688.00002599999993
 30
0.0
 11
386.71716400000003
 21
688.00002599999993
 31
0.0
  0
LINE
  5
ED1
  8
DETAIL
  6
CONTINUOUS
 62
     5
 10
265.75
 20
684.50002599999993
 30
0.0
 11
386.71716400000003
 21
684.50002599999993
 31
0.0
  0
LINE
  5
ED2
  8
DETAIL
  6
CONTINUOUS
 62
     5
 10
386.71716400000003
 20
543.75002599999993
 30
0.0
 11
265.75
 21
543.75002599999993
 31
0.0
  0
LINE
  5
ED3
  8
DETAIL
  6
CONTINUOUS
 62
     5
 10
386.71716400000003
 20
540.25002599999993
 30
0.0
 11
265.75
 21
540.25002599999993
 31
0.0
  0
LINE
  5
ED4
  8
DETAIL
  6
CONTINUOUS
 62
     5
 10
386.71716400000003
 20
1123.7500259999999
 30
0.0
 11
265.75
 21
1123.7500259999999
 31
0.0
  0
LINE
  5
ED5
  8
DETAIL
  6
CONTINUOUS
 62
     5
 10
386.71716400000003
 20
1120.2500259999999
 30
0.0
 11
265.75
 21
1120.2500259999999
 31
0.0
  0
LINE
  5
ED6
  8
DETAIL
  6
CONTINUOUS
 62
     5
 10
386.71716400000003
 20
978.75002599999993
 30
0.0
 11
265.75
 21
978.75002599999993
 31
0.0
  0
LINE
  5
ED7
  8
DETAIL
  6
CONTINUOUS
 62
     5
 10
386.71716400000003
 20
975.25002599999993
 30
0.0
 11
265.75
 21
975.25002599999993
 31
0.0
  0
LINE
  5
ED8
  8
DETAIL
  6
CONTINUOUS
 62
     5
 10
265.75
 20
1270.0000259999999
 30
0.0
 11
386.71716400000003
 21
1270.0000259999999
 31
0.0
  0
LINE
  5
ED9
  8
DETAIL
  6
CONTINUOUS
 62
     5
 10
265.75
 20
1266.5000259999999
 30
0.0
 11
386.71716400000003
 21
1266.5000259999999
 31
0.0
  0
LINE
  5
EDA
  8
DETAIL
  6
CONTINUOUS
 62
     5
 10
-371.91716400000001
 20
1290.0000239999999
 30
0.0
 11
-371.91716400000001
 21
84.000001999999995
 31
0.0
  0
LINE
  5
EDB
  8
DETAIL
  6
CONTINUOUS
 62
     5
 10
-386.71716400000003
 20
84.000001999999995
 30
0.0
 11
-386.71716400000003
 21
1290.0000239999999
 31
0.0
  0
LINE
  5
EDC
  8
DETAIL
  6
CONTINUOUS
 62
     5
 10
0.0
 20
84.000001999999995
 30
0.0
 11
-387.91716400000001
 21
84.000001999999995
 31
0.0
  0
LINE
  5
EDD
  8
DETAIL
  6
CONTINUOUS
 62
     5
 10
-387.91716400000001
 20
1290.0000239999999
 30
0.0
 11
0.0
 21
1290.0000239999999
 31
0.0
  0
LINE
  5
EDE
  8
DETAIL
  6
CONTINUOUS
 62
     5
 10
-130.25
 20
94.000026000000005
 30
0.0
 11
-130.25
 21
1280.0000259999999
 31
0.0
  0
LINE
  5
EDF
  8
DETAIL
  6
CONTINUOUS
 62
     5
 10
-133.75
 20
94.000026000000005
 30
0.0
 11
-133.75
 21
1280.0000259999999
 31
0.0
  0
LINE
  5
EE0
  8
DETAIL
  6
CONTINUOUS
 62
     5
 10
1.75
 20
94.000026000000005
 30
0.0
 11
1.75
 21
1280.0000259999999
 31
0.0
  0
LINE
  5
EE1
  8
DETAIL
  6
CONTINUOUS
 62
     5
 10
-1.75
 20
94.000026000000005
 30
0.0
 11
-1.75
 21
1280.0000259999999
 31
0.0
  0
LINE
  5
EE2
  8
DETAIL
  6
CONTINUOUS
 62
     5
 10
-262.25
 20
398.75002599999999
 30
0.0
 11
-133.75
 21
398.75002599999999
 31
0.0
  0
LINE
  5
EE3
  8
DETAIL
  6
CONTINUOUS
 62
     5
 10
-262.25
 20
395.25002599999999
 30
0.0
 11
-133.75
 21
395.25002599999999
 31
0.0
  0
LINE
  5
EE4
  8
DETAIL
  6
CONTINUOUS
 62
     5
 10
-262.25
 20
253.75002599999999
 30
0.0
 11
-133.75
 21
253.75002599999999
 31
0.0
  0
LINE
  5
EE5
  8
DETAIL
  6
CONTINUOUS
 62
     5
 10
-262.25
 20
250.25002599999999
 30
0.0
 11
-133.75
 21
250.25002599999999
 31
0.0
  0
LINE
  5
EE6
  8
DETAIL
  6
CONTINUOUS
 62
     5
 10
-133.75
 20
106.00002600000001
 30
0.0
 11
-262.25
 21
106.00002600000001
 31
0.0
  0
LINE
  5
EE7
  8
DETAIL
  6
CONTINUOUS
 62
     5
 10
-133.75
 20
102.50002600000001
 30
0.0
 11
-262.25
 21
102.50002600000001
 31
0.0
  0
LINE
  5
EE8
  8
DETAIL
  6
CONTINUOUS
 62
     5
 10
-130.25
 20
253.75002599999999
 30
0.0
 11
-1.75
 21
253.75002599999999
 31
0.0
  0
LINE
  5
EE9
  8
DETAIL
  6
CONTINUOUS
 62
     5
 10
-130.25
 20
250.25002599999999
 30
0.0
 11
-1.75
 21
250.25002599999999
 31
0.0
  0
LINE
  5
EEA
  8
DETAIL
  6
CONTINUOUS
 62
     5
 10
-1.75
 20
106.00002600000001
 30
0.0
 11
-130.25
 21
106.00002600000001
 31
0.0
  0
LINE
  5
EEB
  8
DETAIL
  6
CONTINUOUS
 62
     5
 10
-1.75
 20
102.50002600000001
 30
0.0
 11
-130.25
 21
102.50002600000001
 31
0.0
  0
LINE
  5
EEC
  8
DETAIL
  6
CONTINUOUS
 62
     5
 10
-133.75
 20
94.000026000000005
 30
0.0
 11
-130.25
 21
94.000026000000005
 31
0.0
  0
LINE
  5
EED
  8
DETAIL
  6
CONTINUOUS
 62
     5
 10
-1.75
 20
94.000026000000005
 30
0.0
 11
1.75
 21
94.000026000000005
 31
0.0
  0
LINE
  5
EEE
  8
DETAIL
  6
CONTINUOUS
 62
     5
 10
-130.25
 20
398.75002599999999
 30
0.0
 11
-1.75
 21
398.75002599999999
 31
0.0
  0
LINE
  5
EEF
  8
DETAIL
  6
CONTINUOUS
 62
     5
 10
-130.25
 20
395.25002599999999
 30
0.0
 11
-1.75
 21
395.25002599999999
 31
0.0
  0
LINE
  5
EF0
  8
DETAIL
  6
CONTINUOUS
 62
     5
 10
-262.25
 20
833.75002599999982
 30
0.0
 11
-133.75
 21
833.75002599999982
 31
0.0
  0
LINE
  5
EF1
  8
DETAIL
  6
CONTINUOUS
 62
     5
 10
-262.25
 20
830.25002599999982
 30
0.0
 11
-133.75
 21
830.25002599999982
 31
0.0
  0
LINE
  5
EF2
  8
DETAIL
  6
CONTINUOUS
 62
     5
 10
-133.75
 20
688.00002599999993
 30
0.0
 11
-262.25
 21
688.00002599999993
 31
0.0
  0
LINE
  5
EF3
  8
DETAIL
  6
CONTINUOUS
 62
     5
 10
-133.75
 20
684.50002599999993
 30
0.0
 11
-262.25
 21
684.50002599999993
 31
0.0
  0
LINE
  5
EF4
  8
DETAIL
  6
CONTINUOUS
 62
     5
 10
-262.25
 20
543.75002599999993
 30
0.0
 11
-133.75
 21
543.75002599999993
 31
0.0
  0
LINE
  5
EF5
  8
DETAIL
  6
CONTINUOUS
 62
     5
 10
-262.25
 20
540.25002599999993
 30
0.0
 11
-133.75
 21
540.25002599999993
 31
0.0
  0
LINE
  5
EF6
  8
DETAIL
  6
CONTINUOUS
 62
     5
 10
-130.25
 20
543.75002599999993
 30
0.0
 11
-1.75
 21
543.75002599999993
 31
0.0
  0
LINE
  5
EF7
  8
DETAIL
  6
CONTINUOUS
 62
     5
 10
-130.25
 20
540.25002599999993
 30
0.0
 11
-1.75
 21
540.25002599999993
 31
0.0
  0
LINE
  5
EF8
  8
DETAIL
  6
CONTINUOUS
 62
     5
 10
-130.25
 20
833.75002599999982
 30
0.0
 11
-1.75
 21
833.75002599999982
 31
0.0
  0
LINE
  5
EF9
  8
DETAIL
  6
CONTINUOUS
 62
     5
 10
-130.25
 20
830.25002599999982
 30
0.0
 11
-1.75
 21
830.25002599999982
 31
0.0
  0
LINE
  5
EFA
  8
DETAIL
  6
CONTINUOUS
 62
     5
 10
-1.75
 20
688.00002599999993
 30
0.0
 11
-130.25
 21
688.00002599999993
 31
0.0
  0
LINE
  5
EFB
  8
DETAIL
  6
CONTINUOUS
 62
     5
 10
-1.75
 20
684.50002599999993
 30
0.0
 11
-130.25
 21
684.50002599999993
 31
0.0
  0
LINE
  5
EFC
  8
DETAIL
  6
CONTINUOUS
 62
     5
 10
-262.25
 20
1123.7500259999999
 30
0.0
 11
-133.75
 21
1123.7500259999999
 31
0.0
  0
LINE
  5
EFD
  8
DETAIL
  6
CONTINUOUS
 62
     5
 10
-262.25
 20
1120.2500259999999
 30
0.0
 11
-133.75
 21
1120.2500259999999
 31
0.0
  0
LINE
  5
EFE
  8
DETAIL
  6
CONTINUOUS
 62
     5
 10
-262.25
 20
978.75002599999993
 30
0.0
 11
-133.75
 21
978.75002599999993
 31
0.0
  0
LINE
  5
EFF
  8
DETAIL
  6
CONTINUOUS
 62
     5
 10
-262.25
 20
975.25002599999993
 30
0.0
 11
-133.75
 21
975.25002599999993
 31
0.0
  0
LINE
  5
F00
  8
DETAIL
  6
CONTINUOUS
 62
     5
 10
-130.25
 20
978.75002599999993
 30
0.0
 11
-1.75
 21
978.75002599999993
 31
0.0
  0
LINE
  5
F01
  8
DETAIL
  6
CONTINUOUS
 62
     5
 10
-130.25
 20
975.25002599999993
 30
0.0
 11
-1.75
 21
975.25002599999993
 31
0.0
  0
LINE
  5
F02
  8
DETAIL
  6
CONTINUOUS
 62
     5
 10
-130.25
 20
1123.7500259999999
 30
0.0
 11
-1.75
 21
1123.7500259999999
 31
0.0
  0
LINE
  5
F03
  8
DETAIL
  6
CONTINUOUS
 62
     5
 10
-130.25
 20
1120.2500259999999
 30
0.0
 11
-1.75
 21
1120.2500259999999
 31
0.0
  0
LINE
  5
F04
  8
DETAIL
  6
CONTINUOUS
 62
     5
 10
-133.75
 20
1270.0000259999999
 30
0.0
 11
-262.25
 21
1270.0000259999999
 31
0.0
  0
LINE
  5
F05
  8
DETAIL
  6
CONTINUOUS
 62
     5
 10
-133.75
 20
1266.5000259999999
 30
0.0
 11
-262.25
 21
1266.5000259999999
 31
0.0
  0
LINE
  5
F06
  8
DETAIL
  6
CONTINUOUS
 62
     5
 10
-1.75
 20
1270.0000259999999
 30
0.0
 11
-130.25
 21
1270.0000259999999
 31
0.0
  0
LINE
  5
F07
  8
DETAIL
  6
CONTINUOUS
 62
     5
 10
-1.75
 20
1266.5000259999999
 30
0.0
 11
-130.25
 21
1266.5000259999999
 31
0.0
  0
LINE
  5
F08
  8
DETAIL
  6
CONTINUOUS
 62
     5
 10
-262.25
 20
94.000026000000005
 30
0.0
 11
-262.25
 21
1280.0000259999999
 31
0.0
  0
LINE
  5
F09
  8
DETAIL
  6
CONTINUOUS
 62
     5
 10
-265.75
 20
94.000026000000005
 30
0.0
 11
-265.75
 21
1280.0000259999999
 31
0.0
  0
LINE
  5
F0A
  8
DETAIL
  6
CONTINUOUS
 62
     5
 10
-386.71716400000003
 20
398.75002599999999
 30
0.0
 11
-265.75
 21
398.75002599999999
 31
0.0
  0
LINE
  5
F0B
  8
DETAIL
  6
CONTINUOUS
 62
     5
 10
-386.71716400000003
 20
395.25002599999999
 30
0.0
 11
-265.75
 21
395.25002599999999
 31
0.0
  0
LINE
  5
F0C
  8
DETAIL
  6
CONTINUOUS
 62
     5
 10
-386.71716400000003
 20
253.75002599999999
 30
0.0
 11
-265.75
 21
253.75002599999999
 31
0.0
  0
LINE
  5
F0D
  8
DETAIL
  6
CONTINUOUS
 62
     5
 10
-386.71716400000003
 20
250.25002599999999
 30
0.0
 11
-265.75
 21
250.25002599999999
 31
0.0
  0
LINE
  5
F0E
  8
DETAIL
  6
CONTINUOUS
 62
     5
 10
-265.75
 20
106.00002600000001
 30
0.0
 11
-386.71716400000003
 21
106.00002600000001
 31
0.0
  0
LINE
  5
F0F
  8
DETAIL
  6
CONTINUOUS
 62
     5
 10
-265.75
 20
102.50002600000001
 30
0.0
 11
-386.71716400000003
 21
102.50002600000001
 31
0.0
  0
LINE
  5
F10
  8
DETAIL
  6
CONTINUOUS
 62
     5
 10
-265.75
 20
94.000026000000005
 30
0.0
 11
-262.25
 21
94.000026000000005
 31
0.0
  0
LINE
  5
F11
  8
DETAIL
  6
CONTINUOUS
 62
     5
 10
-386.71716400000003
 20
833.75002599999982
 30
0.0
 11
-265.75
 21
833.75002599999982
 31
0.0
  0
LINE
  5
F12
  8
DETAIL
  6
CONTINUOUS
 62
     5
 10
-386.71716400000003
 20
830.25002599999982
 30
0.0
 11
-265.75
 21
830.25002599999982
 31
0.0
  0
LINE
  5
F13
  8
DETAIL
  6
CONTINUOUS
 62
     5
 10
-265.75
 20
688.00002599999993
 30
0.0
 11
-386.71716400000003
 21
688.00002599999993
 31
0.0
  0
LINE
  5
F14
  8
DETAIL
  6
CONTINUOUS
 62
     5
 10
-265.75
 20
684.50002599999993
 30
0.0
 11
-386.71716400000003
 21
684.50002599999993
 31
0.0
  0
LINE
  5
F15
  8
DETAIL
  6
CONTINUOUS
 62
     5
 10
-386.71716400000003
 20
543.75002599999993
 30
0.0
 11
-265.75
 21
543.75002599999993
 31
0.0
  0
LINE
  5
F16
  8
DETAIL
  6
CONTINUOUS
 62
     5
 10
-386.71716400000003
 20
540.25002599999993
 30
0.0
 11
-265.75
 21
540.25002599999993
 31
0.0
  0
LINE
  5
F17
  8
DETAIL
  6
CONTINUOUS
 62
     5
 10
-386.71716400000003
 20
1123.7500259999999
 30
0.0
 11
-265.75
 21
1123.7500259999999
 31
0.0
  0
LINE
  5
F18
  8
DETAIL
  6
CONTINUOUS
 62
     5
 10
-386.71716400000003
 20
1120.2500259999999
 30
0.0
 11
-265.75
 21
1120.2500259999999
 31
0.0
  0
LINE
  5
F19
  8
DETAIL
  6
CONTINUOUS
 62
     5
 10
-386.71716400000003
 20
978.75002599999993
 30
0.0
 11
-265.75
 21
978.75002599999993
 31
0.0
  0
LINE
  5
F1A
  8
DETAIL
  6
CONTINUOUS
 62
     5
 10
-386.71716400000003
 20
975.25002599999993
 30
0.0
 11
-265.75
 21
975.25002599999993
 31
0.0
  0
LINE
  5
F1B
  8
DETAIL
  6
CONTINUOUS
 62
     5
 10
-265.75
 20
1270.0000259999999
 30
0.0
 11
-386.71716400000003
 21
1270.0000259999999
 31
0.0
  0
LINE
  5
F1C
  8
DETAIL
  6
CONTINUOUS
 62
     5
 10
-265.75
 20
1266.5000259999999
 30
0.0
 11
-386.71716400000003
 21
1266.5000259999999
 31
0.0
  0
LINE
  5
F1D
  8
SIZE
  6
CONTINUOUS
 62
    30
 10
165.750012
 20
262.99999000000003
 30
0.0
 11
820.34908399999983
 21
262.99999000000003
 31
0.0
  0
LINE
  5
F1E
  8
SIZE
  6
CONTINUOUS
 62
    30
 10
469.50000799999992
 20
0.0
 30
0.0
 11
820.34908399999983
 21
0.0
 31
0.0
  0
LINE
  5
F1F
  8
SIZE
  6
CONTINUOUS
 62
    30
 10
790.34908399999995
 20
252.99999
 30
0.0
 11
790.34908399999995
 21
10.0
 31
0.0
  0
CIRCLE
  5
F20
  8
SIZE
  6
CONTINUOUS
 62
    30
 10
790.34908399999995
 20
262.99999000000003
 30
0.0
 40
5.0
  0
LINE
  5
F21
  8
SIZE
  6
CONTINUOUS
 62
    30
 10
790.34908399999995
 20
257.99999000000003
 30
0.0
 11
790.34908399999995
 21
252.99999
 31
0.0
  0
CIRCLE
  5
F22
  8
SIZE
  6
CONTINUOUS
 62
    30
 10
790.34908399999995
 20
0.0
 30
0.0
 40
5.0
  0
LINE
  5
F23
  8
SIZE
  6
CONTINUOUS
 62
    30
 10
790.34908399999995
 20
5.0
 30
0.0
 11
790.34908399999995
 21
10.0
 31
0.0
  0
TEXT
  5
F24
  8
SIZE
  6
CONTINUOUS
 62
    30
 10
775.34908399999995
 20
67.857137857142845
 30
0.0
 40
55.0
  1
263
 50
90.0
 41
0.9
 72
     1
 11
775.34908399999995
 21
131.49999500000001
 31
0.0
  0
POINT
  5
F25
  8
DEFPOINTS
  6
CONTINUOUS
 62
     7
 10
145.750012
 20
262.99999000000003
 30
0.0
  0
POINT
  5
F26
  8
DEFPOINTS
  6
CONTINUOUS
 62
     7
 10
449.50000799999992
 20
0.0
 30
0.0
  0
POINT
  5
F27
  8
DEFPOINTS
  6
CONTINUOUS
 62
     7
 10
790.34908399999995
 20
0.0
 30
0.0
  0
LINE
  5
F28
  8
SIZE
  6
CONTINUOUS
 62
    30
 10
248.74994699999999
 20
261.00002699999999
 30
0.0
 11
713.43765699999994
 21
261.00002699999999
 31
0.0
  0
LINE
  5
F29
  8
SIZE
  6
CONTINUOUS
 62
    30
 10
469.50000799999992
 20
0.0
 30
0.0
 11
713.43765699999994
 21
0.0
 31
0.0
  0
LINE
  5
F2A
  8
SIZE
  6
CONTINUOUS
 62
    30
 10
683.43765699999994
 20
251.00002699999999
 30
0.0
 11
683.43765699999994
 21
10.0
 31
0.0
  0
CIRCLE
  5
F2B
  8
SIZE
  6
CONTINUOUS
 62
    30
 10
683.43765699999994
 20
261.00002699999999
 30
0.0
 40
5.0
  0
LINE
  5
F2C
  8
SIZE
  6
CONTINUOUS
 62
    30
 10
683.43765699999994
 20
256.00002699999999
 30
0.0
 11
683.43765699999994
 21
251.00002699999999
 31
0.0
  0
CIRCLE
  5
F2D
  8
SIZE
  6
CONTINUOUS
 62
    30
 10
683.43765699999994
 20
0.0
 30
0.0
 40
5.0
  0
LINE
  5
F2E
  8
SIZE
  6
CONTINUOUS
 62
    30
 10
683.43765699999994
 20
5.0
 30
0.0
 11
683.43765699999994
 21
10.0
 31
0.0
  0
TEXT
  5
F2F
  8
SIZE
  6
CONTINUOUS
 62
    30
 10
668.43765699999994
 20
77.464299714285715
 30
0.0
 40
55.0
  1
261
 50
90.0
 41
0.9
 72
     1
 11
668.43765699999994
 21
130.50001399999999
 31
0.0
  0
POINT
  5
F30
  8
DEFPOINTS
  6
CONTINUOUS
 62
     7
 10
228.74994699999999
 20
261.00002699999999
 30
0.0
  0
POINT
  5
F31
  8
DEFPOINTS
  6
CONTINUOUS
 62
     7
 10
449.50000799999992
 20
0.0
 30
0.0
  0
POINT
  5
F32
  8
DEFPOINTS
  6
CONTINUOUS
 62
     7
 10
683.43765699999994
 20
0.0
 30
0.0
  0
LINE
  5
F33
  8
SIZE
  6
CONTINUOUS
 62
    30
 10
208.99994699999999
 20
221.25002699999999
 30
0.0
 11
208.99994699999999
 21
-221.679925
 31
0.0
  0
LINE
  5
F34
  8
SIZE
  6
CONTINUOUS
 62
    30
 10
126.000012
 20
223.24999
 30
0.0
 11
126.000012
 21
-221.679925
 31
0.0
  0
LINE
  5
F35
  8
SIZE
  6
CONTINUOUS
 62
    30
 10
218.99994699999999
 20
-191.679925
 30
0.0
 11
228.99994699999999
 21
-191.679925
 31
0.0
  0
LINE
  5
F36
  8
SIZE
  6
CONTINUOUS
 62
    30
 10
116.000012
 20
-191.679925
 30
0.0
 11
106.000012
 21
-191.679925
 31
0.0
  0
LINE
  5
F37
  8
SIZE
  6
CONTINUOUS
 62
    30
 10
208.99994699999999
 20
-191.679925
 30
0.0
 11
126.000012
 21
-191.679925
 31
0.0
  0
CIRCLE
  5
F38
  8
SIZE
  6
CONTINUOUS
 62
    30
 10
208.99994699999999
 20
-191.679925
 30
0.0
 40
5.0
  0
LINE
  5
F39
  8
SIZE
  6
CONTINUOUS
 62
    30
 10
213.99994699999999
 20
-191.679925
 30
0.0
 11
218.99994699999999
 21
-191.679925
 31
0.0
  0
CIRCLE
  5
F3A
  8
SIZE
  6
CONTINUOUS
 62
    30
 10
126.000012
 20
-191.679925
 30
0.0
 40
5.0
  0
LINE
  5
F3B
  8
SIZE
  6
CONTINUOUS
 62
    30
 10
121.000012
 20
-191.679925
 30
0.0
 11
116.000012
 21
-191.679925
 31
0.0
  0
TEXT
  5
F3C
  8
SIZE
  6
CONTINUOUS
 62
    30
 10
127.4285504285714
 20
-176.679925
 30
0.0
 40
55.0
  1
83
 41
0.9
 72
     1
 11
167.499979
 21
-176.679925
 31
0.0
  0
POINT
  5
F3D
  8
DEFPOINTS
  6
CONTINUOUS
 62
     7
 10
208.99994699999999
 20
241.25002699999999
 30
0.0
  0
POINT
  5
F3E
  8
DEFPOINTS
  6
CONTINUOUS
 62
     7
 10
126.000012
 20
243.24999
 30
0.0
  0
POINT
  5
F3F
  8
DEFPOINTS
  6
CONTINUOUS
 62
     7
 10
126.000012
 20
-191.679925
 30
0.0
  0
ARC
  5
104A
  8
OUTLINE
  6
CONTINUOUS
 62
     3
 10
186.1400643781198
 20
1543.0000288792021
 30
0.0
 40
175.00000299999999
 50
2.2964199999938941
 51
32.025932000001767
  0
ARC
  5
104B
  8
OUTLINE
  6
CONTINUOUS
 62
     3
 10
326.02841537811992
 20
1630.500029879202
 30
0.0
 40
10.0
 50
32.025932000001767
 51
90.0
  0
ARC
  5
1052
  8
OUTLINE
  6
CONTINUOUS
 62
     3
 10
-186.1400643781198
 20
1543.0000288792021
 30
0.0
 40
175.00000299999999
 50
147.9740679999982
 51
177.70358000000601
  0
ARC
  5
1053
  8
OUTLINE
  6
CONTINUOUS
 62
     3
 10
-326.02841537811992
 20
1630.500029879202
 30
0.0
 40
10.0
 50
90.0
 51
147.9740679999982
  0
LINE
  5
105D
  8
OUTLINE
  6
CONTINUOUS
 62
     3
 10
-455.20000497752989
 20
54.000002634791713
 30
0.0
 11
-454.50000799999998
 21
54.000002634791713
 31
0.0
  0
LINE
  5
1063
  8
OUTLINE
  6
CONTINUOUS
 62
     3
 10
454.5000079704248
 20
53.999997857688072
 30
0.0
 11
455.20000494795482
 21
53.999997857688072
 31
0.0
  0
LINE
  5
106D
  8
NOTE
  6
CONTINUOUS
 62
     4
 10
-380.0
 20
-22.0
 30
0.0
 11
-380.0
 21
22.0
 31
0.0
  0
LINE
  5
106E
  8
NOTE
  6
CONTINUOUS
 62
     4
 10
-358.0
 20
0.0
 30
0.0
 11
-402.0
 21
0.0
 31
0.0
  0
ENDSEC
  0
EOF
