  0
SECTION
  2
HEADER
  9
$ACADVER
  1
AC1009
  9
$INSBASE
 10
0.0
 20
0.0
 30
0.0
  9
$EXTMIN
 10
-1077.9418713389241
 20
-563.31022506732359
 30
-0.0015258207003583
  9
$EXTMAX
 10
1565.643327037855
 20
1957.3104984910569
 30
0.0000000349246037
  9
$LIMMIN
 10
-4200.0
 20
-2970.0
  9
$LIMMAX
 10
4200.0
 20
2970.0
  9
$ORTHOMODE
 70
     1
  9
$REGENMODE
 70
     1
  9
$FILLMODE
 70
     1
  9
$QTEXTMODE
 70
     0
  9
$MIRRTEXT
 70
     0
  9
$DRAGMODE
 70
     2
  9
$LTSCALE
 40
20.0
  9
$OSMODE
 70
   959
  9
$ATTMODE
 70
     1
  9
$TEXTSIZE
 40
64.0
  9
$TRACEWID
 40
0.05
  9
$TEXTSTYLE
  7
STANDARD
  9
$CLAYER
  8
SYMBOLLINE
  9
$CELTYPE
  6
CONTINUOUS
  9
$CECOLOR
 62
     7
  9
$DIMSCALE
 40
1.0
  9
$DIMASZ
 40
10.0
  9
$DIMEXO
 40
20.0
  9
$DIMDLI
 40
200.0
  9
$DIMRND
 40
0.0
  9
$DIMDLE
 40
0.0
  9
$DIMEXE
 40
30.0
  9
$DIMTP
 40
0.0
  9
$DIMTM
 40
0.0
  9
$DIMTXT
 40
55.0
  9
$DIMCEN
 40
0.0
  9
$DIMTSZ
 40
0.0
  9
$DIMTOL
 70
     0
  9
$DIMLIM
 70
     0
  9
$DIMTIH
 70
     0
  9
$DIMTOH
 70
     0
  9
$DIMSE1
 70
     0
  9
$DIMSE2
 70
     0
  9
$DIMTAD
 70
     1
  9
$DIMZIN
 70
     8
  9
$DIMBLK
  1
DOTBLANK
  9
$DIMASO
 70
     1
  9
$DIMSHO
 70
     0
  9
$DIMPOST
  1

  9
$DIMAPOST
  1

  9
$DIMALT
 70
     0
  9
$DIMALTD
 70
     2
  9
$DIMALTF
 40
25.399999999999999
  9
$DIMLFAC
 40
1.0
  9
$DIMTOFL
 70
     1
  9
$DIMTVP
 40
0.0
  9
$DIMTIX
 70
     1
  9
$DIMSOXD
 70
     0
  9
$DIMSAH
 70
     0
  9
$DIMBLK1
  1

  9
$DIMBLK2
  1

  9
$DIMSTYLE
  2
STANDARD
  9
$DIMCLRD
 70
     0
  9
$DIMCLRE
 70
     0
  9
$DIMCLRT
 70
     0
  9
$DIMTFAC
 40
1.0
  9
$DIMGAP
 40
0.09
  9
$LUNITS
 70
     2
  9
$LUPREC
 70
     4
  9
$SKETCHINC
 40
0.1
  9
$FILLETRAD
 40
0.0
  9
$AUNITS
 70
     1
  9
$AUPREC
 70
     3
  9
$MENU
  1
ACAD
  9
$ELEVATION
 40
0.0
  9
$PELEVATION
 40
0.0
  9
$THICKNESS
 40
0.0
  9
$LIMCHECK
 70
     0
  9
$BLIPMODE
 70
     0
  9
$CHAMFERA
 40
0.0
  9
$CHAMFERB
 40
0.0
  9
$SKPOLY
 70
     0
  9
$TDCREATE
 40
2449761.4936229978
  9
$TDUPDATE
 40
2455622.6602424541
  9
$TDINDWG
 40
4.5173677083000001
  9
$TDUSRTIMER
 40
4.5173669907000003
  9
$USRTIMER
 70
     1
  9
$ANGBASE
 50
0.0
  9
$ANGDIR
 70
     0
  9
$PDMODE
 70
    35
  9
$PDSIZE
 40
100.0
  9
$PLINEWID
 40
0.0
  9
$COORDS
 70
     0
  9
$SPLFRAME
 70
     0
  9
$SPLINETYPE
 70
     6
  9
$SPLINESEGS
 70
     8
  9
$ATTDIA
 70
     0
  9
$ATTREQ
 70
     1
  9
$HANDLING
 70
     1
  9
$HANDSEED
  5
117D
  9
$SURFTAB1
 70
     6
  9
$SURFTAB2
 70
     6
  9
$SURFTYPE
 70
     6
  9
$SURFU
 70
     6
  9
$SURFV
 70
     6
  9
$UCSNAME
  2

  9
$UCSORG
 10
0.0
 20
0.0
 30
0.0
  9
$UCSXDIR
 10
1.0
 20
0.0
 30
0.0
  9
$UCSYDIR
 10
0.0
 20
1.0
 30
0.0
  9
$PUCSNAME
  2

  9
$PUCSORG
 10
0.0
 20
0.0
 30
0.0
  9
$PUCSXDIR
 10
1.0
 20
0.0
 30
0.0
  9
$PUCSYDIR
 10
0.0
 20
1.0
 30
0.0
  9
$USERI1
 70
     0
  9
$USERI2
 70
     0
  9
$USERI3
 70
     0
  9
$USERI4
 70
     0
  9
$USERI5
 70
     0
  9
$USERR1
 40
20.0
  9
$USERR2
 40
0.0
  9
$USERR3
 40
0.0
  9
$USERR4
 40
0.0
  9
$USERR5
 40
0.0
  9
$WORLDVIEW
 70
     1
  9
$SHADEDGE
 70
     3
  9
$SHADEDIF
 70
    70
  9
$TILEMODE
 70
     1
  9
$MAXACTVP
 70
    48
  9
$PLIMCHECK
 70
     0
  9
$PEXTMIN
 10
1.0000000000000000E+020
 20
1.0000000000000000E+020
 30
1.0000000000000000E+020
  9
$PEXTMAX
 10
-1.0000000000000000E+020
 20
-1.0000000000000000E+020
 30
-1.0000000000000000E+020
  9
$PLIMMIN
 10
0.0
 20
0.0
  9
$PLIMMAX
 10
12.0
 20
9.0
  9
$UNITMODE
 70
     0
  9
$VISRETAIN
 70
     1
  9
$PLINEGEN
 70
     0
  9
$PSLTSCALE
 70
     1
  0
ENDSEC
  0
SECTION
  2
TABLES
  0
TABLE
  2
VPORT
 70
     1
  0
VPORT
  2
*ACTIVE
 70
     0
 10
0.0
 20
0.0
 11
1.0
 21
1.0
 12
0.0000000000003411
 22
0.0
 13
0.0
 23
0.0
 14
50.0
 24
50.0
 15
100.0
 25
100.0
 16
0.0
 26
0.0
 36
1.0
 17
0.0
 27
0.0
 37
0.0
 40
5985.5172413793098
 41
1.5639386189258311
 42
50.0
 43
0.0
 44
0.0
 50
0.0
 51
0.0
 71
     0
 72
  1000
 73
     1
 74
     0
 75
     0
 76
     0
 77
     0
 78
     0
  0
ENDTAB
  0
TABLE
  2
LTYPE
 70
     3
  0
LTYPE
  2
CONTINUOUS
 70
     0
  3
実線
 72
    65
 73
     0
 40
0.0
  0
LTYPE
  2
DASHDOT
 70
     0
  3
____ _ ____ _ ____ _ ____ _ ____ _ ____ _ ____
 72
    65
 73
     4
 40
5.5
 49
4.0
 49
-0.6
 49
0.3
 49
-0.6
  0
ENDTAB
  0
TABLE
  2
LAYER
 70
    12
  0
LAYER
  2
0
 70
     0
 62
     7
  6
CONTINUOUS
  0
LAYER
  2
SIZE
 70
     0
 62
    30
  6
CONTINUOUS
  0
LAYER
  2
OUTLINE
 70
     0
 62
     3
  6
CONTINUOUS
  0
LAYER
  2
DETAIL
 70
     0
 62
     5
  6
CONTINUOUS
  0
LAYER
  2
BASIS
 70
     0
 62
     6
  6
DASHDOT
  0
LAYER
  2
NOTE
 70
     0
 62
     4
  6
CONTINUOUS
  0
LAYER
  2
ARRANGE
 70
     0
 62
     1
  6
CONTINUOUS
  0
LAYER
  2
FIX
 70
     0
 62
    11
  6
CONTINUOUS
  0
LAYER
  2
SERVICESPACE
 70
     0
 62
     2
  6
DASHDOT
  0
LAYER
  2
ETC
 70
     0
 62
    61
  6
CONTINUOUS
  0
LAYER
  2
SYMBOLLINE
 70
     0
 62
    15
  6
CONTINUOUS
  0
LAYER
  2
DEFPOINTS
 70
     0
 62
     7
  6
CONTINUOUS
  0
ENDTAB
  0
TABLE
  2
STYLE
 70
     3
  0
STYLE
  2
STANDARD
 70
     0
 40
0.0
 41
0.9
 50
0.0
 71
     0
 42
64.0
  3
SIMPLEX
  4
BIGFONT
  0
STYLE
  2
ANNOTATIVE
 70
     0
 40
0.0
 41
1.0
 50
0.0
 71
     0
 42
0.2
  3
txt
  4

  0
STYLE
  2
STANDARD1
 70
     0
 40
0.0
 41
1.0
 50
0.0
 71
     0
 42
3.5
  3
MONOTXT
  4
BIGFONT
  0
ENDTAB
  0
TABLE
  2
VIEW
 70
    13
  0
VIEW
  2
ALL
 70
     0
 40
6056.2300320000013
 10
0.0
 20
58.115015999999997
 41
8400.0
 11
0.0
 21
0.0
 31
1.0
 12
0.0
 22
0.0
 32
0.0
 42
50.0
 43
0.0
 44
0.0
 50
0.0
 71
     0
  0
ENDTAB
  0
TABLE
  2
UCS
 70
     0
  0
ENDTAB
  0
TABLE
  2
APPID
 70
     4
  0
APPID
  2
ACAD
 70
     0
  0
APPID
  2
ACADANNOTATIVE
 70
     0
  0
APPID
  2
ACAD_MLEADERVER
 70
     0
  0
APPID
  2
ACAD_EXEMPT_FROM_CAD_STANDARDS
 70
     0
  0
ENDTAB
  0
TABLE
  2
DIMSTYLE
 70
     3
  0
DIMSTYLE
  2
STANDARD
 70
     0
  3

  4

  5

  6

  7

 40
1.0
 41
0.18
 42
0.0625
 43
0.38
 44
0.18
 45
0.0
 46
0.0
 47
0.0
 48
0.0
140
0.18
141
0.09
142
0.0
143
25.399999999999999
144
1.0
145
0.0
146
1.0
147
0.09
 71
     0
 72
     0
 73
     1
 74
     1
 75
     0
 76
     0
 77
     0
 78
     0
170
     0
171
     2
172
     0
173
     0
174
     0
175
     0
176
     0
177
     0
178
     0
  0
DIMSTYLE
  2
ANNOTATIVE
 70
     0
  3

  4

  5

  6

  7

 40
1.0
 41
0.18
 42
0.0625
 43
0.38
 44
0.18
 45
0.0
 46
0.0
 47
0.0
 48
0.0
140
0.18
141
0.09
142
0.0
143
25.399999999999999
144
1.0
145
0.0
146
1.0
147
0.09
 71
     0
 72
     0
 73
     1
 74
     1
 75
     0
 76
     0
 77
     0
 78
     0
170
     0
171
     2
172
     0
173
     0
174
     0
175
     0
176
     0
177
     0
178
     0
  0
ENDTAB
  0
ENDSEC
  0
SECTION
  2
BLOCKS
  0
BLOCK
  8
0
  2
$MODEL_SPACE
 70
     0
 10
0.0
 20
0.0
 30
0.0
  3
$MODEL_SPACE
  1

  0
ENDBLK
  5
109B
  8
0
  0
BLOCK
 67
     1
  8
0
  2
$PAPER_SPACE
 70
     0
 10
0.0
 20
0.0
 30
0.0
  3
$PAPER_SPACE
  1

  0
ENDBLK
  5
1097
 67
     1
  8
0
  0
BLOCK
  8
0
  2
_DOTBLANK
 70
     0
 10
0.0
 20
0.0
 30
0.0
  3
_DOTBLANK
  1

  0
CIRCLE
  5
32
  8
0
  6
CONTINUOUS
 62
     7
 10
0.0
 20
0.0
 30
0.0
 40
0.5
  0
LINE
  5
33
  8
0
  6
CONTINUOUS
 62
     7
 10
-0.5
 20
0.0
 30
0.0
 11
-1.0
 21
0.0
 31
0.0
  0
ENDBLK
  5
34
  8
0
  0
ENDSEC
  0
SECTION
  2
ENTITIES
  0
TEXT
  5
35
  8
NOTE
  6
CONTINUOUS
 62
     4
 10
-84.922550999999984
 20
1745.6611350000001
 30
0.0
 40
55.0
  1
空気吹出
 50
0.000003
 41
0.703125
  7
STANDARD1
  0
LINE
  5
36
  8
NOTE
  6
CONTINUOUS
 62
     4
 10
-230.75718900000001
 20
1785.8494559999999
 30
0.0
 11
-180.75718800000001
 21
1735.953409
 31
0.0
  0
LINE
  5
37
  8
NOTE
  6
CONTINUOUS
 62
     4
 10
-280.75718999999998
 20
1735.953409
 30
0.0
 11
-230.75718900000001
 21
1785.8494559999999
 31
0.0
  0
LINE
  5
38
  8
NOTE
  6
CONTINUOUS
 62
     4
 10
-280.75718999999998
 20
1735.953409
 30
0.0
 11
-255.75718900000001
 21
1735.953409
 31
0.0
  0
LINE
  5
39
  8
NOTE
  6
CONTINUOUS
 62
     4
 10
-205.75718800000001
 20
1735.953409
 30
0.0
 11
-180.75718800000001
 21
1735.953409
 31
0.0
  0
LINE
  5
3A
  8
NOTE
  6
CONTINUOUS
 62
     4
 10
-205.75718800000001
 20
1735.953409
 30
0.0
 11
-205.75718800000001
 21
1695.267321
 31
0.0
  0
LINE
  5
3B
  8
NOTE
  6
CONTINUOUS
 62
     4
 10
-255.75718900000001
 20
1735.953409
 30
0.0
 11
-255.75718900000001
 21
1695.267321
 31
0.0
  0
LINE
  5
3C
  8
NOTE
  6
CONTINUOUS
 62
     4
 10
-205.75718800000001
 20
1695.267321
 30
0.0
 11
-255.75718900000001
 21
1695.267321
 31
0.0
  0
LINE
  5
3D
  8
NOTE
  6
CONTINUOUS
 62
     4
 10
200.89460800000001
 20
1695.267321
 30
0.0
 11
250.894609
 21
1695.267321
 31
0.0
  0
LINE
  5
3E
  8
NOTE
  6
CONTINUOUS
 62
     4
 10
250.894609
 20
1735.953409
 30
0.0
 11
250.894609
 21
1695.267321
 31
0.0
  0
LINE
  5
3F
  8
NOTE
  6
CONTINUOUS
 62
     4
 10
200.89460800000001
 20
1735.953409
 30
0.0
 11
200.89460800000001
 21
1695.267321
 31
0.0
  0
LINE
  5
40
  8
NOTE
  6
CONTINUOUS
 62
     4
 10
200.89460800000001
 20
1735.953409
 30
0.0
 11
175.89460800000001
 21
1735.953409
 31
0.0
  0
LINE
  5
41
  8
NOTE
  6
CONTINUOUS
 62
     4
 10
275.89461
 20
1735.953409
 30
0.0
 11
250.894609
 21
1735.953409
 31
0.0
  0
LINE
  5
42
  8
NOTE
  6
CONTINUOUS
 62
     4
 10
275.89461
 20
1735.953409
 30
0.0
 11
225.894609
 21
1785.8494559999999
 31
0.0
  0
LINE
  5
43
  8
NOTE
  6
CONTINUOUS
 62
     4
 10
225.894609
 20
1785.8494559999999
 30
0.0
 11
175.89460800000001
 21
1735.953409
 31
0.0
  0
TEXT
  5
44
  8
NOTE
  6
CONTINUOUS
 62
     4
 10
-540.43964900000003
 20
938.51433000000009
 30
0.0
 40
55.0
  1
吸込
 50
0.000003
 41
0.703125
  7
STANDARD1
  0
TEXT
  5
45
  8
NOTE
  6
CONTINUOUS
 62
     4
 10
-540.43964900000003
 20
1025.1810190000001
 30
0.0
 40
55.0
  1
空気
 50
0.000003
 41
0.703125
  7
STANDARD1
  0
LINE
  5
46
  8
NOTE
  6
CONTINUOUS
 62
     4
 10
-536.91869900000006
 20
1127.291968
 30
0.0
 11
-536.91869900000006
 21
1177.2919690000001
 31
0.0
  0
LINE
  5
47
  8
NOTE
  6
CONTINUOUS
 62
     4
 10
-496.23261100000002
 20
1177.2919690000001
 30
0.0
 11
-536.91869900000006
 21
1177.2919690000001
 31
0.0
  0
LINE
  5
48
  8
NOTE
  6
CONTINUOUS
 62
     4
 10
-496.23261100000002
 20
1127.291968
 30
0.0
 11
-536.91869900000006
 21
1127.291968
 31
0.0
  0
LINE
  5
49
  8
NOTE
  6
CONTINUOUS
 62
     4
 10
-496.23261100000002
 20
1127.291968
 30
0.0
 11
-496.23261100000002
 21
1102.291968
 31
0.0
  0
LINE
  5
4A
  8
NOTE
  6
CONTINUOUS
 62
     4
 10
-496.23261100000002
 20
1202.29197
 30
0.0
 11
-496.23261100000002
 21
1177.2919690000001
 31
0.0
  0
LINE
  5
4B
  8
NOTE
  6
CONTINUOUS
 62
     4
 10
-496.23261100000002
 20
1202.29197
 30
0.0
 11
-446.3365639999999
 21
1152.2919690000001
 31
0.0
  0
LINE
  5
4C
  8
NOTE
  6
CONTINUOUS
 62
     4
 10
-446.3365639999999
 20
1152.2919690000001
 30
0.0
 11
-496.23261100000002
 21
1102.291968
 31
0.0
  0
LINE
  5
4D
  8
NOTE
  6
CONTINUOUS
 62
     4
 10
-498.24210399999998
 20
815.70968400000015
 30
0.0
 11
-498.24210399999998
 21
790.70968300000004
 31
0.0
  0
LINE
  5
4E
  8
NOTE
  6
CONTINUOUS
 62
     4
 10
-448.34605800000003
 20
840.70968400000015
 30
0.0
 11
-498.24210399999998
 21
790.70968300000004
 31
0.0
  0
LINE
  5
4F
  8
NOTE
  6
CONTINUOUS
 62
     4
 10
-498.24210399999998
 20
890.70968500000004
 30
0.0
 11
-448.34605800000003
 21
840.70968400000015
 31
0.0
  0
LINE
  5
50
  8
NOTE
  6
CONTINUOUS
 62
     4
 10
-498.24210399999998
 20
815.70968400000015
 30
0.0
 11
-538.92819199999997
 21
815.70968400000015
 31
0.0
  0
LINE
  5
51
  8
NOTE
  6
CONTINUOUS
 62
     4
 10
-498.24210399999998
 20
865.70968500000004
 30
0.0
 11
-538.92819199999997
 21
865.70968500000004
 31
0.0
  0
LINE
  5
52
  8
NOTE
  6
CONTINUOUS
 62
     4
 10
-538.92819199999997
 20
815.70968400000015
 30
0.0
 11
-538.92819199999997
 21
865.70968500000004
 31
0.0
  0
LINE
  5
53
  8
NOTE
  6
CONTINUOUS
 62
     4
 10
-498.24210399999998
 20
890.70968500000004
 30
0.0
 11
-498.24210399999998
 21
865.70968500000004
 31
0.0
  0
LINE
  5
54
  8
SIZE
  6
CONTINUOUS
 62
    30
 10
-348.49994800000002
 20
54.00000099999999
 30
0.0
 11
-517.15862100000004
 21
54.00000099999999
 31
0.0
  0
LINE
  5
55
  8
SIZE
  6
CONTINUOUS
 62
    30
 10
-399.49994900000002
 20
0.0
 30
0.0
 11
-517.15862100000004
 21
0.0
 31
0.0
  0
LINE
  5
56
  8
SIZE
  6
CONTINUOUS
 62
    30
 10
-487.15862099999998
 20
10.0
 30
0.0
 11
-487.15862099999998
 21
44.00000099999999
 31
0.0
  0
LINE
  5
57
  8
SIZE
  6
CONTINUOUS
 62
    30
 10
-487.15862099999998
 20
54.00000099999999
 30
0.0
 11
-487.15862099999998
 21
187.837332
 31
0.0
  0
CIRCLE
  5
58
  8
SIZE
  6
CONTINUOUS
 62
    30
 10
-487.15862099999998
 20
0.0
 30
0.0
 40
5.0
  0
LINE
  5
59
  8
SIZE
  6
CONTINUOUS
 62
    30
 10
-487.15862099999998
 20
5.0
 30
0.0
 11
-487.15862099999998
 21
10.0
 31
0.0
  0
CIRCLE
  5
5A
  8
SIZE
  6
CONTINUOUS
 62
    30
 10
-487.15862099999998
 20
54.00000099999999
 30
0.0
 40
5.0
  0
LINE
  5
5B
  8
SIZE
  6
CONTINUOUS
 62
    30
 10
-487.15862099999998
 20
49.00000099999999
 30
0.0
 11
-487.15862099999998
 21
44.00000099999999
 31
0.0
  0
TEXT
  5
5C
  8
SIZE
  6
CONTINUOUS
 62
    30
 10
-502.15862099999993
 20
90.337332000000004
 30
0.0
 40
55.0
  1
54
 50
90.0
 41
0.9
 72
     1
 11
-502.15862099999993
 21
131.587332
 31
0.0
  0
POINT
  5
5E
  8
DEFPOINTS
  6
CONTINUOUS
 62
     7
 10
-379.49994900000002
 20
0.0
 30
0.0
  0
POINT
  5
5F
  8
DEFPOINTS
  6
CONTINUOUS
 62
     7
 10
-487.15862099999998
 20
0.0
 30
0.0
  0
ARC
  5
60
  8
DETAIL
  6
CONTINUOUS
 62
     5
 10
374.30000699999999
 20
55.499993000000003
 30
0.0
 40
1.0
 50
270.0
 51
0.0
  0
ARC
  5
61
  8
DETAIL
  6
CONTINUOUS
 62
     5
 10
176.50000299999999
 20
61.999993000000003
 30
0.0
 40
3.0
 50
180.0
 51
270.0
  0
ARC
  5
62
  8
DETAIL
  6
CONTINUOUS
 62
     5
 10
-313.50000599999998
 20
63.999993000000011
 30
0.0
 40
5.0
 50
270.0
 51
0.0
  0
ARC
  5
63
  8
DETAIL
  6
CONTINUOUS
 62
     5
 10
-326.02841000000001
 20
1630.5000219999999
 30
0.0
 40
10.0
 50
90.0
 51
147.97406799999999
  0
ARC
  5
64
  8
DETAIL
  6
CONTINUOUS
 62
     5
 10
-186.14005900000001
 20
1543.0000210000001
 30
0.0
 40
175.00000299999999
 50
147.97406799999999
 51
177.70357999999999
  0
ARC
  5
65
  8
DETAIL
  6
CONTINUOUS
 62
     5
 10
186.14005900000001
 20
1543.0000210000001
 30
0.0
 40
175.00000299999999
 50
2.296419999999999
 51
32.025931999999997
  0
ARC
  5
66
  8
DETAIL
  6
CONTINUOUS
 62
     5
 10
326.02841000000001
 20
1630.5000219999999
 30
0.0
 40
10.0
 50
32.025931999999997
 51
90.0
  0
ARC
  5
67
  8
DETAIL
  6
CONTINUOUS
 62
     5
 10
284.60770000000002
 20
50.999993000000003
 30
0.0
 40
5.0
 50
270.0
 51
330.0
  0
ARC
  5
68
  8
DETAIL
  6
CONTINUOUS
 62
     5
 10
295.00000299999999
 20
48.999997
 30
0.0
 40
4.9999979999999997
 50
90.0
 51
150.00002900000001
  0
ARC
  5
69
  8
DETAIL
  6
CONTINUOUS
 62
     5
 10
-285.42600499999998
 20
48.999993000000003
 30
0.0
 40
3.0
 50
206.26860300000001
 51
270.0
  0
ARC
  5
6A
  8
DETAIL
  6
CONTINUOUS
 62
     5
 10
-366.50000599999998
 20
64.495249000000001
 30
0.0
 40
8.0
 50
223.39908399999999
 51
266.26859899999999
  0
ARC
  5
6B
  8
DETAIL
  6
CONTINUOUS
 62
     5
 10
-293.10408799999999
 20
50.999993000000003
 30
0.0
 40
3.0
 50
26.268603000000009
 51
90.0
  0
ARC
  5
6C
  8
DETAIL
  6
CONTINUOUS
 62
     5
 10
366.50000599999998
 20
64.495249000000001
 30
0.0
 40
8.0
 50
273.73140100000001
 51
316.6009160000001
  0
ARC
  5
6D
  8
DETAIL
  6
CONTINUOUS
 62
     5
 10
374.30000699999999
 20
55.499993000000003
 30
0.0
 40
0.2
 50
270.0
 51
0.0
  0
ARC
  5
6E
  8
DETAIL
  6
CONTINUOUS
 62
     5
 10
326.00000599999998
 20
48.299993000000001
 30
0.0
 40
1.0
 50
180.0
 51
270.0
  0
ARC
  5
6F
  8
DETAIL
  6
CONTINUOUS
 62
     5
 10
326.00000599999998
 20
11.699992
 30
0.0
 40
1.0
 50
90.0
 51
180.0
  0
ARC
  5
70
  8
DETAIL
  6
CONTINUOUS
 62
     5
 10
305.00000599999998
 20
13.999992000000001
 30
0.0
 40
5.0
 50
180.0
 51
270.0
  0
ARC
  5
71
  8
DETAIL
  6
CONTINUOUS
 62
     5
 10
321.00000599999998
 20
49.999992999999989
 30
0.0
 40
4.0
 50
0.0
 51
90.0
  0
ARC
  5
72
  8
DETAIL
  6
CONTINUOUS
 62
     5
 10
-326.00000599999998
 20
11.699992
 30
0.0
 40
1.0
 50
0.0
 51
90.0
  0
ARC
  5
73
  8
DETAIL
  6
CONTINUOUS
 62
     5
 10
-326.00000599999998
 20
48.299993000000001
 30
0.0
 40
1.0
 50
270.0
 51
0.0
  0
ARC
  5
74
  8
DETAIL
  6
CONTINUOUS
 62
     5
 10
-305.00000599999998
 20
13.999992000000001
 30
0.0
 40
5.0
 50
270.0
 51
0.0
  0
ARC
  5
75
  8
DETAIL
  6
CONTINUOUS
 62
     5
 10
-321.00000599999998
 20
49.999992999999989
 30
0.0
 40
4.0
 50
90.0
 51
180.0
  0
LINE
  5
194
  8
DETAIL
  6
CONTINUOUS
 62
     5
 10
326.29680200000001
 20
1637.398839
 30
0.0
 11
327.50859000000003
 21
1635.8030530000001
 31
0.0
  0
LINE
  5
19E
  8
DETAIL
  6
CONTINUOUS
 62
     5
 10
328.4650200000001
 20
1637.398839
 30
0.0
 11
329.68505900000002
 21
1635.8030530000001
 31
0.0
  0
LINE
  5
19F
  8
DETAIL
  6
CONTINUOUS
 62
     5
 10
326.95401399999997
 20
1638.713064
 30
0.0
 11
328.4650200000001
 21
1637.398839
 31
0.0
  0
LINE
  5
1A0
  8
DETAIL
  6
CONTINUOUS
 62
     5
 10
325.21370999999999
 20
1639.6920889999999
 30
0.0
 11
326.95401399999997
 21
1638.713064
 31
0.0
  0
LINE
  5
1A1
  8
DETAIL
  6
CONTINUOUS
 62
     5
 10
323.315136
 20
1640.295957
 30
0.0
 11
325.21370999999999
 21
1639.6920889999999
 31
0.0
  0
LINE
  5
1A3
  8
DETAIL
  6
CONTINUOUS
 62
     5
 10
327.944075
 20
1637.398839
 30
0.0
 11
329.16411499999998
 21
1635.8030530000001
 31
0.0
  0
LINE
  5
1A4
  8
DETAIL
  6
CONTINUOUS
 62
     5
 10
326.43306899999999
 20
1638.713064
 30
0.0
 11
327.944075
 21
1637.398839
 31
0.0
  0
LINE
  5
1A5
  8
DETAIL
  6
CONTINUOUS
 62
     5
 10
324.69276600000001
 20
1639.6920889999999
 30
0.0
 11
326.43306899999999
 21
1638.713064
 31
0.0
  0
LINE
  5
1A6
  8
DETAIL
  6
CONTINUOUS
 62
     5
 10
322.79419200000001
 20
1640.295957
 30
0.0
 11
324.69276600000001
 21
1639.6920889999999
 31
0.0
  0
LINE
  5
1A8
  8
DETAIL
  6
CONTINUOUS
 62
     5
 10
330.23305399999998
 20
1637.398839
 30
0.0
 11
331.459858
 21
1635.8030530000001
 31
0.0
  0
LINE
  5
1A9
  8
DETAIL
  6
CONTINUOUS
 62
     5
 10
328.71366999999998
 20
1638.713064
 30
0.0
 11
330.23305399999998
 21
1637.398839
 31
0.0
  0
LINE
  5
1AA
  8
DETAIL
  6
CONTINUOUS
 62
     5
 10
326.96371699999997
 20
1639.6920889999999
 30
0.0
 11
328.71366999999998
 21
1638.713064
 31
0.0
  0
LINE
  5
1AB
  8
DETAIL
  6
CONTINUOUS
 62
     5
 10
325.05461600000001
 20
1640.295957
 30
0.0
 11
326.96371699999997
 21
1639.6920889999999
 31
0.0
  0
LINE
  5
1AC
  8
DETAIL
  6
CONTINUOUS
 62
     5
 10
323.06428399999999
 20
1640.5000219999999
 30
0.0
 11
325.05461600000001
 21
1640.295957
 31
0.0
  0
LINE
  5
1AD
  8
DETAIL
  6
CONTINUOUS
 62
     5
 10
329.81553400000001
 20
1637.398839
 30
0.0
 11
331.04233799999997
 21
1635.8030530000001
 31
0.0
  0
LINE
  5
1AE
  8
DETAIL
  6
CONTINUOUS
 62
     5
 10
328.29615100000001
 20
1638.713064
 30
0.0
 11
329.81553400000001
 21
1637.398839
 31
0.0
  0
LINE
  5
1AF
  8
DETAIL
  6
CONTINUOUS
 62
     5
 10
326.546198
 20
1639.6920889999999
 30
0.0
 11
328.29615100000001
 21
1638.713064
 31
0.0
  0
LINE
  5
1B0
  8
DETAIL
  6
CONTINUOUS
 62
     5
 10
324.63709699999998
 20
1640.295957
 30
0.0
 11
326.546198
 21
1639.6920889999999
 31
0.0
  0
LINE
  5
1B1
  8
DETAIL
  6
CONTINUOUS
 62
     5
 10
322.64676500000002
 20
1640.5000219999999
 30
0.0
 11
324.63709699999998
 21
1640.295957
 31
0.0
  0
LINE
  5
1B2
  8
DETAIL
  6
CONTINUOUS
 62
     5
 10
331.598749
 20
1637.398839
 30
0.0
 11
332.83082300000001
 21
1635.8030530000001
 31
0.0
  0
LINE
  5
1B3
  8
DETAIL
  6
CONTINUOUS
 62
     5
 10
330.07283899999999
 20
1638.713064
 30
0.0
 11
331.598749
 21
1637.398839
 31
0.0
  0
LINE
  5
1B4
  8
DETAIL
  6
CONTINUOUS
 62
     5
 10
328.31536899999998
 20
1639.6920889999999
 30
0.0
 11
330.07283899999999
 21
1638.713064
 31
0.0
  0
LINE
  5
1B5
  8
DETAIL
  6
CONTINUOUS
 62
     5
 10
326.39806700000003
 20
1640.295957
 30
0.0
 11
328.31536899999998
 21
1639.6920889999999
 31
0.0
  0
LINE
  5
1B6
  8
DETAIL
  6
CONTINUOUS
 62
     5
 10
324.39918499999999
 20
1640.5000219999999
 30
0.0
 11
326.39806700000003
 21
1640.295957
 31
0.0
  0
LINE
  5
1B7
  8
DETAIL
  6
CONTINUOUS
 62
     5
 10
331.28516400000001
 20
1637.398839
 30
0.0
 11
332.51723800000002
 21
1635.8030530000001
 31
0.0
  0
LINE
  5
1B8
  8
DETAIL
  6
CONTINUOUS
 62
     5
 10
329.759254
 20
1638.713064
 30
0.0
 11
331.28516400000001
 21
1637.398839
 31
0.0
  0
LINE
  5
1B9
  8
DETAIL
  6
CONTINUOUS
 62
     5
 10
328.00178399999999
 20
1639.6920889999999
 30
0.0
 11
329.759254
 21
1638.713064
 31
0.0
  0
LINE
  5
1BA
  8
DETAIL
  6
CONTINUOUS
 62
     5
 10
326.08448199999998
 20
1640.295957
 30
0.0
 11
328.00178399999999
 21
1639.6920889999999
 31
0.0
  0
LINE
  5
1BB
  8
DETAIL
  6
CONTINUOUS
 62
     5
 10
324.0856
 20
1640.5000219999999
 30
0.0
 11
326.08448199999998
 21
1640.295957
 31
0.0
  0
LINE
  5
1BC
  8
DETAIL
  6
CONTINUOUS
 62
     5
 10
332.56044300000002
 20
1637.398839
 30
0.0
 11
333.79628600000001
 21
1635.8030530000001
 31
0.0
  0
LINE
  5
1BD
  8
DETAIL
  6
CONTINUOUS
 62
     5
 10
331.02986499999997
 20
1638.713064
 30
0.0
 11
332.56044300000002
 21
1637.398839
 31
0.0
  0
LINE
  5
1BE
  8
DETAIL
  6
CONTINUOUS
 62
     5
 10
329.267019
 20
1639.6920889999999
 30
0.0
 11
331.02986499999997
 21
1638.713064
 31
0.0
  0
LINE
  5
1BF
  8
DETAIL
  6
CONTINUOUS
 62
     5
 10
327.34385300000002
 20
1640.295957
 30
0.0
 11
329.267019
 21
1639.6920889999999
 31
0.0
  0
LINE
  5
1C0
  8
DETAIL
  6
CONTINUOUS
 62
     5
 10
325.33885600000002
 20
1640.5000219999999
 30
0.0
 11
327.34385300000002
 21
1640.295957
 31
0.0
  0
LINE
  5
1C1
  8
DETAIL
  6
CONTINUOUS
 62
     5
 10
332.35117400000001
 20
1637.398839
 30
0.0
 11
333.58701600000001
 21
1635.8030530000001
 31
0.0
  0
LINE
  5
1C2
  8
DETAIL
  6
CONTINUOUS
 62
     5
 10
330.82059600000002
 20
1638.713064
 30
0.0
 11
332.35117400000001
 21
1637.398839
 31
0.0
  0
LINE
  5
1C3
  8
DETAIL
  6
CONTINUOUS
 62
     5
 10
329.05775
 20
1639.6920889999999
 30
0.0
 11
330.82059600000002
 21
1638.713064
 31
0.0
  0
LINE
  5
1C4
  8
DETAIL
  6
CONTINUOUS
 62
     5
 10
327.13458300000002
 20
1640.295957
 30
0.0
 11
329.05775
 21
1639.6920889999999
 31
0.0
  0
LINE
  5
1C5
  8
DETAIL
  6
CONTINUOUS
 62
     5
 10
325.12958700000001
 20
1640.5000219999999
 30
0.0
 11
327.13458300000002
 21
1640.295957
 31
0.0
  0
LINE
  5
1C6
  8
DETAIL
  6
CONTINUOUS
 62
     5
 10
333.116963
 20
1637.398839
 30
0.0
 11
334.35506900000001
 21
1635.8030530000001
 31
0.0
  0
LINE
  5
1C7
  8
DETAIL
  6
CONTINUOUS
 62
     5
 10
331.58358199999998
 20
1638.713064
 30
0.0
 11
333.116963
 21
1637.398839
 31
0.0
  0
LINE
  5
1C8
  8
DETAIL
  6
CONTINUOUS
 62
     5
 10
329.81750799999998
 20
1639.6920889999999
 30
0.0
 11
331.58358199999998
 21
1638.713064
 31
0.0
  0
LINE
  5
1C9
  8
DETAIL
  6
CONTINUOUS
 62
     5
 10
327.89082000000002
 20
1640.295957
 30
0.0
 11
329.81750799999998
 21
1639.6920889999999
 31
0.0
  0
LINE
  5
1CA
  8
DETAIL
  6
CONTINUOUS
 62
     5
 10
325.88215200000002
 20
1640.5000219999999
 30
0.0
 11
327.89082000000002
 21
1640.295957
 31
0.0
  0
LINE
  5
1CB
  8
DETAIL
  6
CONTINUOUS
 62
     5
 10
333.01226500000001
 20
1637.398839
 30
0.0
 11
334.25037099999997
 21
1635.8030530000001
 31
0.0
  0
LINE
  5
1CC
  8
DETAIL
  6
CONTINUOUS
 62
     5
 10
331.47888399999999
 20
1638.713064
 30
0.0
 11
333.01226500000001
 21
1637.398839
 31
0.0
  0
LINE
  5
1CD
  8
DETAIL
  6
CONTINUOUS
 62
     5
 10
329.71280999999999
 20
1639.6920889999999
 30
0.0
 11
331.47888399999999
 21
1638.713064
 31
0.0
  0
LINE
  5
1CE
  8
DETAIL
  6
CONTINUOUS
 62
     5
 10
327.78612200000009
 20
1640.295957
 30
0.0
 11
329.71280999999999
 21
1639.6920889999999
 31
0.0
  0
LINE
  5
1CF
  8
DETAIL
  6
CONTINUOUS
 62
     5
 10
325.77745299999998
 20
1640.5000219999999
 30
0.0
 11
327.78612200000009
 21
1640.295957
 31
0.0
  0
LINE
  5
1D0
  8
DETAIL
  6
CONTINUOUS
 62
     5
 10
80.000000999999983
 20
1650.0000230000001
 30
0.0
 11
-80.000000999999983
 21
1650.0000230000001
 31
0.0
  0
LINE
  5
1D1
  8
DETAIL
  6
CONTINUOUS
 62
     5
 10
-100.00000199999999
 20
1649.300023
 30
0.0
 11
100.00000199999999
 21
1649.300023
 31
0.0
  0
LINE
  5
1D2
  8
DETAIL
  6
CONTINUOUS
 62
     5
 10
-120.00000199999999
 20
1648.6000220000001
 30
0.0
 11
120.00000199999999
 21
1648.6000220000001
 31
0.0
  0
LINE
  5
1D3
  8
DETAIL
  6
CONTINUOUS
 62
     5
 10
-140.00000299999999
 20
1647.900022
 30
0.0
 11
140.00000299999999
 21
1647.900022
 31
0.0
  0
LINE
  5
1D4
  8
DETAIL
  6
CONTINUOUS
 62
     5
 10
-160.00000299999999
 20
1647.200022
 30
0.0
 11
160.00000299999999
 21
1647.200022
 31
0.0
  0
LINE
  5
1D5
  8
DETAIL
  6
CONTINUOUS
 62
     5
 10
-180.00000299999991
 20
1646.5000219999999
 30
0.0
 11
180.00000299999991
 21
1646.5000219999999
 31
0.0
  0
LINE
  5
1D6
  8
DETAIL
  6
CONTINUOUS
 62
     5
 10
-200.00000399999999
 20
1645.8000219999999
 30
0.0
 11
200.00000399999999
 21
1645.8000219999999
 31
0.0
  0
LINE
  5
1D7
  8
DETAIL
  6
CONTINUOUS
 62
     5
 10
-220.00000399999999
 20
1645.1000220000001
 30
0.0
 11
220.00000399999999
 21
1645.1000220000001
 31
0.0
  0
LINE
  5
1D8
  8
DETAIL
  6
CONTINUOUS
 62
     5
 10
-240.00000399999999
 20
1644.400022
 30
0.0
 11
240.00000399999999
 21
1644.400022
 31
0.0
  0
LINE
  5
1D9
  8
DETAIL
  6
CONTINUOUS
 62
     5
 10
-260.00000499999999
 20
1643.700022
 30
0.0
 11
260.00000499999999
 21
1643.700022
 31
0.0
  0
LINE
  5
1DA
  8
DETAIL
  6
CONTINUOUS
 62
     5
 10
-280.00000499999999
 20
1643.0000219999999
 30
0.0
 11
280.00000499999999
 21
1643.0000219999999
 31
0.0
  0
LINE
  5
1DB
  8
DETAIL
  6
CONTINUOUS
 62
     5
 10
-300.00000599999998
 20
1642.3000219999999
 30
0.0
 11
300.00000599999998
 21
1642.3000219999999
 31
0.0
  0
LINE
  5
1DC
  8
DETAIL
  6
CONTINUOUS
 62
     5
 10
-320.00000599999998
 20
1641.6000220000001
 30
0.0
 11
320.00000599999998
 21
1641.6000220000001
 31
0.0
  0
LINE
  5
1DD
  8
DETAIL
  6
CONTINUOUS
 62
     5
 10
326.02841000000001
 20
1640.5000219999999
 30
0.0
 11
-326.02841000000001
 21
1640.5000219999999
 31
0.0
  0
LINE
  5
26C
  8
DETAIL
  6
CONTINUOUS
 62
     5
 10
-333.116963
 20
1637.398839
 30
0.0
 11
-334.35506900000001
 21
1635.8030530000001
 31
0.0
  0
LINE
  5
26D
  8
DETAIL
  6
CONTINUOUS
 62
     5
 10
-331.58358199999998
 20
1638.713064
 30
0.0
 11
-333.116963
 21
1637.398839
 31
0.0
  0
LINE
  5
26E
  8
DETAIL
  6
CONTINUOUS
 62
     5
 10
-329.81750799999998
 20
1639.6920889999999
 30
0.0
 11
-331.58358199999998
 21
1638.713064
 31
0.0
  0
LINE
  5
26F
  8
DETAIL
  6
CONTINUOUS
 62
     5
 10
-327.89082000000002
 20
1640.295957
 30
0.0
 11
-329.81750799999998
 21
1639.6920889999999
 31
0.0
  0
LINE
  5
270
  8
DETAIL
  6
CONTINUOUS
 62
     5
 10
-325.88215200000002
 20
1640.5000219999999
 30
0.0
 11
-327.89082000000002
 21
1640.295957
 31
0.0
  0
LINE
  5
271
  8
DETAIL
  6
CONTINUOUS
 62
     5
 10
-333.01226500000001
 20
1637.398839
 30
0.0
 11
-334.25037099999997
 21
1635.8030530000001
 31
0.0
  0
LINE
  5
272
  8
DETAIL
  6
CONTINUOUS
 62
     5
 10
-331.47888399999999
 20
1638.713064
 30
0.0
 11
-333.01226500000001
 21
1637.398839
 31
0.0
  0
LINE
  5
273
  8
DETAIL
  6
CONTINUOUS
 62
     5
 10
-329.71280999999999
 20
1639.6920889999999
 30
0.0
 11
-331.47888399999999
 21
1638.713064
 31
0.0
  0
LINE
  5
274
  8
DETAIL
  6
CONTINUOUS
 62
     5
 10
-327.78612200000009
 20
1640.295957
 30
0.0
 11
-329.71280999999999
 21
1639.6920889999999
 31
0.0
  0
LINE
  5
275
  8
DETAIL
  6
CONTINUOUS
 62
     5
 10
-325.77745299999998
 20
1640.5000219999999
 30
0.0
 11
-327.78612200000009
 21
1640.295957
 31
0.0
  0
LINE
  5
276
  8
DETAIL
  6
CONTINUOUS
 62
     5
 10
-332.56044300000002
 20
1637.398839
 30
0.0
 11
-333.79628600000001
 21
1635.8030530000001
 31
0.0
  0
LINE
  5
277
  8
DETAIL
  6
CONTINUOUS
 62
     5
 10
-331.02986499999997
 20
1638.713064
 30
0.0
 11
-332.56044300000002
 21
1637.398839
 31
0.0
  0
LINE
  5
278
  8
DETAIL
  6
CONTINUOUS
 62
     5
 10
-329.267019
 20
1639.6920889999999
 30
0.0
 11
-331.02986499999997
 21
1638.713064
 31
0.0
  0
LINE
  5
279
  8
DETAIL
  6
CONTINUOUS
 62
     5
 10
-327.34385300000002
 20
1640.295957
 30
0.0
 11
-329.267019
 21
1639.6920889999999
 31
0.0
  0
LINE
  5
27A
  8
DETAIL
  6
CONTINUOUS
 62
     5
 10
-325.33885600000002
 20
1640.5000219999999
 30
0.0
 11
-327.34385300000002
 21
1640.295957
 31
0.0
  0
LINE
  5
27B
  8
DETAIL
  6
CONTINUOUS
 62
     5
 10
-332.35117400000001
 20
1637.398839
 30
0.0
 11
-333.58701600000001
 21
1635.8030530000001
 31
0.0
  0
LINE
  5
27C
  8
DETAIL
  6
CONTINUOUS
 62
     5
 10
-330.82059600000002
 20
1638.713064
 30
0.0
 11
-332.35117400000001
 21
1637.398839
 31
0.0
  0
LINE
  5
27D
  8
DETAIL
  6
CONTINUOUS
 62
     5
 10
-329.05775
 20
1639.6920889999999
 30
0.0
 11
-330.82059600000002
 21
1638.713064
 31
0.0
  0
LINE
  5
27E
  8
DETAIL
  6
CONTINUOUS
 62
     5
 10
-327.13458300000002
 20
1640.295957
 30
0.0
 11
-329.05775
 21
1639.6920889999999
 31
0.0
  0
LINE
  5
27F
  8
DETAIL
  6
CONTINUOUS
 62
     5
 10
-325.12958700000001
 20
1640.5000219999999
 30
0.0
 11
-327.13458300000002
 21
1640.295957
 31
0.0
  0
LINE
  5
280
  8
DETAIL
  6
CONTINUOUS
 62
     5
 10
-331.598749
 20
1637.398839
 30
0.0
 11
-332.83082300000001
 21
1635.8030530000001
 31
0.0
  0
LINE
  5
281
  8
DETAIL
  6
CONTINUOUS
 62
     5
 10
-330.07283899999999
 20
1638.713064
 30
0.0
 11
-331.598749
 21
1637.398839
 31
0.0
  0
LINE
  5
282
  8
DETAIL
  6
CONTINUOUS
 62
     5
 10
-328.31536899999998
 20
1639.6920889999999
 30
0.0
 11
-330.07283899999999
 21
1638.713064
 31
0.0
  0
LINE
  5
283
  8
DETAIL
  6
CONTINUOUS
 62
     5
 10
-326.39806700000003
 20
1640.295957
 30
0.0
 11
-328.31536899999998
 21
1639.6920889999999
 31
0.0
  0
LINE
  5
284
  8
DETAIL
  6
CONTINUOUS
 62
     5
 10
-324.39918499999999
 20
1640.5000219999999
 30
0.0
 11
-326.39806700000003
 21
1640.295957
 31
0.0
  0
LINE
  5
285
  8
DETAIL
  6
CONTINUOUS
 62
     5
 10
-331.28516400000001
 20
1637.398839
 30
0.0
 11
-332.51723800000002
 21
1635.8030530000001
 31
0.0
  0
LINE
  5
286
  8
DETAIL
  6
CONTINUOUS
 62
     5
 10
-329.759254
 20
1638.713064
 30
0.0
 11
-331.28516400000001
 21
1637.398839
 31
0.0
  0
LINE
  5
287
  8
DETAIL
  6
CONTINUOUS
 62
     5
 10
-328.00178399999999
 20
1639.6920889999999
 30
0.0
 11
-329.759254
 21
1638.713064
 31
0.0
  0
LINE
  5
288
  8
DETAIL
  6
CONTINUOUS
 62
     5
 10
-326.08448199999998
 20
1640.295957
 30
0.0
 11
-328.00178399999999
 21
1639.6920889999999
 31
0.0
  0
LINE
  5
289
  8
DETAIL
  6
CONTINUOUS
 62
     5
 10
-324.0856
 20
1640.5000219999999
 30
0.0
 11
-326.08448199999998
 21
1640.295957
 31
0.0
  0
LINE
  5
28A
  8
DETAIL
  6
CONTINUOUS
 62
     5
 10
-330.23305399999998
 20
1637.398839
 30
0.0
 11
-331.459858
 21
1635.8030530000001
 31
0.0
  0
LINE
  5
28B
  8
DETAIL
  6
CONTINUOUS
 62
     5
 10
-328.71366999999998
 20
1638.713064
 30
0.0
 11
-330.23305399999998
 21
1637.398839
 31
0.0
  0
LINE
  5
28C
  8
DETAIL
  6
CONTINUOUS
 62
     5
 10
-326.96371699999997
 20
1639.6920889999999
 30
0.0
 11
-328.71366999999998
 21
1638.713064
 31
0.0
  0
LINE
  5
28D
  8
DETAIL
  6
CONTINUOUS
 62
     5
 10
-325.05461600000001
 20
1640.295957
 30
0.0
 11
-326.96371699999997
 21
1639.6920889999999
 31
0.0
  0
LINE
  5
28E
  8
DETAIL
  6
CONTINUOUS
 62
     5
 10
-323.06428399999999
 20
1640.5000219999999
 30
0.0
 11
-325.05461600000001
 21
1640.295957
 31
0.0
  0
LINE
  5
28F
  8
DETAIL
  6
CONTINUOUS
 62
     5
 10
-329.81553400000001
 20
1637.398839
 30
0.0
 11
-331.04233799999997
 21
1635.8030530000001
 31
0.0
  0
LINE
  5
290
  8
DETAIL
  6
CONTINUOUS
 62
     5
 10
-328.29615100000001
 20
1638.713064
 30
0.0
 11
-329.81553400000001
 21
1637.398839
 31
0.0
  0
LINE
  5
291
  8
DETAIL
  6
CONTINUOUS
 62
     5
 10
-326.546198
 20
1639.6920889999999
 30
0.0
 11
-328.29615100000001
 21
1638.713064
 31
0.0
  0
LINE
  5
292
  8
DETAIL
  6
CONTINUOUS
 62
     5
 10
-324.63709699999998
 20
1640.295957
 30
0.0
 11
-326.546198
 21
1639.6920889999999
 31
0.0
  0
LINE
  5
293
  8
DETAIL
  6
CONTINUOUS
 62
     5
 10
-322.64676500000002
 20
1640.5000219999999
 30
0.0
 11
-324.63709699999998
 21
1640.295957
 31
0.0
  0
LINE
  5
294
  8
DETAIL
  6
CONTINUOUS
 62
     5
 10
-328.4650200000001
 20
1637.398839
 30
0.0
 11
-329.68505900000002
 21
1635.8030530000001
 31
0.0
  0
LINE
  5
42F
  8
DETAIL
  6
CONTINUOUS
 62
     5
 10
346.63923
 20
1561.320232
 30
0.0
 11
347.42808824552787
 21
1550.0121590000001
 31
0.0
  0
LINE
  5
430
  8
DETAIL
  6
CONTINUOUS
 62
     5
 10
345.145804
 20
1572.5633800000001
 30
0.0
 11
346.63923
 21
1561.320232
 31
0.0
  0
LINE
  5
431
  8
DETAIL
  6
CONTINUOUS
 62
     5
 10
342.95493800000003
 20
1583.682172
 30
0.0
 11
345.145804
 21
1572.5633800000001
 31
0.0
  0
LINE
  5
432
  8
DETAIL
  6
CONTINUOUS
 62
     5
 10
340.07584800000001
 20
1594.6298360000001
 30
0.0
 11
342.95493800000003
 21
1583.682172
 31
0.0
  0
LINE
  5
437
  8
DETAIL
  6
CONTINUOUS
 62
     5
 10
345.812318
 20
1561.320232
 30
0.0
 11
346.60117624552782
 21
1550.0121590000001
 31
0.0
  0
LINE
  5
438
  8
DETAIL
  6
CONTINUOUS
 62
     5
 10
344.31889200000001
 20
1572.5633800000001
 30
0.0
 11
345.812318
 21
1561.320232
 31
0.0
  0
LINE
  5
439
  8
DETAIL
  6
CONTINUOUS
 62
     5
 10
342.12802599999998
 20
1583.682172
 30
0.0
 11
344.31889200000001
 21
1572.5633800000001
 31
0.0
  0
LINE
  5
43F
  8
DETAIL
  6
CONTINUOUS
 62
     5
 10
343.21745499999997
 20
1594.6298360000001
 30
0.0
 11
346.123603
 21
1583.682172
 31
0.0
  0
LINE
  5
440
  8
DETAIL
  6
CONTINUOUS
 62
     5
 10
339.62883999999991
 20
1605.360324
 30
0.0
 11
343.21745499999997
 21
1594.6298360000001
 31
0.0
  0
LINE
  5
441
  8
DETAIL
  6
CONTINUOUS
 62
     5
 10
335.37285200000002
 20
1615.828497
 30
0.0
 11
339.62883999999991
 21
1605.360324
 31
0.0
  0
LINE
  5
444
  8
DETAIL
  6
CONTINUOUS
 62
     5
 10
349.11675500000001
 20
1561.320232
 30
0.0
 11
349.91302628842368
 21
1550.0121590000001
 31
0.0
  0
LINE
  5
445
  8
DETAIL
  6
CONTINUOUS
 62
     5
 10
347.60929299999998
 20
1572.5633800000001
 30
0.0
 11
349.11675500000001
 21
1561.320232
 31
0.0
  0
LINE
  5
446
  8
DETAIL
  6
CONTINUOUS
 62
     5
 10
345.3978370000001
 20
1583.682172
 30
0.0
 11
347.60929299999998
 21
1572.5633800000001
 31
0.0
  0
LINE
  5
447
  8
DETAIL
  6
CONTINUOUS
 62
     5
 10
342.49169000000001
 20
1594.6298360000001
 30
0.0
 11
345.3978370000001
 21
1583.682172
 31
0.0
  0
LINE
  5
448
  8
DETAIL
  6
CONTINUOUS
 62
     5
 10
338.903074
 20
1605.360324
 30
0.0
 11
342.49169000000001
 21
1594.6298360000001
 31
0.0
  0
LINE
  5
44C
  8
DETAIL
  6
CONTINUOUS
 62
     5
 10
352.61958099999998
 20
1561.320232
 30
0.0
 11
353.42229637139383
 21
1550.0121590000001
 31
0.0
  0
LINE
  5
44D
  8
DETAIL
  6
CONTINUOUS
 62
     5
 10
351.09992099999999
 20
1572.5633800000001
 30
0.0
 11
352.61958099999998
 21
1561.320232
 31
0.0
  0
LINE
  5
44E
  8
DETAIL
  6
CONTINUOUS
 62
     5
 10
348.8705700000001
 20
1583.682172
 30
0.0
 11
351.09992099999999
 21
1572.5633800000001
 31
0.0
  0
LINE
  5
44F
  8
DETAIL
  6
CONTINUOUS
 62
     5
 10
345.94090399999999
 20
1594.6298360000001
 30
0.0
 11
348.8705700000001
 21
1583.682172
 31
0.0
  0
LINE
  5
450
  8
DETAIL
  6
CONTINUOUS
 62
     5
 10
342.32324899999998
 20
1605.360324
 30
0.0
 11
345.94090399999999
 21
1594.6298360000001
 31
0.0
  0
LINE
  5
451
  8
DETAIL
  6
CONTINUOUS
 62
     5
 10
338.03282100000001
 20
1615.828497
 30
0.0
 11
342.32324899999998
 21
1605.360324
 31
0.0
  0
LINE
  5
452
  8
DETAIL
  6
CONTINUOUS
 62
     5
 10
333.08766800000001
 20
1625.990321
 30
0.0
 11
338.03282100000001
 21
1615.828497
 31
0.0
  0
LINE
  5
453
  8
DETAIL
  6
CONTINUOUS
 62
     5
 10
327.50859000000003
 20
1635.8030530000001
 30
0.0
 11
333.08766800000001
 21
1625.990321
 31
0.0
  0
LINE
  5
454
  8
DETAIL
  6
CONTINUOUS
 62
     5
 10
351.99584599999997
 20
1561.320232
 30
0.0
 11
352.79856137139382
 21
1550.0121590000001
 31
0.0
  0
LINE
  5
455
  8
DETAIL
  6
CONTINUOUS
 62
     5
 10
350.47618599999998
 20
1572.5633800000001
 30
0.0
 11
351.99584599999997
 21
1561.320232
 31
0.0
  0
LINE
  5
456
  8
DETAIL
  6
CONTINUOUS
 62
     5
 10
348.24683399999998
 20
1583.682172
 30
0.0
 11
350.47618599999998
 21
1572.5633800000001
 31
0.0
  0
LINE
  5
457
  8
DETAIL
  6
CONTINUOUS
 62
     5
 10
345.31716899999998
 20
1594.6298360000001
 30
0.0
 11
348.24683399999998
 21
1583.682172
 31
0.0
  0
LINE
  5
458
  8
DETAIL
  6
CONTINUOUS
 62
     5
 10
341.69951400000002
 20
1605.360324
 30
0.0
 11
345.31716899999998
 21
1594.6298360000001
 31
0.0
  0
LINE
  5
459
  8
DETAIL
  6
CONTINUOUS
 62
     5
 10
337.409086
 20
1615.828497
 30
0.0
 11
341.69951400000002
 21
1605.360324
 31
0.0
  0
LINE
  5
45A
  8
DETAIL
  6
CONTINUOUS
 62
     5
 10
332.463933
 20
1625.990321
 30
0.0
 11
337.409086
 21
1615.828497
 31
0.0
  0
LINE
  5
45C
  8
DETAIL
  6
CONTINUOUS
 62
     5
 10
354.96703000000002
 20
1561.320232
 30
0.0
 11
355.77521050516049
 21
1550.0121590000001
 31
0.0
  0
LINE
  5
45D
  8
DETAIL
  6
CONTINUOUS
 62
     5
 10
353.43702200000001
 20
1572.5633800000001
 30
0.0
 11
354.96703000000002
 21
1561.320232
 31
0.0
  0
LINE
  5
45E
  8
DETAIL
  6
CONTINUOUS
 62
     5
 10
351.19249100000002
 20
1583.682172
 30
0.0
 11
353.43702200000001
 21
1572.5633800000001
 31
0.0
  0
LINE
  5
45F
  8
DETAIL
  6
CONTINUOUS
 62
     5
 10
348.24287800000002
 20
1594.6298360000001
 30
0.0
 11
351.19249100000002
 21
1583.682172
 31
0.0
  0
LINE
  5
460
  8
DETAIL
  6
CONTINUOUS
 62
     5
 10
344.60059000000001
 20
1605.360324
 30
0.0
 11
348.24287800000002
 21
1594.6298360000001
 31
0.0
  0
LINE
  5
461
  8
DETAIL
  6
CONTINUOUS
 62
     5
 10
340.28094900000002
 20
1615.828497
 30
0.0
 11
344.60059000000001
 21
1605.360324
 31
0.0
  0
LINE
  5
462
  8
DETAIL
  6
CONTINUOUS
 62
     5
 10
335.30212399999999
 20
1625.990321
 30
0.0
 11
340.28094900000002
 21
1615.828497
 31
0.0
  0
LINE
  5
463
  8
DETAIL
  6
CONTINUOUS
 62
     5
 10
329.68505900000002
 20
1635.8030530000001
 30
0.0
 11
335.30212399999999
 21
1625.990321
 31
0.0
  0
LINE
  5
464
  8
DETAIL
  6
CONTINUOUS
 62
     5
 10
354.44608499999998
 20
1561.320232
 30
0.0
 11
355.25426550516062
 21
1550.0121590000001
 31
0.0
  0
LINE
  5
465
  8
DETAIL
  6
CONTINUOUS
 62
     5
 10
352.91607699999997
 20
1572.5633800000001
 30
0.0
 11
354.44608499999998
 21
1561.320232
 31
0.0
  0
LINE
  5
466
  8
DETAIL
  6
CONTINUOUS
 62
     5
 10
350.67154599999998
 20
1583.682172
 30
0.0
 11
352.91607699999997
 21
1572.5633800000001
 31
0.0
  0
LINE
  5
467
  8
DETAIL
  6
CONTINUOUS
 62
     5
 10
347.72193299999998
 20
1594.6298360000001
 30
0.0
 11
350.67154599999998
 21
1583.682172
 31
0.0
  0
LINE
  5
468
  8
DETAIL
  6
CONTINUOUS
 62
     5
 10
344.07964600000003
 20
1605.360324
 30
0.0
 11
347.72193299999998
 21
1594.6298360000001
 31
0.0
  0
LINE
  5
469
  8
DETAIL
  6
CONTINUOUS
 62
     5
 10
339.76000399999998
 20
1615.828497
 30
0.0
 11
344.07964600000003
 21
1605.360324
 31
0.0
  0
LINE
  5
46A
  8
DETAIL
  6
CONTINUOUS
 62
     5
 10
334.78118000000001
 20
1625.990321
 30
0.0
 11
339.76000399999998
 21
1615.828497
 31
0.0
  0
LINE
  5
46B
  8
DETAIL
  6
CONTINUOUS
 62
     5
 10
329.16411499999998
 20
1635.8030530000001
 30
0.0
 11
334.78118000000001
 21
1625.990321
 31
0.0
  0
LINE
  5
46C
  8
DETAIL
  6
CONTINUOUS
 62
     5
 10
356.88200499999999
 20
1561.320232
 30
0.0
 11
357.69466669508517
 21
1550.0121590000001
 31
0.0
  0
LINE
  5
46D
  8
DETAIL
  6
CONTINUOUS
 62
     5
 10
355.34351400000003
 20
1572.5633800000001
 30
0.0
 11
356.88200499999999
 21
1561.320232
 31
0.0
  0
LINE
  5
46E
  8
DETAIL
  6
CONTINUOUS
 62
     5
 10
353.08653800000002
 20
1583.682172
 30
0.0
 11
355.34351400000003
 21
1572.5633800000001
 31
0.0
  0
LINE
  5
46F
  8
DETAIL
  6
CONTINUOUS
 62
     5
 10
350.12057099999998
 20
1594.6298360000001
 30
0.0
 11
353.08653800000002
 21
1583.682172
 31
0.0
  0
LINE
  5
470
  8
DETAIL
  6
CONTINUOUS
 62
     5
 10
346.45808900000009
 20
1605.360324
 30
0.0
 11
350.12057099999998
 21
1594.6298360000001
 31
0.0
  0
LINE
  5
471
  8
DETAIL
  6
CONTINUOUS
 62
     5
 10
342.11449699999997
 20
1615.828497
 30
0.0
 11
346.45808900000009
 21
1605.360324
 31
0.0
  0
LINE
  5
472
  8
DETAIL
  6
CONTINUOUS
 62
     5
 10
337.10806700000001
 20
1625.990321
 30
0.0
 11
342.11449699999997
 21
1615.828497
 31
0.0
  0
LINE
  5
473
  8
DETAIL
  6
CONTINUOUS
 62
     5
 10
331.459858
 20
1635.8030530000001
 30
0.0
 11
337.10806700000001
 21
1625.990321
 31
0.0
  0
LINE
  5
474
  8
DETAIL
  6
CONTINUOUS
 62
     5
 10
356.46448600000002
 20
1561.320232
 30
0.0
 11
357.27714769508532
 21
1550.0121590000001
 31
0.0
  0
LINE
  5
475
  8
DETAIL
  6
CONTINUOUS
 62
     5
 10
354.925995
 20
1572.5633800000001
 30
0.0
 11
356.46448600000002
 21
1561.320232
 31
0.0
  0
LINE
  5
476
  8
DETAIL
  6
CONTINUOUS
 62
     5
 10
352.66901899999999
 20
1583.682172
 30
0.0
 11
354.925995
 21
1572.5633800000001
 31
0.0
  0
LINE
  5
477
  8
DETAIL
  6
CONTINUOUS
 62
     5
 10
349.70305200000001
 20
1594.6298360000001
 30
0.0
 11
352.66901899999999
 21
1583.682172
 31
0.0
  0
LINE
  5
478
  8
DETAIL
  6
CONTINUOUS
 62
     5
 10
346.040569
 20
1605.360324
 30
0.0
 11
349.70305200000001
 21
1594.6298360000001
 31
0.0
  0
LINE
  5
479
  8
DETAIL
  6
CONTINUOUS
 62
     5
 10
341.696977
 20
1615.828497
 30
0.0
 11
346.040569
 21
1605.360324
 31
0.0
  0
LINE
  5
47A
  8
DETAIL
  6
CONTINUOUS
 62
     5
 10
336.69054699999998
 20
1625.990321
 30
0.0
 11
341.696977
 21
1615.828497
 31
0.0
  0
LINE
  5
47B
  8
DETAIL
  6
CONTINUOUS
 62
     5
 10
331.04233799999997
 20
1635.8030530000001
 30
0.0
 11
336.69054699999998
 21
1625.990321
 31
0.0
  0
LINE
  5
47C
  8
DETAIL
  6
CONTINUOUS
 62
     5
 10
358.36217499999998
 20
1561.320232
 30
0.0
 11
359.17832794760119
 21
1550.0121590000001
 31
0.0
  0
LINE
  5
47D
  8
DETAIL
  6
CONTINUOUS
 62
     5
 10
356.81707499999999
 20
1572.5633800000001
 30
0.0
 11
358.36217499999998
 21
1561.320232
 31
0.0
  0
LINE
  5
47E
  8
DETAIL
  6
CONTINUOUS
 62
     5
 10
354.55040400000001
 20
1583.682172
 30
0.0
 11
356.81707499999999
 21
1572.5633800000001
 31
0.0
  0
LINE
  5
47F
  8
DETAIL
  6
CONTINUOUS
 62
     5
 10
351.57169599999997
 20
1594.6298360000001
 30
0.0
 11
354.55040400000001
 21
1583.682172
 31
0.0
  0
LINE
  5
480
  8
DETAIL
  6
CONTINUOUS
 62
     5
 10
347.89348100000001
 20
1605.360324
 30
0.0
 11
351.57169599999997
 21
1594.6298360000001
 31
0.0
  0
LINE
  5
481
  8
DETAIL
  6
CONTINUOUS
 62
     5
 10
343.53123099999999
 20
1615.828497
 30
0.0
 11
347.89348100000001
 21
1605.360324
 31
0.0
  0
LINE
  5
482
  8
DETAIL
  6
CONTINUOUS
 62
     5
 10
338.50329499999998
 20
1625.990321
 30
0.0
 11
343.53123099999999
 21
1615.828497
 31
0.0
  0
LINE
  5
483
  8
DETAIL
  6
CONTINUOUS
 62
     5
 10
332.83082300000001
 20
1635.8030530000001
 30
0.0
 11
338.50329499999998
 21
1625.990321
 31
0.0
  0
LINE
  5
484
  8
DETAIL
  6
CONTINUOUS
 62
     5
 10
358.04858999999999
 20
1561.320232
 30
0.0
 11
358.8647419486735
 21
1550.0121590000001
 31
0.0
  0
LINE
  5
485
  8
DETAIL
  6
CONTINUOUS
 62
     5
 10
356.50349
 20
1572.5633800000001
 30
0.0
 11
358.04858999999999
 21
1561.320232
 31
0.0
  0
LINE
  5
486
  8
DETAIL
  6
CONTINUOUS
 62
     5
 10
354.23681900000003
 20
1583.682172
 30
0.0
 11
356.50349
 21
1572.5633800000001
 31
0.0
  0
LINE
  5
487
  8
DETAIL
  6
CONTINUOUS
 62
     5
 10
351.25811099999999
 20
1594.6298360000001
 30
0.0
 11
354.23681900000003
 21
1583.682172
 31
0.0
  0
LINE
  5
488
  8
DETAIL
  6
CONTINUOUS
 62
     5
 10
347.57989600000002
 20
1605.360324
 30
0.0
 11
351.25811099999999
 21
1594.6298360000001
 31
0.0
  0
LINE
  5
489
  8
DETAIL
  6
CONTINUOUS
 62
     5
 10
343.217645
 20
1615.828497
 30
0.0
 11
347.57989600000002
 21
1605.360324
 31
0.0
  0
LINE
  5
48A
  8
DETAIL
  6
CONTINUOUS
 62
     5
 10
338.18970999999999
 20
1625.990321
 30
0.0
 11
343.217645
 21
1615.828497
 31
0.0
  0
LINE
  5
48B
  8
DETAIL
  6
CONTINUOUS
 62
     5
 10
332.51723800000002
 20
1635.8030530000001
 30
0.0
 11
338.18970999999999
 21
1625.990321
 31
0.0
  0
LINE
  5
48C
  8
DETAIL
  6
CONTINUOUS
 62
     5
 10
359.40573599999999
 20
1561.320232
 30
0.0
 11
360.22438526806968
 21
1550.0121590000001
 31
0.0
  0
LINE
  5
48D
  8
DETAIL
  6
CONTINUOUS
 62
     5
 10
357.85590999999999
 20
1572.5633800000001
 30
0.0
 11
359.40573599999999
 21
1561.320232
 31
0.0
  0
LINE
  5
48E
  8
DETAIL
  6
CONTINUOUS
 62
     5
 10
355.58230500000002
 20
1583.682172
 30
0.0
 11
357.85590999999999
 21
1572.5633800000001
 31
0.0
  0
LINE
  5
48F
  8
DETAIL
  6
CONTINUOUS
 62
     5
 10
352.59448600000002
 20
1594.6298360000001
 30
0.0
 11
355.58230500000002
 21
1583.682172
 31
0.0
  0
LINE
  5
490
  8
DETAIL
  6
CONTINUOUS
 62
     5
 10
348.90501899999998
 20
1605.360324
 30
0.0
 11
352.59448600000002
 21
1594.6298360000001
 31
0.0
  0
LINE
  5
491
  8
DETAIL
  6
CONTINUOUS
 62
     5
 10
344.529425
 20
1615.828497
 30
0.0
 11
348.90501899999998
 21
1605.360324
 31
0.0
  0
LINE
  5
492
  8
DETAIL
  6
CONTINUOUS
 62
     5
 10
339.486109
 20
1625.990321
 30
0.0
 11
344.529425
 21
1615.828497
 31
0.0
  0
LINE
  5
493
  8
DETAIL
  6
CONTINUOUS
 62
     5
 10
333.79628600000001
 20
1635.8030530000001
 30
0.0
 11
339.486109
 21
1625.990321
 31
0.0
  0
LINE
  5
494
  8
DETAIL
  6
CONTINUOUS
 62
     5
 10
359.19646599999999
 20
1561.320232
 30
0.0
 11
360.01511526806962
 21
1550.0121590000001
 31
0.0
  0
LINE
  5
495
  8
DETAIL
  6
CONTINUOUS
 62
     5
 10
357.64663999999999
 20
1572.5633800000001
 30
0.0
 11
359.19646599999999
 21
1561.320232
 31
0.0
  0
LINE
  5
496
  8
DETAIL
  6
CONTINUOUS
 62
     5
 10
355.37303600000001
 20
1583.682172
 30
0.0
 11
357.64663999999999
 21
1572.5633800000001
 31
0.0
  0
LINE
  5
497
  8
DETAIL
  6
CONTINUOUS
 62
     5
 10
352.38521600000001
 20
1594.6298360000001
 30
0.0
 11
355.37303600000001
 21
1583.682172
 31
0.0
  0
LINE
  5
498
  8
DETAIL
  6
CONTINUOUS
 62
     5
 10
348.69574999999998
 20
1605.360324
 30
0.0
 11
352.38521600000001
 21
1594.6298360000001
 31
0.0
  0
LINE
  5
499
  8
DETAIL
  6
CONTINUOUS
 62
     5
 10
344.320156
 20
1615.828497
 30
0.0
 11
348.69574999999998
 21
1605.360324
 31
0.0
  0
LINE
  5
49A
  8
DETAIL
  6
CONTINUOUS
 62
     5
 10
339.27683999999999
 20
1625.990321
 30
0.0
 11
344.320156
 21
1615.828497
 31
0.0
  0
LINE
  5
49B
  8
DETAIL
  6
CONTINUOUS
 62
     5
 10
333.58701600000001
 20
1635.8030530000001
 30
0.0
 11
339.27683999999999
 21
1625.990321
 31
0.0
  0
LINE
  5
49C
  8
DETAIL
  6
CONTINUOUS
 62
     5
 10
360.011416
 20
1561.320232
 30
0.0
 11
360.83156365970751
 21
1550.0121590000001
 31
0.0
  0
LINE
  5
49D
  8
DETAIL
  6
CONTINUOUS
 62
     5
 10
358.458752
 20
1572.5633800000001
 30
0.0
 11
360.011416
 21
1561.320232
 31
0.0
  0
LINE
  5
49E
  8
DETAIL
  6
CONTINUOUS
 62
     5
 10
356.18098400000002
 20
1583.682172
 30
0.0
 11
358.458752
 21
1572.5633800000001
 31
0.0
  0
LINE
  5
49F
  8
DETAIL
  6
CONTINUOUS
 62
     5
 10
353.18769300000002
 20
1594.6298360000001
 30
0.0
 11
356.18098400000002
 21
1583.682172
 31
0.0
  0
LINE
  5
4A0
  8
DETAIL
  6
CONTINUOUS
 62
     5
 10
349.49146999999999
 20
1605.360324
 30
0.0
 11
353.18769300000002
 21
1594.6298360000001
 31
0.0
  0
LINE
  5
4A1
  8
DETAIL
  6
CONTINUOUS
 62
     5
 10
345.10786300000001
 20
1615.828497
 30
0.0
 11
349.49146999999999
 21
1605.360324
 31
0.0
  0
LINE
  5
4A2
  8
DETAIL
  6
CONTINUOUS
 62
     5
 10
340.05531200000001
 20
1625.990321
 30
0.0
 11
345.10786300000001
 21
1615.828497
 31
0.0
  0
LINE
  5
4A3
  8
DETAIL
  6
CONTINUOUS
 62
     5
 10
334.35506900000001
 20
1635.8030530000001
 30
0.0
 11
340.05531200000001
 21
1625.990321
 31
0.0
  0
LINE
  5
4A4
  8
DETAIL
  6
CONTINUOUS
 62
     5
 10
359.90671700000001
 20
1561.320232
 30
0.0
 11
360.72686565863518
 21
1550.0121590000001
 31
0.0
  0
LINE
  5
4A5
  8
DETAIL
  6
CONTINUOUS
 62
     5
 10
358.35405300000002
 20
1572.5633800000001
 30
0.0
 11
359.90671700000001
 21
1561.320232
 31
0.0
  0
LINE
  5
4A6
  8
DETAIL
  6
CONTINUOUS
 62
     5
 10
356.07628499999998
 20
1583.682172
 30
0.0
 11
358.35405300000002
 21
1572.5633800000001
 31
0.0
  0
LINE
  5
4A7
  8
DETAIL
  6
CONTINUOUS
 62
     5
 10
353.08299399999999
 20
1594.6298360000001
 30
0.0
 11
356.07628499999998
 21
1583.682172
 31
0.0
  0
LINE
  5
4A8
  8
DETAIL
  6
CONTINUOUS
 62
     5
 10
349.38677100000001
 20
1605.360324
 30
0.0
 11
353.08299399999999
 21
1594.6298360000001
 31
0.0
  0
LINE
  5
4A9
  8
DETAIL
  6
CONTINUOUS
 62
     5
 10
345.00316500000002
 20
1615.828497
 30
0.0
 11
349.38677100000001
 21
1605.360324
 31
0.0
  0
LINE
  5
4AA
  8
DETAIL
  6
CONTINUOUS
 62
     5
 10
339.95061299999998
 20
1625.990321
 30
0.0
 11
345.00316500000002
 21
1615.828497
 31
0.0
  0
LINE
  5
4AB
  8
DETAIL
  6
CONTINUOUS
 62
     5
 10
334.25037099999997
 20
1635.8030530000001
 30
0.0
 11
339.95061299999998
 21
1625.990321
 31
0.0
  0
LINE
  5
4CA
  8
DETAIL
  6
CONTINUOUS
 62
     5
 10
-360.99952500000001
 20
1550.0121590000001
 30
0.0
 11
360.99952500000001
 21
1550.0121590000001
 31
0.0
  0
LINE
  5
533
  8
DETAIL
  6
CONTINUOUS
 62
     5
 10
343.01361400000002
 20
1561.320232
 30
0.0
 11
343.79409623627271
 21
1550.0121590000001
 31
0.0
  0
LINE
  5
534
  8
DETAIL
  6
CONTINUOUS
 62
     5
 10
341.53604200000001
 20
1572.5633800000001
 30
0.0
 11
343.01361400000002
 21
1561.320232
 31
0.0
  0
LINE
  5
53B
  8
DETAIL
  6
CONTINUOUS
 62
     5
 10
342.08656300000001
 20
1561.320232
 30
0.0
 11
342.86704523627282
 21
1550.0121590000001
 31
0.0
  0
LINE
  5
548
  8
DETAIL
  6
CONTINUOUS
 62
     5
 10
288.93782800000002
 20
48.499993000000003
 30
0.0
 11
290.66987799999998
 21
51.499993000000003
 31
0.0
  0
LINE
  5
5A2
  8
DETAIL
  6
CONTINUOUS
 62
     5
 10
366.87550399999998
 20
1416.0709939999999
 30
0.0
 11
366.820243
 21
1416.6946849999999
 31
0.0
  0
LINE
  5
5A3
  8
DETAIL
  6
CONTINUOUS
 62
     5
 10
367.02043500000002
 20
1415.3108870000001
 30
0.0
 11
366.87550399999998
 21
1416.0709939999999
 31
0.0
  0
LINE
  5
5A4
  8
DETAIL
  6
CONTINUOUS
 62
     5
 10
367.248377
 20
1414.5714210000001
 30
0.0
 11
367.02043500000002
 21
1415.3108870000001
 31
0.0
  0
LINE
  5
5A5
  8
DETAIL
  6
CONTINUOUS
 62
     5
 10
367.55654399999997
 20
1413.861631
 30
0.0
 11
367.248377
 21
1414.5714210000001
 31
0.0
  0
LINE
  5
5A6
  8
DETAIL
  6
CONTINUOUS
 62
     5
 10
367.94117
 20
1413.190192
 30
0.0
 11
367.55654399999997
 21
1413.861631
 31
0.0
  0
LINE
  5
5A7
  8
DETAIL
  6
CONTINUOUS
 62
     5
 10
368.39755600000001
 20
1412.565308
 30
0.0
 11
367.94117
 21
1413.190192
 31
0.0
  0
LINE
  5
5A8
  8
DETAIL
  6
CONTINUOUS
 62
     5
 10
368.92012399999999
 20
1411.9946150000001
 30
0.0
 11
368.39755600000001
 21
1412.565308
 31
0.0
  0
LINE
  5
5A9
  8
DETAIL
  6
CONTINUOUS
 62
     5
 10
369.50248800000003
 20
1411.485087
 30
0.0
 11
368.92012399999999
 21
1411.9946150000001
 31
0.0
  0
LINE
  5
5AA
  8
DETAIL
  6
CONTINUOUS
 62
     5
 10
370.13753400000002
 20
1411.04295
 30
0.0
 11
369.50248800000003
 21
1411.485087
 31
0.0
  0
LINE
  5
5AB
  8
DETAIL
  6
CONTINUOUS
 62
     5
 10
370.817499
 20
1410.6736060000001
 30
0.0
 11
370.13753400000002
 21
1411.04295
 31
0.0
  0
LINE
  5
5AC
  8
DETAIL
  6
CONTINUOUS
 62
     5
 10
371.53407700000002
 20
1410.38157
 30
0.0
 11
370.817499
 21
1410.6736060000001
 31
0.0
  0
LINE
  5
5AD
  8
DETAIL
  6
CONTINUOUS
 62
     5
 10
372.27850899999999
 20
1410.1704099999999
 30
0.0
 11
371.53407700000002
 21
1410.38157
 31
0.0
  0
LINE
  5
5AE
  8
DETAIL
  6
CONTINUOUS
 62
     5
 10
373.04169899999999
 20
1410.042706
 30
0.0
 11
372.27850899999999
 21
1410.1704099999999
 31
0.0
  0
LINE
  5
5AF
  8
DETAIL
  6
CONTINUOUS
 62
     5
 10
373.81358399999999
 20
1410.000018
 30
0.0
 11
373.04169899999999
 21
1410.042706
 31
0.0
  0
LINE
  5
5B0
  8
DETAIL
  6
CONTINUOUS
 62
     5
 10
380.00000699999998
 20
1410.000018
 30
0.0
 11
-380.00000699999998
 21
1410.000018
 31
0.0
  0
LINE
  5
5F6
  8
DETAIL
  6
CONTINUOUS
 62
     5
 10
380.00000699999998
 20
1370.0000170000001
 30
0.0
 11
-380.00000699999998
 21
1370.0000170000001
 31
0.0
  0
LINE
  5
5F7
  8
DETAIL
  6
CONTINUOUS
 62
     5
 10
349.84251999999998
 20
1561.320232
 30
0.0
 11
350.63879228735152
 21
1550.0121590000001
 31
0.0
  0
LINE
  5
5F8
  8
DETAIL
  6
CONTINUOUS
 62
     5
 10
348.335059
 20
1572.5633800000001
 30
0.0
 11
349.84251999999998
 21
1561.320232
 31
0.0
  0
LINE
  5
5F9
  8
DETAIL
  6
CONTINUOUS
 62
     5
 10
346.123603
 20
1583.682172
 30
0.0
 11
348.335059
 21
1572.5633800000001
 31
0.0
  0
LINE
  5
68C
  8
DETAIL
  6
CONTINUOUS
 62
     5
 10
380.00000699999998
 20
1370.0000170000001
 30
0.0
 11
380.00000699999998
 21
1410.000018
 31
0.0
  0
LINE
  5
68D
  8
DETAIL
  6
CONTINUOUS
 62
     5
 10
375.50000699999998
 20
58.999993000000011
 30
0.0
 11
375.50000699999998
 21
1370.0000170000001
 31
0.0
  0
LINE
  5
68E
  8
DETAIL
  6
CONTINUOUS
 62
     5
 10
375.30000699999999
 20
58.999993000000011
 30
0.0
 11
375.30000699999999
 21
55.499993000000003
 31
0.0
  0
LINE
  5
68F
  8
DETAIL
  6
CONTINUOUS
 62
     5
 10
374.50000699999998
 20
58.999993000000011
 30
0.0
 11
374.50000699999998
 21
55.499993000000003
 31
0.0
  0
LINE
  5
690
  8
DETAIL
  6
CONTINUOUS
 62
     5
 10
360.99952500000001
 20
1550.0121590000001
 30
0.0
 11
366.82020199999999
 21
1416.6956399999999
 31
0.0
  0
LINE
  5
6DE
  8
DETAIL
  6
CONTINUOUS
 62
     5
 10
368.30000699999999
 20
55.299993000000001
 30
0.0
 11
368.30000699999999
 21
54.499993000000003
 31
0.0
  0
LINE
  5
6DF
  8
DETAIL
  6
CONTINUOUS
 62
     5
 10
328.00000599999998
 20
12.699992
 30
0.0
 11
328.00000599999998
 21
47.299993000000001
 31
0.0
  0
LINE
  5
6E0
  8
DETAIL
  6
CONTINUOUS
 62
     5
 10
325.00000599999998
 20
49.999992999999989
 30
0.0
 11
325.00000599999998
 21
7.2999919999999987
 31
0.0
  0
LINE
  5
6E1
  8
DETAIL
  6
CONTINUOUS
 62
     5
 10
322.70000599999997
 20
7.2999919999999987
 30
0.0
 11
322.70000599999997
 21
8.9999920000000007
 31
0.0
  0
LINE
  5
6E2
  8
DETAIL
  6
CONTINUOUS
 62
     5
 10
320.00000599999998
 20
1641.6000220000001
 30
0.0
 11
320.00000599999998
 21
1640.5000219999999
 31
0.0
  0
LINE
  5
735
  8
DETAIL
  6
CONTINUOUS
 62
     5
 10
300.00000599999998
 20
1642.3000219999999
 30
0.0
 11
300.00000599999998
 21
1641.6000220000001
 31
0.0
  0
LINE
  5
736
  8
DETAIL
  6
CONTINUOUS
 62
     5
 10
300.00000599999998
 20
13.999992000000001
 30
0.0
 11
300.00000599999998
 21
53.999993000000011
 31
0.0
  0
LINE
  5
737
  8
DETAIL
  6
CONTINUOUS
 62
     5
 10
280.00000499999999
 20
1643.0000219999999
 30
0.0
 11
280.00000499999999
 21
1642.3000219999999
 31
0.0
  0
LINE
  5
738
  8
DETAIL
  6
CONTINUOUS
 62
     5
 10
260.00000499999999
 20
1643.700022
 30
0.0
 11
260.00000499999999
 21
1643.0000219999999
 31
0.0
  0
LINE
  5
791
  8
DETAIL
  6
CONTINUOUS
 62
     5
 10
240.00000399999999
 20
1644.400022
 30
0.0
 11
240.00000399999999
 21
1643.700022
 31
0.0
  0
LINE
  5
795
  8
DETAIL
  6
CONTINUOUS
 62
     5
 10
220.00000399999999
 20
1645.1000220000001
 30
0.0
 11
220.00000399999999
 21
1644.400022
 31
0.0
  0
LINE
  5
798
  8
DETAIL
  6
CONTINUOUS
 62
     5
 10
200.00000399999999
 20
1645.8000219999999
 30
0.0
 11
200.00000399999999
 21
1645.1000220000001
 31
0.0
  0
LINE
  5
7CD
  8
DETAIL
  6
CONTINUOUS
 62
     5
 10
180.00000299999991
 20
1646.5000219999999
 30
0.0
 11
180.00000299999991
 21
1645.8000219999999
 31
0.0
  0
LINE
  5
7CF
  8
DETAIL
  6
CONTINUOUS
 62
     5
 10
173.50000299999999
 20
61.999993000000003
 30
0.0
 11
173.50000299999999
 21
83.999994000000001
 31
0.0
  0
LINE
  5
7D1
  8
DETAIL
  6
CONTINUOUS
 62
     5
 10
160.00000299999999
 20
1647.200022
 30
0.0
 11
160.00000299999999
 21
1646.5000219999999
 31
0.0
  0
LINE
  5
7D4
  8
DETAIL
  6
CONTINUOUS
 62
     5
 10
140.00000299999999
 20
1647.900022
 30
0.0
 11
140.00000299999999
 21
1647.200022
 31
0.0
  0
LINE
  5
80C
  8
DETAIL
  6
CONTINUOUS
 62
     5
 10
120.00000199999999
 20
1648.6000220000001
 30
0.0
 11
120.00000199999999
 21
1647.900022
 31
0.0
  0
LINE
  5
80F
  8
DETAIL
  6
CONTINUOUS
 62
     5
 10
100.00000199999999
 20
1649.300023
 30
0.0
 11
100.00000199999999
 21
1648.6000220000001
 31
0.0
  0
LINE
  5
812
  8
DETAIL
  6
CONTINUOUS
 62
     5
 10
80.000000999999983
 20
1649.300023
 30
0.0
 11
80.000000999999983
 21
1650.0000230000001
 31
0.0
  0
LINE
  5
92C
  8
DETAIL
  6
CONTINUOUS
 62
     5
 10
-80.000000999999983
 20
1649.300023
 30
0.0
 11
-80.000000999999983
 21
1650.0000230000001
 31
0.0
  0
LINE
  5
92F
  8
DETAIL
  6
CONTINUOUS
 62
     5
 10
-100.00000199999999
 20
1649.300023
 30
0.0
 11
-100.00000199999999
 21
1648.6000220000001
 31
0.0
  0
LINE
  5
97F
  8
DETAIL
  6
CONTINUOUS
 62
     5
 10
-120.00000199999999
 20
1648.6000220000001
 30
0.0
 11
-120.00000199999999
 21
1647.900022
 31
0.0
  0
LINE
  5
982
  8
DETAIL
  6
CONTINUOUS
 62
     5
 10
-140.00000299999999
 20
1647.900022
 30
0.0
 11
-140.00000299999999
 21
1647.200022
 31
0.0
  0
LINE
  5
985
  8
DETAIL
  6
CONTINUOUS
 62
     5
 10
-160.00000299999999
 20
1647.200022
 30
0.0
 11
-160.00000299999999
 21
1646.5000219999999
 31
0.0
  0
LINE
  5
9CF
  8
DETAIL
  6
CONTINUOUS
 62
     5
 10
-180.00000299999991
 20
1646.5000219999999
 30
0.0
 11
-180.00000299999991
 21
1645.8000219999999
 31
0.0
  0
LINE
  5
9D2
  8
DETAIL
  6
CONTINUOUS
 62
     5
 10
-200.00000399999999
 20
1645.8000219999999
 30
0.0
 11
-200.00000399999999
 21
1645.1000220000001
 31
0.0
  0
LINE
  5
9D5
  8
DETAIL
  6
CONTINUOUS
 62
     5
 10
-220.00000399999999
 20
1645.1000220000001
 30
0.0
 11
-220.00000399999999
 21
1644.400022
 31
0.0
  0
LINE
  5
A39
  8
DETAIL
  6
CONTINUOUS
 62
     5
 10
-240.00000399999999
 20
1644.400022
 30
0.0
 11
-240.00000399999999
 21
1643.700022
 31
0.0
  0
LINE
  5
A3A
  8
DETAIL
  6
CONTINUOUS
 62
     5
 10
-260.00000499999999
 20
1643.700022
 30
0.0
 11
-260.00000499999999
 21
1643.0000219999999
 31
0.0
  0
LINE
  5
A3B
  8
DETAIL
  6
CONTINUOUS
 62
     5
 10
-280.00000499999999
 20
1643.0000219999999
 30
0.0
 11
-280.00000499999999
 21
1642.3000219999999
 31
0.0
  0
LINE
  5
A8C
  8
DETAIL
  6
CONTINUOUS
 62
     5
 10
-300.00000599999998
 20
53.999993000000011
 30
0.0
 11
-300.00000599999998
 21
13.999992000000001
 31
0.0
  0
LINE
  5
A8D
  8
DETAIL
  6
CONTINUOUS
 62
     5
 10
-300.00000599999998
 20
1642.3000219999999
 30
0.0
 11
-300.00000599999998
 21
1641.6000220000001
 31
0.0
  0
LINE
  5
A8E
  8
DETAIL
  6
CONTINUOUS
 62
     5
 10
-308.50000599999998
 20
63.999993000000011
 30
0.0
 11
-308.50000599999998
 21
83.999994000000001
 31
0.0
  0
LINE
  5
A8F
  8
DETAIL
  6
CONTINUOUS
 62
     5
 10
-320.00000599999998
 20
1641.6000220000001
 30
0.0
 11
-320.00000599999998
 21
1640.5000219999999
 31
0.0
  0
LINE
  5
A90
  8
DETAIL
  6
CONTINUOUS
 62
     5
 10
-322.70000599999997
 20
7.2999919999999987
 30
0.0
 11
-322.70000599999997
 21
8.9999920000000007
 31
0.0
  0
LINE
  5
A91
  8
DETAIL
  6
CONTINUOUS
 62
     5
 10
-325.00000599999998
 20
49.999992999999989
 30
0.0
 11
-325.00000599999998
 21
7.2999919999999987
 31
0.0
  0
LINE
  5
A92
  8
DETAIL
  6
CONTINUOUS
 62
     5
 10
-328.00000599999998
 20
12.699992
 30
0.0
 11
-328.00000599999998
 21
47.299993000000001
 31
0.0
  0
LINE
  5
AE4
  8
DETAIL
  6
CONTINUOUS
 62
     5
 10
-366.77844599999997
 20
1417.6520009999999
 30
0.0
 11
-360.99952500000001
 21
1550.0121590000001
 31
0.0
  0
LINE
  5
AE5
  8
DETAIL
  6
CONTINUOUS
 62
     5
 10
-375.70000700000003
 20
58.999993000000011
 30
0.0
 11
-375.70000700000003
 21
1370.0000170000001
 31
0.0
  0
LINE
  5
AE6
  8
DETAIL
  6
CONTINUOUS
 62
     5
 10
-380.00000699999998
 20
1410.000018
 30
0.0
 11
-380.00000699999998
 21
1370.0000170000001
 31
0.0
  0
LINE
  5
B21
  8
DETAIL
  6
CONTINUOUS
 62
     5
 10
-373.13452100000001
 20
1410.169159
 30
0.0
 11
-374.220753
 21
1410.000018
 31
0.0
  0
LINE
  5
B22
  8
DETAIL
  6
CONTINUOUS
 62
     5
 10
-372.33766100000003
 20
1410.3790289999999
 30
0.0
 11
-373.13452100000001
 21
1410.169159
 31
0.0
  0
LINE
  5
B23
  8
DETAIL
  6
CONTINUOUS
 62
     5
 10
-371.56661700000001
 20
1410.6697569999999
 30
0.0
 11
-372.33766100000003
 21
1410.3790289999999
 31
0.0
  0
LINE
  5
B24
  8
DETAIL
  6
CONTINUOUS
 62
     5
 10
-370.8295700000001
 20
1411.0382569999999
 30
0.0
 11
-371.56661700000001
 21
1410.6697569999999
 31
0.0
  0
LINE
  5
B25
  8
DETAIL
  6
CONTINUOUS
 62
     5
 10
-370.13433900000001
 20
1411.4806209999999
 30
0.0
 11
-370.8295700000001
 21
1411.0382569999999
 31
0.0
  0
LINE
  5
B26
  8
DETAIL
  6
CONTINUOUS
 62
     5
 10
-369.48830199999998
 20
1411.992154
 30
0.0
 11
-370.13433900000001
 21
1411.4806209999999
 31
0.0
  0
LINE
  5
B27
  8
DETAIL
  6
CONTINUOUS
 62
     5
 10
-368.89831199999998
 20
1412.5674300000001
 30
0.0
 11
-369.48830199999998
 21
1411.992154
 31
0.0
  0
LINE
  5
B28
  8
DETAIL
  6
CONTINUOUS
 62
     5
 10
-368.3706279999999
 20
1413.200345
 30
0.0
 11
-368.89831199999998
 21
1412.5674300000001
 31
0.0
  0
LINE
  5
B29
  8
DETAIL
  6
CONTINUOUS
 62
     5
 10
-367.91085099999998
 20
1413.884184
 30
0.0
 11
-368.3706279999999
 21
1413.200345
 31
0.0
  0
LINE
  5
B2A
  8
DETAIL
  6
CONTINUOUS
 62
     5
 10
-367.52385700000002
 20
1414.6116919999999
 30
0.0
 11
-367.91085099999998
 21
1413.884184
 31
0.0
  0
LINE
  5
B2B
  8
DETAIL
  6
CONTINUOUS
 62
     5
 10
-367.213753
 20
1415.375149
 30
0.0
 11
-367.52385700000002
 21
1414.6116919999999
 31
0.0
  0
LINE
  5
B2C
  8
DETAIL
  6
CONTINUOUS
 62
     5
 10
-366.9838299999999
 20
1416.166455
 30
0.0
 11
-367.213753
 21
1415.375149
 31
0.0
  0
LINE
  5
B2D
  8
DETAIL
  6
CONTINUOUS
 62
     5
 10
-366.83652499999999
 20
1416.977216
 30
0.0
 11
-366.9838299999999
 21
1416.166455
 31
0.0
  0
LINE
  5
B2E
  8
DETAIL
  6
CONTINUOUS
 62
     5
 10
-366.77848699999998
 20
1417.6510659999999
 30
0.0
 11
-366.83652499999999
 21
1416.977216
 31
0.0
  0
LINE
  5
B86
  8
DETAIL
  6
CONTINUOUS
 62
     5
 10
-349.84251999999998
 20
1561.320232
 30
0.0
 11
-350.63879228735152
 21
1550.0121590000001
 31
0.0
  0
LINE
  5
B87
  8
DETAIL
  6
CONTINUOUS
 62
     5
 10
-348.335059
 20
1572.5633800000001
 30
0.0
 11
-349.84251999999998
 21
1561.320232
 31
0.0
  0
LINE
  5
B88
  8
DETAIL
  6
CONTINUOUS
 62
     5
 10
-346.123603
 20
1583.682172
 30
0.0
 11
-348.335059
 21
1572.5633800000001
 31
0.0
  0
LINE
  5
BCE
  8
DETAIL
  6
CONTINUOUS
 62
     5
 10
-290.41390000000001
 20
52.327733000000002
 30
0.0
 11
-288.11619200000001
 21
47.672252999999998
 31
0.0
  0
LINE
  5
C4B
  8
DETAIL
  6
CONTINUOUS
 62
     5
 10
-359.90671700000001
 20
1561.320232
 30
0.0
 11
-360.72686565863518
 21
1550.0121590000001
 31
0.0
  0
LINE
  5
C4C
  8
DETAIL
  6
CONTINUOUS
 62
     5
 10
-358.35405300000002
 20
1572.5633800000001
 30
0.0
 11
-359.90671700000001
 21
1561.320232
 31
0.0
  0
LINE
  5
C4D
  8
DETAIL
  6
CONTINUOUS
 62
     5
 10
-356.07628499999998
 20
1583.682172
 30
0.0
 11
-358.35405300000002
 21
1572.5633800000001
 31
0.0
  0
LINE
  5
C4E
  8
DETAIL
  6
CONTINUOUS
 62
     5
 10
-353.08299399999999
 20
1594.6298360000001
 30
0.0
 11
-356.07628499999998
 21
1583.682172
 31
0.0
  0
LINE
  5
C4F
  8
DETAIL
  6
CONTINUOUS
 62
     5
 10
-349.38677100000001
 20
1605.360324
 30
0.0
 11
-353.08299399999999
 21
1594.6298360000001
 31
0.0
  0
LINE
  5
C50
  8
DETAIL
  6
CONTINUOUS
 62
     5
 10
-345.00316500000002
 20
1615.828497
 30
0.0
 11
-349.38677100000001
 21
1605.360324
 31
0.0
  0
LINE
  5
C51
  8
DETAIL
  6
CONTINUOUS
 62
     5
 10
-339.95061299999998
 20
1625.990321
 30
0.0
 11
-345.00316500000002
 21
1615.828497
 31
0.0
  0
LINE
  5
C52
  8
DETAIL
  6
CONTINUOUS
 62
     5
 10
-334.25037099999997
 20
1635.8030530000001
 30
0.0
 11
-339.95061299999998
 21
1625.990321
 31
0.0
  0
LINE
  5
C53
  8
DETAIL
  6
CONTINUOUS
 62
     5
 10
-360.011416
 20
1561.320232
 30
0.0
 11
-360.83156365970751
 21
1550.0121590000001
 31
0.0
  0
LINE
  5
C54
  8
DETAIL
  6
CONTINUOUS
 62
     5
 10
-358.458752
 20
1572.5633800000001
 30
0.0
 11
-360.011416
 21
1561.320232
 31
0.0
  0
LINE
  5
C55
  8
DETAIL
  6
CONTINUOUS
 62
     5
 10
-356.18098400000002
 20
1583.682172
 30
0.0
 11
-358.458752
 21
1572.5633800000001
 31
0.0
  0
LINE
  5
C56
  8
DETAIL
  6
CONTINUOUS
 62
     5
 10
-353.18769300000002
 20
1594.6298360000001
 30
0.0
 11
-356.18098400000002
 21
1583.682172
 31
0.0
  0
LINE
  5
C57
  8
DETAIL
  6
CONTINUOUS
 62
     5
 10
-349.49146999999999
 20
1605.360324
 30
0.0
 11
-353.18769300000002
 21
1594.6298360000001
 31
0.0
  0
LINE
  5
C58
  8
DETAIL
  6
CONTINUOUS
 62
     5
 10
-345.10786300000001
 20
1615.828497
 30
0.0
 11
-349.49146999999999
 21
1605.360324
 31
0.0
  0
LINE
  5
C59
  8
DETAIL
  6
CONTINUOUS
 62
     5
 10
-340.05531200000001
 20
1625.990321
 30
0.0
 11
-345.10786300000001
 21
1615.828497
 31
0.0
  0
LINE
  5
C5A
  8
DETAIL
  6
CONTINUOUS
 62
     5
 10
-334.35506900000001
 20
1635.8030530000001
 30
0.0
 11
-340.05531200000001
 21
1625.990321
 31
0.0
  0
LINE
  5
C5B
  8
DETAIL
  6
CONTINUOUS
 62
     5
 10
-359.19646599999999
 20
1561.320232
 30
0.0
 11
-360.01511526806962
 21
1550.0121590000001
 31
0.0
  0
LINE
  5
C5C
  8
DETAIL
  6
CONTINUOUS
 62
     5
 10
-357.64663999999999
 20
1572.5633800000001
 30
0.0
 11
-359.19646599999999
 21
1561.320232
 31
0.0
  0
LINE
  5
C5D
  8
DETAIL
  6
CONTINUOUS
 62
     5
 10
-355.37303600000001
 20
1583.682172
 30
0.0
 11
-357.64663999999999
 21
1572.5633800000001
 31
0.0
  0
LINE
  5
C5E
  8
DETAIL
  6
CONTINUOUS
 62
     5
 10
-352.38521600000001
 20
1594.6298360000001
 30
0.0
 11
-355.37303600000001
 21
1583.682172
 31
0.0
  0
LINE
  5
C5F
  8
DETAIL
  6
CONTINUOUS
 62
     5
 10
-348.69574999999998
 20
1605.360324
 30
0.0
 11
-352.38521600000001
 21
1594.6298360000001
 31
0.0
  0
LINE
  5
C60
  8
DETAIL
  6
CONTINUOUS
 62
     5
 10
-344.320156
 20
1615.828497
 30
0.0
 11
-348.69574999999998
 21
1605.360324
 31
0.0
  0
LINE
  5
C61
  8
DETAIL
  6
CONTINUOUS
 62
     5
 10
-339.27683999999999
 20
1625.990321
 30
0.0
 11
-344.320156
 21
1615.828497
 31
0.0
  0
LINE
  5
C62
  8
DETAIL
  6
CONTINUOUS
 62
     5
 10
-333.58701600000001
 20
1635.8030530000001
 30
0.0
 11
-339.27683999999999
 21
1625.990321
 31
0.0
  0
LINE
  5
C63
  8
DETAIL
  6
CONTINUOUS
 62
     5
 10
-359.40573599999999
 20
1561.320232
 30
0.0
 11
-360.22438526806968
 21
1550.0121590000001
 31
0.0
  0
LINE
  5
C64
  8
DETAIL
  6
CONTINUOUS
 62
     5
 10
-357.85590999999999
 20
1572.5633800000001
 30
0.0
 11
-359.40573599999999
 21
1561.320232
 31
0.0
  0
LINE
  5
C65
  8
DETAIL
  6
CONTINUOUS
 62
     5
 10
-355.58230500000002
 20
1583.682172
 30
0.0
 11
-357.85590999999999
 21
1572.5633800000001
 31
0.0
  0
LINE
  5
C66
  8
DETAIL
  6
CONTINUOUS
 62
     5
 10
-352.59448600000002
 20
1594.6298360000001
 30
0.0
 11
-355.58230500000002
 21
1583.682172
 31
0.0
  0
LINE
  5
C67
  8
DETAIL
  6
CONTINUOUS
 62
     5
 10
-348.90501899999998
 20
1605.360324
 30
0.0
 11
-352.59448600000002
 21
1594.6298360000001
 31
0.0
  0
LINE
  5
C68
  8
DETAIL
  6
CONTINUOUS
 62
     5
 10
-344.529425
 20
1615.828497
 30
0.0
 11
-348.90501899999998
 21
1605.360324
 31
0.0
  0
LINE
  5
C69
  8
DETAIL
  6
CONTINUOUS
 62
     5
 10
-339.486109
 20
1625.990321
 30
0.0
 11
-344.529425
 21
1615.828497
 31
0.0
  0
LINE
  5
C6A
  8
DETAIL
  6
CONTINUOUS
 62
     5
 10
-333.79628600000001
 20
1635.8030530000001
 30
0.0
 11
-339.486109
 21
1625.990321
 31
0.0
  0
LINE
  5
C6B
  8
DETAIL
  6
CONTINUOUS
 62
     5
 10
-358.04858999999999
 20
1561.320232
 30
0.0
 11
-358.8647419486735
 21
1550.0121590000001
 31
0.0
  0
LINE
  5
C6C
  8
DETAIL
  6
CONTINUOUS
 62
     5
 10
-356.50349
 20
1572.5633800000001
 30
0.0
 11
-358.04858999999999
 21
1561.320232
 31
0.0
  0
LINE
  5
C6D
  8
DETAIL
  6
CONTINUOUS
 62
     5
 10
-354.23681900000003
 20
1583.682172
 30
0.0
 11
-356.50349
 21
1572.5633800000001
 31
0.0
  0
LINE
  5
C6E
  8
DETAIL
  6
CONTINUOUS
 62
     5
 10
-351.25811099999999
 20
1594.6298360000001
 30
0.0
 11
-354.23681900000003
 21
1583.682172
 31
0.0
  0
LINE
  5
C6F
  8
DETAIL
  6
CONTINUOUS
 62
     5
 10
-347.57989600000002
 20
1605.360324
 30
0.0
 11
-351.25811099999999
 21
1594.6298360000001
 31
0.0
  0
LINE
  5
C70
  8
DETAIL
  6
CONTINUOUS
 62
     5
 10
-343.217645
 20
1615.828497
 30
0.0
 11
-347.57989600000002
 21
1605.360324
 31
0.0
  0
LINE
  5
C71
  8
DETAIL
  6
CONTINUOUS
 62
     5
 10
-338.18970999999999
 20
1625.990321
 30
0.0
 11
-343.217645
 21
1615.828497
 31
0.0
  0
LINE
  5
C72
  8
DETAIL
  6
CONTINUOUS
 62
     5
 10
-332.51723800000002
 20
1635.8030530000001
 30
0.0
 11
-338.18970999999999
 21
1625.990321
 31
0.0
  0
LINE
  5
C73
  8
DETAIL
  6
CONTINUOUS
 62
     5
 10
-358.36217499999998
 20
1561.320232
 30
0.0
 11
-359.17832794760119
 21
1550.0121590000001
 31
0.0
  0
LINE
  5
C74
  8
DETAIL
  6
CONTINUOUS
 62
     5
 10
-356.81707499999999
 20
1572.5633800000001
 30
0.0
 11
-358.36217499999998
 21
1561.320232
 31
0.0
  0
LINE
  5
C75
  8
DETAIL
  6
CONTINUOUS
 62
     5
 10
-354.55040400000001
 20
1583.682172
 30
0.0
 11
-356.81707499999999
 21
1572.5633800000001
 31
0.0
  0
LINE
  5
C76
  8
DETAIL
  6
CONTINUOUS
 62
     5
 10
-351.57169599999997
 20
1594.6298360000001
 30
0.0
 11
-354.55040400000001
 21
1583.682172
 31
0.0
  0
LINE
  5
C77
  8
DETAIL
  6
CONTINUOUS
 62
     5
 10
-347.89348100000001
 20
1605.360324
 30
0.0
 11
-351.57169599999997
 21
1594.6298360000001
 31
0.0
  0
LINE
  5
C78
  8
DETAIL
  6
CONTINUOUS
 62
     5
 10
-343.53123099999999
 20
1615.828497
 30
0.0
 11
-347.89348100000001
 21
1605.360324
 31
0.0
  0
LINE
  5
C79
  8
DETAIL
  6
CONTINUOUS
 62
     5
 10
-338.50329499999998
 20
1625.990321
 30
0.0
 11
-343.53123099999999
 21
1615.828497
 31
0.0
  0
LINE
  5
C7A
  8
DETAIL
  6
CONTINUOUS
 62
     5
 10
-332.83082300000001
 20
1635.8030530000001
 30
0.0
 11
-338.50329499999998
 21
1625.990321
 31
0.0
  0
LINE
  5
C7B
  8
DETAIL
  6
CONTINUOUS
 62
     5
 10
-356.46448600000002
 20
1561.320232
 30
0.0
 11
-357.27714769508532
 21
1550.0121590000001
 31
0.0
  0
LINE
  5
C7C
  8
DETAIL
  6
CONTINUOUS
 62
     5
 10
-354.925995
 20
1572.5633800000001
 30
0.0
 11
-356.46448600000002
 21
1561.320232
 31
0.0
  0
LINE
  5
C7D
  8
DETAIL
  6
CONTINUOUS
 62
     5
 10
-352.66901899999999
 20
1583.682172
 30
0.0
 11
-354.925995
 21
1572.5633800000001
 31
0.0
  0
LINE
  5
C7E
  8
DETAIL
  6
CONTINUOUS
 62
     5
 10
-349.70305200000001
 20
1594.6298360000001
 30
0.0
 11
-352.66901899999999
 21
1583.682172
 31
0.0
  0
LINE
  5
C7F
  8
DETAIL
  6
CONTINUOUS
 62
     5
 10
-346.040569
 20
1605.360324
 30
0.0
 11
-349.70305200000001
 21
1594.6298360000001
 31
0.0
  0
LINE
  5
C80
  8
DETAIL
  6
CONTINUOUS
 62
     5
 10
-341.696977
 20
1615.828497
 30
0.0
 11
-346.040569
 21
1605.360324
 31
0.0
  0
LINE
  5
C81
  8
DETAIL
  6
CONTINUOUS
 62
     5
 10
-336.69054699999998
 20
1625.990321
 30
0.0
 11
-341.696977
 21
1615.828497
 31
0.0
  0
LINE
  5
C82
  8
DETAIL
  6
CONTINUOUS
 62
     5
 10
-331.04233799999997
 20
1635.8030530000001
 30
0.0
 11
-336.69054699999998
 21
1625.990321
 31
0.0
  0
LINE
  5
C83
  8
DETAIL
  6
CONTINUOUS
 62
     5
 10
-356.88200499999999
 20
1561.320232
 30
0.0
 11
-357.69466669508517
 21
1550.0121590000001
 31
0.0
  0
LINE
  5
C84
  8
DETAIL
  6
CONTINUOUS
 62
     5
 10
-355.34351400000003
 20
1572.5633800000001
 30
0.0
 11
-356.88200499999999
 21
1561.320232
 31
0.0
  0
LINE
  5
C85
  8
DETAIL
  6
CONTINUOUS
 62
     5
 10
-353.08653800000002
 20
1583.682172
 30
0.0
 11
-355.34351400000003
 21
1572.5633800000001
 31
0.0
  0
LINE
  5
C86
  8
DETAIL
  6
CONTINUOUS
 62
     5
 10
-350.12057099999998
 20
1594.6298360000001
 30
0.0
 11
-353.08653800000002
 21
1583.682172
 31
0.0
  0
LINE
  5
C87
  8
DETAIL
  6
CONTINUOUS
 62
     5
 10
-346.45808900000009
 20
1605.360324
 30
0.0
 11
-350.12057099999998
 21
1594.6298360000001
 31
0.0
  0
LINE
  5
C88
  8
DETAIL
  6
CONTINUOUS
 62
     5
 10
-342.11449699999997
 20
1615.828497
 30
0.0
 11
-346.45808900000009
 21
1605.360324
 31
0.0
  0
LINE
  5
C89
  8
DETAIL
  6
CONTINUOUS
 62
     5
 10
-337.10806700000001
 20
1625.990321
 30
0.0
 11
-342.11449699999997
 21
1615.828497
 31
0.0
  0
LINE
  5
C8A
  8
DETAIL
  6
CONTINUOUS
 62
     5
 10
-331.459858
 20
1635.8030530000001
 30
0.0
 11
-337.10806700000001
 21
1625.990321
 31
0.0
  0
LINE
  5
C8B
  8
DETAIL
  6
CONTINUOUS
 62
     5
 10
-354.44608499999998
 20
1561.320232
 30
0.0
 11
-355.25426550516062
 21
1550.0121590000001
 31
0.0
  0
LINE
  5
C8C
  8
DETAIL
  6
CONTINUOUS
 62
     5
 10
-352.91607699999997
 20
1572.5633800000001
 30
0.0
 11
-354.44608499999998
 21
1561.320232
 31
0.0
  0
LINE
  5
C8D
  8
DETAIL
  6
CONTINUOUS
 62
     5
 10
-350.67154599999998
 20
1583.682172
 30
0.0
 11
-352.91607699999997
 21
1572.5633800000001
 31
0.0
  0
LINE
  5
C8E
  8
DETAIL
  6
CONTINUOUS
 62
     5
 10
-347.72193299999998
 20
1594.6298360000001
 30
0.0
 11
-350.67154599999998
 21
1583.682172
 31
0.0
  0
LINE
  5
C8F
  8
DETAIL
  6
CONTINUOUS
 62
     5
 10
-344.07964600000003
 20
1605.360324
 30
0.0
 11
-347.72193299999998
 21
1594.6298360000001
 31
0.0
  0
LINE
  5
C90
  8
DETAIL
  6
CONTINUOUS
 62
     5
 10
-339.76000399999998
 20
1615.828497
 30
0.0
 11
-344.07964600000003
 21
1605.360324
 31
0.0
  0
LINE
  5
C91
  8
DETAIL
  6
CONTINUOUS
 62
     5
 10
-334.78118000000001
 20
1625.990321
 30
0.0
 11
-339.76000399999998
 21
1615.828497
 31
0.0
  0
LINE
  5
C93
  8
DETAIL
  6
CONTINUOUS
 62
     5
 10
-354.96703000000002
 20
1561.320232
 30
0.0
 11
-355.77521050516049
 21
1550.0121590000001
 31
0.0
  0
LINE
  5
C94
  8
DETAIL
  6
CONTINUOUS
 62
     5
 10
-353.43702200000001
 20
1572.5633800000001
 30
0.0
 11
-354.96703000000002
 21
1561.320232
 31
0.0
  0
LINE
  5
C95
  8
DETAIL
  6
CONTINUOUS
 62
     5
 10
-351.19249100000002
 20
1583.682172
 30
0.0
 11
-353.43702200000001
 21
1572.5633800000001
 31
0.0
  0
LINE
  5
C96
  8
DETAIL
  6
CONTINUOUS
 62
     5
 10
-348.24287800000002
 20
1594.6298360000001
 30
0.0
 11
-351.19249100000002
 21
1583.682172
 31
0.0
  0
LINE
  5
C97
  8
DETAIL
  6
CONTINUOUS
 62
     5
 10
-344.60059000000001
 20
1605.360324
 30
0.0
 11
-348.24287800000002
 21
1594.6298360000001
 31
0.0
  0
LINE
  5
C98
  8
DETAIL
  6
CONTINUOUS
 62
     5
 10
-340.28094900000002
 20
1615.828497
 30
0.0
 11
-344.60059000000001
 21
1605.360324
 31
0.0
  0
LINE
  5
C99
  8
DETAIL
  6
CONTINUOUS
 62
     5
 10
-335.30212399999999
 20
1625.990321
 30
0.0
 11
-340.28094900000002
 21
1615.828497
 31
0.0
  0
LINE
  5
C9A
  8
DETAIL
  6
CONTINUOUS
 62
     5
 10
-329.68505900000002
 20
1635.8030530000001
 30
0.0
 11
-335.30212399999999
 21
1625.990321
 31
0.0
  0
LINE
  5
C9B
  8
DETAIL
  6
CONTINUOUS
 62
     5
 10
-351.99584599999997
 20
1561.320232
 30
0.0
 11
-352.79856137139382
 21
1550.0121590000001
 31
0.0
  0
LINE
  5
C9C
  8
DETAIL
  6
CONTINUOUS
 62
     5
 10
-350.47618599999998
 20
1572.5633800000001
 30
0.0
 11
-351.99584599999997
 21
1561.320232
 31
0.0
  0
LINE
  5
C9D
  8
DETAIL
  6
CONTINUOUS
 62
     5
 10
-348.24683399999998
 20
1583.682172
 30
0.0
 11
-350.47618599999998
 21
1572.5633800000001
 31
0.0
  0
LINE
  5
C9E
  8
DETAIL
  6
CONTINUOUS
 62
     5
 10
-345.31716899999998
 20
1594.6298360000001
 30
0.0
 11
-348.24683399999998
 21
1583.682172
 31
0.0
  0
LINE
  5
C9F
  8
DETAIL
  6
CONTINUOUS
 62
     5
 10
-341.69951400000002
 20
1605.360324
 30
0.0
 11
-345.31716899999998
 21
1594.6298360000001
 31
0.0
  0
LINE
  5
CA3
  8
DETAIL
  6
CONTINUOUS
 62
     5
 10
-352.61958099999998
 20
1561.320232
 30
0.0
 11
-353.42229637139383
 21
1550.0121590000001
 31
0.0
  0
LINE
  5
CA4
  8
DETAIL
  6
CONTINUOUS
 62
     5
 10
-351.09992099999999
 20
1572.5633800000001
 30
0.0
 11
-352.61958099999998
 21
1561.320232
 31
0.0
  0
LINE
  5
CA5
  8
DETAIL
  6
CONTINUOUS
 62
     5
 10
-348.8705700000001
 20
1583.682172
 30
0.0
 11
-351.09992099999999
 21
1572.5633800000001
 31
0.0
  0
LINE
  5
CA6
  8
DETAIL
  6
CONTINUOUS
 62
     5
 10
-345.94090399999999
 20
1594.6298360000001
 30
0.0
 11
-348.8705700000001
 21
1583.682172
 31
0.0
  0
LINE
  5
CA7
  8
DETAIL
  6
CONTINUOUS
 62
     5
 10
-342.32324899999998
 20
1605.360324
 30
0.0
 11
-345.94090399999999
 21
1594.6298360000001
 31
0.0
  0
LINE
  5
CA8
  8
DETAIL
  6
CONTINUOUS
 62
     5
 10
-338.03282100000001
 20
1615.828497
 30
0.0
 11
-342.32324899999998
 21
1605.360324
 31
0.0
  0
LINE
  5
CAB
  8
DETAIL
  6
CONTINUOUS
 62
     5
 10
-349.11675500000001
 20
1561.320232
 30
0.0
 11
-349.91302628842368
 21
1550.0121590000001
 31
0.0
  0
LINE
  5
CAC
  8
DETAIL
  6
CONTINUOUS
 62
     5
 10
-347.60929299999998
 20
1572.5633800000001
 30
0.0
 11
-349.11675500000001
 21
1561.320232
 31
0.0
  0
LINE
  5
CAD
  8
DETAIL
  6
CONTINUOUS
 62
     5
 10
-345.3978370000001
 20
1583.682172
 30
0.0
 11
-347.60929299999998
 21
1572.5633800000001
 31
0.0
  0
LINE
  5
CB3
  8
DETAIL
  6
CONTINUOUS
 62
     5
 10
-343.21745499999997
 20
1594.6298360000001
 30
0.0
 11
-346.123603
 21
1583.682172
 31
0.0
  0
LINE
  5
CB8
  8
DETAIL
  6
CONTINUOUS
 62
     5
 10
-345.812318
 20
1561.320232
 30
0.0
 11
-346.60117624552782
 21
1550.0121590000001
 31
0.0
  0
LINE
  5
CC0
  8
DETAIL
  6
CONTINUOUS
 62
     5
 10
-346.63923
 20
1561.320232
 30
0.0
 11
-347.42808824552787
 21
1550.0121590000001
 31
0.0
  0
LINE
  5
CC1
  8
DETAIL
  6
CONTINUOUS
 62
     5
 10
-345.145804
 20
1572.5633800000001
 30
0.0
 11
-346.63923
 21
1561.320232
 31
0.0
  0
LINE
  5
CF0
  8
DETAIL
  6
CONTINUOUS
 62
     5
 10
375.50000699999998
 20
83.999993999999987
 30
0.0
 11
-308.50000599999998
 21
83.999994000000001
 31
0.0
  0
LINE
  5
CF1
  8
DETAIL
  6
CONTINUOUS
 62
     5
 10
176.50000299999999
 20
58.999993000000011
 30
0.0
 11
375.50000699999998
 21
58.999993000000011
 31
0.0
  0
LINE
  5
CF2
  8
DETAIL
  6
CONTINUOUS
 62
     5
 10
-375.70000700000003
 20
58.999993000000011
 30
0.0
 11
-313.50000599999998
 21
58.999993000000011
 31
0.0
  0
LINE
  5
CF3
  8
DETAIL
  6
CONTINUOUS
 62
     5
 10
368.30000699999999
 20
55.299993000000001
 30
0.0
 11
374.30000699999999
 21
55.299993000000001
 31
0.0
  0
LINE
  5
CF4
  8
DETAIL
  6
CONTINUOUS
 62
     5
 10
374.30000699999999
 20
54.499993000000003
 30
0.0
 11
368.30000699999999
 21
54.499993000000003
 31
0.0
  0
LINE
  5
CF5
  8
DETAIL
  6
CONTINUOUS
 62
     5
 10
-293.10408799999999
 20
53.999993000000011
 30
0.0
 11
-328.50000599999998
 21
53.999993000000011
 31
0.0
  0
LINE
  5
CF6
  8
DETAIL
  6
CONTINUOUS
 62
     5
 10
328.50000599999998
 20
53.999993000000011
 30
0.0
 11
295.00000499999999
 21
53.999993000000011
 31
0.0
  0
LINE
  5
CF7
  8
DETAIL
  6
CONTINUOUS
 62
     5
 10
-326.00000599999998
 20
47.299993000000001
 30
0.0
 11
-328.00000599999998
 21
47.299993000000001
 31
0.0
  0
LINE
  5
CF8
  8
DETAIL
  6
CONTINUOUS
 62
     5
 10
326.00000599999998
 20
47.299993000000001
 30
0.0
 11
328.00000599999998
 21
47.299993000000001
 31
0.0
  0
LINE
  5
CF9
  8
DETAIL
  6
CONTINUOUS
 62
     5
 10
284.60770000000002
 20
45.999992999999989
 30
0.0
 11
-285.42600499999998
 21
45.999992999999989
 31
0.0
  0
LINE
  5
D0F
  8
DETAIL
  6
CONTINUOUS
 62
     5
 10
-367.02064000000001
 20
56.512207999999987
 30
0.0
 11
-328.50000599999998
 21
53.999993000000011
 31
0.0
  0
LINE
  5
D10
  8
DETAIL
  6
CONTINUOUS
 62
     5
 10
-326.00000599999998
 20
12.699992
 30
0.0
 11
-328.00000599999998
 21
12.699992
 31
0.0
  0
LINE
  5
D11
  8
DETAIL
  6
CONTINUOUS
 62
     5
 10
326.00000599999998
 20
12.699992
 30
0.0
 11
328.00000599999998
 21
12.699992
 31
0.0
  0
LINE
  5
D12
  8
DETAIL
  6
CONTINUOUS
 62
     5
 10
-305.00000599999998
 20
8.9999920000000007
 30
0.0
 11
-325.00000599999998
 21
8.9999920000000007
 31
0.0
  0
LINE
  5
D13
  8
DETAIL
  6
CONTINUOUS
 62
     5
 10
325.00000599999998
 20
8.9999920000000007
 30
0.0
 11
305.00000599999998
 21
8.9999920000000007
 31
0.0
  0
LINE
  5
D14
  8
DETAIL
  6
CONTINUOUS
 62
     5
 10
367.02064000000001
 20
56.512207999999987
 30
0.0
 11
328.50000599999998
 21
53.999993000000011
 31
0.0
  0
LINE
  5
D41
  8
DETAIL
  6
CONTINUOUS
 62
     5
 10
380.00000699999998
 20
-0.000008
 30
0.0
 11
330.00000599999998
 21
-0.000008
 31
0.0
  0
LINE
  5
D42
  8
DETAIL
  6
CONTINUOUS
 62
     5
 10
380.00000699999998
 20
2.299992
 30
0.0
 11
330.00000599999998
 21
2.299992
 31
0.0
  0
ARC
  5
D43
  8
DETAIL
  6
CONTINUOUS
 62
     5
 10
330.00000599999998
 20
7.2999919999999987
 30
0.0
 40
5.0
 50
180.0
 51
270.0
  0
ARC
  5
D44
  8
DETAIL
  6
CONTINUOUS
 62
     5
 10
330.00000599999998
 20
7.2999919999999987
 30
0.0
 40
7.2999999999999989
 50
180.0
 51
270.0
  0
LINE
  5
D45
  8
DETAIL
  6
CONTINUOUS
 62
     5
 10
380.00000699999998
 20
2.299992
 30
0.0
 11
380.00000699999998
 21
-0.000008
 31
0.0
  0
LINE
  5
D46
  8
DETAIL
  6
CONTINUOUS
 62
     5
 10
-380.00000699999998
 20
2.299992
 30
0.0
 11
-380.00000699999998
 21
-0.000008
 31
0.0
  0
LINE
  5
D47
  8
DETAIL
  6
CONTINUOUS
 62
     5
 10
-330.00000599999998
 20
-0.000008
 30
0.0
 11
-380.00000699999998
 21
-0.000008
 31
0.0
  0
LINE
  5
D48
  8
DETAIL
  6
CONTINUOUS
 62
     5
 10
-330.00000599999998
 20
2.299992
 30
0.0
 11
-380.00000699999998
 21
2.299992
 31
0.0
  0
ARC
  5
D49
  8
DETAIL
  6
CONTINUOUS
 62
     5
 10
-330.00000599999998
 20
7.2999919999999987
 30
0.0
 40
5.0
 50
270.0
 51
0.0
  0
ARC
  5
D4A
  8
DETAIL
  6
CONTINUOUS
 62
     5
 10
-330.00000599999998
 20
7.2999919999999987
 30
0.0
 40
7.2999999999999989
 50
270.0
 51
0.0
  0
LINE
  5
D4C
  8
ARRANGE
  6
CONTINUOUS
 62
     1
 10
-37.897321000000012
 20
-37.897321000000012
 30
0.0
 11
37.897321000000012
 21
37.897321000000012
 31
0.0
  0
LINE
  5
D4D
  8
ARRANGE
  6
CONTINUOUS
 62
     1
 10
-37.897321000000012
 20
37.897321000000012
 30
0.0
 11
37.897321000000012
 21
-37.897321000000012
 31
0.0
  0
CIRCLE
  5
D4E
  8
ARRANGE
  6
CONTINUOUS
 62
     1
 10
0.0
 20
0.0
 30
0.0
 40
34.449674000000002
  0
TEXT
  5
D4F
  8
ETC
  6
CONTINUOUS
 62
    61
 10
552.42639799999995
 20
1802.3507239999999
 30
0.0
 40
90.0
  1
PURY-P280_335CM-G_5
 50
0.000003
 41
0.6030590000000001
  7
STANDARD1
  0
LINE
  5
D50
  8
NOTE
  6
CONTINUOUS
 62
     4
 10
235.0
 20
282.75003149999998
 30
0.0
 11
235.0
 21
243.25003050000001
 31
0.0
  0
LINE
  5
D51
  8
NOTE
  6
CONTINUOUS
 62
     4
 10
254.7500005
 20
263.00003099999998
 30
0.0
 11
215.2499995
 21
263.00003099999998
 31
0.0
  0
LINE
  5
D52
  8
NOTE
  6
CONTINUOUS
 62
     4
 10
235.0
 20
263.00003099999998
 30
0.0
 11
250.994541
 21
292.24530099999998
 31
0.0
  0
LINE
  5
D53
  8
NOTE
  6
CONTINUOUS
 62
     4
 10
235.0
 20
263.00003099999998
 30
0.0
 11
234.22904299999999
 21
296.32444800000002
 31
0.0
  0
LINE
  5
D54
  8
NOTE
  6
CONTINUOUS
 62
     4
 10
452.89213599999999
 20
1158.547262
 30
0.0
 11
235.0
 21
263.00003099999998
 31
0.0
  0
LINE
  5
D55
  8
NOTE
  6
CONTINUOUS
 62
     4
 10
235.0
 20
280.75003600000002
 30
0.0
 11
235.0
 21
241.250035
 31
0.0
  0
LINE
  5
D56
  8
NOTE
  6
CONTINUOUS
 62
     4
 10
254.7500005
 20
261.00003550000002
 30
0.0
 11
215.2499995
 21
261.00003550000002
 31
0.0
  0
LINE
  5
D57
  8
NOTE
  6
CONTINUOUS
 62
     4
 10
235.0
 20
261.00003550000002
 30
0.0
 11
253.59044315295861
 21
288.66782574798049
 31
0.0
  0
LINE
  5
D58
  8
NOTE
  6
CONTINUOUS
 62
     4
 10
235.0
 20
261.00003550000002
 30
0.0
 11
237.26590054498311
 21
294.25626624053831
 31
0.0
  0
LINE
  5
D59
  8
NOTE
  6
CONTINUOUS
 62
     4
 10
474.78600559669212
 20
972.83920048739117
 30
0.0
 11
235.0
 21
261.00003550000002
 31
0.0
  0
LINE
  5
D5A
  8
SIZE
  6
CONTINUOUS
 62
    30
 10
81.684953252712134
 20
1650.0000230000001
 30
0.0
 11
1106.575722
 21
1650.0000230000001
 31
0.0
  0
LINE
  5
D5B
  8
SIZE
  6
CONTINUOUS
 62
    30
 10
420.00000699999998
 20
-0.000008
 30
0.0
 11
1106.575722
 21
-0.000008
 31
0.0
  0
LINE
  5
D5C
  8
SIZE
  6
CONTINUOUS
 62
    30
 10
1076.575722
 20
1640.0000230000001
 30
0.0
 11
1076.575722
 21
9.9999920000000007
 31
0.0
  0
CIRCLE
  5
D5D
  8
SIZE
  6
CONTINUOUS
 62
    30
 10
1076.575722
 20
1650.0000230000001
 30
0.0
 40
5.0
  0
LINE
  5
D5E
  8
SIZE
  6
CONTINUOUS
 62
    30
 10
1076.575722
 20
1645.0000230000001
 30
0.0
 11
1076.575722
 21
1640.0000230000001
 31
0.0
  0
CIRCLE
  5
D5F
  8
SIZE
  6
CONTINUOUS
 62
    30
 10
1076.575722
 20
-0.000008
 30
0.0
 40
5.0
  0
LINE
  5
D60
  8
SIZE
  6
CONTINUOUS
 62
    30
 10
1076.575722
 20
4.9999919999999989
 30
0.0
 11
1076.575722
 21
9.9999920000000007
 31
0.0
  0
TEXT
  5
D61
  8
SIZE
  6
CONTINUOUS
 62
    30
 10
1061.575722
 20
720.56571900000006
 30
0.0
 40
55.0
  1
1650
 50
90.0
 41
0.9
 72
     1
 11
1061.575722
 21
803.06571900000006
 31
0.0
  0
POINT
  5
D63
  8
DEFPOINTS
  6
CONTINUOUS
 62
     7
 10
400.00000699999993
 20
-0.000008
 30
0.0
  0
POINT
  5
D64
  8
DEFPOINTS
  6
CONTINUOUS
 62
     7
 10
1076.575722
 20
-0.000008
 30
0.0
  0
LINE
  5
D65
  8
SIZE
  6
CONTINUOUS
 62
    30
 10
380.00000699999998
 20
-20.000008000000001
 30
0.0
 11
380.00000699999998
 21
-182.29803999999999
 31
0.0
  0
LINE
  5
D66
  8
SIZE
  6
CONTINUOUS
 62
    30
 10
325.00000599999998
 20
-11.000007999999999
 30
0.0
 11
325.00000599999998
 21
-182.29803999999999
 31
0.0
  0
LINE
  5
D67
  8
SIZE
  6
CONTINUOUS
 62
    30
 10
335.00000599999998
 20
-152.2980399999999
 30
0.0
 11
370.00000699999998
 21
-152.2980399999999
 31
0.0
  0
LINE
  5
D68
  8
SIZE
  6
CONTINUOUS
 62
    30
 10
380.00000699999998
 20
-152.2980399999999
 30
0.0
 11
500.14286399999992
 21
-152.2980399999999
 31
0.0
  0
CIRCLE
  5
D69
  8
SIZE
  6
CONTINUOUS
 62
    30
 10
325.00000599999998
 20
-152.2980399999999
 30
0.0
 40
5.0
  0
LINE
  5
D6A
  8
SIZE
  6
CONTINUOUS
 62
    30
 10
330.00000599999998
 20
-152.2980399999999
 30
0.0
 11
335.00000599999998
 21
-152.2980399999999
 31
0.0
  0
CIRCLE
  5
D6B
  8
SIZE
  6
CONTINUOUS
 62
    30
 10
380.00000699999998
 20
-152.2980399999999
 30
0.0
 40
5.0
  0
LINE
  5
D6C
  8
SIZE
  6
CONTINUOUS
 62
    30
 10
375.00000699999998
 20
-152.2980399999999
 30
0.0
 11
370.00000699999998
 21
-152.2980399999999
 31
0.0
  0
TEXT
  5
D6D
  8
SIZE
  6
CONTINUOUS
 62
    30
 10
405.00000742857139
 20
-137.29803999999999
 30
0.0
 40
55.0
  1
55
 41
0.9
 72
     1
 11
445.07143600000001
 21
-137.29803999999999
 31
0.0
  0
POINT
  5
D6F
  8
DEFPOINTS
  6
CONTINUOUS
 62
     7
 10
325.00000599999998
 20
8.9999920000000007
 30
0.0
  0
POINT
  5
D70
  8
DEFPOINTS
  6
CONTINUOUS
 62
     7
 10
325.00000599999998
 20
-152.2980399999999
 30
0.0
  0
LINE
  5
D71
  8
SIZE
  6
CONTINUOUS
 62
    30
 10
325.00000599999998
 20
-11.000007999999999
 30
0.0
 11
325.00000599999998
 21
-182.29803999999999
 31
0.0
  0
LINE
  5
D72
  8
SIZE
  6
CONTINUOUS
 62
    30
 10
300.00000599999998
 20
-6.0000080000000002
 30
0.0
 11
300.00000599999998
 21
-182.29803999999999
 31
0.0
  0
LINE
  5
D73
  8
SIZE
  6
CONTINUOUS
 62
    30
 10
335.00000599999998
 20
-152.2980399999999
 30
0.0
 11
345.00000599999998
 21
-152.2980399999999
 31
0.0
  0
LINE
  5
D74
  8
SIZE
  6
CONTINUOUS
 62
    30
 10
290.00000599999998
 20
-152.2980399999999
 30
0.0
 11
280.00000599999998
 21
-152.2980399999999
 31
0.0
  0
LINE
  5
D75
  8
SIZE
  6
CONTINUOUS
 62
    30
 10
125.52026600000001
 20
-152.2980399999999
 30
0.0
 11
300.00000599999998
 21
-152.2980399999999
 31
0.0
  0
TEXT
  5
D76
  8
SIZE
  6
CONTINUOUS
 62
    30
 10
140.5202664285714
 20
-137.29803999999999
 30
0.0
 40
55.0
  1
25
 41
0.9
 72
     1
 11
180.59169499999999
 21
-137.29803999999999
 31
0.0
  0
LINE
  5
D77
  8
SIZE
  6
CONTINUOUS
 62
    30
 10
325.00000599999998
 20
-152.2980399999999
 30
0.0
 11
300.00000599999998
 21
-152.2980399999999
 31
0.0
  0
LINE
  5
D78
  8
SIZE
  6
CONTINUOUS
 62
    30
 10
325.00000599999998
 20
-152.2980399999999
 30
0.0
 11
300.00000599999998
 21
-152.2980399999999
 31
0.0
  0
CIRCLE
  5
D79
  8
SIZE
  6
CONTINUOUS
 62
    30
 10
325.00000599999998
 20
-152.2980399999999
 30
0.0
 40
5.0
  0
LINE
  5
D7A
  8
SIZE
  6
CONTINUOUS
 62
    30
 10
330.00000599999998
 20
-152.2980399999999
 30
0.0
 11
335.00000599999998
 21
-152.2980399999999
 31
0.0
  0
CIRCLE
  5
D7B
  8
SIZE
  6
CONTINUOUS
 62
    30
 10
300.00000599999998
 20
-152.2980399999999
 30
0.0
 40
5.0
  0
LINE
  5
D7C
  8
SIZE
  6
CONTINUOUS
 62
    30
 10
295.00000599999998
 20
-152.2980399999999
 30
0.0
 11
290.00000599999998
 21
-152.2980399999999
 31
0.0
  0
POINT
  5
D7D
  8
DEFPOINTS
  6
CONTINUOUS
 62
     7
 10
325.00000599999998
 20
8.9999920000000007
 30
0.0
  0
POINT
  5
D7E
  8
DEFPOINTS
  6
CONTINUOUS
 62
     7
 10
300.00000599999998
 20
13.999992000000001
 30
0.0
  0
POINT
  5
D7F
  8
DEFPOINTS
  6
CONTINUOUS
 62
     7
 10
300.00000599999998
 20
-152.2980399999999
 30
0.0
  0
LINE
  5
D80
  8
BASIS
  6
DASHDOT
 62
     6
 10
0.0
 20
-57.510348
 30
0.0
 11
0.0
 21
1735.11879
 31
0.0
  0
LINE
  5
D81
  8
SIZE
  6
CONTINUOUS
 62
    30
 10
-380.00000699999998
 20
-20.000008000000001
 30
0.0
 11
-380.00000699999998
 21
-182.29803999999999
 31
0.0
  0
LINE
  5
D82
  8
SIZE
  6
CONTINUOUS
 62
    30
 10
-325.00000599999998
 20
-11.000007999999999
 30
0.0
 11
-325.00000599999998
 21
-182.29803999999999
 31
0.0
  0
LINE
  5
D83
  8
SIZE
  6
CONTINUOUS
 62
    30
 10
-335.00000599999998
 20
-152.2980399999999
 30
0.0
 11
-370.00000699999998
 21
-152.2980399999999
 31
0.0
  0
LINE
  5
D84
  8
SIZE
  6
CONTINUOUS
 62
    30
 10
-380.00000699999998
 20
-152.2980399999999
 30
0.0
 11
-500.14286399999992
 21
-152.2980399999999
 31
0.0
  0
CIRCLE
  5
D85
  8
SIZE
  6
CONTINUOUS
 62
    30
 10
-325.00000599999998
 20
-152.2980399999999
 30
0.0
 40
5.0
  0
LINE
  5
D86
  8
SIZE
  6
CONTINUOUS
 62
    30
 10
-330.00000599999998
 20
-152.2980399999999
 30
0.0
 11
-335.00000599999998
 21
-152.2980399999999
 31
0.0
  0
CIRCLE
  5
D87
  8
SIZE
  6
CONTINUOUS
 62
    30
 10
-380.00000699999998
 20
-152.2980399999999
 30
0.0
 40
5.0
  0
LINE
  5
D88
  8
SIZE
  6
CONTINUOUS
 62
    30
 10
-375.00000699999998
 20
-152.2980399999999
 30
0.0
 11
-370.00000699999998
 21
-152.2980399999999
 31
0.0
  0
TEXT
  5
D89
  8
SIZE
  6
CONTINUOUS
 62
    30
 10
-485.1428645714285
 20
-137.29803999999999
 30
0.0
 40
55.0
  1
55
 41
0.9
 72
     1
 11
-445.07143600000001
 21
-137.29803999999999
 31
0.0
  0
POINT
  5
D8A
  8
DEFPOINTS
  6
CONTINUOUS
 62
     7
 10
-380.00000699999998
 20
-0.000008
 30
0.0
  0
POINT
  5
D8B
  8
DEFPOINTS
  6
CONTINUOUS
 62
     7
 10
-325.00000599999998
 20
8.9999920000000007
 30
0.0
  0
POINT
  5
D8C
  8
DEFPOINTS
  6
CONTINUOUS
 62
     7
 10
-325.00000599999998
 20
-152.2980399999999
 30
0.0
  0
LINE
  5
D8D
  8
SIZE
  6
CONTINUOUS
 62
    30
 10
-325.00000599999998
 20
-11.000007999999999
 30
0.0
 11
-325.00000599999998
 21
-182.29803999999999
 31
0.0
  0
LINE
  5
D8E
  8
SIZE
  6
CONTINUOUS
 62
    30
 10
-300.00000599999998
 20
-6.0000080000000002
 30
0.0
 11
-300.00000599999998
 21
-182.29803999999999
 31
0.0
  0
LINE
  5
D8F
  8
SIZE
  6
CONTINUOUS
 62
    30
 10
-335.00000599999998
 20
-152.2980399999999
 30
0.0
 11
-345.00000599999998
 21
-152.2980399999999
 31
0.0
  0
LINE
  5
D90
  8
SIZE
  6
CONTINUOUS
 62
    30
 10
-290.00000599999998
 20
-152.2980399999999
 30
0.0
 11
-280.00000599999998
 21
-152.2980399999999
 31
0.0
  0
LINE
  5
D91
  8
SIZE
  6
CONTINUOUS
 62
    30
 10
-169.37639300000001
 20
-152.2980399999999
 30
0.0
 11
-300.00000599999998
 21
-152.2980399999999
 31
0.0
  0
TEXT
  5
D92
  8
SIZE
  6
CONTINUOUS
 62
    30
 10
-264.51924957142859
 20
-137.29803999999999
 30
0.0
 40
55.0
  1
25
 41
0.9
 72
     1
 11
-224.447821
 21
-137.29803999999999
 31
0.0
  0
LINE
  5
D93
  8
SIZE
  6
CONTINUOUS
 62
    30
 10
-325.00000599999998
 20
-152.2980399999999
 30
0.0
 11
-300.00000599999998
 21
-152.2980399999999
 31
0.0
  0
LINE
  5
D94
  8
SIZE
  6
CONTINUOUS
 62
    30
 10
-325.00000599999998
 20
-152.2980399999999
 30
0.0
 11
-300.00000599999998
 21
-152.2980399999999
 31
0.0
  0
CIRCLE
  5
D95
  8
SIZE
  6
CONTINUOUS
 62
    30
 10
-325.00000599999998
 20
-152.2980399999999
 30
0.0
 40
5.0
  0
LINE
  5
D96
  8
SIZE
  6
CONTINUOUS
 62
    30
 10
-330.00000599999998
 20
-152.2980399999999
 30
0.0
 11
-335.00000599999998
 21
-152.2980399999999
 31
0.0
  0
CIRCLE
  5
D97
  8
SIZE
  6
CONTINUOUS
 62
    30
 10
-300.00000599999998
 20
-152.2980399999999
 30
0.0
 40
5.0
  0
LINE
  5
D98
  8
SIZE
  6
CONTINUOUS
 62
    30
 10
-295.00000599999998
 20
-152.2980399999999
 30
0.0
 11
-290.00000599999998
 21
-152.2980399999999
 31
0.0
  0
POINT
  5
D99
  8
DEFPOINTS
  6
CONTINUOUS
 62
     7
 10
-325.00000599999998
 20
8.9999920000000007
 30
0.0
  0
POINT
  5
D9A
  8
DEFPOINTS
  6
CONTINUOUS
 62
     7
 10
-300.00000599999998
 20
13.999992000000001
 30
0.0
  0
POINT
  5
D9B
  8
DEFPOINTS
  6
CONTINUOUS
 62
     7
 10
-300.00000599999998
 20
-152.2980399999999
 30
0.0
  0
LINE
  5
D9C
  8
NOTE
  6
CONTINUOUS
 62
     4
 10
-362.00000699999998
 20
-22.0
 30
0.0
 11
-362.00000699999998
 21
22.0
 31
0.0
  0
LINE
  5
D9D
  8
NOTE
  6
CONTINUOUS
 62
     4
 10
-384.00000699999998
 20
-0.000008
 30
0.0
 11
-340.00000699999998
 21
-0.000008
 31
0.0
  0
CIRCLE
  5
D9E
  8
FIX
  6
CONTINUOUS
 62
    11
 10
-362.00000699999998
 20
-0.000008
 30
0.0
 40
18.598564
  0
CIRCLE
  5
DA1
  8
FIX
  6
CONTINUOUS
 62
    11
 10
362.0
 20
-0.000008
 30
0.0
 40
18.598564
  0
LINE
  5
DA2
  8
SIZE
  6
CONTINUOUS
 62
    30
 10
380.00000699999998
 20
-20.000008000000001
 30
0.0
 11
380.00000699999998
 21
-404.11806899999999
 31
0.0
  0
LINE
  5
DA3
  8
SIZE
  6
CONTINUOUS
 62
    30
 10
362.00000699999998
 20
-44.072645000000001
 30
0.0
 11
362.00000699999998
 21
-404.11806899999999
 31
0.0
  0
LINE
  5
DA4
  8
SIZE
  6
CONTINUOUS
 62
    30
 10
352.00000699999998
 20
-374.11806899999999
 30
0.0
 11
342.00000699999998
 21
-374.11806899999999
 31
0.0
  0
LINE
  5
DA5
  8
SIZE
  6
CONTINUOUS
 62
    30
 10
390.00000699999998
 20
-374.11806899999999
 30
0.0
 11
500.71429299999988
 21
-374.11806899999999
 31
0.0
  0
LINE
  5
DA6
  8
SIZE
  6
CONTINUOUS
 62
    30
 10
362.00000699999998
 20
-374.11806899999999
 30
0.0
 11
380.00000699999998
 21
-374.11806899999999
 31
0.0
  0
CIRCLE
  5
DA7
  8
SIZE
  6
CONTINUOUS
 62
    30
 10
362.00000699999998
 20
-374.11806899999999
 30
0.0
 40
5.0
  0
LINE
  5
DA8
  8
SIZE
  6
CONTINUOUS
 62
    30
 10
357.00000699999998
 20
-374.11806899999999
 30
0.0
 11
352.00000699999998
 21
-374.11806899999999
 31
0.0
  0
CIRCLE
  5
DA9
  8
SIZE
  6
CONTINUOUS
 62
    30
 10
380.00000699999998
 20
-374.11806899999999
 30
0.0
 40
5.0
  0
LINE
  5
DAA
  8
SIZE
  6
CONTINUOUS
 62
    30
 10
385.00000699999998
 20
-374.11806899999999
 30
0.0
 11
390.00000699999998
 21
-374.11806899999999
 31
0.0
  0
TEXT
  5
DAB
  8
SIZE
  6
CONTINUOUS
 62
    30
 10
415.0000071428571
 20
-359.11806899999999
 30
0.0
 40
55.0
  1
18
 41
0.9
 72
     1
 11
450.35714999999988
 21
-359.11806899999999
 31
0.0
  0
POINT
  5
DAD
  8
DEFPOINTS
  6
CONTINUOUS
 62
     7
 10
362.00000699999998
 20
-24.072645000000001
 30
0.0
  0
POINT
  5
DAE
  8
DEFPOINTS
  6
CONTINUOUS
 62
     7
 10
362.00000699999998
 20
-374.11806899999999
 30
0.0
  0
LINE
  5
DAF
  8
SIZE
  6
CONTINUOUS
 62
    30
 10
362.00000699999998
 20
-44.072645000000001
 30
0.0
 11
362.00000699999998
 21
-404.11806899999999
 31
0.0
  0
LINE
  5
DB0
  8
SIZE
  6
CONTINUOUS
 62
    30
 10
-362.00000699999998
 20
-44.072645000000001
 30
0.0
 11
-362.00000699999998
 21
-404.11806899999999
 31
0.0
  0
LINE
  5
DB1
  8
SIZE
  6
CONTINUOUS
 62
    30
 10
352.00000699999998
 20
-374.11806899999999
 30
0.0
 11
-352.00000699999998
 21
-374.11806899999999
 31
0.0
  0
CIRCLE
  5
DB2
  8
SIZE
  6
CONTINUOUS
 62
    30
 10
362.00000699999998
 20
-374.11806899999999
 30
0.0
 40
5.0
  0
LINE
  5
DB3
  8
SIZE
  6
CONTINUOUS
 62
    30
 10
357.00000699999998
 20
-374.11806899999999
 30
0.0
 11
352.00000699999998
 21
-374.11806899999999
 31
0.0
  0
CIRCLE
  5
DB4
  8
SIZE
  6
CONTINUOUS
 62
    30
 10
-362.00000699999998
 20
-374.11806899999999
 30
0.0
 40
5.0
  0
LINE
  5
DB5
  8
SIZE
  6
CONTINUOUS
 62
    30
 10
-357.00000699999998
 20
-374.11806899999999
 30
0.0
 11
-352.00000699999998
 21
-374.11806899999999
 31
0.0
  0
TEXT
  5
DB6
  8
SIZE
  6
CONTINUOUS
 62
    30
 10
-276.96428571428572
 20
-359.71330699999999
 30
0.0
 40
55.0
  1
(724)(据付ピッチ)
 41
0.9
 72
     1
 11
0.0
 21
-359.71330699999999
 31
0.0
  0
POINT
  5
DB7
  8
DEFPOINTS
  6
CONTINUOUS
 62
     7
 10
362.00000699999998
 20
-24.072645000000001
 30
0.0
  0
POINT
  5
DB8
  8
DEFPOINTS
  6
CONTINUOUS
 62
     7
 10
-362.00000699999998
 20
-24.072645000000001
 30
0.0
  0
POINT
  5
DB9
  8
DEFPOINTS
  6
CONTINUOUS
 62
     7
 10
-362.00000699999998
 20
-374.11806899999999
 30
0.0
  0
LINE
  5
DBA
  8
SIZE
  6
CONTINUOUS
 62
    30
 10
-362.00000699999998
 20
-44.072645000000001
 30
0.0
 11
-362.00000699999998
 21
-404.11806899999999
 31
0.0
  0
LINE
  5
DBB
  8
SIZE
  6
CONTINUOUS
 62
    30
 10
-380.00000699999998
 20
-20.000008000000001
 30
0.0
 11
-380.00000699999998
 21
-404.11806899999999
 31
0.0
  0
LINE
  5
DBC
  8
SIZE
  6
CONTINUOUS
 62
    30
 10
-352.00000699999998
 20
-374.11806899999999
 30
0.0
 11
-342.00000699999998
 21
-374.11806899999999
 31
0.0
  0
LINE
  5
DBD
  8
SIZE
  6
CONTINUOUS
 62
    30
 10
-390.00000699999998
 20
-374.11806899999999
 30
0.0
 11
-400.00000699999993
 21
-374.11806899999999
 31
0.0
  0
LINE
  5
DBE
  8
SIZE
  6
CONTINUOUS
 62
    30
 10
-509.32431600000001
 20
-374.11806899999999
 30
0.0
 11
-380.00000699999998
 21
-374.11806899999999
 31
0.0
  0
TEXT
  5
DBF
  8
SIZE
  6
CONTINUOUS
 62
    30
 10
-494.32431585714278
 20
-359.11806899999999
 30
0.0
 40
55.0
  1
18
 41
0.9
 72
     1
 11
-458.967173
 21
-359.11806899999999
 31
0.0
  0
LINE
  5
DC0
  8
SIZE
  6
CONTINUOUS
 62
    30
 10
-362.00000699999998
 20
-374.11806899999999
 30
0.0
 11
-380.00000699999998
 21
-374.11806899999999
 31
0.0
  0
LINE
  5
DC1
  8
SIZE
  6
CONTINUOUS
 62
    30
 10
-362.00000699999998
 20
-374.11806899999999
 30
0.0
 11
-380.00000699999998
 21
-374.11806899999999
 31
0.0
  0
CIRCLE
  5
DC2
  8
SIZE
  6
CONTINUOUS
 62
    30
 10
-362.00000699999998
 20
-374.11806899999999
 30
0.0
 40
5.0
  0
LINE
  5
DC3
  8
SIZE
  6
CONTINUOUS
 62
    30
 10
-357.00000699999998
 20
-374.11806899999999
 30
0.0
 11
-352.00000699999998
 21
-374.11806899999999
 31
0.0
  0
CIRCLE
  5
DC4
  8
SIZE
  6
CONTINUOUS
 62
    30
 10
-380.00000699999998
 20
-374.11806899999999
 30
0.0
 40
5.0
  0
LINE
  5
DC5
  8
SIZE
  6
CONTINUOUS
 62
    30
 10
-385.00000699999998
 20
-374.11806899999999
 30
0.0
 11
-390.00000699999998
 21
-374.11806899999999
 31
0.0
  0
POINT
  5
DC6
  8
DEFPOINTS
  6
CONTINUOUS
 62
     7
 10
-362.00000699999998
 20
-24.072645000000001
 30
0.0
  0
POINT
  5
DC7
  8
DEFPOINTS
  6
CONTINUOUS
 62
     7
 10
-380.00000699999998
 20
-0.000008
 30
0.0
  0
POINT
  5
DC8
  8
DEFPOINTS
  6
CONTINUOUS
 62
     7
 10
-380.00000699999998
 20
-374.11806899999999
 30
0.0
  0
LINE
  5
DC9
  8
SIZE
  6
CONTINUOUS
 62
    30
 10
-380.00000699999998
 20
-20.000008000000001
 30
0.0
 11
-380.00000699999998
 21
-563.27224999999987
 31
0.0
  0
LINE
  5
DCA
  8
SIZE
  6
CONTINUOUS
 62
    30
 10
380.00000699999998
 20
-20.000008000000001
 30
0.0
 11
380.00000699999998
 21
-563.27224999999987
 31
0.0
  0
LINE
  5
DCB
  8
SIZE
  6
CONTINUOUS
 62
    30
 10
-370.00000699999998
 20
-533.27224999999999
 30
0.0
 11
370.00000699999998
 21
-533.27224999999999
 31
0.0
  0
CIRCLE
  5
DCC
  8
SIZE
  6
CONTINUOUS
 62
    30
 10
-380.00000699999998
 20
-533.27224999999999
 30
0.0
 40
5.0
  0
LINE
  5
DCD
  8
SIZE
  6
CONTINUOUS
 62
    30
 10
-375.00000699999998
 20
-533.27224999999999
 30
0.0
 11
-370.00000699999998
 21
-533.27224999999999
 31
0.0
  0
CIRCLE
  5
DCE
  8
SIZE
  6
CONTINUOUS
 62
    30
 10
380.00000699999998
 20
-533.27224999999999
 30
0.0
 40
5.0
  0
LINE
  5
DCF
  8
SIZE
  6
CONTINUOUS
 62
    30
 10
375.00000699999998
 20
-533.27224999999999
 30
0.0
 11
370.00000699999998
 21
-533.27224999999999
 31
0.0
  0
TEXT
  5
DD0
  8
SIZE
  6
CONTINUOUS
 62
    30
 10
-63.642857142857132
 20
-518.27224999999987
 30
0.0
 40
55.0
  1
760
 41
0.9
 72
     1
 11
0.0
 21
-518.27224999999987
 31
0.0
  0
POINT
  5
DD1
  8
DEFPOINTS
  6
CONTINUOUS
 62
     7
 10
-380.00000699999998
 20
-0.000008
 30
0.0
  0
POINT
  5
DD3
  8
DEFPOINTS
  6
CONTINUOUS
 62
     7
 10
380.00000699999998
 20
-533.27224999999999
 30
0.0
  0
TEXT
  5
DD4
  8
NOTE
  6
CONTINUOUS
 62
     4
 10
459.50988899999999
 20
1168.8920800000001
 30
0.0
 40
55.0
  1
RG %%C22.2
 50
359.99999700000001
 41
0.6309520000000001
  7
STANDARD1
  0
LINE
  5
DD5
  8
NOTE
  6
CONTINUOUS
 62
     4
 10
452.89213599999999
 20
1158.547262
 30
0.0
 11
730.19375903166292
 21
1158.547262
 31
0.0
  0
LINE
  5
DD6
  8
NOTE
  6
CONTINUOUS
 62
     4
 10
375.50000699999998
 20
236.74998199999999
 30
0.0
 11
375.50000699999998
 21
197.24998199999999
 31
0.0
  0
LINE
  5
DD7
  8
NOTE
  6
CONTINUOUS
 62
     4
 10
395.25000699999998
 20
216.99998199999999
 30
0.0
 11
355.75000699999998
 21
216.99998199999999
 31
0.0
  0
LINE
  5
DD8
  8
NOTE
  6
CONTINUOUS
 62
     4
 10
375.50000699999998
 20
165.75
 30
0.0
 11
375.50000699999998
 21
126.25
 31
0.0
  0
LINE
  5
DD9
  8
NOTE
  6
CONTINUOUS
 62
     4
 10
395.25000699999998
 20
146.0
 30
0.0
 11
355.75000699999998
 21
146.0
 31
0.0
  0
LINE
  5
DDA
  8
SIZE
  6
CONTINUOUS
 62
    30
 10
400.24885599999988
 20
-0.000008
 30
0.0
 11
986.35442799999987
 21
-0.000008
 31
0.0
  0
LINE
  5
DDB
  8
SIZE
  6
CONTINUOUS
 62
    30
 10
400.00000699999993
 20
1410.000018
 30
0.0
 11
986.35442799999987
 21
1410.000018
 31
0.0
  0
LINE
  5
DDC
  8
SIZE
  6
CONTINUOUS
 62
    30
 10
956.35442799999998
 20
9.9999920000000007
 30
0.0
 11
956.35442799999998
 21
1400.000018
 31
0.0
  0
CIRCLE
  5
DDD
  8
SIZE
  6
CONTINUOUS
 62
    30
 10
956.35442799999998
 20
-0.000008
 30
0.0
 40
5.0
  0
LINE
  5
DDE
  8
SIZE
  6
CONTINUOUS
 62
    30
 10
956.35442799999998
 20
4.9999919999999989
 30
0.0
 11
956.35442799999998
 21
9.9999920000000007
 31
0.0
  0
CIRCLE
  5
DDF
  8
SIZE
  6
CONTINUOUS
 62
    30
 10
956.35442799999998
 20
1410.000018
 30
0.0
 40
5.0
  0
LINE
  5
DE0
  8
SIZE
  6
CONTINUOUS
 62
    30
 10
956.35442799999998
 20
1405.000018
 30
0.0
 11
956.35442799999998
 21
1400.000018
 31
0.0
  0
TEXT
  5
DE1
  8
SIZE
  6
CONTINUOUS
 62
    30
 10
941.35442799999987
 20
627.21429071428565
 30
0.0
 40
55.0
  1
1410
 50
90.0
 41
0.9
 72
     1
 11
941.35442799999987
 21
705.00000499999999
 31
0.0
  0
POINT
  5
DE3
  8
DEFPOINTS
  6
CONTINUOUS
 62
     7
 10
380.00000699999998
 20
1410.000018
 30
0.0
  0
POINT
  5
DE4
  8
DEFPOINTS
  6
CONTINUOUS
 62
     7
 10
956.35442799999998
 20
1410.000018
 30
0.0
  0
LINE
  5
DE5
  8
SIZE
  6
CONTINUOUS
 62
    30
 10
400.00000699999993
 20
1410.000018
 30
0.0
 11
986.35442799999987
 21
1410.000018
 31
0.0
  0
LINE
  5
DE6
  8
SIZE
  6
CONTINUOUS
 62
    30
 10
81.684953252712134
 20
1650.0000230000001
 30
0.0
 11
986.35442799999987
 21
1650.0000230000001
 31
0.0
  0
LINE
  5
DE7
  8
SIZE
  6
CONTINUOUS
 62
    30
 10
956.35442799999998
 20
1420.000018
 30
0.0
 11
956.35442799999998
 21
1640.0000230000001
 31
0.0
  0
CIRCLE
  5
DE8
  8
SIZE
  6
CONTINUOUS
 62
    30
 10
956.35442799999998
 20
1410.000018
 30
0.0
 40
5.0
  0
LINE
  5
DE9
  8
SIZE
  6
CONTINUOUS
 62
    30
 10
956.35442799999998
 20
1415.000018
 30
0.0
 11
956.35442799999998
 21
1420.000018
 31
0.0
  0
CIRCLE
  5
DEA
  8
SIZE
  6
CONTINUOUS
 62
    30
 10
956.35442799999998
 20
1650.0000230000001
 30
0.0
 40
5.0
  0
LINE
  5
DEB
  8
SIZE
  6
CONTINUOUS
 62
    30
 10
956.35442799999998
 20
1645.0000230000001
 30
0.0
 11
956.35442799999998
 21
1640.0000230000001
 31
0.0
  0
TEXT
  5
DEC
  8
SIZE
  6
CONTINUOUS
 62
    30
 10
941.94966599999998
 20
1434.5357342857139
 30
0.0
 40
55.0
  1
(240)
 50
90.0
 41
0.9
 72
     1
 11
941.94966599999998
 21
1530.0000199999999
 31
0.0
  0
POINT
  5
DED
  8
DEFPOINTS
  6
CONTINUOUS
 62
     7
 10
380.00000699999998
 20
1410.000018
 30
0.0
  0
POINT
  5
DEF
  8
DEFPOINTS
  6
CONTINUOUS
 62
     7
 10
956.35442799999998
 20
1650.0000230000001
 30
0.0
  0
LINE
  5
DF0
  8
NOTE
  6
CONTINUOUS
 62
     4
 10
375.500001
 20
216.99998099999999
 30
0.0
 11
389.183133
 21
247.39542499999999
 31
0.0
  0
LINE
  5
DF1
  8
NOTE
  6
CONTINUOUS
 62
     4
 10
375.500001
 20
216.99998099999999
 30
0.0
 11
372.152218
 21
250.16477399999999
 31
0.0
  0
LINE
  5
DF2
  8
NOTE
  6
CONTINUOUS
 62
     4
 10
453.89851299999992
 20
699.134411
 30
0.0
 11
375.500001
 21
216.99998099999999
 31
0.0
  0
LINE
  5
DF3
  8
NOTE
  6
CONTINUOUS
 62
     4
 10
375.50000699999998
 20
146.0
 30
0.0
 11
386.866444
 21
114.664473
 31
0.0
  0
LINE
  5
DF4
  8
NOTE
  6
CONTINUOUS
 62
     4
 10
375.50000699999998
 20
146.0
 30
0.0
 11
401.011394
 21
124.545857
 31
0.0
  0
LINE
  5
DF5
  8
NOTE
  6
CONTINUOUS
 62
     4
 10
616.984328
 20
-199.67868200000001
 30
0.0
 11
375.50000699999998
 21
146.0
 31
0.0
  0
ARC
  5
DF6
  8
OUTLINE
  6
CONTINUOUS
 62
     3
 10
374.30000699999999
 20
55.499993000000003
 30
0.0
 40
1.0
 50
270.0
 51
0.0
  0
ARC
  5
DF7
  8
OUTLINE
  6
CONTINUOUS
 62
     3
 10
-326.02841000000001
 20
1630.5000219999999
 30
0.0
 40
10.0
 50
90.0
 51
147.97406799999999
  0
ARC
  5
DF8
  8
OUTLINE
  6
CONTINUOUS
 62
     3
 10
-186.14005900000001
 20
1543.0000210000001
 30
0.0
 40
175.00000299999999
 50
147.97406799999999
 51
177.70357999999999
  0
ARC
  5
DF9
  8
OUTLINE
  6
CONTINUOUS
 62
     3
 10
186.14005900000001
 20
1543.0000210000001
 30
0.0
 40
175.00000299999999
 50
2.296419999999999
 51
32.025931999999997
  0
ARC
  5
DFA
  8
OUTLINE
  6
CONTINUOUS
 62
     3
 10
326.02841000000001
 20
1630.5000219999999
 30
0.0
 40
10.0
 50
32.025931999999997
 51
90.0
  0
ARC
  5
DFB
  8
OUTLINE
  6
CONTINUOUS
 62
     3
 10
284.60770000000002
 20
50.999993000000003
 30
0.0
 40
5.0
 50
270.0
 51
330.0
  0
ARC
  5
DFC
  8
OUTLINE
  6
CONTINUOUS
 62
     3
 10
295.00000299999999
 20
48.999997
 30
0.0
 40
4.9999979999999997
 50
90.0
 51
150.00002900000001
  0
ARC
  5
DFD
  8
OUTLINE
  6
CONTINUOUS
 62
     3
 10
-285.42600499999998
 20
48.999993000000003
 30
0.0
 40
3.0
 50
206.26860300000001
 51
270.0
  0
ARC
  5
DFE
  8
OUTLINE
  6
CONTINUOUS
 62
     3
 10
-366.50000599999998
 20
64.495249000000001
 30
0.0
 40
8.0
 50
223.39908399999999
 51
266.26859899999999
  0
ARC
  5
DFF
  8
OUTLINE
  6
CONTINUOUS
 62
     3
 10
-293.10408799999999
 20
50.999993000000003
 30
0.0
 40
3.0
 50
26.268603000000009
 51
90.0
  0
ARC
  5
E00
  8
OUTLINE
  6
CONTINUOUS
 62
     3
 10
366.50000599999998
 20
64.495249000000001
 30
0.0
 40
8.0
 50
273.73140100000001
 51
316.6009160000001
  0
ARC
  5
E01
  8
OUTLINE
  6
CONTINUOUS
 62
     3
 10
374.30000699999999
 20
55.499993000000003
 30
0.0
 40
0.2
 50
270.0
 51
0.0
  0
ARC
  5
E02
  8
OUTLINE
  6
CONTINUOUS
 62
     3
 10
326.00000599999998
 20
48.299993000000001
 30
0.0
 40
1.0
 50
180.0
 51
270.0
  0
ARC
  5
E03
  8
OUTLINE
  6
CONTINUOUS
 62
     3
 10
326.00000599999998
 20
11.699992
 30
0.0
 40
1.0
 50
90.0
 51
180.0
  0
ARC
  5
E04
  8
OUTLINE
  6
CONTINUOUS
 62
     3
 10
305.00000599999998
 20
13.999992000000001
 30
0.0
 40
5.0
 50
180.0
 51
270.0
  0
ARC
  5
E05
  8
OUTLINE
  6
CONTINUOUS
 62
     3
 10
321.00000599999998
 20
49.999992999999989
 30
0.0
 40
4.0
 50
0.0
 51
90.0
  0
ARC
  5
E06
  8
OUTLINE
  6
CONTINUOUS
 62
     3
 10
-326.00000599999998
 20
11.699992
 30
0.0
 40
1.0
 50
0.0
 51
90.0
  0
ARC
  5
E07
  8
OUTLINE
  6
CONTINUOUS
 62
     3
 10
-326.00000599999998
 20
48.299993000000001
 30
0.0
 40
1.0
 50
270.0
 51
0.0
  0
ARC
  5
E08
  8
OUTLINE
  6
CONTINUOUS
 62
     3
 10
-305.00000599999998
 20
13.999992000000001
 30
0.0
 40
5.0
 50
270.0
 51
0.0
  0
ARC
  5
E09
  8
OUTLINE
  6
CONTINUOUS
 62
     3
 10
-321.00000599999998
 20
49.999992999999989
 30
0.0
 40
4.0
 50
90.0
 51
180.0
  0
LINE
  5
E0A
  8
OUTLINE
  6
CONTINUOUS
 62
     3
 10
80.000000999999983
 20
1650.0000230000001
 30
0.0
 11
-80.000000999999983
 21
1650.0000230000001
 31
0.0
  0
LINE
  5
E0B
  8
OUTLINE
  6
CONTINUOUS
 62
     3
 10
288.93782800000002
 20
48.499993000000003
 30
0.0
 11
290.66987799999998
 21
51.499993000000003
 31
0.0
  0
LINE
  5
E0C
  8
OUTLINE
  6
CONTINUOUS
 62
     3
 10
366.87550399999998
 20
1416.0709939999999
 30
0.0
 11
366.820243
 21
1416.6946849999999
 31
0.0
  0
LINE
  5
E0D
  8
OUTLINE
  6
CONTINUOUS
 62
     3
 10
367.02043500000002
 20
1415.3108870000001
 30
0.0
 11
366.87550399999998
 21
1416.0709939999999
 31
0.0
  0
LINE
  5
E0E
  8
OUTLINE
  6
CONTINUOUS
 62
     3
 10
367.248377
 20
1414.5714210000001
 30
0.0
 11
367.02043500000002
 21
1415.3108870000001
 31
0.0
  0
LINE
  5
E0F
  8
OUTLINE
  6
CONTINUOUS
 62
     3
 10
367.55654399999997
 20
1413.861631
 30
0.0
 11
367.248377
 21
1414.5714210000001
 31
0.0
  0
LINE
  5
E10
  8
OUTLINE
  6
CONTINUOUS
 62
     3
 10
367.94117
 20
1413.190192
 30
0.0
 11
367.55654399999997
 21
1413.861631
 31
0.0
  0
LINE
  5
E11
  8
OUTLINE
  6
CONTINUOUS
 62
     3
 10
368.39755600000001
 20
1412.565308
 30
0.0
 11
367.94117
 21
1413.190192
 31
0.0
  0
LINE
  5
E12
  8
OUTLINE
  6
CONTINUOUS
 62
     3
 10
368.92012399999999
 20
1411.9946150000001
 30
0.0
 11
368.39755600000001
 21
1412.565308
 31
0.0
  0
LINE
  5
E13
  8
OUTLINE
  6
CONTINUOUS
 62
     3
 10
369.50248800000003
 20
1411.485087
 30
0.0
 11
368.92012399999999
 21
1411.9946150000001
 31
0.0
  0
LINE
  5
E14
  8
OUTLINE
  6
CONTINUOUS
 62
     3
 10
370.13753400000002
 20
1411.04295
 30
0.0
 11
369.50248800000003
 21
1411.485087
 31
0.0
  0
LINE
  5
E15
  8
OUTLINE
  6
CONTINUOUS
 62
     3
 10
370.817499
 20
1410.6736060000001
 30
0.0
 11
370.13753400000002
 21
1411.04295
 31
0.0
  0
LINE
  5
E16
  8
OUTLINE
  6
CONTINUOUS
 62
     3
 10
371.53407700000002
 20
1410.38157
 30
0.0
 11
370.817499
 21
1410.6736060000001
 31
0.0
  0
LINE
  5
E17
  8
OUTLINE
  6
CONTINUOUS
 62
     3
 10
372.27850899999999
 20
1410.1704099999999
 30
0.0
 11
371.53407700000002
 21
1410.38157
 31
0.0
  0
LINE
  5
E18
  8
OUTLINE
  6
CONTINUOUS
 62
     3
 10
373.04169899999999
 20
1410.042706
 30
0.0
 11
372.27850899999999
 21
1410.1704099999999
 31
0.0
  0
LINE
  5
E19
  8
OUTLINE
  6
CONTINUOUS
 62
     3
 10
373.81358399999999
 20
1410.000018
 30
0.0
 11
373.04169899999999
 21
1410.042706
 31
0.0
  0
LINE
  5
E1A
  8
OUTLINE
  6
CONTINUOUS
 62
     3
 10
380.00000699999998
 20
1370.0000170000001
 30
0.0
 11
380.00000699999998
 21
1410.000018
 31
0.0
  0
LINE
  5
E1B
  8
OUTLINE
  6
CONTINUOUS
 62
     3
 10
375.50000699999998
 20
58.999993000000011
 30
0.0
 11
375.50000699999998
 21
1370.0000170000001
 31
0.0
  0
LINE
  5
E1C
  8
OUTLINE
  6
CONTINUOUS
 62
     3
 10
375.30000699999999
 20
58.999993000000011
 30
0.0
 11
375.30000699999999
 21
55.499993000000003
 31
0.0
  0
LINE
  5
E1D
  8
OUTLINE
  6
CONTINUOUS
 62
     3
 10
374.50000699999998
 20
58.999993000000011
 30
0.0
 11
374.50000699999998
 21
55.499993000000003
 31
0.0
  0
LINE
  5
E1E
  8
OUTLINE
  6
CONTINUOUS
 62
     3
 10
360.99952500000001
 20
1550.0121590000001
 30
0.0
 11
366.82020199999999
 21
1416.6956399999999
 31
0.0
  0
LINE
  5
E1F
  8
OUTLINE
  6
CONTINUOUS
 62
     3
 10
368.30000699999999
 20
55.299993000000001
 30
0.0
 11
368.30000699999999
 21
54.499993000000003
 31
0.0
  0
LINE
  5
E20
  8
OUTLINE
  6
CONTINUOUS
 62
     3
 10
328.00000599999998
 20
12.699992
 30
0.0
 11
328.00000599999998
 21
47.299993000000001
 31
0.0
  0
LINE
  5
E21
  8
OUTLINE
  6
CONTINUOUS
 62
     3
 10
325.00000599999998
 20
49.999992999999989
 30
0.0
 11
325.00000599999998
 21
48.299993000000001
 31
0.0
  0
LINE
  5
E22
  8
OUTLINE
  6
CONTINUOUS
 62
     3
 10
322.70000599999997
 20
7.2999919999999987
 30
0.0
 11
322.70000599999997
 21
8.9999920000000007
 31
0.0
  0
LINE
  5
E23
  8
OUTLINE
  6
CONTINUOUS
 62
     3
 10
320.00000599999998
 20
1641.6000220000001
 30
0.0
 11
320.00000599999998
 21
1640.5000219999999
 31
0.0
  0
LINE
  5
E24
  8
OUTLINE
  6
CONTINUOUS
 62
     3
 10
300.00000599999998
 20
1642.3000219999999
 30
0.0
 11
300.00000599999998
 21
1641.6000220000001
 31
0.0
  0
LINE
  5
E25
  8
OUTLINE
  6
CONTINUOUS
 62
     3
 10
300.00000599999998
 20
13.999992000000001
 30
0.0
 11
300.00000599999998
 21
53.999993000000011
 31
0.0
  0
LINE
  5
E26
  8
OUTLINE
  6
CONTINUOUS
 62
     3
 10
280.00000499999999
 20
1643.0000219999999
 30
0.0
 11
280.00000499999999
 21
1642.3000219999999
 31
0.0
  0
LINE
  5
E27
  8
OUTLINE
  6
CONTINUOUS
 62
     3
 10
260.00000499999999
 20
1643.700022
 30
0.0
 11
260.00000499999999
 21
1643.0000219999999
 31
0.0
  0
LINE
  5
E28
  8
OUTLINE
  6
CONTINUOUS
 62
     3
 10
240.00000399999999
 20
1644.400022
 30
0.0
 11
240.00000399999999
 21
1643.700022
 31
0.0
  0
LINE
  5
E29
  8
OUTLINE
  6
CONTINUOUS
 62
     3
 10
220.00000399999999
 20
1645.1000220000001
 30
0.0
 11
220.00000399999999
 21
1644.400022
 31
0.0
  0
LINE
  5
E2A
  8
OUTLINE
  6
CONTINUOUS
 62
     3
 10
200.00000399999999
 20
1645.8000219999999
 30
0.0
 11
200.00000399999999
 21
1645.1000220000001
 31
0.0
  0
LINE
  5
E2B
  8
OUTLINE
  6
CONTINUOUS
 62
     3
 10
180.00000299999991
 20
1646.5000219999999
 30
0.0
 11
180.00000299999991
 21
1645.8000219999999
 31
0.0
  0
LINE
  5
E2C
  8
OUTLINE
  6
CONTINUOUS
 62
     3
 10
160.00000299999999
 20
1647.200022
 30
0.0
 11
160.00000299999999
 21
1646.5000219999999
 31
0.0
  0
LINE
  5
E2D
  8
OUTLINE
  6
CONTINUOUS
 62
     3
 10
140.00000299999999
 20
1647.900022
 30
0.0
 11
140.00000299999999
 21
1647.200022
 31
0.0
  0
LINE
  5
E2E
  8
OUTLINE
  6
CONTINUOUS
 62
     3
 10
120.00000199999999
 20
1648.6000220000001
 30
0.0
 11
120.00000199999999
 21
1647.900022
 31
0.0
  0
LINE
  5
E2F
  8
OUTLINE
  6
CONTINUOUS
 62
     3
 10
100.00000199999999
 20
1649.300023
 30
0.0
 11
100.00000199999999
 21
1648.6000220000001
 31
0.0
  0
LINE
  5
E30
  8
OUTLINE
  6
CONTINUOUS
 62
     3
 10
80.000000999999983
 20
1649.300023
 30
0.0
 11
80.000000999999983
 21
1650.0000230000001
 31
0.0
  0
LINE
  5
E31
  8
OUTLINE
  6
CONTINUOUS
 62
     3
 10
-80.000000999999983
 20
1649.300023
 30
0.0
 11
-80.000000999999983
 21
1650.0000230000001
 31
0.0
  0
LINE
  5
E32
  8
OUTLINE
  6
CONTINUOUS
 62
     3
 10
-100.00000199999999
 20
1649.300023
 30
0.0
 11
-100.00000199999999
 21
1648.6000220000001
 31
0.0
  0
LINE
  5
E33
  8
OUTLINE
  6
CONTINUOUS
 62
     3
 10
-120.00000199999999
 20
1648.6000220000001
 30
0.0
 11
-120.00000199999999
 21
1647.900022
 31
0.0
  0
LINE
  5
E34
  8
OUTLINE
  6
CONTINUOUS
 62
     3
 10
-140.00000299999999
 20
1647.900022
 30
0.0
 11
-140.00000299999999
 21
1647.200022
 31
0.0
  0
LINE
  5
E35
  8
OUTLINE
  6
CONTINUOUS
 62
     3
 10
-160.00000299999999
 20
1647.200022
 30
0.0
 11
-160.00000299999999
 21
1646.5000219999999
 31
0.0
  0
LINE
  5
E36
  8
OUTLINE
  6
CONTINUOUS
 62
     3
 10
-180.00000299999991
 20
1646.5000219999999
 30
0.0
 11
-180.00000299999991
 21
1645.8000219999999
 31
0.0
  0
LINE
  5
E37
  8
OUTLINE
  6
CONTINUOUS
 62
     3
 10
-200.00000399999999
 20
1645.8000219999999
 30
0.0
 11
-200.00000399999999
 21
1645.1000220000001
 31
0.0
  0
LINE
  5
E38
  8
OUTLINE
  6
CONTINUOUS
 62
     3
 10
-220.00000399999999
 20
1645.1000220000001
 30
0.0
 11
-220.00000399999999
 21
1644.400022
 31
0.0
  0
LINE
  5
E39
  8
OUTLINE
  6
CONTINUOUS
 62
     3
 10
-240.00000399999999
 20
1644.400022
 30
0.0
 11
-240.00000399999999
 21
1643.700022
 31
0.0
  0
LINE
  5
E3A
  8
OUTLINE
  6
CONTINUOUS
 62
     3
 10
-260.00000499999999
 20
1643.700022
 30
0.0
 11
-260.00000499999999
 21
1643.0000219999999
 31
0.0
  0
LINE
  5
E3B
  8
OUTLINE
  6
CONTINUOUS
 62
     3
 10
-280.00000499999999
 20
1643.0000219999999
 30
0.0
 11
-280.00000499999999
 21
1642.3000219999999
 31
0.0
  0
LINE
  5
E3C
  8
OUTLINE
  6
CONTINUOUS
 62
     3
 10
-300.00000599999998
 20
53.999993000000011
 30
0.0
 11
-300.00000599999998
 21
13.999992000000001
 31
0.0
  0
LINE
  5
E3D
  8
OUTLINE
  6
CONTINUOUS
 62
     3
 10
-300.00000599999998
 20
1642.3000219999999
 30
0.0
 11
-300.00000599999998
 21
1641.6000220000001
 31
0.0
  0
LINE
  5
E3E
  8
OUTLINE
  6
CONTINUOUS
 62
     3
 10
-320.00000599999998
 20
1641.6000220000001
 30
0.0
 11
-320.00000599999998
 21
1640.5000219999999
 31
0.0
  0
LINE
  5
E3F
  8
OUTLINE
  6
CONTINUOUS
 62
     3
 10
-322.70000599999997
 20
7.2999919999999987
 30
0.0
 11
-322.70000599999997
 21
8.9999920000000007
 31
0.0
  0
LINE
  5
E40
  8
OUTLINE
  6
CONTINUOUS
 62
     3
 10
-325.00000599999998
 20
49.999992999999989
 30
0.0
 11
-325.00000599999998
 21
48.299993000000001
 31
0.0
  0
LINE
  5
E41
  8
OUTLINE
  6
CONTINUOUS
 62
     3
 10
-328.00000599999998
 20
12.699992
 30
0.0
 11
-328.00000599999998
 21
47.299993000000001
 31
0.0
  0
LINE
  5
E42
  8
OUTLINE
  6
CONTINUOUS
 62
     3
 10
-366.77844599999997
 20
1417.6520009999999
 30
0.0
 11
-360.99952500000001
 21
1550.0121590000001
 31
0.0
  0
LINE
  5
E43
  8
OUTLINE
  6
CONTINUOUS
 62
     3
 10
-375.70000700000003
 20
58.999993000000011
 30
0.0
 11
-375.70000700000003
 21
1370.0000170000001
 31
0.0
  0
LINE
  5
E44
  8
OUTLINE
  6
CONTINUOUS
 62
     3
 10
-380.00000699999998
 20
1410.000018
 30
0.0
 11
-380.00000699999998
 21
1370.0000170000001
 31
0.0
  0
LINE
  5
E45
  8
OUTLINE
  6
CONTINUOUS
 62
     3
 10
-373.13452100000001
 20
1410.169159
 30
0.0
 11
-374.220753
 21
1410.000018
 31
0.0
  0
LINE
  5
E46
  8
OUTLINE
  6
CONTINUOUS
 62
     3
 10
-372.33766100000003
 20
1410.3790289999999
 30
0.0
 11
-373.13452100000001
 21
1410.169159
 31
0.0
  0
LINE
  5
E47
  8
OUTLINE
  6
CONTINUOUS
 62
     3
 10
-371.56661700000001
 20
1410.6697569999999
 30
0.0
 11
-372.33766100000003
 21
1410.3790289999999
 31
0.0
  0
LINE
  5
E48
  8
OUTLINE
  6
CONTINUOUS
 62
     3
 10
-370.8295700000001
 20
1411.0382569999999
 30
0.0
 11
-371.56661700000001
 21
1410.6697569999999
 31
0.0
  0
LINE
  5
E49
  8
OUTLINE
  6
CONTINUOUS
 62
     3
 10
-370.13433900000001
 20
1411.4806209999999
 30
0.0
 11
-370.8295700000001
 21
1411.0382569999999
 31
0.0
  0
LINE
  5
E4A
  8
OUTLINE
  6
CONTINUOUS
 62
     3
 10
-369.48830199999998
 20
1411.992154
 30
0.0
 11
-370.13433900000001
 21
1411.4806209999999
 31
0.0
  0
LINE
  5
E4B
  8
OUTLINE
  6
CONTINUOUS
 62
     3
 10
-368.89831199999998
 20
1412.5674300000001
 30
0.0
 11
-369.48830199999998
 21
1411.992154
 31
0.0
  0
LINE
  5
E4C
  8
OUTLINE
  6
CONTINUOUS
 62
     3
 10
-368.3706279999999
 20
1413.200345
 30
0.0
 11
-368.89831199999998
 21
1412.5674300000001
 31
0.0
  0
LINE
  5
E4D
  8
OUTLINE
  6
CONTINUOUS
 62
     3
 10
-367.91085099999998
 20
1413.884184
 30
0.0
 11
-368.3706279999999
 21
1413.200345
 31
0.0
  0
LINE
  5
E4E
  8
OUTLINE
  6
CONTINUOUS
 62
     3
 10
-367.52385700000002
 20
1414.6116919999999
 30
0.0
 11
-367.91085099999998
 21
1413.884184
 31
0.0
  0
LINE
  5
E4F
  8
OUTLINE
  6
CONTINUOUS
 62
     3
 10
-367.213753
 20
1415.375149
 30
0.0
 11
-367.52385700000002
 21
1414.6116919999999
 31
0.0
  0
LINE
  5
E50
  8
OUTLINE
  6
CONTINUOUS
 62
     3
 10
-366.9838299999999
 20
1416.166455
 30
0.0
 11
-367.213753
 21
1415.375149
 31
0.0
  0
LINE
  5
E51
  8
OUTLINE
  6
CONTINUOUS
 62
     3
 10
-366.83652499999999
 20
1416.977216
 30
0.0
 11
-366.9838299999999
 21
1416.166455
 31
0.0
  0
LINE
  5
E52
  8
OUTLINE
  6
CONTINUOUS
 62
     3
 10
-366.77848699999998
 20
1417.6510659999999
 30
0.0
 11
-366.83652499999999
 21
1416.977216
 31
0.0
  0
LINE
  5
E53
  8
OUTLINE
  6
CONTINUOUS
 62
     3
 10
-290.41390000000001
 20
52.327733000000002
 30
0.0
 11
-288.11619200000001
 21
47.672252999999998
 31
0.0
  0
LINE
  5
E54
  8
OUTLINE
  6
CONTINUOUS
 62
     3
 10
372.31269124395618
 20
58.99864184151641
 30
0.0
 11
375.50000699999998
 21
58.999993000000011
 31
0.0
  0
LINE
  5
E55
  8
OUTLINE
  6
CONTINUOUS
 62
     3
 10
-375.70000700000003
 20
58.999993000000011
 30
0.0
 11
-372.31269124395618
 21
58.99864184151641
 31
0.0
  0
LINE
  5
E56
  8
OUTLINE
  6
CONTINUOUS
 62
     3
 10
368.30000699999999
 20
55.299993000000001
 30
0.0
 11
374.30000699999999
 21
55.299993000000001
 31
0.0
  0
LINE
  5
E57
  8
OUTLINE
  6
CONTINUOUS
 62
     3
 10
374.30000699999999
 20
54.499993000000003
 30
0.0
 11
368.30000699999999
 21
54.499993000000003
 31
0.0
  0
LINE
  5
E58
  8
OUTLINE
  6
CONTINUOUS
 62
     3
 10
-293.10408799999999
 20
53.999993000000011
 30
0.0
 11
-328.50000599999998
 21
53.999993000000011
 31
0.0
  0
LINE
  5
E59
  8
OUTLINE
  6
CONTINUOUS
 62
     3
 10
328.50000599999998
 20
53.999993000000011
 30
0.0
 11
295.00000499999999
 21
53.999993000000011
 31
0.0
  0
LINE
  5
E5A
  8
OUTLINE
  6
CONTINUOUS
 62
     3
 10
-326.00000599999998
 20
47.299993000000001
 30
0.0
 11
-328.00000599999998
 21
47.299993000000001
 31
0.0
  0
LINE
  5
E5B
  8
OUTLINE
  6
CONTINUOUS
 62
     3
 10
326.00000599999998
 20
47.299993000000001
 30
0.0
 11
328.00000599999998
 21
47.299993000000001
 31
0.0
  0
LINE
  5
E5C
  8
OUTLINE
  6
CONTINUOUS
 62
     3
 10
284.60770000000002
 20
45.999992999999989
 30
0.0
 11
-285.42600499999998
 21
45.999992999999989
 31
0.0
  0
LINE
  5
E5E
  8
OUTLINE
  6
CONTINUOUS
 62
     3
 10
-367.02064000000001
 20
56.512207999999987
 30
0.0
 11
-328.50000599999998
 21
53.999993000000011
 31
0.0
  0
LINE
  5
E5F
  8
OUTLINE
  6
CONTINUOUS
 62
     3
 10
-326.00000599999998
 20
12.699992
 30
0.0
 11
-328.00000599999998
 21
12.699992
 31
0.0
  0
LINE
  5
E60
  8
OUTLINE
  6
CONTINUOUS
 62
     3
 10
326.00000599999998
 20
12.699992
 30
0.0
 11
328.00000599999998
 21
12.699992
 31
0.0
  0
LINE
  5
E61
  8
OUTLINE
  6
CONTINUOUS
 62
     3
 10
-305.00000599999998
 20
8.9999920000000007
 30
0.0
 11
-322.90071
 21
8.9999920000000007
 31
0.0
  0
LINE
  5
E62
  8
OUTLINE
  6
CONTINUOUS
 62
     3
 10
322.70000599999997
 20
8.9999920000000007
 30
0.0
 11
305.00000599999998
 21
8.9999920000000007
 31
0.0
  0
LINE
  5
E63
  8
OUTLINE
  6
CONTINUOUS
 62
     3
 10
367.02064000000001
 20
56.512207999999987
 30
0.0
 11
328.50000599999998
 21
53.999993000000011
 31
0.0
  0
LINE
  5
E64
  8
OUTLINE
  6
CONTINUOUS
 62
     3
 10
380.00000699999998
 20
-0.000008
 30
0.0
 11
330.00000599999998
 21
-0.000008
 31
0.0
  0
LINE
  5
E65
  8
OUTLINE
  6
CONTINUOUS
 62
     3
 10
380.00000699999998
 20
2.299992
 30
0.0
 11
330.00000599999998
 21
2.299992
 31
0.0
  0
ARC
  5
E66
  8
OUTLINE
  6
CONTINUOUS
 62
     3
 10
330.00000599999998
 20
7.2999919999999987
 30
0.0
 40
5.0
 50
180.0
 51
270.0
  0
ARC
  5
E67
  8
OUTLINE
  6
CONTINUOUS
 62
     3
 10
330.00000599999998
 20
7.2999919999999987
 30
0.0
 40
7.2999999999999989
 50
180.0
 51
270.0
  0
LINE
  5
E68
  8
OUTLINE
  6
CONTINUOUS
 62
     3
 10
380.00000699999998
 20
2.299992
 30
0.0
 11
380.00000699999998
 21
-0.000008
 31
0.0
  0
LINE
  5
E69
  8
OUTLINE
  6
CONTINUOUS
 62
     3
 10
-380.00000699999998
 20
2.299992
 30
0.0
 11
-380.00000699999998
 21
-0.000008
 31
0.0
  0
LINE
  5
E6A
  8
OUTLINE
  6
CONTINUOUS
 62
     3
 10
-330.00000599999998
 20
-0.000008
 30
0.0
 11
-380.00000699999998
 21
-0.000008
 31
0.0
  0
LINE
  5
E6B
  8
OUTLINE
  6
CONTINUOUS
 62
     3
 10
-330.00000599999998
 20
2.299992
 30
0.0
 11
-380.00000699999998
 21
2.299992
 31
0.0
  0
ARC
  5
E6C
  8
OUTLINE
  6
CONTINUOUS
 62
     3
 10
-330.00000599999998
 20
7.2999919999999987
 30
0.0
 40
5.0
 50
270.0
 51
0.0
  0
ARC
  5
E6D
  8
OUTLINE
  6
CONTINUOUS
 62
     3
 10
-330.00000599999998
 20
7.2999919999999987
 30
0.0
 40
7.2999999999999989
 50
270.0
 51
0.0
  0
LINE
  5
E6E
  8
OUTLINE
  6
CONTINUOUS
 62
     3
 10
-380.00000699999998
 20
1370.0000170000001
 30
0.0
 11
-375.70000700000003
 21
1370.0000170000001
 31
0.0
  0
LINE
  5
E6F
  8
OUTLINE
  6
CONTINUOUS
 62
     3
 10
380.00000699999998
 20
1410.000018
 30
0.0
 11
373.81358399999999
 21
1410.000018
 31
0.0
  0
LINE
  5
E70
  8
OUTLINE
  6
CONTINUOUS
 62
     3
 10
380.00000699999998
 20
1370.0000170000001
 30
0.0
 11
375.50000699999998
 21
1370.0000170000001
 31
0.0
  0
LINE
  5
E71
  8
OUTLINE
  6
CONTINUOUS
 62
     3
 10
-326.02841000000001
 20
1640.5000219999999
 30
0.0
 11
-320.00000599999998
 21
1640.5000219999999
 31
0.0
  0
LINE
  5
E72
  8
OUTLINE
  6
CONTINUOUS
 62
     3
 10
-320.00000599999998
 20
1640.5000219999999
 30
0.0
 11
-320.00000599999998
 21
1641.6000220000001
 31
0.0
  0
LINE
  5
E73
  8
OUTLINE
  6
CONTINUOUS
 62
     3
 10
-320.00000599999998
 20
1641.6000220000001
 30
0.0
 11
-300.00000599999998
 21
1641.6000220000001
 31
0.0
  0
LINE
  5
E74
  8
OUTLINE
  6
CONTINUOUS
 62
     3
 10
-300.00000599999998
 20
1642.3000219999999
 30
0.0
 11
-280.00000499999999
 21
1642.3000219999999
 31
0.0
  0
LINE
  5
E75
  8
OUTLINE
  6
CONTINUOUS
 62
     3
 10
-280.00000499999999
 20
1643.0000219999999
 30
0.0
 11
-260.00000499999999
 21
1643.0000219999999
 31
0.0
  0
LINE
  5
E76
  8
OUTLINE
  6
CONTINUOUS
 62
     3
 10
-260.00000499999999
 20
1643.700022
 30
0.0
 11
-240.00000399999999
 21
1643.700022
 31
0.0
  0
LINE
  5
E77
  8
OUTLINE
  6
CONTINUOUS
 62
     3
 10
-240.00000399999999
 20
1644.400022
 30
0.0
 11
-220.00000399999999
 21
1644.400022
 31
0.0
  0
LINE
  5
E78
  8
OUTLINE
  6
CONTINUOUS
 62
     3
 10
-220.00000399999999
 20
1645.1000220000001
 30
0.0
 11
-200.00000399999999
 21
1645.1000220000001
 31
0.0
  0
LINE
  5
E79
  8
OUTLINE
  6
CONTINUOUS
 62
     3
 10
-200.00000399999999
 20
1645.8000219999999
 30
0.0
 11
-180.00000299999991
 21
1645.8000219999999
 31
0.0
  0
LINE
  5
E7A
  8
OUTLINE
  6
CONTINUOUS
 62
     3
 10
-180.00000299999991
 20
1646.5000219999999
 30
0.0
 11
-160.00000299999999
 21
1646.5000219999999
 31
0.0
  0
LINE
  5
E7B
  8
OUTLINE
  6
CONTINUOUS
 62
     3
 10
-160.00000299999999
 20
1647.200022
 30
0.0
 11
-140.00000299999999
 21
1647.200022
 31
0.0
  0
LINE
  5
E7C
  8
OUTLINE
  6
CONTINUOUS
 62
     3
 10
-140.00000299999999
 20
1647.900022
 30
0.0
 11
-120.00000199999999
 21
1647.900022
 31
0.0
  0
LINE
  5
E7D
  8
OUTLINE
  6
CONTINUOUS
 62
     3
 10
-120.00000199999999
 20
1648.6000220000001
 30
0.0
 11
-100.00000199999999
 21
1648.6000220000001
 31
0.0
  0
LINE
  5
E7E
  8
OUTLINE
  6
CONTINUOUS
 62
     3
 10
-100.00000199999999
 20
1649.300023
 30
0.0
 11
-80.000000999999983
 21
1649.300023
 31
0.0
  0
LINE
  5
E7F
  8
OUTLINE
  6
CONTINUOUS
 62
     3
 10
80.000000999999983
 20
1649.300023
 30
0.0
 11
100.00000199999999
 21
1649.300023
 31
0.0
  0
LINE
  5
E80
  8
OUTLINE
  6
CONTINUOUS
 62
     3
 10
100.00000199999999
 20
1648.6000220000001
 30
0.0
 11
120.00000199999999
 21
1648.6000220000001
 31
0.0
  0
LINE
  5
E81
  8
OUTLINE
  6
CONTINUOUS
 62
     3
 10
120.00000199999999
 20
1647.900022
 30
0.0
 11
140.00000299999999
 21
1647.900022
 31
0.0
  0
LINE
  5
E82
  8
OUTLINE
  6
CONTINUOUS
 62
     3
 10
140.00000299999999
 20
1647.200022
 30
0.0
 11
160.00000299999999
 21
1647.200022
 31
0.0
  0
LINE
  5
E83
  8
OUTLINE
  6
CONTINUOUS
 62
     3
 10
160.00000299999999
 20
1646.5000219999999
 30
0.0
 11
180.00000299999991
 21
1646.5000219999999
 31
0.0
  0
LINE
  5
E84
  8
OUTLINE
  6
CONTINUOUS
 62
     3
 10
180.00000299999991
 20
1645.8000219999999
 30
0.0
 11
200.00000399999999
 21
1645.8000219999999
 31
0.0
  0
LINE
  5
E85
  8
OUTLINE
  6
CONTINUOUS
 62
     3
 10
200.00000399999999
 20
1645.1000220000001
 30
0.0
 11
220.00000399999999
 21
1645.1000220000001
 31
0.0
  0
LINE
  5
E86
  8
OUTLINE
  6
CONTINUOUS
 62
     3
 10
220.00000399999999
 20
1644.400022
 30
0.0
 11
240.00000399999999
 21
1644.400022
 31
0.0
  0
LINE
  5
E87
  8
OUTLINE
  6
CONTINUOUS
 62
     3
 10
240.00000399999999
 20
1643.700022
 30
0.0
 11
260.00000499999999
 21
1643.700022
 31
0.0
  0
LINE
  5
E88
  8
OUTLINE
  6
CONTINUOUS
 62
     3
 10
260.00000499999999
 20
1643.0000219999999
 30
0.0
 11
280.00000499999999
 21
1643.0000219999999
 31
0.0
  0
LINE
  5
E89
  8
OUTLINE
  6
CONTINUOUS
 62
     3
 10
280.00000499999999
 20
1642.3000219999999
 30
0.0
 11
300.00000599999998
 21
1642.3000219999999
 31
0.0
  0
LINE
  5
E8A
  8
OUTLINE
  6
CONTINUOUS
 62
     3
 10
300.00000599999998
 20
1641.6000220000001
 30
0.0
 11
320.00000599999998
 21
1641.6000220000001
 31
0.0
  0
LINE
  5
E8B
  8
OUTLINE
  6
CONTINUOUS
 62
     3
 10
326.02841000000001
 20
1640.5000219999999
 30
0.0
 11
320.00000599999998
 21
1640.5000219999999
 31
0.0
  0
LINE
  5
E8D
  8
OUTLINE
  6
CONTINUOUS
 62
     3
 10
-325.00000599999998
 20
12.618827
 30
0.0
 11
-325.00000599999998
 21
7.2999919999999987
 31
0.0
  0
LINE
  5
E8E
  8
OUTLINE
  6
CONTINUOUS
 62
     3
 10
325.00000599999998
 20
11.699992
 30
0.0
 11
325.00000599999998
 21
7.2999919999999987
 31
0.0
  0
LINE
  5
E8F
  8
NOTE
  6
CONTINUOUS
 62
     4
 10
-362.00000699999998
 20
-0.000008
 30
0.0
 11
-385.542013
 21
-23.598420999999998
 31
0.0
  0
LINE
  5
E90
  8
NOTE
  6
CONTINUOUS
 62
     4
 10
-362.00000699999998
 20
-0.000008
 30
0.0
 11
-394.18718899999999
 21
-8.6658299999999997
 31
0.0
  0
LINE
  5
E91
  8
NOTE
  6
CONTINUOUS
 62
     4
 10
-543.72781999999995
 20
-105.21074299999999
 30
0.0
 11
-362.00000699999998
 21
-0.000008
 31
0.0
  0
TEXT
  5
E92
  8
NOTE
  6
CONTINUOUS
 62
     4
 10
-1051.1881880000001
 20
-91.812632999999991
 30
0.0
 40
55.0
  1
AH  2X2-14X20長穴
 50
0.000003
 41
0.6309520000000001
  7
STANDARD1
  0
LINE
  5
E93
  8
NOTE
  6
CONTINUOUS
 62
     4
 10
-1077.925962
 20
-105.21074299999999
 30
0.0
 11
-543.72781999999995
 21
-105.21074299999999
 31
0.0
  0
LINE
  5
E94
  8
OUTLINE
  6
CONTINUOUS
 62
     3
 10
-380.00000699999998
 20
1410.000018
 30
0.0
 11
380.00000699999998
 21
1410.000018
 31
0.0
  0
LINE
  5
E95
  8
NOTE
  6
CONTINUOUS
 62
     4
 10
300.00000699999998
 20
1439.0000190000001
 30
0.0
 11
300.00000699999998
 21
1381.000018
 31
0.0
  0
LINE
  5
E96
  8
NOTE
  6
CONTINUOUS
 62
     4
 10
329.00000799999998
 20
1410.000018
 30
0.0
 11
271.00000599999998
 21
1410.000018
 31
0.0
  0
LINE
  5
E97
  8
NOTE
  6
CONTINUOUS
 62
     4
 10
150.00000700000001
 20
1439.0000190000001
 30
0.0
 11
150.00000700000001
 21
1381.000018
 31
0.0
  0
LINE
  5
E98
  8
NOTE
  6
CONTINUOUS
 62
     4
 10
179.00000800000001
 20
1410.000018
 30
0.0
 11
121.000006
 21
1410.000018
 31
0.0
  0
LINE
  5
E99
  8
NOTE
  6
CONTINUOUS
 62
     4
 10
0.0
 20
1439.0000190000001
 30
0.0
 11
0.0
 21
1381.000018
 31
0.0
  0
LINE
  5
E9A
  8
NOTE
  6
CONTINUOUS
 62
     4
 10
29.000001000000001
 20
1410.000018
 30
0.0
 11
-29.000001000000001
 21
1410.000018
 31
0.0
  0
LINE
  5
E9B
  8
NOTE
  6
CONTINUOUS
 62
     4
 10
-149.99999299999999
 20
1439.0000190000001
 30
0.0
 11
-149.99999299999999
 21
1381.000018
 31
0.0
  0
LINE
  5
E9C
  8
NOTE
  6
CONTINUOUS
 62
     4
 10
-120.99999200000001
 20
1410.000018
 30
0.0
 11
-178.99999399999999
 21
1410.000018
 31
0.0
  0
LINE
  5
E9D
  8
NOTE
  6
CONTINUOUS
 62
     4
 10
-299.99999300000002
 20
1439.0000190000001
 30
0.0
 11
-299.99999300000002
 21
1381.000018
 31
0.0
  0
LINE
  5
E9E
  8
NOTE
  6
CONTINUOUS
 62
     4
 10
-270.99999200000002
 20
1410.000018
 30
0.0
 11
-328.99999400000002
 21
1410.000018
 31
0.0
  0
LINE
  5
E9F
  8
SIZE
  6
CONTINUOUS
 62
    30
 10
380.00001300000002
 20
1430.000018
 30
0.0
 11
380.00001300000002
 21
1917.2029580000001
 31
0.0
  0
LINE
  5
EA0
  8
SIZE
  6
CONTINUOUS
 62
    30
 10
300.00000699999998
 20
1459.0000190000001
 30
0.0
 11
300.00000699999998
 21
1917.2029580000001
 31
0.0
  0
LINE
  5
EA1
  8
SIZE
  6
CONTINUOUS
 62
    30
 10
390.00001300000002
 20
1887.2029580000001
 30
0.0
 11
400.00001300000002
 21
1887.2029580000001
 31
0.0
  0
LINE
  5
EA2
  8
SIZE
  6
CONTINUOUS
 62
    30
 10
290.00000699999998
 20
1887.2029580000001
 30
0.0
 11
280.00000699999998
 21
1887.2029580000001
 31
0.0
  0
LINE
  5
EA3
  8
SIZE
  6
CONTINUOUS
 62
    30
 10
380.00001300000002
 20
1887.2029580000001
 30
0.0
 11
300.00000699999998
 21
1887.2029580000001
 31
0.0
  0
CIRCLE
  5
EA4
  8
SIZE
  6
CONTINUOUS
 62
    30
 10
380.00001300000002
 20
1887.2029580000001
 30
0.0
 40
5.0
  0
LINE
  5
EA5
  8
SIZE
  6
CONTINUOUS
 62
    30
 10
385.00001300000002
 20
1887.2029580000001
 30
0.0
 11
390.00001300000002
 21
1887.2029580000001
 31
0.0
  0
CIRCLE
  5
EA6
  8
SIZE
  6
CONTINUOUS
 62
    30
 10
300.00000699999998
 20
1887.2029580000001
 30
0.0
 40
5.0
  0
LINE
  5
EA7
  8
SIZE
  6
CONTINUOUS
 62
    30
 10
295.00000699999998
 20
1887.2029580000001
 30
0.0
 11
290.00000699999998
 21
1887.2029580000001
 31
0.0
  0
TEXT
  5
EA8
  8
SIZE
  6
CONTINUOUS
 62
    30
 10
299.92858142857148
 20
1902.2029580000001
 30
0.0
 40
55.0
  1
80
 41
0.9
 72
     1
 11
340.00000999999997
 21
1902.2029580000001
 31
0.0
  0
POINT
  5
EA9
  8
DEFPOINTS
  6
CONTINUOUS
 62
     7
 10
380.00001300000002
 20
1410.000018
 30
0.0
  0
POINT
  5
EAA
  8
DEFPOINTS
  6
CONTINUOUS
 62
     7
 10
300.00000699999998
 20
1439.0000190000001
 30
0.0
  0
POINT
  5
EAB
  8
DEFPOINTS
  6
CONTINUOUS
 62
     7
 10
300.00000699999998
 20
1887.2029580000001
 30
0.0
  0
LINE
  5
EAC
  8
SIZE
  6
CONTINUOUS
 62
    30
 10
300.00000699999998
 20
1459.0000190000001
 30
0.0
 11
300.00000699999998
 21
1917.2029580000001
 31
0.0
  0
LINE
  5
EAD
  8
SIZE
  6
CONTINUOUS
 62
    30
 10
150.00000700000001
 20
1459.0000190000001
 30
0.0
 11
150.00000700000001
 21
1917.2029580000001
 31
0.0
  0
LINE
  5
EAE
  8
SIZE
  6
CONTINUOUS
 62
    30
 10
290.00000699999998
 20
1887.2029580000001
 30
0.0
 11
160.00000700000001
 21
1887.2029580000001
 31
0.0
  0
CIRCLE
  5
EAF
  8
SIZE
  6
CONTINUOUS
 62
    30
 10
300.00000699999998
 20
1887.2029580000001
 30
0.0
 40
5.0
  0
LINE
  5
EB0
  8
SIZE
  6
CONTINUOUS
 62
    30
 10
295.00000699999998
 20
1887.2029580000001
 30
0.0
 11
290.00000699999998
 21
1887.2029580000001
 31
0.0
  0
CIRCLE
  5
EB1
  8
SIZE
  6
CONTINUOUS
 62
    30
 10
150.00000700000001
 20
1887.2029580000001
 30
0.0
 40
5.0
  0
LINE
  5
EB2
  8
SIZE
  6
CONTINUOUS
 62
    30
 10
155.00000700000001
 20
1887.2029580000001
 30
0.0
 11
160.00000700000001
 21
1887.2029580000001
 31
0.0
  0
TEXT
  5
EB3
  8
SIZE
  6
CONTINUOUS
 62
    30
 10
166.07143557142851
 20
1902.2029580000001
 30
0.0
 40
55.0
  1
150
 41
0.9
 72
     1
 11
225.00000700000001
 21
1902.2029580000001
 31
0.0
  0
POINT
  5
EB4
  8
DEFPOINTS
  6
CONTINUOUS
 62
     7
 10
300.00000699999998
 20
1439.0000190000001
 30
0.0
  0
POINT
  5
EB5
  8
DEFPOINTS
  6
CONTINUOUS
 62
     7
 10
150.00000700000001
 20
1439.0000190000001
 30
0.0
  0
POINT
  5
EB6
  8
DEFPOINTS
  6
CONTINUOUS
 62
     7
 10
150.00000700000001
 20
1887.2029580000001
 30
0.0
  0
LINE
  5
EB7
  8
SIZE
  6
CONTINUOUS
 62
    30
 10
150.00000700000001
 20
1459.0000190000001
 30
0.0
 11
150.00000700000001
 21
1917.2029580000001
 31
0.0
  0
LINE
  5
EB8
  8
SIZE
  6
CONTINUOUS
 62
    30
 10
0.0
 20
1459.0000190000001
 30
0.0
 11
0.0
 21
1917.2029580000001
 31
0.0
  0
LINE
  5
EB9
  8
SIZE
  6
CONTINUOUS
 62
    30
 10
140.00000700000001
 20
1887.2029580000001
 30
0.0
 11
10.0
 21
1887.2029580000001
 31
0.0
  0
CIRCLE
  5
EBA
  8
SIZE
  6
CONTINUOUS
 62
    30
 10
150.00000700000001
 20
1887.2029580000001
 30
0.0
 40
5.0
  0
LINE
  5
EBB
  8
SIZE
  6
CONTINUOUS
 62
    30
 10
145.00000700000001
 20
1887.2029580000001
 30
0.0
 11
140.00000700000001
 21
1887.2029580000001
 31
0.0
  0
CIRCLE
  5
EBC
  8
SIZE
  6
CONTINUOUS
 62
    30
 10
0.0
 20
1887.2029580000001
 30
0.0
 40
5.0
  0
LINE
  5
EBD
  8
SIZE
  6
CONTINUOUS
 62
    30
 10
5.0
 20
1887.2029580000001
 30
0.0
 11
10.0
 21
1887.2029580000001
 31
0.0
  0
TEXT
  5
EBE
  8
SIZE
  6
CONTINUOUS
 62
    30
 10
16.071432571428581
 20
1902.2029580000001
 30
0.0
 40
55.0
  1
150
 41
0.9
 72
     1
 11
75.000004000000004
 21
1902.2029580000001
 31
0.0
  0
POINT
  5
EBF
  8
DEFPOINTS
  6
CONTINUOUS
 62
     7
 10
150.00000700000001
 20
1439.0000190000001
 30
0.0
  0
POINT
  5
EC0
  8
DEFPOINTS
  6
CONTINUOUS
 62
     7
 10
0.0
 20
1439.0000190000001
 30
0.0
  0
POINT
  5
EC1
  8
DEFPOINTS
  6
CONTINUOUS
 62
     7
 10
0.0
 20
1887.2029580000001
 30
0.0
  0
LINE
  5
EC2
  8
SIZE
  6
CONTINUOUS
 62
    30
 10
0.0
 20
1459.0000190000001
 30
0.0
 11
0.0
 21
1917.2029580000001
 31
0.0
  0
LINE
  5
EC3
  8
SIZE
  6
CONTINUOUS
 62
    30
 10
-149.99999299999999
 20
1459.0000190000001
 30
0.0
 11
-149.99999299999999
 21
1917.2029580000001
 31
0.0
  0
LINE
  5
EC4
  8
SIZE
  6
CONTINUOUS
 62
    30
 10
-10.0
 20
1887.2029580000001
 30
0.0
 11
-139.99999299999999
 21
1887.2029580000001
 31
0.0
  0
CIRCLE
  5
EC5
  8
SIZE
  6
CONTINUOUS
 62
    30
 10
0.0
 20
1887.2029580000001
 30
0.0
 40
5.0
  0
LINE
  5
EC6
  8
SIZE
  6
CONTINUOUS
 62
    30
 10
-5.0
 20
1887.2029580000001
 30
0.0
 11
-10.0
 21
1887.2029580000001
 31
0.0
  0
CIRCLE
  5
EC7
  8
SIZE
  6
CONTINUOUS
 62
    30
 10
-149.99999299999999
 20
1887.2029580000001
 30
0.0
 40
5.0
  0
LINE
  5
EC8
  8
SIZE
  6
CONTINUOUS
 62
    30
 10
-144.99999299999999
 20
1887.2029580000001
 30
0.0
 11
-139.99999299999999
 21
1887.2029580000001
 31
0.0
  0
TEXT
  5
EC9
  8
SIZE
  6
CONTINUOUS
 62
    30
 10
-133.9285674285714
 20
1902.2029580000001
 30
0.0
 40
55.0
  1
150
 41
0.9
 72
     1
 11
-74.999995999999996
 21
1902.2029580000001
 31
0.0
  0
POINT
  5
ECA
  8
DEFPOINTS
  6
CONTINUOUS
 62
     7
 10
0.0
 20
1439.0000190000001
 30
0.0
  0
POINT
  5
ECB
  8
DEFPOINTS
  6
CONTINUOUS
 62
     7
 10
-149.99999299999999
 20
1439.0000190000001
 30
0.0
  0
POINT
  5
ECC
  8
DEFPOINTS
  6
CONTINUOUS
 62
     7
 10
-149.99999299999999
 20
1887.2029580000001
 30
0.0
  0
LINE
  5
ECD
  8
SIZE
  6
CONTINUOUS
 62
    30
 10
-149.99999299999999
 20
1459.0000190000001
 30
0.0
 11
-149.99999299999999
 21
1917.2029580000001
 31
0.0
  0
LINE
  5
ECE
  8
SIZE
  6
CONTINUOUS
 62
    30
 10
-299.99999300000002
 20
1459.0000190000001
 30
0.0
 11
-299.99999300000002
 21
1917.2029580000001
 31
0.0
  0
LINE
  5
ECF
  8
SIZE
  6
CONTINUOUS
 62
    30
 10
-159.99999299999999
 20
1887.2029580000001
 30
0.0
 11
-289.99999300000002
 21
1887.2029580000001
 31
0.0
  0
CIRCLE
  5
ED0
  8
SIZE
  6
CONTINUOUS
 62
    30
 10
-149.99999299999999
 20
1887.2029580000001
 30
0.0
 40
5.0
  0
LINE
  5
ED1
  8
SIZE
  6
CONTINUOUS
 62
    30
 10
-154.99999299999999
 20
1887.2029580000001
 30
0.0
 11
-159.99999299999999
 21
1887.2029580000001
 31
0.0
  0
CIRCLE
  5
ED2
  8
SIZE
  6
CONTINUOUS
 62
    30
 10
-299.99999300000002
 20
1887.2029580000001
 30
0.0
 40
5.0
  0
LINE
  5
ED3
  8
SIZE
  6
CONTINUOUS
 62
    30
 10
-294.99999300000002
 20
1887.2029580000001
 30
0.0
 11
-289.99999300000002
 21
1887.2029580000001
 31
0.0
  0
TEXT
  5
ED4
  8
SIZE
  6
CONTINUOUS
 62
    30
 10
-283.92856442857152
 20
1902.2029580000001
 30
0.0
 40
55.0
  1
150
 41
0.9
 72
     1
 11
-224.99999299999999
 21
1902.2029580000001
 31
0.0
  0
POINT
  5
ED5
  8
DEFPOINTS
  6
CONTINUOUS
 62
     7
 10
-149.99999299999999
 20
1439.0000190000001
 30
0.0
  0
POINT
  5
ED6
  8
DEFPOINTS
  6
CONTINUOUS
 62
     7
 10
-299.99999300000002
 20
1439.0000190000001
 30
0.0
  0
POINT
  5
ED7
  8
DEFPOINTS
  6
CONTINUOUS
 62
     7
 10
-299.99999300000002
 20
1887.2029580000001
 30
0.0
  0
LINE
  5
ED8
  8
NOTE
  6
CONTINUOUS
 62
     4
 10
-299.99999300000002
 20
1439.0000190000001
 30
0.0
 11
-299.99999300000002
 21
1381.000018
 31
0.0
  0
LINE
  5
ED9
  8
NOTE
  6
CONTINUOUS
 62
     4
 10
-270.99999200000002
 20
1410.000018
 30
0.0
 11
-328.99999400000002
 21
1410.000018
 31
0.0
  0
LINE
  5
EDA
  8
NOTE
  6
CONTINUOUS
 62
     4
 10
-299.99999300000002
 20
1410.000018
 30
0.0
 11
-329.51885099999998
 21
1425.483821
 31
0.0
  0
LINE
  5
EDB
  8
NOTE
  6
CONTINUOUS
 62
     4
 10
-299.99999300000002
 20
1410.000018
 30
0.0
 11
-317.82217300000002
 21
1438.1688140000001
 31
0.0
  0
LINE
  5
EDC
  8
NOTE
  6
CONTINUOUS
 62
     4
 10
-429.72096499999998
 20
1529.6141580000001
 30
0.0
 11
-299.99999300000002
 21
1410.000018
 31
0.0
  0
TEXT
  5
EDD
  8
NOTE
  6
CONTINUOUS
 62
     4
 10
-1040.4717430000001
 20
1464.386158
 30
0.0
 40
55.0
  1
＜防雪ﾌ-ﾄﾞ（別売品）取付用穴＞
 50
0.000003
 41
0.638665
  7
STANDARD1
  0
TEXT
  5
EDE
  8
NOTE
  6
CONTINUOUS
 62
     4
 10
-1008.13075
 20
1540.118553
 30
0.0
 40
55.0
  1
(樹脂部の開口加工必要）
 50
0.000003
 41
0.693662
  7
STANDARD1
  0
TEXT
  5
EDF
  8
NOTE
  6
CONTINUOUS
 62
     4
 10
-1008.13075
 20
1610.1185539999999
 30
0.0
 40
55.0
  1
2X5-φ4.6穴
 50
0.000003
 41
0.603058
  7
STANDARD1
  0
LINE
  5
EE0
  8
NOTE
  6
CONTINUOUS
 62
     4
 10
-1061.01747
 20
1529.6141580000001
 30
0.0
 11
-429.72096499999998
 21
1529.6141580000001
 31
0.0
  0
TEXT
  5
EE1
  8
NOTE
  6
CONTINUOUS
 62
     4
 10
558.29988400000002
 20
383.45797099999999
 30
0.0
 40
55.0
  1
%%C27ﾉｯｸｱｳﾄ穴
 50
359.99999700000001
 41
0.6309520000000001
  7
STANDARD1
  0
LINE
  5
EE2
  8
NOTE
  6
CONTINUOUS
 62
     4
 10
400.88512099999991
 20
373.11315400000001
 30
0.0
 11
846.61080000000004
 21
373.11315400000001
 31
0.0
  0
LINE
  5
EE3
  8
NOTE
  6
CONTINUOUS
 62
     4
 10
453.89851299999992
 20
699.134411
 30
0.0
 11
833.61923899999999
 21
699.134411
 31
0.0
  0
TEXT
  5
EE4
  8
NOTE
  6
CONTINUOUS
 62
     4
 10
467.52596899999998
 20
710.19795099999988
 30
0.0
 40
55.0
  1
CL %%C34ﾉｯｸｱｳﾄ穴
 50
359.99999700000001
 41
0.6309520000000001
  7
STANDARD1
  0
LINE
  5
EE5
  8
SIZE
  6
CONTINUOUS
 62
    30
 10
400.00000699999993
 20
0.0
 30
0.0
 11
585.60830299999986
 21
0.0
 31
0.0
  0
LINE
  5
EE6
  8
SIZE
  6
CONTINUOUS
 62
    30
 10
395.50000699999998
 20
146.0
 30
0.0
 11
585.60830299999986
 21
146.0
 31
0.0
  0
LINE
  5
EE7
  8
SIZE
  6
CONTINUOUS
 62
    30
 10
555.60830299999986
 20
10.0
 30
0.0
 11
555.60830299999986
 21
136.0
 31
0.0
  0
CIRCLE
  5
EE8
  8
SIZE
  6
CONTINUOUS
 62
    30
 10
555.60830299999986
 20
0.0
 30
0.0
 40
5.0
  0
LINE
  5
EE9
  8
SIZE
  6
CONTINUOUS
 62
    30
 10
555.60830299999986
 20
5.0
 30
0.0
 11
555.60830299999986
 21
10.0
 31
0.0
  0
CIRCLE
  5
EEA
  8
SIZE
  6
CONTINUOUS
 62
    30
 10
555.60830299999986
 20
146.0
 30
0.0
 40
5.0
  0
LINE
  5
EEB
  8
SIZE
  6
CONTINUOUS
 62
    30
 10
555.60830299999986
 20
141.0
 30
0.0
 11
555.60830299999986
 21
136.0
 31
0.0
  0
TEXT
  5
EEC
  8
SIZE
  6
CONTINUOUS
 62
    30
 10
540.60830299999986
 20
11.80518700000002
 30
0.0
 40
55.0
  1
146
 50
90.0
 41
0.9
 72
     1
 11
540.60830299999986
 21
69.555187000000004
 31
0.0
  0
POINT
  5
EEE
  8
DEFPOINTS
  6
CONTINUOUS
 62
     7
 10
375.50000699999998
 20
146.0
 30
0.0
  0
POINT
  5
EEF
  8
DEFPOINTS
  6
CONTINUOUS
 62
     7
 10
555.60830299999986
 20
146.0
 30
0.0
  0
LINE
  5
EF0
  8
SIZE
  6
CONTINUOUS
 62
    30
 10
400.00000699999993
 20
-0.000008
 30
0.0
 11
684.75236500000005
 21
-0.000008
 31
0.0
  0
LINE
  5
EF1
  8
SIZE
  6
CONTINUOUS
 62
    30
 10
395.500022
 20
217.0
 30
0.0
 11
684.75236500000005
 21
217.0
 31
0.0
  0
LINE
  5
EF2
  8
SIZE
  6
CONTINUOUS
 62
    30
 10
654.75236500000005
 20
9.9999920000000007
 30
0.0
 11
654.75236500000005
 21
207.0
 31
0.0
  0
CIRCLE
  5
EF3
  8
SIZE
  6
CONTINUOUS
 62
    30
 10
654.75236500000005
 20
-0.000008
 30
0.0
 40
5.0
  0
LINE
  5
EF4
  8
SIZE
  6
CONTINUOUS
 62
    30
 10
654.75236500000005
 20
4.9999919999999989
 30
0.0
 11
654.75236500000005
 21
9.9999920000000007
 31
0.0
  0
CIRCLE
  5
EF5
  8
SIZE
  6
CONTINUOUS
 62
    30
 10
654.75236500000005
 20
217.0
 30
0.0
 40
5.0
  0
LINE
  5
EF6
  8
SIZE
  6
CONTINUOUS
 62
    30
 10
654.75236500000005
 20
212.0
 30
0.0
 11
654.75236500000005
 21
207.0
 31
0.0
  0
TEXT
  5
EF7
  8
SIZE
  6
CONTINUOUS
 62
    30
 10
639.75236500000005
 20
39.592251571428569
 30
0.0
 40
55.0
  1
217
 50
90.0
 41
0.9
 72
     1
 11
639.75236500000005
 21
98.520822999999993
 31
0.0
  0
POINT
  5
EF9
  8
DEFPOINTS
  6
CONTINUOUS
 62
     7
 10
375.500022
 20
217.0
 30
0.0
  0
POINT
  5
EFA
  8
DEFPOINTS
  6
CONTINUOUS
 62
     7
 10
654.75236500000005
 20
217.0
 30
0.0
  0
TEXT
  5
EFB
  8
NOTE
  6
CONTINUOUS
 62
     4
 10
489.73142459669202
 20
983.18401848739109
 30
0.0
 40
55.0
  1
RL %%C19.05
 50
359.99999700000001
 41
0.6309520000000001
  7
STANDARD1
  0
LINE
  5
EFC
  8
NOTE
  6
CONTINUOUS
 62
     4
 10
474.78600559669201
 20
972.83920048739117
 30
0.0
 11
785.19026559669203
 21
972.83920048739117
 31
0.0
  0
TEXT
  5
EFD
  8
NOTE
  6
CONTINUOUS
 62
     4
 10
437.01739399999991
 20
448.21932699999991
 30
0.0
 40
55.0
  1
EL2 %%C52 もしくは
 50
359.99999700000001
 41
0.6309520000000001
  7
STANDARD1
  0
TEXT
  5
EFE
  8
NOTE
  6
CONTINUOUS
 62
     4
 10
576.35526800000002
 20
538.67566799999986
 30
0.0
 40
55.0
  1
%%C40ﾉｯｸｱｳﾄ穴
 50
359.99999700000001
 41
0.6309520000000001
  7
STANDARD1
  0
LINE
  5
EFF
  8
NOTE
  6
CONTINUOUS
 62
     4
 10
426.12462999999991
 20
528.33085000000005
 30
0.0
 11
864.66618400000004
 21
528.33085000000005
 31
0.0
  0
TEXT
  5
F00
  8
NOTE
  6
CONTINUOUS
 62
     4
 10
455.07277800000003
 20
603.43702400000006
 30
0.0
 40
55.0
  1
EL1 %%C65 もしくは
 50
359.99999700000001
 41
0.6309520000000001
  7
STANDARD1
  0
TEXT
  5
F01
  8
NOTE
  6
CONTINUOUS
 62
     4
 10
631.50585799999988
 20
-189.333865
 30
0.0
 40
55.0
  1
前面通し穴（分岐管キット使用時）
 50
359.99999700000001
 41
0.6309520000000001
  7
STANDARD1
  0
LINE
  5
F02
  8
NOTE
  6
CONTINUOUS
 62
     4
 10
616.984328
 20
-199.67868200000001
 30
0.0
 11
1287.6737900000001
 21
-199.67868200000001
 31
0.0
  0
LINE
  5
F03
  8
DETAIL
  6
CONTINUOUS
 62
     5
 10
-328.997049
 20
59.000017999999997
 30
0.0
 11
-328.997049
 21
1410.000018
 31
0.0
  0
LINE
  5
F04
  8
DETAIL
  6
CONTINUOUS
 62
     5
 10
-308.49999300000002
 20
1290.000018
 30
0.0
 11
173.50000700000001
 21
1290.000018
 31
0.0
  0
LINE
  5
F05
  8
DETAIL
  6
CONTINUOUS
 62
     5
 10
0.250007
 20
398.75001800000001
 30
0.0
 11
128.75000700000001
 21
398.75001800000001
 31
0.0
  0
LINE
  5
F06
  8
DETAIL
  6
CONTINUOUS
 62
     5
 10
0.250007
 20
395.25001800000001
 30
0.0
 11
128.75000700000001
 21
395.25001800000001
 31
0.0
  0
LINE
  5
F07
  8
DETAIL
  6
CONTINUOUS
 62
     5
 10
0.250007
 20
253.75001800000001
 30
0.0
 11
128.75000700000001
 21
253.75001800000001
 31
0.0
  0
LINE
  5
F08
  8
DETAIL
  6
CONTINUOUS
 62
     5
 10
0.250007
 20
250.25001800000001
 30
0.0
 11
128.75000700000001
 21
250.25001800000001
 31
0.0
  0
LINE
  5
F09
  8
DETAIL
  6
CONTINUOUS
 62
     5
 10
128.75000700000001
 20
106.000018
 30
0.0
 11
0.250007
 21
106.000018
 31
0.0
  0
LINE
  5
F0A
  8
DETAIL
  6
CONTINUOUS
 62
     5
 10
128.75000700000001
 20
102.500018
 30
0.0
 11
0.250007
 21
102.500018
 31
0.0
  0
LINE
  5
F0B
  8
DETAIL
  6
CONTINUOUS
 62
     5
 10
0.250007
 20
978.75001799999995
 30
0.0
 11
128.75000700000001
 21
978.75001799999995
 31
0.0
  0
LINE
  5
F0C
  8
DETAIL
  6
CONTINUOUS
 62
     5
 10
0.250007
 20
975.25001799999995
 30
0.0
 11
128.75000700000001
 21
975.25001799999995
 31
0.0
  0
LINE
  5
F0D
  8
DETAIL
  6
CONTINUOUS
 62
     5
 10
0.250007
 20
833.75001799999995
 30
0.0
 11
128.75000700000001
 21
833.75001799999995
 31
0.0
  0
LINE
  5
F0E
  8
DETAIL
  6
CONTINUOUS
 62
     5
 10
0.250007
 20
830.25001799999995
 30
0.0
 11
128.75000700000001
 21
830.25001799999995
 31
0.0
  0
LINE
  5
F0F
  8
DETAIL
  6
CONTINUOUS
 62
     5
 10
128.75000700000001
 20
688.00001799999995
 30
0.0
 11
0.250007
 21
688.00001799999995
 31
0.0
  0
LINE
  5
F10
  8
DETAIL
  6
CONTINUOUS
 62
     5
 10
128.75000700000001
 20
684.50001799999995
 30
0.0
 11
0.250007
 21
684.50001799999995
 31
0.0
  0
LINE
  5
F11
  8
DETAIL
  6
CONTINUOUS
 62
     5
 10
0.250007
 20
543.75001799999995
 30
0.0
 11
128.75000700000001
 21
543.75001799999995
 31
0.0
  0
LINE
  5
F12
  8
DETAIL
  6
CONTINUOUS
 62
     5
 10
0.250007
 20
540.25001799999995
 30
0.0
 11
128.75000700000001
 21
540.25001799999995
 31
0.0
  0
LINE
  5
F13
  8
DETAIL
  6
CONTINUOUS
 62
     5
 10
128.75000700000001
 20
1270.000018
 30
0.0
 11
0.250007
 21
1270.000018
 31
0.0
  0
LINE
  5
F14
  8
DETAIL
  6
CONTINUOUS
 62
     5
 10
128.75000700000001
 20
1266.500018
 30
0.0
 11
0.250007
 21
1266.500018
 31
0.0
  0
LINE
  5
F15
  8
DETAIL
  6
CONTINUOUS
 62
     5
 10
0.250007
 20
1123.750018
 30
0.0
 11
128.75000700000001
 21
1123.750018
 31
0.0
  0
LINE
  5
F16
  8
DETAIL
  6
CONTINUOUS
 62
     5
 10
0.250007
 20
1120.250018
 30
0.0
 11
128.75000700000001
 21
1120.250018
 31
0.0
  0
LINE
  5
F17
  8
DETAIL
  6
CONTINUOUS
 62
     5
 10
-275.56948399999999
 20
833.75001799999995
 30
0.0
 11
-275.56948399999999
 21
975.25001799999995
 31
0.0
  0
LINE
  5
F18
  8
DETAIL
  6
CONTINUOUS
 62
     5
 10
-292.49999300000002
 20
1266.500018
 30
0.0
 11
-292.49999300000002
 21
688.00001799999995
 31
0.0
  0
LINE
  5
F19
  8
DETAIL
  6
CONTINUOUS
 62
     5
 10
-263.74999300000002
 20
94.000018000000011
 30
0.0
 11
-263.74999300000002
 21
1280.000018
 31
0.0
  0
LINE
  5
F1A
  8
DETAIL
  6
CONTINUOUS
 62
     5
 10
-267.24999300000002
 20
94.000018000000011
 30
0.0
 11
-267.24999300000002
 21
1280.000018
 31
0.0
  0
LINE
  5
F1B
  8
DETAIL
  6
CONTINUOUS
 62
     5
 10
-131.74999299999999
 20
94.000018000000011
 30
0.0
 11
-131.74999299999999
 21
1280.000018
 31
0.0
  0
LINE
  5
F1C
  8
DETAIL
  6
CONTINUOUS
 62
     5
 10
-135.24999299999999
 20
94.000018000000011
 30
0.0
 11
-135.24999299999999
 21
1280.000018
 31
0.0
  0
LINE
  5
F1D
  8
DETAIL
  6
CONTINUOUS
 62
     5
 10
0.250007
 20
94.000018000000011
 30
0.0
 11
0.250007
 21
1280.000018
 31
0.0
  0
LINE
  5
F1E
  8
DETAIL
  6
CONTINUOUS
 62
     5
 10
-3.249992999999999
 20
94.000018000000011
 30
0.0
 11
-3.249992999999999
 21
1280.000018
 31
0.0
  0
LINE
  5
F1F
  8
DETAIL
  6
CONTINUOUS
 62
     5
 10
-307.29999299999997
 20
84.000018000000011
 30
0.0
 11
-307.29999299999997
 21
1290.000018
 31
0.0
  0
LINE
  5
F20
  8
DETAIL
  6
CONTINUOUS
 62
     5
 10
-307.29999299999997
 20
84.000018000000011
 30
0.0
 11
-307.29999299999997
 21
1290.000018
 31
0.0
  0
LINE
  5
F21
  8
DETAIL
  6
CONTINUOUS
 62
     5
 10
-292.49999300000002
 20
684.50001799999995
 30
0.0
 11
-292.49999300000002
 21
106.000018
 31
0.0
  0
LINE
  5
F22
  8
DETAIL
  6
CONTINUOUS
 62
     5
 10
-275.56948399999999
 20
398.75001800000001
 30
0.0
 11
-275.56948399999999
 21
540.25001799999995
 31
0.0
  0
LINE
  5
F23
  8
DETAIL
  6
CONTINUOUS
 62
     5
 10
-263.74999300000002
 20
398.75001800000001
 30
0.0
 11
-135.24999299999999
 21
398.75001800000001
 31
0.0
  0
LINE
  5
F24
  8
DETAIL
  6
CONTINUOUS
 62
     5
 10
-263.74999300000002
 20
395.25001800000001
 30
0.0
 11
-135.24999299999999
 21
395.25001800000001
 31
0.0
  0
LINE
  5
F25
  8
DETAIL
  6
CONTINUOUS
 62
     5
 10
-263.74999300000002
 20
253.75001800000001
 30
0.0
 11
-135.24999299999999
 21
253.75001800000001
 31
0.0
  0
LINE
  5
F26
  8
DETAIL
  6
CONTINUOUS
 62
     5
 10
-263.74999300000002
 20
250.25001800000001
 30
0.0
 11
-135.24999299999999
 21
250.25001800000001
 31
0.0
  0
LINE
  5
F27
  8
DETAIL
  6
CONTINUOUS
 62
     5
 10
-135.24999299999999
 20
106.000018
 30
0.0
 11
-263.74999300000002
 21
106.000018
 31
0.0
  0
LINE
  5
F28
  8
DETAIL
  6
CONTINUOUS
 62
     5
 10
-135.24999299999999
 20
102.500018
 30
0.0
 11
-263.74999300000002
 21
102.500018
 31
0.0
  0
LINE
  5
F29
  8
DETAIL
  6
CONTINUOUS
 62
     5
 10
-275.56948399999999
 20
253.75001800000001
 30
0.0
 11
-275.56948399999999
 21
395.25001800000001
 31
0.0
  0
LINE
  5
F2A
  8
DETAIL
  6
CONTINUOUS
 62
     5
 10
-267.24999300000002
 20
106.000018
 30
0.0
 11
-298.49999300000002
 21
106.000018
 31
0.0
  0
LINE
  5
F2B
  8
DETAIL
  6
CONTINUOUS
 62
     5
 10
-267.24999300000002
 20
102.500018
 30
0.0
 11
-298.49999300000002
 21
102.500018
 31
0.0
  0
LINE
  5
F2C
  8
DETAIL
  6
CONTINUOUS
 62
     5
 10
-292.49999300000002
 20
102.500018
 30
0.0
 11
-292.49999300000002
 21
84.000018000000011
 31
0.0
  0
LINE
  5
F2D
  8
DETAIL
  6
CONTINUOUS
 62
     5
 10
-275.56948399999999
 20
106.000018
 30
0.0
 11
-275.56948399999999
 21
250.25001800000001
 31
0.0
  0
LINE
  5
F2E
  8
DETAIL
  6
CONTINUOUS
 62
     5
 10
-267.24999300000002
 20
94.000018000000011
 30
0.0
 11
-263.74999300000002
 21
94.000018000000011
 31
0.0
  0
LINE
  5
F2F
  8
DETAIL
  6
CONTINUOUS
 62
     5
 10
-275.56948399999999
 20
84.000018000000011
 30
0.0
 11
-275.56948399999999
 21
102.500018
 31
0.0
  0
LINE
  5
F30
  8
DETAIL
  6
CONTINUOUS
 62
     5
 10
-282.49999300000002
 20
253.75001800000001
 30
0.0
 11
-267.24999300000002
 21
253.75001800000001
 31
0.0
  0
LINE
  5
F31
  8
DETAIL
  6
CONTINUOUS
 62
     5
 10
-282.49999300000002
 20
250.25001800000001
 30
0.0
 11
-267.24999300000002
 21
250.25001800000001
 31
0.0
  0
LINE
  5
F32
  8
DETAIL
  6
CONTINUOUS
 62
     5
 10
-282.49999300000002
 20
253.75001800000001
 30
0.0
 11
-282.49999300000002
 21
250.25001800000001
 31
0.0
  0
LINE
  5
F33
  8
DETAIL
  6
CONTINUOUS
 62
     5
 10
-282.49999300000002
 20
398.75001800000001
 30
0.0
 11
-282.49999300000002
 21
395.25001800000001
 31
0.0
  0
LINE
  5
F34
  8
DETAIL
  6
CONTINUOUS
 62
     5
 10
-282.49999300000002
 20
398.75001800000001
 30
0.0
 11
-267.24999300000002
 21
398.75001800000001
 31
0.0
  0
LINE
  5
F35
  8
DETAIL
  6
CONTINUOUS
 62
     5
 10
-282.49999300000002
 20
395.25001800000001
 30
0.0
 11
-267.24999300000002
 21
395.25001800000001
 31
0.0
  0
LINE
  5
F36
  8
DETAIL
  6
CONTINUOUS
 62
     5
 10
-131.74999299999999
 20
253.75001800000001
 30
0.0
 11
-3.249992999999999
 21
253.75001800000001
 31
0.0
  0
LINE
  5
F37
  8
DETAIL
  6
CONTINUOUS
 62
     5
 10
-131.74999299999999
 20
250.25001800000001
 30
0.0
 11
-3.249992999999999
 21
250.25001800000001
 31
0.0
  0
LINE
  5
F38
  8
DETAIL
  6
CONTINUOUS
 62
     5
 10
-3.249992999999999
 20
106.000018
 30
0.0
 11
-131.74999299999999
 21
106.000018
 31
0.0
  0
LINE
  5
F39
  8
DETAIL
  6
CONTINUOUS
 62
     5
 10
-3.249992999999999
 20
102.500018
 30
0.0
 11
-131.74999299999999
 21
102.500018
 31
0.0
  0
LINE
  5
F3A
  8
DETAIL
  6
CONTINUOUS
 62
     5
 10
-135.24999299999999
 20
94.000018000000011
 30
0.0
 11
-131.74999299999999
 21
94.000018000000011
 31
0.0
  0
LINE
  5
F3B
  8
DETAIL
  6
CONTINUOUS
 62
     5
 10
-3.249992999999999
 20
94.000018000000011
 30
0.0
 11
0.250007
 21
94.000018000000011
 31
0.0
  0
LINE
  5
F3C
  8
DETAIL
  6
CONTINUOUS
 62
     5
 10
-131.74999299999999
 20
398.75001800000001
 30
0.0
 11
-3.249992999999999
 21
398.75001800000001
 31
0.0
  0
LINE
  5
F3D
  8
DETAIL
  6
CONTINUOUS
 62
     5
 10
-131.74999299999999
 20
395.25001800000001
 30
0.0
 11
-3.249992999999999
 21
395.25001800000001
 31
0.0
  0
LINE
  5
F3E
  8
DETAIL
  6
CONTINUOUS
 62
     5
 10
-263.74999300000002
 20
833.75001799999995
 30
0.0
 11
-135.24999299999999
 21
833.75001799999995
 31
0.0
  0
LINE
  5
F3F
  8
DETAIL
  6
CONTINUOUS
 62
     5
 10
-263.74999300000002
 20
830.25001799999995
 30
0.0
 11
-135.24999299999999
 21
830.25001799999995
 31
0.0
  0
LINE
  5
F40
  8
DETAIL
  6
CONTINUOUS
 62
     5
 10
-135.24999299999999
 20
688.00001799999995
 30
0.0
 11
-263.74999300000002
 21
688.00001799999995
 31
0.0
  0
LINE
  5
F41
  8
DETAIL
  6
CONTINUOUS
 62
     5
 10
-135.24999299999999
 20
684.50001799999995
 30
0.0
 11
-263.74999300000002
 21
684.50001799999995
 31
0.0
  0
LINE
  5
F42
  8
DETAIL
  6
CONTINUOUS
 62
     5
 10
-263.74999300000002
 20
543.75001799999995
 30
0.0
 11
-135.24999299999999
 21
543.75001799999995
 31
0.0
  0
LINE
  5
F43
  8
DETAIL
  6
CONTINUOUS
 62
     5
 10
-263.74999300000002
 20
540.25001799999995
 30
0.0
 11
-135.24999299999999
 21
540.25001799999995
 31
0.0
  0
LINE
  5
F44
  8
DETAIL
  6
CONTINUOUS
 62
     5
 10
-275.56948399999999
 20
543.75001799999995
 30
0.0
 11
-275.56948399999999
 21
684.50001799999995
 31
0.0
  0
LINE
  5
F45
  8
DETAIL
  6
CONTINUOUS
 62
     5
 10
-282.49999300000002
 20
543.75001799999995
 30
0.0
 11
-282.49999300000002
 21
540.25001799999995
 31
0.0
  0
LINE
  5
F46
  8
DETAIL
  6
CONTINUOUS
 62
     5
 10
-282.49999300000002
 20
543.75001799999995
 30
0.0
 11
-267.24999300000002
 21
543.75001799999995
 31
0.0
  0
LINE
  5
F47
  8
DETAIL
  6
CONTINUOUS
 62
     5
 10
-282.49999300000002
 20
540.25001799999995
 30
0.0
 11
-267.24999300000002
 21
540.25001799999995
 31
0.0
  0
LINE
  5
F48
  8
DETAIL
  6
CONTINUOUS
 62
     5
 10
-267.24999300000002
 20
688.00001799999995
 30
0.0
 11
-298.49999300000002
 21
688.00001799999995
 31
0.0
  0
LINE
  5
F4A
  8
DETAIL
  6
CONTINUOUS
 62
     5
 10
-275.56948399999999
 20
688.00001799999995
 30
0.0
 11
-275.56948399999999
 21
830.25001799999995
 31
0.0
  0
LINE
  5
F4B
  8
DETAIL
  6
CONTINUOUS
 62
     5
 10
-282.49999300000002
 20
833.75001799999995
 30
0.0
 11
-267.24999300000002
 21
833.75001799999995
 31
0.0
  0
LINE
  5
F4C
  8
DETAIL
  6
CONTINUOUS
 62
     5
 10
-282.49999300000002
 20
833.75001799999995
 30
0.0
 11
-282.49999300000002
 21
830.25001799999995
 31
0.0
  0
LINE
  5
F4D
  8
DETAIL
  6
CONTINUOUS
 62
     5
 10
-282.49999300000002
 20
830.25001799999995
 30
0.0
 11
-267.24999300000002
 21
830.25001799999995
 31
0.0
  0
LINE
  5
F4E
  8
DETAIL
  6
CONTINUOUS
 62
     5
 10
-131.74999299999999
 20
543.75001799999995
 30
0.0
 11
-3.249992999999999
 21
543.75001799999995
 31
0.0
  0
LINE
  5
F4F
  8
DETAIL
  6
CONTINUOUS
 62
     5
 10
-131.74999299999999
 20
540.25001799999995
 30
0.0
 11
-3.249992999999999
 21
540.25001799999995
 31
0.0
  0
LINE
  5
F50
  8
DETAIL
  6
CONTINUOUS
 62
     5
 10
-131.74999299999999
 20
833.75001799999995
 30
0.0
 11
-3.249992999999999
 21
833.75001799999995
 31
0.0
  0
LINE
  5
F51
  8
DETAIL
  6
CONTINUOUS
 62
     5
 10
-131.74999299999999
 20
830.25001799999995
 30
0.0
 11
-3.249992999999999
 21
830.25001799999995
 31
0.0
  0
LINE
  5
F52
  8
DETAIL
  6
CONTINUOUS
 62
     5
 10
-3.249992999999999
 20
688.00001799999995
 30
0.0
 11
-131.74999299999999
 21
688.00001799999995
 31
0.0
  0
LINE
  5
F53
  8
DETAIL
  6
CONTINUOUS
 62
     5
 10
-3.249992999999999
 20
684.50001799999995
 30
0.0
 11
-131.74999299999999
 21
684.50001799999995
 31
0.0
  0
LINE
  5
F54
  8
DETAIL
  6
CONTINUOUS
 62
     5
 10
-275.56948399999999
 20
1123.750018
 30
0.0
 11
-275.56948399999999
 21
1266.500018
 31
0.0
  0
LINE
  5
F55
  8
DETAIL
  6
CONTINUOUS
 62
     5
 10
-263.74999300000002
 20
1123.750018
 30
0.0
 11
-135.24999299999999
 21
1123.750018
 31
0.0
  0
LINE
  5
F56
  8
DETAIL
  6
CONTINUOUS
 62
     5
 10
-263.74999300000002
 20
1120.250018
 30
0.0
 11
-135.24999299999999
 21
1120.250018
 31
0.0
  0
LINE
  5
F57
  8
DETAIL
  6
CONTINUOUS
 62
     5
 10
-263.74999300000002
 20
978.75001799999995
 30
0.0
 11
-135.24999299999999
 21
978.75001799999995
 31
0.0
  0
LINE
  5
F58
  8
DETAIL
  6
CONTINUOUS
 62
     5
 10
-263.74999300000002
 20
975.25001799999995
 30
0.0
 11
-135.24999299999999
 21
975.25001799999995
 31
0.0
  0
LINE
  5
F59
  8
DETAIL
  6
CONTINUOUS
 62
     5
 10
-275.56948399999999
 20
978.75001799999995
 30
0.0
 11
-275.56948399999999
 21
1120.250018
 31
0.0
  0
LINE
  5
F5A
  8
DETAIL
  6
CONTINUOUS
 62
     5
 10
-282.49999300000002
 20
978.75001799999995
 30
0.0
 11
-282.49999300000002
 21
975.25001799999995
 31
0.0
  0
LINE
  5
F5B
  8
DETAIL
  6
CONTINUOUS
 62
     5
 10
-282.49999300000002
 20
978.75001799999995
 30
0.0
 11
-267.24999300000002
 21
978.75001799999995
 31
0.0
  0
LINE
  5
F5C
  8
DETAIL
  6
CONTINUOUS
 62
     5
 10
-282.49999300000002
 20
975.25001799999995
 30
0.0
 11
-267.24999300000002
 21
975.25001799999995
 31
0.0
  0
LINE
  5
F5D
  8
DETAIL
  6
CONTINUOUS
 62
     5
 10
-282.49999300000002
 20
1123.750018
 30
0.0
 11
-282.49999300000002
 21
1120.250018
 31
0.0
  0
LINE
  5
F5E
  8
DETAIL
  6
CONTINUOUS
 62
     5
 10
-282.49999300000002
 20
1123.750018
 30
0.0
 11
-267.24999300000002
 21
1123.750018
 31
0.0
  0
LINE
  5
F5F
  8
DETAIL
  6
CONTINUOUS
 62
     5
 10
-282.49999300000002
 20
1120.250018
 30
0.0
 11
-267.24999300000002
 21
1120.250018
 31
0.0
  0
LINE
  5
F60
  8
DETAIL
  6
CONTINUOUS
 62
     5
 10
-131.74999299999999
 20
978.75001799999995
 30
0.0
 11
-3.249992999999999
 21
978.75001799999995
 31
0.0
  0
LINE
  5
F61
  8
DETAIL
  6
CONTINUOUS
 62
     5
 10
-131.74999299999999
 20
975.25001799999995
 30
0.0
 11
-3.249992999999999
 21
975.25001799999995
 31
0.0
  0
LINE
  5
F62
  8
DETAIL
  6
CONTINUOUS
 62
     5
 10
-131.74999299999999
 20
1123.750018
 30
0.0
 11
-3.249992999999999
 21
1123.750018
 31
0.0
  0
LINE
  5
F63
  8
DETAIL
  6
CONTINUOUS
 62
     5
 10
-131.74999299999999
 20
1120.250018
 30
0.0
 11
-3.249992999999999
 21
1120.250018
 31
0.0
  0
LINE
  5
F64
  8
DETAIL
  6
CONTINUOUS
 62
     5
 10
-135.24999299999999
 20
1270.000018
 30
0.0
 11
-263.74999300000002
 21
1270.000018
 31
0.0
  0
LINE
  5
F65
  8
DETAIL
  6
CONTINUOUS
 62
     5
 10
-135.24999299999999
 20
1266.500018
 30
0.0
 11
-263.74999300000002
 21
1266.500018
 31
0.0
  0
LINE
  5
F66
  8
DETAIL
  6
CONTINUOUS
 62
     5
 10
-267.24999300000002
 20
1270.000018
 30
0.0
 11
-298.49999300000002
 21
1270.000018
 31
0.0
  0
LINE
  5
F68
  8
DETAIL
  6
CONTINUOUS
 62
     5
 10
-308.49999300000002
 20
1370.000018
 30
0.0
 11
-308.49999300000002
 21
1290.000018
 31
0.0
  0
LINE
  5
F69
  8
DETAIL
  6
CONTINUOUS
 62
     5
 10
-292.49999300000002
 20
1290.000018
 30
0.0
 11
-292.49999300000002
 21
1270.000018
 31
0.0
  0
LINE
  5
F6B
  8
DETAIL
  6
CONTINUOUS
 62
     5
 10
-267.24999300000002
 20
1280.000018
 30
0.0
 11
-263.74999300000002
 21
1280.000018
 31
0.0
  0
LINE
  5
F6C
  8
DETAIL
  6
CONTINUOUS
 62
     5
 10
-275.56948399999999
 20
1270.000018
 30
0.0
 11
-275.56948399999999
 21
1290.000018
 31
0.0
  0
LINE
  5
F6D
  8
DETAIL
  6
CONTINUOUS
 62
     5
 10
-3.249992999999999
 20
1270.000018
 30
0.0
 11
-131.74999299999999
 21
1270.000018
 31
0.0
  0
LINE
  5
F6E
  8
DETAIL
  6
CONTINUOUS
 62
     5
 10
-3.249992999999999
 20
1266.500018
 30
0.0
 11
-131.74999299999999
 21
1266.500018
 31
0.0
  0
LINE
  5
F6F
  8
DETAIL
  6
CONTINUOUS
 62
     5
 10
-135.24999299999999
 20
1280.000018
 30
0.0
 11
-131.74999299999999
 21
1280.000018
 31
0.0
  0
LINE
  5
F70
  8
DETAIL
  6
CONTINUOUS
 62
     5
 10
-3.249992999999999
 20
1280.000018
 30
0.0
 11
0.250007
 21
1280.000018
 31
0.0
  0
LINE
  5
F71
  8
DETAIL
  6
CONTINUOUS
 62
     5
 10
128.75000700000001
 20
94.000018000000011
 30
0.0
 11
128.75000700000001
 21
1280.000018
 31
0.0
  0
LINE
  5
F72
  8
DETAIL
  6
CONTINUOUS
 62
     5
 10
132.25000700000001
 20
94.000018000000011
 30
0.0
 11
132.25000700000001
 21
1280.000018
 31
0.0
  0
LINE
  5
F73
  8
DETAIL
  6
CONTINUOUS
 62
     5
 10
172.50000700000001
 20
84.000018000000011
 30
0.0
 11
172.50000700000001
 21
1290.000018
 31
0.0
  0
LINE
  5
F74
  8
DETAIL
  6
CONTINUOUS
 62
     5
 10
172.50000700000001
 20
84.000018000000011
 30
0.0
 11
172.50000700000001
 21
1290.000018
 31
0.0
  0
LINE
  5
F75
  8
DETAIL
  6
CONTINUOUS
 62
     5
 10
143.46822800000001
 20
833.75001799999995
 30
0.0
 11
143.46822800000001
 21
975.25001799999995
 31
0.0
  0
LINE
  5
F76
  8
DETAIL
  6
CONTINUOUS
 62
     5
 10
328.914221
 20
83.999994000000001
 30
0.0
 11
328.914221
 21
1410.000018
 31
0.0
  0
LINE
  5
F77
  8
DETAIL
  6
CONTINUOUS
 62
     5
 10
157.50000700000001
 20
688.00001799999995
 30
0.0
 11
157.50000700000001
 21
1266.500018
 31
0.0
  0
LINE
  5
F78
  8
DETAIL
  6
CONTINUOUS
 62
     5
 10
143.46822800000001
 20
398.75001800000001
 30
0.0
 11
143.46822800000001
 21
540.25001799999995
 31
0.0
  0
LINE
  5
F79
  8
DETAIL
  6
CONTINUOUS
 62
     5
 10
157.50000700000001
 20
106.000018
 30
0.0
 11
157.50000700000001
 21
684.50001799999995
 31
0.0
  0
LINE
  5
F7A
  8
DETAIL
  6
CONTINUOUS
 62
     5
 10
143.46822800000001
 20
253.75001800000001
 30
0.0
 11
143.46822800000001
 21
395.25001800000001
 31
0.0
  0
LINE
  5
F7B
  8
DETAIL
  6
CONTINUOUS
 62
     5
 10
143.46822800000001
 20
106.000018
 30
0.0
 11
143.46822800000001
 21
250.25001800000001
 31
0.0
  0
LINE
  5
F7C
  8
DETAIL
  6
CONTINUOUS
 62
     5
 10
128.75000700000001
 20
94.000018000000011
 30
0.0
 11
132.25000700000001
 21
94.000018000000011
 31
0.0
  0
LINE
  5
F7D
  8
DETAIL
  6
CONTINUOUS
 62
     5
 10
163.50000700000001
 20
106.000018
 30
0.0
 11
132.25000700000001
 21
106.000018
 31
0.0
  0
LINE
  5
F7F
  8
DETAIL
  6
CONTINUOUS
 62
     5
 10
143.46822800000001
 20
84.000018000000011
 30
0.0
 11
143.46822800000001
 21
102.500018
 31
0.0
  0
LINE
  5
F80
  8
DETAIL
  6
CONTINUOUS
 62
     5
 10
157.50000700000001
 20
84.000018000000011
 30
0.0
 11
157.50000700000001
 21
102.500018
 31
0.0
  0
LINE
  5
F81
  8
DETAIL
  6
CONTINUOUS
 62
     5
 10
132.25000700000001
 20
253.75001800000001
 30
0.0
 11
147.50000700000001
 21
253.75001800000001
 31
0.0
  0
LINE
  5
F82
  8
DETAIL
  6
CONTINUOUS
 62
     5
 10
132.25000700000001
 20
250.25001800000001
 30
0.0
 11
147.50000700000001
 21
250.25001800000001
 31
0.0
  0
LINE
  5
F83
  8
DETAIL
  6
CONTINUOUS
 62
     5
 10
147.50000700000001
 20
253.75001800000001
 30
0.0
 11
147.50000700000001
 21
250.25001800000001
 31
0.0
  0
LINE
  5
F84
  8
DETAIL
  6
CONTINUOUS
 62
     5
 10
132.25000700000001
 20
398.75001800000001
 30
0.0
 11
147.50000700000001
 21
398.75001800000001
 31
0.0
  0
LINE
  5
F85
  8
DETAIL
  6
CONTINUOUS
 62
     5
 10
132.25000700000001
 20
395.25001800000001
 30
0.0
 11
147.50000700000001
 21
395.25001800000001
 31
0.0
  0
LINE
  5
F86
  8
DETAIL
  6
CONTINUOUS
 62
     5
 10
147.50000700000001
 20
398.75001800000001
 30
0.0
 11
147.50000700000001
 21
395.25001800000001
 31
0.0
  0
LINE
  5
F87
  8
DETAIL
  6
CONTINUOUS
 62
     5
 10
143.46822800000001
 20
543.75001799999995
 30
0.0
 11
143.46822800000001
 21
684.50001799999995
 31
0.0
  0
LINE
  5
F88
  8
DETAIL
  6
CONTINUOUS
 62
     5
 10
147.50000700000001
 20
543.75001799999995
 30
0.0
 11
147.50000700000001
 21
540.25001799999995
 31
0.0
  0
LINE
  5
F89
  8
DETAIL
  6
CONTINUOUS
 62
     5
 10
132.25000700000001
 20
543.75001799999995
 30
0.0
 11
147.50000700000001
 21
543.75001799999995
 31
0.0
  0
LINE
  5
F8A
  8
DETAIL
  6
CONTINUOUS
 62
     5
 10
132.25000700000001
 20
540.25001799999995
 30
0.0
 11
147.50000700000001
 21
540.25001799999995
 31
0.0
  0
LINE
  5
F8B
  8
DETAIL
  6
CONTINUOUS
 62
     5
 10
143.46822800000001
 20
688.00001799999995
 30
0.0
 11
143.46822800000001
 21
830.25001799999995
 31
0.0
  0
LINE
  5
F8C
  8
DETAIL
  6
CONTINUOUS
 62
     5
 10
163.50000700000001
 20
688.00001799999995
 30
0.0
 11
132.25000700000001
 21
688.00001799999995
 31
0.0
  0
LINE
  5
F8E
  8
DETAIL
  6
CONTINUOUS
 62
     5
 10
132.25000700000001
 20
833.75001799999995
 30
0.0
 11
147.50000700000001
 21
833.75001799999995
 31
0.0
  0
LINE
  5
F8F
  8
DETAIL
  6
CONTINUOUS
 62
     5
 10
147.50000700000001
 20
833.75001799999995
 30
0.0
 11
147.50000700000001
 21
830.25001799999995
 31
0.0
  0
LINE
  5
F90
  8
DETAIL
  6
CONTINUOUS
 62
     5
 10
132.25000700000001
 20
830.25001799999995
 30
0.0
 11
147.50000700000001
 21
830.25001799999995
 31
0.0
  0
LINE
  5
F91
  8
DETAIL
  6
CONTINUOUS
 62
     5
 10
143.46822800000001
 20
1123.750018
 30
0.0
 11
143.46822800000001
 21
1266.500018
 31
0.0
  0
LINE
  5
F92
  8
DETAIL
  6
CONTINUOUS
 62
     5
 10
143.46822800000001
 20
978.75001799999995
 30
0.0
 11
143.46822800000001
 21
1120.250018
 31
0.0
  0
LINE
  5
F93
  8
DETAIL
  6
CONTINUOUS
 62
     5
 10
147.50000700000001
 20
978.75001799999995
 30
0.0
 11
147.50000700000001
 21
975.25001799999995
 31
0.0
  0
LINE
  5
F94
  8
DETAIL
  6
CONTINUOUS
 62
     5
 10
132.25000700000001
 20
978.75001799999995
 30
0.0
 11
147.50000700000001
 21
978.75001799999995
 31
0.0
  0
LINE
  5
F95
  8
DETAIL
  6
CONTINUOUS
 62
     5
 10
132.25000700000001
 20
975.25001799999995
 30
0.0
 11
147.50000700000001
 21
975.25001799999995
 31
0.0
  0
LINE
  5
F96
  8
DETAIL
  6
CONTINUOUS
 62
     5
 10
147.50000700000001
 20
1123.750018
 30
0.0
 11
147.50000700000001
 21
1120.250018
 31
0.0
  0
LINE
  5
F97
  8
DETAIL
  6
CONTINUOUS
 62
     5
 10
132.25000700000001
 20
1123.750018
 30
0.0
 11
147.50000700000001
 21
1123.750018
 31
0.0
  0
LINE
  5
F98
  8
DETAIL
  6
CONTINUOUS
 62
     5
 10
132.25000700000001
 20
1120.250018
 30
0.0
 11
147.50000700000001
 21
1120.250018
 31
0.0
  0
LINE
  5
F99
  8
DETAIL
  6
CONTINUOUS
 62
     5
 10
173.50000700000001
 20
1370.000018
 30
0.0
 11
173.50000700000001
 21
1290.000018
 31
0.0
  0
LINE
  5
F9B
  8
DETAIL
  6
CONTINUOUS
 62
     5
 10
163.50000700000001
 20
1270.000018
 30
0.0
 11
132.25000700000001
 21
1270.000018
 31
0.0
  0
LINE
  5
F9C
  8
DETAIL
  6
CONTINUOUS
 62
     5
 10
163.50000700000001
 20
1266.500018
 30
0.0
 11
132.25000700000001
 21
1266.500018
 31
0.0
  0
LINE
  5
F9D
  8
DETAIL
  6
CONTINUOUS
 62
     5
 10
128.75000700000001
 20
1280.000018
 30
0.0
 11
132.25000700000001
 21
1280.000018
 31
0.0
  0
LINE
  5
F9E
  8
DETAIL
  6
CONTINUOUS
 62
     5
 10
157.50000700000001
 20
1270.000018
 30
0.0
 11
157.50000700000001
 21
1290.000018
 31
0.0
  0
LINE
  5
F9F
  8
DETAIL
  6
CONTINUOUS
 62
     5
 10
143.46822800000001
 20
1270.000018
 30
0.0
 11
143.46822800000001
 21
1290.000018
 31
0.0
  0
LINE
  5
FA0
  8
SIZE
  6
CONTINUOUS
 62
    30
 10
274.75006000000002
 20
263.00001900000001
 30
0.0
 11
893.12975999999981
 21
263.00001900000001
 31
0.0
  0
LINE
  5
FA1
  8
SIZE
  6
CONTINUOUS
 62
    30
 10
400.00000699999993
 20
-0.000008
 30
0.0
 11
893.12975999999981
 21
-0.000008
 31
0.0
  0
LINE
  5
FA2
  8
SIZE
  6
CONTINUOUS
 62
    30
 10
863.12975999999992
 20
253.00001900000001
 30
0.0
 11
863.12975999999992
 21
9.9999920000000007
 31
0.0
  0
CIRCLE
  5
FA3
  8
SIZE
  6
CONTINUOUS
 62
    30
 10
863.12975999999992
 20
263.00001900000001
 30
0.0
 40
5.0
  0
LINE
  5
FA4
  8
SIZE
  6
CONTINUOUS
 62
    30
 10
863.12975999999992
 20
258.00001900000001
 30
0.0
 11
863.12975999999992
 21
253.00001900000001
 31
0.0
  0
CIRCLE
  5
FA5
  8
SIZE
  6
CONTINUOUS
 62
    30
 10
863.12975999999992
 20
-0.000008
 30
0.0
 40
5.0
  0
LINE
  5
FA6
  8
SIZE
  6
CONTINUOUS
 62
    30
 10
863.12975999999992
 20
4.9999919999999989
 30
0.0
 11
863.12975999999992
 21
9.9999920000000007
 31
0.0
  0
TEXT
  5
FA7
  8
SIZE
  6
CONTINUOUS
 62
    30
 10
848.12975999999992
 20
67.857148857142874
 30
0.0
 40
55.0
  1
263
 50
90.0
 41
0.9
 72
     1
 11
848.12975999999992
 21
131.50000600000001
 31
0.0
  0
POINT
  5
FA8
  8
DEFPOINTS
  6
CONTINUOUS
 62
     7
 10
254.75005999999999
 20
263.00001900000001
 30
0.0
  0
POINT
  5
FAA
  8
DEFPOINTS
  6
CONTINUOUS
 62
     7
 10
863.12975999999992
 20
-0.000008
 30
0.0
  0
LINE
  5
FAB
  8
SIZE
  6
CONTINUOUS
 62
    30
 10
235.00005999999999
 20
221.250035
 30
0.0
 11
235.00005999999999
 21
-285.797124
 31
0.0
  0
LINE
  5
FAC
  8
SIZE
  6
CONTINUOUS
 62
    30
 10
380.00000699999998
 20
-20.000008000000001
 30
0.0
 11
380.00000699999998
 21
-285.797124
 31
0.0
  0
LINE
  5
FAD
  8
SIZE
  6
CONTINUOUS
 62
    30
 10
245.00005999999999
 20
-255.797124
 30
0.0
 11
370.00000699999998
 21
-255.797124
 31
0.0
  0
LINE
  5
FAE
  8
SIZE
  6
CONTINUOUS
 62
    30
 10
380.00000699999998
 20
-255.797124
 30
0.0
 11
537.85715000000005
 21
-255.797124
 31
0.0
  0
CIRCLE
  5
FAF
  8
SIZE
  6
CONTINUOUS
 62
    30
 10
235.00005999999999
 20
-255.797124
 30
0.0
 40
5.0
  0
LINE
  5
FB0
  8
SIZE
  6
CONTINUOUS
 62
    30
 10
240.00005999999999
 20
-255.797124
 30
0.0
 11
245.00005999999999
 21
-255.797124
 31
0.0
  0
CIRCLE
  5
FB1
  8
SIZE
  6
CONTINUOUS
 62
    30
 10
380.00000699999998
 20
-255.797124
 30
0.0
 40
5.0
  0
LINE
  5
FB2
  8
SIZE
  6
CONTINUOUS
 62
    30
 10
375.00000699999998
 20
-255.797124
 30
0.0
 11
370.00000699999998
 21
-255.797124
 31
0.0
  0
TEXT
  5
FB3
  8
SIZE
  6
CONTINUOUS
 62
    30
 10
405.00000657142863
 20
-240.797124
 30
0.0
 40
55.0
  1
145
 41
0.9
 72
     1
 11
463.92857800000002
 21
-240.797124
 31
0.0
  0
POINT
  5
FB4
  8
DEFPOINTS
  6
CONTINUOUS
 62
     7
 10
235.00005999999999
 20
241.250035
 30
0.0
  0
POINT
  5
FB6
  8
DEFPOINTS
  6
CONTINUOUS
 62
     7
 10
380.00000699999998
 20
-255.797124
 30
0.0
  0
LINE
  5
FB7
  8
SIZE
  6
CONTINUOUS
 62
    30
 10
274.75006000000002
 20
261.00003500000003
 30
0.0
 11
787.142833
 21
261.00003500000003
 31
0.0
  0
LINE
  5
FB8
  8
SIZE
  6
CONTINUOUS
 62
    30
 10
400.00000699999993
 20
-0.000008
 30
0.0
 11
787.142833
 21
-0.000008
 31
0.0
  0
LINE
  5
FB9
  8
SIZE
  6
CONTINUOUS
 62
    30
 10
757.14283299999988
 20
251.000035
 30
0.0
 11
757.14283299999988
 21
9.9999920000000007
 31
0.0
  0
CIRCLE
  5
FBA
  8
SIZE
  6
CONTINUOUS
 62
    30
 10
757.14283299999988
 20
261.00003500000003
 30
0.0
 40
5.0
  0
LINE
  5
FBB
  8
SIZE
  6
CONTINUOUS
 62
    30
 10
757.14283299999988
 20
256.00003500000003
 30
0.0
 11
757.14283299999988
 21
251.000035
 31
0.0
  0
CIRCLE
  5
FBC
  8
SIZE
  6
CONTINUOUS
 62
    30
 10
757.14283299999988
 20
-0.000008
 30
0.0
 40
5.0
  0
LINE
  5
FBD
  8
SIZE
  6
CONTINUOUS
 62
    30
 10
757.14283299999988
 20
4.9999919999999989
 30
0.0
 11
757.14283299999988
 21
9.9999920000000007
 31
0.0
  0
TEXT
  5
FBE
  8
SIZE
  6
CONTINUOUS
 62
    30
 10
742.142833
 20
77.464299714285715
 30
0.0
 40
55.0
  1
261
 50
90.0
 41
0.9
 72
     1
 11
742.142833
 21
130.50001399999999
 31
0.0
  0
POINT
  5
FBF
  8
DEFPOINTS
  6
CONTINUOUS
 62
     7
 10
254.75005999999999
 20
261.00003500000003
 30
0.0
  0
POINT
  5
FC1
  8
DEFPOINTS
  6
CONTINUOUS
 62
     7
 10
757.14283299999988
 20
-0.000008
 30
0.0
  0
TEXT
  5
FC2
  8
NOTE
  6
CONTINUOUS
 62
     4
 10
632.89736200000004
 20
-264.988834
 30
0.0
 40
55.0
  1
%%C45ﾉｯｸｱｳﾄ穴
 50
359.99999700000001
 41
0.6309520000000001
  7
STANDARD1
  0
LINE
  5
10CF
  8
DETAIL
  6
CONTINUOUS
 62
     5
 10
163.50000700000001
 20
1270.000018
 30
0.0
 11
163.50000700000001
 21
1266.500018
 31
0.0
  0
LINE
  5
10D7
  8
DETAIL
  6
CONTINUOUS
 62
     5
 10
163.50000700000001
 20
684.50001799999995
 30
0.0
 11
132.25000700000001
 21
684.50001799999995
 31
0.0
  0
LINE
  5
10D8
  8
DETAIL
  6
CONTINUOUS
 62
     5
 10
163.50000700000001
 20
688.00001799999995
 30
0.0
 11
163.50000700000001
 21
684.50001799999995
 31
0.0
  0
LINE
  5
10DF
  8
DETAIL
  6
CONTINUOUS
 62
     5
 10
163.50000700000001
 20
102.500018
 30
0.0
 11
132.25000700000001
 21
102.500018
 31
0.0
  0
LINE
  5
10E0
  8
DETAIL
  6
CONTINUOUS
 62
     5
 10
163.50000700000001
 20
106.000018
 30
0.0
 11
163.50000700000001
 21
102.500018
 31
0.0
  0
LINE
  5
10E6
  8
DETAIL
  6
CONTINUOUS
 62
     5
 10
-298.49999300000002
 20
106.000018
 30
0.0
 11
-298.49999300000002
 21
102.500018
 31
0.0
  0
LINE
  5
10ED
  8
DETAIL
  6
CONTINUOUS
 62
     5
 10
-267.24999300000002
 20
684.50001799999995
 30
0.0
 11
-298.49999300000002
 21
684.50001799999995
 31
0.0
  0
LINE
  5
10EE
  8
DETAIL
  6
CONTINUOUS
 62
     5
 10
-298.49999300000002
 20
688.00001799999995
 30
0.0
 11
-298.49999300000002
 21
684.50001799999995
 31
0.0
  0
LINE
  5
10F5
  8
DETAIL
  6
CONTINUOUS
 62
     5
 10
-267.89204097654198
 20
1266.500018
 30
0.0
 11
-299.14204097654198
 21
1266.500018
 31
0.0
  0
LINE
  5
10F6
  8
DETAIL
  6
CONTINUOUS
 62
     5
 10
-299.14204097654198
 20
1270.000018
 30
0.0
 11
-299.14204097654198
 21
1266.500018
 31
0.0
  0
LINE
  5
1123
  8
NOTE
  6
CONTINUOUS
 62
     4
 10
362.0
 20
-22.000008000000001
 30
0.0
 11
362.0
 21
21.999991999999999
 31
0.0
  0
LINE
  5
1124
  8
NOTE
  6
CONTINUOUS
 62
     4
 10
340.0
 20
-0.0000079999999993
 30
0.0
 11
384.0
 21
-0.0000079999999993
 31
0.0
  0
ENDSEC
  0
EOF
