  0
SECTION
  2
HEADER
  9
$ACADVER
  1
AC1009
  9
$INSBASE
 10
0.0
 20
0.0
 30
0.0
  9
$EXTMIN
 10
-1455.629591
 20
-853.582513
 30
0.0
  9
$EXTMAX
 10
1595.936655
 20
2247.805368
 30
0.0
  9
$LIMMIN
 10
-3837.000175
 20
-3000.109539
  9
$LIMMAX
 10
7319.256881
 20
4045.223003
  9
$ORTHOMODE
 70
     0
  9
$REGENMODE
 70
     1
  9
$FILLMODE
 70
     1
  9
$QTEXTMODE
 70
     0
  9
$MIRRTEXT
 70
     0
  9
$DRAGMODE
 70
     2
  9
$LTSCALE
 40
20.0
  9
$OSMODE
 70
    39
  9
$ATTMODE
 70
     1
  9
$TEXTSIZE
 40
64.0
  9
$TRACEWID
 40
0.05
  9
$TEXTSTYLE
  7
STANDARD
  9
$CLAYER
  8
OUTLINE
  9
$CELTYPE
  6
CONTINUOUS
  9
$CECOLOR
 62
     7
  9
$DIMSCALE
 40
1.0
  9
$DIMASZ
 40
10.0
  9
$DIMEXO
 40
20.0
  9
$DIMDLI
 40
200.0
  9
$DIMRND
 40
0.0
  9
$DIMDLE
 40
0.0
  9
$DIMEXE
 40
30.0
  9
$DIMTP
 40
0.0
  9
$DIMTM
 40
0.0
  9
$DIMTXT
 40
64.0
  9
$DIMCEN
 40
0.0
  9
$DIMTSZ
 40
0.0
  9
$DIMTOL
 70
     0
  9
$DIMLIM
 70
     0
  9
$DIMTIH
 70
     0
  9
$DIMTOH
 70
     0
  9
$DIMSE1
 70
     0
  9
$DIMSE2
 70
     0
  9
$DIMTAD
 70
     1
  9
$DIMZIN
 70
     8
  9
$DIMBLK
  1

  9
$DIMASO
 70
     1
  9
$DIMSHO
 70
     0
  9
$DIMPOST
  1

  9
$DIMAPOST
  1

  9
$DIMALT
 70
     0
  9
$DIMALTD
 70
     2
  9
$DIMALTF
 40
25.4
  9
$DIMLFAC
 40
1.0
  9
$DIMTOFL
 70
     1
  9
$DIMTVP
 40
0.0
  9
$DIMTIX
 70
     1
  9
$DIMSOXD
 70
     0
  9
$DIMSAH
 70
     1
  9
$DIMBLK1
  1
_DOTBLANK
  9
$DIMBLK2
  1
_DOTBLANK
  9
$DIMSTYLE
  2
STANDARD
  9
$DIMCLRD
 70
     0
  9
$DIMCLRE
 70
     0
  9
$DIMCLRT
 70
     0
  9
$DIMTFAC
 40
1.0
  9
$DIMGAP
 40
0.09
  9
$LUNITS
 70
     2
  9
$LUPREC
 70
     4
  9
$SKETCHINC
 40
0.1
  9
$FILLETRAD
 40
10.0
  9
$AUNITS
 70
     1
  9
$AUPREC
 70
     3
  9
$MENU
  1
ACAD
  9
$ELEVATION
 40
0.0
  9
$PELEVATION
 40
0.0
  9
$THICKNESS
 40
0.0
  9
$LIMCHECK
 70
     0
  9
$BLIPMODE
 70
     0
  9
$CHAMFERA
 40
0.0
  9
$CHAMFERB
 40
0.0
  9
$SKPOLY
 70
     0
  9
$TDCREATE
 40
2450330.439931
  9
$TDUPDATE
 40
2453053.480935
  9
$TDINDWG
 40
1.183441
  9
$TDUSRTIMER
 40
1.183441
  9
$USRTIMER
 70
     1
  9
$ANGBASE
 50
0.0
  9
$ANGDIR
 70
     0
  9
$PDMODE
 70
     3
  9
$PDSIZE
 40
-2.0
  9
$PLINEWID
 40
0.0
  9
$COORDS
 70
     2
  9
$SPLFRAME
 70
     0
  9
$SPLINETYPE
 70
     6
  9
$SPLINESEGS
 70
     8
  9
$ATTDIA
 70
     0
  9
$ATTREQ
 70
     1
  9
$HANDLING
 70
     1
  9
$HANDSEED
  5
1F0
  9
$SURFTAB1
 70
     6
  9
$SURFTAB2
 70
     6
  9
$SURFTYPE
 70
     6
  9
$SURFU
 70
     6
  9
$SURFV
 70
     6
  9
$UCSNAME
  2

  9
$UCSORG
 10
0.0
 20
0.0
 30
0.0
  9
$UCSXDIR
 10
1.0
 20
0.0
 30
0.0
  9
$UCSYDIR
 10
0.0
 20
1.0
 30
0.0
  9
$PUCSNAME
  2

  9
$PUCSORG
 10
0.0
 20
0.0
 30
0.0
  9
$PUCSXDIR
 10
1.0
 20
0.0
 30
0.0
  9
$PUCSYDIR
 10
0.0
 20
1.0
 30
0.0
  9
$USERI1
 70
     0
  9
$USERI2
 70
     0
  9
$USERI3
 70
     0
  9
$USERI4
 70
     0
  9
$USERI5
 70
     0
  9
$USERR1
 40
20.0
  9
$USERR2
 40
0.0
  9
$USERR3
 40
0.0
  9
$USERR4
 40
0.0
  9
$USERR5
 40
0.0
  9
$WORLDVIEW
 70
     1
  9
$SHADEDGE
 70
     3
  9
$SHADEDIF
 70
    70
  9
$TILEMODE
 70
     1
  9
$MAXACTVP
 70
    48
  9
$PLIMCHECK
 70
     0
  9
$PEXTMIN
 10
1.000000E+020
 20
1.000000E+020
 30
1.000000E+020
  9
$PEXTMAX
 10
-1.000000E+020
 20
-1.000000E+020
 30
-1.000000E+020
  9
$PLIMMIN
 10
0.0
 20
0.0
  9
$PLIMMAX
 10
12.0
 20
9.0
  9
$UNITMODE
 70
     0
  9
$VISRETAIN
 70
     1
  9
$PLINEGEN
 70
     0
  9
$PSLTSCALE
 70
     1
  0
ENDSEC
  0
SECTION
  2
TABLES
  0
TABLE
  2
VPORT
 70
     2
  0
VPORT
  2
*ACTIVE
 70
     0
 10
0.0
 20
0.0
 11
1.0
 21
1.0
 12
2631.286083
 22
522.556732
 13
0.0
 23
0.0
 14
50.0
 24
50.0
 15
100.0
 25
100.0
 16
0.0
 26
0.0
 36
1.0
 17
0.0
 27
0.0
 37
0.0
 40
7045.332542
 41
1.83619
 42
50.0
 43
0.0
 44
0.0
 50
0.0
 51
0.0
 71
     0
 72
  1000
 73
     1
 74
     0
 75
     0
 76
     0
 77
     0
 78
     0
  0
ENDTAB
  0
TABLE
  2
LTYPE
 70
     2
  0
LTYPE
  2
CONTINUOUS
 70
     0
  3
実線
 72
    65
 73
     0
 40
0.0
  0
LTYPE
  2
DASHDOT
 70
     0
  3
____ _ ____ _ ____ _ ____ _ ____ _ ____ _ ____
 72
    65
 73
     4
 40
5.5
 49
4.0
 49
-0.6
 49
0.3
 49
-0.6
  0
ENDTAB
  0
TABLE
  2
LAYER
 70
    12
  0
LAYER
  2
0
 70
     0
 62
     7
  6
CONTINUOUS
  0
LAYER
  2
OUTLINE
 70
     0
 62
     3
  6
CONTINUOUS
  0
LAYER
  2
DETAIL
 70
     0
 62
     5
  6
CONTINUOUS
  0
LAYER
  2
BASIS
 70
     0
 62
     6
  6
DASHDOT
  0
LAYER
  2
SIZE
 70
     0
 62
    30
  6
CONTINUOUS
  0
LAYER
  2
NOTE
 70
     0
 62
     4
  6
CONTINUOUS
  0
LAYER
  2
ARRANGE
 70
     0
 62
     1
  6
CONTINUOUS
  0
LAYER
  2
FIX
 70
     0
 62
    11
  6
CONTINUOUS
  0
LAYER
  2
SERVICESPACE
 70
     0
 62
     2
  6
DASHDOT
  0
LAYER
  2
ETC
 70
     0
 62
    61
  6
CONTINUOUS
  0
LAYER
  2
SYMBOLLINE
 70
     0
 62
    15
  6
CONTINUOUS
  0
LAYER
  2
DEFPOINTS
 70
     0
 62
     7
  6
CONTINUOUS
  0
ENDTAB
  0
TABLE
  2
STYLE
 70
     2
  0
STYLE
  2
STANDARD
 70
     0
 40
0.0
 41
0.9
 50
0.0
 71
     0
 42
64.0
  3
SIMPLEX
  4
BIGFONT
  0
STYLE
  2
STANDARD1
 70
     0
 40
0.0
 41
1.0
 50
0.0
 71
     0
 42
64.0
  3
MONOTXT
  4
BIGFONT
  0
ENDTAB
  0
TABLE
  2
VIEW
 70
     1
  0
VIEW
  2
ALL
 70
     0
 40
9000.0
 10
241.506647
 20
0.0
 41
12483.01
 11
0.0
 21
0.0
 31
1.0
 12
0.0
 22
0.0
 32
0.0
 42
50.0
 43
0.0
 44
0.0
 50
0.0
 71
     0
  0
ENDTAB
  0
TABLE
  2
UCS
 70
     0
  0
ENDTAB
  0
TABLE
  2
APPID
 70
     1
  0
APPID
  2
ACAD
 70
     0
  0
ENDTAB
  0
TABLE
  2
DIMSTYLE
 70
     1
  0
DIMSTYLE
  2
STANDARD
 70
     0
  3

  4

  5

  6

  7

 40
1.0
 41
0.18
 42
0.0625
 43
0.38
 44
0.18
 45
0.0
 46
0.0
 47
0.0
 48
0.0
140
0.18
141
0.09
142
0.0
143
25.4
144
1.0
145
0.0
146
1.0
147
0.09
 71
     0
 72
     0
 73
     1
 74
     1
 75
     0
 76
     0
 77
     0
 78
     0
170
     0
171
     2
172
     0
173
     0
174
     0
175
     0
176
     0
177
     0
178
     0
  0
ENDTAB
  0
ENDSEC
  0
SECTION
  2
BLOCKS
  0
BLOCK
  8
0
  2
$MODEL_SPACE
 70
     0
 10
0.0
 20
0.0
 30
0.0
  3
$MODEL_SPACE
  1

  0
ENDBLK
  5
1D2
  8
0
  0
BLOCK
 67
     1
  8
0
  2
$PAPER_SPACE
 70
     0
 10
0.0
 20
0.0
 30
0.0
  3
$PAPER_SPACE
  1

  0
ENDBLK
  5
1CF
 67
     1
  8
0
  0
BLOCK
  8
0
  2
_DOTBLANK
 70
     0
 10
0.0
 20
0.0
 30
0.0
  3
_DOTBLANK
  1

  0
CIRCLE
  5
32
  8
0
  6
CONTINUOUS
 62
     7
 10
0.0
 20
0.0
 30
0.0
 40
0.5
  0
LINE
  5
33
  8
0
  6
CONTINUOUS
 62
     7
 10
-0.5
 20
0.0
 30
0.0
 11
-1.0
 21
0.0
 31
0.0
  0
ENDBLK
  5
34
  8
0
  0
ENDSEC
  0
SECTION
  2
ENTITIES
  0
LINE
  5
35
  8
SIZE
  6
CONTINUOUS
 62
    30
 10
-438.5
 20
-20.0
 30
0.0
 11
-438.5
 21
-449.844482
 31
0.0
  0
TEXT
  5
36
  8
SIZE
  6
CONTINUOUS
 62
    30
 10
478.5
 20
-254.745772
 30
0.0
 40
64.0
  1
37
 41
0.9
 72
     1
 11
525.128571
 21
-254.745772
 31
0.0
  0
LINE
  5
37
  8
SIZE
  6
CONTINUOUS
 62
    30
 10
438.5
 20
-274.745772
 30
0.0
 11
448.5
 21
-274.745772
 31
0.0
  0
CIRCLE
  5
38
  8
SIZE
  6
CONTINUOUS
 62
    30
 10
438.5
 20
-274.745772
 30
0.0
 40
5.0
  0
LINE
  5
39
  8
SIZE
  6
CONTINUOUS
 62
    30
 10
401.5
 20
-274.745772
 30
0.0
 11
391.5
 21
-274.745772
 31
0.0
  0
CIRCLE
  5
3A
  8
SIZE
  6
CONTINUOUS
 62
    30
 10
401.5
 20
-274.745772
 30
0.0
 40
5.0
  0
LINE
  5
3B
  8
SIZE
  6
CONTINUOUS
 62
    30
 10
401.5
 20
-274.745772
 30
0.0
 11
438.5
 21
-274.745772
 31
0.0
  0
LINE
  5
3C
  8
SIZE
  6
CONTINUOUS
 62
    30
 10
448.5
 20
-274.745772
 30
0.0
 11
591.757143
 21
-274.745772
 31
0.0
  0
LINE
  5
3D
  8
SIZE
  6
CONTINUOUS
 62
    30
 10
391.5
 20
-274.745772
 30
0.0
 11
381.5
 21
-274.745772
 31
0.0
  0
LINE
  5
3E
  8
SIZE
  6
CONTINUOUS
 62
    30
 10
401.5
 20
-20.0
 30
0.0
 11
401.5
 21
-304.745772
 31
0.0
  0
LINE
  5
3F
  8
SIZE
  6
CONTINUOUS
 62
    30
 10
438.5
 20
-20.0
 30
0.0
 11
438.5
 21
-304.745772
 31
0.0
  0
TEXT
  5
40
  8
SIZE
  6
CONTINUOUS
 62
    30
 10
279.914286
 20
-255.056534
 30
0.0
 40
64.0
  1
117
 41
0.9
 72
     1
 11
343.0
 21
-255.056534
 31
0.0
  0
LINE
  5
41
  8
SIZE
  6
CONTINUOUS
 62
    30
 10
284.5
 20
-275.056534
 30
0.0
 11
274.5
 21
-275.056534
 31
0.0
  0
CIRCLE
  5
42
  8
SIZE
  6
CONTINUOUS
 62
    30
 10
284.5
 20
-275.056534
 30
0.0
 40
5.0
  0
LINE
  5
43
  8
SIZE
  6
CONTINUOUS
 62
    30
 10
401.5
 20
-275.056534
 30
0.0
 11
411.5
 21
-275.056534
 31
0.0
  0
CIRCLE
  5
44
  8
SIZE
  6
CONTINUOUS
 62
    30
 10
401.5
 20
-275.056534
 30
0.0
 40
5.0
  0
LINE
  5
45
  8
SIZE
  6
CONTINUOUS
 62
    30
 10
401.5
 20
-275.056534
 30
0.0
 11
284.5
 21
-275.056534
 31
0.0
  0
LINE
  5
46
  8
SIZE
  6
CONTINUOUS
 62
    30
 10
274.5
 20
-275.056534
 30
0.0
 11
264.5
 21
-275.056534
 31
0.0
  0
LINE
  5
47
  8
SIZE
  6
CONTINUOUS
 62
    30
 10
411.5
 20
-275.056534
 30
0.0
 11
421.5
 21
-275.056534
 31
0.0
  0
LINE
  5
48
  8
SIZE
  6
CONTINUOUS
 62
    30
 10
284.5
 20
-20.0
 30
0.0
 11
284.5
 21
-305.056534
 31
0.0
  0
LINE
  5
49
  8
SIZE
  6
CONTINUOUS
 62
    30
 10
401.5
 20
-40.0
 30
0.0
 11
401.5
 21
-305.056534
 31
0.0
  0
TEXT
  5
4A
  8
SIZE
  6
CONTINUOUS
 62
    30
 10
-571.757142
 20
-254.745772
 30
0.0
 40
64.0
  1
37
 41
0.9
 72
     1
 11
-525.128571
 21
-254.745772
 31
0.0
  0
LINE
  5
4B
  8
SIZE
  6
CONTINUOUS
 62
    30
 10
-438.5
 20
-274.745772
 30
0.0
 11
-448.5
 21
-274.745772
 31
0.0
  0
CIRCLE
  5
4C
  8
SIZE
  6
CONTINUOUS
 62
    30
 10
-438.5
 20
-274.745772
 30
0.0
 40
5.0
  0
LINE
  5
4D
  8
SIZE
  6
CONTINUOUS
 62
    30
 10
-401.5
 20
-274.745772
 30
0.0
 11
-391.5
 21
-274.745772
 31
0.0
  0
CIRCLE
  5
4E
  8
SIZE
  6
CONTINUOUS
 62
    30
 10
-401.5
 20
-274.745772
 30
0.0
 40
5.0
  0
LINE
  5
4F
  8
SIZE
  6
CONTINUOUS
 62
    30
 10
-401.5
 20
-274.745772
 30
0.0
 11
-438.5
 21
-274.745772
 31
0.0
  0
LINE
  5
50
  8
SIZE
  6
CONTINUOUS
 62
    30
 10
-448.5
 20
-274.745772
 30
0.0
 11
-591.757143
 21
-274.745772
 31
0.0
  0
LINE
  5
51
  8
SIZE
  6
CONTINUOUS
 62
    30
 10
-391.5
 20
-274.745772
 30
0.0
 11
-381.5
 21
-274.745772
 31
0.0
  0
LINE
  5
52
  8
SIZE
  6
CONTINUOUS
 62
    30
 10
-401.5
 20
-20.0
 30
0.0
 11
-401.5
 21
-304.745772
 31
0.0
  0
LINE
  5
53
  8
SIZE
  6
CONTINUOUS
 62
    30
 10
-438.5
 20
-20.0
 30
0.0
 11
-438.5
 21
-304.745772
 31
0.0
  0
TEXT
  5
54
  8
SIZE
  6
CONTINUOUS
 62
    30
 10
-406.085714
 20
-255.056534
 30
0.0
 40
64.0
  1
117
 41
0.9
 72
     1
 11
-343.0
 21
-255.056534
 31
0.0
  0
LINE
  5
55
  8
SIZE
  6
CONTINUOUS
 62
    30
 10
-284.5
 20
-275.056534
 30
0.0
 11
-274.5
 21
-275.056534
 31
0.0
  0
CIRCLE
  5
56
  8
SIZE
  6
CONTINUOUS
 62
    30
 10
-284.5
 20
-275.056534
 30
0.0
 40
5.0
  0
LINE
  5
57
  8
SIZE
  6
CONTINUOUS
 62
    30
 10
-401.5
 20
-275.056534
 30
0.0
 11
-411.5
 21
-275.056534
 31
0.0
  0
CIRCLE
  5
58
  8
SIZE
  6
CONTINUOUS
 62
    30
 10
-401.5
 20
-275.056534
 30
0.0
 40
5.0
  0
LINE
  5
59
  8
SIZE
  6
CONTINUOUS
 62
    30
 10
-401.5
 20
-275.056534
 30
0.0
 11
-284.5
 21
-275.056534
 31
0.0
  0
LINE
  5
5A
  8
SIZE
  6
CONTINUOUS
 62
    30
 10
-274.5
 20
-275.056534
 30
0.0
 11
-264.5
 21
-275.056534
 31
0.0
  0
LINE
  5
5B
  8
SIZE
  6
CONTINUOUS
 62
    30
 10
-411.5
 20
-275.056534
 30
0.0
 11
-421.5
 21
-275.056534
 31
0.0
  0
LINE
  5
5C
  8
SIZE
  6
CONTINUOUS
 62
    30
 10
-284.5
 20
-20.0
 30
0.0
 11
-284.5
 21
-305.056534
 31
0.0
  0
LINE
  5
5D
  8
SIZE
  6
CONTINUOUS
 62
    30
 10
-401.5
 20
-40.0
 30
0.0
 11
-401.5
 21
-305.056534
 31
0.0
  0
TEXT
  5
5E
  8
SIZE
  6
CONTINUOUS
 62
    30
 10
529.71245
 20
-652.981829
 30
0.0
 40
64.0
  1
16
 41
0.9
 72
     1
 11
569.483879
 21
-652.981829
 31
0.0
  0
LINE
  5
5F
  8
SIZE
  6
CONTINUOUS
 62
    30
 10
438.5
 20
-672.981829
 30
0.0
 11
448.5
 21
-672.981829
 31
0.0
  0
CIRCLE
  5
60
  8
SIZE
  6
CONTINUOUS
 62
    30
 10
438.5
 20
-672.981829
 30
0.0
 40
5.0
  0
LINE
  5
61
  8
SIZE
  6
CONTINUOUS
 62
    30
 10
422.5
 20
-672.981829
 30
0.0
 11
412.5
 21
-672.981829
 31
0.0
  0
CIRCLE
  5
62
  8
SIZE
  6
CONTINUOUS
 62
    30
 10
422.5
 20
-672.981829
 30
0.0
 40
5.0
  0
LINE
  5
63
  8
SIZE
  6
CONTINUOUS
 62
    30
 10
422.5
 20
-672.981829
 30
0.0
 11
438.5
 21
-672.981829
 31
0.0
  0
LINE
  5
64
  8
SIZE
  6
CONTINUOUS
 62
    30
 10
448.5
 20
-672.981829
 30
0.0
 11
629.255308
 21
-672.981829
 31
0.0
  0
LINE
  5
65
  8
SIZE
  6
CONTINUOUS
 62
    30
 10
412.5
 20
-672.981829
 30
0.0
 11
402.5
 21
-672.981829
 31
0.0
  0
LINE
  5
66
  8
SIZE
  6
CONTINUOUS
 62
    30
 10
438.5
 20
-40.0
 30
0.0
 11
438.5
 21
-702.981829
 31
0.0
  0
LINE
  5
67
  8
SIZE
  6
CONTINUOUS
 62
    30
 10
422.5
 20
-60.0
 30
0.0
 11
422.5
 21
-702.981829
 31
0.0
  0
TEXT
  5
68
  8
SIZE
  6
CONTINUOUS
 62
    30
 10
-558.042858
 20
-652.981829
 30
0.0
 40
64.0
  1
16
 41
0.9
 72
     1
 11
-518.271429
 21
-652.981829
 31
0.0
  0
LINE
  5
69
  8
SIZE
  6
CONTINUOUS
 62
    30
 10
-438.5
 20
-672.981829
 30
0.0
 11
-448.5
 21
-672.981829
 31
0.0
  0
CIRCLE
  5
6A
  8
SIZE
  6
CONTINUOUS
 62
    30
 10
-438.5
 20
-672.981829
 30
0.0
 40
5.0
  0
LINE
  5
6B
  8
SIZE
  6
CONTINUOUS
 62
    30
 10
-422.5
 20
-672.981829
 30
0.0
 11
-412.5
 21
-672.981829
 31
0.0
  0
CIRCLE
  5
6C
  8
SIZE
  6
CONTINUOUS
 62
    30
 10
-422.5
 20
-672.981829
 30
0.0
 40
5.0
  0
LINE
  5
6D
  8
SIZE
  6
CONTINUOUS
 62
    30
 10
-422.5
 20
-672.981829
 30
0.0
 11
-438.5
 21
-672.981829
 31
0.0
  0
LINE
  5
6E
  8
SIZE
  6
CONTINUOUS
 62
    30
 10
-448.5
 20
-672.981829
 30
0.0
 11
-578.042857
 21
-672.981829
 31
0.0
  0
LINE
  5
6F
  8
SIZE
  6
CONTINUOUS
 62
    30
 10
-412.5
 20
-672.981829
 30
0.0
 11
-402.5
 21
-672.981829
 31
0.0
  0
LINE
  5
70
  8
SIZE
  6
CONTINUOUS
 62
    30
 10
-438.5
 20
-41.894103
 30
0.0
 11
-438.5
 21
-702.981829
 31
0.0
  0
LINE
  5
71
  8
SIZE
  6
CONTINUOUS
 62
    30
 10
-422.5
 20
-60.0
 30
0.0
 11
-422.5
 21
-702.981829
 31
0.0
  0
TEXT
  5
72
  8
SIZE
  6
CONTINUOUS
 62
    30
 10
-97.701024
 20
-653.036164
 30
0.0
 40
64.0
  1
（据付ピッチ）
 41
0.9
  0
TEXT
  5
73
  8
SIZE
  6
CONTINUOUS
 62
    30
 10
-55.986443
 20
-803.582513
 30
0.0
 40
64.0
  1
877
 41
0.9
 72
     1
 11
18.0707
 21
-803.582513
 31
0.0
  0
LINE
  5
74
  8
SIZE
  6
CONTINUOUS
 62
    30
 10
438.5
 20
-823.582513
 30
0.0
 11
428.5
 21
-823.582513
 31
0.0
  0
CIRCLE
  5
75
  8
SIZE
  6
CONTINUOUS
 62
    30
 10
438.5
 20
-823.582513
 30
0.0
 40
5.0
  0
LINE
  5
76
  8
SIZE
  6
CONTINUOUS
 62
    30
 10
-438.5
 20
-823.582513
 30
0.0
 11
-428.5
 21
-823.582513
 31
0.0
  0
CIRCLE
  5
77
  8
SIZE
  6
CONTINUOUS
 62
    30
 10
-438.5
 20
-823.582513
 30
0.0
 40
5.0
  0
LINE
  5
78
  8
SIZE
  6
CONTINUOUS
 62
    30
 10
-428.5
 20
-823.582513
 30
0.0
 11
428.5
 21
-823.582513
 31
0.0
  0
LINE
  5
79
  8
SIZE
  6
CONTINUOUS
 62
    30
 10
438.5
 20
-20.0
 30
0.0
 11
438.5
 21
-853.582513
 31
0.0
  0
LINE
  5
7A
  8
SIZE
  6
CONTINUOUS
 62
    30
 10
-438.5
 20
-20.0
 30
0.0
 11
-438.5
 21
-853.582513
 31
0.0
  0
TEXT
  5
7B
  8
SIZE
  6
CONTINUOUS
 62
    30
 10
-245.133983
 20
-652.981829
 30
0.0
 40
64.0
  1
845
 41
0.9
 72
     1
 11
-171.07684
 21
-652.981829
 31
0.0
  0
LINE
  5
7C
  8
SIZE
  6
CONTINUOUS
 62
    30
 10
422.5
 20
-672.981829
 30
0.0
 11
412.5
 21
-672.981829
 31
0.0
  0
CIRCLE
  5
7D
  8
SIZE
  6
CONTINUOUS
 62
    30
 10
422.5
 20
-672.981829
 30
0.0
 40
5.0
  0
LINE
  5
7E
  8
SIZE
  6
CONTINUOUS
 62
    30
 10
-422.5
 20
-672.981829
 30
0.0
 11
-412.5
 21
-672.981829
 31
0.0
  0
CIRCLE
  5
7F
  8
SIZE
  6
CONTINUOUS
 62
    30
 10
-422.5
 20
-672.981829
 30
0.0
 40
5.0
  0
LINE
  5
80
  8
SIZE
  6
CONTINUOUS
 62
    30
 10
-412.5
 20
-672.981829
 30
0.0
 11
412.5
 21
-672.981829
 31
0.0
  0
LINE
  5
81
  8
SIZE
  6
CONTINUOUS
 62
    30
 10
422.5
 20
-40.0
 30
0.0
 11
422.5
 21
-702.981829
 31
0.0
  0
LINE
  5
82
  8
SIZE
  6
CONTINUOUS
 62
    30
 10
-422.5
 20
-40.0
 30
0.0
 11
-422.5
 21
-702.981829
 31
0.0
  0
LINE
  5
83
  8
SIZE
  6
CONTINUOUS
 62
    30
 10
-438.5
 20
-20.0
 30
0.0
 11
-438.5
 21
-572.302626
 31
0.0
  0
LINE
  5
84
  8
DETAIL
  6
CONTINUOUS
 62
     5
 10
420.0
 20
1575.0
 30
0.0
 11
420.0
 21
100.0
 31
0.0
  0
TEXT
  5
85
  8
SIZE
  6
CONTINUOUS
 62
    30
 10
888.423118
 20
1634.442857
 30
0.0
 40
64.0
  1
265
 50
90.0
 41
0.9
 72
     1
 11
888.423118
 21
1708.5
 31
0.0
  0
LINE
  5
86
  8
SIZE
  6
CONTINUOUS
 62
    30
 10
908.423118
 20
1840.0
 30
0.0
 11
908.423118
 21
1830.0
 31
0.0
  0
CIRCLE
  5
87
  8
SIZE
  6
CONTINUOUS
 62
    30
 10
908.423118
 20
1840.0
 30
0.0
 40
5.0
  0
LINE
  5
88
  8
SIZE
  6
CONTINUOUS
 62
    30
 10
908.423118
 20
1575.0
 30
0.0
 11
908.423118
 21
1585.0
 31
0.0
  0
CIRCLE
  5
89
  8
SIZE
  6
CONTINUOUS
 62
    30
 10
908.423118
 20
1575.0
 30
0.0
 40
5.0
  0
LINE
  5
8A
  8
SIZE
  6
CONTINUOUS
 62
    30
 10
908.423118
 20
1585.0
 30
0.0
 11
908.423118
 21
1830.0
 31
0.0
  0
LINE
  5
8B
  8
SIZE
  6
CONTINUOUS
 62
    30
 10
385.362983
 20
1840.0
 30
0.0
 11
938.423118
 21
1840.0
 31
0.0
  0
LINE
  5
8C
  8
SIZE
  6
CONTINUOUS
 62
    30
 10
440.0
 20
1575.0
 30
0.0
 11
938.423118
 21
1575.0
 31
0.0
  0
TEXT
  5
8D
  8
SIZE
  6
CONTINUOUS
 62
    30
 10
-74.057143
 20
2183.805368
 30
0.0
 40
64.0
  1
840
 41
0.9
 72
     1
 11
0.0
 21
2183.805368
 31
0.0
  0
LINE
  5
8E
  8
SIZE
  6
CONTINUOUS
 62
    30
 10
-420.0
 20
2163.805368
 30
0.0
 11
-410.0
 21
2163.805368
 31
0.0
  0
CIRCLE
  5
8F
  8
SIZE
  6
CONTINUOUS
 62
    30
 10
-420.0
 20
2163.805368
 30
0.0
 40
5.0
  0
LINE
  5
90
  8
SIZE
  6
CONTINUOUS
 62
    30
 10
420.0
 20
2163.805368
 30
0.0
 11
410.0
 21
2163.805368
 31
0.0
  0
CIRCLE
  5
91
  8
SIZE
  6
CONTINUOUS
 62
    30
 10
420.0
 20
2163.805368
 30
0.0
 40
5.0
  0
LINE
  5
92
  8
SIZE
  6
CONTINUOUS
 62
    30
 10
410.0
 20
2163.805368
 30
0.0
 11
-410.0
 21
2163.805368
 31
0.0
  0
LINE
  5
93
  8
SIZE
  6
CONTINUOUS
 62
    30
 10
-420.0
 20
1596.0
 30
0.0
 11
-420.0
 21
2193.805368
 31
0.0
  0
LINE
  5
94
  8
SIZE
  6
CONTINUOUS
 62
    30
 10
420.0
 20
1596.0
 30
0.0
 11
420.0
 21
2193.805368
 31
0.0
  0
POINT
  5
95
  8
ARRANGE
  6
CONTINUOUS
 62
     1
 10
0.0
 20
0.0
 30
0.0
  0
TEXT
  5
96
  8
SIZE
  6
CONTINUOUS
 62
    30
 10
888.423118
 20
692.0
 30
0.0
 40
64.0
  1
1575
 50
90.0
 41
0.9
 72
     1
 11
888.423118
 21
788.0
 31
0.0
  0
LINE
  5
97
  8
SIZE
  6
CONTINUOUS
 62
    30
 10
908.423118
 20
1575.0
 30
0.0
 11
908.423118
 21
1565.0
 31
0.0
  0
CIRCLE
  5
98
  8
SIZE
  6
CONTINUOUS
 62
    30
 10
908.423118
 20
1575.0
 30
0.0
 40
5.0
  0
LINE
  5
99
  8
SIZE
  6
CONTINUOUS
 62
    30
 10
908.423118
 20
0.0
 30
0.0
 11
908.423118
 21
10.0
 31
0.0
  0
CIRCLE
  5
9A
  8
SIZE
  6
CONTINUOUS
 62
    30
 10
908.423118
 20
0.0
 30
0.0
 40
5.0
  0
LINE
  5
9B
  8
SIZE
  6
CONTINUOUS
 62
    30
 10
908.423118
 20
10.0
 30
0.0
 11
908.423118
 21
1565.0
 31
0.0
  0
LINE
  5
9C
  8
SIZE
  6
CONTINUOUS
 62
    30
 10
440.0
 20
1575.0
 30
0.0
 11
938.423118
 21
1575.0
 31
0.0
  0
LINE
  5
9D
  8
SIZE
  6
CONTINUOUS
 62
    30
 10
458.5
 20
0.0
 30
0.0
 11
938.423118
 21
0.0
 31
0.0
  0
TEXT
  5
9E
  8
SIZE
  6
CONTINUOUS
 62
    30
 10
1123.186386
 20
824.5
 30
0.0
 40
64.0
  1
1840
 50
90.0
 41
0.9
 72
     1
 11
1123.186386
 21
920.5
 31
0.0
  0
LINE
  5
9F
  8
SIZE
  6
CONTINUOUS
 62
    30
 10
1143.186386
 20
0.0
 30
0.0
 11
1143.186386
 21
10.0
 31
0.0
  0
CIRCLE
  5
A0
  8
SIZE
  6
CONTINUOUS
 62
    30
 10
1143.186386
 20
0.0
 30
0.0
 40
5.0
  0
LINE
  5
A1
  8
SIZE
  6
CONTINUOUS
 62
    30
 10
1143.186386
 20
1840.0
 30
0.0
 11
1143.186386
 21
1830.0
 31
0.0
  0
CIRCLE
  5
A2
  8
SIZE
  6
CONTINUOUS
 62
    30
 10
1143.186386
 20
1840.0
 30
0.0
 40
5.0
  0
LINE
  5
A3
  8
SIZE
  6
CONTINUOUS
 62
    30
 10
1143.186386
 20
1830.0
 30
0.0
 11
1143.186386
 21
10.0
 31
0.0
  0
LINE
  5
A4
  8
SIZE
  6
CONTINUOUS
 62
    30
 10
923.423118
 20
0.0
 30
0.0
 11
1173.186386
 21
0.0
 31
0.0
  0
LINE
  5
A5
  8
SIZE
  6
CONTINUOUS
 62
    30
 10
385.795548
 20
1840.0
 30
0.0
 11
1173.186386
 21
1840.0
 31
0.0
  0
TEXT
  5
A6
  8
SIZE
  6
CONTINUOUS
 62
    30
 10
542.04505
 20
8.371429
 30
0.0
 40
64.0
  1
90
 50
90.0
 41
0.9
 72
     1
 11
542.04505
 21
55.0
 31
0.0
  0
LINE
  5
A7
  8
SIZE
  6
CONTINUOUS
 62
    30
 10
562.04505
 20
100.0
 30
0.0
 11
562.04505
 21
110.0
 31
0.0
  0
CIRCLE
  5
A8
  8
SIZE
  6
CONTINUOUS
 62
    30
 10
562.04505
 20
100.0
 30
0.0
 40
5.0
  0
LINE
  5
A9
  8
SIZE
  6
CONTINUOUS
 62
    30
 10
562.04505
 20
10.0
 30
0.0
 11
562.04505
 21
0.0
 31
0.0
  0
CIRCLE
  5
AA
  8
SIZE
  6
CONTINUOUS
 62
    30
 10
562.04505
 20
10.0
 30
0.0
 40
5.0
  0
LINE
  5
AB
  8
SIZE
  6
CONTINUOUS
 62
    30
 10
562.04505
 20
10.0
 30
0.0
 11
562.04505
 21
100.0
 31
0.0
  0
LINE
  5
AC
  8
SIZE
  6
CONTINUOUS
 62
    30
 10
562.04505
 20
110.0
 30
0.0
 11
562.04505
 21
120.0
 31
0.0
  0
LINE
  5
AD
  8
SIZE
  6
CONTINUOUS
 62
    30
 10
562.04505
 20
0.0
 30
0.0
 11
562.04505
 21
-10.0
 31
0.0
  0
LINE
  5
AE
  8
SIZE
  6
CONTINUOUS
 62
    30
 10
421.5
 20
100.0
 30
0.0
 11
592.04505
 21
100.0
 31
0.0
  0
LINE
  5
AF
  8
SIZE
  6
CONTINUOUS
 62
    30
 10
421.5
 20
10.0
 30
0.0
 11
592.04505
 21
10.0
 31
0.0
  0
TEXT
  5
B0
  8
SIZE
  6
CONTINUOUS
 62
    30
 10
542.04505
 20
-122.285714
 30
0.0
 40
64.0
  1
10
 50
90.0
 41
0.9
 72
     1
 11
542.04505
 21
-81.142857
 31
0.0
  0
LINE
  5
B1
  8
SIZE
  6
CONTINUOUS
 62
    30
 10
562.04505
 20
0.0
 30
0.0
 11
562.04505
 21
-10.0
 31
0.0
  0
CIRCLE
  5
B2
  8
SIZE
  6
CONTINUOUS
 62
    30
 10
562.04505
 20
0.0
 30
0.0
 40
5.0
  0
LINE
  5
B3
  8
SIZE
  6
CONTINUOUS
 62
    30
 10
562.04505
 20
10.0
 30
0.0
 11
562.04505
 21
20.0
 31
0.0
  0
CIRCLE
  5
B4
  8
SIZE
  6
CONTINUOUS
 62
    30
 10
562.04505
 20
10.0
 30
0.0
 40
5.0
  0
LINE
  5
B5
  8
SIZE
  6
CONTINUOUS
 62
    30
 10
562.04505
 20
10.0
 30
0.0
 11
562.04505
 21
0.0
 31
0.0
  0
LINE
  5
B6
  8
SIZE
  6
CONTINUOUS
 62
    30
 10
562.04505
 20
-10.0
 30
0.0
 11
562.04505
 21
-142.285714
 31
0.0
  0
LINE
  5
B7
  8
SIZE
  6
CONTINUOUS
 62
    30
 10
562.04505
 20
20.0
 30
0.0
 11
562.04505
 21
30.0
 31
0.0
  0
LINE
  5
B8
  8
SIZE
  6
CONTINUOUS
 62
    30
 10
421.5
 20
10.0
 30
0.0
 11
592.04505
 21
10.0
 31
0.0
  0
LINE
  5
B9
  8
SIZE
  6
CONTINUOUS
 62
    30
 10
458.5
 20
0.0
 30
0.0
 11
592.04505
 21
0.0
 31
0.0
  0
LINE
  5
BA
  8
DETAIL
  6
CONTINUOUS
 62
     5
 10
-284.5
 20
100.0
 30
0.0
 11
284.5
 21
100.0
 31
0.0
  0
LINE
  5
BB
  8
OUTLINE
  6
CONTINUOUS
 62
     3
 10
-284.5
 20
100.0
 30
0.0
 11
284.5
 21
100.0
 31
0.0
  0
LINE
  5
BC
  8
DETAIL
  6
CONTINUOUS
 62
     5
 10
401.5
 20
0.0
 30
0.0
 11
401.5
 21
100.0
 31
0.0
  0
LINE
  5
BD
  8
NOTE
  6
CONTINUOUS
 62
     4
 10
402.5
 20
0.0
 30
0.0
 11
438.5
 21
0.0
 31
0.0
  0
CIRCLE
  5
BE
  8
FIX
  6
CONTINUOUS
 62
    11
 10
422.5
 20
0.0
 30
0.0
 40
20.0
  0
LINE
  5
BF
  8
NOTE
  6
CONTINUOUS
 62
     4
 10
422.5
 20
-20.0
 30
0.0
 11
422.5
 21
20.0
 31
0.0
  0
LINE
  5
C0
  8
OUTLINE
  6
CONTINUOUS
 62
     3
 10
401.5
 20
0.0
 30
0.0
 11
401.5
 21
100.0
 31
0.0
  0
LINE
  5
C1
  8
DETAIL
  6
CONTINUOUS
 62
     5
 10
284.5
 20
0.0
 30
0.0
 11
284.5
 21
100.0
 31
0.0
  0
LINE
  5
C2
  8
OUTLINE
  6
CONTINUOUS
 62
     3
 10
284.5
 20
0.0
 30
0.0
 11
284.5
 21
100.0
 31
0.0
  0
LINE
  5
C3
  8
DETAIL
  6
CONTINUOUS
 62
     5
 10
401.5
 20
10.0
 30
0.0
 11
284.5
 21
10.0
 31
0.0
  0
LINE
  5
C4
  8
DETAIL
  6
CONTINUOUS
 62
     5
 10
420.0
 20
100.0
 30
0.0
 11
284.5
 21
100.0
 31
0.0
  0
LINE
  5
C5
  8
OUTLINE
  6
CONTINUOUS
 62
     3
 10
438.5
 20
0.0
 30
0.0
 11
284.5
 21
0.0
 31
0.0
  0
LINE
  5
C6
  8
DETAIL
  6
CONTINUOUS
 62
     5
 10
438.5
 20
0.0
 30
0.0
 11
284.5
 21
0.0
 31
0.0
  0
LINE
  5
C7
  8
OUTLINE
  6
CONTINUOUS
 62
     3
 10
438.5
 20
0.0
 30
0.0
 11
284.5
 21
0.0
 31
0.0
  0
LINE
  5
C8
  8
OUTLINE
  6
CONTINUOUS
 62
     3
 10
420.0
 20
100.0
 30
0.0
 11
420.0
 21
1575.0
 31
0.0
  0
LINE
  5
C9
  8
DETAIL
  6
CONTINUOUS
 62
     5
 10
149.559204
 20
1840.0
 30
0.0
 11
149.559204
 21
1740.0
 31
0.0
  0
LINE
  5
CA
  8
DETAIL
  6
CONTINUOUS
 62
     5
 10
49.559204
 20
1840.0
 30
0.0
 11
49.559204
 21
1740.0
 31
0.0
  0
LINE
  5
CB
  8
DETAIL
  6
CONTINUOUS
 62
     5
 10
59.559204
 20
1840.0
 30
0.0
 11
59.559204
 21
1740.0
 31
0.0
  0
LINE
  5
CC
  8
DETAIL
  6
CONTINUOUS
 62
     5
 10
139.559204
 20
1840.0
 30
0.0
 11
139.559204
 21
1740.0
 31
0.0
  0
LINE
  5
CD
  8
DETAIL
  6
CONTINUOUS
 62
     5
 10
119.559204
 20
1840.0
 30
0.0
 11
119.559204
 21
1740.0
 31
0.0
  0
LINE
  5
CE
  8
DETAIL
  6
CONTINUOUS
 62
     5
 10
129.559204
 20
1840.0
 30
0.0
 11
129.559204
 21
1740.0
 31
0.0
  0
LINE
  5
CF
  8
DETAIL
  6
CONTINUOUS
 62
     5
 10
109.559204
 20
1840.0
 30
0.0
 11
109.559204
 21
1740.0
 31
0.0
  0
LINE
  5
D0
  8
DETAIL
  6
CONTINUOUS
 62
     5
 10
89.559204
 20
1840.0
 30
0.0
 11
89.559204
 21
1740.0
 31
0.0
  0
LINE
  5
D1
  8
DETAIL
  6
CONTINUOUS
 62
     5
 10
79.559204
 20
1840.0
 30
0.0
 11
79.559204
 21
1740.0
 31
0.0
  0
LINE
  5
D2
  8
DETAIL
  6
CONTINUOUS
 62
     5
 10
99.559204
 20
1840.0
 30
0.0
 11
99.559204
 21
1740.0
 31
0.0
  0
LINE
  5
D3
  8
DETAIL
  6
CONTINUOUS
 62
     5
 10
69.559204
 20
1840.0
 30
0.0
 11
69.559204
 21
1740.0
 31
0.0
  0
LINE
  5
D4
  8
DETAIL
  6
CONTINUOUS
 62
     5
 10
29.559204
 20
1840.0
 30
0.0
 11
29.559204
 21
1740.0
 31
0.0
  0
LINE
  5
D5
  8
DETAIL
  6
CONTINUOUS
 62
     5
 10
19.559204
 20
1840.0
 30
0.0
 11
19.559204
 21
1740.0
 31
0.0
  0
LINE
  5
D6
  8
DETAIL
  6
CONTINUOUS
 62
     5
 10
-0.440796
 20
1840.0
 30
0.0
 11
-0.440796
 21
1740.0
 31
0.0
  0
LINE
  5
D7
  8
DETAIL
  6
CONTINUOUS
 62
     5
 10
9.559204
 20
1840.0
 30
0.0
 11
9.559204
 21
1740.0
 31
0.0
  0
LINE
  5
D8
  8
DETAIL
  6
CONTINUOUS
 62
     5
 10
39.559204
 20
1840.0
 30
0.0
 11
39.559204
 21
1740.0
 31
0.0
  0
LINE
  5
D9
  8
DETAIL
  6
CONTINUOUS
 62
     5
 10
370.0
 20
1750.31
 30
0.0
 11
370.0
 21
1625.0
 31
0.0
  0
LINE
  5
DA
  8
OUTLINE
  6
CONTINUOUS
 62
     3
 10
370.0
 20
1750.31
 30
0.0
 11
370.0
 21
1625.0
 31
0.0
  0
LINE
  5
DB
  8
DETAIL
  6
CONTINUOUS
 62
     5
 10
169.559204
 20
1840.0
 30
0.0
 11
169.559204
 21
1740.0
 31
0.0
  0
LINE
  5
DC
  8
DETAIL
  6
CONTINUOUS
 62
     5
 10
179.559204
 20
1840.0
 30
0.0
 11
179.559204
 21
1740.0
 31
0.0
  0
LINE
  5
DD
  8
DETAIL
  6
CONTINUOUS
 62
     5
 10
159.559204
 20
1840.0
 30
0.0
 11
159.559204
 21
1740.0
 31
0.0
  0
ARC
  5
DE
  8
DETAIL
  6
CONTINUOUS
 62
     5
 10
245.687547
 20
1750.31
 30
0.0
 40
124.312453
 50
0.0
 51
46.177243
  0
ARC
  5
DF
  8
OUTLINE
  6
CONTINUOUS
 62
     3
 10
245.687547
 20
1750.31
 30
0.0
 40
124.312453
 50
0.0
 51
46.177243
  0
LINE
  5
E0
  8
DETAIL
  6
CONTINUOUS
 62
     5
 10
339.559204
 20
1831.806614
 30
0.0
 11
339.559204
 21
1740.0
 31
0.0
  0
LINE
  5
E1
  8
DETAIL
  6
CONTINUOUS
 62
     5
 10
329.559204
 20
1840.0
 30
0.0
 11
329.559204
 21
1740.0
 31
0.0
  0
LINE
  5
E2
  8
DETAIL
  6
CONTINUOUS
 62
     5
 10
359.559204
 20
1800.178144
 30
0.0
 11
359.559204
 21
1740.0
 31
0.0
  0
LINE
  5
E3
  8
DETAIL
  6
CONTINUOUS
 62
     5
 10
349.559204
 20
1818.605424
 30
0.0
 11
349.559204
 21
1740.0
 31
0.0
  0
LINE
  5
E4
  8
DETAIL
  6
CONTINUOUS
 62
     5
 10
199.559204
 20
1840.0
 30
0.0
 11
199.559204
 21
1740.0
 31
0.0
  0
LINE
  5
E5
  8
DETAIL
  6
CONTINUOUS
 62
     5
 10
189.559204
 20
1840.0
 30
0.0
 11
189.559204
 21
1740.0
 31
0.0
  0
LINE
  5
E6
  8
DETAIL
  6
CONTINUOUS
 62
     5
 10
319.559204
 20
1840.0
 30
0.0
 11
319.559204
 21
1740.0
 31
0.0
  0
LINE
  5
E7
  8
DETAIL
  6
CONTINUOUS
 62
     5
 10
249.559204
 20
1840.0
 30
0.0
 11
249.559204
 21
1740.0
 31
0.0
  0
LINE
  5
E8
  8
DETAIL
  6
CONTINUOUS
 62
     5
 10
259.559204
 20
1840.0
 30
0.0
 11
259.559204
 21
1740.0
 31
0.0
  0
LINE
  5
E9
  8
DETAIL
  6
CONTINUOUS
 62
     5
 10
279.559204
 20
1840.0
 30
0.0
 11
279.559204
 21
1740.0
 31
0.0
  0
LINE
  5
EA
  8
DETAIL
  6
CONTINUOUS
 62
     5
 10
269.559204
 20
1840.0
 30
0.0
 11
269.559204
 21
1740.0
 31
0.0
  0
LINE
  5
EB
  8
DETAIL
  6
CONTINUOUS
 62
     5
 10
289.559204
 20
1840.0
 30
0.0
 11
289.559204
 21
1740.0
 31
0.0
  0
LINE
  5
EC
  8
DETAIL
  6
CONTINUOUS
 62
     5
 10
299.559204
 20
1840.0
 30
0.0
 11
299.559204
 21
1740.0
 31
0.0
  0
LINE
  5
ED
  8
DETAIL
  6
CONTINUOUS
 62
     5
 10
309.559204
 20
1840.0
 30
0.0
 11
309.559204
 21
1740.0
 31
0.0
  0
LINE
  5
EE
  8
DETAIL
  6
CONTINUOUS
 62
     5
 10
219.559204
 20
1840.0
 30
0.0
 11
219.559204
 21
1740.0
 31
0.0
  0
LINE
  5
EF
  8
DETAIL
  6
CONTINUOUS
 62
     5
 10
209.559204
 20
1840.0
 30
0.0
 11
209.559204
 21
1740.0
 31
0.0
  0
LINE
  5
F0
  8
DETAIL
  6
CONTINUOUS
 62
     5
 10
229.559204
 20
1840.0
 30
0.0
 11
229.559204
 21
1740.0
 31
0.0
  0
LINE
  5
F1
  8
DETAIL
  6
CONTINUOUS
 62
     5
 10
239.559204
 20
1840.0
 30
0.0
 11
239.559204
 21
1740.0
 31
0.0
  0
ARC
  5
F2
  8
DETAIL
  6
CONTINUOUS
 62
     5
 10
420.0
 20
1625.0
 30
0.0
 40
50.0
 50
180.0
 51
270.0
  0
ARC
  5
F3
  8
OUTLINE
  6
CONTINUOUS
 62
     3
 10
420.0
 20
1625.0
 30
0.0
 40
50.0
 50
180.0
 51
270.0
  0
LINE
  5
F4
  8
DETAIL
  6
CONTINUOUS
 62
     5
 10
370.0
 20
1740.0
 30
0.0
 11
0.0
 21
1740.0
 31
0.0
  0
LINE
  5
F5
  8
OUTLINE
  6
CONTINUOUS
 62
     3
 10
331.765193
 20
1840.0
 30
0.0
 11
0.0
 21
1840.0
 31
0.0
  0
LINE
  5
F6
  8
DETAIL
  6
CONTINUOUS
 62
     5
 10
331.765193
 20
1840.0
 30
0.0
 11
0.0
 21
1840.0
 31
0.0
  0
LINE
  5
F7
  8
OUTLINE
  6
CONTINUOUS
 62
     3
 10
0.0
 20
1575.0
 30
0.0
 11
420.0
 21
1575.0
 31
0.0
  0
LINE
  5
F8
  8
DETAIL
  6
CONTINUOUS
 62
     5
 10
0.0
 20
1575.0
 30
0.0
 11
420.0
 21
1575.0
 31
0.0
  0
LINE
  5
F9
  8
OUTLINE
  6
CONTINUOUS
 62
     3
 10
-401.5
 20
100.0
 30
0.0
 11
-420.0
 21
100.0
 31
0.0
  0
LINE
  5
FA
  8
OUTLINE
  6
CONTINUOUS
 62
     3
 10
-401.5
 20
0.0
 30
0.0
 11
-401.5
 21
100.0
 31
0.0
  0
LINE
  5
FB
  8
OUTLINE
  6
CONTINUOUS
 62
     3
 10
-284.5
 20
0.0
 30
0.0
 11
-284.5
 21
100.0
 31
0.0
  0
LINE
  5
FC
  8
OUTLINE
  6
CONTINUOUS
 62
     3
 10
-438.5
 20
0.0
 30
0.0
 11
-284.5
 21
0.0
 31
0.0
  0
LINE
  5
FD
  8
DETAIL
  6
CONTINUOUS
 62
     5
 10
-401.5
 20
0.0
 30
0.0
 11
-401.5
 21
100.0
 31
0.0
  0
LINE
  5
FE
  8
DETAIL
  6
CONTINUOUS
 62
     5
 10
-284.5
 20
0.0
 30
0.0
 11
-284.5
 21
100.0
 31
0.0
  0
LINE
  5
FF
  8
DETAIL
  6
CONTINUOUS
 62
     5
 10
-420.0
 20
100.0
 30
0.0
 11
-284.5
 21
100.0
 31
0.0
  0
LINE
  5
100
  8
DETAIL
  6
CONTINUOUS
 62
     5
 10
-401.5
 20
10.0
 30
0.0
 11
-284.5
 21
10.0
 31
0.0
  0
LINE
  5
101
  8
DETAIL
  6
CONTINUOUS
 62
     5
 10
-438.5
 20
0.0
 30
0.0
 11
-284.5
 21
0.0
 31
0.0
  0
LINE
  5
102
  8
OUTLINE
  6
CONTINUOUS
 62
     3
 10
-438.5
 20
0.0
 30
0.0
 11
-284.5
 21
0.0
 31
0.0
  0
ARC
  5
103
  8
OUTLINE
  6
CONTINUOUS
 62
     3
 10
-245.687547
 20
1750.31
 30
0.0
 40
124.312453
 50
133.822757
 51
180.0
  0
ARC
  5
104
  8
OUTLINE
  6
CONTINUOUS
 62
     3
 10
-420.0
 20
1625.0
 30
0.0
 40
50.0
 50
270.0
 51
0.0
  0
LINE
  5
105
  8
OUTLINE
  6
CONTINUOUS
 62
     3
 10
-370.0
 20
1750.31
 30
0.0
 11
-370.0
 21
1625.0
 31
0.0
  0
LINE
  5
106
  8
OUTLINE
  6
CONTINUOUS
 62
     3
 10
-331.765193
 20
1840.0
 30
0.0
 11
0.0
 21
1840.0
 31
0.0
  0
LINE
  5
107
  8
OUTLINE
  6
CONTINUOUS
 62
     3
 10
0.0
 20
1575.0
 30
0.0
 11
-420.0
 21
1575.0
 31
0.0
  0
LINE
  5
108
  8
OUTLINE
  6
CONTINUOUS
 62
     3
 10
-420.0
 20
100.0
 30
0.0
 11
-420.0
 21
1575.0
 31
0.0
  0
TEXT
  5
109
  8
ETC
  6
CONTINUOUS
 62
    61
 10
545.422369
 20
2054.528209
 30
0.0
 40
64.0
  1
PURY-P280_335M-E_4
 41
0.9
  0
TEXT
  5
10A
  8
NOTE
  6
CONTINUOUS
 62
     4
 10
620.96565
 20
917.938581
 30
0.0
 40
47.891833
  1
OA
 50
0.000003
 41
0.833333
  7
STANDARD1
  0
LINE
  5
10B
  8
NOTE
  6
CONTINUOUS
 62
     4
 10
602.480498
 20
1183.516047
 30
0.0
 11
562.371427
 21
1143.406763
 31
0.0
  0
LINE
  5
10C
  8
NOTE
  6
CONTINUOUS
 62
     4
 10
602.480724
 20
1103.296905
 30
0.0
 11
562.371512
 21
1143.406194
 31
0.0
  0
LINE
  5
10D
  8
NOTE
  6
CONTINUOUS
 62
     4
 10
602.480498
 20
1183.515568
 30
0.0
 11
602.480498
 21
1168.474651
 31
0.0
  0
LINE
  5
10E
  8
NOTE
  6
CONTINUOUS
 62
     4
 10
602.480498
 20
1100.72256
 30
0.0
 11
602.480498
 21
1118.337907
 31
0.0
  0
LINE
  5
10F
  8
NOTE
  6
CONTINUOUS
 62
     4
 10
677.685779
 20
1168.474651
 30
0.0
 11
677.685779
 21
1118.337907
 31
0.0
  0
LINE
  5
110
  8
NOTE
  6
CONTINUOUS
 62
     4
 10
602.480498
 20
1168.474651
 30
0.0
 11
677.685779
 21
1168.474651
 31
0.0
  0
LINE
  5
111
  8
NOTE
  6
CONTINUOUS
 62
     4
 10
602.480498
 20
1118.337907
 30
0.0
 11
677.685779
 21
1118.337907
 31
0.0
  0
LINE
  5
112
  8
NOTE
  6
CONTINUOUS
 62
     4
 10
604.980501
 20
702.20295
 30
0.0
 11
564.871427
 21
742.312254
 31
0.0
  0
LINE
  5
113
  8
NOTE
  6
CONTINUOUS
 62
     4
 10
604.980473
 20
782.421588
 30
0.0
 11
564.871517
 21
742.31253
 31
0.0
  0
LINE
  5
114
  8
NOTE
  6
CONTINUOUS
 62
     4
 10
604.980498
 20
699.628553
 30
0.0
 11
604.980498
 21
717.244026
 31
0.0
  0
LINE
  5
115
  8
NOTE
  6
CONTINUOUS
 62
     4
 10
604.980498
 20
782.421524
 30
0.0
 11
604.980498
 21
767.380651
 31
0.0
  0
LINE
  5
116
  8
NOTE
  6
CONTINUOUS
 62
     4
 10
680.185779
 20
767.380651
 30
0.0
 11
680.185779
 21
717.244026
 31
0.0
  0
LINE
  5
117
  8
NOTE
  6
CONTINUOUS
 62
     4
 10
604.980498
 20
717.244026
 30
0.0
 11
680.185779
 21
717.244026
 31
0.0
  0
LINE
  5
118
  8
NOTE
  6
CONTINUOUS
 62
     4
 10
604.980498
 20
767.380651
 30
0.0
 11
680.185779
 21
767.380651
 31
0.0
  0
LINE
  5
119
  8
NOTE
  6
CONTINUOUS
 62
     4
 10
-602.480498
 20
1118.337907
 30
0.0
 11
-677.685779
 21
1118.337907
 31
0.0
  0
LINE
  5
11A
  8
NOTE
  6
CONTINUOUS
 62
     4
 10
-602.480498
 20
1168.474651
 30
0.0
 11
-677.685779
 21
1168.474651
 31
0.0
  0
LINE
  5
11B
  8
NOTE
  6
CONTINUOUS
 62
     4
 10
-677.685779
 20
1168.474651
 30
0.0
 11
-677.685779
 21
1118.337907
 31
0.0
  0
LINE
  5
11C
  8
NOTE
  6
CONTINUOUS
 62
     4
 10
-602.480498
 20
1100.72256
 30
0.0
 11
-602.480498
 21
1118.337907
 31
0.0
  0
LINE
  5
11D
  8
NOTE
  6
CONTINUOUS
 62
     4
 10
-602.480498
 20
1183.515568
 30
0.0
 11
-602.480498
 21
1168.474651
 31
0.0
  0
LINE
  5
11E
  8
NOTE
  6
CONTINUOUS
 62
     4
 10
-604.980498
 20
767.380651
 30
0.0
 11
-680.185779
 21
767.380651
 31
0.0
  0
LINE
  5
11F
  8
NOTE
  6
CONTINUOUS
 62
     4
 10
-604.980498
 20
782.421524
 30
0.0
 11
-604.980498
 21
767.380651
 31
0.0
  0
TEXT
  5
120
  8
NOTE
  6
CONTINUOUS
 62
     4
 10
-659.200627
 20
917.938581
 30
0.0
 40
47.891833
  1
OA
 50
0.000003
 41
0.833333
  7
STANDARD1
  0
LINE
  5
121
  8
NOTE
  6
CONTINUOUS
 62
     4
 10
-604.980498
 20
717.244026
 30
0.0
 11
-680.185779
 21
717.244026
 31
0.0
  0
LINE
  5
122
  8
NOTE
  6
CONTINUOUS
 62
     4
 10
-604.980498
 20
699.628553
 30
0.0
 11
-604.980498
 21
717.244026
 31
0.0
  0
LINE
  5
123
  8
NOTE
  6
CONTINUOUS
 62
     4
 10
-680.185779
 20
767.380651
 30
0.0
 11
-680.185779
 21
717.244026
 31
0.0
  0
LINE
  5
124
  8
NOTE
  6
CONTINUOUS
 62
     4
 10
-604.980473
 20
782.421588
 30
0.0
 11
-564.871517
 21
742.31253
 31
0.0
  0
LINE
  5
125
  8
NOTE
  6
CONTINUOUS
 62
     4
 10
-604.980501
 20
702.20295
 30
0.0
 11
-564.871427
 21
742.312254
 31
0.0
  0
LINE
  5
126
  8
NOTE
  6
CONTINUOUS
 62
     4
 10
-602.480724
 20
1103.296905
 30
0.0
 11
-562.371512
 21
1143.406194
 31
0.0
  0
LINE
  5
127
  8
NOTE
  6
CONTINUOUS
 62
     4
 10
-602.480498
 20
1183.516047
 30
0.0
 11
-562.371427
 21
1143.406763
 31
0.0
  0
LINE
  5
128
  8
NOTE
  6
CONTINUOUS
 62
     4
 10
285.993029
 20
2024.507975
 30
0.0
 11
285.993029
 21
1949.303151
 31
0.0
  0
LINE
  5
129
  8
NOTE
  6
CONTINUOUS
 62
     4
 10
301.033903
 20
2024.508203
 30
0.0
 11
285.993029
 21
2024.508203
 31
0.0
  0
LINE
  5
12A
  8
NOTE
  6
CONTINUOUS
 62
     4
 10
301.033708
 20
2024.508176
 30
0.0
 11
260.924827
 21
2064.617514
 31
0.0
  0
LINE
  5
12B
  8
NOTE
  6
CONTINUOUS
 62
     4
 10
235.856176
 20
2024.508432
 30
0.0
 11
235.856176
 21
1949.30338
 31
0.0
  0
LINE
  5
12C
  8
NOTE
  6
CONTINUOUS
 62
     4
 10
218.240703
 20
2024.508432
 30
0.0
 11
235.856176
 21
2024.508432
 31
0.0
  0
LINE
  5
12D
  8
NOTE
  6
CONTINUOUS
 62
     4
 10
285.992801
 20
1949.303151
 30
0.0
 11
235.856176
 21
1949.303151
 31
0.0
  0
LINE
  5
12E
  8
NOTE
  6
CONTINUOUS
 62
     4
 10
220.81506
 20
2024.508176
 30
0.0
 11
260.924343
 21
2064.617229
 31
0.0
  0
TEXT
  5
12F
  8
NOTE
  6
CONTINUOUS
 62
     4
 10
-18.356469
 20
1978.007908
 30
0.0
 40
47.891833
  1
EA
 50
0.000003
 41
0.833333
  7
STANDARD1
  0
LINE
  5
130
  8
NOTE
  6
CONTINUOUS
 62
     4
 10
-267.251901
 20
2024.507975
 30
0.0
 11
-267.251901
 21
1949.303151
 31
0.0
  0
LINE
  5
131
  8
NOTE
  6
CONTINUOUS
 62
     4
 10
-217.115047
 20
2024.508432
 30
0.0
 11
-217.115047
 21
1949.30338
 31
0.0
  0
LINE
  5
132
  8
NOTE
  6
CONTINUOUS
 62
     4
 10
-267.251672
 20
1949.303151
 30
0.0
 11
-217.115047
 21
1949.303151
 31
0.0
  0
LINE
  5
133
  8
NOTE
  6
CONTINUOUS
 62
     4
 10
-282.292491
 20
2024.508261
 30
0.0
 11
-242.183711
 21
2064.617498
 31
0.0
  0
LINE
  5
134
  8
NOTE
  6
CONTINUOUS
 62
     4
 10
-282.292774
 20
2024.508203
 30
0.0
 11
-267.251901
 21
2024.508203
 31
0.0
  0
LINE
  5
135
  8
NOTE
  6
CONTINUOUS
 62
     4
 10
-202.073942
 20
2024.508092
 30
0.0
 11
-242.183246
 21
2064.617165
 31
0.0
  0
LINE
  5
136
  8
NOTE
  6
CONTINUOUS
 62
     4
 10
-199.499575
 20
2024.508432
 30
0.0
 11
-217.115047
 21
2024.508432
 31
0.0
  0
LINE
  5
137
  8
DETAIL
  6
CONTINUOUS
 62
     5
 10
-29.559204
 20
1840.0
 30
0.0
 11
-29.559204
 21
1740.0
 31
0.0
  0
LINE
  5
138
  8
DETAIL
  6
CONTINUOUS
 62
     5
 10
-19.559204
 20
1840.0
 30
0.0
 11
-19.559204
 21
1740.0
 31
0.0
  0
LINE
  5
139
  8
DETAIL
  6
CONTINUOUS
 62
     5
 10
0.440796
 20
1840.0
 30
0.0
 11
0.440796
 21
1740.0
 31
0.0
  0
LINE
  5
13A
  8
DETAIL
  6
CONTINUOUS
 62
     5
 10
-9.559204
 20
1840.0
 30
0.0
 11
-9.559204
 21
1740.0
 31
0.0
  0
LINE
  5
13B
  8
DETAIL
  6
CONTINUOUS
 62
     5
 10
-39.559204
 20
1840.0
 30
0.0
 11
-39.559204
 21
1740.0
 31
0.0
  0
LINE
  5
13C
  8
DETAIL
  6
CONTINUOUS
 62
     5
 10
-49.559204
 20
1840.0
 30
0.0
 11
-49.559204
 21
1740.0
 31
0.0
  0
LINE
  5
13D
  8
DETAIL
  6
CONTINUOUS
 62
     5
 10
-59.559204
 20
1840.0
 30
0.0
 11
-59.559204
 21
1740.0
 31
0.0
  0
LINE
  5
13E
  8
DETAIL
  6
CONTINUOUS
 62
     5
 10
-199.559204
 20
1840.0
 30
0.0
 11
-199.559204
 21
1740.0
 31
0.0
  0
LINE
  5
13F
  8
DETAIL
  6
CONTINUOUS
 62
     5
 10
-189.559204
 20
1840.0
 30
0.0
 11
-189.559204
 21
1740.0
 31
0.0
  0
LINE
  5
140
  8
DETAIL
  6
CONTINUOUS
 62
     5
 10
-169.559204
 20
1840.0
 30
0.0
 11
-169.559204
 21
1740.0
 31
0.0
  0
LINE
  5
141
  8
DETAIL
  6
CONTINUOUS
 62
     5
 10
-179.559204
 20
1840.0
 30
0.0
 11
-179.559204
 21
1740.0
 31
0.0
  0
LINE
  5
142
  8
DETAIL
  6
CONTINUOUS
 62
     5
 10
-159.559204
 20
1840.0
 30
0.0
 11
-159.559204
 21
1740.0
 31
0.0
  0
LINE
  5
143
  8
DETAIL
  6
CONTINUOUS
 62
     5
 10
-149.559204
 20
1840.0
 30
0.0
 11
-149.559204
 21
1740.0
 31
0.0
  0
LINE
  5
144
  8
DETAIL
  6
CONTINUOUS
 62
     5
 10
-139.559204
 20
1840.0
 30
0.0
 11
-139.559204
 21
1740.0
 31
0.0
  0
LINE
  5
145
  8
DETAIL
  6
CONTINUOUS
 62
     5
 10
-119.559204
 20
1840.0
 30
0.0
 11
-119.559204
 21
1740.0
 31
0.0
  0
LINE
  5
146
  8
DETAIL
  6
CONTINUOUS
 62
     5
 10
-129.559204
 20
1840.0
 30
0.0
 11
-129.559204
 21
1740.0
 31
0.0
  0
LINE
  5
147
  8
DETAIL
  6
CONTINUOUS
 62
     5
 10
-109.559204
 20
1840.0
 30
0.0
 11
-109.559204
 21
1740.0
 31
0.0
  0
LINE
  5
148
  8
DETAIL
  6
CONTINUOUS
 62
     5
 10
-89.559204
 20
1840.0
 30
0.0
 11
-89.559204
 21
1740.0
 31
0.0
  0
LINE
  5
149
  8
DETAIL
  6
CONTINUOUS
 62
     5
 10
-79.559204
 20
1840.0
 30
0.0
 11
-79.559204
 21
1740.0
 31
0.0
  0
LINE
  5
14A
  8
DETAIL
  6
CONTINUOUS
 62
     5
 10
-99.559204
 20
1840.0
 30
0.0
 11
-99.559204
 21
1740.0
 31
0.0
  0
LINE
  5
14B
  8
DETAIL
  6
CONTINUOUS
 62
     5
 10
-69.559204
 20
1840.0
 30
0.0
 11
-69.559204
 21
1740.0
 31
0.0
  0
LINE
  5
14C
  8
DETAIL
  6
CONTINUOUS
 62
     5
 10
-339.559204
 20
1831.806614
 30
0.0
 11
-339.559204
 21
1740.0
 31
0.0
  0
LINE
  5
14D
  8
DETAIL
  6
CONTINUOUS
 62
     5
 10
-319.559204
 20
1840.0
 30
0.0
 11
-319.559204
 21
1740.0
 31
0.0
  0
LINE
  5
14E
  8
DETAIL
  6
CONTINUOUS
 62
     5
 10
-329.559204
 20
1840.0
 30
0.0
 11
-329.559204
 21
1740.0
 31
0.0
  0
LINE
  5
14F
  8
DETAIL
  6
CONTINUOUS
 62
     5
 10
-249.559204
 20
1840.0
 30
0.0
 11
-249.559204
 21
1740.0
 31
0.0
  0
LINE
  5
150
  8
DETAIL
  6
CONTINUOUS
 62
     5
 10
-259.559204
 20
1840.0
 30
0.0
 11
-259.559204
 21
1740.0
 31
0.0
  0
LINE
  5
151
  8
DETAIL
  6
CONTINUOUS
 62
     5
 10
-279.559204
 20
1840.0
 30
0.0
 11
-279.559204
 21
1740.0
 31
0.0
  0
LINE
  5
152
  8
DETAIL
  6
CONTINUOUS
 62
     5
 10
-269.559204
 20
1840.0
 30
0.0
 11
-269.559204
 21
1740.0
 31
0.0
  0
LINE
  5
153
  8
DETAIL
  6
CONTINUOUS
 62
     5
 10
-289.559204
 20
1840.0
 30
0.0
 11
-289.559204
 21
1740.0
 31
0.0
  0
LINE
  5
154
  8
DETAIL
  6
CONTINUOUS
 62
     5
 10
-299.559204
 20
1840.0
 30
0.0
 11
-299.559204
 21
1740.0
 31
0.0
  0
LINE
  5
155
  8
DETAIL
  6
CONTINUOUS
 62
     5
 10
-309.559204
 20
1840.0
 30
0.0
 11
-309.559204
 21
1740.0
 31
0.0
  0
LINE
  5
156
  8
DETAIL
  6
CONTINUOUS
 62
     5
 10
-219.559204
 20
1840.0
 30
0.0
 11
-219.559204
 21
1740.0
 31
0.0
  0
LINE
  5
157
  8
DETAIL
  6
CONTINUOUS
 62
     5
 10
-209.559204
 20
1840.0
 30
0.0
 11
-209.559204
 21
1740.0
 31
0.0
  0
LINE
  5
158
  8
DETAIL
  6
CONTINUOUS
 62
     5
 10
-229.559204
 20
1840.0
 30
0.0
 11
-229.559204
 21
1740.0
 31
0.0
  0
LINE
  5
159
  8
DETAIL
  6
CONTINUOUS
 62
     5
 10
-239.559204
 20
1840.0
 30
0.0
 11
-239.559204
 21
1740.0
 31
0.0
  0
LINE
  5
15A
  8
DETAIL
  6
CONTINUOUS
 62
     5
 10
-359.559204
 20
1800.178144
 30
0.0
 11
-359.559204
 21
1740.0
 31
0.0
  0
LINE
  5
15B
  8
DETAIL
  6
CONTINUOUS
 62
     5
 10
-349.559204
 20
1818.605424
 30
0.0
 11
-349.559204
 21
1740.0
 31
0.0
  0
TEXT
  5
15C
  8
NOTE
  6
CONTINUOUS
 62
     4
 10
-1435.261591
 20
-242.825303
 30
0.0
 40
64.0
  1
AH 2×2-14×20長穴
 41
0.9
  0
LINE
  5
15D
  8
NOTE
  6
CONTINUOUS
 62
     4
 10
-1455.629591
 20
-259.75907
 30
0.0
 11
-612.329431
 21
-259.75907
 31
0.0
  0
CIRCLE
  5
15E
  8
FIX
  6
CONTINUOUS
 62
    11
 10
-422.5
 20
0.0
 30
0.0
 40
20.0
  0
TEXT
  5
15F
  8
ETC
  6
CONTINUOUS
 62
    61
 10
550.480372
 20
1954.762696
 30
0.0
 40
64.0
  1
室外機
 41
0.9
  0
ARC
  5
160
  8
DETAIL
  6
CONTINUOUS
 62
     5
 10
-245.687547
 20
1750.31
 30
0.0
 40
124.312453
 50
133.822757
 51
180.0
  0
LINE
  5
161
  8
DETAIL
  6
CONTINUOUS
 62
     5
 10
-370.0
 20
1750.31
 30
0.0
 11
-370.0
 21
1625.0
 31
0.0
  0
ARC
  5
162
  8
DETAIL
  6
CONTINUOUS
 62
     5
 10
-420.0
 20
1625.0
 30
0.0
 40
50.0
 50
270.0
 51
0.0
  0
CIRCLE
  5
163
  8
ARRANGE
  6
CONTINUOUS
 62
     1
 10
0.0
 20
0.0
 30
0.0
 40
40.0
  0
LINE
  5
164
  8
NOTE
  6
CONTINUOUS
 62
     4
 10
-402.5
 20
0.0
 30
0.0
 11
-438.5
 21
0.0
 31
0.0
  0
LINE
  5
165
  8
NOTE
  6
CONTINUOUS
 62
     4
 10
-422.5
 20
-20.0
 30
0.0
 11
-422.5
 21
20.0
 31
0.0
  0
POLYLINE
  5
166
  8
NOTE
  6
CONTINUOUS
 62
     4
 66
     1
 10
0.0
 20
0.0
 30
0.0
  0
VERTEX
  5
167
  8
NOTE
  6
CONTINUOUS
 62
     4
 10
-437.464163
 20
-37.095469
 30
0.0
  0
VERTEX
  5
168
  8
NOTE
  6
CONTINUOUS
 62
     4
 10
-422.5
 20
0.0
 30
0.0
  0
VERTEX
  5
169
  8
NOTE
  6
CONTINUOUS
 62
     4
 10
-454.00708
 20
-24.643537
 30
0.0
  0
SEQEND
  5
16A
  8
NOTE
  6
CONTINUOUS
 62
     4
  0
LINE
  5
16B
  8
DETAIL
  6
CONTINUOUS
 62
     5
 10
-420.0
 20
100.0
 30
0.0
 11
-420.0
 21
1575.0
 31
0.0
  0
LINE
  5
16C
  8
DETAIL
  6
CONTINUOUS
 62
     5
 10
-370.0
 20
1740.0
 30
0.0
 11
0.0
 21
1740.0
 31
0.0
  0
LINE
  5
16D
  8
DETAIL
  6
CONTINUOUS
 62
     5
 10
-331.765193
 20
1840.0
 30
0.0
 11
0.0
 21
1840.0
 31
0.0
  0
LINE
  5
16E
  8
DETAIL
  6
CONTINUOUS
 62
     5
 10
0.0
 20
1575.0
 30
0.0
 11
-420.0
 21
1575.0
 31
0.0
  0
POINT
  5
16F
  8
ARRANGE
  6
CONTINUOUS
 62
     1
 10
0.0
 20
0.0
 30
0.0
  0
LINE
  5
170
  8
NOTE
  6
CONTINUOUS
 62
     4
 10
-422.5
 20
0.0
 30
0.0
 11
-612.329431
 21
-259.75907
 31
0.0
  0
LINE
  5
171
  8
BASIS
  6
DASHDOT
 62
     6
 10
0.0
 20
-142.33057
 30
0.0
 11
0.0
 21
1871.449886
 31
0.0
  0
LINE
  5
172
  8
NOTE
  6
CONTINUOUS
 62
     4
 10
-441.283162
 20
398.551178
 30
0.0
 11
-897.905818
 21
397.834897
 31
0.0
  0
TEXT
  5
173
  8
NOTE
  6
CONTINUOUS
 62
     4
 10
-881.153081
 20
401.673456
 30
0.0
 40
64.0
  1
RG %%c22.2
 50
0.089877
 41
0.9
  0
TEXT
  5
174
  8
NOTE
  6
CONTINUOUS
 62
     4
 10
-967.52088
 20
307.377211
 30
0.0
 40
64.0
  1
RL %%c19.05
 50
0.089877
 41
0.9
  0
LINE
  5
175
  8
NOTE
  6
CONTINUOUS
 62
     4
 10
-552.176696
 20
297.485682
 30
0.0
 11
-947.192799
 21
296.866039
 31
0.0
  0
LINE
  5
176
  8
NOTE
  6
CONTINUOUS
 62
     4
 10
-303.502013
 20
164.0
 30
0.0
 11
-303.502013
 21
204.0
 31
0.0
  0
LINE
  5
177
  8
NOTE
  6
CONTINUOUS
 62
     4
 10
-318.5
 20
179.000005
 30
0.0
 11
-318.5
 21
219.000005
 31
0.0
  0
LINE
  5
178
  8
NOTE
  6
CONTINUOUS
 62
     4
 10
-323.499999
 20
183.995098
 30
0.0
 11
-283.500001
 21
184.004902
 31
0.0
  0
POLYLINE
  5
179
  8
NOTE
  6
CONTINUOUS
 62
     4
 66
     1
 10
0.0
 20
0.0
 30
0.0
  0
VERTEX
  5
17A
  8
NOTE
  6
CONTINUOUS
 62
     4
 10
-331.895915
 20
209.011849
 30
0.0
  0
VERTEX
  5
17B
  8
NOTE
  6
CONTINUOUS
 62
     4
 10
-303.499231
 20
183.997549
 30
0.0
  0
VERTEX
  5
17C
  8
NOTE
  6
CONTINUOUS
 62
     4
 10
-314.905294
 20
220.366942
 30
0.0
  0
SEQEND
  5
17D
  8
NOTE
  6
CONTINUOUS
 62
     4
  0
LINE
  5
17E
  8
NOTE
  6
CONTINUOUS
 62
     4
 10
-338.518988
 20
198.995098
 30
0.0
 11
-298.51899
 21
199.004902
 31
0.0
  0
POLYLINE
  5
17F
  8
NOTE
  6
CONTINUOUS
 62
     4
 66
     1
 10
0.0
 20
0.0
 30
0.0
  0
VERTEX
  5
180
  8
NOTE
  6
CONTINUOUS
 62
     4
 10
-358.300835
 20
202.986671
 30
0.0
  0
VERTEX
  5
181
  8
NOTE
  6
CONTINUOUS
 62
     4
 10
-318.5
 20
199.000005
 30
0.0
  0
VERTEX
  5
182
  8
NOTE
  6
CONTINUOUS
 62
     4
 10
-350.975202
 20
222.352977
 30
0.0
  0
SEQEND
  5
183
  8
NOTE
  6
CONTINUOUS
 62
     4
  0
LINE
  5
184
  8
NOTE
  6
CONTINUOUS
 62
     4
 10
-552.176696
 20
297.485682
 30
0.0
 11
-318.5
 21
199.000005
 31
0.0
  0
LINE
  5
185
  8
NOTE
  6
CONTINUOUS
 62
     4
 10
-441.283162
 20
398.551178
 30
0.0
 11
-303.5
 21
184.0
 31
0.0
  0
LINE
  5
186
  8
SIZE
  6
CONTINUOUS
 62
    30
 10
-438.5
 20
-20.0
 30
0.0
 11
-438.5
 21
-429.432431
 31
0.0
  0
LINE
  5
187
  8
SIZE
  6
CONTINUOUS
 62
    30
 10
-318.5
 20
179.651126
 30
0.0
 11
-318.5
 21
-429.432431
 31
0.0
  0
LINE
  5
188
  8
SIZE
  6
CONTINUOUS
 62
    30
 10
-428.5
 20
-399.432431
 30
0.0
 11
-328.5
 21
-399.432431
 31
0.0
  0
CIRCLE
  5
189
  8
SIZE
  6
CONTINUOUS
 62
    30
 10
-438.5
 20
-399.432431
 30
0.0
 40
5.0
  0
LINE
  5
18A
  8
SIZE
  6
CONTINUOUS
 62
    30
 10
-433.5
 20
-399.432431
 30
0.0
 11
-428.5
 21
-399.432431
 31
0.0
  0
CIRCLE
  5
18B
  8
SIZE
  6
CONTINUOUS
 62
    30
 10
-318.5
 20
-399.432431
 30
0.0
 40
5.0
  0
LINE
  5
18C
  8
SIZE
  6
CONTINUOUS
 62
    30
 10
-323.5
 20
-399.432431
 30
0.0
 11
-328.5
 21
-399.432431
 31
0.0
  0
TEXT
  5
18D
  8
SIZE
  6
CONTINUOUS
 62
    30
 10
-447.071429
 20
-379.432431
 30
0.0
 40
64.0
  1
120
 41
0.9
 72
     1
 11
-378.5
 21
-379.432431
 31
0.0
  0
POINT
  5
18E
  8
DEFPOINTS
  6
CONTINUOUS
 62
     7
 10
-438.5
 20
0.0
 30
0.0
  0
POINT
  5
18F
  8
DEFPOINTS
  6
CONTINUOUS
 62
     7
 10
-318.5
 20
199.651126
 30
0.0
  0
POINT
  5
190
  8
DEFPOINTS
  6
CONTINUOUS
 62
     7
 10
-318.5
 20
-399.432431
 30
0.0
  0
LINE
  5
191
  8
SIZE
  6
CONTINUOUS
 62
    30
 10
-438.5
 20
-20.0
 30
0.0
 11
-438.5
 21
-564.087657
 31
0.0
  0
LINE
  5
192
  8
SIZE
  6
CONTINUOUS
 62
    30
 10
-303.5
 20
163.336646
 30
0.0
 11
-303.5
 21
-564.087657
 31
0.0
  0
LINE
  5
193
  8
SIZE
  6
CONTINUOUS
 62
    30
 10
-428.5
 20
-534.087657
 30
0.0
 11
-313.5
 21
-534.087657
 31
0.0
  0
CIRCLE
  5
194
  8
SIZE
  6
CONTINUOUS
 62
    30
 10
-438.5
 20
-534.087657
 30
0.0
 40
5.0
  0
LINE
  5
195
  8
SIZE
  6
CONTINUOUS
 62
    30
 10
-433.5
 20
-534.087657
 30
0.0
 11
-428.5
 21
-534.087657
 31
0.0
  0
CIRCLE
  5
196
  8
SIZE
  6
CONTINUOUS
 62
    30
 10
-303.5
 20
-534.087657
 30
0.0
 40
5.0
  0
LINE
  5
197
  8
SIZE
  6
CONTINUOUS
 62
    30
 10
-308.5
 20
-534.087657
 30
0.0
 11
-313.5
 21
-534.087657
 31
0.0
  0
TEXT
  5
198
  8
SIZE
  6
CONTINUOUS
 62
    30
 10
-439.571429
 20
-514.087657
 30
0.0
 40
64.0
  1
135
 41
0.9
 72
     1
 11
-371.0
 21
-514.087657
 31
0.0
  0
POINT
  5
199
  8
DEFPOINTS
  6
CONTINUOUS
 62
     7
 10
-438.5
 20
0.0
 30
0.0
  0
POINT
  5
19A
  8
DEFPOINTS
  6
CONTINUOUS
 62
     7
 10
-303.5
 20
183.336646
 30
0.0
  0
POINT
  5
19B
  8
DEFPOINTS
  6
CONTINUOUS
 62
     7
 10
-303.5
 20
-534.087657
 30
0.0
  0
LINE
  5
19C
  8
SIZE
  6
CONTINUOUS
 62
    30
 10
-343.499999
 20
183.995098
 30
0.0
 11
-542.191444
 21
183.995098
 31
0.0
  0
LINE
  5
19D
  8
SIZE
  6
CONTINUOUS
 62
    30
 10
-323.5
 20
0.0
 30
0.0
 11
-542.191444
 21
0.0
 31
0.0
  0
LINE
  5
19E
  8
SIZE
  6
CONTINUOUS
 62
    30
 10
-512.191444
 20
193.995098
 30
0.0
 11
-512.191444
 21
203.995098
 31
0.0
  0
LINE
  5
19F
  8
SIZE
  6
CONTINUOUS
 62
    30
 10
-512.191444
 20
-10.0
 30
0.0
 11
-512.191444
 21
-20.0
 31
0.0
  0
LINE
  5
1A0
  8
SIZE
  6
CONTINUOUS
 62
    30
 10
-512.191444
 20
183.995098
 30
0.0
 11
-512.191444
 21
0.0
 31
0.0
  0
CIRCLE
  5
1A1
  8
SIZE
  6
CONTINUOUS
 62
    30
 10
-512.191444
 20
183.995098
 30
0.0
 40
5.0
  0
LINE
  5
1A2
  8
SIZE
  6
CONTINUOUS
 62
    30
 10
-512.191444
 20
188.995098
 30
0.0
 11
-512.191444
 21
193.995098
 31
0.0
  0
CIRCLE
  5
1A3
  8
SIZE
  6
CONTINUOUS
 62
    30
 10
-512.191444
 20
0.0
 30
0.0
 40
5.0
  0
LINE
  5
1A4
  8
SIZE
  6
CONTINUOUS
 62
    30
 10
-512.191444
 20
-5.0
 30
0.0
 11
-512.191444
 21
-10.0
 31
0.0
  0
TEXT
  5
1A5
  8
SIZE
  6
CONTINUOUS
 62
    30
 10
-532.191444
 20
-19.742677
 30
0.0
 40
64.0
  1
184
 50
90.0
 41
0.9
 72
     1
 11
-532.191444
 21
50.20018
 31
0.0
  0
POINT
  5
1A6
  8
DEFPOINTS
  6
CONTINUOUS
 62
     7
 10
-323.499999
 20
183.995098
 30
0.0
  0
POINT
  5
1A7
  8
DEFPOINTS
  6
CONTINUOUS
 62
     7
 10
-303.5
 20
0.0
 30
0.0
  0
POINT
  5
1A8
  8
DEFPOINTS
  6
CONTINUOUS
 62
     7
 10
-512.191444
 20
0.0
 30
0.0
  0
LINE
  5
1A9
  8
SIZE
  6
CONTINUOUS
 62
    30
 10
-358.518988
 20
198.995098
 30
0.0
 11
-542.191444
 21
198.995098
 31
0.0
  0
LINE
  5
1AA
  8
SIZE
  6
CONTINUOUS
 62
    30
 10
-343.499999
 20
183.995098
 30
0.0
 11
-542.191444
 21
183.995098
 31
0.0
  0
LINE
  5
1AB
  8
SIZE
  6
CONTINUOUS
 62
    30
 10
-512.191444
 20
208.995098
 30
0.0
 11
-512.191444
 21
218.995098
 31
0.0
  0
LINE
  5
1AC
  8
SIZE
  6
CONTINUOUS
 62
    30
 10
-512.191444
 20
173.995098
 30
0.0
 11
-512.191444
 21
163.995098
 31
0.0
  0
LINE
  5
1AD
  8
SIZE
  6
CONTINUOUS
 62
    30
 10
-512.191444
 20
198.995098
 30
0.0
 11
-512.191444
 21
183.995098
 31
0.0
  0
CIRCLE
  5
1AE
  8
SIZE
  6
CONTINUOUS
 62
    30
 10
-512.191444
 20
198.995098
 30
0.0
 40
5.0
  0
LINE
  5
1AF
  8
SIZE
  6
CONTINUOUS
 62
    30
 10
-512.191444
 20
203.995098
 30
0.0
 11
-512.191444
 21
208.995098
 31
0.0
  0
CIRCLE
  5
1B0
  8
SIZE
  6
CONTINUOUS
 62
    30
 10
-512.191444
 20
183.995098
 30
0.0
 40
5.0
  0
LINE
  5
1B1
  8
SIZE
  6
CONTINUOUS
 62
    30
 10
-512.191444
 20
178.995098
 30
0.0
 11
-512.191444
 21
173.995098
 31
0.0
  0
TEXT
  5
1B2
  8
SIZE
  6
CONTINUOUS
 62
    30
 10
-532.191444
 20
150.352241
 30
0.0
 40
64.0
  1
15
 50
90.0
 41
0.9
 72
     1
 11
-532.191444
 21
191.495098
 31
0.0
  0
POINT
  5
1B3
  8
DEFPOINTS
  6
CONTINUOUS
 62
     7
 10
-338.518988
 20
198.995098
 30
0.0
  0
POINT
  5
1B4
  8
DEFPOINTS
  6
CONTINUOUS
 62
     7
 10
-323.499999
 20
183.995098
 30
0.0
  0
POINT
  5
1B5
  8
DEFPOINTS
  6
CONTINUOUS
 62
     7
 10
-512.191444
 20
183.995098
 30
0.0
  0
LINE
  5
1B6
  8
OUTLINE
  6
CONTINUOUS
 62
     3
 10
401.5
 20
100.0
 30
0.0
 11
420.0
 21
100.0
 31
0.0
  0
ENDSEC
  0
EOF
