  0
SECTION
  2
HEADER
  9
$ACADVER
  1
AC1009
  9
$INSBASE
 10
0.0
 20
0.0
 30
0.0
  9
$EXTMIN
 10
-1575.009709
 20
-833.697922
 30
0.0
  9
$EXTMAX
 10
1726.787359
 20
899.117912
 30
0.0
  9
$LIMMIN
 10
-3837.000175
 20
-3000.109539
  9
$LIMMAX
 10
7319.256881
 20
4045.223003
  9
$ORTHOMODE
 70
     0
  9
$REGENMODE
 70
     1
  9
$FILLMODE
 70
     1
  9
$QTEXTMODE
 70
     0
  9
$MIRRTEXT
 70
     0
  9
$DRAGMODE
 70
     2
  9
$LTSCALE
 40
20.0
  9
$OSMODE
 70
    39
  9
$ATTMODE
 70
     1
  9
$TEXTSIZE
 40
64.0
  9
$TRACEWID
 40
0.05
  9
$TEXTSTYLE
  7
STANDARD
  9
$CLAYER
  8
OUTLINE
  9
$CELTYPE
  6
CONTINUOUS
  9
$CECOLOR
 62
     7
  9
$DIMSCALE
 40
1.0
  9
$DIMASZ
 40
10.0
  9
$DIMEXO
 40
20.0
  9
$DIMDLI
 40
200.0
  9
$DIMRND
 40
0.0
  9
$DIMDLE
 40
0.0
  9
$DIMEXE
 40
30.0
  9
$DIMTP
 40
0.0
  9
$DIMTM
 40
0.0
  9
$DIMTXT
 40
64.0
  9
$DIMCEN
 40
0.0
  9
$DIMTSZ
 40
0.0
  9
$DIMTOL
 70
     0
  9
$DIMLIM
 70
     0
  9
$DIMTIH
 70
     0
  9
$DIMTOH
 70
     0
  9
$DIMSE1
 70
     0
  9
$DIMSE2
 70
     0
  9
$DIMTAD
 70
     1
  9
$DIMZIN
 70
     8
  9
$DIMBLK
  1

  9
$DIMASO
 70
     1
  9
$DIMSHO
 70
     0
  9
$DIMPOST
  1

  9
$DIMAPOST
  1

  9
$DIMALT
 70
     0
  9
$DIMALTD
 70
     2
  9
$DIMALTF
 40
25.4
  9
$DIMLFAC
 40
1.0
  9
$DIMTOFL
 70
     1
  9
$DIMTVP
 40
0.0
  9
$DIMTIX
 70
     1
  9
$DIMSOXD
 70
     0
  9
$DIMSAH
 70
     1
  9
$DIMBLK1
  1
_DOTBLANK
  9
$DIMBLK2
  1
_DOTBLANK
  9
$DIMSTYLE
  2
STANDARD
  9
$DIMCLRD
 70
     0
  9
$DIMCLRE
 70
     0
  9
$DIMCLRT
 70
     0
  9
$DIMTFAC
 40
1.0
  9
$DIMGAP
 40
0.09
  9
$LUNITS
 70
     2
  9
$LUPREC
 70
     4
  9
$SKETCHINC
 40
0.1
  9
$FILLETRAD
 40
10.0
  9
$AUNITS
 70
     1
  9
$AUPREC
 70
     3
  9
$MENU
  1
ACAD
  9
$ELEVATION
 40
0.0
  9
$PELEVATION
 40
0.0
  9
$THICKNESS
 40
0.0
  9
$LIMCHECK
 70
     0
  9
$BLIPMODE
 70
     0
  9
$CHAMFERA
 40
0.0
  9
$CHAMFERB
 40
0.0
  9
$SKPOLY
 70
     0
  9
$TDCREATE
 40
2450330.439931
  9
$TDUPDATE
 40
2453053.480337
  9
$TDINDWG
 40
1.183345
  9
$TDUSRTIMER
 40
1.183345
  9
$USRTIMER
 70
     1
  9
$ANGBASE
 50
0.0
  9
$ANGDIR
 70
     0
  9
$PDMODE
 70
     3
  9
$PDSIZE
 40
-2.0
  9
$PLINEWID
 40
0.0
  9
$COORDS
 70
     2
  9
$SPLFRAME
 70
     0
  9
$SPLINETYPE
 70
     6
  9
$SPLINESEGS
 70
     8
  9
$ATTDIA
 70
     0
  9
$ATTREQ
 70
     1
  9
$HANDLING
 70
     1
  9
$HANDSEED
  5
1A6
  9
$SURFTAB1
 70
     6
  9
$SURFTAB2
 70
     6
  9
$SURFTYPE
 70
     6
  9
$SURFU
 70
     6
  9
$SURFV
 70
     6
  9
$UCSNAME
  2

  9
$UCSORG
 10
0.0
 20
0.0
 30
0.0
  9
$UCSXDIR
 10
1.0
 20
0.0
 30
0.0
  9
$UCSYDIR
 10
0.0
 20
1.0
 30
0.0
  9
$PUCSNAME
  2

  9
$PUCSORG
 10
0.0
 20
0.0
 30
0.0
  9
$PUCSXDIR
 10
1.0
 20
0.0
 30
0.0
  9
$PUCSYDIR
 10
0.0
 20
1.0
 30
0.0
  9
$USERI1
 70
     0
  9
$USERI2
 70
     0
  9
$USERI3
 70
     0
  9
$USERI4
 70
     0
  9
$USERI5
 70
     0
  9
$USERR1
 40
20.0
  9
$USERR2
 40
0.0
  9
$USERR3
 40
0.0
  9
$USERR4
 40
0.0
  9
$USERR5
 40
0.0
  9
$WORLDVIEW
 70
     1
  9
$SHADEDGE
 70
     3
  9
$SHADEDIF
 70
    70
  9
$TILEMODE
 70
     1
  9
$MAXACTVP
 70
    48
  9
$PLIMCHECK
 70
     0
  9
$PEXTMIN
 10
1.000000E+020
 20
1.000000E+020
 30
1.000000E+020
  9
$PEXTMAX
 10
-1.000000E+020
 20
-1.000000E+020
 30
-1.000000E+020
  9
$PLIMMIN
 10
0.0
 20
0.0
  9
$PLIMMAX
 10
12.0
 20
9.0
  9
$UNITMODE
 70
     0
  9
$VISRETAIN
 70
     1
  9
$PLINEGEN
 70
     0
  9
$PSLTSCALE
 70
     1
  0
ENDSEC
  0
SECTION
  2
TABLES
  0
TABLE
  2
VPORT
 70
     2
  0
VPORT
  2
*ACTIVE
 70
     0
 10
0.0
 20
0.0
 11
1.0
 21
1.0
 12
2631.286083
 22
522.556732
 13
0.0
 23
0.0
 14
50.0
 24
50.0
 15
100.0
 25
100.0
 16
0.0
 26
0.0
 36
1.0
 17
0.0
 27
0.0
 37
0.0
 40
7045.332542
 41
1.83619
 42
50.0
 43
0.0
 44
0.0
 50
0.0
 51
0.0
 71
     0
 72
  1000
 73
     1
 74
     0
 75
     0
 76
     0
 77
     0
 78
     0
  0
ENDTAB
  0
TABLE
  2
LTYPE
 70
     2
  0
LTYPE
  2
CONTINUOUS
 70
     0
  3
実線
 72
    65
 73
     0
 40
0.0
  0
LTYPE
  2
DASHDOT
 70
     0
  3
____ _ ____ _ ____ _ ____ _ ____ _ ____ _ ____
 72
    65
 73
     4
 40
5.5
 49
4.0
 49
-0.6
 49
0.3
 49
-0.6
  0
ENDTAB
  0
TABLE
  2
LAYER
 70
    12
  0
LAYER
  2
0
 70
     0
 62
     7
  6
CONTINUOUS
  0
LAYER
  2
OUTLINE
 70
     0
 62
     3
  6
CONTINUOUS
  0
LAYER
  2
DETAIL
 70
     0
 62
     5
  6
CONTINUOUS
  0
LAYER
  2
BASIS
 70
     0
 62
     6
  6
DASHDOT
  0
LAYER
  2
SIZE
 70
     0
 62
    30
  6
CONTINUOUS
  0
LAYER
  2
NOTE
 70
     0
 62
     4
  6
CONTINUOUS
  0
LAYER
  2
ARRANGE
 70
     0
 62
     1
  6
CONTINUOUS
  0
LAYER
  2
FIX
 70
     0
 62
    11
  6
CONTINUOUS
  0
LAYER
  2
SERVICESPACE
 70
     0
 62
     2
  6
DASHDOT
  0
LAYER
  2
ETC
 70
     0
 62
    61
  6
CONTINUOUS
  0
LAYER
  2
SYMBOLLINE
 70
     0
 62
    15
  6
CONTINUOUS
  0
LAYER
  2
DEFPOINTS
 70
     0
 62
     7
  6
CONTINUOUS
  0
ENDTAB
  0
TABLE
  2
STYLE
 70
     1
  0
STYLE
  2
STANDARD
 70
     0
 40
0.0
 41
0.9
 50
0.0
 71
     0
 42
64.0
  3
SIMPLEX
  4
BIGFONT
  0
ENDTAB
  0
TABLE
  2
VIEW
 70
     1
  0
VIEW
  2
ALL
 70
     0
 40
9000.0
 10
241.506647
 20
0.0
 41
12483.01
 11
0.0
 21
0.0
 31
1.0
 12
0.0
 22
0.0
 32
0.0
 42
50.0
 43
0.0
 44
0.0
 50
0.0
 71
     0
  0
ENDTAB
  0
TABLE
  2
UCS
 70
     0
  0
ENDTAB
  0
TABLE
  2
APPID
 70
     1
  0
APPID
  2
ACAD
 70
     0
  0
ENDTAB
  0
TABLE
  2
DIMSTYLE
 70
     1
  0
DIMSTYLE
  2
STANDARD
 70
     0
  3

  4

  5

  6

  7

 40
1.0
 41
0.18
 42
0.0625
 43
0.38
 44
0.18
 45
0.0
 46
0.0
 47
0.0
 48
0.0
140
0.18
141
0.09
142
0.0
143
25.4
144
1.0
145
0.0
146
1.0
147
0.09
 71
     0
 72
     0
 73
     1
 74
     1
 75
     0
 76
     0
 77
     0
 78
     0
170
     0
171
     2
172
     0
173
     0
174
     0
175
     0
176
     0
177
     0
178
     0
  0
ENDTAB
  0
ENDSEC
  0
SECTION
  2
BLOCKS
  0
BLOCK
  8
0
  2
$MODEL_SPACE
 70
     0
 10
0.0
 20
0.0
 30
0.0
  3
$MODEL_SPACE
  1

  0
ENDBLK
  5
18A
  8
0
  0
BLOCK
 67
     1
  8
0
  2
$PAPER_SPACE
 70
     0
 10
0.0
 20
0.0
 30
0.0
  3
$PAPER_SPACE
  1

  0
ENDBLK
  5
187
 67
     1
  8
0
  0
BLOCK
  8
0
  2
_DOTBLANK
 70
     0
 10
0.0
 20
0.0
 30
0.0
  3
_DOTBLANK
  1

  0
CIRCLE
  5
30
  8
0
  6
CONTINUOUS
 62
     7
 10
0.0
 20
0.0
 30
0.0
 40
0.5
  0
LINE
  5
31
  8
0
  6
CONTINUOUS
 62
     7
 10
-0.5
 20
0.0
 30
0.0
 11
-1.0
 21
0.0
 31
0.0
  0
ENDBLK
  5
32
  8
0
  0
ENDSEC
  0
SECTION
  2
ENTITIES
  0
TEXT
  5
33
  8
SIZE
  6
CONTINUOUS
 62
    30
 10
1244.710999
 20
-558.042858
 30
0.0
 40
64.0
  1
16
 50
90.0
 41
0.9
 72
     1
 11
1244.710999
 21
-518.271429
 31
0.0
  0
LINE
  5
34
  8
SIZE
  6
CONTINUOUS
 62
    30
 10
1264.710999
 20
-438.5
 30
0.0
 11
1264.710999
 21
-448.5
 31
0.0
  0
CIRCLE
  5
35
  8
SIZE
  6
CONTINUOUS
 62
    30
 10
1264.710999
 20
-438.5
 30
0.0
 40
5.0
  0
LINE
  5
36
  8
SIZE
  6
CONTINUOUS
 62
    30
 10
1264.710999
 20
-422.5
 30
0.0
 11
1264.710999
 21
-412.5
 31
0.0
  0
CIRCLE
  5
37
  8
SIZE
  6
CONTINUOUS
 62
    30
 10
1264.710999
 20
-422.5
 30
0.0
 40
5.0
  0
LINE
  5
38
  8
SIZE
  6
CONTINUOUS
 62
    30
 10
1264.710999
 20
-422.5
 30
0.0
 11
1264.710999
 21
-438.5
 31
0.0
  0
LINE
  5
39
  8
SIZE
  6
CONTINUOUS
 62
    30
 10
1264.710999
 20
-448.5
 30
0.0
 11
1264.710999
 21
-578.042857
 31
0.0
  0
LINE
  5
3A
  8
SIZE
  6
CONTINUOUS
 62
    30
 10
1264.710999
 20
-412.5
 30
0.0
 11
1264.710999
 21
-402.5
 31
0.0
  0
LINE
  5
3B
  8
SIZE
  6
CONTINUOUS
 62
    30
 10
510.0
 20
-438.5
 30
0.0
 11
1294.710999
 21
-438.5
 31
0.0
  0
LINE
  5
3C
  8
SIZE
  6
CONTINUOUS
 62
    30
 10
510.0
 20
-422.5
 30
0.0
 11
1294.710999
 21
-422.5
 31
0.0
  0
TEXT
  5
3D
  8
SIZE
  6
CONTINUOUS
 62
    30
 10
1244.358723
 20
478.5
 30
0.0
 40
64.0
  1
16
 50
90.0
 41
0.9
 72
     1
 11
1244.358723
 21
518.271429
 31
0.0
  0
LINE
  5
3E
  8
SIZE
  6
CONTINUOUS
 62
    30
 10
1264.358723
 20
438.5
 30
0.0
 11
1264.358723
 21
448.5
 31
0.0
  0
CIRCLE
  5
3F
  8
SIZE
  6
CONTINUOUS
 62
    30
 10
1264.358723
 20
438.5
 30
0.0
 40
5.0
  0
LINE
  5
40
  8
SIZE
  6
CONTINUOUS
 62
    30
 10
1264.358723
 20
422.5
 30
0.0
 11
1264.358723
 21
412.5
 31
0.0
  0
CIRCLE
  5
41
  8
SIZE
  6
CONTINUOUS
 62
    30
 10
1264.358723
 20
422.5
 30
0.0
 40
5.0
  0
LINE
  5
42
  8
SIZE
  6
CONTINUOUS
 62
    30
 10
1264.358723
 20
422.5
 30
0.0
 11
1264.358723
 21
438.5
 31
0.0
  0
LINE
  5
43
  8
SIZE
  6
CONTINUOUS
 62
    30
 10
1264.358723
 20
448.5
 30
0.0
 11
1264.358723
 21
578.042857
 31
0.0
  0
LINE
  5
44
  8
SIZE
  6
CONTINUOUS
 62
    30
 10
1264.358723
 20
412.5
 30
0.0
 11
1264.358723
 21
402.5
 31
0.0
  0
LINE
  5
45
  8
SIZE
  6
CONTINUOUS
 62
    30
 10
510.0
 20
438.5
 30
0.0
 11
1294.358723
 21
438.5
 31
0.0
  0
LINE
  5
46
  8
SIZE
  6
CONTINUOUS
 62
    30
 10
490.0
 20
422.5
 30
0.0
 11
1294.358723
 21
422.5
 31
0.0
  0
TEXT
  5
47
  8
SIZE
  6
CONTINUOUS
 62
    30
 10
-592.854517
 20
-388.128571
 30
0.0
 40
64.0
  1
80
 50
90.0
 41
0.9
 72
     1
 11
-592.854517
 21
-341.5
 31
0.0
  0
LINE
  5
48
  8
SIZE
  6
CONTINUOUS
 62
    30
 10
-572.854517
 20
-301.5
 30
0.0
 11
-572.854517
 21
-291.5
 31
0.0
  0
CIRCLE
  5
49
  8
SIZE
  6
CONTINUOUS
 62
    30
 10
-572.854517
 20
-301.5
 30
0.0
 40
5.0
  0
LINE
  5
4A
  8
SIZE
  6
CONTINUOUS
 62
    30
 10
-572.854517
 20
-381.5
 30
0.0
 11
-572.854517
 21
-391.5
 31
0.0
  0
CIRCLE
  5
4B
  8
SIZE
  6
CONTINUOUS
 62
    30
 10
-572.854517
 20
-381.5
 30
0.0
 40
5.0
  0
LINE
  5
4C
  8
SIZE
  6
CONTINUOUS
 62
    30
 10
-572.854517
 20
-381.5
 30
0.0
 11
-572.854517
 21
-301.5
 31
0.0
  0
LINE
  5
4D
  8
SIZE
  6
CONTINUOUS
 62
    30
 10
-572.854517
 20
-291.5
 30
0.0
 11
-572.854517
 21
-281.5
 31
0.0
  0
LINE
  5
4E
  8
SIZE
  6
CONTINUOUS
 62
    30
 10
-572.854517
 20
-391.5
 30
0.0
 11
-572.854517
 21
-401.5
 31
0.0
  0
LINE
  5
4F
  8
SIZE
  6
CONTINUOUS
 62
    30
 10
-440.0
 20
-301.5
 30
0.0
 11
-602.854517
 21
-301.5
 31
0.0
  0
LINE
  5
50
  8
SIZE
  6
CONTINUOUS
 62
    30
 10
-440.0
 20
-381.5
 30
0.0
 11
-602.854517
 21
-381.5
 31
0.0
  0
TEXT
  5
51
  8
SIZE
  6
CONTINUOUS
 62
    30
 10
-592.882144
 20
-581.240624
 30
0.0
 40
64.0
  1
57
 50
90.0
 41
0.9
 72
     1
 11
-592.882144
 21
-534.612053
 31
0.0
  0
LINE
  5
52
  8
SIZE
  6
CONTINUOUS
 62
    30
 10
-572.882144
 20
-438.5
 30
0.0
 11
-572.882144
 21
-448.5
 31
0.0
  0
CIRCLE
  5
53
  8
SIZE
  6
CONTINUOUS
 62
    30
 10
-572.882144
 20
-438.5
 30
0.0
 40
5.0
  0
LINE
  5
54
  8
SIZE
  6
CONTINUOUS
 62
    30
 10
-572.882144
 20
-381.5
 30
0.0
 11
-572.882144
 21
-371.5
 31
0.0
  0
CIRCLE
  5
55
  8
SIZE
  6
CONTINUOUS
 62
    30
 10
-572.882144
 20
-381.5
 30
0.0
 40
5.0
  0
LINE
  5
56
  8
SIZE
  6
CONTINUOUS
 62
    30
 10
-572.882144
 20
-381.5
 30
0.0
 11
-572.882144
 21
-438.5
 31
0.0
  0
LINE
  5
57
  8
SIZE
  6
CONTINUOUS
 62
    30
 10
-572.882144
 20
-448.5
 30
0.0
 11
-572.882144
 21
-601.240625
 31
0.0
  0
LINE
  5
58
  8
SIZE
  6
CONTINUOUS
 62
    30
 10
-572.882144
 20
-371.5
 30
0.0
 11
-572.882144
 21
-361.5
 31
0.0
  0
LINE
  5
59
  8
SIZE
  6
CONTINUOUS
 62
    30
 10
-440.0
 20
-381.5
 30
0.0
 11
-602.882144
 21
-381.5
 31
0.0
  0
LINE
  5
5A
  8
SIZE
  6
CONTINUOUS
 62
    30
 10
-490.0
 20
-438.5
 30
0.0
 11
-602.882144
 21
-438.5
 31
0.0
  0
TEXT
  5
5B
  8
SIZE
  6
CONTINUOUS
 62
    30
 10
-418.571429
 20
-72.884697
 30
0.0
 40
64.0
  1
160
 41
0.9
 72
     1
 11
-350.0
 21
-72.884697
 31
0.0
  0
LINE
  5
5C
  8
SIZE
  6
CONTINUOUS
 62
    30
 10
-270.0
 20
-92.884697
 30
0.0
 11
-260.0
 21
-92.884697
 31
0.0
  0
CIRCLE
  5
5D
  8
SIZE
  6
CONTINUOUS
 62
    30
 10
-270.0
 20
-92.884697
 30
0.0
 40
5.0
  0
LINE
  5
5E
  8
SIZE
  6
CONTINUOUS
 62
    30
 10
-430.0
 20
-92.884697
 30
0.0
 11
-440.0
 21
-92.884697
 31
0.0
  0
CIRCLE
  5
5F
  8
SIZE
  6
CONTINUOUS
 62
    30
 10
-430.0
 20
-92.884697
 30
0.0
 40
5.0
  0
LINE
  5
60
  8
SIZE
  6
CONTINUOUS
 62
    30
 10
-430.0
 20
-92.884697
 30
0.0
 11
-270.0
 21
-92.884697
 31
0.0
  0
LINE
  5
61
  8
SIZE
  6
CONTINUOUS
 62
    30
 10
-260.0
 20
-92.884697
 30
0.0
 11
-250.0
 21
-92.884697
 31
0.0
  0
LINE
  5
62
  8
SIZE
  6
CONTINUOUS
 62
    30
 10
-440.0
 20
-92.884697
 30
0.0
 11
-450.0
 21
-92.884697
 31
0.0
  0
LINE
  5
63
  8
SIZE
  6
CONTINUOUS
 62
    30
 10
-270.0
 20
-291.5
 30
0.0
 11
-270.0
 21
-62.884697
 31
0.0
  0
LINE
  5
64
  8
SIZE
  6
CONTINUOUS
 62
    30
 10
-430.0
 20
-291.5
 30
0.0
 11
-430.0
 21
-62.884697
 31
0.0
  0
TEXT
  5
65
  8
SIZE
  6
CONTINUOUS
 62
    30
 10
-509.128571
 20
-72.884697
 30
0.0
 40
64.0
  1
65
 41
0.9
 72
     1
 11
-462.5
 21
-72.884697
 31
0.0
  0
LINE
  5
66
  8
SIZE
  6
CONTINUOUS
 62
    30
 10
-430.0
 20
-92.884697
 30
0.0
 11
-420.0
 21
-92.884697
 31
0.0
  0
CIRCLE
  5
67
  8
SIZE
  6
CONTINUOUS
 62
    30
 10
-430.0
 20
-92.884697
 30
0.0
 40
5.0
  0
LINE
  5
68
  8
SIZE
  6
CONTINUOUS
 62
    30
 10
-495.0
 20
-92.884697
 30
0.0
 11
-505.0
 21
-92.884697
 31
0.0
  0
CIRCLE
  5
69
  8
SIZE
  6
CONTINUOUS
 62
    30
 10
-495.0
 20
-92.884697
 30
0.0
 40
5.0
  0
LINE
  5
6A
  8
SIZE
  6
CONTINUOUS
 62
    30
 10
-495.0
 20
-92.884697
 30
0.0
 11
-430.0
 21
-92.884697
 31
0.0
  0
LINE
  5
6B
  8
SIZE
  6
CONTINUOUS
 62
    30
 10
-420.0
 20
-92.884697
 30
0.0
 11
-410.0
 21
-92.884697
 31
0.0
  0
LINE
  5
6C
  8
SIZE
  6
CONTINUOUS
 62
    30
 10
-505.0
 20
-92.884697
 30
0.0
 11
-515.0
 21
-92.884697
 31
0.0
  0
LINE
  5
6D
  8
SIZE
  6
CONTINUOUS
 62
    30
 10
-430.0
 20
-291.5
 30
0.0
 11
-430.0
 21
-62.884697
 31
0.0
  0
LINE
  5
6E
  8
SIZE
  6
CONTINUOUS
 62
    30
 10
-495.0
 20
-400.0
 30
0.0
 11
-495.0
 21
-62.884697
 31
0.0
  0
POLYLINE
  5
6F
  8
DETAIL
  6
CONTINUOUS
 62
     5
 66
     1
 10
0.0
 20
0.0
 30
0.0
 70
     1
  0
VERTEX
  5
70
  8
DETAIL
  6
CONTINUOUS
 62
     5
 10
-430.0
 20
-311.5
 30
0.0
 42
-0.414214
  0
VERTEX
  5
71
  8
DETAIL
  6
CONTINUOUS
 62
     5
 10
-420.0
 20
-301.5
 30
0.0
  0
VERTEX
  5
72
  8
DETAIL
  6
CONTINUOUS
 62
     5
 10
-280.0
 20
-301.5
 30
0.0
 42
-0.414214
  0
VERTEX
  5
73
  8
DETAIL
  6
CONTINUOUS
 62
     5
 10
-270.0
 20
-311.5
 30
0.0
  0
VERTEX
  5
74
  8
DETAIL
  6
CONTINUOUS
 62
     5
 10
-270.0
 20
-371.5
 30
0.0
 42
-0.414214
  0
VERTEX
  5
75
  8
DETAIL
  6
CONTINUOUS
 62
     5
 10
-280.0
 20
-381.5
 30
0.0
  0
VERTEX
  5
76
  8
DETAIL
  6
CONTINUOUS
 62
     5
 10
-420.0
 20
-381.5
 30
0.0
 42
-0.414214
  0
VERTEX
  5
77
  8
DETAIL
  6
CONTINUOUS
 62
     5
 10
-430.0
 20
-371.5
 30
0.0
  0
SEQEND
  5
78
  8
DETAIL
  6
CONTINUOUS
 62
     5
  0
CIRCLE
  5
79
  8
DETAIL
  6
CONTINUOUS
 62
     5
 10
353.0
 20
-348.5
 30
0.0
 40
13.5
  0
CIRCLE
  5
7A
  8
DETAIL
  6
CONTINUOUS
 62
     5
 10
273.0
 20
-368.5
 30
0.0
 40
31.0
  0
LINE
  5
7B
  8
DETAIL
  6
CONTINUOUS
 62
     5
 10
457.0
 20
425.5
 30
0.0
 11
457.0
 21
419.5
 31
0.0
  0
LINE
  5
7C
  8
OUTLINE
  6
CONTINUOUS
 62
     3
 10
470.0
 20
438.5
 30
0.0
 11
470.0
 21
420.0
 31
0.0
  0
LINE
  5
7D
  8
DETAIL
  6
CONTINUOUS
 62
     5
 10
470.0
 20
438.5
 30
0.0
 11
470.0
 21
420.0
 31
0.0
  0
LINE
  5
7E
  8
NOTE
  6
CONTINUOUS
 62
     4
 10
450.0
 20
442.5
 30
0.0
 11
450.0
 21
402.5
 31
0.0
  0
TEXT
  5
7F
  8
SIZE
  6
CONTINUOUS
 62
    30
 10
-38.674297
 20
676.997023
 30
0.0
 40
64.0
  1
（据付ピッチ）
 41
0.9
  0
LINE
  5
80
  8
DETAIL
  6
CONTINUOUS
 62
     5
 10
443.0
 20
419.5
 30
0.0
 11
443.0
 21
425.5
 31
0.0
  0
LINE
  5
81
  8
NOTE
  6
CONTINUOUS
 62
     4
 10
-470.0
 20
422.5
 30
0.0
 11
-430.0
 21
422.5
 31
0.0
  0
LINE
  5
82
  8
DETAIL
  6
CONTINUOUS
 62
     5
 10
-457.0
 20
425.5
 30
0.0
 11
-457.0
 21
419.5
 31
0.0
  0
LINE
  5
83
  8
DETAIL
  6
CONTINUOUS
 62
     5
 10
-443.0
 20
419.5
 30
0.0
 11
-443.0
 21
425.5
 31
0.0
  0
ARC
  5
84
  8
DETAIL
  6
CONTINUOUS
 62
     5
 10
-450.0
 20
423.0
 30
0.0
 40
7.0
 50
0.0
 51
180.0
  0
LINE
  5
85
  8
DETAIL
  6
CONTINUOUS
 62
     5
 10
-470.0
 20
438.5
 30
0.0
 11
-470.0
 21
420.0
 31
0.0
  0
LINE
  5
86
  8
OUTLINE
  6
CONTINUOUS
 62
     3
 10
-470.0
 20
438.5
 30
0.0
 11
-470.0
 21
420.0
 31
0.0
  0
LINE
  5
87
  8
DETAIL
  6
CONTINUOUS
 62
     5
 10
-470.0
 20
438.5
 30
0.0
 11
-470.0
 21
420.0
 31
0.0
  0
POLYLINE
  5
88
  8
NOTE
  6
CONTINUOUS
 62
     4
 66
     1
 10
0.0
 20
0.0
 30
0.0
  0
VERTEX
  5
89
  8
NOTE
  6
CONTINUOUS
 62
     4
 10
-466.726616
 20
457.892197
 30
0.0
  0
VERTEX
  5
8A
  8
NOTE
  6
CONTINUOUS
 62
     4
 10
-450.0
 20
421.557361
 30
0.0
  0
VERTEX
  5
8B
  8
NOTE
  6
CONTINUOUS
 62
     4
 10
-482.653092
 20
444.660944
 30
0.0
  0
SEQEND
  5
8C
  8
NOTE
  6
CONTINUOUS
 62
     4
  0
CIRCLE
  5
8D
  8
FIX
  6
CONTINUOUS
 62
    11
 10
-450.0
 20
422.5
 30
0.0
 40
20.0
  0
LINE
  5
8E
  8
NOTE
  6
CONTINUOUS
 62
     4
 10
-450.0
 20
442.5
 30
0.0
 11
-450.0
 21
402.5
 31
0.0
  0
ARC
  5
8F
  8
DETAIL
  6
CONTINUOUS
 62
     5
 10
-450.0
 20
419.5
 30
0.0
 40
7.0
 50
180.0
 51
0.0
  0
TEXT
  5
90
  8
SIZE
  6
CONTINUOUS
 62
    30
 10
-628.257142
 20
684.155179
 30
0.0
 40
64.0
  1
45
 41
0.9
 72
     1
 11
-581.628571
 21
684.155179
 31
0.0
  0
LINE
  5
91
  8
SIZE
  6
CONTINUOUS
 62
    30
 10
-495.0
 20
664.155179
 30
0.0
 11
-505.0
 21
664.155179
 31
0.0
  0
CIRCLE
  5
92
  8
SIZE
  6
CONTINUOUS
 62
    30
 10
-495.0
 20
664.155179
 30
0.0
 40
5.0
  0
LINE
  5
93
  8
SIZE
  6
CONTINUOUS
 62
    30
 10
-450.0
 20
664.155179
 30
0.0
 11
-440.0
 21
664.155179
 31
0.0
  0
CIRCLE
  5
94
  8
SIZE
  6
CONTINUOUS
 62
    30
 10
-450.0
 20
664.155179
 30
0.0
 40
5.0
  0
LINE
  5
95
  8
SIZE
  6
CONTINUOUS
 62
    30
 10
-450.0
 20
664.155179
 30
0.0
 11
-495.0
 21
664.155179
 31
0.0
  0
LINE
  5
96
  8
SIZE
  6
CONTINUOUS
 62
    30
 10
-505.0
 20
664.155179
 30
0.0
 11
-648.257143
 21
664.155179
 31
0.0
  0
LINE
  5
97
  8
SIZE
  6
CONTINUOUS
 62
    30
 10
-440.0
 20
664.155179
 30
0.0
 11
-430.0
 21
664.155179
 31
0.0
  0
LINE
  5
98
  8
SIZE
  6
CONTINUOUS
 62
    30
 10
-450.0
 20
462.5
 30
0.0
 11
-450.0
 21
694.155179
 31
0.0
  0
LINE
  5
99
  8
SIZE
  6
CONTINUOUS
 62
    30
 10
-495.0
 20
440.0
 30
0.0
 11
-495.0
 21
694.155179
 31
0.0
  0
LINE
  5
9A
  8
NOTE
  6
CONTINUOUS
 62
     4
 10
470.0
 20
422.5
 30
0.0
 11
430.0
 21
422.5
 31
0.0
  0
CIRCLE
  5
9B
  8
FIX
  6
CONTINUOUS
 62
    11
 10
450.0
 20
422.5
 30
0.0
 40
20.0
  0
ARC
  5
9C
  8
DETAIL
  6
CONTINUOUS
 62
     5
 10
450.0
 20
425.5
 30
0.0
 40
7.0
 50
0.0
 51
180.0
  0
ARC
  5
9D
  8
DETAIL
  6
CONTINUOUS
 62
     5
 10
450.0
 20
419.5
 30
0.0
 40
7.0
 50
180.0
 51
0.0
  0
LINE
  5
9E
  8
OUTLINE
  6
CONTINUOUS
 62
     3
 10
470.0
 20
438.5
 30
0.0
 11
-470.0
 21
438.5
 31
0.0
  0
LINE
  5
9F
  8
DETAIL
  6
CONTINUOUS
 62
     5
 10
470.0
 20
438.5
 30
0.0
 11
-470.0
 21
438.5
 31
0.0
  0
LINE
  5
A0
  8
DETAIL
  6
CONTINUOUS
 62
     5
 10
495.0
 20
420.0
 30
0.0
 11
-495.0
 21
420.0
 31
0.0
  0
LINE
  5
A1
  8
OUTLINE
  6
CONTINUOUS
 62
     3
 10
495.0
 20
420.0
 30
0.0
 11
-495.0
 21
420.0
 31
0.0
  0
LINE
  5
A2
  8
SIZE
  6
CONTINUOUS
 62
    30
 10
495.0
 20
664.11997
 30
0.0
 11
505.0
 21
664.11997
 31
0.0
  0
CIRCLE
  5
A3
  8
SIZE
  6
CONTINUOUS
 62
    30
 10
495.0
 20
664.11997
 30
0.0
 40
5.0
  0
LINE
  5
A4
  8
SIZE
  6
CONTINUOUS
 62
    30
 10
450.0
 20
664.11997
 30
0.0
 11
440.0
 21
664.11997
 31
0.0
  0
CIRCLE
  5
A5
  8
SIZE
  6
CONTINUOUS
 62
    30
 10
450.0
 20
664.11997
 30
0.0
 40
5.0
  0
LINE
  5
A6
  8
SIZE
  6
CONTINUOUS
 62
    30
 10
450.0
 20
664.11997
 30
0.0
 11
495.0
 21
664.11997
 31
0.0
  0
LINE
  5
A7
  8
SIZE
  6
CONTINUOUS
 62
    30
 10
450.0
 20
664.11997
 30
0.0
 11
495.0
 21
664.11997
 31
0.0
  0
TEXT
  5
A8
  8
SIZE
  6
CONTINUOUS
 62
    30
 10
539.058325
 20
684.11997
 30
0.0
 40
64.0
  1
45
 41
0.9
 72
     1
 11
585.686896
 21
684.11997
 31
0.0
  0
LINE
  5
A9
  8
SIZE
  6
CONTINUOUS
 62
    30
 10
652.315467
 20
664.11997
 30
0.0
 11
495.0
 21
664.11997
 31
0.0
  0
LINE
  5
AA
  8
SIZE
  6
CONTINUOUS
 62
    30
 10
505.0
 20
664.11997
 30
0.0
 11
515.0
 21
664.11997
 31
0.0
  0
LINE
  5
AB
  8
SIZE
  6
CONTINUOUS
 62
    30
 10
440.0
 20
664.11997
 30
0.0
 11
430.0
 21
664.11997
 31
0.0
  0
LINE
  5
AC
  8
SIZE
  6
CONTINUOUS
 62
    30
 10
495.0
 20
440.0
 30
0.0
 11
495.0
 21
694.11997
 31
0.0
  0
LINE
  5
AD
  8
SIZE
  6
CONTINUOUS
 62
    30
 10
450.0
 20
462.5
 30
0.0
 11
450.0
 21
694.11997
 31
0.0
  0
LINE
  5
AE
  8
SIZE
  6
CONTINUOUS
 62
    30
 10
450.0
 20
664.11997
 30
0.0
 11
440.0
 21
664.11997
 31
0.0
  0
CIRCLE
  5
AF
  8
SIZE
  6
CONTINUOUS
 62
    30
 10
450.0
 20
664.11997
 30
0.0
 40
5.0
  0
LINE
  5
B0
  8
SIZE
  6
CONTINUOUS
 62
    30
 10
-450.0
 20
664.11997
 30
0.0
 11
-440.0
 21
664.11997
 31
0.0
  0
CIRCLE
  5
B1
  8
SIZE
  6
CONTINUOUS
 62
    30
 10
-450.0
 20
664.11997
 30
0.0
 40
5.0
  0
TEXT
  5
B2
  8
SIZE
  6
CONTINUOUS
 62
    30
 10
-235.718786
 20
672.803424
 30
0.0
 40
64.0
  1
900
 41
0.9
 72
     1
 11
-161.661643
 21
672.803424
 31
0.0
  0
LINE
  5
B3
  8
SIZE
  6
CONTINUOUS
 62
    30
 10
-440.0
 20
664.11997
 30
0.0
 11
440.0
 21
664.11997
 31
0.0
  0
LINE
  5
B4
  8
SIZE
  6
CONTINUOUS
 62
    30
 10
450.0
 20
462.5
 30
0.0
 11
450.0
 21
694.11997
 31
0.0
  0
LINE
  5
B5
  8
SIZE
  6
CONTINUOUS
 62
    30
 10
-450.0
 20
462.5
 30
0.0
 11
-450.0
 21
694.11997
 31
0.0
  0
TEXT
  5
B6
  8
SIZE
  6
CONTINUOUS
 62
    30
 10
-48.018691
 20
835.117912
 30
0.0
 40
64.0
  1
990
 41
0.9
 72
     1
 11
26.038452
 21
835.117912
 31
0.0
  0
LINE
  5
B7
  8
SIZE
  6
CONTINUOUS
 62
    30
 10
495.0
 20
815.117912
 30
0.0
 11
485.0
 21
815.117912
 31
0.0
  0
CIRCLE
  5
B8
  8
SIZE
  6
CONTINUOUS
 62
    30
 10
495.0
 20
815.117912
 30
0.0
 40
5.0
  0
LINE
  5
B9
  8
SIZE
  6
CONTINUOUS
 62
    30
 10
-495.0
 20
815.117912
 30
0.0
 11
-485.0
 21
815.117912
 31
0.0
  0
CIRCLE
  5
BA
  8
SIZE
  6
CONTINUOUS
 62
    30
 10
-495.0
 20
815.117912
 30
0.0
 40
5.0
  0
LINE
  5
BB
  8
SIZE
  6
CONTINUOUS
 62
    30
 10
-485.0
 20
815.117912
 30
0.0
 11
485.0
 21
815.117912
 31
0.0
  0
LINE
  5
BC
  8
SIZE
  6
CONTINUOUS
 62
    30
 10
495.0
 20
440.0
 30
0.0
 11
495.0
 21
845.117912
 31
0.0
  0
LINE
  5
BD
  8
SIZE
  6
CONTINUOUS
 62
    30
 10
-495.0
 20
440.0
 30
0.0
 11
-495.0
 21
845.117912
 31
0.0
  0
LINE
  5
BE
  8
NOTE
  6
CONTINUOUS
 62
     4
 10
901.176642
 20
-116.208598
 30
0.0
 11
609.823502
 21
-116.208598
 31
0.0
  0
TEXT
  5
BF
  8
NOTE
  6
CONTINUOUS
 62
     4
 10
626.424522
 20
-193.937083
 30
0.0
 40
64.0
  1
CL%%c27
 41
0.9
  0
LINE
  5
C0
  8
NOTE
  6
CONTINUOUS
 62
     4
 10
905.331573
 20
-203.027305
 30
0.0
 11
583.504291
 21
-203.027305
 31
0.0
  0
TEXT
  5
C1
  8
NOTE
  6
CONTINUOUS
 62
     4
 10
627.561491
 20
-90.746679
 30
0.0
 40
64.0
  1
EL %%c62
 41
0.9
  0
LINE
  5
C2
  8
NOTE
  6
CONTINUOUS
 62
     4
 10
450.0
 20
-442.5
 30
0.0
 11
450.0
 21
-402.5
 31
0.0
  0
LINE
  5
C3
  8
DETAIL
  6
CONTINUOUS
 62
     5
 10
457.0
 20
-425.5
 30
0.0
 11
457.0
 21
-419.5
 31
0.0
  0
LINE
  5
C4
  8
OUTLINE
  6
CONTINUOUS
 62
     3
 10
470.0
 20
-420.0
 30
0.0
 11
470.0
 21
-438.5
 31
0.0
  0
LINE
  5
C5
  8
DETAIL
  6
CONTINUOUS
 62
     5
 10
470.0
 20
-420.0
 30
0.0
 11
470.0
 21
-438.5
 31
0.0
  0
LINE
  5
C6
  8
NOTE
  6
CONTINUOUS
 62
     4
 10
353.0
 20
-368.5
 30
0.0
 11
353.0
 21
-328.5
 31
0.0
  0
LINE
  5
C7
  8
NOTE
  6
CONTINUOUS
 62
     4
 10
333.0
 20
-348.5
 30
0.0
 11
373.0
 21
-348.5
 31
0.0
  0
POLYLINE
  5
C8
  8
NOTE
  6
CONTINUOUS
 62
     4
 66
     1
 10
0.0
 20
0.0
 30
0.0
  0
VERTEX
  5
C9
  8
NOTE
  6
CONTINUOUS
 62
     4
 10
385.046301
 20
-311.213474
 30
0.0
  0
VERTEX
  5
CA
  8
NOTE
  6
CONTINUOUS
 62
     4
 10
353.0
 20
-348.5
 30
0.0
  0
VERTEX
  5
CB
  8
NOTE
  6
CONTINUOUS
 62
     4
 10
398.693424
 20
-333.943946
 30
0.0
  0
SEQEND
  5
CC
  8
NOTE
  6
CONTINUOUS
 62
     4
  0
LINE
  5
CD
  8
NOTE
  6
CONTINUOUS
 62
     4
 10
273.0
 20
-388.5
 30
0.0
 11
273.0
 21
-348.5
 31
0.0
  0
LINE
  5
CE
  8
NOTE
  6
CONTINUOUS
 62
     4
 10
253.0
 20
-368.5
 30
0.0
 11
293.0
 21
-368.5
 31
0.0
  0
POLYLINE
  5
CF
  8
NOTE
  6
CONTINUOUS
 62
     4
 66
     1
 10
0.0
 20
0.0
 30
0.0
  0
VERTEX
  5
D0
  8
NOTE
  6
CONTINUOUS
 62
     4
 10
300.585992
 20
-328.892727
 30
0.0
  0
VERTEX
  5
D1
  8
NOTE
  6
CONTINUOUS
 62
     4
 10
273.0
 20
-368.5
 30
0.0
  0
VERTEX
  5
D2
  8
NOTE
  6
CONTINUOUS
 62
     4
 10
319.287586
 20
-354.653926
 30
0.0
  0
SEQEND
  5
D3
  8
NOTE
  6
CONTINUOUS
 62
     4
  0
LINE
  5
D4
  8
NOTE
  6
CONTINUOUS
 62
     4
 10
-395.0
 20
-323.5
 30
0.0
 11
-395.0
 21
-283.5
 31
0.0
  0
LINE
  5
D5
  8
NOTE
  6
CONTINUOUS
 62
     4
 10
-332.0
 20
-318.5
 30
0.0
 11
-292.0
 21
-318.5
 31
0.0
  0
LINE
  5
D6
  8
NOTE
  6
CONTINUOUS
 62
     4
 10
-312.0
 20
-338.5
 30
0.0
 11
-312.0
 21
-298.5
 31
0.0
  0
POLYLINE
  5
D7
  8
NOTE
  6
CONTINUOUS
 62
     4
 66
     1
 10
0.0
 20
0.0
 30
0.0
  0
VERTEX
  5
D8
  8
NOTE
  6
CONTINUOUS
 62
     4
 10
-347.055124
 20
-299.235051
 30
0.0
  0
VERTEX
  5
D9
  8
NOTE
  6
CONTINUOUS
 62
     4
 10
-312.0
 20
-318.5
 30
0.0
  0
VERTEX
  5
DA
  8
NOTE
  6
CONTINUOUS
 62
     4
 10
-332.726153
 20
-284.288502
 30
0.0
  0
SEQEND
  5
DB
  8
NOTE
  6
CONTINUOUS
 62
     4
  0
LINE
  5
DC
  8
NOTE
  6
CONTINUOUS
 62
     4
 10
-526.562877
 20
-217.116339
 30
0.0
 11
-395.0
 21
-303.5
 31
0.0
  0
POLYLINE
  5
DD
  8
NOTE
  6
CONTINUOUS
 62
     4
 66
     1
 10
0.0
 20
0.0
 30
0.0
  0
VERTEX
  5
DE
  8
NOTE
  6
CONTINUOUS
 62
     4
 10
-433.266894
 20
-291.853334
 30
0.0
  0
VERTEX
  5
DF
  8
NOTE
  6
CONTINUOUS
 62
     4
 10
-395.0
 20
-303.5
 30
0.0
  0
VERTEX
  5
E0
  8
NOTE
  6
CONTINUOUS
 62
     4
 10
-422.31677
 20
-274.280245
 30
0.0
  0
SEQEND
  5
E1
  8
NOTE
  6
CONTINUOUS
 62
     4
  0
LINE
  5
E2
  8
NOTE
  6
CONTINUOUS
 62
     4
 10
-415.0
 20
-303.5
 30
0.0
 11
-375.0
 21
-303.5
 31
0.0
  0
LINE
  5
E3
  8
NOTE
  6
CONTINUOUS
 62
     4
 10
-312.0
 20
-318.5
 30
0.0
 11
-569.563706
 21
-59.639302
 31
0.0
  0
LINE
  5
E4
  8
DETAIL
  6
CONTINUOUS
 62
     5
 10
443.0
 20
-419.5
 30
0.0
 11
443.0
 21
-425.5
 31
0.0
  0
CIRCLE
  5
E5
  8
FIX
  6
CONTINUOUS
 62
    11
 10
-450.0
 20
-422.5
 30
0.0
 40
20.0
  0
LINE
  5
E6
  8
NOTE
  6
CONTINUOUS
 62
     4
 10
-450.0
 20
-442.5
 30
0.0
 11
-450.0
 21
-402.5
 31
0.0
  0
LINE
  5
E7
  8
NOTE
  6
CONTINUOUS
 62
     4
 10
-470.0
 20
-422.5
 30
0.0
 11
-430.0
 21
-422.5
 31
0.0
  0
ARC
  5
E8
  8
DETAIL
  6
CONTINUOUS
 62
     5
 10
-450.0
 20
-425.5
 30
0.0
 40
7.0
 50
180.0
 51
0.0
  0
LINE
  5
E9
  8
DETAIL
  6
CONTINUOUS
 62
     5
 10
-443.0
 20
-419.5
 30
0.0
 11
-443.0
 21
-425.5
 31
0.0
  0
LINE
  5
EA
  8
DETAIL
  6
CONTINUOUS
 62
     5
 10
-457.0
 20
-425.5
 30
0.0
 11
-457.0
 21
-419.5
 31
0.0
  0
ARC
  5
EB
  8
DETAIL
  6
CONTINUOUS
 62
     5
 10
-450.0
 20
-419.5
 30
0.0
 40
7.0
 50
0.0
 51
180.0
  0
LINE
  5
EC
  8
OUTLINE
  6
CONTINUOUS
 62
     3
 10
-470.0
 20
-420.0
 30
0.0
 11
-470.0
 21
-438.5
 31
0.0
  0
LINE
  5
ED
  8
DETAIL
  6
CONTINUOUS
 62
     5
 10
-470.0
 20
-420.0
 30
0.0
 11
-470.0
 21
-438.5
 31
0.0
  0
TEXT
  5
EE
  8
SIZE
  6
CONTINUOUS
 62
    30
 10
-513.571429
 20
-616.121641
 30
0.0
 40
64.0
  1
100
 41
0.9
 72
     1
 11
-445.0
 21
-616.121641
 31
0.0
  0
LINE
  5
EF
  8
SIZE
  6
CONTINUOUS
 62
    30
 10
-395.0
 20
-636.121641
 30
0.0
 11
-385.0
 21
-636.121641
 31
0.0
  0
CIRCLE
  5
F0
  8
SIZE
  6
CONTINUOUS
 62
    30
 10
-395.0
 20
-636.121641
 30
0.0
 40
5.0
  0
LINE
  5
F1
  8
SIZE
  6
CONTINUOUS
 62
    30
 10
-495.0
 20
-636.121641
 30
0.0
 11
-505.0
 21
-636.121641
 31
0.0
  0
CIRCLE
  5
F2
  8
SIZE
  6
CONTINUOUS
 62
    30
 10
-495.0
 20
-636.121641
 30
0.0
 40
5.0
  0
LINE
  5
F3
  8
SIZE
  6
CONTINUOUS
 62
    30
 10
-495.0
 20
-636.121641
 30
0.0
 11
-395.0
 21
-636.121641
 31
0.0
  0
LINE
  5
F4
  8
SIZE
  6
CONTINUOUS
 62
    30
 10
-385.0
 20
-636.121641
 30
0.0
 11
-375.0
 21
-636.121641
 31
0.0
  0
LINE
  5
F5
  8
SIZE
  6
CONTINUOUS
 62
    30
 10
-505.0
 20
-636.121641
 30
0.0
 11
-515.0
 21
-636.121641
 31
0.0
  0
LINE
  5
F6
  8
SIZE
  6
CONTINUOUS
 62
    30
 10
-395.0
 20
-342.5
 30
0.0
 11
-395.0
 21
-666.121641
 31
0.0
  0
LINE
  5
F7
  8
SIZE
  6
CONTINUOUS
 62
    30
 10
-495.0
 20
-440.0
 30
0.0
 11
-495.0
 21
-666.121641
 31
0.0
  0
LINE
  5
F8
  8
SIZE
  6
CONTINUOUS
 62
    30
 10
-312.0
 20
-636.121641
 30
0.0
 11
-322.0
 21
-636.121641
 31
0.0
  0
CIRCLE
  5
F9
  8
SIZE
  6
CONTINUOUS
 62
    30
 10
-312.0
 20
-636.121641
 30
0.0
 40
5.0
  0
LINE
  5
FA
  8
SIZE
  6
CONTINUOUS
 62
    30
 10
-395.0
 20
-636.121641
 30
0.0
 11
-385.0
 21
-636.121641
 31
0.0
  0
CIRCLE
  5
FB
  8
SIZE
  6
CONTINUOUS
 62
    30
 10
-395.0
 20
-636.121641
 30
0.0
 40
5.0
  0
TEXT
  5
FC
  8
SIZE
  6
CONTINUOUS
 62
    30
 10
-261.196906
 20
-616.121641
 30
0.0
 40
64.0
  1
83
 41
0.9
 72
     1
 11
-214.568335
 21
-616.121641
 31
0.0
  0
LINE
  5
FD
  8
SIZE
  6
CONTINUOUS
 62
    30
 10
-147.939763
 20
-636.121641
 30
0.0
 11
-312.0
 21
-636.121641
 31
0.0
  0
LINE
  5
FE
  8
SIZE
  6
CONTINUOUS
 62
    30
 10
-385.0
 20
-636.121641
 30
0.0
 11
-322.0
 21
-636.121641
 31
0.0
  0
LINE
  5
FF
  8
SIZE
  6
CONTINUOUS
 62
    30
 10
-312.0
 20
-312.5
 30
0.0
 11
-312.0
 21
-666.121641
 31
0.0
  0
LINE
  5
100
  8
SIZE
  6
CONTINUOUS
 62
    30
 10
-395.0
 20
-342.5
 30
0.0
 11
-395.0
 21
-666.121641
 31
0.0
  0
TEXT
  5
101
  8
SIZE
  6
CONTINUOUS
 62
    30
 10
-185.057143
 20
-783.697922
 30
0.0
 40
64.0
  1
768
 41
0.9
 72
     1
 11
-111.0
 21
-783.697922
 31
0.0
  0
LINE
  5
102
  8
SIZE
  6
CONTINUOUS
 62
    30
 10
273.0
 20
-803.697922
 30
0.0
 11
263.0
 21
-803.697922
 31
0.0
  0
CIRCLE
  5
103
  8
SIZE
  6
CONTINUOUS
 62
    30
 10
273.0
 20
-803.697922
 30
0.0
 40
5.0
  0
LINE
  5
104
  8
SIZE
  6
CONTINUOUS
 62
    30
 10
-495.0
 20
-803.697922
 30
0.0
 11
-485.0
 21
-803.697922
 31
0.0
  0
CIRCLE
  5
105
  8
SIZE
  6
CONTINUOUS
 62
    30
 10
-495.0
 20
-803.697922
 30
0.0
 40
5.0
  0
LINE
  5
106
  8
SIZE
  6
CONTINUOUS
 62
    30
 10
-485.0
 20
-803.697922
 30
0.0
 11
263.0
 21
-803.697922
 31
0.0
  0
LINE
  5
107
  8
SIZE
  6
CONTINUOUS
 62
    30
 10
273.0
 20
-388.5
 30
0.0
 11
273.0
 21
-833.697922
 31
0.0
  0
LINE
  5
108
  8
SIZE
  6
CONTINUOUS
 62
    30
 10
-495.0
 20
-440.0
 30
0.0
 11
-495.0
 21
-833.697922
 31
0.0
  0
CIRCLE
  5
109
  8
FIX
  6
CONTINUOUS
 62
    11
 10
450.0
 20
-422.5
 30
0.0
 40
20.0
  0
LINE
  5
10A
  8
NOTE
  6
CONTINUOUS
 62
     4
 10
470.0
 20
-422.5
 30
0.0
 11
430.0
 21
-422.5
 31
0.0
  0
ARC
  5
10B
  8
DETAIL
  6
CONTINUOUS
 62
     5
 10
450.0
 20
-419.5
 30
0.0
 40
7.0
 50
0.0
 51
180.0
  0
ARC
  5
10C
  8
DETAIL
  6
CONTINUOUS
 62
     5
 10
450.0
 20
-425.5
 30
0.0
 40
7.0
 50
180.0
 51
0.0
  0
LINE
  5
10D
  8
OUTLINE
  6
CONTINUOUS
 62
     3
 10
470.0
 20
-438.5
 30
0.0
 11
-470.0
 21
-438.5
 31
0.0
  0
LINE
  5
10E
  8
DETAIL
  6
CONTINUOUS
 62
     5
 10
470.0
 20
-438.5
 30
0.0
 11
-470.0
 21
-438.5
 31
0.0
  0
LINE
  5
10F
  8
DETAIL
  6
CONTINUOUS
 62
     5
 10
495.0
 20
-420.0
 30
0.0
 11
-495.0
 21
-420.0
 31
0.0
  0
LINE
  5
110
  8
DETAIL
  6
CONTINUOUS
 62
     5
 10
495.0
 20
-420.0
 30
0.0
 11
395.0
 21
-420.0
 31
0.0
  0
LINE
  5
111
  8
OUTLINE
  6
CONTINUOUS
 62
     3
 10
495.0
 20
-420.0
 30
0.0
 11
395.0
 21
-420.0
 31
0.0
  0
LINE
  5
112
  8
OUTLINE
  6
CONTINUOUS
 62
     3
 10
495.0
 20
-420.0
 30
0.0
 11
-495.0
 21
-420.0
 31
0.0
  0
LINE
  5
113
  8
NOTE
  6
CONTINUOUS
 62
     4
 10
353.0
 20
-348.5
 30
0.0
 11
583.504291
 21
-203.027305
 31
0.0
  0
LINE
  5
114
  8
NOTE
  6
CONTINUOUS
 62
     4
 10
273.0
 20
-368.5
 30
0.0
 11
608.823502
 21
-116.208598
 31
0.0
  0
TEXT
  5
115
  8
SIZE
  6
CONTINUOUS
 62
    30
 10
647.798816
 20
-593.863724
 30
0.0
 40
64.0
  1
70
 50
90.0
 41
0.9
 72
     1
 11
647.798816
 21
-547.235153
 31
0.0
  0
LINE
  5
116
  8
SIZE
  6
CONTINUOUS
 62
    30
 10
667.798816
 20
-438.5
 30
0.0
 11
667.798816
 21
-428.5
 31
0.0
  0
CIRCLE
  5
117
  8
SIZE
  6
CONTINUOUS
 62
    30
 10
667.798816
 20
-438.5
 30
0.0
 40
5.0
  0
LINE
  5
118
  8
SIZE
  6
CONTINUOUS
 62
    30
 10
667.798816
 20
-368.5
 30
0.0
 11
667.798816
 21
-378.5
 31
0.0
  0
CIRCLE
  5
119
  8
SIZE
  6
CONTINUOUS
 62
    30
 10
667.798816
 20
-368.5
 30
0.0
 40
5.0
  0
LINE
  5
11A
  8
SIZE
  6
CONTINUOUS
 62
    30
 10
667.798816
 20
-438.5
 30
0.0
 11
667.798816
 21
-613.863724
 31
0.0
  0
LINE
  5
11B
  8
SIZE
  6
CONTINUOUS
 62
    30
 10
667.798816
 20
-378.5
 30
0.0
 11
667.798816
 21
-428.5
 31
0.0
  0
LINE
  5
11C
  8
SIZE
  6
CONTINUOUS
 62
    30
 10
313.0
 20
-368.5
 30
0.0
 11
697.798816
 21
-368.5
 31
0.0
  0
LINE
  5
11D
  8
SIZE
  6
CONTINUOUS
 62
    30
 10
490.0
 20
-438.5
 30
0.0
 11
697.798816
 21
-438.5
 31
0.0
  0
TEXT
  5
11E
  8
SIZE
  6
CONTINUOUS
 62
    30
 10
647.459536
 20
-288.5
 30
0.0
 40
64.0
  1
20
 50
90.0
 41
0.9
 72
     1
 11
647.459536
 21
-241.871429
 31
0.0
  0
LINE
  5
11F
  8
SIZE
  6
CONTINUOUS
 62
    30
 10
667.459536
 20
-348.5
 30
0.0
 11
667.459536
 21
-338.5
 31
0.0
  0
CIRCLE
  5
120
  8
SIZE
  6
CONTINUOUS
 62
    30
 10
667.459536
 20
-348.5
 30
0.0
 40
5.0
  0
CIRCLE
  5
121
  8
SIZE
  6
CONTINUOUS
 62
    30
 10
667.459536
 20
-368.5
 30
0.0
 40
5.0
  0
LINE
  5
122
  8
SIZE
  6
CONTINUOUS
 62
    30
 10
667.459536
 20
-368.5
 30
0.0
 11
667.459536
 21
-348.5
 31
0.0
  0
LINE
  5
123
  8
SIZE
  6
CONTINUOUS
 62
    30
 10
667.459536
 20
-338.5
 30
0.0
 11
667.459536
 21
-175.242857
 31
0.0
  0
LINE
  5
124
  8
SIZE
  6
CONTINUOUS
 62
    30
 10
393.0
 20
-348.5
 30
0.0
 11
697.459536
 21
-348.5
 31
0.0
  0
LINE
  5
125
  8
SIZE
  6
CONTINUOUS
 62
    30
 10
333.0
 20
-368.5
 30
0.0
 11
697.459536
 21
-368.5
 31
0.0
  0
LINE
  5
126
  8
SIZE
  6
CONTINUOUS
 62
    30
 10
353.0
 20
-803.697922
 30
0.0
 11
343.0
 21
-803.697922
 31
0.0
  0
CIRCLE
  5
127
  8
SIZE
  6
CONTINUOUS
 62
    30
 10
353.0
 20
-803.697922
 30
0.0
 40
5.0
  0
LINE
  5
128
  8
SIZE
  6
CONTINUOUS
 62
    30
 10
273.0
 20
-803.697922
 30
0.0
 11
283.0
 21
-803.697922
 31
0.0
  0
CIRCLE
  5
129
  8
SIZE
  6
CONTINUOUS
 62
    30
 10
273.0
 20
-803.697922
 30
0.0
 40
5.0
  0
TEXT
  5
12A
  8
SIZE
  6
CONTINUOUS
 62
    30
 10
396.684066
 20
-783.697922
 30
0.0
 40
64.0
  1
80
 41
0.9
 72
     1
 11
443.312637
 21
-783.697922
 31
0.0
  0
LINE
  5
12B
  8
SIZE
  6
CONTINUOUS
 62
    30
 10
509.941209
 20
-803.697922
 30
0.0
 11
353.0
 21
-803.697922
 31
0.0
  0
LINE
  5
12C
  8
SIZE
  6
CONTINUOUS
 62
    30
 10
283.0
 20
-803.697922
 30
0.0
 11
343.0
 21
-803.697922
 31
0.0
  0
LINE
  5
12D
  8
SIZE
  6
CONTINUOUS
 62
    30
 10
353.0
 20
-368.5
 30
0.0
 11
353.0
 21
-833.697922
 31
0.0
  0
LINE
  5
12E
  8
SIZE
  6
CONTINUOUS
 62
    30
 10
273.0
 20
-388.5
 30
0.0
 11
273.0
 21
-833.697922
 31
0.0
  0
LINE
  5
12F
  8
DETAIL
  6
CONTINUOUS
 62
     5
 10
-495.0
 20
420.0
 30
0.0
 11
-495.0
 21
-420.0
 31
0.0
  0
LINE
  5
130
  8
OUTLINE
  6
CONTINUOUS
 62
     3
 10
-495.0
 20
420.0
 30
0.0
 11
-495.0
 21
-420.0
 31
0.0
  0
TEXT
  5
131
  8
SIZE
  6
CONTINUOUS
 62
    30
 10
1228.819641
 20
-158.642882
 30
0.0
 40
64.0
  1
（据付ピッチ）
 50
90.0
 41
0.9
  0
TEXT
  5
132
  8
SIZE
  6
CONTINUOUS
 62
    30
 10
1244.693191
 20
-337.226264
 30
0.0
 40
64.0
  1
845
 50
90.0
 41
0.9
 72
     1
 11
1244.693191
 21
-263.169121
 31
0.0
  0
LINE
  5
133
  8
SIZE
  6
CONTINUOUS
 62
    30
 10
1264.693191
 20
-422.5
 30
0.0
 11
1264.693191
 21
-412.5
 31
0.0
  0
CIRCLE
  5
134
  8
SIZE
  6
CONTINUOUS
 62
    30
 10
1264.693191
 20
-422.5
 30
0.0
 40
5.0
  0
LINE
  5
135
  8
SIZE
  6
CONTINUOUS
 62
    30
 10
1264.693191
 20
422.5
 30
0.0
 11
1264.693191
 21
412.5
 31
0.0
  0
CIRCLE
  5
136
  8
SIZE
  6
CONTINUOUS
 62
    30
 10
1264.693191
 20
422.5
 30
0.0
 40
5.0
  0
LINE
  5
137
  8
SIZE
  6
CONTINUOUS
 62
    30
 10
1264.693191
 20
412.5
 30
0.0
 11
1264.693191
 21
-412.5
 31
0.0
  0
LINE
  5
138
  8
SIZE
  6
CONTINUOUS
 62
    30
 10
490.0
 20
-422.5
 30
0.0
 11
1294.693191
 21
-422.5
 31
0.0
  0
LINE
  5
139
  8
SIZE
  6
CONTINUOUS
 62
    30
 10
490.0
 20
422.5
 30
0.0
 11
1294.693191
 21
422.5
 31
0.0
  0
TEXT
  5
13A
  8
SIZE
  6
CONTINUOUS
 62
    30
 10
1387.775529
 20
-74.057143
 30
0.0
 40
64.0
  1
877
 50
90.0
 41
0.9
 72
     1
 11
1387.775529
 21
0.0
 31
0.0
  0
LINE
  5
13B
  8
SIZE
  6
CONTINUOUS
 62
    30
 10
1407.775529
 20
-438.5
 30
0.0
 11
1407.775529
 21
-428.5
 31
0.0
  0
CIRCLE
  5
13C
  8
SIZE
  6
CONTINUOUS
 62
    30
 10
1407.775529
 20
-438.5
 30
0.0
 40
5.0
  0
LINE
  5
13D
  8
SIZE
  6
CONTINUOUS
 62
    30
 10
1407.775529
 20
438.5
 30
0.0
 11
1407.775529
 21
428.5
 31
0.0
  0
CIRCLE
  5
13E
  8
SIZE
  6
CONTINUOUS
 62
    30
 10
1407.775529
 20
438.5
 30
0.0
 40
5.0
  0
LINE
  5
13F
  8
SIZE
  6
CONTINUOUS
 62
    30
 10
1407.775529
 20
428.5
 30
0.0
 11
1407.775529
 21
-428.5
 31
0.0
  0
LINE
  5
140
  8
SIZE
  6
CONTINUOUS
 62
    30
 10
490.0
 20
-438.5
 30
0.0
 11
1437.775529
 21
-438.5
 31
0.0
  0
LINE
  5
141
  8
SIZE
  6
CONTINUOUS
 62
    30
 10
490.0
 20
438.5
 30
0.0
 11
1437.775529
 21
438.5
 31
0.0
  0
TEXT
  5
142
  8
SIZE
  6
CONTINUOUS
 62
    30
 10
1028.560063
 20
-74.057143
 30
0.0
 40
64.0
  1
840
 50
90.0
 41
0.9
 72
     1
 11
1028.560063
 21
0.0
 31
0.0
  0
LINE
  5
143
  8
SIZE
  6
CONTINUOUS
 62
    30
 10
1048.560063
 20
-420.0
 30
0.0
 11
1048.560063
 21
-410.0
 31
0.0
  0
CIRCLE
  5
144
  8
SIZE
  6
CONTINUOUS
 62
    30
 10
1048.560063
 20
-420.0
 30
0.0
 40
5.0
  0
LINE
  5
145
  8
SIZE
  6
CONTINUOUS
 62
    30
 10
1048.560063
 20
420.0
 30
0.0
 11
1048.560063
 21
410.0
 31
0.0
  0
CIRCLE
  5
146
  8
SIZE
  6
CONTINUOUS
 62
    30
 10
1048.560063
 20
420.0
 30
0.0
 40
5.0
  0
LINE
  5
147
  8
SIZE
  6
CONTINUOUS
 62
    30
 10
1048.560063
 20
410.0
 30
0.0
 11
1048.560063
 21
-410.0
 31
0.0
  0
LINE
  5
148
  8
SIZE
  6
CONTINUOUS
 62
    30
 10
515.0
 20
-420.0
 30
0.0
 11
1078.560063
 21
-420.0
 31
0.0
  0
LINE
  5
149
  8
SIZE
  6
CONTINUOUS
 62
    30
 10
515.0
 20
420.0
 30
0.0
 11
1078.560063
 21
420.0
 31
0.0
  0
LINE
  5
14A
  8
DETAIL
  6
CONTINUOUS
 62
     5
 10
495.0
 20
420.0
 30
0.0
 11
495.0
 21
-420.0
 31
0.0
  0
LINE
  5
14B
  8
OUTLINE
  6
CONTINUOUS
 62
     3
 10
495.0
 20
420.0
 30
0.0
 11
495.0
 21
-420.0
 31
0.0
  0
LINE
  5
14C
  8
NOTE
  6
CONTINUOUS
 62
     4
 10
-1575.009709
 20
756.923964
 30
0.0
 11
-718.755376
 21
756.923964
 31
0.0
  0
TEXT
  5
14D
  8
NOTE
  6
CONTINUOUS
 62
     4
 10
-1554.641709
 20
793.457538
 30
0.0
 40
64.0
  1
AH 2×2-14×20長穴
 41
0.9
  0
LINE
  5
14E
  8
NOTE
  6
CONTINUOUS
 62
     4
 10
-718.755376
 20
756.923964
 30
0.0
 11
-450.0
 21
421.557361
 31
0.0
  0
LINE
  5
14F
  8
NOTE
  6
CONTINUOUS
 62
     4
 10
-526.562877
 20
-217.116339
 30
0.0
 11
-991.907
 21
-217.116339
 31
0.0
  0
TEXT
  5
150
  8
NOTE
  6
CONTINUOUS
 62
     4
 10
-966.780499
 20
-198.348018
 30
0.0
 40
64.0
  1
RG %%c22.2
 41
0.9
  0
LINE
  5
151
  8
NOTE
  6
CONTINUOUS
 62
     4
 10
-569.563706
 20
-59.639302
 30
0.0
 11
-967.615135
 21
-59.639302
 31
0.0
  0
TEXT
  5
152
  8
NOTE
  6
CONTINUOUS
 62
     4
 10
-967.399315
 20
-35.846888
 30
0.0
 40
64.0
  1
RL %%c19.05
 41
0.9
  0
TEXT
  5
153
  8
ETC
  6
CONTINUOUS
 62
    61
 10
681.758788
 20
680.874021
 30
0.0
 40
64.0
  1
PURY-P280_335M-E_6
 41
0.9
  0
TEXT
  5
154
  8
ETC
  6
CONTINUOUS
 62
    61
 10
699.284556
 20
566.272324
 30
0.0
 40
64.0
  1
室外機
 41
0.9
  0
CIRCLE
  5
155
  8
ARRANGE
  6
CONTINUOUS
 62
     1
 10
0.0
 20
0.0
 30
0.0
 40
40.0
  0
LINE
  5
156
  8
BASIS
  6
DASHDOT
 62
     6
 10
644.152
 20
0.0
 30
0.0
 11
-571.677091
 21
0.0
 31
0.0
  0
POINT
  5
157
  8
ARRANGE
  6
CONTINUOUS
 62
     1
 10
0.0
 20
0.0
 30
0.0
  0
LINE
  5
158
  8
BASIS
  6
DASHDOT
 62
     6
 10
0.0
 20
528.659148
 30
0.0
 11
0.0
 21
-575.734787
 31
0.0
  0
LINE
  5
159
  8
SIZE
  6
CONTINUOUS
 62
    30
 10
-292.0
 20
-438.5
 30
0.0
 11
-91.958654
 21
-438.5
 31
0.0
  0
LINE
  5
15A
  8
SIZE
  6
CONTINUOUS
 62
    30
 10
-292.0
 20
-318.5
 30
0.0
 11
-91.958654
 21
-318.5
 31
0.0
  0
LINE
  5
15B
  8
SIZE
  6
CONTINUOUS
 62
    30
 10
-121.958654
 20
-428.5
 30
0.0
 11
-121.958654
 21
-328.5
 31
0.0
  0
CIRCLE
  5
15C
  8
SIZE
  6
CONTINUOUS
 62
    30
 10
-121.958654
 20
-438.5
 30
0.0
 40
5.0
  0
LINE
  5
15D
  8
SIZE
  6
CONTINUOUS
 62
    30
 10
-121.958654
 20
-433.5
 30
0.0
 11
-121.958654
 21
-428.5
 31
0.0
  0
CIRCLE
  5
15E
  8
SIZE
  6
CONTINUOUS
 62
    30
 10
-121.958654
 20
-318.5
 30
0.0
 40
5.0
  0
LINE
  5
15F
  8
SIZE
  6
CONTINUOUS
 62
    30
 10
-121.958654
 20
-323.5
 30
0.0
 11
-121.958654
 21
-328.5
 31
0.0
  0
TEXT
  5
160
  8
SIZE
  6
CONTINUOUS
 62
    30
 10
-141.958654
 20
-447.071429
 30
0.0
 40
64.0
  1
120
 50
90.0
 41
0.9
 72
     1
 11
-141.958654
 21
-378.5
 31
0.0
  0
POINT
  5
161
  8
DEFPOINTS
  6
CONTINUOUS
 62
     7
 10
-312.0
 20
-438.5
 30
0.0
  0
POINT
  5
162
  8
DEFPOINTS
  6
CONTINUOUS
 62
     7
 10
-312.0
 20
-318.5
 30
0.0
  0
POINT
  5
163
  8
DEFPOINTS
  6
CONTINUOUS
 62
     7
 10
-121.958654
 20
-318.5
 30
0.0
  0
LINE
  5
164
  8
SIZE
  6
CONTINUOUS
 62
    30
 10
-415.0
 20
-303.5
 30
0.0
 11
-739.321608
 21
-303.5
 31
0.0
  0
LINE
  5
165
  8
SIZE
  6
CONTINUOUS
 62
    30
 10
-415.0
 20
-438.5
 30
0.0
 11
-739.321608
 21
-438.5
 31
0.0
  0
LINE
  5
166
  8
SIZE
  6
CONTINUOUS
 62
    30
 10
-709.321608
 20
-313.5
 30
0.0
 11
-709.321608
 21
-428.5
 31
0.0
  0
CIRCLE
  5
167
  8
SIZE
  6
CONTINUOUS
 62
    30
 10
-709.321608
 20
-303.5
 30
0.0
 40
5.0
  0
LINE
  5
168
  8
SIZE
  6
CONTINUOUS
 62
    30
 10
-709.321608
 20
-308.5
 30
0.0
 11
-709.321608
 21
-313.5
 31
0.0
  0
CIRCLE
  5
169
  8
SIZE
  6
CONTINUOUS
 62
    30
 10
-709.321608
 20
-438.5
 30
0.0
 40
5.0
  0
LINE
  5
16A
  8
SIZE
  6
CONTINUOUS
 62
    30
 10
-709.321608
 20
-433.5
 30
0.0
 11
-709.321608
 21
-428.5
 31
0.0
  0
TEXT
  5
16B
  8
SIZE
  6
CONTINUOUS
 62
    30
 10
-729.321608
 20
-439.571429
 30
0.0
 40
64.0
  1
135
 50
90.0
 41
0.9
 72
     1
 11
-729.321608
 21
-371.0
 31
0.0
  0
POINT
  5
16C
  8
DEFPOINTS
  6
CONTINUOUS
 62
     7
 10
-395.0
 20
-303.5
 30
0.0
  0
POINT
  5
16D
  8
DEFPOINTS
  6
CONTINUOUS
 62
     7
 10
-395.0
 20
-438.5
 30
0.0
  0
POINT
  5
16E
  8
DEFPOINTS
  6
CONTINUOUS
 62
     7
 10
-709.321608
 20
-438.5
 30
0.0
  0
ENDSEC
  0
EOF
