  0
SECTION
  2
HEADER
  9
$ACADVER
  1
AC1009
  9
$DWGCODEPAGE
  3
ansi_932
  9
$INSBASE
 10
0.0
 20
0.0
 30
0.0
  9
$EXTMIN
 10
-345.2605949077515
 20
1478.607194589691
 30
-0.0000000000000058
  9
$EXTMAX
 10
1398.818986488994
 20
3837.463391522717
 30
0.0000000000000104
  9
$LIMMIN
 10
-4000.0
 20
-1000.0
  9
$LIMMAX
 10
5000.0
 20
5000.0
  9
$ORTHOMODE
 70
     1
  9
$REGENMODE
 70
     1
  9
$FILLMODE
 70
     1
  9
$QTEXTMODE
 70
     0
  9
$MIRRTEXT
 70
     0
  9
$DRAGMODE
 70
     2
  9
$LTSCALE
 40
30.0
  9
$OSMODE
 70
    37
  9
$ATTMODE
 70
     1
  9
$TEXTSIZE
 40
64.0
  9
$TRACEWID
 40
0.05
  9
$TEXTSTYLE
  7
STANDARD
  9
$CLAYER
  8
SYMBOLLINE
  9
$CELTYPE
  6
CONTINUOUS
  9
$CECOLOR
 62
     7
  9
$DIMSCALE
 40
1.0
  9
$DIMASZ
 40
10.0
  9
$DIMEXO
 40
15.0
  9
$DIMDLI
 40
200.0
  9
$DIMRND
 40
0.0
  9
$DIMDLE
 40
0.0
  9
$DIMEXE
 40
15.0
  9
$DIMTP
 40
0.0
  9
$DIMTM
 40
0.0
  9
$DIMTXT
 40
55.0
  9
$DIMCEN
 40
0.0
  9
$DIMTSZ
 40
0.0
  9
$DIMTOL
 70
     0
  9
$DIMLIM
 70
     0
  9
$DIMTIH
 70
     0
  9
$DIMTOH
 70
     0
  9
$DIMSE1
 70
     0
  9
$DIMSE2
 70
     0
  9
$DIMTAD
 70
     1
  9
$DIMZIN
 70
     8
  9
$DIMBLK
  1
DOTBLANK
  9
$DIMASO
 70
     1
  9
$DIMSHO
 70
     0
  9
$DIMPOST
  1

  9
$DIMAPOST
  1

  9
$DIMALT
 70
     0
  9
$DIMALTD
 70
     2
  9
$DIMALTF
 40
25.4
  9
$DIMLFAC
 40
1.0
  9
$DIMTOFL
 70
     1
  9
$DIMTVP
 40
0.0
  9
$DIMTIX
 70
     1
  9
$DIMSOXD
 70
     0
  9
$DIMSAH
 70
     0
  9
$DIMBLK1
  1

  9
$DIMBLK2
  1

  9
$DIMSTYLE
  2
STANDARD
  9
$DIMCLRD
 70
     0
  9
$DIMCLRE
 70
     0
  9
$DIMCLRT
 70
     0
  9
$DIMTFAC
 40
1.0
  9
$DIMGAP
 40
0.09
  9
$LUNITS
 70
     2
  9
$LUPREC
 70
     4
  9
$SKETCHINC
 40
0.1
  9
$FILLETRAD
 40
15.0
  9
$AUNITS
 70
     1
  9
$AUPREC
 70
     3
  9
$MENU
  1
ACAD
  9
$ELEVATION
 40
0.0
  9
$PELEVATION
 40
0.0
  9
$THICKNESS
 40
0.0
  9
$LIMCHECK
 70
     0
  9
$CHAMFERA
 40
0.0
  9
$CHAMFERB
 40
0.0
  9
$SKPOLY
 70
     0
  9
$TDCREATE
 40
2449761.493622674
  9
$TDUPDATE
 40
2457464.660176065
  9
$TDINDWG
 40
11.9428288889
  9
$TDUSRTIMER
 40
11.9428172569
  9
$USRTIMER
 70
     1
  9
$ANGBASE
 50
0.0
  9
$ANGDIR
 70
     0
  9
$PDMODE
 70
    35
  9
$PDSIZE
 40
100.0
  9
$PLINEWID
 40
0.0
  9
$COORDS
 70
     1
  9
$SPLFRAME
 70
     0
  9
$SPLINETYPE
 70
     6
  9
$SPLINESEGS
 70
     8
  9
$ATTDIA
 70
     0
  9
$ATTREQ
 70
     1
  9
$HANDLING
 70
     1
  9
$HANDSEED
  5
E12
  9
$SURFTAB1
 70
     6
  9
$SURFTAB2
 70
     6
  9
$SURFTYPE
 70
     6
  9
$SURFU
 70
     6
  9
$SURFV
 70
     6
  9
$UCSNAME
  2
W_UCS
  9
$UCSORG
 10
224.9714830490184
 20
1793.831069627158
 30
0.0
  9
$UCSXDIR
 10
1.0
 20
0.0
 30
0.0
  9
$UCSYDIR
 10
0.0
 20
1.0
 30
0.0
  9
$PUCSNAME
  2

  9
$PUCSORG
 10
0.0
 20
0.0
 30
0.0
  9
$PUCSXDIR
 10
1.0
 20
0.0
 30
0.0
  9
$PUCSYDIR
 10
0.0
 20
1.0
 30
0.0
  9
$USERI1
 70
     0
  9
$USERI2
 70
     0
  9
$USERI3
 70
     0
  9
$USERI4
 70
     0
  9
$USERI5
 70
     0
  9
$USERR1
 40
20.0
  9
$USERR2
 40
0.0
  9
$USERR3
 40
0.0
  9
$USERR4
 40
0.0
  9
$USERR5
 40
0.0
  9
$WORLDVIEW
 70
     1
  9
$SHADEDGE
 70
     3
  9
$SHADEDIF
 70
    70
  9
$TILEMODE
 70
     1
  9
$MAXACTVP
 70
    64
  9
$PLIMCHECK
 70
     0
  9
$PEXTMIN
 10
1.000000000000000E+20
 20
1.000000000000000E+20
 30
1.000000000000000E+20
  9
$PEXTMAX
 10
-1.000000000000000E+20
 20
-1.000000000000000E+20
 30
-1.000000000000000E+20
  9
$PLIMMIN
 10
0.0
 20
0.0
  9
$PLIMMAX
 10
12.0
 20
9.0
  9
$UNITMODE
 70
     0
  9
$VISRETAIN
 70
     1
  9
$PLINEGEN
 70
     0
  9
$PSLTSCALE
 70
     1
  0
ENDSEC
  0
SECTION
  2
TABLES
  0
TABLE
  2
VPORT
 70
     1
  0
VPORT
  2
*ACTIVE
 70
     0
 10
0.0
 20
0.0
 11
1.0
 21
1.0
 12
526.7791957906211
 22
2658.035293056204
 13
0.0
 23
0.0
 14
50.0
 24
50.0
 15
100.0
 25
100.0
 16
0.0
 26
0.0
 36
1.0
 17
0.0
 27
0.0
 37
0.0
 40
2377.381245600039
 41
1.615989515072083
 42
50.0
 43
0.0
 44
0.0
 50
0.0
 51
0.0
 71
     0
 72
  1000
 73
     1
 74
     0
 75
     0
 76
     0
 77
     0
 78
     0
  0
ENDTAB
  0
TABLE
  2
LTYPE
 70
     2
  0
LTYPE
  2
CONTINUOUS
 70
     0
  3
実線
 72
    65
 73
     0
 40
0.0
  0
LTYPE
  2
DASHDOT
 70
     0
  3
____ _ ____ _ ____ _ ____ _ ____ _ ____ _ ____
 72
    65
 73
     4
 40
5.5
 49
4.0
 49
-0.6
 49
0.3
 49
-0.6
  0
ENDTAB
  0
TABLE
  2
LAYER
 70
    12
  0
LAYER
  2
0
 70
     0
 62
     7
  6
CONTINUOUS
  0
LAYER
  2
SYMBOLLINE
 70
     0
 62
    15
  6
CONTINUOUS
  0
LAYER
  2
OUTLINE
 70
     0
 62
     3
  6
CONTINUOUS
  0
LAYER
  2
DETAIL
 70
     0
 62
     5
  6
CONTINUOUS
  0
LAYER
  2
BASIS
 70
     0
 62
     6
  6
DASHDOT
  0
LAYER
  2
SIZE
 70
     0
 62
    30
  6
CONTINUOUS
  0
LAYER
  2
NOTE
 70
     0
 62
     4
  6
CONTINUOUS
  0
LAYER
  2
ARRANGE
 70
     0
 62
     1
  6
CONTINUOUS
  0
LAYER
  2
FIX
 70
     0
 62
    11
  6
CONTINUOUS
  0
LAYER
  2
SERVICESPACE
 70
     0
 62
     2
  6
DASHDOT
  0
LAYER
  2
ETC
 70
     0
 62
    61
  6
CONTINUOUS
  0
LAYER
  2
DEFPOINTS
 70
     0
 62
     7
  6
CONTINUOUS
  0
ENDTAB
  0
TABLE
  2
STYLE
 70
     3
  0
STYLE
  2
STANDARD
 70
     0
 40
0.0
 41
0.9
 50
0.0
 71
     0
 42
64.0
  3
SIMPLEX
  4
BIGFONT
  0
STYLE
  2
ANNOTATIVE
 70
     0
 40
0.0
 41
1.0
 50
0.0
 71
     0
 42
0.2
  3
txt
  4

  0
STYLE
  2
STANDARD1
 70
     0
 40
0.0
 41
1.0
 50
0.0
 71
     0
 42
3.5
  3
MONOTXT
  4
BIGFONT
  0
ENDTAB
  0
TABLE
  2
VIEW
 70
     1
  0
VIEW
  2
ALL
 70
     0
 40
6056.230032000001
 10
0.0
 20
58.11501599999999
 41
8400.0
 11
0.0
 21
0.0
 31
1.0
 12
0.0
 22
0.0
 32
0.0
 42
50.0
 43
0.0
 44
0.0
 50
0.0
 71
     0
  0
ENDTAB
  0
TABLE
  2
UCS
 70
     1
  0
UCS
  2
W_UCS
 70
     0
 10
0.0
 20
0.0
 30
0.0
 11
1.0
 21
0.0
 31
0.0
 12
0.0
 22
1.0
 32
0.0
  0
ENDTAB
  0
TABLE
  2
APPID
 70
     5
  0
APPID
  2
ACAD
 70
     0
  0
APPID
  2
ACADANNOTATIVE
 70
     0
  0
APPID
  2
ACAD_MLEADERVER
 70
     0
  0
APPID
  2
ACAD_EXEMPT_FROM_CAD_STAND
 70
     0
  0
APPID
  2
ACAD_NAV_VCDISPLAY
 70
     0
  0
ENDTAB
  0
TABLE
  2
DIMSTYLE
 70
     2
  0
DIMSTYLE
  2
STANDARD
 70
     0
  3

  4

  5

  6

  7

 40
1.0
 41
0.18
 42
0.0625
 43
0.38
 44
0.18
 45
0.0
 46
0.0
 47
0.0
 48
0.0
140
0.18
141
0.09
142
0.0
143
25.4
144
1.0
145
0.0
146
1.0
147
0.09
 71
     0
 72
     0
 73
     1
 74
     1
 75
     0
 76
     0
 77
     0
 78
     0
170
     0
171
     2
172
     0
173
     0
174
     0
175
     0
176
     0
177
     0
178
     0
  0
DIMSTYLE
  2
ANNOTATIVE
 70
     0
  3

  4

  5

  6

  7

 40
1.0
 41
0.18
 42
0.0625
 43
0.38
 44
0.18
 45
0.0
 46
0.0
 47
0.0
 48
0.0
140
0.18
141
0.09
142
0.0
143
25.4
144
1.0
145
0.0
146
1.0
147
0.09
 71
     0
 72
     0
 73
     1
 74
     1
 75
     0
 76
     0
 77
     0
 78
     0
170
     0
171
     2
172
     0
173
     0
174
     0
175
     0
176
     0
177
     0
178
     0
  0
ENDTAB
  0
ENDSEC
  0
SECTION
  2
BLOCKS
  0
BLOCK
  8
0
  2
$MODEL_SPACE
 70
     0
 10
0.0
 20
0.0
 30
0.0
  3
$MODEL_SPACE
  1

  0
ENDBLK
  5
CFE
  8
0
  0
BLOCK
 67
     1
  8
0
  2
$PAPER_SPACE
 70
     0
 10
0.0
 20
0.0
 30
0.0
  3
$PAPER_SPACE
  1

  0
ENDBLK
  5
CFA
 67
     1
  8
0
  0
BLOCK
  8
0
  2
_DOTBLANK
 70
     0
 10
0.0
 20
0.0
 30
0.0
  3
_DOTBLANK
  1

  0
CIRCLE
  5
8C
  8
0
  6
CONTINUOUS
 62
     7
 10
0.0
 20
0.0
 30
0.0
 40
0.5
  0
LINE
  5
8D
  8
0
  6
CONTINUOUS
 62
     7
 10
-0.5
 20
0.0
 30
0.0
 11
-1.0
 21
0.0
 31
0.0
  0
ENDBLK
  5
8E
  8
0
  0
ENDSEC
  0
SECTION
  2
ENTITIES
  0
POINT
  5
98
  8
DEFPOINTS
  6
CONTINUOUS
 62
     7
 10
369.9999999999981
 20
0.0
 30
0.0
  0
POINT
  5
A4
  8
DEFPOINTS
  6
CONTINUOUS
 62
     7
 10
369.9999999999981
 20
0.0
 30
0.0
  0
LINE
  5
A7
  8
SIZE
  6
CONTINUOUS
 62
    30
 10
-385.0000000000018
 20
0.0
 30
0.0
 11
-515.0000000000016
 21
0.0
 31
0.0
  0
LINE
  5
A8
  8
SIZE
  6
CONTINUOUS
 62
    30
 10
-381.0055972349
 20
54.0
 30
0.0
 11
-515.0000000000016
 21
54.0
 31
0.0
  0
LINE
  5
A9
  8
SIZE
  6
CONTINUOUS
 62
    30
 10
-500.0000000000015
 20
10.0
 30
0.0
 11
-500.0000000000015
 21
44.0
 31
0.0
  0
LINE
  5
AA
  8
SIZE
  6
CONTINUOUS
 62
    30
 10
-500.0000000000015
 20
54.0
 30
0.0
 11
-500.0000000000015
 21
176.5
 31
0.0
  0
CIRCLE
  5
AB
  8
SIZE
  6
CONTINUOUS
 62
    30
 10
-500.0000000000015
 20
0.0
 30
0.0
 40
5.0
  0
LINE
  5
AC
  8
SIZE
  6
CONTINUOUS
 62
    30
 10
-500.0000000000015
 20
5.0
 30
0.0
 11
-500.0000000000015
 21
10.0
 31
0.0
  0
CIRCLE
  5
AD
  8
SIZE
  6
CONTINUOUS
 62
    30
 10
-500.0000000000015
 20
54.0
 30
0.0
 40
5.0
  0
LINE
  5
AE
  8
SIZE
  6
CONTINUOUS
 62
    30
 10
-500.0000000000015
 20
48.99999999999795
 30
0.0
 11
-500.0000000000015
 21
44.0
 31
0.0
  0
TEXT
  5
AF
  8
SIZE
  6
CONTINUOUS
 62
    30
 10
-515.0000000000018
 20
71.92857142857142
 30
0.0
 40
55.0
  1
54
 50
90.0
 41
0.9
 72
     1
 11
-515.0000000000018
 21
120.25
 31
0.0
  0
POINT
  5
B0
  8
DEFPOINTS
  6
CONTINUOUS
 62
     7
 10
-370.0000000000018
 20
0.0
 30
0.0
  0
POINT
  5
B1
  8
DEFPOINTS
  6
CONTINUOUS
 62
     7
 10
-366.0055972349
 20
54.0
 30
0.0
  0
POINT
  5
B2
  8
DEFPOINTS
  6
CONTINUOUS
 62
     7
 10
-500.0000000000015
 20
54.0
 30
0.0
  0
POINT
  5
BB
  8
DEFPOINTS
  6
CONTINUOUS
 62
     7
 10
369.9999999999981
 20
0.0
 30
0.0
  0
POINT
  5
C6
  8
DEFPOINTS
  6
CONTINUOUS
 62
     7
 10
369.9999999999981
 20
0.0
 30
0.0
  0
POINT
  5
D1
  8
DEFPOINTS
  6
CONTINUOUS
 62
     7
 10
369.9999999999981
 20
0.0
 30
0.0
  0
POINT
  5
DD
  8
DEFPOINTS
  6
CONTINUOUS
 62
     7
 10
369.9999999999981
 20
0.0
 30
0.0
  0
POINT
  5
E7
  8
DEFPOINTS
  6
CONTINUOUS
 62
     7
 10
369.9999999999981
 20
0.0
 30
0.0
  0
LINE
  5
EA
  8
BASIS
  6
DASHDOT
 62
     6
 10
-0.0000000000008811
 20
-103.0871890000001
 30
0.0
 11
-0.0000000000008811
 21
1735.11879
 31
0.0
  0
LINE
  5
EB
  8
DETAIL
  6
CONTINUOUS
 62
     5
 10
-318.9607931998598
 20
3.844773996369895
 30
0.0
 11
-318.9607931998598
 21
1313.482355376127
 31
0.0
  0
LINE
  5
EC
  8
OUTLINE
  6
CONTINUOUS
 62
     3
 10
-366.0055972349
 20
1313.482355376127
 30
0.0
 11
-366.0055972349
 21
54.0
 31
0.0
  0
LINE
  5
ED
  8
OUTLINE
  6
CONTINUOUS
 62
     3
 10
366.0055972348963
 20
1313.482355376127
 30
0.0
 11
366.0055972348963
 21
54.0
 31
0.0
  0
LINE
  5
EE
  8
DETAIL
  6
CONTINUOUS
 62
     5
 10
-366.0055972349
 20
1313.482355376127
 30
0.0
 11
-366.0055972349
 21
54.0
 31
0.0
  0
LINE
  5
EF
  8
DETAIL
  6
CONTINUOUS
 62
     5
 10
318.9607931998556
 20
3.844773996369895
 30
0.0
 11
318.9607931998556
 21
1313.482355376127
 31
0.0
  0
LINE
  5
F0
  8
DETAIL
  6
CONTINUOUS
 62
     5
 10
366.0055972348963
 20
1313.482355376127
 30
0.0
 11
366.0055972348963
 21
54.0
 31
0.0
  0
POINT
  5
104
  8
DEFPOINTS
  6
CONTINUOUS
 62
     7
 10
-370.0000000000018
 20
0.0
 30
0.0
  0
POINT
  5
105
  8
DEFPOINTS
  6
CONTINUOUS
 62
     7
 10
369.9999999999981
 20
0.0
 30
0.0
  0
LINE
  5
107
  8
SIZE
  6
CONTINUOUS
 62
    30
 10
313.0000000000205
 20
-12.79884124858609
 30
0.0
 11
313.0000000000205
 21
-315.0
 31
0.0
  0
LINE
  5
108
  8
SIZE
  6
CONTINUOUS
 62
    30
 10
369.9999999999981
 20
-15.0
 30
0.0
 11
369.9999999999981
 21
-315.0
 31
0.0
  0
LINE
  5
109
  8
SIZE
  6
CONTINUOUS
 62
    30
 10
323.0000000000205
 20
-300.0
 30
0.0
 11
359.9999999999981
 21
-300.0
 31
0.0
  0
LINE
  5
10A
  8
SIZE
  6
CONTINUOUS
 62
    30
 10
369.9999999999981
 20
-300.0
 30
0.0
 11
490.1428571428552
 21
-300.0
 31
0.0
  0
CIRCLE
  5
10B
  8
SIZE
  6
CONTINUOUS
 62
    30
 10
313.0000000000205
 20
-300.0
 30
0.0
 40
5.0
  0
LINE
  5
10C
  8
SIZE
  6
CONTINUOUS
 62
    30
 10
318.0000000000205
 20
-300.0
 30
0.0
 11
323.0000000000205
 21
-300.0
 31
0.0
  0
CIRCLE
  5
10D
  8
SIZE
  6
CONTINUOUS
 62
    30
 10
369.9999999999981
 20
-300.0
 30
0.0
 40
5.0
  0
LINE
  5
10E
  8
SIZE
  6
CONTINUOUS
 62
    30
 10
364.9999999999981
 20
-300.0
 30
0.0
 11
359.9999999999981
 21
-300.0
 31
0.0
  0
TEXT
  5
10F
  8
SIZE
  6
CONTINUOUS
 62
    30
 10
387.9285714285696
 20
-285.0
 30
0.0
 40
55.0
  1
57
 41
0.9
 72
     1
 11
435.0714285714267
 21
-285.0
 31
0.0
  0
POINT
  5
110
  8
DEFPOINTS
  6
CONTINUOUS
 62
     7
 10
313.0000000000205
 20
2.201158751413914
 30
0.0
  0
POINT
  5
111
  8
DEFPOINTS
  6
CONTINUOUS
 62
     7
 10
369.9999999999981
 20
0.0
 30
0.0
  0
POINT
  5
112
  8
DEFPOINTS
  6
CONTINUOUS
 62
     7
 10
369.9999999999981
 20
-300.0
 30
0.0
  0
LINE
  5
113
  8
SIZE
  6
CONTINUOUS
 62
    30
 10
292.9999999999982
 20
-6.49552300587402
 30
0.0
 11
292.9999999999982
 21
-315.0
 31
0.0
  0
LINE
  5
114
  8
SIZE
  6
CONTINUOUS
 62
    30
 10
312.9999999999981
 20
-12.79884124858609
 30
0.0
 11
312.9999999999981
 21
-315.0
 31
0.0
  0
LINE
  5
115
  8
SIZE
  6
CONTINUOUS
 62
    30
 10
282.9999999999981
 20
-300.0
 30
0.0
 11
272.9999999999981
 21
-300.0
 31
0.0
  0
LINE
  5
116
  8
SIZE
  6
CONTINUOUS
 62
    30
 10
322.9999999999981
 20
-300.0
 30
0.0
 11
332.9999999999981
 21
-300.0
 31
0.0
  0
LINE
  5
117
  8
SIZE
  6
CONTINUOUS
 62
    30
 10
302.9999999999981
 20
-300.0
 30
0.0
 11
226.8216872720793
 21
-200.0
 31
0.0
  0
LINE
  5
118
  8
SIZE
  6
CONTINUOUS
 62
    30
 10
226.8216872720793
 20
-200.0
 30
0.0
 11
116.6788301292224
 21
-200.0
 31
0.0
  0
TEXT
  5
119
  8
SIZE
  6
CONTINUOUS
 62
    30
 10
124.6074015577937
 20
-185.0000000000011
 30
0.0
 40
55.0
  1
20
 41
0.9
 72
     1
 11
171.7502587006508
 21
-185.0000000000011
 31
0.0
  0
LINE
  5
11A
  8
SIZE
  6
CONTINUOUS
 62
    30
 10
292.9999999999982
 20
-300.0
 30
0.0
 11
312.9999999999981
 21
-300.0
 31
0.0
  0
LINE
  5
11B
  8
SIZE
  6
CONTINUOUS
 62
    30
 10
292.9999999999982
 20
-300.0
 30
0.0
 11
312.9999999999981
 21
-300.0
 31
0.0
  0
CIRCLE
  5
11C
  8
SIZE
  6
CONTINUOUS
 62
    30
 10
292.9999999999982
 20
-300.0
 30
0.0
 40
5.0
  0
LINE
  5
11D
  8
SIZE
  6
CONTINUOUS
 62
    30
 10
287.9999999999981
 20
-300.0
 30
0.0
 11
282.9999999999981
 21
-300.0
 31
0.0
  0
CIRCLE
  5
11E
  8
SIZE
  6
CONTINUOUS
 62
    30
 10
312.9999999999981
 20
-300.0
 30
0.0
 40
5.0
  0
LINE
  5
11F
  8
SIZE
  6
CONTINUOUS
 62
    30
 10
317.9999999999981
 20
-300.0
 30
0.0
 11
322.9999999999981
 21
-300.0
 31
0.0
  0
POINT
  5
120
  8
DEFPOINTS
  6
CONTINUOUS
 62
     7
 10
292.9999999999982
 20
8.50447699412689
 30
0.0
  0
POINT
  5
121
  8
DEFPOINTS
  6
CONTINUOUS
 62
     7
 10
312.9999999999981
 20
2.201158751413914
 30
0.0
  0
POINT
  5
122
  8
DEFPOINTS
  6
CONTINUOUS
 62
     7
 10
312.9999999999981
 20
-300.0
 30
0.0
  0
LINE
  5
123
  8
OUTLINE
  6
CONTINUOUS
 62
     3
 10
318.6677435178349
 20
3.501843468152856
 30
0.0
 11
298.8030548900733
 21
3.501843468152856
 31
0.0
  0
LINE
  5
124
  8
DETAIL
  6
CONTINUOUS
 62
     5
 10
318.6677435178349
 20
3.501843468152856
 30
0.0
 11
298.8030548900733
 21
3.501843468152856
 31
0.0
  0
POINT
  5
131
  8
DEFPOINTS
  6
CONTINUOUS
 62
     7
 10
-370.0000000000018
 20
0.0
 30
0.0
  0
CIRCLE
  5
135
  8
FIX
  6
CONTINUOUS
 62
    11
 10
-340.5000000000009
 20
0.0
 30
0.0
 40
18.598564
  0
LINE
  5
136
  8
SIZE
  6
CONTINUOUS
 62
    30
 10
-370.0000000000018
 20
-15.0
 30
0.0
 11
-370.0000000000018
 21
-315.0
 31
0.0
  0
LINE
  5
137
  8
SIZE
  6
CONTINUOUS
 62
    30
 10
-313.0000000000236
 20
-12.79884124858609
 30
0.0
 11
-313.0000000000236
 21
-315.0
 31
0.0
  0
LINE
  5
138
  8
SIZE
  6
CONTINUOUS
 62
    30
 10
-323.0000000000236
 20
-300.0
 30
0.0
 11
-360.0000000000018
 21
-300.0
 31
0.0
  0
LINE
  5
139
  8
SIZE
  6
CONTINUOUS
 62
    30
 10
-370.0000000000018
 20
-300.0
 30
0.0
 11
-490.1428571428591
 21
-300.0
 31
0.0
  0
CIRCLE
  5
13A
  8
SIZE
  6
CONTINUOUS
 62
    30
 10
-313.0000000000236
 20
-300.0
 30
0.0
 40
5.0
  0
LINE
  5
13B
  8
SIZE
  6
CONTINUOUS
 62
    30
 10
-318.0000000000236
 20
-300.0
 30
0.0
 11
-323.0000000000236
 21
-300.0
 31
0.0
  0
CIRCLE
  5
13C
  8
SIZE
  6
CONTINUOUS
 62
    30
 10
-370.0000000000018
 20
-300.0
 30
0.0
 40
5.0
  0
LINE
  5
13D
  8
SIZE
  6
CONTINUOUS
 62
    30
 10
-365.0000000000018
 20
-300.0
 30
0.0
 11
-360.0000000000018
 21
-300.0
 31
0.0
  0
TEXT
  5
13E
  8
SIZE
  6
CONTINUOUS
 62
    30
 10
-482.2142857142875
 20
-285.0
 30
0.0
 40
55.0
  1
57
 41
0.9
 72
     1
 11
-435.0714285714304
 21
-285.0
 31
0.0
  0
POINT
  5
13F
  8
DEFPOINTS
  6
CONTINUOUS
 62
     7
 10
-370.0000000000018
 20
0.0
 30
0.0
  0
POINT
  5
140
  8
DEFPOINTS
  6
CONTINUOUS
 62
     7
 10
-313.0000000000236
 20
2.201158751413914
 30
0.0
  0
POINT
  5
141
  8
DEFPOINTS
  6
CONTINUOUS
 62
     7
 10
-313.0000000000236
 20
-300.0
 30
0.0
  0
LINE
  5
142
  8
OUTLINE
  6
CONTINUOUS
 62
     3
 10
-318.667743517839
 20
3.501843468152856
 30
0.0
 11
-361.8207074468291
 21
54.0
 31
0.0
  0
LINE
  5
143
  8
OUTLINE
  6
CONTINUOUS
 62
     3
 10
-370.0000000000018
 20
0.0
 30
0.0
 11
-315.2011587513989
 21
-0.0000000000070486
 31
0.0
  0
LINE
  5
144
  8
OUTLINE
  6
CONTINUOUS
 62
     3
 10
-315.2011587514326
 20
2.00105341037488
 30
0.0
 11
-370.0000000000018
 21
2.001053410394888
 31
0.0
  0
LINE
  5
145
  8
DETAIL
  6
CONTINUOUS
 62
     5
 10
-318.667743517839
 20
3.501843468152856
 30
0.0
 11
-366.0055972349
 21
58.89721215753002
 31
0.0
  0
LINE
  5
146
  8
DETAIL
  6
CONTINUOUS
 62
     5
 10
-370.0000000000018
 20
0.0
 30
0.0
 11
-315.2011587513971
 21
-0.0000000000070486
 31
0.0
  0
LINE
  5
147
  8
DETAIL
  6
CONTINUOUS
 62
     5
 10
-315.2011587514326
 20
2.00105341037488
 30
0.0
 11
-370.0000000000018
 21
2.001053410394888
 31
0.0
  0
LINE
  5
148
  8
DETAIL
  6
CONTINUOUS
 62
     5
 10
-361.8207074468291
 20
54.0
 30
0.0
 11
-366.0055972349
 21
54.0
 31
0.0
  0
LINE
  5
149
  8
OUTLINE
  6
CONTINUOUS
 62
     3
 10
-370.0000000000018
 20
2.001053410394888
 30
0.0
 11
-370.0000000000018
 21
0.0
 31
0.0
  0
LINE
  5
14A
  8
DETAIL
  6
CONTINUOUS
 62
     5
 10
-370.0000000000018
 20
2.001053410394888
 30
0.0
 11
-370.0000000000018
 21
0.0
 31
0.0
  0
LINE
  5
14C
  8
ARRANGE
  6
CONTINUOUS
 62
     1
 10
-37.89732099999949
 20
-37.89732100000015
 30
0.0
 11
37.89732099999952
 21
37.89732100000083
 31
0.0
  0
LINE
  5
14D
  8
ARRANGE
  6
CONTINUOUS
 62
     1
 10
-37.89732099999949
 20
37.89732100000083
 30
0.0
 11
37.89732099999952
 21
-37.89732100000015
 31
0.0
  0
CIRCLE
  5
14E
  8
ARRANGE
  6
CONTINUOUS
 62
     1
 10
-0.0000000000008811
 20
0.0
 30
0.0
 40
34.449674
  0
LINE
  5
14F
  8
SIZE
  6
CONTINUOUS
 62
    30
 10
-293.0000000000018
 20
-6.49552300587402
 30
0.0
 11
-293.0000000000018
 21
-315.0
 31
0.0
  0
LINE
  5
150
  8
SIZE
  6
CONTINUOUS
 62
    30
 10
292.9999999999982
 20
-6.49552300587402
 30
0.0
 11
292.9999999999982
 21
-315.0
 31
0.0
  0
LINE
  5
151
  8
SIZE
  6
CONTINUOUS
 62
    30
 10
-283.0000000000018
 20
-300.0
 30
0.0
 11
282.9999999999981
 21
-300.0
 31
0.0
  0
CIRCLE
  5
152
  8
SIZE
  6
CONTINUOUS
 62
    30
 10
-293.0000000000018
 20
-300.0
 30
0.0
 40
5.0
  0
LINE
  5
153
  8
SIZE
  6
CONTINUOUS
 62
    30
 10
-288.0000000000018
 20
-300.0
 30
0.0
 11
-283.0000000000018
 21
-300.0
 31
0.0
  0
CIRCLE
  5
154
  8
SIZE
  6
CONTINUOUS
 62
    30
 10
292.9999999999982
 20
-300.0
 30
0.0
 40
5.0
  0
LINE
  5
155
  8
SIZE
  6
CONTINUOUS
 62
    30
 10
287.9999999999981
 20
-300.0
 30
0.0
 11
282.9999999999981
 21
-300.0
 31
0.0
  0
TEXT
  5
156
  8
SIZE
  6
CONTINUOUS
 62
    30
 10
-70.71428571428751
 20
-285.0
 30
0.0
 40
55.0
  1
586
 41
0.9
 72
     1
 11
-0.0000000000017906
 21
-285.0
 31
0.0
  0
POINT
  5
157
  8
DEFPOINTS
  6
CONTINUOUS
 62
     7
 10
-293.0000000000018
 20
8.50447699412689
 30
0.0
  0
POINT
  5
158
  8
DEFPOINTS
  6
CONTINUOUS
 62
     7
 10
292.9999999999982
 20
8.50447699412689
 30
0.0
  0
POINT
  5
159
  8
DEFPOINTS
  6
CONTINUOUS
 62
     7
 10
292.9999999999982
 20
-300.0
 30
0.0
  0
LINE
  5
15A
  8
OUTLINE
  6
CONTINUOUS
 62
     3
 10
288.7977878381876
 20
45.52396508618585
 30
0.0
 11
-288.7977878381917
 21
45.52396508617903
 31
0.0
  0
LINE
  5
15B
  8
DETAIL
  6
CONTINUOUS
 62
     5
 10
288.7977878381876
 20
45.52396508618585
 30
0.0
 11
-288.7977878381917
 21
45.5239650861779
 31
0.0
  0
LINE
  5
15C
  8
SIZE
  6
CONTINUOUS
 62
    30
 10
-313.0000000000018
 20
-12.79884124858609
 30
0.0
 11
-313.0000000000018
 21
-315.0
 31
0.0
  0
LINE
  5
15D
  8
SIZE
  6
CONTINUOUS
 62
    30
 10
-293.0000000000018
 20
-6.49552300587402
 30
0.0
 11
-293.0000000000018
 21
-315.0
 31
0.0
  0
LINE
  5
15E
  8
SIZE
  6
CONTINUOUS
 62
    30
 10
-323.0000000000018
 20
-300.0
 30
0.0
 11
-333.0000000000018
 21
-300.0
 31
0.0
  0
LINE
  5
15F
  8
SIZE
  6
CONTINUOUS
 62
    30
 10
-283.0000000000018
 20
-300.0
 30
0.0
 11
-273.0000000000018
 21
-300.0
 31
0.0
  0
LINE
  5
160
  8
SIZE
  6
CONTINUOUS
 62
    30
 10
-303.0000000000018
 20
-300.0
 30
0.0
 11
-269.8483480262094
 21
-200.0
 31
0.0
  0
LINE
  5
161
  8
SIZE
  6
CONTINUOUS
 62
    30
 10
-269.8483480262094
 20
-200.0
 30
0.0
 11
-159.7054908833522
 21
-200.0
 31
0.0
  0
TEXT
  5
162
  8
SIZE
  6
CONTINUOUS
 62
    30
 10
-261.919776597638
 20
-185.0000000000011
 30
0.0
 40
55.0
  1
20
 41
0.9
 72
     1
 11
-214.7769194547808
 21
-185.0000000000011
 31
0.0
  0
LINE
  5
163
  8
SIZE
  6
CONTINUOUS
 62
    30
 10
-313.0000000000018
 20
-300.0
 30
0.0
 11
-293.0000000000018
 21
-300.0
 31
0.0
  0
LINE
  5
164
  8
SIZE
  6
CONTINUOUS
 62
    30
 10
-313.0000000000018
 20
-300.0
 30
0.0
 11
-293.0000000000018
 21
-300.0
 31
0.0
  0
CIRCLE
  5
165
  8
SIZE
  6
CONTINUOUS
 62
    30
 10
-313.0000000000018
 20
-300.0
 30
0.0
 40
5.0
  0
LINE
  5
166
  8
SIZE
  6
CONTINUOUS
 62
    30
 10
-318.0000000000018
 20
-300.0
 30
0.0
 11
-323.0000000000018
 21
-300.0
 31
0.0
  0
CIRCLE
  5
167
  8
SIZE
  6
CONTINUOUS
 62
    30
 10
-293.0000000000018
 20
-300.0
 30
0.0
 40
5.0
  0
LINE
  5
168
  8
SIZE
  6
CONTINUOUS
 62
    30
 10
-288.0000000000018
 20
-300.0
 30
0.0
 11
-283.0000000000018
 21
-300.0
 31
0.0
  0
POINT
  5
169
  8
DEFPOINTS
  6
CONTINUOUS
 62
     7
 10
-313.0000000000018
 20
2.201158751413914
 30
0.0
  0
POINT
  5
16A
  8
DEFPOINTS
  6
CONTINUOUS
 62
     7
 10
-293.0000000000018
 20
8.50447699412689
 30
0.0
  0
POINT
  5
16B
  8
DEFPOINTS
  6
CONTINUOUS
 62
     7
 10
-293.0000000000018
 20
-300.0
 30
0.0
  0
LINE
  5
16C
  8
NOTE
  6
CONTINUOUS
 62
     4
 10
-340.5000000000009
 20
19.99999999999886
 30
0.0
 11
-340.5000000000009
 21
-20.0
 31
0.0
  0
ARC
  5
16D
  8
OUTLINE
  6
CONTINUOUS
 62
     3
 10
-315.2011587514444
 20
2.201158751413914
 30
0.0
 40
2.201158751420356
 50
270.0
 51
0.0
  0
ARC
  5
16E
  8
OUTLINE
  6
CONTINUOUS
 62
     3
 10
-315.2011587514444
 20
2.201158751413914
 30
0.0
 40
0.2001053410382142
 50
270.0
 51
0.0
  0
LINE
  5
16F
  8
OUTLINE
  6
CONTINUOUS
 62
     3
 10
-313.0000000000018
 20
2.201158751413914
 30
0.0
 11
-313.0000000000018
 21
3.501843468152856
 31
0.0
  0
LINE
  5
170
  8
OUTLINE
  6
CONTINUOUS
 62
     3
 10
-315.0010534104276
 20
2.201158751413914
 30
0.0
 11
-315.0010534104276
 21
3.501843468152856
 31
0.0
  0
ARC
  5
171
  8
OUTLINE
  6
CONTINUOUS
 62
     3
 10
-298.803054890077
 20
8.50447699412689
 30
0.0
 40
5.002633525955355
 50
270.0
 51
0.0
  0
LINE
  5
172
  8
OUTLINE
  6
CONTINUOUS
 62
     3
 10
-318.667743517839
 20
3.501843468152856
 30
0.0
 11
-298.803054890077
 21
3.501843468152856
 31
0.0
  0
LINE
  5
173
  8
OUTLINE
  6
CONTINUOUS
 62
     3
 10
-293.8004213641343
 20
8.50447699412689
 30
0.0
 11
-293.0000000000018
 21
8.50447699412689
 31
0.0
  0
LINE
  5
174
  8
OUTLINE
  6
CONTINUOUS
 62
     3
 10
-293.0000000000018
 20
8.50447699412689
 30
0.0
 11
-293.0000000000018
 21
41.32175292437591
 31
0.0
  0
ARC
  5
175
  8
OUTLINE
  6
CONTINUOUS
 62
     3
 10
-288.7977878381917
 20
41.32175292437591
 30
0.0
 40
4.202212161802497
 50
90.0
 51
180.0
  0
ARC
  5
176
  8
DETAIL
  6
CONTINUOUS
 62
     5
 10
-315.2011587514444
 20
2.201158751413914
 30
0.0
 40
2.201158751420356
 50
270.0
 51
0.0
  0
ARC
  5
177
  8
DETAIL
  6
CONTINUOUS
 62
     5
 10
-315.2011587514444
 20
2.201158751413914
 30
0.0
 40
0.2001053410382142
 50
270.0
 51
0.0
  0
LINE
  5
178
  8
DETAIL
  6
CONTINUOUS
 62
     5
 10
-329.71520462226
 20
2.001053410394888
 30
0.0
 11
-323.0667046662693
 21
8.649553366386044
 31
0.0
  0
LINE
  5
179
  8
DETAIL
  6
CONTINUOUS
 62
     5
 10
-313.0000000000018
 20
2.201158751413914
 30
0.0
 11
-313.0000000000018
 21
3.501843468152856
 31
0.0
  0
LINE
  5
17A
  8
DETAIL
  6
CONTINUOUS
 62
     5
 10
-315.0010534104276
 20
2.201158751413914
 30
0.0
 11
-315.0010534104276
 21
3.501843468152856
 31
0.0
  0
ARC
  5
17B
  8
DETAIL
  6
CONTINUOUS
 62
     5
 10
-298.803054890077
 20
8.50447699412689
 30
0.0
 40
5.002633525955355
 50
270.0
 51
0.0
  0
LINE
  5
17C
  8
DETAIL
  6
CONTINUOUS
 62
     5
 10
-318.667743517839
 20
3.501843468152856
 30
0.0
 11
-298.803054890077
 21
3.501843468152856
 31
0.0
  0
LINE
  5
17D
  8
DETAIL
  6
CONTINUOUS
 62
     5
 10
-293.8004213641343
 20
8.50447699412689
 30
0.0
 11
-293.0000000000018
 21
8.50447699412689
 31
0.0
  0
LINE
  5
17E
  8
DETAIL
  6
CONTINUOUS
 62
     5
 10
-293.0000000000018
 20
8.50447699412689
 30
0.0
 11
-293.0000000000018
 21
41.32175292437591
 31
0.0
  0
ARC
  5
17F
  8
DETAIL
  6
CONTINUOUS
 62
     5
 10
-288.7977878381917
 20
41.32175292437591
 30
0.0
 40
4.202212161802497
 50
90.0
 51
180.0
  0
ARC
  5
180
  8
OUTLINE
  6
CONTINUOUS
 62
     3
 10
298.8030548900733
 20
8.50447699412689
 30
0.0
 40
5.002633525955355
 50
180.0
 51
270.0
  0
LINE
  5
181
  8
OUTLINE
  6
CONTINUOUS
 62
     3
 10
293.8004213641306
 20
8.50447699412689
 30
0.0
 11
292.9999999999982
 21
8.50447699412689
 31
0.0
  0
LINE
  5
182
  8
OUTLINE
  6
CONTINUOUS
 62
     3
 10
292.9999999999982
 20
8.50447699412689
 30
0.0
 11
292.9999999999982
 21
41.32175292437591
 31
0.0
  0
ARC
  5
183
  8
OUTLINE
  6
CONTINUOUS
 62
     3
 10
288.7977878381876
 20
41.32175292437591
 30
0.0
 40
4.202212161802497
 50
0.0
 51
90.0
  0
ARC
  5
184
  8
DETAIL
  6
CONTINUOUS
 62
     5
 10
298.8030548900733
 20
8.50447699412689
 30
0.0
 40
5.002633525955355
 50
180.0
 51
270.0
  0
LINE
  5
185
  8
DETAIL
  6
CONTINUOUS
 62
     5
 10
293.8004213641306
 20
8.50447699412689
 30
0.0
 11
292.9999999999982
 21
8.50447699412689
 31
0.0
  0
LINE
  5
186
  8
DETAIL
  6
CONTINUOUS
 62
     5
 10
292.9999999999982
 20
8.50447699412689
 30
0.0
 11
292.9999999999982
 21
41.32175292437591
 31
0.0
  0
ARC
  5
187
  8
DETAIL
  6
CONTINUOUS
 62
     5
 10
288.7977878381876
 20
41.32175292437591
 30
0.0
 40
4.202212161802497
 50
0.0
 51
90.0
  0
POINT
  5
193
  8
DEFPOINTS
  6
CONTINUOUS
 62
     7
 10
369.9999999999981
 20
0.0
 30
0.0
  0
LINE
  5
195
  8
DETAIL
  6
CONTINUOUS
 62
     5
 10
361.8207074468272
 20
54.0
 30
0.0
 11
366.0055972348982
 21
54.0
 31
0.0
  0
CIRCLE
  5
198
  8
FIX
  6
CONTINUOUS
 62
    11
 10
340.4999999999989
 20
-0.0000000000040927
 30
0.0
 40
18.598564
  0
LINE
  5
199
  8
OUTLINE
  6
CONTINUOUS
 62
     3
 10
369.9999999999981
 20
2.001053410394888
 30
0.0
 11
369.9999999999981
 21
0.0
 31
0.0
  0
ARC
  5
19A
  8
OUTLINE
  6
CONTINUOUS
 62
     3
 10
315.2011587514407
 20
2.201158751413914
 30
0.0
 40
2.201158751420356
 50
180.0
 51
270.0
  0
ARC
  5
19B
  8
OUTLINE
  6
CONTINUOUS
 62
     3
 10
315.2011587514407
 20
2.201158751413914
 30
0.0
 40
0.2001053410382142
 50
180.0
 51
270.0
  0
LINE
  5
19C
  8
OUTLINE
  6
CONTINUOUS
 62
     3
 10
312.9999999999981
 20
2.201158751413914
 30
0.0
 11
312.9999999999981
 21
3.501843468152856
 31
0.0
  0
LINE
  5
19D
  8
OUTLINE
  6
CONTINUOUS
 62
     3
 10
315.001053410424
 20
2.201158751413914
 30
0.0
 11
315.001053410424
 21
3.501843468152856
 31
0.0
  0
LINE
  5
19E
  8
OUTLINE
  6
CONTINUOUS
 62
     3
 10
318.6677435178349
 20
3.501843468152856
 30
0.0
 11
361.820707446826
 21
54.0
 31
0.0
  0
LINE
  5
19F
  8
OUTLINE
  6
CONTINUOUS
 62
     3
 10
369.9999999999981
 20
0.0
 30
0.0
 11
315.2011587513953
 21
-0.0000000000070486
 31
0.0
  0
LINE
  5
1A0
  8
OUTLINE
  6
CONTINUOUS
 62
     3
 10
315.2011587514287
 20
2.00105341037488
 30
0.0
 11
369.9999999999981
 21
2.001053410394888
 31
0.0
  0
LINE
  5
1A1
  8
DETAIL
  6
CONTINUOUS
 62
     5
 10
369.9999999999981
 20
2.001053410394888
 30
0.0
 11
369.9999999999981
 21
0.0
 31
0.0
  0
ARC
  5
1A2
  8
DETAIL
  6
CONTINUOUS
 62
     5
 10
315.2011587514407
 20
2.201158751413914
 30
0.0
 40
2.201158751420356
 50
180.0
 51
270.0
  0
ARC
  5
1A3
  8
DETAIL
  6
CONTINUOUS
 62
     5
 10
315.2011587514407
 20
2.201158751413914
 30
0.0
 40
0.2001053410382142
 50
180.0
 51
270.0
  0
LINE
  5
1A4
  8
DETAIL
  6
CONTINUOUS
 62
     5
 10
329.7152046222564
 20
2.001053410394888
 30
0.0
 11
323.0667046662652
 21
8.649553366386044
 31
0.0
  0
LINE
  5
1A5
  8
DETAIL
  6
CONTINUOUS
 62
     5
 10
312.9999999999981
 20
2.201158751413914
 30
0.0
 11
312.9999999999981
 21
3.501843468152856
 31
0.0
  0
LINE
  5
1A6
  8
DETAIL
  6
CONTINUOUS
 62
     5
 10
315.001053410424
 20
2.201158751413914
 30
0.0
 11
315.001053410424
 21
3.501843468152856
 31
0.0
  0
LINE
  5
1A7
  8
DETAIL
  6
CONTINUOUS
 62
     5
 10
318.6677435178349
 20
3.501843468152856
 30
0.0
 11
366.0055972348963
 21
58.89721215753002
 31
0.0
  0
LINE
  5
1A8
  8
DETAIL
  6
CONTINUOUS
 62
     5
 10
369.9999999999981
 20
0.0
 30
0.0
 11
315.2011587513953
 21
-0.0000000000070486
 31
0.0
  0
LINE
  5
1A9
  8
DETAIL
  6
CONTINUOUS
 62
     5
 10
315.2011587514287
 20
2.00105341037488
 30
0.0
 11
369.9999999999981
 21
2.001053410394888
 31
0.0
  0
LINE
  5
1B8
  8
OUTLINE
  6
CONTINUOUS
 62
     3
 10
367.7238184211291
 20
1347.000000000001
 30
0.0
 11
-367.7238350965835
 21
1347.000000000001
 31
0.0
  0
LINE
  5
1B9
  8
OUTLINE
  6
CONTINUOUS
 62
     3
 10
-357.7011755554686
 20
1650.000000000001
 30
0.0
 11
357.7012255818177
 21
1650.000000000001
 31
0.0
  0
LINE
  5
1BA
  8
DETAIL
  6
CONTINUOUS
 62
     5
 10
369.9999999999981
 20
1313.482355376127
 30
0.0
 11
-370.0000000000018
 21
1313.482355376127
 31
0.0
  0
LINE
  5
1BB
  8
DETAIL
  6
CONTINUOUS
 62
     5
 10
367.7238184211291
 20
1347.000000000001
 30
0.0
 11
-367.7238350965835
 21
1347.000000000001
 31
0.0
  0
LINE
  5
1BC
  8
DETAIL
  6
CONTINUOUS
 62
     5
 10
362.7038591077617
 20
1609.238049430591
 30
0.0
 11
-362.703809081413
 21
1609.238049430591
 31
0.0
  0
LINE
  5
1BD
  8
DETAIL
  6
CONTINUOUS
 62
     5
 10
-357.7011755554686
 20
1650.000000000001
 30
0.0
 11
357.7012255818177
 21
1650.000000000001
 31
0.0
  0
LINE
  5
1BE
  8
DETAIL
  6
CONTINUOUS
 62
     5
 10
359.7038591077616
 20
1628.488675838378
 30
0.0
 11
-360.2024923184108
 21
1628.488675838384
 31
0.0
  0
LINE
  5
1D9
  8
DETAIL
  6
CONTINUOUS
 62
     5
 10
-297.7295331385176
 20
1026.040136173453
 30
0.0
 11
-297.7295331385176
 21
832.9384820715788
 31
0.0
  0
LINE
  5
1DA
  8
DETAIL
  6
CONTINUOUS
 62
     5
 10
-178.6668552207302
 20
832.9384820715788
 30
0.0
 11
-178.6668552207302
 21
1026.040136173453
 31
0.0
  0
LINE
  5
1DB
  8
DETAIL
  6
CONTINUOUS
 62
     5
 10
-166.6605347584773
 20
1026.040136173453
 30
0.0
 11
-166.6605347584773
 21
832.9384820715788
 31
0.0
  0
LINE
  5
1DC
  8
DETAIL
  6
CONTINUOUS
 62
     5
 10
-47.59785684074998
 20
832.9384820715788
 30
0.0
 11
-47.59785684074998
 21
1026.040136173453
 31
0.0
  0
LINE
  5
1DD
  8
DETAIL
  6
CONTINUOUS
 62
     5
 10
-35.59153637843698
 20
1026.040136173453
 30
0.0
 11
-35.59153637843698
 21
832.9384820715788
 31
0.0
  0
LINE
  5
1DE
  8
DETAIL
  6
CONTINUOUS
 62
     5
 10
83.47114153928993
 20
832.9384820715788
 30
0.0
 11
83.47114153928993
 21
1026.040136173453
 31
0.0
  0
LINE
  5
1DF
  8
DETAIL
  6
CONTINUOUS
 62
     5
 10
95.75040568678679
 20
1040.047510046132
 30
0.0
 11
95.75040568678679
 21
818.9311081989019
 31
0.0
  0
LINE
  5
1E0
  8
DETAIL
  6
CONTINUOUS
 62
     5
 10
132.5958354830432
 20
823.933741724845
 30
0.0
 11
132.5958354830432
 21
1035.044876520157
 31
0.0
  0
LINE
  5
1E1
  8
DETAIL
  6
CONTINUOUS
 62
     5
 10
150.7793744722835
 20
818.9311081989019
 30
0.0
 11
150.7793744722835
 21
1040.047510046132
 31
0.0
  0
LINE
  5
1E9
  8
DETAIL
  6
CONTINUOUS
 62
     5
 10
83.47114153928993
 20
346.682503348721
 30
0.0
 11
83.47114153928993
 21
539.7841574505971
 31
0.0
  0
LINE
  5
1EA
  8
DETAIL
  6
CONTINUOUS
 62
     5
 10
95.75040568678679
 20
553.7915313232431
 30
0.0
 11
95.75040568678679
 21
332.6751294760418
 31
0.0
  0
LINE
  5
1EB
  8
DETAIL
  6
CONTINUOUS
 62
     5
 10
132.5958354830432
 20
337.6777630019858
 30
0.0
 11
132.5958354830432
 21
548.7888977973
 31
0.0
  0
LINE
  5
1EC
  8
DETAIL
  6
CONTINUOUS
 62
     5
 10
150.7793744722835
 20
332.6751294760418
 30
0.0
 11
150.7793744722835
 21
553.7915313232431
 31
0.0
  0
LINE
  5
1ED
  8
DETAIL
  6
CONTINUOUS
 62
     5
 10
-47.59785684074998
 20
346.682503348721
 30
0.0
 11
-47.59785684074998
 21
539.7841574505971
 31
0.0
  0
LINE
  5
1EE
  8
DETAIL
  6
CONTINUOUS
 62
     5
 10
-35.59153637843698
 20
539.7841574505971
 30
0.0
 11
-35.59153637843698
 21
346.682503348721
 31
0.0
  0
LINE
  5
1EF
  8
DETAIL
  6
CONTINUOUS
 62
     5
 10
-297.7295331385176
 20
539.7841574505971
 30
0.0
 11
-297.7295331385176
 21
346.682503348721
 31
0.0
  0
LINE
  5
1F0
  8
DETAIL
  6
CONTINUOUS
 62
     5
 10
-178.6668552207302
 20
346.682503348721
 30
0.0
 11
-178.6668552207302
 21
539.7841574505971
 31
0.0
  0
LINE
  5
1F1
  8
DETAIL
  6
CONTINUOUS
 62
     5
 10
-166.6605347584773
 20
539.7841574505971
 30
0.0
 11
-166.6605347584773
 21
346.682503348721
 31
0.0
  0
ARC
  5
1F2
  8
DETAIL
  6
CONTINUOUS
 62
     5
 10
-15.5810022746046
 20
346.682503348721
 30
0.0
 40
20.01053410382143
 50
180.0
 51
270.0
  0
ARC
  5
1F3
  8
DETAIL
  6
CONTINUOUS
 62
     5
 10
-198.6773893245627
 20
346.682503348721
 30
0.0
 40
20.01053410382143
 50
270.0
 51
0.0
  0
LINE
  5
1F4
  8
DETAIL
  6
CONTINUOUS
 62
     5
 10
-277.7189990346851
 20
326.6719692448858
 30
0.0
 11
-198.6773893245627
 21
326.6719692448858
 31
0.0
  0
ARC
  5
1F5
  8
DETAIL
  6
CONTINUOUS
 62
     5
 10
-277.7189990346851
 20
346.682503348721
 30
0.0
 40
20.01053410382143
 50
180.0
 51
270.0
  0
LINE
  5
1F6
  8
DETAIL
  6
CONTINUOUS
 62
     5
 10
-146.6500006546448
 20
326.6719692448858
 30
0.0
 11
-67.6083909445224
 21
326.6719692448858
 31
0.0
  0
ARC
  5
1F7
  8
DETAIL
  6
CONTINUOUS
 62
     5
 10
-146.6500006546448
 20
346.682503348721
 30
0.0
 40
20.01053410382143
 50
180.0
 51
270.0
  0
ARC
  5
1F8
  8
DETAIL
  6
CONTINUOUS
 62
     5
 10
-67.6083909445224
 20
346.682503348721
 30
0.0
 40
20.01053410382143
 50
270.0
 51
0.0
  0
LINE
  5
1FD
  8
DETAIL
  6
CONTINUOUS
 62
     5
 10
151.5797831111276
 20
332.6746640833169
 30
0.0
 11
137.5916026757504
 21
332.6746640833169
 31
0.0
  0
ARC
  5
1FE
  8
DETAIL
  6
CONTINUOUS
 62
     5
 10
146.5771623104733
 20
331.6746027708311
 30
0.0
 40
5.002633525955355
 50
270.0
 51
0.0
  0
ARC
  5
1FF
  8
DETAIL
  6
CONTINUOUS
 62
     5
 10
63.46060743551743
 20
346.682503348721
 30
0.0
 40
20.01053410382143
 50
270.0
 51
0.0
  0
LINE
  5
200
  8
DETAIL
  6
CONTINUOUS
 62
     5
 10
-15.5810022746046
 20
326.6719692448858
 30
0.0
 11
63.46060743551743
 21
326.6719692448858
 31
0.0
  0
ARC
  5
201
  8
DETAIL
  6
CONTINUOUS
 62
     5
 10
99.95261784859531
 20
331.6746027708311
 30
0.0
 40
5.002633525955355
 50
180.0
 51
270.0
  0
LINE
  5
202
  8
DETAIL
  6
CONTINUOUS
 62
     5
 10
94.94998432265248
 20
332.6751294760418
 30
0.0
 11
95.75040568678679
 21
332.6751294760418
 31
0.0
  0
LINE
  5
203
  8
DETAIL
  6
CONTINUOUS
 62
     5
 10
94.94998432265248
 20
332.6751294760418
 30
0.0
 11
94.94998432265248
 21
331.6746027708311
 31
0.0
  0
LINE
  5
204
  8
DETAIL
  6
CONTINUOUS
 62
     5
 10
99.95261784859531
 20
326.6719692448858
 30
0.0
 11
146.5771623104733
 21
326.6719692448858
 31
0.0
  0
ARC
  5
205
  8
DETAIL
  6
CONTINUOUS
 62
     5
 10
137.5955007797871
 20
337.6738776232689
 30
0.0
 40
4.999215059712613
 50
179.9553779999658
 51
269.9553239999966
  0
LINE
  5
206
  8
DETAIL
  6
CONTINUOUS
 62
     5
 10
151.5797958364178
 20
331.6746027708311
 30
0.0
 11
151.5797958364178
 21
332.6751294760418
 31
0.0
  0
ARC
  5
207
  8
DETAIL
  6
CONTINUOUS
 62
     5
 10
-15.5810022746046
 20
539.7841574505971
 30
0.0
 40
20.01053410382143
 50
90.0
 51
180.0
  0
ARC
  5
208
  8
DETAIL
  6
CONTINUOUS
 62
     5
 10
-15.5810022746046
 20
589.8104927101501
 30
0.0
 40
20.01053410382143
 50
180.0
 51
270.0
  0
ARC
  5
209
  8
DETAIL
  6
CONTINUOUS
 62
     5
 10
-15.5810022746046
 20
832.9384820715788
 30
0.0
 40
20.01053410382143
 50
180.0
 51
270.0
  0
ARC
  5
20A
  8
DETAIL
  6
CONTINUOUS
 62
     5
 10
-15.5810022746046
 20
782.912146812025
 30
0.0
 40
20.01053410382143
 50
90.0
 51
180.0
  0
LINE
  5
20B
  8
DETAIL
  6
CONTINUOUS
 62
     5
 10
-297.7295331385176
 20
782.912146812025
 30
0.0
 11
-297.7295331385176
 21
589.8104927101501
 31
0.0
  0
LINE
  5
20C
  8
DETAIL
  6
CONTINUOUS
 62
     5
 10
-178.6668552207302
 20
589.8104927101501
 30
0.0
 11
-178.6668552207302
 21
782.912146812025
 31
0.0
  0
LINE
  5
20D
  8
DETAIL
  6
CONTINUOUS
 62
     5
 10
-166.6605347584773
 20
782.912146812025
 30
0.0
 11
-166.6605347584773
 21
589.8104927101501
 31
0.0
  0
LINE
  5
20E
  8
DETAIL
  6
CONTINUOUS
 62
     5
 10
-47.59785684074998
 20
589.8104927101501
 30
0.0
 11
-47.59785684074998
 21
782.912146812025
 31
0.0
  0
LINE
  5
20F
  8
DETAIL
  6
CONTINUOUS
 62
     5
 10
-35.59153637843698
 20
782.912146812025
 30
0.0
 11
-35.59153637843698
 21
589.8104927101501
 31
0.0
  0
ARC
  5
210
  8
DETAIL
  6
CONTINUOUS
 62
     5
 10
-198.6773893245627
 20
539.7841574505971
 30
0.0
 40
20.01053410382143
 50
0.0
 51
90.0
  0
ARC
  5
211
  8
DETAIL
  6
CONTINUOUS
 62
     5
 10
-198.6773893245627
 20
589.8104927101501
 30
0.0
 40
20.01053410382143
 50
270.0
 51
0.0
  0
LINE
  5
212
  8
DETAIL
  6
CONTINUOUS
 62
     5
 10
-198.6773893245627
 20
559.7946915543978
 30
0.0
 11
-277.7189990346851
 21
559.7946915543978
 31
0.0
  0
LINE
  5
213
  8
DETAIL
  6
CONTINUOUS
 62
     5
 10
-277.7189990346851
 20
569.7999586063158
 30
0.0
 11
-198.6773893245627
 21
569.7999586063158
 31
0.0
  0
ARC
  5
214
  8
DETAIL
  6
CONTINUOUS
 62
     5
 10
-277.7189990346851
 20
539.7841574505971
 30
0.0
 40
20.01053410382143
 50
90.0
 51
180.0
  0
ARC
  5
215
  8
DETAIL
  6
CONTINUOUS
 62
     5
 10
-277.7189990346851
 20
589.8104927101501
 30
0.0
 40
20.01053410382143
 50
180.0
 51
270.0
  0
LINE
  5
216
  8
DETAIL
  6
CONTINUOUS
 62
     5
 10
-67.6083909445224
 20
559.7946915543978
 30
0.0
 11
-146.6500006546448
 21
559.7946915543978
 31
0.0
  0
LINE
  5
217
  8
DETAIL
  6
CONTINUOUS
 62
     5
 10
-146.6500006546448
 20
569.7999586063158
 30
0.0
 11
-67.6083909445224
 21
569.7999586063158
 31
0.0
  0
ARC
  5
218
  8
DETAIL
  6
CONTINUOUS
 62
     5
 10
-146.6500006546448
 20
539.7841574505971
 30
0.0
 40
20.01053410382143
 50
90.0
 51
180.0
  0
ARC
  5
219
  8
DETAIL
  6
CONTINUOUS
 62
     5
 10
-146.6500006546448
 20
589.8104927101501
 30
0.0
 40
20.01053410382143
 50
180.0
 51
270.0
  0
ARC
  5
21A
  8
DETAIL
  6
CONTINUOUS
 62
     5
 10
-67.6083909445224
 20
589.8104927101501
 30
0.0
 40
20.01053410382143
 50
270.0
 51
0.0
  0
ARC
  5
21B
  8
DETAIL
  6
CONTINUOUS
 62
     5
 10
-67.6083909445224
 20
539.7841574505971
 30
0.0
 40
20.01053410382143
 50
0.0
 51
90.0
  0
ARC
  5
21C
  8
DETAIL
  6
CONTINUOUS
 62
     5
 10
-198.6773893245627
 20
832.9384820715788
 30
0.0
 40
20.01053410382143
 50
270.0
 51
0.0
  0
ARC
  5
21D
  8
DETAIL
  6
CONTINUOUS
 62
     5
 10
-198.6773893245627
 20
782.912146812025
 30
0.0
 40
20.01053410382143
 50
0.0
 51
90.0
  0
LINE
  5
21E
  8
DETAIL
  6
CONTINUOUS
 62
     5
 10
-198.6773893245627
 20
802.9226809158279
 30
0.0
 11
-277.7189990346851
 21
802.9226809158279
 31
0.0
  0
LINE
  5
21F
  8
DETAIL
  6
CONTINUOUS
 62
     5
 10
-277.7189990346851
 20
812.9279479677459
 30
0.0
 11
-198.6773893245627
 21
812.9279479677459
 31
0.0
  0
ARC
  5
220
  8
DETAIL
  6
CONTINUOUS
 62
     5
 10
-277.7189990346851
 20
782.912146812025
 30
0.0
 40
20.01053410382143
 50
90.0
 51
180.0
  0
ARC
  5
221
  8
DETAIL
  6
CONTINUOUS
 62
     5
 10
-277.7189990346851
 20
832.9384820715788
 30
0.0
 40
20.01053410382143
 50
180.0
 51
270.0
  0
LINE
  5
222
  8
DETAIL
  6
CONTINUOUS
 62
     5
 10
-67.6083909445224
 20
802.9226809158279
 30
0.0
 11
-146.6500006546448
 21
802.9226809158279
 31
0.0
  0
LINE
  5
223
  8
DETAIL
  6
CONTINUOUS
 62
     5
 10
-146.6500006546448
 20
812.9279479677459
 30
0.0
 11
-67.6083909445224
 21
812.9279479677459
 31
0.0
  0
ARC
  5
224
  8
DETAIL
  6
CONTINUOUS
 62
     5
 10
-146.6500006546448
 20
832.9384820715788
 30
0.0
 40
20.01053410382143
 50
180.0
 51
270.0
  0
ARC
  5
225
  8
DETAIL
  6
CONTINUOUS
 62
     5
 10
-146.6500006546448
 20
782.912146812025
 30
0.0
 40
20.01053410382143
 50
90.0
 51
180.0
  0
ARC
  5
226
  8
DETAIL
  6
CONTINUOUS
 62
     5
 10
-67.6083909445224
 20
832.9384820715788
 30
0.0
 40
20.01053410382143
 50
270.0
 51
0.0
  0
ARC
  5
227
  8
DETAIL
  6
CONTINUOUS
 62
     5
 10
-67.6083909445224
 20
782.912146812025
 30
0.0
 40
20.01053410382143
 50
0.0
 51
90.0
  0
LINE
  5
228
  8
DETAIL
  6
CONTINUOUS
 62
     5
 10
83.47114153928993
 20
589.8104927101501
 30
0.0
 11
83.47114153928993
 21
782.912146812025
 31
0.0
  0
LINE
  5
229
  8
DETAIL
  6
CONTINUOUS
 62
     5
 10
95.75040568678679
 20
796.9195206847019
 30
0.0
 11
95.75040568678679
 21
575.8031188374719
 31
0.0
  0
LINE
  5
22A
  8
DETAIL
  6
CONTINUOUS
 62
     5
 10
132.5958354830432
 20
580.805752363415
 30
0.0
 11
132.5958354830432
 21
791.9168871587278
 31
0.0
  0
LINE
  5
22B
  8
DETAIL
  6
CONTINUOUS
 62
     5
 10
150.7793744722835
 20
575.8031188374719
 30
0.0
 11
150.7793744722835
 21
796.9195206847019
 31
0.0
  0
LINE
  5
22C
  8
DETAIL
  6
CONTINUOUS
 62
     5
 10
137.5916154010406
 20
553.7915313232431
 30
0.0
 11
151.5797958364178
 21
553.7915313232431
 31
0.0
  0
LINE
  5
22D
  8
DETAIL
  6
CONTINUOUS
 62
     5
 10
151.5797958364178
 20
575.8031188374719
 30
0.0
 11
137.5916154010406
 21
575.8031188374719
 31
0.0
  0
ARC
  5
22E
  8
DETAIL
  6
CONTINUOUS
 62
     5
 10
146.5771623104733
 20
574.802592132259
 30
0.0
 40
5.002633525955355
 50
270.0
 51
0.0
  0
ARC
  5
22F
  8
DETAIL
  6
CONTINUOUS
 62
     5
 10
146.5771623104733
 20
554.7920580284551
 30
0.0
 40
5.002633525955355
 50
0.0
 51
90.0
  0
ARC
  5
230
  8
DETAIL
  6
CONTINUOUS
 62
     5
 10
63.46060743551743
 20
539.7841574505971
 30
0.0
 40
20.01053410382143
 50
0.0
 51
90.0
  0
ARC
  5
231
  8
DETAIL
  6
CONTINUOUS
 62
     5
 10
63.46060743551743
 20
589.8104927101501
 30
0.0
 40
20.01053410382143
 50
270.0
 51
0.0
  0
LINE
  5
232
  8
DETAIL
  6
CONTINUOUS
 62
     5
 10
63.46060743551743
 20
559.7946915543978
 30
0.0
 11
-15.5810022746046
 21
559.7946915543978
 31
0.0
  0
LINE
  5
233
  8
DETAIL
  6
CONTINUOUS
 62
     5
 10
-15.5810022746046
 20
569.7999586063158
 30
0.0
 11
63.46060743551743
 21
569.7999586063158
 31
0.0
  0
ARC
  5
234
  8
DETAIL
  6
CONTINUOUS
 62
     5
 10
99.95261784859531
 20
574.802592132259
 30
0.0
 40
5.002633525955355
 50
180.0
 51
270.0
  0
ARC
  5
235
  8
DETAIL
  6
CONTINUOUS
 62
     5
 10
99.95261784859531
 20
554.7920580284551
 30
0.0
 40
5.002633525955355
 50
90.0
 51
180.0
  0
LINE
  5
236
  8
DETAIL
  6
CONTINUOUS
 62
     5
 10
94.94998432265248
 20
553.7915313232431
 30
0.0
 11
95.75040568678679
 21
553.7915313232431
 31
0.0
  0
LINE
  5
237
  8
DETAIL
  6
CONTINUOUS
 62
     5
 10
94.94998432265248
 20
575.8031188374719
 30
0.0
 11
95.75040568678679
 21
575.8031188374719
 31
0.0
  0
LINE
  5
238
  8
DETAIL
  6
CONTINUOUS
 62
     5
 10
94.94998432265248
 20
575.8031188374719
 30
0.0
 11
94.94998432265248
 21
574.802592132259
 31
0.0
  0
LINE
  5
239
  8
DETAIL
  6
CONTINUOUS
 62
     5
 10
94.94998432265248
 20
554.7920580284551
 30
0.0
 11
94.94998432265248
 21
553.7915313232431
 31
0.0
  0
LINE
  5
23A
  8
DETAIL
  6
CONTINUOUS
 62
     5
 10
146.5771623104733
 20
559.7946915543978
 30
0.0
 11
99.95261784859531
 21
559.7946915543978
 31
0.0
  0
LINE
  5
23B
  8
DETAIL
  6
CONTINUOUS
 62
     5
 10
99.95261784859531
 20
569.7999586063158
 30
0.0
 11
146.5771623104733
 21
569.7999586063158
 31
0.0
  0
ARC
  5
23C
  8
DETAIL
  6
CONTINUOUS
 62
     5
 10
137.5955007797871
 20
548.7927998514658
 30
0.0
 40
4.999215059712613
 50
90.0446760000034
 51
180.0446220000342
  0
ARC
  5
23D
  8
DETAIL
  6
CONTINUOUS
 62
     5
 10
137.5955007797871
 20
580.801866984699
 30
0.0
 40
4.999215059712613
 50
179.9553779999658
 51
269.9553239999966
  0
LINE
  5
23E
  8
DETAIL
  6
CONTINUOUS
 62
     5
 10
151.5797958364178
 20
553.7915313232431
 30
0.0
 11
151.5797958364178
 21
554.7920580284551
 31
0.0
  0
LINE
  5
23F
  8
DETAIL
  6
CONTINUOUS
 62
     5
 10
151.5797958364178
 20
574.802592132259
 30
0.0
 11
151.5797958364178
 21
575.8031188374719
 31
0.0
  0
ARC
  5
240
  8
DETAIL
  6
CONTINUOUS
 62
     5
 10
146.5771623104733
 20
817.930581493689
 30
0.0
 40
5.002633525955355
 50
270.0
 51
0.0
  0
LINE
  5
241
  8
DETAIL
  6
CONTINUOUS
 62
     5
 10
137.5916154010406
 20
796.9195206847019
 30
0.0
 11
151.5797958364178
 21
796.9195206847019
 31
0.0
  0
ARC
  5
242
  8
DETAIL
  6
CONTINUOUS
 62
     5
 10
146.5771623104733
 20
797.9200473898838
 30
0.0
 40
5.002633525955355
 50
0.0
 51
90.0
  0
LINE
  5
243
  8
DETAIL
  6
CONTINUOUS
 62
     5
 10
151.5797958364178
 20
818.9311081989019
 30
0.0
 11
137.5916154010406
 21
818.9311081989019
 31
0.0
  0
ARC
  5
244
  8
DETAIL
  6
CONTINUOUS
 62
     5
 10
63.46060743551743
 20
832.9384820715788
 30
0.0
 40
20.01053410382143
 50
270.0
 51
0.0
  0
ARC
  5
245
  8
DETAIL
  6
CONTINUOUS
 62
     5
 10
63.46060743551743
 20
782.912146812025
 30
0.0
 40
20.01053410382143
 50
0.0
 51
90.0
  0
LINE
  5
246
  8
DETAIL
  6
CONTINUOUS
 62
     5
 10
63.46060743551743
 20
802.9226809158279
 30
0.0
 11
-15.5810022746046
 21
802.9226809158279
 31
0.0
  0
LINE
  5
247
  8
DETAIL
  6
CONTINUOUS
 62
     5
 10
-15.5810022746046
 20
812.9279479677459
 30
0.0
 11
63.46060743551743
 21
812.9279479677459
 31
0.0
  0
ARC
  5
248
  8
DETAIL
  6
CONTINUOUS
 62
     5
 10
99.95261784859531
 20
817.930581493689
 30
0.0
 40
5.002633525955355
 50
180.0
 51
270.0
  0
ARC
  5
249
  8
DETAIL
  6
CONTINUOUS
 62
     5
 10
99.95261784859531
 20
797.9200473898838
 30
0.0
 40
5.002633525955355
 50
90.0
 51
180.0
  0
LINE
  5
24A
  8
DETAIL
  6
CONTINUOUS
 62
     5
 10
94.94998432265248
 20
796.9195206847019
 30
0.0
 11
95.75040568678679
 21
796.9195206847019
 31
0.0
  0
LINE
  5
24B
  8
DETAIL
  6
CONTINUOUS
 62
     5
 10
94.94998432265248
 20
797.9200473898838
 30
0.0
 11
94.94998432265248
 21
796.9195206847019
 31
0.0
  0
LINE
  5
24C
  8
DETAIL
  6
CONTINUOUS
 62
     5
 10
146.5771623104733
 20
802.9226809158279
 30
0.0
 11
99.95261784859531
 21
802.9226809158279
 31
0.0
  0
LINE
  5
24D
  8
DETAIL
  6
CONTINUOUS
 62
     5
 10
99.95261784859531
 20
812.9279479677459
 30
0.0
 11
146.5771623104733
 21
812.9279479677459
 31
0.0
  0
ARC
  5
24E
  8
DETAIL
  6
CONTINUOUS
 62
     5
 10
137.5955007797871
 20
791.9207892128968
 30
0.0
 40
4.999215059712613
 50
90.0446760000034
 51
180.0446220000342
  0
LINE
  5
24F
  8
DETAIL
  6
CONTINUOUS
 62
     5
 10
94.94998432265248
 20
818.9311081989019
 30
0.0
 11
95.75040568678679
 21
818.9311081989019
 31
0.0
  0
LINE
  5
250
  8
DETAIL
  6
CONTINUOUS
 62
     5
 10
94.94998432265248
 20
818.9311081989019
 30
0.0
 11
94.94998432265248
 21
817.930581493689
 31
0.0
  0
ARC
  5
251
  8
DETAIL
  6
CONTINUOUS
 62
     5
 10
137.5955007797871
 20
823.9298563461277
 30
0.0
 40
4.999215059712613
 50
179.9553779999658
 51
269.9553239999966
  0
LINE
  5
252
  8
DETAIL
  6
CONTINUOUS
 62
     5
 10
151.5797958364178
 20
796.9195206847019
 30
0.0
 11
151.5797958364178
 21
797.9200473898838
 31
0.0
  0
LINE
  5
253
  8
DETAIL
  6
CONTINUOUS
 62
     5
 10
151.5797958364178
 20
817.930581493689
 30
0.0
 11
151.5797958364178
 21
818.9311081989019
 31
0.0
  0
LINE
  5
254
  8
OUTLINE
  6
CONTINUOUS
 62
     3
 10
-364.7314431512659
 20
1433.119602429746
 30
0.0
 11
-359.7022289658342
 21
1543.036465735353
 31
0.0
  0
LINE
  5
255
  8
DETAIL
  6
CONTINUOUS
 62
     5
 10
-364.7314431512659
 20
1433.119602429746
 30
0.0
 11
-359.7022289658342
 21
1543.036465735353
 31
0.0
  0
ARC
  5
25E
  8
OUTLINE
  6
CONTINUOUS
 62
     3
 10
-367.7238350965835
 20
1344.998946589637
 30
0.0
 40
2.00105341038214
 50
90.0
 51
179.5000000000352
  0
LINE
  5
25F
  8
OUTLINE
  6
CONTINUOUS
 62
     3
 10
-364.7314431512659
 20
1433.119602429746
 30
0.0
 11
-367.2061984106413
 21
1347.000000000001
 31
0.0
  0
ARC
  5
260
  8
DETAIL
  6
CONTINUOUS
 62
     5
 10
-367.7238350965835
 20
1344.998946589637
 30
0.0
 40
2.00105341038214
 50
90.0
 51
179.5000000000352
  0
LINE
  5
261
  8
DETAIL
  6
CONTINUOUS
 62
     5
 10
-364.7314431512659
 20
1433.119602429746
 30
0.0
 11
-367.2061984106413
 21
1347.000000000001
 31
0.0
  0
LINE
  5
263
  8
OUTLINE
  6
CONTINUOUS
 62
     3
 10
-370.0000000000018
 20
1313.482355376127
 30
0.0
 11
-366.0055972349
 21
1313.482355376127
 31
0.0
  0
LINE
  5
264
  8
OUTLINE
  6
CONTINUOUS
 62
     3
 10
-369.7167008634314
 20
1345.179780177578
 30
0.0
 11
-370.0000000000018
 21
1313.482355376127
 31
0.0
  0
LINE
  5
265
  8
DETAIL
  6
CONTINUOUS
 62
     5
 10
-369.7167008634314
 20
1345.179780177578
 30
0.0
 11
-370.0000000000018
 21
1313.482355376127
 31
0.0
  0
LINE
  5
266
  8
OUTLINE
  6
CONTINUOUS
 62
     3
 10
-359.7022289658342
 20
1609.238049430591
 30
0.0
 11
-359.7022289658342
 21
1543.036465735353
 31
0.0
  0
LINE
  5
267
  8
DETAIL
  6
CONTINUOUS
 62
     5
 10
-359.7022289658342
 20
1609.238049430591
 30
0.0
 11
-359.7022289658342
 21
1543.036465735353
 31
0.0
  0
LINE
  5
268
  8
OUTLINE
  6
CONTINUOUS
 62
     3
 10
-362.703809081413
 20
1609.238049430591
 30
0.0
 11
-359.7022289658342
 21
1609.238049430591
 31
0.0
  0
LINE
  5
269
  8
OUTLINE
  6
CONTINUOUS
 62
     3
 10
-360.2024923184108
 20
1628.488675838384
 30
0.0
 11
-357.7011755554686
 21
1628.488675838378
 31
0.0
  0
LINE
  5
26A
  8
OUTLINE
  6
CONTINUOUS
 62
     3
 10
-362.703809081413
 20
1625.987359075405
 30
0.0
 11
-362.703809081413
 21
1609.238049430591
 31
0.0
  0
LINE
  5
26B
  8
OUTLINE
  6
CONTINUOUS
 62
     3
 10
-357.7011755554686
 20
1628.488675838378
 30
0.0
 11
-357.7011755554686
 21
1650.000000000001
 31
0.0
  0
ARC
  5
26C
  8
OUTLINE
  6
CONTINUOUS
 62
     3
 10
-360.2024923184108
 20
1625.987359075405
 30
0.0
 40
2.50131676297767
 50
90.0
 51
180.0
  0
LINE
  5
26D
  8
DETAIL
  6
CONTINUOUS
 62
     5
 10
-362.703809081413
 20
1625.987359075405
 30
0.0
 11
-362.703809081413
 21
1609.238049430591
 31
0.0
  0
LINE
  5
26E
  8
DETAIL
  6
CONTINUOUS
 62
     5
 10
-357.7011755554686
 20
1628.488675838378
 30
0.0
 11
-357.7011755554686
 21
1650.000000000001
 31
0.0
  0
ARC
  5
26F
  8
DETAIL
  6
CONTINUOUS
 62
     5
 10
-360.2024923184108
 20
1625.987359075405
 30
0.0
 40
2.50131676297767
 50
90.0
 51
180.0
  0
ARC
  5
271
  8
DETAIL
  6
CONTINUOUS
 62
     5
 10
-15.5810022746046
 20
1269.168125534884
 30
0.0
 40
20.01053410382143
 50
90.0
 51
180.0
  0
ARC
  5
272
  8
DETAIL
  6
CONTINUOUS
 62
     5
 10
-15.5810022746046
 20
1026.040136173453
 30
0.0
 40
20.01053410382143
 50
90.0
 51
180.0
  0
ARC
  5
273
  8
DETAIL
  6
CONTINUOUS
 62
     5
 10
-15.5810022746046
 20
1076.066471433007
 30
0.0
 40
20.01053410382143
 50
180.0
 51
270.0
  0
LINE
  5
274
  8
DETAIL
  6
CONTINUOUS
 62
     5
 10
-47.59785684074998
 20
1076.066471433007
 30
0.0
 11
-47.59785684074998
 21
1269.168125534884
 31
0.0
  0
LINE
  5
275
  8
DETAIL
  6
CONTINUOUS
 62
     5
 10
-35.59153637843698
 20
1269.168125534884
 30
0.0
 11
-35.59153637843698
 21
1076.066471433007
 31
0.0
  0
LINE
  5
276
  8
DETAIL
  6
CONTINUOUS
 62
     5
 10
-297.7295331385176
 20
1269.168125534884
 30
0.0
 11
-297.7295331385176
 21
1076.066471433007
 31
0.0
  0
LINE
  5
277
  8
DETAIL
  6
CONTINUOUS
 62
     5
 10
-178.6668552207302
 20
1076.066471433007
 30
0.0
 11
-178.6668552207302
 21
1269.168125534884
 31
0.0
  0
LINE
  5
278
  8
DETAIL
  6
CONTINUOUS
 62
     5
 10
-166.6605347584773
 20
1269.168125534884
 30
0.0
 11
-166.6605347584773
 21
1076.066471433007
 31
0.0
  0
ARC
  5
279
  8
DETAIL
  6
CONTINUOUS
 62
     5
 10
-198.6773893245627
 20
1026.040136173453
 30
0.0
 40
20.01053410382143
 50
0.0
 51
90.0
  0
ARC
  5
27A
  8
DETAIL
  6
CONTINUOUS
 62
     5
 10
-198.6773893245627
 20
1076.066471433007
 30
0.0
 40
20.01053410382143
 50
270.0
 51
0.0
  0
LINE
  5
27B
  8
DETAIL
  6
CONTINUOUS
 62
     5
 10
-277.7189990346851
 20
1056.055937329175
 30
0.0
 11
-198.6773893245627
 21
1056.055937329175
 31
0.0
  0
LINE
  5
27C
  8
DETAIL
  6
CONTINUOUS
 62
     5
 10
-198.6773893245627
 20
1046.050670277257
 30
0.0
 11
-277.7189990346851
 21
1046.050670277257
 31
0.0
  0
ARC
  5
27D
  8
DETAIL
  6
CONTINUOUS
 62
     5
 10
-277.7189990346851
 20
1026.040136173453
 30
0.0
 40
20.01053410382143
 50
90.0
 51
180.0
  0
ARC
  5
27E
  8
DETAIL
  6
CONTINUOUS
 62
     5
 10
-277.7189990346851
 20
1076.066471433007
 30
0.0
 40
20.01053410382143
 50
180.0
 51
270.0
  0
LINE
  5
27F
  8
DETAIL
  6
CONTINUOUS
 62
     5
 10
-146.6500006546448
 20
1056.055937329175
 30
0.0
 11
-67.6083909445224
 21
1056.055937329175
 31
0.0
  0
LINE
  5
280
  8
DETAIL
  6
CONTINUOUS
 62
     5
 10
-67.6083909445224
 20
1046.050670277257
 30
0.0
 11
-146.6500006546448
 21
1046.050670277257
 31
0.0
  0
ARC
  5
281
  8
DETAIL
  6
CONTINUOUS
 62
     5
 10
-146.6500006546448
 20
1026.040136173453
 30
0.0
 40
20.01053410382143
 50
90.0
 51
180.0
  0
ARC
  5
282
  8
DETAIL
  6
CONTINUOUS
 62
     5
 10
-146.6500006546448
 20
1076.066471433007
 30
0.0
 40
20.01053410382143
 50
180.0
 51
270.0
  0
ARC
  5
283
  8
DETAIL
  6
CONTINUOUS
 62
     5
 10
-67.6083909445224
 20
1026.040136173453
 30
0.0
 40
20.01053410382143
 50
0.0
 51
90.0
  0
ARC
  5
284
  8
DETAIL
  6
CONTINUOUS
 62
     5
 10
-67.6083909445224
 20
1076.066471433007
 30
0.0
 40
20.01053410382143
 50
270.0
 51
0.0
  0
ARC
  5
285
  8
DETAIL
  6
CONTINUOUS
 62
     5
 10
-198.6773893245627
 20
1269.168125534884
 30
0.0
 40
20.01053410382143
 50
0.0
 51
90.0
  0
LINE
  5
287
  8
DETAIL
  6
CONTINUOUS
 62
     5
 10
-198.6773893245627
 20
1289.178659638687
 30
0.0
 11
-277.7189990346851
 21
1289.178659638687
 31
0.0
  0
ARC
  5
289
  8
DETAIL
  6
CONTINUOUS
 62
     5
 10
-277.7189990346851
 20
1269.168125534884
 30
0.0
 40
20.01053410382143
 50
90.0
 51
180.0
  0
LINE
  5
28A
  8
DETAIL
  6
CONTINUOUS
 62
     5
 10
-321.3407460735052
 20
1347.000000000001
 30
0.0
 11
-321.3407460735052
 21
1313.482355376127
 31
0.0
  0
LINE
  5
28C
  8
DETAIL
  6
CONTINUOUS
 62
     5
 10
-67.6083909445224
 20
1289.178659638687
 30
0.0
 11
-146.6500006546448
 21
1289.178659638687
 31
0.0
  0
ARC
  5
28E
  8
DETAIL
  6
CONTINUOUS
 62
     5
 10
-146.6500006546448
 20
1269.168125534884
 30
0.0
 40
20.01053410382143
 50
90.0
 51
180.0
  0
ARC
  5
28F
  8
DETAIL
  6
CONTINUOUS
 62
     5
 10
-67.6083909445224
 20
1269.168125534884
 30
0.0
 40
20.01053410382143
 50
0.0
 51
90.0
  0
LINE
  5
290
  8
DETAIL
  6
CONTINUOUS
 62
     5
 10
83.47114153928993
 20
1076.066471433007
 30
0.0
 11
83.47114153928993
 21
1269.168125534884
 31
0.0
  0
LINE
  5
291
  8
DETAIL
  6
CONTINUOUS
 62
     5
 10
95.75040568678679
 20
1283.175499407561
 30
0.0
 11
95.75040568678679
 21
1062.05909756033
 31
0.0
  0
LINE
  5
292
  8
DETAIL
  6
CONTINUOUS
 62
     5
 10
132.5958354830432
 20
1065.060677675907
 30
0.0
 11
132.5958354830432
 21
1278.172865881587
 31
0.0
  0
LINE
  5
293
  8
DETAIL
  6
CONTINUOUS
 62
     5
 10
150.7793744722835
 20
1062.05909756033
 30
0.0
 11
150.7793744722835
 21
1283.175499407561
 31
0.0
  0
LINE
  5
294
  8
DETAIL
  6
CONTINUOUS
 62
     5
 10
151.5797958364178
 20
1062.05909756033
 30
0.0
 11
135.593296763685
 21
1062.05909756033
 31
0.0
  0
LINE
  5
295
  8
DETAIL
  6
CONTINUOUS
 62
     5
 10
137.5916154010406
 20
1040.047510046132
 30
0.0
 11
151.5797958364178
 21
1040.047510046132
 31
0.0
  0
ARC
  5
296
  8
DETAIL
  6
CONTINUOUS
 62
     5
 10
146.5771623104733
 20
1041.048036751315
 30
0.0
 40
5.002633525955355
 50
0.0
 51
90.0
  0
ARC
  5
297
  8
DETAIL
  6
CONTINUOUS
 62
     5
 10
146.5771623104733
 20
1061.058570855118
 30
0.0
 40
5.002633525955355
 50
270.0
 51
0.0
  0
ARC
  5
298
  8
DETAIL
  6
CONTINUOUS
 62
     5
 10
63.46060743551743
 20
1026.040136173453
 30
0.0
 40
20.01053410382143
 50
0.0
 51
90.0
  0
ARC
  5
299
  8
DETAIL
  6
CONTINUOUS
 62
     5
 10
63.46060743551743
 20
1076.066471433007
 30
0.0
 40
20.01053410382143
 50
270.0
 51
0.0
  0
LINE
  5
29A
  8
DETAIL
  6
CONTINUOUS
 62
     5
 10
63.46060743551743
 20
1046.050670277257
 30
0.0
 11
-15.5810022746046
 21
1046.050670277257
 31
0.0
  0
LINE
  5
29B
  8
DETAIL
  6
CONTINUOUS
 62
     5
 10
-15.5810022746046
 20
1056.055937329175
 30
0.0
 11
63.46060743551743
 21
1056.055937329175
 31
0.0
  0
LINE
  5
29C
  8
DETAIL
  6
CONTINUOUS
 62
     5
 10
94.94998432265248
 20
1062.05909756033
 30
0.0
 11
94.94998432265248
 21
1061.058570855118
 31
0.0
  0
LINE
  5
29D
  8
DETAIL
  6
CONTINUOUS
 62
     5
 10
94.94998432265248
 20
1062.05909756033
 30
0.0
 11
95.75040568678679
 21
1062.05909756033
 31
0.0
  0
LINE
  5
29E
  8
DETAIL
  6
CONTINUOUS
 62
     5
 10
99.95261784859531
 20
1056.055937329175
 30
0.0
 11
146.5771623104733
 21
1056.055937329175
 31
0.0
  0
ARC
  5
29F
  8
DETAIL
  6
CONTINUOUS
 62
     5
 10
135.5956313259991
 20
1065.058359789015
 30
0.0
 40
2.999529035827571
 50
179.955479000005
 51
269.9554100000002
  0
ARC
  5
2A0
  8
DETAIL
  6
CONTINUOUS
 62
     5
 10
99.95261784859531
 20
1041.048036751315
 30
0.0
 40
5.002633525955355
 50
90.0
 51
180.0
  0
LINE
  5
2A1
  8
DETAIL
  6
CONTINUOUS
 62
     5
 10
94.94998432265248
 20
1041.048036751315
 30
0.0
 11
94.94998432265248
 21
1040.047510046132
 31
0.0
  0
LINE
  5
2A2
  8
DETAIL
  6
CONTINUOUS
 62
     5
 10
94.94998432265248
 20
1040.047510046132
 30
0.0
 11
95.75040568678679
 21
1040.047510046132
 31
0.0
  0
LINE
  5
2A3
  8
DETAIL
  6
CONTINUOUS
 62
     5
 10
146.5771623104733
 20
1046.050670277257
 30
0.0
 11
99.95261784859531
 21
1046.050670277257
 31
0.0
  0
ARC
  5
2A4
  8
DETAIL
  6
CONTINUOUS
 62
     5
 10
137.5955007797871
 20
1035.048778574325
 30
0.0
 40
4.999215059712613
 50
90.0446760000034
 51
180.0446220000342
  0
ARC
  5
2A5
  8
DETAIL
  6
CONTINUOUS
 62
     5
 10
99.95261784859531
 20
1061.058570855118
 30
0.0
 40
5.002633525955355
 50
180.0
 51
270.0
  0
LINE
  5
2A6
  8
DETAIL
  6
CONTINUOUS
 62
     5
 10
151.5797958364178
 20
1061.058570855118
 30
0.0
 11
151.5797958364178
 21
1062.05909756033
 31
0.0
  0
LINE
  5
2A7
  8
DETAIL
  6
CONTINUOUS
 62
     5
 10
151.5797958364178
 20
1040.047510046132
 30
0.0
 11
151.5797958364178
 21
1041.048036751315
 31
0.0
  0
LINE
  5
2A9
  8
DETAIL
  6
CONTINUOUS
 62
     5
 10
137.5916154010406
 20
1283.175499407561
 30
0.0
 11
151.5797958364178
 21
1283.175499407561
 31
0.0
  0
ARC
  5
2AA
  8
DETAIL
  6
CONTINUOUS
 62
     5
 10
146.5771623104733
 20
1284.176026112743
 30
0.0
 40
5.002633525955355
 50
0.0
 51
90.0
  0
ARC
  5
2AC
  8
DETAIL
  6
CONTINUOUS
 62
     5
 10
63.46060743551743
 20
1269.168125534884
 30
0.0
 40
20.01053410382143
 50
0.0
 51
90.0
  0
LINE
  5
2AD
  8
DETAIL
  6
CONTINUOUS
 62
     5
 10
63.46060743551743
 20
1289.178659638687
 30
0.0
 11
-15.5810022746046
 21
1289.178659638687
 31
0.0
  0
ARC
  5
2AE
  8
DETAIL
  6
CONTINUOUS
 62
     5
 10
99.95261784859531
 20
1284.176026112743
 30
0.0
 40
5.002633525955355
 50
90.0
 51
180.0
  0
LINE
  5
2AF
  8
DETAIL
  6
CONTINUOUS
 62
     5
 10
94.94998432265248
 20
1284.176026112743
 30
0.0
 11
94.94998432265248
 21
1283.175499407561
 31
0.0
  0
LINE
  5
2B0
  8
DETAIL
  6
CONTINUOUS
 62
     5
 10
94.94998432265248
 20
1283.175499407561
 30
0.0
 11
95.75040568678679
 21
1283.175499407561
 31
0.0
  0
LINE
  5
2B1
  8
DETAIL
  6
CONTINUOUS
 62
     5
 10
146.5771623104733
 20
1289.178659638687
 30
0.0
 11
99.95261784859531
 21
1289.178659638687
 31
0.0
  0
ARC
  5
2B2
  8
DETAIL
  6
CONTINUOUS
 62
     5
 10
137.5955007797871
 20
1278.176767935753
 30
0.0
 40
4.999215059712613
 50
90.0446760000034
 51
180.0446220000342
  0
LINE
  5
2B5
  8
DETAIL
  6
CONTINUOUS
 62
     5
 10
151.5797958364178
 20
1283.175499407561
 30
0.0
 11
151.5797958364178
 21
1284.176026112743
 31
0.0
  0
LINE
  5
2BA
  8
DETAIL
  6
CONTINUOUS
 62
     5
 10
-174.3393104136849
 20
1650.000000000001
 30
0.0
 11
-174.3393104136849
 21
1628.255619817845
 31
0.0
  0
LINE
  5
2C2
  8
DETAIL
  6
CONTINUOUS
 62
     5
 10
174.33929373823
 20
1628.488675838378
 30
0.0
 11
174.33929373823
 21
1650.000000000001
 31
0.0
  0
LINE
  5
2DF
  8
OUTLINE
  6
CONTINUOUS
 62
     3
 10
364.7314765021637
 20
1433.119602429746
 30
0.0
 11
359.7022789921828
 21
1543.036465735353
 31
0.0
  0
LINE
  5
2E0
  8
DETAIL
  6
CONTINUOUS
 62
     5
 10
364.7314765021637
 20
1433.119602429746
 30
0.0
 11
359.7022789921828
 21
1543.036465735353
 31
0.0
  0
ARC
  5
2E1
  8
OUTLINE
  6
CONTINUOUS
 62
     3
 10
367.7238184211291
 20
1344.998946589637
 30
0.0
 40
2.00105341038214
 50
0.5000200000053675
 51
90.0
  0
LINE
  5
2E2
  8
OUTLINE
  6
CONTINUOUS
 62
     3
 10
367.2062336844696
 20
1347.000000000001
 30
0.0
 11
364.7314765021637
 21
1433.119602429746
 31
0.0
  0
ARC
  5
2E3
  8
DETAIL
  6
CONTINUOUS
 62
     5
 10
367.7238184211291
 20
1344.998946589637
 30
0.0
 40
2.00105341038214
 50
0.5000200000053675
 51
90.0
  0
LINE
  5
2E4
  8
DETAIL
  6
CONTINUOUS
 62
     5
 10
367.2062336844696
 20
1347.000000000001
 30
0.0
 11
364.7314765021637
 21
1433.119602429746
 31
0.0
  0
LINE
  5
2E5
  8
OUTLINE
  6
CONTINUOUS
 62
     3
 10
366.0055972348963
 20
1313.482355376127
 30
0.0
 11
369.9999999999981
 21
1313.482355376127
 31
0.0
  0
LINE
  5
2E6
  8
OUTLINE
  6
CONTINUOUS
 62
     3
 10
369.7247956314336
 20
1345.01640955173
 30
0.0
 11
369.9999999999981
 21
1313.482355376127
 31
0.0
  0
LINE
  5
2E7
  8
DETAIL
  6
CONTINUOUS
 62
     5
 10
369.7247956314336
 20
1345.016409551729
 30
0.0
 11
369.9999999999981
 21
1313.482355376127
 31
0.0
  0
LINE
  5
2E8
  8
DETAIL
  6
CONTINUOUS
 62
     5
 10
321.3407293980503
 20
1313.482355376127
 30
0.0
 11
321.3407293980503
 21
1347.000000000001
 31
0.0
  0
LINE
  5
2E9
  8
OUTLINE
  6
CONTINUOUS
 62
     3
 10
359.7022789921828
 20
1543.036465735353
 30
0.0
 11
359.7022789921828
 21
1609.238049430591
 31
0.0
  0
LINE
  5
2EA
  8
DETAIL
  6
CONTINUOUS
 62
     5
 10
359.7022789921828
 20
1543.036465735353
 30
0.0
 11
359.7022789921828
 21
1609.238049430591
 31
0.0
  0
ARC
  5
2EB
  8
OUTLINE
  6
CONTINUOUS
 62
     3
 10
359.7038591077616
 20
1625.488675838383
 30
0.0
 40
3.0
 50
0.0
 51
90.00000000010422
  0
ARC
  5
2EC
  8
DETAIL
  6
CONTINUOUS
 62
     5
 10
359.7038591077616
 20
1625.488675838379
 30
0.0
 40
3.0
 50
0.0
 51
90.0
  0
LINE
  5
2ED
  8
OUTLINE
  6
CONTINUOUS
 62
     3
 10
359.7022789921828
 20
1609.238049430591
 30
0.0
 11
362.7038591077617
 21
1609.238049430591
 31
0.0
  0
LINE
  5
2EE
  8
OUTLINE
  6
CONTINUOUS
 62
     3
 10
357.7012255818172
 20
1628.488675838378
 30
0.0
 11
359.7038591077562
 21
1628.488675838382
 31
0.0
  0
LINE
  5
2EF
  8
OUTLINE
  6
CONTINUOUS
 62
     3
 10
357.7012255818172
 20
1628.488675838378
 30
0.0
 11
357.7012255818177
 21
1650.000000000001
 31
0.0
  0
LINE
  5
2F0
  8
OUTLINE
  6
CONTINUOUS
 62
     3
 10
362.7038591077617
 20
1625.488675838383
 30
0.0
 11
362.7038591077617
 21
1609.238049430591
 31
0.0
  0
LINE
  5
2F1
  8
DETAIL
  6
CONTINUOUS
 62
     5
 10
357.7012255818172
 20
1628.488675838378
 30
0.0
 11
357.7012255818177
 21
1650.000000000001
 31
0.0
  0
LINE
  5
2F2
  8
DETAIL
  6
CONTINUOUS
 62
     5
 10
362.7038591077617
 20
1625.488675838379
 30
0.0
 11
362.7038591077617
 21
1609.238049430591
 31
0.0
  0
LINE
  5
2F4
  8
OUTLINE
  6
CONTINUOUS
 62
     3
 10
-366.0055972349
 20
54.0
 30
0.0
 11
-361.8207074468291
 21
54.0
 31
0.0
  0
LINE
  5
2F5
  8
OUTLINE
  6
CONTINUOUS
 62
     3
 10
361.820707446826
 20
54.0
 30
0.0
 11
366.0055972348982
 21
54.0
 31
0.0
  0
LINE
  5
73F
  8
NOTE
  6
CONTINUOUS
 62
     4
 10
-360.5000000000351
 20
-0.0000000000500222
 30
0.0
 11
-320.5000000000351
 21
-0.0000000000500222
 31
0.0
  0
LINE
  5
740
  8
NOTE
  6
CONTINUOUS
 62
     4
 10
340.5000000000329
 20
20.00000000004593
 30
0.0
 11
340.5000000000329
 21
-19.99999999995407
 31
0.0
  0
LINE
  5
741
  8
NOTE
  6
CONTINUOUS
 62
     4
 10
320.4999999999989
 20
-0.0000000000040927
 30
0.0
 11
360.4999999999989
 21
-0.0000000000040927
 31
0.0
  0
LINE
  5
AA4
  8
DETAIL
  6
CONTINUOUS
 62
     5
 10
83.47114153928993
 20
103.554513987292
 30
0.0
 11
83.47114153928993
 21
296.656168089168
 31
0.0
  0
LINE
  5
AA5
  8
DETAIL
  6
CONTINUOUS
 62
     5
 10
95.75040568678679
 20
310.663541961814
 30
0.0
 11
95.75040568678679
 21
89.54714011461283
 31
0.0
  0
LINE
  5
AA6
  8
DETAIL
  6
CONTINUOUS
 62
     5
 10
132.5958354830432
 20
94.54977364055594
 30
0.0
 11
132.5958354830432
 21
305.6609084358709
 31
0.0
  0
LINE
  5
AA7
  8
DETAIL
  6
CONTINUOUS
 62
     5
 10
150.7793744722835
 20
89.54714011461283
 30
0.0
 11
150.7793744722835
 21
310.663541961814
 31
0.0
  0
LINE
  5
AA8
  8
DETAIL
  6
CONTINUOUS
 62
     5
 10
-47.59785684074998
 20
103.554513987292
 30
0.0
 11
-47.59785684074998
 21
296.656168089168
 31
0.0
  0
LINE
  5
AA9
  8
DETAIL
  6
CONTINUOUS
 62
     5
 10
-35.59153637843698
 20
296.656168089168
 30
0.0
 11
-35.59153637843698
 21
103.554513987292
 31
0.0
  0
LINE
  5
AAA
  8
DETAIL
  6
CONTINUOUS
 62
     5
 10
-297.7295331385176
 20
296.656168089168
 30
0.0
 11
-297.7295331385176
 21
103.554513987292
 31
0.0
  0
LINE
  5
AAB
  8
DETAIL
  6
CONTINUOUS
 62
     5
 10
-178.6668552207302
 20
103.554513987292
 30
0.0
 11
-178.6668552207302
 21
296.656168089168
 31
0.0
  0
LINE
  5
AAC
  8
DETAIL
  6
CONTINUOUS
 62
     5
 10
-166.6605347584773
 20
296.656168089168
 30
0.0
 11
-166.6605347584773
 21
103.554513987292
 31
0.0
  0
ARC
  5
AAD
  8
DETAIL
  6
CONTINUOUS
 62
     5
 10
-15.5810022746046
 20
103.554513987292
 30
0.0
 40
20.01053410382143
 50
180.0
 51
270.0
  0
ARC
  5
AAE
  8
DETAIL
  6
CONTINUOUS
 62
     5
 10
-198.6773893245627
 20
103.554513987292
 30
0.0
 40
20.01053410382143
 50
270.0
 51
0.0
  0
LINE
  5
AAF
  8
DETAIL
  6
CONTINUOUS
 62
     5
 10
-277.7189990346851
 20
83.54397988345704
 30
0.0
 11
-198.6773893245627
 21
83.54397988345704
 31
0.0
  0
ARC
  5
AB0
  8
DETAIL
  6
CONTINUOUS
 62
     5
 10
-277.7189990346851
 20
103.554513987292
 30
0.0
 40
20.01053410382143
 50
180.0
 51
270.0
  0
LINE
  5
AB1
  8
DETAIL
  6
CONTINUOUS
 62
     5
 10
-146.6500006546448
 20
83.54397988345704
 30
0.0
 11
-67.6083909445224
 21
83.54397988345704
 31
0.0
  0
ARC
  5
AB2
  8
DETAIL
  6
CONTINUOUS
 62
     5
 10
-146.6500006546448
 20
103.554513987292
 30
0.0
 40
20.01053410382143
 50
180.0
 51
270.0
  0
ARC
  5
AB3
  8
DETAIL
  6
CONTINUOUS
 62
     5
 10
-67.6083909445224
 20
103.554513987292
 30
0.0
 40
20.01053410382143
 50
270.0
 51
0.0
  0
LINE
  5
AB4
  8
DETAIL
  6
CONTINUOUS
 62
     5
 10
151.5797831111276
 20
89.54667472188703
 30
0.0
 11
137.5916026757504
 21
89.54667472188703
 31
0.0
  0
ARC
  5
AB5
  8
DETAIL
  6
CONTINUOUS
 62
     5
 10
146.5771623104733
 20
88.54661340940083
 30
0.0
 40
5.002633525955355
 50
270.0
 51
0.0
  0
ARC
  5
AB6
  8
DETAIL
  6
CONTINUOUS
 62
     5
 10
63.46060743551743
 20
103.554513987292
 30
0.0
 40
20.01053410382143
 50
270.0
 51
0.0
  0
LINE
  5
AB7
  8
DETAIL
  6
CONTINUOUS
 62
     5
 10
-15.5810022746046
 20
83.54397988345704
 30
0.0
 11
63.46060743551743
 21
83.54397988345704
 31
0.0
  0
ARC
  5
AB8
  8
DETAIL
  6
CONTINUOUS
 62
     5
 10
99.95261784859531
 20
88.54661340940083
 30
0.0
 40
5.002633525955355
 50
180.0
 51
270.0
  0
LINE
  5
AB9
  8
DETAIL
  6
CONTINUOUS
 62
     5
 10
94.94998432265248
 20
89.54714011461283
 30
0.0
 11
95.75040568678679
 21
89.54714011461283
 31
0.0
  0
LINE
  5
ABA
  8
DETAIL
  6
CONTINUOUS
 62
     5
 10
94.94998432265248
 20
89.54714011461283
 30
0.0
 11
94.94998432265248
 21
88.54661340940083
 31
0.0
  0
LINE
  5
ABB
  8
DETAIL
  6
CONTINUOUS
 62
     5
 10
99.95261784859531
 20
83.54397988345704
 30
0.0
 11
146.5771623104733
 21
83.54397988345704
 31
0.0
  0
ARC
  5
ABC
  8
DETAIL
  6
CONTINUOUS
 62
     5
 10
137.5955007797871
 20
94.54588826183999
 30
0.0
 40
4.999215059712613
 50
179.9553779999658
 51
269.9553239999966
  0
LINE
  5
ABD
  8
DETAIL
  6
CONTINUOUS
 62
     5
 10
151.5797958364178
 20
88.54661340940083
 30
0.0
 11
151.5797958364178
 21
89.54714011461283
 31
0.0
  0
ARC
  5
ABE
  8
DETAIL
  6
CONTINUOUS
 62
     5
 10
-15.5810022746046
 20
296.656168089168
 30
0.0
 40
20.01053410382143
 50
90.0
 51
180.0
  0
ARC
  5
ABF
  8
DETAIL
  6
CONTINUOUS
 62
     5
 10
-198.6773893245627
 20
296.656168089168
 30
0.0
 40
20.01053410382143
 50
0.0
 51
90.0
  0
LINE
  5
AC0
  8
DETAIL
  6
CONTINUOUS
 62
     5
 10
-198.6773893245627
 20
316.6667021929691
 30
0.0
 11
-277.7189990346851
 21
316.6667021929691
 31
0.0
  0
LINE
  5
AC1
  8
DETAIL
  6
CONTINUOUS
 62
     5
 10
-277.7189990346851
 20
326.6719692448858
 30
0.0
 11
-198.6773893245627
 21
326.6719692448858
 31
0.0
  0
ARC
  5
AC2
  8
DETAIL
  6
CONTINUOUS
 62
     5
 10
-277.7189990346851
 20
296.656168089168
 30
0.0
 40
20.01053410382143
 50
90.0
 51
180.0
  0
LINE
  5
AC3
  8
DETAIL
  6
CONTINUOUS
 62
     5
 10
-67.6083909445224
 20
316.6667021929691
 30
0.0
 11
-146.6500006546448
 21
316.6667021929691
 31
0.0
  0
ARC
  5
AC4
  8
DETAIL
  6
CONTINUOUS
 62
     5
 10
-146.6500006546448
 20
296.656168089168
 30
0.0
 40
20.01053410382143
 50
90.0
 51
180.0
  0
ARC
  5
AC5
  8
DETAIL
  6
CONTINUOUS
 62
     5
 10
-67.6083909445224
 20
296.656168089168
 30
0.0
 40
20.01053410382143
 50
0.0
 51
90.0
  0
LINE
  5
AC6
  8
DETAIL
  6
CONTINUOUS
 62
     5
 10
137.5916154010406
 20
310.663541961814
 30
0.0
 11
151.5797958364178
 21
310.663541961814
 31
0.0
  0
ARC
  5
AC7
  8
DETAIL
  6
CONTINUOUS
 62
     5
 10
146.5771623104733
 20
311.664068667026
 30
0.0
 40
5.002633525955355
 50
0.0
 51
90.0
  0
ARC
  5
AC8
  8
DETAIL
  6
CONTINUOUS
 62
     5
 10
63.46060743551743
 20
296.656168089168
 30
0.0
 40
20.01053410382143
 50
0.0
 51
90.0
  0
LINE
  5
AC9
  8
DETAIL
  6
CONTINUOUS
 62
     5
 10
63.46060743551743
 20
316.6667021929691
 30
0.0
 11
-15.5810022746046
 21
316.6667021929691
 31
0.0
  0
ARC
  5
ACA
  8
DETAIL
  6
CONTINUOUS
 62
     5
 10
99.95261784859531
 20
311.664068667026
 30
0.0
 40
5.002633525955355
 50
90.0
 51
180.0
  0
LINE
  5
ACB
  8
DETAIL
  6
CONTINUOUS
 62
     5
 10
94.94998432265248
 20
310.663541961814
 30
0.0
 11
95.75040568678679
 21
310.663541961814
 31
0.0
  0
LINE
  5
ACC
  8
DETAIL
  6
CONTINUOUS
 62
     5
 10
94.94998432265248
 20
311.664068667026
 30
0.0
 11
94.94998432265248
 21
310.663541961814
 31
0.0
  0
LINE
  5
ACD
  8
DETAIL
  6
CONTINUOUS
 62
     5
 10
146.5771623104733
 20
316.6667021929691
 30
0.0
 11
99.95261784859531
 21
316.6667021929691
 31
0.0
  0
ARC
  5
ACE
  8
DETAIL
  6
CONTINUOUS
 62
     5
 10
137.5955007797871
 20
305.6648104900371
 30
0.0
 40
4.999215059712613
 50
90.0446760000034
 51
180.0446220000342
  0
LINE
  5
ACF
  8
DETAIL
  6
CONTINUOUS
 62
     5
 10
151.5797958364178
 20
310.663541961814
 30
0.0
 11
151.5797958364178
 21
311.664068667026
 31
0.0
  0
POINT
  5
BD9
  8
DEFPOINTS
  6
CONTINUOUS
 62
     7
 10
224.0
 20
242.249999999998
 30
0.0
 50
180.0
  0
POINT
  5
BDA
  8
DEFPOINTS
  6
CONTINUOUS
 62
     7
 10
252.7499999999991
 20
262.000000000002
 30
0.0
 50
180.0
  0
POINT
  5
BDB
  8
DEFPOINTS
  6
CONTINUOUS
 62
     7
 10
243.75
 20
261.999999999997
 30
0.0
 50
180.0
  0
LINE
  5
BDC
  8
SIZE
  6
CONTINUOUS
 62
    30
 10
382.2062336844705
 20
1347.0
 30
0.0
 11
1073.236563766225
 21
1347.000000000001
 31
0.0
  0
LINE
  5
BDD
  8
SIZE
  6
CONTINUOUS
 62
    30
 10
384.999999999999
 20
0.0
 30
0.0
 11
1073.236563766225
 21
0.0
 31
0.0
  0
LINE
  5
BDE
  8
SIZE
  6
CONTINUOUS
 62
    30
 10
1058.236563766224
 20
1337.000000000001
 30
0.0
 11
1058.236563766225
 21
10.0
 31
0.0
  0
CIRCLE
  5
BDF
  8
SIZE
  6
CONTINUOUS
 62
    30
 10
1058.236563766224
 20
1347.000000000001
 30
0.0
 40
5.0
  0
LINE
  5
BE0
  8
SIZE
  6
CONTINUOUS
 62
    30
 10
1058.236563766224
 20
1342.000000000001
 30
0.0
 11
1058.236563766224
 21
1337.000000000001
 31
0.0
  0
CIRCLE
  5
BE1
  8
SIZE
  6
CONTINUOUS
 62
    30
 10
1058.236563766225
 20
0.0
 30
0.0
 40
5.0
  0
LINE
  5
BE2
  8
SIZE
  6
CONTINUOUS
 62
    30
 10
1058.236563766225
 20
5.0
 30
0.0
 11
1058.236563766225
 21
10.0
 31
0.0
  0
TEXT
  5
BE3
  8
SIZE
  6
CONTINUOUS
 62
    30
 10
1040.820886951295
 20
575.6785714285703
 30
0.0
 40
55.0
  1
1347
 50
90.0
 41
0.9
 72
     1
 11
1040.820886951295
 21
673.4999999999989
 31
0.0
  0
POINT
  5
BE4
  8
DEFPOINTS
  6
CONTINUOUS
 62
     7
 10
1058.236563766225
 20
0.0
 30
0.0
 50
180.0
  0
LINE
  5
BE5
  8
SIZE
  6
CONTINUOUS
 62
    30
 10
384.999999999999
 20
0.0
 30
0.0
 11
1173.236563766224
 21
0.0
 31
0.0
  0
LINE
  5
BE6
  8
SIZE
  6
CONTINUOUS
 62
    30
 10
372.7012255818186
 20
1649.999999999999
 30
0.0
 11
1173.236563766224
 21
1650.000000000001
 31
0.0
  0
LINE
  5
BE7
  8
SIZE
  6
CONTINUOUS
 62
    30
 10
1158.236563766225
 20
10.0
 30
0.0
 11
1158.236563766225
 21
1640.000000000001
 31
0.0
  0
CIRCLE
  5
BE8
  8
SIZE
  6
CONTINUOUS
 62
    30
 10
1158.236563766225
 20
0.0
 30
0.0
 40
5.0
  0
LINE
  5
BE9
  8
SIZE
  6
CONTINUOUS
 62
    30
 10
1158.236563766225
 20
5.0
 30
0.0
 11
1158.236563766225
 21
10.0
 31
0.0
  0
CIRCLE
  5
BEA
  8
SIZE
  6
CONTINUOUS
 62
    30
 10
1158.236563766225
 20
1650.000000000001
 30
0.0
 40
5.0
  0
LINE
  5
BEB
  8
SIZE
  6
CONTINUOUS
 62
    30
 10
1158.236563766225
 20
1645.000000000001
 30
0.0
 11
1158.236563766225
 21
1640.000000000001
 31
0.0
  0
TEXT
  5
BEC
  8
SIZE
  6
CONTINUOUS
 62
    30
 10
1140.820886951295
 20
727.1785714285703
 30
0.0
 40
55.0
  1
1650
 50
90.0
 41
0.9
 72
     1
 11
1140.820886951295
 21
824.9999999999989
 31
0.0
  0
POINT
  5
BED
  8
DEFPOINTS
  6
CONTINUOUS
 62
     7
 10
1158.236563766225
 20
1650.000000000001
 30
0.0
 50
180.0
  0
LINE
  5
BEF
  8
NOTE
  6
CONTINUOUS
 62
     4
 10
243.75
 20
261.999999999997
 30
0.0
 11
204.2499999999999
 21
261.999999999997
 31
0.0
  0
LINE
  5
BF0
  8
NOTE
  6
CONTINUOUS
 62
     4
 10
224.0
 20
281.749999999997
 30
0.0
 11
224.0
 21
242.249999999998
 31
0.0
  0
TEXT
  5
BF1
  8
NOTE
  6
CONTINUOUS
 62
     4
 10
621.151954138966
 20
824.0768174170701
 30
0.0
 40
55.0
  1
RL %%C19.05
 50
359.9999969216753
 41
0.6309520000000001
  7
STANDARD1
  0
LINE
  5
BF2
  8
NOTE
  6
CONTINUOUS
 62
     4
 10
608.8762602409621
 20
813.731997600067
 30
0.0
 11
918.8854954447206
 21
813.731997600067
 31
0.0
  0
LINE
  5
BF3
  8
SIZE
  6
CONTINUOUS
 62
    30
 10
372.7012255818186
 20
1649.999999999999
 30
0.0
 11
1073.236563766225
 21
1650.000000000001
 31
0.0
  0
LINE
  5
BF4
  8
SIZE
  6
CONTINUOUS
 62
    30
 10
382.2062336844705
 20
1347.0
 30
0.0
 11
1073.236563766225
 21
1347.000000000001
 31
0.0
  0
LINE
  5
BF5
  8
SIZE
  6
CONTINUOUS
 62
    30
 10
1058.236563766225
 20
1640.000000000001
 30
0.0
 11
1058.236563766225
 21
1357.000000000001
 31
0.0
  0
CIRCLE
  5
BF6
  8
SIZE
  6
CONTINUOUS
 62
    30
 10
1058.236563766225
 20
1650.000000000001
 30
0.0
 40
5.0
  0
LINE
  5
BF7
  8
SIZE
  6
CONTINUOUS
 62
    30
 10
1058.236563766225
 20
1645.000000000001
 30
0.0
 11
1058.236563766225
 21
1640.000000000001
 31
0.0
  0
CIRCLE
  5
BF8
  8
SIZE
  6
CONTINUOUS
 62
    30
 10
1058.236563766225
 20
1347.000000000001
 30
0.0
 40
5.0
  0
LINE
  5
BF9
  8
SIZE
  6
CONTINUOUS
 62
    30
 10
1058.236563766225
 20
1352.000000000001
 30
0.0
 11
1058.236563766225
 21
1357.000000000001
 31
0.0
  0
TEXT
  5
BFA
  8
SIZE
  6
CONTINUOUS
 62
    30
 10
1040.820886951295
 20
1427.785714285713
 30
0.0
 40
55.0
  1
303
 50
90.0
 41
0.9
 72
     1
 11
1040.820886951295
 21
1498.499999999999
 31
0.0
  0
POINT
  5
BFB
  8
DEFPOINTS
  6
CONTINUOUS
 62
     7
 10
1058.236563766225
 20
1347.000000000001
 30
0.0
 50
180.0
  0
TEXT
  5
BFC
  8
ETC
  6
CONTINUOUS
 62
    61
 10
147.4131821856017
 20
1953.250396042682
 30
0.0
 40
90.0
  1
PURY-P335_400DMG3_5
 50
359.9999970424414
 41
0.6030590000000001
  7
STANDARD1
  0
LINE
  5
BFD
  8
NOTE
  6
CONTINUOUS
 62
     4
 10
224.0000000000022
 20
262.000000000002
 30
0.0
 11
608.8762602409621
 21
813.731997600067
 31
0.0
210
0.0
220
0.0
230
-1.0
  0
LINE
  5
BFE
  8
NOTE
  6
CONTINUOUS
 62
     4
 10
245.6916117133294
 20
284.2281594572648
 30
0.0
 11
224.0
 21
261.999999999997
 31
0.0
210
0.0
220
0.0
230
-1.0
  0
LINE
  5
BFF
  8
NOTE
  6
CONTINUOUS
 62
     4
 10
224.0
 20
261.999999999997
 30
0.0
 11
231.6714072006703
 21
292.095956591226
 31
0.0
210
0.0
220
0.0
230
-1.0
  0
LINE
  5
C00
  8
SIZE
  6
CONTINUOUS
 62
    30
 10
384.999999999999
 20
-0.0000000000020464
 30
0.0
 11
665.8355955738288
 21
-0.0000000000020464
 31
0.0
  0
LINE
  5
C01
  8
SIZE
  6
CONTINUOUS
 62
    30
 10
267.749999999999
 20
261.999999999998
 30
0.0
 11
665.8355955738288
 21
261.999999999998
 31
0.0
  0
LINE
  5
C02
  8
SIZE
  6
CONTINUOUS
 62
    30
 10
650.8355955738286
 20
9.999999999997954
 30
0.0
 11
650.8355955738286
 21
251.9999999999989
 31
0.0
  0
CIRCLE
  5
C03
  8
SIZE
  6
CONTINUOUS
 62
    30
 10
650.8355955738286
 20
-0.0000000000020464
 30
0.0
 40
5.0
  0
LINE
  5
C04
  8
SIZE
  6
CONTINUOUS
 62
    30
 10
650.8355955738286
 20
4.999999999997954
 30
0.0
 11
650.8355955738286
 21
9.999999999997954
 31
0.0
  0
CIRCLE
  5
C05
  8
SIZE
  6
CONTINUOUS
 62
    30
 10
650.8355955738286
 20
261.999999999998
 30
0.0
 40
5.0
  0
LINE
  5
C06
  8
SIZE
  6
CONTINUOUS
 62
    30
 10
650.8355955738286
 20
256.999999999998
 30
0.0
 11
650.8355955738286
 21
251.9999999999989
 31
0.0
  0
TEXT
  5
C07
  8
SIZE
  6
CONTINUOUS
 62
    30
 10
637.5842681063885
 20
59.28571428571223
 30
0.0
 40
55.0
  1
262
 50
90.0
 41
0.9
 72
     1
 11
637.5842681063885
 21
129.999999999998
 31
0.0
  0
POINT
  5
C08
  8
DEFPOINTS
  6
CONTINUOUS
 62
     7
 10
650.8355955738286
 20
261.999999999998
 30
0.0
 50
180.0
  0
LINE
  5
C09
  8
SIZE
  6
CONTINUOUS
 62
    30
 10
369.9999999999989
 20
1328.482355376127
 30
0.0
 11
369.9999999999989
 21
1825.865541153679
 31
0.0
  0
LINE
  5
C0A
  8
SIZE
  6
CONTINUOUS
 62
    30
 10
-370.0000000000008
 20
1328.482355376127
 30
0.0
 11
-370.0000000000008
 21
1825.865541153679
 31
0.0
  0
LINE
  5
C0B
  8
SIZE
  6
CONTINUOUS
 62
    30
 10
359.999999999999
 20
1810.865541153679
 30
0.0
 11
-360.0000000000008
 21
1810.865541153679
 31
0.0
  0
LINE
  5
C0C
  8
SIZE
  6
CONTINUOUS
 62
    30
 10
224.0
 20
296.749999999997
 30
0.0
 11
224.0
 21
389.649886952044
 31
0.0
  0
LINE
  5
C0D
  8
SIZE
  6
CONTINUOUS
 62
    30
 10
369.9999999999989
 20
14.99999999999886
 30
0.0
 11
369.9999999999989
 21
389.649886952044
 31
0.0
  0
LINE
  5
C0E
  8
SIZE
  6
CONTINUOUS
 62
    30
 10
234.0
 20
374.649886952044
 30
0.0
 11
359.999999999999
 21
374.649886952044
 31
0.0
  0
LINE
  5
C0F
  8
SIZE
  6
CONTINUOUS
 62
    30
 10
369.9999999999989
 20
374.649886952044
 30
0.0
 11
513.4016329088417
 21
374.649886952044
 31
0.0
  0
TEXT
  5
C10
  8
SIZE
  6
CONTINUOUS
 62
    30
 10
-70.7142857142862
 20
1827.184901647606
 30
0.0
 40
55.0
  1
740
 41
0.9
 72
     1
 11
-0.0000000000004832
 21
1827.184901647606
 31
0.0
  0
CIRCLE
  5
C11
  8
SIZE
  6
CONTINUOUS
 62
    30
 10
-370.0000000000008
 20
1810.865541153679
 30
0.0
 40
5.0
  0
LINE
  5
C12
  8
SIZE
  6
CONTINUOUS
 62
    30
 10
-365.0000000000008
 20
1810.865541153679
 30
0.0
 11
-360.0000000000008
 21
1810.865541153679
 31
0.0
  0
CIRCLE
  5
C13
  8
SIZE
  6
CONTINUOUS
 62
    30
 10
369.9999999999989
 20
1810.865541153679
 30
0.0
 40
5.0
  0
LINE
  5
C14
  8
SIZE
  6
CONTINUOUS
 62
    30
 10
364.9999999999989
 20
1810.865541153679
 30
0.0
 11
359.999999999999
 21
1810.865541153679
 31
0.0
  0
TEXT
  5
C15
  8
SIZE
  6
CONTINUOUS
 62
    30
 10
378.4382552674479
 20
386.0653057726252
 30
0.0
 40
55.0
  1
146
 41
0.9
 72
     1
 11
452.6882552674479
 21
386.0653057726252
 31
0.0
  0
CIRCLE
  5
C16
  8
SIZE
  6
CONTINUOUS
 62
    30
 10
369.9999999999989
 20
374.649886952044
 30
0.0
 40
5.0
  0
LINE
  5
C17
  8
SIZE
  6
CONTINUOUS
 62
    30
 10
364.9999999999989
 20
374.649886952044
 30
0.0
 11
359.999999999999
 21
374.649886952044
 31
0.0
  0
CIRCLE
  5
C18
  8
SIZE
  6
CONTINUOUS
 62
    30
 10
224.0
 20
374.649886952044
 30
0.0
 40
5.0
  0
LINE
  5
C19
  8
SIZE
  6
CONTINUOUS
 62
    30
 10
229.0
 20
374.649886952044
 30
0.0
 11
234.0
 21
374.649886952044
 31
0.0
  0
TEXT
  5
C1A
  8
NOTE
  6
CONTINUOUS
 62
     4
 10
606.1142115559259
 20
723.9640533658951
 30
0.0
 40
55.0
  1
RG %%C22.2
 50
0.0000030783246592
 41
0.6309520000000001
  7
STANDARD1
  0
LINE
  5
C1B
  8
NOTE
  6
CONTINUOUS
 62
     4
 10
897.8677484513125
 20
672.9782168708991
 30
0.0
 11
510.6894793809424
 21
672.9782168708978
 31
0.0
  0
TEXT
  5
C1C
  8
NOTE
  6
CONTINUOUS
 62
     4
 10
621.5228295590122
 20
682.8910634022488
 30
0.0
 40
30.0
  1
PURY-P335DMG
 41
0.7
  0
TEXT
  5
C1D
  8
NOTE
  6
CONTINUOUS
 62
     4
 10
537.8518794631508
 20
600.0301236877228
 30
0.0
 40
55.0
  1
RG %%C25.4
 50
0.0000030783246592
 41
0.6309520000000001
  7
STANDARD1
  0
LINE
  5
C1E
  8
NOTE
  6
CONTINUOUS
 62
     4
 10
839.4335756147786
 20
543.7861913129948
 30
0.0
 11
420.567927855989
 21
543.7861913129962
 31
0.0
  0
TEXT
  5
C1F
  8
NOTE
  6
CONTINUOUS
 62
     4
 10
555.7843873541469
 20
556.6227602967967
 30
0.0
 40
30.0
  1
PURY-P400DMG
 41
0.7
  0
ENDSEC
  0
EOF
