  0
SECTION
  2
HEADER
  9
$ACADVER
  1
AC1009
  9
$DWGCODEPAGE
  3
ansi_932
  9
$INSBASE
 10
0.0
 20
0.0
 30
0.0
  9
$EXTMIN
 10
-988.6474364770656
 20
1022.216813199007
 30
-0.000000000000013
  9
$EXTMAX
 10
1740.081804269088
 20
2668.334972192923
 30
0.0000000000000023
  9
$LIMMIN
 10
-4000.0
 20
-1000.0
  9
$LIMMAX
 10
5000.0
 20
5000.0
  9
$ORTHOMODE
 70
     1
  9
$REGENMODE
 70
     1
  9
$FILLMODE
 70
     1
  9
$QTEXTMODE
 70
     0
  9
$MIRRTEXT
 70
     0
  9
$DRAGMODE
 70
     2
  9
$LTSCALE
 40
20.0
  9
$OSMODE
 70
    37
  9
$ATTMODE
 70
     1
  9
$TEXTSIZE
 40
64.0
  9
$TRACEWID
 40
0.05
  9
$TEXTSTYLE
  7
STANDARD
  9
$CLAYER
  8
SYMBOLLINE
  9
$CELTYPE
  6
CONTINUOUS
  9
$CECOLOR
 62
     7
  9
$DIMSCALE
 40
1.0
  9
$DIMASZ
 40
10.0
  9
$DIMEXO
 40
15.0
  9
$DIMDLI
 40
200.0
  9
$DIMRND
 40
0.0
  9
$DIMDLE
 40
0.0
  9
$DIMEXE
 40
15.0
  9
$DIMTP
 40
0.0
  9
$DIMTM
 40
0.0
  9
$DIMTXT
 40
55.0
  9
$DIMCEN
 40
0.0
  9
$DIMTSZ
 40
0.0
  9
$DIMTOL
 70
     0
  9
$DIMLIM
 70
     0
  9
$DIMTIH
 70
     0
  9
$DIMTOH
 70
     0
  9
$DIMSE1
 70
     0
  9
$DIMSE2
 70
     0
  9
$DIMTAD
 70
     1
  9
$DIMZIN
 70
     8
  9
$DIMBLK
  1
DOTBLANK
  9
$DIMASO
 70
     1
  9
$DIMSHO
 70
     0
  9
$DIMPOST
  1

  9
$DIMAPOST
  1

  9
$DIMALT
 70
     0
  9
$DIMALTD
 70
     2
  9
$DIMALTF
 40
25.4
  9
$DIMLFAC
 40
1.0
  9
$DIMTOFL
 70
     1
  9
$DIMTVP
 40
0.0
  9
$DIMTIX
 70
     1
  9
$DIMSOXD
 70
     0
  9
$DIMSAH
 70
     0
  9
$DIMBLK1
  1

  9
$DIMBLK2
  1

  9
$DIMSTYLE
  2
STANDARD
  9
$DIMCLRD
 70
     0
  9
$DIMCLRE
 70
     0
  9
$DIMCLRT
 70
     0
  9
$DIMTFAC
 40
1.0
  9
$DIMGAP
 40
0.09
  9
$LUNITS
 70
     2
  9
$LUPREC
 70
     4
  9
$SKETCHINC
 40
0.1
  9
$FILLETRAD
 40
1.5
  9
$AUNITS
 70
     1
  9
$AUPREC
 70
     3
  9
$MENU
  1
ACAD
  9
$ELEVATION
 40
0.0
  9
$PELEVATION
 40
0.0
  9
$THICKNESS
 40
0.0
  9
$LIMCHECK
 70
     0
  9
$CHAMFERA
 40
0.0
  9
$CHAMFERB
 40
0.0
  9
$SKPOLY
 70
     0
  9
$TDCREATE
 40
2449761.493622674
  9
$TDUPDATE
 40
2457464.660177153
  9
$TDINDWG
 40
11.6910532755
  9
$TDUSRTIMER
 40
11.6910503356
  9
$USRTIMER
 70
     1
  9
$ANGBASE
 50
0.0
  9
$ANGDIR
 70
     0
  9
$PDMODE
 70
    35
  9
$PDSIZE
 40
100.0
  9
$PLINEWID
 40
0.0
  9
$COORDS
 70
     1
  9
$SPLFRAME
 70
     0
  9
$SPLINETYPE
 70
     6
  9
$SPLINESEGS
 70
     8
  9
$ATTDIA
 70
     0
  9
$ATTREQ
 70
     1
  9
$HANDLING
 70
     1
  9
$HANDSEED
  5
6CA
  9
$SURFTAB1
 70
     6
  9
$SURFTAB2
 70
     6
  9
$SURFTYPE
 70
     6
  9
$SURFU
 70
     6
  9
$SURFV
 70
     6
  9
$UCSNAME
  2
W_UCS
  9
$UCSORG
 10
224.9714830490184
 20
1793.831069627158
 30
0.0
  9
$UCSXDIR
 10
1.0
 20
0.0
 30
0.0
  9
$UCSYDIR
 10
0.0
 20
1.0
 30
0.0
  9
$PUCSNAME
  2

  9
$PUCSORG
 10
0.0
 20
0.0
 30
0.0
  9
$PUCSXDIR
 10
1.0
 20
0.0
 30
0.0
  9
$PUCSYDIR
 10
0.0
 20
1.0
 30
0.0
  9
$USERI1
 70
     0
  9
$USERI2
 70
     0
  9
$USERI3
 70
     0
  9
$USERI4
 70
     0
  9
$USERI5
 70
     0
  9
$USERR1
 40
20.0
  9
$USERR2
 40
0.0
  9
$USERR3
 40
0.0
  9
$USERR4
 40
0.0
  9
$USERR5
 40
0.0
  9
$WORLDVIEW
 70
     1
  9
$SHADEDGE
 70
     3
  9
$SHADEDIF
 70
    70
  9
$TILEMODE
 70
     1
  9
$MAXACTVP
 70
    64
  9
$PLIMCHECK
 70
     0
  9
$PEXTMIN
 10
1.000000000000000E+20
 20
1.000000000000000E+20
 30
1.000000000000000E+20
  9
$PEXTMAX
 10
-1.000000000000000E+20
 20
-1.000000000000000E+20
 30
-1.000000000000000E+20
  9
$PLIMMIN
 10
0.0
 20
0.0
  9
$PLIMMAX
 10
12.0
 20
9.0
  9
$UNITMODE
 70
     0
  9
$VISRETAIN
 70
     1
  9
$PLINEGEN
 70
     0
  9
$PSLTSCALE
 70
     1
  0
ENDSEC
  0
SECTION
  2
TABLES
  0
TABLE
  2
VPORT
 70
     1
  0
VPORT
  2
*ACTIVE
 70
     0
 10
0.0
 20
0.0
 11
1.0
 21
1.0
 12
375.7171838960112
 22
1845.275892695965
 13
0.0
 23
0.0
 14
50.0
 24
50.0
 15
100.0
 25
100.0
 16
0.0
 26
0.0
 36
1.0
 17
0.0
 27
0.0
 37
0.0
 40
1696.78721473248
 41
1.615989515072083
 42
50.0
 43
0.0
 44
0.0
 50
0.0
 51
0.0
 71
     0
 72
  1000
 73
     1
 74
     0
 75
     0
 76
     0
 77
     0
 78
     0
  0
ENDTAB
  0
TABLE
  2
LTYPE
 70
     2
  0
LTYPE
  2
CONTINUOUS
 70
     0
  3
実線
 72
    65
 73
     0
 40
0.0
  0
LTYPE
  2
DASHDOT
 70
     0
  3
____ _ ____ _ ____ _ ____ _ ____ _ ____ _ ____
 72
    65
 73
     4
 40
5.5
 49
4.0
 49
-0.6
 49
0.3
 49
-0.6
  0
ENDTAB
  0
TABLE
  2
LAYER
 70
    12
  0
LAYER
  2
0
 70
     0
 62
     7
  6
CONTINUOUS
  0
LAYER
  2
SYMBOLLINE
 70
     0
 62
    15
  6
CONTINUOUS
  0
LAYER
  2
OUTLINE
 70
     0
 62
     3
  6
CONTINUOUS
  0
LAYER
  2
DETAIL
 70
     0
 62
     5
  6
CONTINUOUS
  0
LAYER
  2
BASIS
 70
     0
 62
     6
  6
DASHDOT
  0
LAYER
  2
SIZE
 70
     0
 62
    30
  6
CONTINUOUS
  0
LAYER
  2
NOTE
 70
     0
 62
     4
  6
CONTINUOUS
  0
LAYER
  2
ARRANGE
 70
     0
 62
     1
  6
CONTINUOUS
  0
LAYER
  2
FIX
 70
     0
 62
    11
  6
CONTINUOUS
  0
LAYER
  2
SERVICESPACE
 70
     0
 62
     2
  6
DASHDOT
  0
LAYER
  2
ETC
 70
     0
 62
    61
  6
CONTINUOUS
  0
LAYER
  2
DEFPOINTS
 70
     0
 62
     7
  6
CONTINUOUS
  0
ENDTAB
  0
TABLE
  2
STYLE
 70
     3
  0
STYLE
  2
STANDARD
 70
     0
 40
0.0
 41
0.9
 50
0.0
 71
     0
 42
64.0
  3
SIMPLEX
  4
BIGFONT
  0
STYLE
  2
ANNOTATIVE
 70
     0
 40
0.0
 41
1.0
 50
0.0
 71
     0
 42
0.2
  3
txt
  4

  0
STYLE
  2
STANDARD1
 70
     0
 40
0.0
 41
1.0
 50
0.0
 71
     0
 42
3.5
  3
MONOTXT
  4
BIGFONT
  0
ENDTAB
  0
TABLE
  2
VIEW
 70
     1
  0
VIEW
  2
ALL
 70
     0
 40
6056.230032000001
 10
0.0
 20
58.11501599999999
 41
8400.0
 11
0.0
 21
0.0
 31
1.0
 12
0.0
 22
0.0
 32
0.0
 42
50.0
 43
0.0
 44
0.0
 50
0.0
 71
     0
  0
ENDTAB
  0
TABLE
  2
UCS
 70
     1
  0
UCS
  2
W_UCS
 70
     0
 10
0.0
 20
0.0
 30
0.0
 11
1.0
 21
0.0
 31
0.0
 12
0.0
 22
1.0
 32
0.0
  0
ENDTAB
  0
TABLE
  2
APPID
 70
     5
  0
APPID
  2
ACAD
 70
     0
  0
APPID
  2
ACADANNOTATIVE
 70
     0
  0
APPID
  2
ACAD_MLEADERVER
 70
     0
  0
APPID
  2
ACAD_EXEMPT_FROM_CAD_STAND
 70
     0
  0
APPID
  2
ACAD_NAV_VCDISPLAY
 70
     0
  0
ENDTAB
  0
TABLE
  2
DIMSTYLE
 70
     2
  0
DIMSTYLE
  2
STANDARD
 70
     0
  3

  4

  5

  6

  7

 40
1.0
 41
0.18
 42
0.0625
 43
0.38
 44
0.18
 45
0.0
 46
0.0
 47
0.0
 48
0.0
140
0.18
141
0.09
142
0.0
143
25.4
144
1.0
145
0.0
146
1.0
147
0.09
 71
     0
 72
     0
 73
     1
 74
     1
 75
     0
 76
     0
 77
     0
 78
     0
170
     0
171
     2
172
     0
173
     0
174
     0
175
     0
176
     0
177
     0
178
     0
  0
DIMSTYLE
  2
ANNOTATIVE
 70
     0
  3

  4

  5

  6

  7

 40
1.0
 41
0.18
 42
0.0625
 43
0.38
 44
0.18
 45
0.0
 46
0.0
 47
0.0
 48
0.0
140
0.18
141
0.09
142
0.0
143
25.4
144
1.0
145
0.0
146
1.0
147
0.09
 71
     0
 72
     0
 73
     1
 74
     1
 75
     0
 76
     0
 77
     0
 78
     0
170
     0
171
     2
172
     0
173
     0
174
     0
175
     0
176
     0
177
     0
178
     0
  0
ENDTAB
  0
ENDSEC
  0
SECTION
  2
BLOCKS
  0
BLOCK
  8
0
  2
$MODEL_SPACE
 70
     0
 10
0.0
 20
0.0
 30
0.0
  3
$MODEL_SPACE
  1

  0
ENDBLK
  5
594
  8
0
  0
BLOCK
 67
     1
  8
0
  2
$PAPER_SPACE
 70
     0
 10
0.0
 20
0.0
 30
0.0
  3
$PAPER_SPACE
  1

  0
ENDBLK
  5
590
 67
     1
  8
0
  0
BLOCK
  8
0
  2
_DOTBLANK
 70
     0
 10
0.0
 20
0.0
 30
0.0
  3
_DOTBLANK
  1

  0
CIRCLE
  5
8C
  8
0
  6
CONTINUOUS
 62
     7
 10
0.0
 20
0.0
 30
0.0
 40
0.5
  0
LINE
  5
8D
  8
0
  6
CONTINUOUS
 62
     7
 10
-0.5
 20
0.0
 30
0.0
 11
-1.0
 21
0.0
 31
0.0
  0
ENDBLK
  5
8E
  8
0
  0
BLOCK
  8
0
  2
*D1
 70
     1
 10
0.0
 20
0.0
 30
0.0
  3
*D1
  1

  0
LINE
  5
4E7
  8
SYMBOLLINE
  6
CONTINUOUS
 62
     0
 10
-48.29093344136025
 20
1569.831069627056
 30
0.0
 11
1094.80734011935
 21
1569.831069627056
 31
0.0
  0
LINE
  5
4E8
  8
SYMBOLLINE
  6
CONTINUOUS
 62
     0
 10
239.9714830490188
 20
1423.831069902117
 30
0.0
 11
1094.80734011935
 21
1423.831069902117
 31
0.0
  0
LINE
  5
4E9
  8
SYMBOLLINE
  6
CONTINUOUS
 62
     0
 10
1079.807340119351
 20
1559.831069627056
 30
0.0
 11
1079.80734011935
 21
1433.831069902117
 31
0.0
  0
INSERT
  5
4EA
  8
SYMBOLLINE
  6
CONTINUOUS
 62
     0
  2
_DOTBLANK
 10
1079.807340119351
 20
1569.831069627056
 30
0.0
 41
10.0
 42
10.0
 43
10.0
 50
90.0
  0
INSERT
  5
4EB
  8
SYMBOLLINE
  6
CONTINUOUS
 62
     0
  2
_DOTBLANK
 10
1079.80734011935
 20
1423.831069902117
 30
0.0
 41
10.0
 42
10.0
 43
10.0
 50
270.0
  0
INSERT
  5
4EC
  8
SYMBOLLINE
  6
CONTINUOUS
 62
     7
  2
*U2
 10
0.0
 20
0.0
 30
0.0
  0
POINT
  5
4ED
  8
DEFPOINTS
  6
CONTINUOUS
 62
     0
 10
-63.29093344136025
 20
1569.831069627056
 30
0.0
  0
POINT
  5
4EE
  8
DEFPOINTS
  6
CONTINUOUS
 62
     0
 10
224.9714830490189
 20
1423.831069902117
 30
0.0
  0
POINT
  5
4EF
  8
DEFPOINTS
  6
CONTINUOUS
 62
     0
 10
1079.80734011935
 20
1423.831069902117
 30
0.0
  0
ENDBLK
  5
4E6
  8
0
 62
     7
  0
BLOCK
  8
0
  2
*U2
 70
     1
 10
0.0
 20
0.0
 30
0.0
  3
*U2
  1

  0
TEXT
  5
521
  8
SYMBOLLINE
  6
CONTINUOUS
 62
     0
 10
1079.71734011935
 20
1439.081069764587
 30
0.0
 40
55.0
  1
146
 50
90.0
 41
0.9
  0
ENDBLK
  5
523
  8
0
 62
     7
  0
ENDSEC
  0
SECTION
  2
ENTITIES
  0
TEXT
  5
8F
  8
ETC
  6
CONTINUOUS
 62
    61
 10
444.3100910280463
 20
784.1343935610009
 30
0.0
 40
90.0
  1
PURY-P335_400DMG3_6
 50
0.0000029575586669
 41
0.6030590000000001
  7
STANDARD1
  0
CIRCLE
  5
90
  8
DETAIL
  6
CONTINUOUS
 62
     5
 10
-308.9999999999798
 20
-224.0000000001301
 30
0.0
 40
9.525
  0
CIRCLE
  5
91
  8
DETAIL
  6
CONTINUOUS
 62
     5
 10
-226.0000000000411
 20
-223.9999999999161
 30
0.0
 40
11.1
  0
LINE
  5
92
  8
ARRANGE
  6
CONTINUOUS
 62
     1
 10
-37.89732100000037
 20
37.89732100000083
 30
0.0
 11
37.89732099999952
 21
-37.89732100000015
 31
0.0
  0
LINE
  5
93
  8
ARRANGE
  6
CONTINUOUS
 62
     1
 10
-37.89732100000037
 20
-37.89732100000015
 30
0.0
 11
37.89732099999952
 21
37.89732100000083
 31
0.0
  0
LINE
  5
94
  8
BASIS
  6
DASHDOT
 62
     6
 10
-699.9999999999995
 20
0.0000000000009095
 30
0.0
 11
699.9999999999994
 21
0.0000000000009095
 31
0.0
  0
LINE
  5
95
  8
BASIS
  6
DASHDOT
 62
     6
 10
0.0000000000005116
 20
-400.0
 30
0.0
 11
-0.0000000000004832
 21
400.0000000000011
 31
0.0
  0
CIRCLE
  5
96
  8
ARRANGE
  6
CONTINUOUS
 62
     1
 10
-0.0000000000004832
 20
0.0000000000009095
 30
0.0
 40
34.449674
  0
CIRCLE
  5
97
  8
FIX
  6
CONTINUOUS
 62
    11
 10
-530.0000041688668
 20
-340.499999999998
 30
0.0
 40
18.598564
  0
ARC
  5
98
  8
DETAIL
  6
CONTINUOUS
 62
     5
 10
-530.0000041688668
 20
-343.499999999997
 30
0.0
 40
7.0
 50
180.0
 51
0.0
  0
LINE
  5
99
  8
NOTE
  6
CONTINUOUS
 62
     4
 10
-530.0000041688668
 20
-355.8414094795951
 30
0.0
 11
-530.0000041688663
 21
-325.1585905204001
 31
0.0
  0
LINE
  5
9A
  8
NOTE
  6
CONTINUOUS
 62
     4
 10
-514.6585946892387
 20
-340.499999999998
 30
0.0
 11
-545.3414136484948
 21
-340.499999999998
 31
0.0
  0
LINE
  5
9B
  8
DETAIL
  6
CONTINUOUS
 62
     5
 10
-523.0000041688668
 20
-343.499999999997
 30
0.0
 11
-523.0000041688668
 21
-337.499999999998
 31
0.0
  0
LINE
  5
9C
  8
DETAIL
  6
CONTINUOUS
 62
     5
 10
-537.0000041688668
 20
-343.499999999997
 30
0.0
 11
-537.0000041688668
 21
-337.499999999998
 31
0.0
  0
ARC
  5
9D
  8
DETAIL
  6
CONTINUOUS
 62
     5
 10
-530.0000041688668
 20
-337.499999999998
 30
0.0
 40
7.0
 50
0.0
 51
180.0
  0
CIRCLE
  5
9E
  8
FIX
  6
CONTINUOUS
 62
    11
 10
-530.0000041688604
 20
340.4999999999839
 30
0.0
 40
18.598564
  0
ARC
  5
9F
  8
DETAIL
  6
CONTINUOUS
 62
     5
 10
-530.0000041688604
 20
343.500000000003
 30
0.0
 40
7.0
 50
0.0
 51
180.0
  0
LINE
  5
A0
  8
NOTE
  6
CONTINUOUS
 62
     4
 10
-530.0000041688609
 20
325.1585905204058
 30
0.0
 11
-530.0000041688604
 21
355.8414094796001
 31
0.0
  0
LINE
  5
A1
  8
NOTE
  6
CONTINUOUS
 62
     4
 10
-514.6585946892325
 20
340.500000000002
 30
0.0
 11
-545.3414136484885
 21
340.500000000002
 31
0.0
  0
LINE
  5
A2
  8
DETAIL
  6
CONTINUOUS
 62
     5
 10
-523.0000041688609
 20
337.500000000003
 30
0.0
 11
-523.0000041688604
 21
343.500000000003
 31
0.0
  0
LINE
  5
A3
  8
DETAIL
  6
CONTINUOUS
 62
     5
 10
-537.0000041688609
 20
337.500000000003
 30
0.0
 11
-537.0000041688604
 21
343.500000000003
 31
0.0
  0
ARC
  5
A4
  8
DETAIL
  6
CONTINUOUS
 62
     5
 10
-530.0000041688609
 20
337.500000000003
 30
0.0
 40
7.0
 50
180.0
 51
0.0
  0
CIRCLE
  5
A5
  8
FIX
  6
CONTINUOUS
 62
    11
 10
530.0000041688688
 20
-340.499999999993
 30
0.0
 40
18.598564
  0
ARC
  5
A6
  8
DETAIL
  6
CONTINUOUS
 62
     5
 10
530.000004168869
 20
-343.499999999993
 30
0.0
 40
7.0
 50
180.0
 51
0.0
  0
LINE
  5
A7
  8
NOTE
  6
CONTINUOUS
 62
     4
 10
530.000004168869
 20
-355.8414094795901
 30
0.0
 11
530.0000041688681
 21
-325.158590520396
 31
0.0
  0
LINE
  5
A8
  8
NOTE
  6
CONTINUOUS
 62
     4
 10
514.6585946892409
 20
-340.499999999993
 30
0.0
 11
545.3414136484964
 21
-340.499999999993
 31
0.0
  0
LINE
  5
A9
  8
DETAIL
  6
CONTINUOUS
 62
     5
 10
523.000004168869
 20
-343.499999999993
 30
0.0
 11
523.0000041688688
 21
-337.499999999993
 31
0.0
  0
LINE
  5
AA
  8
DETAIL
  6
CONTINUOUS
 62
     5
 10
537.000004168869
 20
-343.499999999993
 30
0.0
 11
537.0000041688688
 21
-337.499999999992
 31
0.0
  0
ARC
  5
AB
  8
DETAIL
  6
CONTINUOUS
 62
     5
 10
530.0000041688688
 20
-337.499999999993
 30
0.0
 40
7.0
 50
0.0
 51
180.0
  0
CIRCLE
  5
AC
  8
FIX
  6
CONTINUOUS
 62
    11
 10
530.0000041688561
 20
340.4999999999889
 30
0.0
 40
18.598564
  0
ARC
  5
AD
  8
DETAIL
  6
CONTINUOUS
 62
     5
 10
530.0000041688561
 20
343.500000000007
 30
0.0
 40
7.0
 50
0.0
 51
180.0
  0
LINE
  5
AE
  8
NOTE
  6
CONTINUOUS
 62
     4
 10
530.0000041688567
 20
325.1585905204108
 30
0.0
 11
530.0000041688561
 21
355.8414094796051
 31
0.0
  0
LINE
  5
AF
  8
NOTE
  6
CONTINUOUS
 62
     4
 10
514.6585946892279
 20
340.500000000007
 30
0.0
 11
545.341413648484
 21
340.500000000007
 31
0.0
  0
LINE
  5
B0
  8
DETAIL
  6
CONTINUOUS
 62
     5
 10
523.0000041688567
 20
337.500000000007
 30
0.0
 11
523.0000041688563
 21
343.500000000007
 31
0.0
  0
LINE
  5
B1
  8
DETAIL
  6
CONTINUOUS
 62
     5
 10
537.0000041688567
 20
337.500000000008
 30
0.0
 11
537.0000041688563
 21
343.500000000007
 31
0.0
  0
ARC
  5
B2
  8
DETAIL
  6
CONTINUOUS
 62
     5
 10
530.0000041688567
 20
337.500000000008
 30
0.0
 40
7.0
 50
180.0
 51
0.0
  0
CIRCLE
  5
B3
  8
DETAIL
  6
CONTINUOUS
 62
     5
 10
-383.0000000000016
 20
-174.0
 30
0.0
 40
26.0
  0
LINE
  5
B4
  8
NOTE
  6
CONTINUOUS
 62
     4
 10
-340.310860578558
 20
-174.0
 30
0.0
 11
-425.6891394215106
 21
-174.0
 31
0.0
  0
LINE
  5
B5
  8
NOTE
  6
CONTINUOUS
 62
     4
 10
-383.000000000002
 20
-216.6891394215061
 30
0.0
 11
-383.0000000000011
 21
-131.310860578521
 31
0.0
  0
CIRCLE
  5
B6
  8
DETAIL
  6
CONTINUOUS
 62
     5
 10
-383.0000000000016
 20
-249.0
 30
0.0
 40
32.5
  0
LINE
  5
B7
  8
NOTE
  6
CONTINUOUS
 62
     4
 10
-333.8074369948242
 20
-249.0
 30
0.0
 11
-432.1925630052444
 21
-249.0
 31
0.0
  0
LINE
  5
B8
  8
NOTE
  6
CONTINUOUS
 62
     4
 10
-383.000000000002
 20
-298.192563005239
 30
0.0
 11
-383.0000000000011
 21
-199.807436994789
 31
0.0
  0
LINE
  5
BD
  8
SIZE
  6
CONTINUOUS
 62
    30
 10
-610.0000000000014
 20
331.3176544113937
 30
0.0
 11
-610.0000000000014
 21
715.0000000000011
 31
0.0
  0
LINE
  5
BE
  8
SIZE
  6
CONTINUOUS
 62
    30
 10
609.9999999999997
 20
330.8241989606629
 30
0.0
 11
609.9999999999997
 21
715.0000000000011
 31
0.0
  0
LINE
  5
BF
  8
SIZE
  6
CONTINUOUS
 62
    30
 10
-600.0000000000014
 20
700.0000000000011
 30
0.0
 11
599.9999999999994
 21
700.0000000000011
 31
0.0
  0
CIRCLE
  5
C0
  8
SIZE
  6
CONTINUOUS
 62
    30
 10
-610.0000000000014
 20
700.0000000000011
 30
0.0
 40
5.0
  0
LINE
  5
C1
  8
SIZE
  6
CONTINUOUS
 62
    30
 10
-605.0000000000014
 20
700.0000000000011
 30
0.0
 11
-600.0000000000014
 21
700.0000000000011
 31
0.0
  0
CIRCLE
  5
C2
  8
SIZE
  6
CONTINUOUS
 62
    30
 10
609.9999999999997
 20
700.0000000000011
 30
0.0
 40
5.0
  0
LINE
  5
C3
  8
SIZE
  6
CONTINUOUS
 62
    30
 10
604.9999999999995
 20
700.0000000000011
 30
0.0
 11
599.9999999999994
 21
700.0000000000011
 31
0.0
  0
TEXT
  5
C4
  8
SIZE
  6
CONTINUOUS
 62
    30
 10
-97.82142857142937
 20
715.000000000002
 30
0.0
 40
55.0
  1
1220
 41
0.9
 72
     1
 11
-0.0000000000007958
 21
715.000000000002
 31
0.0
  0
POINT
  5
C7
  8
DEFPOINTS
  6
CONTINUOUS
 62
     7
 10
609.9999999999997
 20
700.0000000000011
 30
0.0
  0
LINE
  5
C8
  8
SIZE
  6
CONTINUOUS
 62
    30
 10
-610.0000000000014
 20
331.3176544113937
 30
0.0
 11
-610.0000000000014
 21
615.0000000000011
 31
0.0
  0
LINE
  5
C9
  8
SIZE
  6
CONTINUOUS
 62
    30
 10
-530.0000041688604
 20
370.8414094796001
 30
0.0
 11
-530.0000041688604
 21
615.0000000000011
 31
0.0
  0
LINE
  5
CA
  8
SIZE
  6
CONTINUOUS
 62
    30
 10
-540.0000041688604
 20
600.0000000000011
 30
0.0
 11
-600.0000000000014
 21
600.0000000000011
 31
0.0
  0
LINE
  5
CB
  8
SIZE
  6
CONTINUOUS
 62
    30
 10
-610.0000000000014
 20
600.0000000000011
 30
0.0
 11
-730.1428571428584
 21
600.0000000000011
 31
0.0
  0
CIRCLE
  5
CC
  8
SIZE
  6
CONTINUOUS
 62
    30
 10
-530.0000041688604
 20
600.0000000000011
 30
0.0
 40
5.0
  0
LINE
  5
CD
  8
SIZE
  6
CONTINUOUS
 62
    30
 10
-535.0000041688604
 20
600.0000000000011
 30
0.0
 11
-540.0000041688604
 21
600.0000000000011
 31
0.0
  0
CIRCLE
  5
CE
  8
SIZE
  6
CONTINUOUS
 62
    30
 10
-610.0000000000014
 20
600.0000000000011
 30
0.0
 40
5.0
  0
LINE
  5
CF
  8
SIZE
  6
CONTINUOUS
 62
    30
 10
-605.0000000000014
 20
600.0000000000011
 30
0.0
 11
-600.0000000000014
 21
600.0000000000011
 31
0.0
  0
TEXT
  5
D0
  8
SIZE
  6
CONTINUOUS
 62
    30
 10
-722.2142857142868
 20
615.000000000002
 30
0.0
 40
55.0
  1
80
 41
0.9
 72
     1
 11
-675.0714285714297
 21
615.000000000002
 31
0.0
  0
POINT
  5
D2
  8
DEFPOINTS
  6
CONTINUOUS
 62
     7
 10
-530.0000041688604
 20
355.8414094796001
 30
0.0
  0
POINT
  5
D3
  8
DEFPOINTS
  6
CONTINUOUS
 62
     7
 10
-530.0000041688604
 20
600.0000000000011
 30
0.0
  0
LINE
  5
D4
  8
SIZE
  6
CONTINUOUS
 62
    30
 10
-530.0000041688604
 20
370.8414094796001
 30
0.0
 11
-530.0000041688604
 21
615.0000000000011
 31
0.0
  0
LINE
  5
D5
  8
SIZE
  6
CONTINUOUS
 62
    30
 10
530.0000041688561
 20
370.8414094796001
 30
0.0
 11
530.0000041688561
 21
615.0000000000011
 31
0.0
  0
LINE
  5
D6
  8
SIZE
  6
CONTINUOUS
 62
    30
 10
-520.0000041688604
 20
600.0000000000011
 30
0.0
 11
520.0000041688563
 21
600.0000000000011
 31
0.0
  0
CIRCLE
  5
D7
  8
SIZE
  6
CONTINUOUS
 62
    30
 10
-530.0000041688604
 20
600.0000000000011
 30
0.0
 40
5.0
  0
LINE
  5
D8
  8
SIZE
  6
CONTINUOUS
 62
    30
 10
-525.0000041688604
 20
600.0000000000011
 30
0.0
 11
-520.0000041688604
 21
600.0000000000011
 31
0.0
  0
CIRCLE
  5
D9
  8
SIZE
  6
CONTINUOUS
 62
    30
 10
530.0000041688561
 20
600.0000000000011
 30
0.0
 40
5.0
  0
LINE
  5
DA
  8
SIZE
  6
CONTINUOUS
 62
    30
 10
525.0000041688561
 20
600.0000000000011
 30
0.0
 11
520.0000041688561
 21
600.0000000000011
 31
0.0
  0
TEXT
  5
DB
  8
SIZE
  6
CONTINUOUS
 62
    30
 10
-235.7142857142878
 20
614.4047619047631
 30
0.0
 40
55.0
  1
1060(据付ピッチ)
 41
0.9
 72
     1
 11
-0.0000000000020748
 21
614.4047619047631
 31
0.0
  0
POINT
  5
DC
  8
DEFPOINTS
  6
CONTINUOUS
 62
     7
 10
-530.0000041688604
 20
355.8414094796001
 30
0.0
  0
POINT
  5
DD
  8
DEFPOINTS
  6
CONTINUOUS
 62
     7
 10
530.0000041688561
 20
355.8414094796001
 30
0.0
  0
POINT
  5
DE
  8
DEFPOINTS
  6
CONTINUOUS
 62
     7
 10
530.0000041688561
 20
600.0000000000011
 30
0.0
  0
LINE
  5
DF
  8
SIZE
  6
CONTINUOUS
 62
    30
 10
530.0000041688561
 20
370.8414094796051
 30
0.0
 11
530.0000041688561
 21
615.0000000000011
 31
0.0
  0
LINE
  5
E0
  8
SIZE
  6
CONTINUOUS
 62
    30
 10
609.9999999999997
 20
330.8241989606629
 30
0.0
 11
609.9999999999997
 21
615.0000000000011
 31
0.0
  0
LINE
  5
E1
  8
SIZE
  6
CONTINUOUS
 62
    30
 10
540.0000041688563
 20
600.0000000000011
 30
0.0
 11
599.9999999999994
 21
600.0000000000011
 31
0.0
  0
LINE
  5
E2
  8
SIZE
  6
CONTINUOUS
 62
    30
 10
609.9999999999997
 20
600.0000000000011
 30
0.0
 11
730.1428571428567
 21
600.0000000000011
 31
0.0
  0
CIRCLE
  5
E3
  8
SIZE
  6
CONTINUOUS
 62
    30
 10
530.0000041688561
 20
600.0000000000011
 30
0.0
 40
5.0
  0
LINE
  5
E4
  8
SIZE
  6
CONTINUOUS
 62
    30
 10
535.0000041688559
 20
600.0000000000011
 30
0.0
 11
540.0000041688559
 21
600.0000000000011
 31
0.0
  0
CIRCLE
  5
E5
  8
SIZE
  6
CONTINUOUS
 62
    30
 10
609.9999999999997
 20
600.0000000000011
 30
0.0
 40
5.0
  0
LINE
  5
E6
  8
SIZE
  6
CONTINUOUS
 62
    30
 10
604.9999999999995
 20
600.0000000000011
 30
0.0
 11
599.9999999999994
 21
600.0000000000011
 31
0.0
  0
TEXT
  5
E7
  8
SIZE
  6
CONTINUOUS
 62
    30
 10
627.928571428571
 20
615.000000000002
 30
0.0
 40
55.0
  1
80
 41
0.9
 72
     1
 11
675.0714285714281
 21
615.000000000002
 31
0.0
  0
POINT
  5
E8
  8
DEFPOINTS
  6
CONTINUOUS
 62
     7
 10
530.0000041688561
 20
355.8414094796051
 30
0.0
  0
POINT
  5
EA
  8
DEFPOINTS
  6
CONTINUOUS
 62
     7
 10
609.9999999999997
 20
600.0000000000011
 30
0.0
  0
LINE
  5
EB
  8
SIZE
  6
CONTINUOUS
 62
    30
 10
570.3385475549829
 20
370.0000000000011
 30
0.0
 11
1515.0
 21
370.0000000000011
 31
0.0
  0
LINE
  5
EC
  8
SIZE
  6
CONTINUOUS
 62
    30
 10
570.8179542115317
 20
-369.9999999999991
 30
0.0
 11
1515.0
 21
-370.0
 31
0.0
  0
LINE
  5
ED
  8
SIZE
  6
CONTINUOUS
 62
    30
 10
1500.0
 20
359.9999999999989
 30
0.0
 11
1500.0
 21
-360.0
 31
0.0
  0
CIRCLE
  5
EE
  8
SIZE
  6
CONTINUOUS
 62
    30
 10
1500.0
 20
370.0000000000011
 30
0.0
 40
5.0
  0
LINE
  5
EF
  8
SIZE
  6
CONTINUOUS
 62
    30
 10
1500.0
 20
365.0000000000011
 30
0.0
 11
1500.0
 21
360.0000000000011
 31
0.0
  0
CIRCLE
  5
F0
  8
SIZE
  6
CONTINUOUS
 62
    30
 10
1500.0
 20
-370.0
 30
0.0
 40
5.0
  0
LINE
  5
F1
  8
SIZE
  6
CONTINUOUS
 62
    30
 10
1500.0
 20
-365.0
 30
0.0
 11
1500.0
 21
-360.0
 31
0.0
  0
TEXT
  5
F2
  8
SIZE
  6
CONTINUOUS
 62
    30
 10
1484.999999999999
 20
-70.71428571428481
 30
0.0
 40
55.0
  1
740
 50
90.0
 41
0.9
 72
     1
 11
1484.999999999999
 21
0.0000000000009095
 31
0.0
  0
POINT
  5
F3
  8
DEFPOINTS
  6
CONTINUOUS
 62
     7
 10
555.3385475549821
 20
370.0000000000011
 30
0.0
  0
POINT
  5
F5
  8
DEFPOINTS
  6
CONTINUOUS
 62
     7
 10
1500.0
 20
-370.0
 30
0.0
  0
LINE
  5
F6
  8
SIZE
  6
CONTINUOUS
 62
    30
 10
570.3385475549835
 20
370.0000000000011
 30
0.0
 11
1315.0
 21
370.0000000000011
 31
0.0
  0
LINE
  5
F7
  8
SIZE
  6
CONTINUOUS
 62
    30
 10
560.341413648484
 20
340.500000000007
 30
0.0
 11
1315.0
 21
340.500000000007
 31
0.0
  0
LINE
  5
F8
  8
SIZE
  6
CONTINUOUS
 62
    30
 10
1300.0
 20
330.500000000008
 30
0.0
 11
1300.0
 21
320.500000000007
 31
0.0
  0
LINE
  5
F9
  8
SIZE
  6
CONTINUOUS
 62
    30
 10
1300.0
 20
379.9999999999998
 30
0.0
 11
1300.0
 21
570.8571428571429
 31
0.0
  0
LINE
  5
FA
  8
SIZE
  6
CONTINUOUS
 62
    30
 10
1300.0
 20
340.500000000007
 30
0.0
 11
1300.0
 21
370.0000000000011
 31
0.0
  0
CIRCLE
  5
FB
  8
SIZE
  6
CONTINUOUS
 62
    30
 10
1300.0
 20
340.500000000007
 30
0.0
 40
5.0
  0
LINE
  5
FC
  8
SIZE
  6
CONTINUOUS
 62
    30
 10
1300.0
 20
335.500000000007
 30
0.0
 11
1300.0
 21
330.500000000007
 31
0.0
  0
CIRCLE
  5
FD
  8
SIZE
  6
CONTINUOUS
 62
    30
 10
1300.0
 20
370.0000000000011
 30
0.0
 40
5.0
  0
LINE
  5
FE
  8
SIZE
  6
CONTINUOUS
 62
    30
 10
1300.0
 20
375.0000000000011
 30
0.0
 11
1300.0
 21
380.0000000000011
 31
0.0
  0
TEXT
  5
FF
  8
SIZE
  6
CONTINUOUS
 62
    30
 10
1285.0
 20
397.9285714285718
 30
0.0
 40
55.0
  1
29.5
 50
90.0
 41
0.9
 72
     1
 11
1285.0
 21
480.4285714285718
 31
0.0
  0
POINT
  5
100
  8
DEFPOINTS
  6
CONTINUOUS
 62
     7
 10
555.3385475549833
 20
370.0000000000011
 30
0.0
  0
POINT
  5
101
  8
DEFPOINTS
  6
CONTINUOUS
 62
     7
 10
545.341413648484
 20
340.500000000007
 30
0.0
  0
POINT
  5
102
  8
DEFPOINTS
  6
CONTINUOUS
 62
     7
 10
1300.0
 20
340.500000000007
 30
0.0
  0
LINE
  5
103
  8
SIZE
  6
CONTINUOUS
 62
    30
 10
560.341413648484
 20
340.500000000007
 30
0.0
 11
1315.0
 21
340.500000000007
 31
0.0
  0
LINE
  5
104
  8
SIZE
  6
CONTINUOUS
 62
    30
 10
560.3414136484972
 20
-340.499999999993
 30
0.0
 11
1315.0
 21
-340.499999999993
 31
0.0
  0
LINE
  5
105
  8
SIZE
  6
CONTINUOUS
 62
    30
 10
1300.0
 20
330.500000000008
 30
0.0
 11
1300.0
 21
-330.499999999993
 31
0.0
  0
CIRCLE
  5
106
  8
SIZE
  6
CONTINUOUS
 62
    30
 10
1300.0
 20
340.500000000007
 30
0.0
 40
5.0
  0
LINE
  5
107
  8
SIZE
  6
CONTINUOUS
 62
    30
 10
1300.0
 20
335.500000000007
 30
0.0
 11
1300.0
 21
330.500000000007
 31
0.0
  0
CIRCLE
  5
108
  8
SIZE
  6
CONTINUOUS
 62
    30
 10
1300.0
 20
-340.499999999993
 30
0.0
 40
5.0
  0
LINE
  5
109
  8
SIZE
  6
CONTINUOUS
 62
    30
 10
1300.0
 20
-335.499999999993
 30
0.0
 11
1300.0
 21
-330.499999999993
 31
0.0
  0
TEXT
  5
10A
  8
SIZE
  6
CONTINUOUS
 62
    30
 10
1285.0
 20
-305.2548358606497
 30
0.0
 40
55.0
  1
681
 50
90.0
 41
0.9
 72
     1
 11
1285.0
 21
-240.4334072892211
 31
0.0
  0
POINT
  5
10B
  8
DEFPOINTS
  6
CONTINUOUS
 62
     7
 10
545.341413648484
 20
340.500000000007
 30
0.0
  0
POINT
  5
10C
  8
DEFPOINTS
  6
CONTINUOUS
 62
     7
 10
545.3414136484964
 20
-340.499999999993
 30
0.0
  0
POINT
  5
10D
  8
DEFPOINTS
  6
CONTINUOUS
 62
     7
 10
1300.0
 20
-340.499999999993
 30
0.0
  0
LINE
  5
10E
  8
SIZE
  6
CONTINUOUS
 62
    30
 10
560.3414136484972
 20
-340.499999999993
 30
0.0
 11
1315.0
 21
-340.499999999993
 31
0.0
  0
LINE
  5
10F
  8
SIZE
  6
CONTINUOUS
 62
    30
 10
570.8179542115317
 20
-369.9999999999991
 30
0.0
 11
1315.0
 21
-370.0
 31
0.0
  0
LINE
  5
110
  8
SIZE
  6
CONTINUOUS
 62
    30
 10
1300.0
 20
-330.499999999993
 30
0.0
 11
1300.0
 21
-320.499999999992
 31
0.0
  0
LINE
  5
111
  8
SIZE
  6
CONTINUOUS
 62
    30
 10
1300.0
 20
-379.9999999999991
 30
0.0
 11
1300.0
 21
-570.8571428571431
 31
0.0
  0
LINE
  5
112
  8
SIZE
  6
CONTINUOUS
 62
    30
 10
1300.0
 20
-340.499999999993
 30
0.0
 11
1300.0
 21
-369.9999999999991
 31
0.0
  0
CIRCLE
  5
113
  8
SIZE
  6
CONTINUOUS
 62
    30
 10
1300.0
 20
-340.499999999993
 30
0.0
 40
5.0
  0
LINE
  5
114
  8
SIZE
  6
CONTINUOUS
 62
    30
 10
1300.0
 20
-335.499999999993
 30
0.0
 11
1300.0
 21
-330.499999999993
 31
0.0
  0
CIRCLE
  5
115
  8
SIZE
  6
CONTINUOUS
 62
    30
 10
1300.0
 20
-369.9999999999991
 30
0.0
 40
5.0
  0
LINE
  5
116
  8
SIZE
  6
CONTINUOUS
 62
    30
 10
1300.0
 20
-374.9999999999991
 30
0.0
 11
1300.0
 21
-379.9999999999991
 31
0.0
  0
TEXT
  5
117
  8
SIZE
  6
CONTINUOUS
 62
    30
 10
1285.0
 20
-562.9285714285711
 30
0.0
 40
55.0
  1
29.5
 50
90.0
 41
0.9
 72
     1
 11
1285.0
 21
-480.4285714285711
 31
0.0
  0
POINT
  5
118
  8
DEFPOINTS
  6
CONTINUOUS
 62
     7
 10
545.3414136484964
 20
-340.499999999993
 30
0.0
  0
POINT
  5
11A
  8
DEFPOINTS
  6
CONTINUOUS
 62
     7
 10
1300.0
 20
-369.9999999999991
 30
0.0
  0
TEXT
  5
11B
  8
SIZE
  6
CONTINUOUS
 62
    30
 10
1371.385965634534
 20
-148.5
 30
0.0
 40
55.0
  1
（据付ピッチ）
 50
90.0
 41
0.9
 72
     1
 11
1371.385965634534
 21
0.0
 31
0.0
  0
LINE
  5
11C
  8
SIZE
  6
CONTINUOUS
 62
    30
 10
570.3385475549829
 20
370.0000000000011
 30
0.0
 11
1215.0
 21
370.0000000000011
 31
0.0
  0
LINE
  5
11D
  8
SIZE
  6
CONTINUOUS
 62
    30
 10
617.0379612033931
 20
313.000000000002
 30
0.0
 11
1215.0
 21
313.000000000002
 31
0.0
  0
LINE
  5
11E
  8
SIZE
  6
CONTINUOUS
 62
    30
 10
1200.0
 20
323.000000000002
 30
0.0
 11
1200.0
 21
359.9999999999989
 31
0.0
  0
LINE
  5
11F
  8
SIZE
  6
CONTINUOUS
 62
    30
 10
1200.0
 20
370.0000000000011
 30
0.0
 11
1200.0
 21
490.142857142858
 31
0.0
  0
CIRCLE
  5
120
  8
SIZE
  6
CONTINUOUS
 62
    30
 10
1200.0
 20
313.000000000002
 30
0.0
 40
5.0
  0
LINE
  5
121
  8
SIZE
  6
CONTINUOUS
 62
    30
 10
1200.0
 20
318.000000000002
 30
0.0
 11
1200.0
 21
323.000000000002
 31
0.0
  0
CIRCLE
  5
122
  8
SIZE
  6
CONTINUOUS
 62
    30
 10
1200.0
 20
370.0000000000011
 30
0.0
 40
5.0
  0
LINE
  5
123
  8
SIZE
  6
CONTINUOUS
 62
    30
 10
1200.0
 20
365.0000000000011
 30
0.0
 11
1200.0
 21
360.0000000000011
 31
0.0
  0
TEXT
  5
124
  8
SIZE
  6
CONTINUOUS
 62
    30
 10
1185.0
 20
387.928571428572
 30
0.0
 40
55.0
  1
57
 50
90.0
 41
0.9
 72
     1
 11
1185.0
 21
435.0714285714291
 31
0.0
  0
POINT
  5
125
  8
DEFPOINTS
  6
CONTINUOUS
 62
     7
 10
555.3385475549821
 20
370.0000000000011
 30
0.0
  0
POINT
  5
126
  8
DEFPOINTS
  6
CONTINUOUS
 62
     7
 10
602.0379612033934
 20
313.000000000002
 30
0.0
  0
POINT
  5
127
  8
DEFPOINTS
  6
CONTINUOUS
 62
     7
 10
1200.0
 20
313.000000000002
 30
0.0
  0
LINE
  5
128
  8
SIZE
  6
CONTINUOUS
 62
    30
 10
617.0379612033931
 20
313.000000000002
 30
0.0
 11
1215.0
 21
313.000000000002
 31
0.0
  0
LINE
  5
129
  8
SIZE
  6
CONTINUOUS
 62
    30
 10
617.0379612033931
 20
292.9999999999948
 30
0.0
 11
1215.0
 21
292.9999999999948
 31
0.0
  0
LINE
  5
12A
  8
SIZE
  6
CONTINUOUS
 62
    30
 10
1200.0
 20
323.000000000002
 30
0.0
 11
1200.0
 21
333.000000000002
 31
0.0
  0
LINE
  5
12B
  8
SIZE
  6
CONTINUOUS
 62
    30
 10
1200.0
 20
282.9999999999939
 30
0.0
 11
1200.0
 21
272.9999999999948
 31
0.0
  0
LINE
  5
12C
  8
SIZE
  6
CONTINUOUS
 62
    30
 10
1200.0
 20
302.999999999998
 30
0.0
 11
1100.0
 21
256.4534041405061
 31
0.0
  0
LINE
  5
12D
  8
SIZE
  6
CONTINUOUS
 62
    30
 10
1100.0
 20
256.4534041405061
 30
0.0
 11
1100.0
 21
146.310546997649
 31
0.0
  0
TEXT
  5
12E
  8
SIZE
  6
CONTINUOUS
 62
    30
 10
1085.0
 20
154.2391184262208
 30
0.0
 40
55.0
  1
20
 50
90.0
 41
0.9
 72
     1
 11
1085.0
 21
201.3819755690779
 31
0.0
  0
LINE
  5
12F
  8
SIZE
  6
CONTINUOUS
 62
    30
 10
1200.0
 20
313.000000000002
 30
0.0
 11
1200.0
 21
292.9999999999948
 31
0.0
  0
LINE
  5
130
  8
SIZE
  6
CONTINUOUS
 62
    30
 10
1200.0
 20
313.000000000002
 30
0.0
 11
1200.0
 21
292.9999999999948
 31
0.0
  0
CIRCLE
  5
131
  8
SIZE
  6
CONTINUOUS
 62
    30
 10
1200.0
 20
313.000000000002
 30
0.0
 40
5.0
  0
LINE
  5
132
  8
SIZE
  6
CONTINUOUS
 62
    30
 10
1200.0
 20
318.000000000002
 30
0.0
 11
1200.0
 21
323.000000000002
 31
0.0
  0
CIRCLE
  5
133
  8
SIZE
  6
CONTINUOUS
 62
    30
 10
1200.0
 20
292.9999999999948
 30
0.0
 40
5.0
  0
LINE
  5
134
  8
SIZE
  6
CONTINUOUS
 62
    30
 10
1200.0
 20
287.9999999999948
 30
0.0
 11
1200.0
 21
282.9999999999948
 31
0.0
  0
POINT
  5
135
  8
DEFPOINTS
  6
CONTINUOUS
 62
     7
 10
602.0379612033934
 20
313.000000000002
 30
0.0
  0
POINT
  5
136
  8
DEFPOINTS
  6
CONTINUOUS
 62
     7
 10
602.0379612033934
 20
292.9999999999948
 30
0.0
  0
POINT
  5
137
  8
DEFPOINTS
  6
CONTINUOUS
 62
     7
 10
1200.0
 20
292.9999999999948
 30
0.0
  0
LINE
  5
138
  8
SIZE
  6
CONTINUOUS
 62
    30
 10
617.0379612033931
 20
293.000000000003
 30
0.0
 11
1215.0
 21
293.000000000003
 31
0.0
  0
LINE
  5
139
  8
SIZE
  6
CONTINUOUS
 62
    30
 10
617.0379612033931
 20
-293.000000000008
 30
0.0
 11
1215.0
 21
-293.000000000008
 31
0.0
  0
LINE
  5
13A
  8
SIZE
  6
CONTINUOUS
 62
    30
 10
1200.0
 20
283.000000000002
 30
0.0
 11
1200.0
 21
-283.000000000008
 31
0.0
  0
CIRCLE
  5
13B
  8
SIZE
  6
CONTINUOUS
 62
    30
 10
1200.0
 20
293.000000000003
 30
0.0
 40
5.0
  0
LINE
  5
13C
  8
SIZE
  6
CONTINUOUS
 62
    30
 10
1200.0
 20
288.000000000003
 30
0.0
 11
1200.0
 21
283.000000000003
 31
0.0
  0
CIRCLE
  5
13D
  8
SIZE
  6
CONTINUOUS
 62
    30
 10
1200.0
 20
-293.000000000008
 30
0.0
 40
5.0
  0
LINE
  5
13E
  8
SIZE
  6
CONTINUOUS
 62
    30
 10
1200.0
 20
-288.000000000008
 30
0.0
 11
1200.0
 21
-283.000000000008
 31
0.0
  0
TEXT
  5
13F
  8
SIZE
  6
CONTINUOUS
 62
    30
 10
1185.0
 20
-70.71428571428868
 30
0.0
 40
55.0
  1
586
 50
90.0
 41
0.9
 72
     1
 11
1185.0
 21
-0.0000000000029559
 31
0.0
  0
POINT
  5
140
  8
DEFPOINTS
  6
CONTINUOUS
 62
     7
 10
602.0379612033934
 20
293.000000000003
 30
0.0
  0
POINT
  5
141
  8
DEFPOINTS
  6
CONTINUOUS
 62
     7
 10
602.0379612033934
 20
-293.000000000008
 30
0.0
  0
POINT
  5
142
  8
DEFPOINTS
  6
CONTINUOUS
 62
     7
 10
1200.0
 20
-293.000000000008
 30
0.0
  0
LINE
  5
143
  8
SIZE
  6
CONTINUOUS
 62
    30
 10
617.0379612033931
 20
-293.000000000008
 30
0.0
 11
1215.0
 21
-293.000000000008
 31
0.0
  0
LINE
  5
144
  8
SIZE
  6
CONTINUOUS
 62
    30
 10
617.0379612033931
 20
-313.000000000008
 30
0.0
 11
1215.0
 21
-313.000000000008
 31
0.0
  0
LINE
  5
145
  8
SIZE
  6
CONTINUOUS
 62
    30
 10
1200.0
 20
-283.000000000008
 30
0.0
 11
1200.0
 21
-273.000000000008
 31
0.0
  0
LINE
  5
146
  8
SIZE
  6
CONTINUOUS
 62
    30
 10
1200.0
 20
-323.000000000008
 30
0.0
 11
1200.0
 21
-333.000000000008
 31
0.0
  0
LINE
  5
147
  8
SIZE
  6
CONTINUOUS
 62
    30
 10
1200.0
 20
-303.000000000008
 30
0.0
 11
1100.0
 21
-260.3611669500572
 31
0.0
  0
LINE
  5
148
  8
SIZE
  6
CONTINUOUS
 62
    30
 10
1100.0
 20
-260.3611669500572
 30
0.0
 11
1100.0
 21
-150.2183098071991
 31
0.0
  0
TEXT
  5
149
  8
SIZE
  6
CONTINUOUS
 62
    30
 10
1085.0
 20
-252.4325955214852
 30
0.0
 40
55.0
  1
20
 50
90.0
 41
0.9
 72
     1
 11
1085.0
 21
-205.289738378628
 31
0.0
  0
LINE
  5
14A
  8
SIZE
  6
CONTINUOUS
 62
    30
 10
1200.0
 20
-293.000000000008
 30
0.0
 11
1200.0
 21
-313.000000000008
 31
0.0
  0
LINE
  5
14B
  8
SIZE
  6
CONTINUOUS
 62
    30
 10
1200.0
 20
-293.000000000008
 30
0.0
 11
1200.0
 21
-313.000000000008
 31
0.0
  0
CIRCLE
  5
14C
  8
SIZE
  6
CONTINUOUS
 62
    30
 10
1200.0
 20
-293.000000000008
 30
0.0
 40
5.0
  0
LINE
  5
14D
  8
SIZE
  6
CONTINUOUS
 62
    30
 10
1200.0
 20
-288.000000000008
 30
0.0
 11
1200.0
 21
-283.000000000008
 31
0.0
  0
CIRCLE
  5
14E
  8
SIZE
  6
CONTINUOUS
 62
    30
 10
1200.0
 20
-313.000000000008
 30
0.0
 40
5.0
  0
LINE
  5
14F
  8
SIZE
  6
CONTINUOUS
 62
    30
 10
1200.0
 20
-318.000000000008
 30
0.0
 11
1200.0
 21
-323.000000000008
 31
0.0
  0
POINT
  5
150
  8
DEFPOINTS
  6
CONTINUOUS
 62
     7
 10
602.0379612033934
 20
-293.000000000008
 30
0.0
  0
POINT
  5
151
  8
DEFPOINTS
  6
CONTINUOUS
 62
     7
 10
602.0379612033934
 20
-313.000000000008
 30
0.0
  0
POINT
  5
152
  8
DEFPOINTS
  6
CONTINUOUS
 62
     7
 10
1200.0
 20
-313.000000000008
 30
0.0
  0
LINE
  5
153
  8
SIZE
  6
CONTINUOUS
 62
    30
 10
617.0379612033931
 20
-313.000000000008
 30
0.0
 11
1215.0
 21
-313.000000000008
 31
0.0
  0
LINE
  5
154
  8
SIZE
  6
CONTINUOUS
 62
    30
 10
570.8179542115317
 20
-369.9999999999991
 30
0.0
 11
1215.0
 21
-369.9999999999991
 31
0.0
  0
LINE
  5
155
  8
SIZE
  6
CONTINUOUS
 62
    30
 10
1200.0
 20
-323.000000000008
 30
0.0
 11
1200.0
 21
-360.0
 31
0.0
  0
LINE
  5
156
  8
SIZE
  6
CONTINUOUS
 62
    30
 10
1200.0
 20
-369.9999999999991
 30
0.0
 11
1200.0
 21
-490.1428571428571
 31
0.0
  0
CIRCLE
  5
157
  8
SIZE
  6
CONTINUOUS
 62
    30
 10
1200.0
 20
-313.000000000008
 30
0.0
 40
5.0
  0
LINE
  5
158
  8
SIZE
  6
CONTINUOUS
 62
    30
 10
1200.0
 20
-318.000000000008
 30
0.0
 11
1200.0
 21
-323.000000000008
 31
0.0
  0
CIRCLE
  5
159
  8
SIZE
  6
CONTINUOUS
 62
    30
 10
1200.0
 20
-369.9999999999991
 30
0.0
 40
5.0
  0
LINE
  5
15A
  8
SIZE
  6
CONTINUOUS
 62
    30
 10
1200.0
 20
-364.9999999999991
 30
0.0
 11
1200.0
 21
-359.9999999999991
 31
0.0
  0
TEXT
  5
15B
  8
SIZE
  6
CONTINUOUS
 62
    30
 10
1185.0
 20
-482.2142857142852
 30
0.0
 40
55.0
  1
57
 50
90.0
 41
0.9
 72
     1
 11
1185.0
 21
-435.071428571428
 31
0.0
  0
POINT
  5
15C
  8
DEFPOINTS
  6
CONTINUOUS
 62
     7
 10
602.0379612033934
 20
-313.000000000008
 30
0.0
  0
POINT
  5
15E
  8
DEFPOINTS
  6
CONTINUOUS
 62
     7
 10
1200.0
 20
-369.9999999999991
 30
0.0
  0
LINE
  5
177
  8
DETAIL
  6
CONTINUOUS
 62
     5
 10
-322.9130936434542
 20
-285.9999999999991
 30
0.0
 11
-203.00790057783
 21
-285.9999999999941
 31
0.0
  0
LINE
  5
178
  8
DETAIL
  6
CONTINUOUS
 62
     5
 10
-203.0079005778291
 20
-191.9999999999761
 30
0.0
 11
-322.9130936434533
 21
-191.999999999998
 31
0.0
  0
LINE
  5
179
  8
DETAIL
  6
CONTINUOUS
 62
     5
 10
-338.0000000000011
 20
-207.0079005778641
 30
0.0
 11
-338.0000000000016
 21
-270.9920994221332
 31
0.0
  0
ARC
  5
17A
  8
DETAIL
  6
CONTINUOUS
 62
     5
 10
-322.9246378740597
 20
-270.9244906918941
 30
0.0
 40
15.0755137281611
 50
180.256953623987
 51
270.0438748402052
  0
ARC
  5
17B
  8
DETAIL
  6
CONTINUOUS
 62
     5
 10
-322.9246378740593
 20
-207.0755093081011
 30
0.0
 40
15.07551372816105
 50
89.95612515976848
 51
179.7430463760116
  0
LINE
  5
17C
  8
DETAIL
  6
CONTINUOUS
 62
     5
 10
-188.0000000000016
 20
-270.9920994221332
 30
0.0
 11
-188.0000000000011
 21
-207.0079005778662
 31
0.0
  0
ARC
  5
17D
  8
DETAIL
  6
CONTINUOUS
 62
     5
 10
-203.0079005778296
 20
-270.9920994221332
 30
0.0
 40
15.00790057786606
 50
270.0
 51
0.0
  0
ARC
  5
17E
  8
DETAIL
  6
CONTINUOUS
 62
     5
 10
-203.0079005778291
 20
-207.0079005778662
 30
0.0
 40
15.00790057786606
 50
0.0
 51
90.0
  0
LINE
  5
17F
  8
SIZE
  6
CONTINUOUS
 62
    30
 10
570.8179542115317
 20
-369.9999999999991
 30
0.0
 11
1014.999999999999
 21
-369.9999999999991
 31
0.0
  0
LINE
  5
180
  8
SIZE
  6
CONTINUOUS
 62
    30
 10
-188.0079005778296
 20
-285.9999999999991
 30
0.0
 11
1014.999999999999
 21
-286.0
 31
0.0
  0
LINE
  5
181
  8
SIZE
  6
CONTINUOUS
 62
    30
 10
999.9999999999986
 20
-296.0
 30
0.0
 11
999.9999999999986
 21
-360.0
 31
0.0
  0
LINE
  5
182
  8
SIZE
  6
CONTINUOUS
 62
    30
 10
999.9999999999986
 20
-369.9999999999991
 30
0.0
 11
999.9999999999986
 21
-492.5
 31
0.0
  0
CIRCLE
  5
183
  8
SIZE
  6
CONTINUOUS
 62
    30
 10
999.9999999999986
 20
-286.0
 30
0.0
 40
5.0
  0
LINE
  5
184
  8
SIZE
  6
CONTINUOUS
 62
    30
 10
999.9999999999986
 20
-291.0
 30
0.0
 11
999.9999999999986
 21
-296.0
 31
0.0
  0
CIRCLE
  5
185
  8
SIZE
  6
CONTINUOUS
 62
    30
 10
999.9999999999986
 20
-369.9999999999991
 30
0.0
 40
5.0
  0
LINE
  5
186
  8
SIZE
  6
CONTINUOUS
 62
    30
 10
999.9999999999986
 20
-364.9999999999991
 30
0.0
 11
999.9999999999986
 21
-359.9999999999991
 31
0.0
  0
TEXT
  5
187
  8
SIZE
  6
CONTINUOUS
 62
    30
 10
984.9999999999986
 20
-484.5714285714276
 30
0.0
 40
55.0
  1
84
 50
90.0
 41
0.9
 72
     1
 11
984.9999999999986
 21
-436.2499999999991
 31
0.0
  0
POINT
  5
189
  8
DEFPOINTS
  6
CONTINUOUS
 62
     7
 10
-203.0079005778296
 20
-285.9999999999991
 30
0.0
  0
POINT
  5
18A
  8
DEFPOINTS
  6
CONTINUOUS
 62
     7
 10
999.9999999999986
 20
-286.0
 30
0.0
  0
LINE
  5
18B
  8
SIZE
  6
CONTINUOUS
 62
    30
 10
-188.0079005778296
 20
-285.9999999999991
 30
0.0
 11
1015.0
 21
-286.0
 31
0.0
  0
LINE
  5
18C
  8
SIZE
  6
CONTINUOUS
 62
    30
 10
-188.0079005778291
 20
-191.9999999999991
 30
0.0
 11
1015.0
 21
-192.0
 31
0.0
  0
LINE
  5
18D
  8
SIZE
  6
CONTINUOUS
 62
    30
 10
1000.0
 20
-276.0
 30
0.0
 11
1000.0
 21
-202.0
 31
0.0
  0
LINE
  5
18E
  8
SIZE
  6
CONTINUOUS
 62
    30
 10
1000.0
 20
-192.0
 30
0.0
 11
1000.0
 21
-69.5
 31
0.0
  0
CIRCLE
  5
18F
  8
SIZE
  6
CONTINUOUS
 62
    30
 10
1000.0
 20
-286.0
 30
0.0
 40
5.0
  0
LINE
  5
190
  8
SIZE
  6
CONTINUOUS
 62
    30
 10
1000.0
 20
-281.0
 30
0.0
 11
1000.0
 21
-276.0
 31
0.0
  0
CIRCLE
  5
191
  8
SIZE
  6
CONTINUOUS
 62
    30
 10
1000.0
 20
-192.0
 30
0.0
 40
5.0
  0
LINE
  5
192
  8
SIZE
  6
CONTINUOUS
 62
    30
 10
1000.0
 20
-197.0
 30
0.0
 11
1000.0
 21
-202.0
 31
0.0
  0
TEXT
  5
193
  8
SIZE
  6
CONTINUOUS
 62
    30
 10
984.9999999999995
 20
-174.0714285714277
 30
0.0
 40
55.0
  1
94
 50
90.0
 41
0.9
 72
     1
 11
984.9999999999995
 21
-125.7499999999991
 31
0.0
  0
POINT
  5
194
  8
DEFPOINTS
  6
CONTINUOUS
 62
     7
 10
-203.0079005778296
 20
-285.9999999999991
 30
0.0
  0
POINT
  5
195
  8
DEFPOINTS
  6
CONTINUOUS
 62
     7
 10
-203.0079005778291
 20
-191.9999999999991
 30
0.0
  0
POINT
  5
196
  8
DEFPOINTS
  6
CONTINUOUS
 62
     7
 10
1000.0
 20
-192.0
 30
0.0
  0
LINE
  5
197
  8
SIZE
  6
CONTINUOUS
 62
    30
 10
-610.0000000000005
 20
-331.2966157954311
 30
0.0
 11
-610.0000000000005
 21
-515.0
 31
0.0
  0
LINE
  5
198
  8
SIZE
  6
CONTINUOUS
 62
    30
 10
-383.000000000002
 20
-313.192563005239
 30
0.0
 11
-383.000000000002
 21
-515.0
 31
0.0
  0
LINE
  5
199
  8
SIZE
  6
CONTINUOUS
 62
    30
 10
-600.0000000000005
 20
-499.9999999999991
 30
0.0
 11
-393.000000000002
 21
-499.9999999999991
 31
0.0
  0
CIRCLE
  5
19A
  8
SIZE
  6
CONTINUOUS
 62
    30
 10
-610.0000000000005
 20
-499.9999999999991
 30
0.0
 40
5.0
  0
LINE
  5
19B
  8
SIZE
  6
CONTINUOUS
 62
    30
 10
-605.0000000000005
 20
-499.9999999999991
 30
0.0
 11
-600.0000000000005
 21
-499.9999999999991
 31
0.0
  0
CIRCLE
  5
19C
  8
SIZE
  6
CONTINUOUS
 62
    30
 10
-383.000000000002
 20
-499.9999999999991
 30
0.0
 40
5.0
  0
LINE
  5
19D
  8
SIZE
  6
CONTINUOUS
 62
    30
 10
-388.000000000002
 20
-499.9999999999991
 30
0.0
 11
-393.000000000002
 21
-499.9999999999991
 31
0.0
  0
TEXT
  5
19E
  8
SIZE
  6
CONTINUOUS
 62
    30
 10
-567.214285714287
 20
-484.9999999999991
 30
0.0
 40
55.0
  1
227
 41
0.9
 72
     1
 11
-496.5000000000013
 21
-484.9999999999991
 31
0.0
  0
POINT
  5
19F
  8
DEFPOINTS
  6
CONTINUOUS
 62
     7
 10
-610.0000000000005
 20
-316.2966157954311
 30
0.0
  0
POINT
  5
1A0
  8
DEFPOINTS
  6
CONTINUOUS
 62
     7
 10
-383.000000000002
 20
-298.192563005239
 30
0.0
  0
POINT
  5
1A1
  8
DEFPOINTS
  6
CONTINUOUS
 62
     7
 10
-383.000000000002
 20
-499.9999999999991
 30
0.0
  0
LINE
  5
1A2
  8
SIZE
  6
CONTINUOUS
 62
    30
 10
-570.8155199535984
 20
-369.9999999999991
 30
0.0
 11
-715.0000000000001
 21
-369.9999999999991
 31
0.0
  0
LINE
  5
1A3
  8
SIZE
  6
CONTINUOUS
 62
    30
 10
-447.1925630052444
 20
-249.0
 30
0.0
 11
-715.0000000000001
 21
-249.0
 31
0.0
  0
LINE
  5
1A4
  8
SIZE
  6
CONTINUOUS
 62
    30
 10
-700.0000000000005
 20
-379.9999999999991
 30
0.0
 11
-700.0000000000005
 21
-390.0
 31
0.0
  0
LINE
  5
1A5
  8
SIZE
  6
CONTINUOUS
 62
    30
 10
-700.0000000000005
 20
-238.9999999999991
 30
0.0
 11
-700.0000000000005
 21
-228.9999999999991
 31
0.0
  0
LINE
  5
1A6
  8
SIZE
  6
CONTINUOUS
 62
    30
 10
-700.0000000000005
 20
-369.9999999999991
 30
0.0
 11
-700.0000000000005
 21
-249.0
 31
0.0
  0
CIRCLE
  5
1A7
  8
SIZE
  6
CONTINUOUS
 62
    30
 10
-700.0000000000005
 20
-369.9999999999991
 30
0.0
 40
5.0
  0
LINE
  5
1A8
  8
SIZE
  6
CONTINUOUS
 62
    30
 10
-700.0000000000005
 20
-374.9999999999991
 30
0.0
 11
-700.0000000000005
 21
-379.9999999999991
 31
0.0
  0
CIRCLE
  5
1A9
  8
SIZE
  6
CONTINUOUS
 62
    30
 10
-700.0000000000005
 20
-249.0
 30
0.0
 40
5.0
  0
LINE
  5
1AA
  8
SIZE
  6
CONTINUOUS
 62
    30
 10
-700.0000000000005
 20
-244.0
 30
0.0
 11
-700.0000000000005
 21
-239.0
 31
0.0
  0
TEXT
  5
1AB
  8
SIZE
  6
CONTINUOUS
 62
    30
 10
-715.0000000000001
 20
-376.6785714285705
 30
0.0
 40
55.0
  1
121
 50
90.0
 41
0.9
 72
     1
 11
-715.0000000000001
 21
-309.4999999999991
 31
0.0
  0
POINT
  5
1AC
  8
DEFPOINTS
  6
CONTINUOUS
 62
     7
 10
-555.8155199535984
 20
-369.9999999999991
 30
0.0
  0
POINT
  5
1AD
  8
DEFPOINTS
  6
CONTINUOUS
 62
     7
 10
-432.1925630052444
 20
-249.0
 30
0.0
  0
POINT
  5
1AE
  8
DEFPOINTS
  6
CONTINUOUS
 62
     7
 10
-700.0000000000005
 20
-249.0
 30
0.0
  0
LINE
  5
1AF
  8
SIZE
  6
CONTINUOUS
 62
    30
 10
-570.8155199535984
 20
-369.9999999999991
 30
0.0
 11
-815.0000000000003
 21
-369.9999999999991
 31
0.0
  0
LINE
  5
1B0
  8
SIZE
  6
CONTINUOUS
 62
    30
 10
-440.6891394215106
 20
-174.0
 30
0.0
 11
-815.0000000000003
 21
-173.9999999999991
 31
0.0
  0
LINE
  5
1B1
  8
SIZE
  6
CONTINUOUS
 62
    30
 10
-800.0000000000006
 20
-359.9999999999991
 30
0.0
 11
-800.0000000000006
 21
-183.9999999999991
 31
0.0
  0
CIRCLE
  5
1B2
  8
SIZE
  6
CONTINUOUS
 62
    30
 10
-800.0000000000006
 20
-369.9999999999991
 30
0.0
 40
5.0
  0
LINE
  5
1B3
  8
SIZE
  6
CONTINUOUS
 62
    30
 10
-800.0000000000006
 20
-364.9999999999991
 30
0.0
 11
-800.0000000000006
 21
-359.9999999999991
 31
0.0
  0
CIRCLE
  5
1B4
  8
SIZE
  6
CONTINUOUS
 62
    30
 10
-800.0000000000006
 20
-173.9999999999991
 30
0.0
 40
5.0
  0
LINE
  5
1B5
  8
SIZE
  6
CONTINUOUS
 62
    30
 10
-800.0000000000006
 20
-178.9999999999991
 30
0.0
 11
-800.0000000000006
 21
-183.9999999999991
 31
0.0
  0
TEXT
  5
1B6
  8
SIZE
  6
CONTINUOUS
 62
    30
 10
-815.0000000000005
 20
-346.2499999999991
 30
0.0
 40
55.0
  1
196
 50
90.0
 41
0.9
 72
     1
 11
-815.0000000000005
 21
-271.9999999999991
 31
0.0
  0
POINT
  5
1B7
  8
DEFPOINTS
  6
CONTINUOUS
 62
     7
 10
-555.8155199535984
 20
-369.9999999999991
 30
0.0
  0
POINT
  5
1B8
  8
DEFPOINTS
  6
CONTINUOUS
 62
     7
 10
-425.6891394215106
 20
-174.0
 30
0.0
  0
POINT
  5
1B9
  8
DEFPOINTS
  6
CONTINUOUS
 62
     7
 10
-800.0000000000006
 20
-173.9999999999991
 30
0.0
  0
LINE
  5
1BA
  8
SIZE
  6
CONTINUOUS
 62
    30
 10
-610.0000000000005
 20
-331.2966157954311
 30
0.0
 11
-610.0000000000005
 21
-615.0
 31
0.0
  0
LINE
  5
1BB
  8
SIZE
  6
CONTINUOUS
 62
    30
 10
-309.0000000000016
 20
-262.737583509657
 30
0.0
 11
-309.0000000000016
 21
-615.0
 31
0.0
  0
LINE
  5
1BC
  8
SIZE
  6
CONTINUOUS
 62
    30
 10
-600.0000000000005
 20
-599.9999999999991
 30
0.0
 11
-319.0000000000016
 21
-599.9999999999991
 31
0.0
  0
CIRCLE
  5
1BD
  8
SIZE
  6
CONTINUOUS
 62
    30
 10
-610.0000000000005
 20
-599.9999999999991
 30
0.0
 40
5.0
  0
LINE
  5
1BE
  8
SIZE
  6
CONTINUOUS
 62
    30
 10
-605.0000000000005
 20
-599.9999999999991
 30
0.0
 11
-600.0000000000005
 21
-599.9999999999991
 31
0.0
  0
CIRCLE
  5
1BF
  8
SIZE
  6
CONTINUOUS
 62
    30
 10
-309.0000000000016
 20
-599.9999999999991
 30
0.0
 40
5.0
  0
LINE
  5
1C0
  8
SIZE
  6
CONTINUOUS
 62
    30
 10
-314.0000000000016
 20
-599.9999999999991
 30
0.0
 11
-319.0000000000016
 21
-599.9999999999991
 31
0.0
  0
TEXT
  5
1C1
  8
SIZE
  6
CONTINUOUS
 62
    30
 10
-523.1428571428581
 20
-584.9999999999991
 30
0.0
 40
55.0
  1
301
 41
0.9
 72
     1
 11
-459.500000000001
 21
-584.9999999999991
 31
0.0
  0
POINT
  5
1C2
  8
DEFPOINTS
  6
CONTINUOUS
 62
     7
 10
-610.0000000000005
 20
-316.2966157954311
 30
0.0
  0
POINT
  5
1C4
  8
DEFPOINTS
  6
CONTINUOUS
 62
     7
 10
-309.0000000000016
 20
-599.9999999999991
 30
0.0
  0
LINE
  5
1C5
  8
SIZE
  6
CONTINUOUS
 62
    30
 10
-309.0000000000016
 20
-262.737583509657
 30
0.0
 11
-309.0000000000016
 21
-615.0
 31
0.0
  0
LINE
  5
1C6
  8
SIZE
  6
CONTINUOUS
 62
    30
 10
-226.0000000000025
 20
-275.8813441846642
 30
0.0
 11
-226.0000000000025
 21
-615.0
 31
0.0
  0
LINE
  5
1C7
  8
SIZE
  6
CONTINUOUS
 62
    30
 10
-319.0000000000016
 20
-599.9999999999991
 30
0.0
 11
-329.0000000000016
 21
-599.9999999999991
 31
0.0
  0
LINE
  5
1C8
  8
SIZE
  6
CONTINUOUS
 62
    30
 10
-216.0000000000025
 20
-599.9999999999991
 30
0.0
 11
-206.0000000000025
 21
-599.9999999999991
 31
0.0
  0
LINE
  5
1C9
  8
SIZE
  6
CONTINUOUS
 62
    30
 10
-309.0000000000016
 20
-599.9999999999991
 30
0.0
 11
-226.0000000000025
 21
-599.9999999999991
 31
0.0
  0
CIRCLE
  5
1CA
  8
SIZE
  6
CONTINUOUS
 62
    30
 10
-309.0000000000016
 20
-599.9999999999991
 30
0.0
 40
5.0
  0
LINE
  5
1CB
  8
SIZE
  6
CONTINUOUS
 62
    30
 10
-314.0000000000016
 20
-599.9999999999991
 30
0.0
 11
-319.0000000000016
 21
-599.9999999999991
 31
0.0
  0
CIRCLE
  5
1CC
  8
SIZE
  6
CONTINUOUS
 62
    30
 10
-226.0000000000025
 20
-599.9999999999991
 30
0.0
 40
5.0
  0
LINE
  5
1CD
  8
SIZE
  6
CONTINUOUS
 62
    30
 10
-221.0000000000025
 20
-599.9999999999991
 30
0.0
 11
-216.0000000000025
 21
-599.9999999999991
 31
0.0
  0
TEXT
  5
1CE
  8
SIZE
  6
CONTINUOUS
 62
    30
 10
-314.6428571428592
 20
-584.9999999999991
 30
0.0
 40
55.0
  1
83
 41
0.9
 72
     1
 11
-267.500000000002
 21
-584.9999999999991
 31
0.0
  0
POINT
  5
1D1
  8
DEFPOINTS
  6
CONTINUOUS
 62
     7
 10
-226.0000000000025
 20
-599.9999999999991
 30
0.0
  0
LINE
  5
1D2
  8
SIZE
  6
CONTINUOUS
 62
    30
 10
-610.0000000000016
 20
-331.2966157954311
 30
0.0
 11
-610.0000000000016
 21
-714.9999999999991
 31
0.0
  0
LINE
  5
1D3
  8
SIZE
  6
CONTINUOUS
 62
    30
 10
-338.0000000000016
 20
-286.000000005276
 30
0.0
 11
-338.0000000000016
 21
-714.9999999999991
 31
0.0
  0
LINE
  5
1D4
  8
SIZE
  6
CONTINUOUS
 62
    30
 10
-600.0000000000016
 20
-700.0
 30
0.0
 11
-348.0000000000016
 21
-700.0
 31
0.0
  0
CIRCLE
  5
1D5
  8
SIZE
  6
CONTINUOUS
 62
    30
 10
-610.0000000000016
 20
-700.0
 30
0.0
 40
5.0
  0
LINE
  5
1D6
  8
SIZE
  6
CONTINUOUS
 62
    30
 10
-605.0000000000016
 20
-700.0
 30
0.0
 11
-600.0000000000016
 21
-700.0
 31
0.0
  0
CIRCLE
  5
1D7
  8
SIZE
  6
CONTINUOUS
 62
    30
 10
-338.0000000000016
 20
-700.0
 30
0.0
 40
5.0
  0
LINE
  5
1D8
  8
SIZE
  6
CONTINUOUS
 62
    30
 10
-343.0000000000016
 20
-700.0
 30
0.0
 11
-348.0000000000016
 21
-700.0
 31
0.0
  0
TEXT
  5
1D9
  8
SIZE
  6
CONTINUOUS
 62
    30
 10
-544.7142857142874
 20
-684.9999999999991
 30
0.0
 40
55.0
  1
272
 41
0.9
 72
     1
 11
-474.0000000000016
 21
-684.9999999999991
 31
0.0
  0
POINT
  5
1DA
  8
DEFPOINTS
  6
CONTINUOUS
 62
     7
 10
-610.0000000000016
 20
-316.2966157954311
 30
0.0
  0
POINT
  5
1DB
  8
DEFPOINTS
  6
CONTINUOUS
 62
     7
 10
-338.0000000000016
 20
-271.000000005276
 30
0.0
  0
POINT
  5
1DC
  8
DEFPOINTS
  6
CONTINUOUS
 62
     7
 10
-338.0000000000016
 20
-700.0
 30
0.0
  0
LINE
  5
1DD
  8
SIZE
  6
CONTINUOUS
 62
    30
 10
-187.9999999999635
 20
-286.0000000052771
 30
0.0
 11
-187.9999999999635
 21
-714.9999999999991
 31
0.0
  0
LINE
  5
1DE
  8
SIZE
  6
CONTINUOUS
 62
    30
 10
-338.0000000000016
 20
-286.000000005276
 30
0.0
 11
-338.0000000000016
 21
-714.9999999999991
 31
0.0
  0
LINE
  5
1DF
  8
SIZE
  6
CONTINUOUS
 62
    30
 10
-197.9999999999635
 20
-700.0
 30
0.0
 11
-328.0000000000016
 21
-700.0
 31
0.0
  0
CIRCLE
  5
1E0
  8
SIZE
  6
CONTINUOUS
 62
    30
 10
-187.9999999999635
 20
-700.0
 30
0.0
 40
5.0
  0
LINE
  5
1E1
  8
SIZE
  6
CONTINUOUS
 62
    30
 10
-192.9999999999635
 20
-700.0
 30
0.0
 11
-197.9999999999635
 21
-700.0
 31
0.0
  0
CIRCLE
  5
1E2
  8
SIZE
  6
CONTINUOUS
 62
    30
 10
-338.0000000000016
 20
-700.0
 30
0.0
 40
5.0
  0
LINE
  5
1E3
  8
SIZE
  6
CONTINUOUS
 62
    30
 10
-333.0000000000016
 20
-700.0
 30
0.0
 11
-328.0000000000016
 21
-700.0
 31
0.0
  0
TEXT
  5
1E4
  8
SIZE
  6
CONTINUOUS
 62
    30
 10
-337.2499999999826
 20
-684.9999999999991
 30
0.0
 40
55.0
  1
150
 41
0.9
 72
     1
 11
-262.9999999999826
 21
-684.9999999999991
 31
0.0
  0
POINT
  5
1E5
  8
DEFPOINTS
  6
CONTINUOUS
 62
     7
 10
-187.9999999999635
 20
-271.000000005278
 30
0.0
  0
POINT
  5
1E6
  8
DEFPOINTS
  6
CONTINUOUS
 62
     7
 10
-338.0000000000016
 20
-271.000000005276
 30
0.0
  0
POINT
  5
1E7
  8
DEFPOINTS
  6
CONTINUOUS
 62
     7
 10
-338.0000000000016
 20
-700.0
 30
0.0
  0
TEXT
  5
1F7
  8
NOTE
  6
CONTINUOUS
 62
     4
 10
-1154.377600676596
 20
460.6829258292689
 30
0.0
 40
55.0
  1
AH  2X2-14X20長穴
 50
0.0000030783246592
 41
0.6309520000000001
  7
STANDARD1
  0
LINE
  5
1F8
  8
NOTE
  6
CONTINUOUS
 62
     4
 10
-1181.115375676594
 20
447.284814829269
 30
0.0
 11
-642.5073036765962
 21
447.284814829269
 31
0.0
  0
LINE
  5
1F9
  8
NOTE
  6
CONTINUOUS
 62
     4
 10
-478.1217243301958
 20
-99.99999999999909
 30
0.0
 11
-100.0000000000005
 21
-99.99999999999909
 31
0.0
  0
TEXT
  5
1FA
  8
NOTE
  6
CONTINUOUS
 62
     4
 10
-473.7027064650597
 20
-89.65518250852915
 30
0.0
 40
54.99999999999999
  1
150×94ﾉｯｸｱｳﾄ穴
 50
359.999997438679
 41
0.6309523716102658
  7
STANDARD1
  0
TEXT
  5
1FB
  8
NOTE
  6
CONTINUOUS
 62
     4
 10
-1198.736051000001
 20
-589.6551830000001
 30
0.0
 40
55.0
  1
EL4 %%C52ﾉｯｸｱｳﾄ穴
 50
359.9999969216753
 41
0.6309520000000001
  7
STANDARD1
  0
LINE
  5
1FC
  8
NOTE
  6
CONTINUOUS
 62
     4
 10
-1213.608072
 20
-599.9999999999991
 30
0.0
 11
-800.0000000000006
 21
-599.9999999999991
 31
0.0
  0
TEXT
  5
1FD
  8
NOTE
  6
CONTINUOUS
 62
     4
 10
-1198.736051000001
 20
-689.6551830000001
 30
0.0
 40
55.0
  1
EL3 %%C65ﾉｯｸｱｳﾄ穴
 50
359.9999969216753
 41
0.6309520000000001
  7
STANDARD1
  0
LINE
  5
1FE
  8
NOTE
  6
CONTINUOUS
 62
     4
 10
-1213.608072
 20
-700.0
 30
0.0
 11
-800.0000000000006
 21
-700.0
 31
0.0
  0
TEXT
  5
222
  8
SIZE
  6
CONTINUOUS
 62
    30
 10
1286.937602183172
 20
-148.7374441702675
 30
0.0
 40
55.0
  1
（678～684で対応）
 50
90.0
 41
0.75
 72
     1
 11
1286.937602183172
 21
75.19112725830405
 31
0.0
  0
LINE
  5
226
  8
DETAIL
  6
CONTINUOUS
 62
     5
 10
604.9999957980631
 20
292.9999999999948
 30
0.0
 11
-605.0000042019269
 21
292.9999999999948
 31
0.0
  0
LINE
  5
227
  8
DETAIL
  6
CONTINUOUS
 62
     5
 10
-602.0379696072569
 20
313.000000000002
 30
0.0
 11
602.0379612033934
 21
313.000000000002
 31
0.0
  0
LINE
  5
228
  8
DETAIL
  6
CONTINUOUS
 62
     5
 10
-550.6578666666641
 20
367.5000000000011
 30
0.0
 11
550.6578666666633
 21
367.5000000000011
 31
0.0
  0
LINE
  5
229
  8
DETAIL
  6
CONTINUOUS
 62
     5
 10
-556.6976833333288
 20
370.0000000000011
 30
0.0
 11
556.6976833333279
 21
370.0000000000011
 31
0.0
  0
LINE
  5
22A
  8
DETAIL
  6
CONTINUOUS
 62
     5
 10
609.9999999999957
 20
317.1749000000011
 30
0.0
 11
609.9999999999997
 21
-317.1748997250411
 31
0.0
  0
ARC
  5
22B
  8
DETAIL
  6
CONTINUOUS
 62
     5
 10
550.6578666666633
 20
357.5000000000011
 30
0.0
 40
10.00000000000002
 50
44.99999999999125
 51
90.0
  0
ARC
  5
22C
  8
DETAIL
  6
CONTINUOUS
 62
     5
 10
556.6976833333279
 20
365.999999999998
 30
0.0
 40
4.000000000000007
 50
45.27863700000123
 51
90.0
  0
LINE
  5
22D
  8
DETAIL
  6
CONTINUOUS
 62
     5
 10
599.799999999994
 20
312.9999999999948
 30
0.0
 11
599.799999999994
 21
318.3578666666679
 31
0.0
  0
LINE
  5
22E
  8
DETAIL
  6
CONTINUOUS
 62
     5
 10
557.7289333333295
 20
364.571066666668
 30
0.0
 11
596.8710833333311
 21
325.4289333333338
 31
0.0
  0
ARC
  5
231
  8
DETAIL
  6
CONTINUOUS
 62
     5
 10
589.7999999999959
 20
318.3578666666679
 30
0.0
 40
10.00000000000002
 50
0.0
 51
44.99999999999125
  0
LINE
  5
233
  8
DETAIL
  6
CONTINUOUS
 62
     5
 10
559.5123166666635
 20
368.8421499999997
 30
0.0
 11
608.8146499999968
 21
320.0170333333338
 31
0.0
  0
ARC
  5
234
  8
DETAIL
  6
CONTINUOUS
 62
     5
 10
605.9999999999995
 20
317.1749000000011
 30
0.0
 40
4.000000000000007
 50
0.0
 51
45.27863700000123
  0
LINE
  5
235
  8
DETAIL
  6
CONTINUOUS
 62
     5
 10
602.0379612033934
 20
313.000000000002
 30
0.0
 11
602.0379612033934
 21
293.000000000003
 31
0.0
  0
LINE
  5
236
  8
DETAIL
  6
CONTINUOUS
 62
     5
 10
598.9916644806547
 20
322.2965598604808
 30
0.0
 11
604.9999957980631
 21
316.346385543962
 31
0.0
  0
LINE
  5
237
  8
DETAIL
  6
CONTINUOUS
 62
     5
 10
604.9999957980631
 20
-293.000000000007
 30
0.0
 11
-605.0000042019267
 21
-293.000000000007
 31
0.0
  0
LINE
  5
238
  8
DETAIL
  6
CONTINUOUS
 62
     5
 10
-602.0379696072566
 20
-313.000000000007
 30
0.0
 11
602.0379612033934
 21
-313.000000000007
 31
0.0
  0
LINE
  5
239
  8
DETAIL
  6
CONTINUOUS
 62
     5
 10
-550.6578666666641
 20
-367.4999997250411
 30
0.0
 11
550.6578666666633
 21
-367.499999725042
 31
0.0
  0
LINE
  5
23A
  8
DETAIL
  6
CONTINUOUS
 62
     5
 10
-556.6976833333288
 20
-369.9999997250411
 30
0.0
 11
556.6976833333279
 21
-369.9999997250411
 31
0.0
  0
ARC
  5
23B
  8
DETAIL
  6
CONTINUOUS
 62
     5
 10
550.6578666666633
 20
-357.499999725042
 30
0.0
 40
10.00000000000002
 50
270.0
 51
315.0000000000088
  0
ARC
  5
23C
  8
DETAIL
  6
CONTINUOUS
 62
     5
 10
556.6976833333279
 20
-365.9999997250411
 30
0.0
 40
4.000000000000007
 50
270.0
 51
314.7213629999987
  0
LINE
  5
23D
  8
DETAIL
  6
CONTINUOUS
 62
     5
 10
599.799999999994
 20
-313.000000000007
 30
0.0
 11
599.799999999994
 21
-318.3578663917081
 31
0.0
  0
LINE
  5
23E
  8
DETAIL
  6
CONTINUOUS
 62
     5
 10
557.7289333333295
 20
-364.571066391708
 30
0.0
 11
596.8710833333311
 21
-325.4289330583761
 31
0.0
  0
ARC
  5
241
  8
DETAIL
  6
CONTINUOUS
 62
     5
 10
589.7999999999959
 20
-318.3578663917081
 30
0.0
 40
10.00000000000002
 50
315.0000000000088
 51
0.0
  0
LINE
  5
243
  8
DETAIL
  6
CONTINUOUS
 62
     5
 10
559.5123166666635
 20
-368.8421497250411
 30
0.0
 11
608.8146499999968
 21
-320.0170330583751
 31
0.0
  0
ARC
  5
244
  8
DETAIL
  6
CONTINUOUS
 62
     5
 10
605.9999999999995
 20
-317.1748997250411
 30
0.0
 40
4.000000000000007
 50
314.7213629999987
 51
0.0
  0
LINE
  5
245
  8
DETAIL
  6
CONTINUOUS
 62
     5
 10
602.0379612033934
 20
-313.000000000007
 30
0.0
 11
602.0379612033934
 21
-293.0
 31
0.0
  0
LINE
  5
246
  8
DETAIL
  6
CONTINUOUS
 62
     5
 10
598.9916644806547
 20
-322.2965595855221
 30
0.0
 11
604.9999957980631
 21
-316.3463852690031
 31
0.0
  0
LINE
  5
247
  8
DETAIL
  6
CONTINUOUS
 62
     5
 10
604.9999957980631
 20
-316.3463852690031
 30
0.0
 11
604.9999957980631
 21
316.346385543962
 31
0.0
  0
LINE
  5
248
  8
DETAIL
  6
CONTINUOUS
 62
     5
 10
-609.9999999999968
 20
317.1749000000011
 30
0.0
 11
-610.0000000000005
 21
-317.1748997250411
 31
0.0
  0
ARC
  5
249
  8
DETAIL
  6
CONTINUOUS
 62
     5
 10
-550.6578666666641
 20
357.5000000000011
 30
0.0
 40
10.00000000000002
 50
90.0
 51
135.0000000000088
  0
ARC
  5
24A
  8
DETAIL
  6
CONTINUOUS
 62
     5
 10
-556.6976833333288
 20
365.999999999998
 30
0.0
 40
4.000000000000007
 50
90.0
 51
134.7213629999988
  0
LINE
  5
24B
  8
DETAIL
  6
CONTINUOUS
 62
     5
 10
-599.7999999999952
 20
313.000000000002
 30
0.0
 11
-599.7999999999952
 21
318.3578666666679
 31
0.0
  0
LINE
  5
24C
  8
DETAIL
  6
CONTINUOUS
 62
     5
 10
-557.7289333333306
 20
364.571066666668
 30
0.0
 11
-596.8710833333321
 21
325.4289333333338
 31
0.0
  0
ARC
  5
24F
  8
DETAIL
  6
CONTINUOUS
 62
     5
 10
-589.799999999997
 20
318.3578666666679
 30
0.0
 40
10.00000000000002
 50
135.0000000000092
 51
180.0
  0
LINE
  5
251
  8
DETAIL
  6
CONTINUOUS
 62
     5
 10
-559.5123166666649
 20
368.8421499999997
 30
0.0
 11
-608.814649999998
 21
320.0170333333338
 31
0.0
  0
ARC
  5
252
  8
DETAIL
  6
CONTINUOUS
 62
     5
 10
-606.0000000000005
 20
317.1749000000011
 30
0.0
 40
4.000000000000007
 50
134.7213629999988
 51
180.0
  0
LINE
  5
253
  8
DETAIL
  6
CONTINUOUS
 62
     5
 10
-602.0379696072569
 20
313.000000000002
 30
0.0
 11
-602.0379696072569
 21
292.9999999999948
 31
0.0
  0
LINE
  5
254
  8
DETAIL
  6
CONTINUOUS
 62
     5
 10
-598.9916644806558
 20
322.2965598604808
 30
0.0
 11
-605.0000042019269
 21
316.3463772214429
 31
0.0
  0
ARC
  5
255
  8
DETAIL
  6
CONTINUOUS
 62
     5
 10
-550.6578666666641
 20
-357.499999725042
 30
0.0
 40
10.00000000000002
 50
224.9999999999912
 51
270.0
  0
ARC
  5
256
  8
DETAIL
  6
CONTINUOUS
 62
     5
 10
-556.6976833333288
 20
-365.9999997250411
 30
0.0
 40
4.000000000000007
 50
225.2786370000013
 51
270.0
  0
LINE
  5
257
  8
DETAIL
  6
CONTINUOUS
 62
     5
 10
-599.7999999999952
 20
-313.000000000007
 30
0.0
 11
-599.7999999999952
 21
-318.3578663917081
 31
0.0
  0
LINE
  5
258
  8
DETAIL
  6
CONTINUOUS
 62
     5
 10
-557.7289333333306
 20
-364.571066391708
 30
0.0
 11
-596.8710833333321
 21
-325.4289330583761
 31
0.0
  0
ARC
  5
25B
  8
DETAIL
  6
CONTINUOUS
 62
     5
 10
-589.799999999997
 20
-318.3578663917081
 30
0.0
 40
10.00000000000002
 50
180.0
 51
224.9999999999908
  0
LINE
  5
25D
  8
DETAIL
  6
CONTINUOUS
 62
     5
 10
-559.5123166666649
 20
-368.8421497250411
 30
0.0
 11
-608.814649999998
 21
-320.0170330583751
 31
0.0
  0
ARC
  5
25E
  8
DETAIL
  6
CONTINUOUS
 62
     5
 10
-606.0000000000005
 20
-317.1748997250411
 30
0.0
 40
4.000000000000007
 50
180.0
 51
225.2786370000013
  0
LINE
  5
25F
  8
DETAIL
  6
CONTINUOUS
 62
     5
 10
-602.0379696072569
 20
-313.000000000007
 30
0.0
 11
-602.0379696072569
 21
-293.000000000007
 31
0.0
  0
LINE
  5
260
  8
DETAIL
  6
CONTINUOUS
 62
     5
 10
-598.9916644806558
 20
-322.2965595855221
 30
0.0
 11
-605.0000042019267
 21
-316.346376946485
 31
0.0
  0
LINE
  5
261
  8
DETAIL
  6
CONTINUOUS
 62
     5
 10
-605.0000042019267
 20
-316.346376946485
 30
0.0
 11
-605.0000042019269
 21
316.3463772214429
 31
0.0
  0
LINE
  5
262
  8
OUTLINE
  6
CONTINUOUS
 62
     3
 10
-556.6976833333288
 20
370.0000000000011
 30
0.0
 11
556.6976833333279
 21
370.0000000000011
 31
0.0
  0
LINE
  5
263
  8
OUTLINE
  6
CONTINUOUS
 62
     3
 10
609.9999999999957
 20
317.1749000000011
 30
0.0
 11
609.9999999999997
 21
-317.1748997250411
 31
0.0
  0
ARC
  5
264
  8
OUTLINE
  6
CONTINUOUS
 62
     3
 10
556.6976833333279
 20
365.999999999998
 30
0.0
 40
4.000000000000007
 50
45.27863700000123
 51
90.0
  0
LINE
  5
265
  8
OUTLINE
  6
CONTINUOUS
 62
     3
 10
559.5123166666635
 20
368.8421499999997
 30
0.0
 11
608.8146499999968
 21
320.0170333333338
 31
0.0
  0
ARC
  5
266
  8
OUTLINE
  6
CONTINUOUS
 62
     3
 10
605.9999999999995
 20
317.1749000000011
 30
0.0
 40
4.000000000000007
 50
0.0
 51
45.27863700000123
  0
LINE
  5
267
  8
OUTLINE
  6
CONTINUOUS
 62
     3
 10
-556.6976833333288
 20
-369.9999997250411
 30
0.0
 11
556.6976833333279
 21
-369.9999997250411
 31
0.0
  0
ARC
  5
268
  8
OUTLINE
  6
CONTINUOUS
 62
     3
 10
556.6976833333279
 20
-365.9999997250411
 30
0.0
 40
4.000000000000007
 50
270.0
 51
314.7213629999987
  0
LINE
  5
269
  8
OUTLINE
  6
CONTINUOUS
 62
     3
 10
559.5123166666635
 20
-368.8421497250411
 30
0.0
 11
608.8146499999968
 21
-320.0170330583751
 31
0.0
  0
ARC
  5
26A
  8
OUTLINE
  6
CONTINUOUS
 62
     3
 10
605.9999999999995
 20
-317.1748997250411
 30
0.0
 40
4.000000000000007
 50
314.7213629999987
 51
0.0
  0
LINE
  5
26B
  8
OUTLINE
  6
CONTINUOUS
 62
     3
 10
-609.9999999999968
 20
317.1749000000011
 30
0.0
 11
-610.0000000000005
 21
-317.1748997250411
 31
0.0
  0
ARC
  5
26C
  8
OUTLINE
  6
CONTINUOUS
 62
     3
 10
-556.6976833333288
 20
365.999999999998
 30
0.0
 40
4.000000000000007
 50
90.0
 51
134.7213629999988
  0
LINE
  5
26D
  8
OUTLINE
  6
CONTINUOUS
 62
     3
 10
-559.5123166666649
 20
368.8421499999997
 30
0.0
 11
-608.814649999998
 21
320.0170333333338
 31
0.0
  0
ARC
  5
26E
  8
OUTLINE
  6
CONTINUOUS
 62
     3
 10
-606.0000000000005
 20
317.1749000000011
 30
0.0
 40
4.000000000000007
 50
134.7213629999988
 51
180.0
  0
ARC
  5
26F
  8
OUTLINE
  6
CONTINUOUS
 62
     3
 10
-556.6976833333288
 20
-365.9999997250411
 30
0.0
 40
4.000000000000007
 50
225.2786370000013
 51
270.0
  0
LINE
  5
270
  8
OUTLINE
  6
CONTINUOUS
 62
     3
 10
-559.5123166666649
 20
-368.8421497250411
 30
0.0
 11
-608.814649999998
 21
-320.0170330583751
 31
0.0
  0
ARC
  5
271
  8
OUTLINE
  6
CONTINUOUS
 62
     3
 10
-606.0000000000005
 20
-317.1748997250411
 30
0.0
 40
4.000000000000007
 50
180.0
 51
225.2786370000013
  0
LINE
  5
272
  8
NOTE
  6
CONTINUOUS
 62
     4
 10
-530.0000041688693
 20
340.500000000002
 30
0.0
 11
-642.5073036765962
 21
447.284814829269
 31
0.0
  0
LINE
  5
273
  8
NOTE
  6
CONTINUOUS
 62
     4
 10
-546.0593630301006
 20
367.0840945782268
 30
0.0
 11
-530.0000041688413
 21
340.499999999987
 31
0.0
  0
LINE
  5
274
  8
NOTE
  6
CONTINUOUS
 62
     4
 10
-530.0000041688413
 20
340.499999999987
 30
0.0
 11
-557.1998641322868
 21
355.4928219341148
 31
0.0
  0
LINE
  5
276
  8
NOTE
  6
CONTINUOUS
 62
     4
 10
-170.2930645182577
 20
-196.136855521474
 30
0.0
 11
-100.0000000000005
 21
-99.99999999999909
 31
0.0
  0
LINE
  5
277
  8
NOTE
  6
CONTINUOUS
 62
     4
 10
-163.8041315329413
 20
-200.88141454119
 30
0.0
 11
-188.0000000000012
 21
-220.353883329308
 31
0.0
  0
LINE
  5
278
  8
NOTE
  6
CONTINUOUS
 62
     4
 10
-188.0000000000012
 20
-220.353883329308
 30
0.0
 11
-176.781997503574
 21
-191.3922965017591
 31
0.0
  0
LINE
  5
279
  8
NOTE
  6
CONTINUOUS
 62
     4
 10
-188.0000000000012
 20
-220.353883329308
 30
0.0
 11
-170.2930645182577
 21
-196.136855521474
 31
0.0
  0
LINE
  5
27A
  8
NOTE
  6
CONTINUOUS
 62
     4
 10
-403.9855320193353
 20
-195.4384571708301
 30
0.0
 11
-800.0000000000006
 21
-599.9999999999991
 31
0.0
  0
LINE
  5
27B
  8
NOTE
  6
CONTINUOUS
 62
     4
 10
-409.7299492531089
 20
-189.8154008645311
 30
0.0
 11
-383.0000000000016
 21
-174.0
 31
0.0
  0
LINE
  5
27C
  8
NOTE
  6
CONTINUOUS
 62
     4
 10
-383.0000000000016
 20
-174.0
 30
0.0
 11
-398.2411147855616
 21
-201.0615134771301
 31
0.0
  0
LINE
  5
27D
  8
NOTE
  6
CONTINUOUS
 62
     4
 10
-383.0000000000016
 20
-174.0
 30
0.0
 11
-403.9855320193353
 21
-195.4384571708301
 31
0.0
  0
LINE
  5
27E
  8
NOTE
  6
CONTINUOUS
 62
     4
 10
-403.366652923348
 20
-271.027243329567
 30
0.0
 11
-800.0000000000006
 21
-700.0
 31
0.0
  0
LINE
  5
27F
  8
NOTE
  6
CONTINUOUS
 62
     4
 10
-409.2688349314384
 20
-265.5700151757451
 30
0.0
 11
-383.0000000000016
 21
-249.0
 31
0.0
  0
LINE
  5
280
  8
NOTE
  6
CONTINUOUS
 62
     4
 10
-383.0000000000016
 20
-249.0
 30
0.0
 11
-397.4644709152578
 21
-276.484471483388
 31
0.0
  0
LINE
  5
281
  8
NOTE
  6
CONTINUOUS
 62
     4
 10
-383.0000000000016
 20
-249.0
 30
0.0
 11
-403.366652923348
 21
-271.027243329567
 31
0.0
  0
LINE
  5
4C1
  8
NOTE
  6
CONTINUOUS
 62
     4
 10
-308.9999999999995
 20
-244.7375835096911
 30
0.0
 11
-308.9999999999995
 21
-203.262416490511
 31
0.0
  0
LINE
  5
4C2
  8
NOTE
  6
CONTINUOUS
 62
     4
 10
-288.2624164903787
 20
-224.0000000001021
 30
0.0
 11
-329.7375835095586
 21
-224.000000000101
 31
0.0
  0
LINE
  5
4C3
  8
NOTE
  6
CONTINUOUS
 62
     4
 10
-198.1186558153327
 20
-224.000000000002
 30
0.0
 11
-253.8813441846664
 21
-224.000000000002
 31
0.0
  0
LINE
  5
4C4
  8
NOTE
  6
CONTINUOUS
 62
     4
 10
-225.9999999999691
 20
-251.8813441846671
 30
0.0
 11
-225.9999999999682
 21
-196.1186558153352
 31
0.0
  0
LINE
  5
4C6
  8
NOTE
  6
CONTINUOUS
 62
     4
 10
-304.2693554978432
 20
-254.695897025204
 30
0.0
 11
-308.9999999999798
 21
-224.0000000001301
 31
0.0
  0
LINE
  5
4C7
  8
NOTE
  6
CONTINUOUS
 62
     4
 10
-308.9999999999798
 20
-224.0000000001301
 30
0.0
 11
-289.5551932821868
 21
-248.2181044529391
 31
0.0
  0
LINE
  5
4C9
  8
NOTE
  6
CONTINUOUS
 62
     4
 10
-220.4663916739904
 20
-254.561352562906
 30
0.0
 11
-225.9999999999686
 21
-224.000000000002
 31
0.0
  0
LINE
  5
4CA
  8
NOTE
  6
CONTINUOUS
 62
     4
 10
-225.9999999999686
 20
-224.000000000002
 30
0.0
 11
-205.9270784411426
 21
-247.7001036215631
 31
0.0
  0
LINE
  5
4D9
  8
SIZE
  6
CONTINUOUS
 62
    30
 10
-273.2624164903787
 20
-224.0000000001021
 30
0.0
 11
833.3728420403447
 21
-224.0000000001021
 31
0.0
  0
LINE
  5
4DA
  8
SIZE
  6
CONTINUOUS
 62
    30
 10
321.6695920509956
 20
-370.0000000001091
 30
0.0
 11
833.3728420403447
 21
-370.0000000001091
 31
0.0
  0
LINE
  5
4DB
  8
SIZE
  6
CONTINUOUS
 62
    30
 10
818.3728420403465
 20
-233.0000000001021
 30
0.0
 11
818.3728420403447
 21
-360.00000000011
 31
0.0
  0
LINE
  5
4DC
  8
SIZE
  6
CONTINUOUS
 62
    30
 10
818.3728420403447
 20
-370.0000000001091
 30
0.0
 11
818.3728420403447
 21
-529.035714285824
 31
0.0
  0
CIRCLE
  5
4DD
  8
SIZE
  6
CONTINUOUS
 62
    30
 10
818.3728573987555
 20
-224.0000000001021
 30
0.0
 40
5.0
  0
LINE
  5
4DE
  8
SIZE
  6
CONTINUOUS
 62
    30
 10
818.3728440421446
 20
-229.0000000000841
 30
0.0
 11
818.3728420403465
 21
-233.0000000001021
 31
0.0
  0
CIRCLE
  5
4DF
  8
SIZE
  6
CONTINUOUS
 62
    30
 10
818.3728420403447
 20
-370.0000000001091
 30
0.0
 40
5.0
  0
LINE
  5
4E0
  8
SIZE
  6
CONTINUOUS
 62
    30
 10
818.3728420403447
 20
-365.00000000011
 30
0.0
 11
818.3728420403447
 21
-360.00000000011
 31
0.0
  0
TEXT
  5
4E1
  8
SIZE
  6
CONTINUOUS
 62
    30
 10
803.3728420403456
 20
-529.357142857252
 30
0.0
 40
55.0
  1
146
 50
90.0
 41
0.9
 72
     1
 11
803.3728420403456
 21
-455.107142857252
 31
0.0
  0
POINT
  5
4E2
  8
DEFPOINTS
  6
CONTINUOUS
 62
     7
 10
818.3728420403447
 20
-370.0000000001091
 30
0.0
  0
TEXT
  5
5C6
  8
NOTE
  6
CONTINUOUS
 62
     4
 10
-53.34421793927439
 20
-753.0040133423861
 30
0.0
 40
55.0
  1
RL %%C19.05
 50
359.9999969216753
 41
0.6309520000000001
  7
STANDARD1
  0
LINE
  5
5C7
  8
NOTE
  6
CONTINUOUS
 62
     4
 10
-74.262407020295
 20
-771.4037655485661
 30
0.0
 11
238.8799305010739
 21
-771.4037655485661
 31
0.0
  0
LINE
  5
5C8
  8
NOTE
  6
CONTINUOUS
 62
     4
 10
-308.9999999999995
 20
-224.000000000002
 30
0.0
 11
-74.262407020295
 21
-771.4037655485661
 31
0.0
  0
LINE
  5
5C9
  8
NOTE
  6
CONTINUOUS
 62
     4
 10
-226.0000000000218
 20
-223.9999999998731
 30
0.0
 11
0.8568399193570997
 21
-656.4131119101821
 31
0.0
  0
TEXT
  5
5CA
  8
NOTE
  6
CONTINUOUS
 62
     4
 10
-57.13847590325258
 20
-476.235236653735
 30
0.0
 40
55.0
  1
RG %%C22.2
 50
359.9999969216753
 41
0.6309520000000001
  7
STANDARD1
  0
LINE
  5
5CB
  8
NOTE
  6
CONTINUOUS
 62
     4
 10
-66.92115721716038
 20
-527.221086352278
 30
0.0
 11
249.2734446370219
 21
-527.221086352278
 31
0.0
  0
TEXT
  5
5CC
  8
NOTE
  6
CONTINUOUS
 62
     4
 10
-40.35393937074258
 20
-517.3082398209281
 30
0.0
 40
30.0
  1
PURY-P335DMG
 41
0.7
  0
TEXT
  5
5CD
  8
NOTE
  6
CONTINUOUS
 62
     4
 10
13.88024222585392
 20
-600.169166331905
 30
0.0
 40
55.0
  1
RG %%C25.4
 50
359.9999969216753
 41
0.6309520000000001
  7
STANDARD1
  0
LINE
  5
5CE
  8
NOTE
  6
CONTINUOUS
 62
     4
 10
0.8568399193570997
 20
-656.4131119101821
 30
0.0
 11
301.584747002528
 21
-656.4131119101821
 31
0.0
  0
TEXT
  5
5CF
  8
NOTE
  6
CONTINUOUS
 62
     4
 10
34.29311088788
 20
-643.576542926379
 30
0.0
 40
30.0
  1
PURY-P400DMG
 41
0.7
  0
CIRCLE
  5
5D0
  8
DETAIL
  6
CONTINUOUS
 62
     5
 10
-225.9999999999032
 20
-224.0000000001451
 30
0.0
 40
12.7
  0
ENDSEC
  0
EOF
