  0
SECTION
  2
HEADER
  9
$ACADVER
  1
AC1009
  9
$INSBASE
 10
0.0
 20
0.0
 30
0.0
  9
$EXTMIN
 10
-949.12717392333786
 20
-521.16392374872885
 30
-0.000000000000013
  9
$EXTMAX
 10
1051.666275658255
 20
2148.555005549631
 30
0.0000000000000023
  9
$LIMMIN
 10
-4200.0
 20
-2970.0
  9
$LIMMAX
 10
4200.0
 20
2970.0
  9
$ORTHOMODE
 70
     1
  9
$REGENMODE
 70
     1
  9
$FILLMODE
 70
     1
  9
$QTEXTMODE
 70
     0
  9
$MIRRTEXT
 70
     0
  9
$DRAGMODE
 70
     2
  9
$LTSCALE
 40
20.0
  9
$OSMODE
 70
   431
  9
$ATTMODE
 70
     1
  9
$TEXTSIZE
 40
64.0
  9
$TRACEWID
 40
0.05
  9
$TEXTSTYLE
  7
STANDARD
  9
$CLAYER
  8
SYMBOLLINE
  9
$CELTYPE
  6
CONTINUOUS
  9
$CECOLOR
 62
     7
  9
$DIMSCALE
 40
1.0
  9
$DIMASZ
 40
10.0
  9
$DIMEXO
 40
20.0
  9
$DIMDLI
 40
200.0
  9
$DIMRND
 40
0.0
  9
$DIMDLE
 40
0.0
  9
$DIMEXE
 40
30.0
  9
$DIMTP
 40
0.0
  9
$DIMTM
 40
0.0
  9
$DIMTXT
 40
55.0
  9
$DIMCEN
 40
0.0
  9
$DIMTSZ
 40
0.0
  9
$DIMTOL
 70
     0
  9
$DIMLIM
 70
     0
  9
$DIMTIH
 70
     0
  9
$DIMTOH
 70
     0
  9
$DIMSE1
 70
     0
  9
$DIMSE2
 70
     0
  9
$DIMTAD
 70
     1
  9
$DIMZIN
 70
     8
  9
$DIMBLK
  1

  9
$DIMASO
 70
     1
  9
$DIMSHO
 70
     0
  9
$DIMPOST
  1

  9
$DIMAPOST
  1

  9
$DIMALT
 70
     0
  9
$DIMALTD
 70
     2
  9
$DIMALTF
 40
25.399999999999999
  9
$DIMLFAC
 40
1.0
  9
$DIMTOFL
 70
     1
  9
$DIMTVP
 40
0.0
  9
$DIMTIX
 70
     1
  9
$DIMSOXD
 70
     0
  9
$DIMSAH
 70
     0
  9
$DIMBLK1
  1

  9
$DIMBLK2
  1

  9
$DIMSTYLE
  2
STANDARD
  9
$DIMCLRD
 70
     0
  9
$DIMCLRE
 70
     0
  9
$DIMCLRT
 70
     0
  9
$DIMTFAC
 40
1.0
  9
$DIMGAP
 40
0.09
  9
$LUNITS
 70
     2
  9
$LUPREC
 70
     4
  9
$SKETCHINC
 40
0.1
  9
$FILLETRAD
 40
0.0
  9
$AUNITS
 70
     1
  9
$AUPREC
 70
     3
  9
$MENU
  1
ACAD
  9
$ELEVATION
 40
0.0
  9
$PELEVATION
 40
0.0
  9
$THICKNESS
 40
0.0
  9
$LIMCHECK
 70
     0
  9
$BLIPMODE
 70
     0
  9
$CHAMFERA
 40
0.0
  9
$CHAMFERB
 40
0.0
  9
$SKPOLY
 70
     0
  9
$TDCREATE
 40
2449761.4936226849
  9
$TDUPDATE
 40
2455995.707738067
  9
$TDINDWG
 40
5.0541386921000004
  9
$TDUSRTIMER
 40
5.0541301852
  9
$USRTIMER
 70
     1
  9
$ANGBASE
 50
0.0
  9
$ANGDIR
 70
     0
  9
$PDMODE
 70
    35
  9
$PDSIZE
 40
100.0
  9
$PLINEWID
 40
0.0
  9
$COORDS
 70
     2
  9
$SPLFRAME
 70
     0
  9
$SPLINETYPE
 70
     6
  9
$SPLINESEGS
 70
     8
  9
$ATTDIA
 70
     0
  9
$ATTREQ
 70
     1
  9
$HANDLING
 70
     1
  9
$HANDSEED
  5
152E
  9
$SURFTAB1
 70
     6
  9
$SURFTAB2
 70
     6
  9
$SURFTYPE
 70
     6
  9
$SURFU
 70
     6
  9
$SURFV
 70
     6
  9
$UCSNAME
  2

  9
$UCSORG
 10
0.0
 20
0.0
 30
0.0
  9
$UCSXDIR
 10
1.0
 20
0.0
 30
0.0
  9
$UCSYDIR
 10
0.0
 20
1.0
 30
0.0
  9
$PUCSNAME
  2

  9
$PUCSORG
 10
0.0
 20
0.0
 30
0.0
  9
$PUCSXDIR
 10
1.0
 20
0.0
 30
0.0
  9
$PUCSYDIR
 10
0.0
 20
1.0
 30
0.0
  9
$USERI1
 70
     0
  9
$USERI2
 70
     0
  9
$USERI3
 70
     0
  9
$USERI4
 70
     0
  9
$USERI5
 70
     0
  9
$USERR1
 40
20.0
  9
$USERR2
 40
0.0
  9
$USERR3
 40
0.0
  9
$USERR4
 40
0.0
  9
$USERR5
 40
0.0
  9
$WORLDVIEW
 70
     1
  9
$SHADEDGE
 70
     3
  9
$SHADEDIF
 70
    70
  9
$TILEMODE
 70
     1
  9
$MAXACTVP
 70
    64
  9
$PLIMCHECK
 70
     0
  9
$PEXTMIN
 10
1.0000000000000000E+020
 20
1.0000000000000000E+020
 30
1.0000000000000000E+020
  9
$PEXTMAX
 10
-1.0000000000000000E+020
 20
-1.0000000000000000E+020
 30
-1.0000000000000000E+020
  9
$PLIMMIN
 10
0.0
 20
0.0
  9
$PLIMMAX
 10
12.0
 20
9.0
  9
$UNITMODE
 70
     0
  9
$VISRETAIN
 70
     1
  9
$PLINEGEN
 70
     0
  9
$PSLTSCALE
 70
     1
  0
ENDSEC
  0
SECTION
  2
TABLES
  0
TABLE
  2
VPORT
 70
     1
  0
VPORT
  2
*ACTIVE
 70
     0
 10
0.0
 20
0.0
 11
1.0
 21
1.0
 12
0.0000000000003411
 22
0.0
 13
0.0
 23
0.0
 14
50.0
 24
50.0
 15
100.0
 25
100.0
 16
0.0
 26
0.0
 36
1.0
 17
0.0
 27
0.0
 37
0.0
 40
5985.5172413793098
 41
1.5639386189258311
 42
50.0
 43
0.0
 44
0.0
 50
0.0
 51
0.0
 71
     0
 72
  1000
 73
     1
 74
     0
 75
     0
 76
     0
 77
     0
 78
     0
  0
ENDTAB
  0
TABLE
  2
LTYPE
 70
     2
  0
LTYPE
  2
CONTINUOUS
 70
     0
  3
実線
 72
    65
 73
     0
 40
0.0
  0
LTYPE
  2
DASHDOT
 70
     0
  3
____ _ ____ _ ____ _ ____ _ ____ _ ____ _ ____
 72
    65
 73
     4
 40
5.5
 49
4.0
 49
-0.6
 49
0.3
 49
-0.6
  0
ENDTAB
  0
TABLE
  2
LAYER
 70
    12
  0
LAYER
  2
0
 70
     0
 62
     7
  6
CONTINUOUS
  0
LAYER
  2
SYMBOLLINE
 70
     0
 62
    15
  6
CONTINUOUS
  0
LAYER
  2
OUTLINE
 70
     0
 62
     3
  6
CONTINUOUS
  0
LAYER
  2
DETAIL
 70
     0
 62
     5
  6
CONTINUOUS
  0
LAYER
  2
BASIS
 70
     0
 62
     6
  6
DASHDOT
  0
LAYER
  2
SIZE
 70
     0
 62
    30
  6
CONTINUOUS
  0
LAYER
  2
NOTE
 70
     0
 62
     4
  6
CONTINUOUS
  0
LAYER
  2
ARRANGE
 70
     0
 62
     1
  6
CONTINUOUS
  0
LAYER
  2
FIX
 70
     0
 62
    11
  6
CONTINUOUS
  0
LAYER
  2
SERVICESPACE
 70
     0
 62
     2
  6
DASHDOT
  0
LAYER
  2
ETC
 70
     0
 62
    61
  6
CONTINUOUS
  0
LAYER
  2
DEFPOINTS
 70
     0
 62
     7
  6
CONTINUOUS
  0
ENDTAB
  0
TABLE
  2
STYLE
 70
     3
  0
STYLE
  2
STANDARD
 70
     0
 40
0.0
 41
0.9
 50
0.0
 71
     0
 42
64.0
  3
SIMPLEX
  4
BIGFONT
  0
STYLE
  2
ANNOTATIVE
 70
     0
 40
0.0
 41
1.0
 50
0.0
 71
     0
 42
0.2
  3
txt
  4

  0
STYLE
  2
STANDARD1
 70
     0
 40
0.0
 41
1.0
 50
0.0
 71
     0
 42
3.5
  3
MONOTXT
  4
BIGFONT
  0
ENDTAB
  0
TABLE
  2
VIEW
 70
     2
  0
VIEW
  2
ALL
 70
     0
 40
6056.2300320000013
 10
0.0
 20
58.11501599999999
 41
8400.0
 11
0.0
 21
0.0
 31
1.0
 12
0.0
 22
0.0
 32
0.0
 42
50.0
 43
0.0
 44
0.0
 50
0.0
 71
     0
  0
ENDTAB
  0
TABLE
  2
UCS
 70
     0
  0
ENDTAB
  0
TABLE
  2
APPID
 70
     4
  0
APPID
  2
ACAD
 70
     0
  0
APPID
  2
ACADANNOTATIVE
 70
     0
  0
APPID
  2
ACAD_MLEADERVER
 70
     0
  0
APPID
  2
ACAD_EXEMPT_FROM_CAD_STANDARDS
 70
     0
  0
ENDTAB
  0
TABLE
  2
DIMSTYLE
 70
     2
  0
DIMSTYLE
  2
STANDARD
 70
     0
  3

  4

  5

  6

  7

 40
1.0
 41
0.18
 42
0.0625
 43
0.38
 44
0.18
 45
0.0
 46
0.0
 47
0.0
 48
0.0
140
0.18
141
0.09
142
0.0
143
25.399999999999999
144
1.0
145
0.0
146
1.0
147
0.09
 71
     0
 72
     0
 73
     1
 74
     1
 75
     0
 76
     0
 77
     0
 78
     0
170
     0
171
     2
172
     0
173
     0
174
     0
175
     0
176
     0
177
     0
178
     0
  0
DIMSTYLE
  2
ANNOTATIVE
 70
     0
  3

  4

  5

  6

  7

 40
1.0
 41
0.18
 42
0.0625
 43
0.38
 44
0.18
 45
0.0
 46
0.0
 47
0.0
 48
0.0
140
0.18
141
0.09
142
0.0
143
25.399999999999999
144
1.0
145
0.0
146
1.0
147
0.09
 71
     0
 72
     0
 73
     1
 74
     1
 75
     0
 76
     0
 77
     0
 78
     0
170
     0
171
     2
172
     0
173
     0
174
     0
175
     0
176
     0
177
     0
178
     0
  0
ENDTAB
  0
ENDSEC
  0
SECTION
  2
BLOCKS
  0
BLOCK
  8
0
  2
$MODEL_SPACE
 70
     0
 10
0.0
 20
0.0
 30
0.0
  3
$MODEL_SPACE
  1

  0
ENDBLK
  5
14E4
  8
0
  0
BLOCK
 67
     1
  8
0
  2
$PAPER_SPACE
 70
     0
 10
0.0
 20
0.0
 30
0.0
  3
$PAPER_SPACE
  1

  0
ENDBLK
  5
14E0
 67
     1
  8
0
  0
ENDSEC
  0
SECTION
  2
ENTITIES
  0
LINE
  5
8A
  8
DETAIL
  6
CONTINUOUS
 62
     5
 10
329.74109294763821
 20
83.525236525273144
 30
0.0
 11
329.74109294763821
 21
1369.913909239167
 31
0.0
  0
LINE
  5
8B
  8
DETAIL
  6
CONTINUOUS
 62
     5
 10
-375.61348880519921
 20
58.517680679358371
 30
0.0
 11
-375.61348880519921
 21
1369.913909239167
 31
0.0
  0
LINE
  5
8C
  8
DETAIL
  6
CONTINUOUS
 62
     5
 10
-329.74109294672689
 20
58.517680679358371
 30
0.0
 11
-329.74109294672689
 21
1369.913909239167
 31
0.0
  0
LINE
  5
8D
  8
DETAIL
  6
CONTINUOUS
 62
     5
 10
-307.59293690430962
 20
1289.889730532248
 30
0.0
 11
-307.59293690430962
 21
78.5237253561031
 31
0.0
  0
LINE
  5
97
  8
DETAIL
  6
CONTINUOUS
 62
     5
 10
172.5521353372722
 20
83.525236525273144
 30
0.0
 11
172.5521353372722
 21
1289.889730532248
 31
0.0
  0
LINE
  5
99
  8
DETAIL
  6
CONTINUOUS
 62
     5
 10
375.61348880611081
 20
1369.913909239167
 30
0.0
 11
375.61348880611081
 21
58.517680679358371
 31
0.0
  0
LINE
  5
A2
  8
DETAIL
  6
CONTINUOUS
 62
     5
 10
-300.54935685498771
 20
83.525236525273144
 30
0.0
 11
164.50825305410669
 21
83.525236525273144
 31
0.0
  0
LINE
  5
A3
  8
DETAIL
  6
CONTINUOUS
 62
     5
 10
287.58133705052882
 20
45.997579965566253
 30
0.0
 11
-282.57982588043109
 21
45.997579965566253
 31
0.0
  0
LINE
  5
A5
  8
DETAIL
  6
CONTINUOUS
 62
     5
 10
-308.59323913815382
 20
78.5237253561031
 30
0.0
 11
-308.59323913815382
 21
63.51919184852931
 31
0.0
  0
ARC
  5
A6
  8
DETAIL
  6
CONTINUOUS
 62
     5
 10
-366.61223240006831
 20
64.00891584746762
 30
0.0
 40
7.9966529994100259
 50
223.36879469553759
 51
266.27641879469007
  0
LINE
  5
A7
  8
DETAIL
  6
CONTINUOUS
 62
     5
 10
-375.61348880519921
 20
58.517680679358371
 30
0.0
 11
-313.59475030732779
 21
58.517680679346171
 31
0.0
  0
LINE
  5
A9
  8
DETAIL
  6
CONTINUOUS
 62
     5
 10
-294.13032115997288
 20
53.999997836281651
 30
0.0
 11
-328.5992837777211
 21
54.000000483988067
 31
0.0
  0
LINE
  5
AA
  8
DETAIL
  6
CONTINUOUS
 62
     5
 10
-367.13155915240662
 20
56.029143988710082
 30
0.0
 11
-328.59928377771797
 21
54.000000483988067
 31
0.0
  0
ARC
  5
AC
  8
DETAIL
  6
CONTINUOUS
 62
     5
 10
-313.59475030732398
 20
63.51919184852931
 30
0.0
 40
5.0015111691831251
 50
270.0
 51
0.0
  0
LINE
  5
AD
  8
DETAIL
  6
CONTINUOUS
 62
     5
 10
-305.74707973076602
 20
78.5237253561031
 30
0.0
 11
-308.59323913815382
 21
78.5237253561031
 31
0.0
  0
LINE
  5
AF
  8
DETAIL
  6
CONTINUOUS
 62
     5
 10
-302.28193114685382
 20
82.524934291445334
 30
0.0
 11
-304.01450543880992
 21
79.524027589930938
 31
0.0
  0
ARC
  5
B0
  8
DETAIL
  6
CONTINUOUS
 62
     5
 10
-305.74707973076602
 20
80.524329823758734
 30
0.0
 40
2.0006044676731922
 50
270.0
 51
329.99999999998971
  0
ARC
  5
B1
  8
DETAIL
  6
CONTINUOUS
 62
     5
 10
-300.54935685498771
 20
81.524632057586572
 30
0.0
 40
2.0006044676731922
 50
90.0
 51
149.9999999999896
  0
LINE
  5
B2
  8
DETAIL
  6
CONTINUOUS
 62
     5
 10
-286.91126161034367
 20
48.49833555015131
 30
0.0
 11
-288.06631113820998
 21
50.49894001783786
 31
0.0
  0
ARC
  5
B3
  8
DETAIL
  6
CONTINUOUS
 62
     5
 10
-294.13032115997288
 20
46.997882199425028
 30
0.0
 40
7.002115636856467
 50
30.000000000010321
 51
90.0
  0
ARC
  5
B4
  8
DETAIL
  6
CONTINUOUS
 62
     5
 10
-282.57982588043109
 20
50.99909113476815
 30
0.0
 40
5.001511169183205
 50
210.00000000001029
 51
270.0
  0
LINE
  5
CB
  8
DETAIL
  6
CONTINUOUS
 62
     5
 10
176.55334427261499
 20
58.517680679358371
 30
0.0
 11
375.61348880611081
 21
58.517680679358371
 31
0.0
  0
LINE
  5
CC
  8
DETAIL
  6
CONTINUOUS
 62
     5
 10
172.5521353372722
 20
83.525236525273144
 30
0.0
 11
375.61348880611081
 21
83.525236525273144
 31
0.0
  0
LINE
  5
CD
  8
DETAIL
  6
CONTINUOUS
 62
     5
 10
173.55243757110011
 20
61.518587380872738
 30
0.0
 11
173.55243757110011
 21
83.525236525273144
 31
0.0
  0
ARC
  5
CE
  8
DETAIL
  6
CONTINUOUS
 62
     5
 10
176.55334427261499
 20
61.518587380872738
 30
0.0
 40
3.000906701509495
 50
180.0
 51
270.0
  0
LINE
  5
D0
  8
DETAIL
  6
CONTINUOUS
 62
     5
 10
173.55243757110011
 20
78.5237253561031
 30
0.0
 11
169.70597592989989
 21
78.5237253561031
 31
0.0
  0
LINE
  5
D1
  8
DETAIL
  6
CONTINUOUS
 62
     5
 10
167.97340163792791
 20
79.524027589930938
 30
0.0
 11
166.24082734597229
 21
82.524934291445334
 31
0.0
  0
ARC
  5
D4
  8
DETAIL
  6
CONTINUOUS
 62
     5
 10
164.50825305410669
 20
81.524632057586572
 30
0.0
 40
2.0006044676732602
 50
30.000000000010321
 51
90.0
  0
ARC
  5
D5
  8
DETAIL
  6
CONTINUOUS
 62
     5
 10
169.70597592989989
 20
80.524329823758734
 30
0.0
 40
2.00060446767286
 50
210.00000000001029
 51
270.0
  0
LINE
  5
DC
  8
DETAIL
  6
CONTINUOUS
 62
     5
 10
297.97678077228318
 20
53.999999999912241
 30
0.0
 11
328.59928381579567
 21
53.999999999912241
 31
0.0
  0
LINE
  5
DE
  8
DETAIL
  6
CONTINUOUS
 62
     5
 10
300.00000000045509
 20
5.001511169083189
 30
0.0
 11
300.00000000045509
 21
53.999999999912241
 31
0.0
  0
ARC
  5
DF
  8
DETAIL
  6
CONTINUOUS
 62
     5
 10
305.00151116964111
 20
5.001511169083189
 30
0.0
 40
5.0015111691832921
 50
180.0
 51
270.0
  0
LINE
  5
E0
  8
DETAIL
  6
CONTINUOUS
 62
     5
 10
291.91277278042708
 20
48.49833555015131
 30
0.0
 11
293.64534707229268
 21
51.499242251666601
 31
0.0
  0
ARC
  5
E1
  8
DETAIL
  6
CONTINUOUS
 62
     5
 10
287.58133660889592
 20
50.9990918997023
 30
0.0
 40
5.0015098942980281
 50
270.0
 51
329.99999494100291
  0
ARC
  5
E2
  8
DETAIL
  6
CONTINUOUS
 62
     5
 10
297.97678077228318
 20
48.99849018303712
 30
0.0
 40
5.0015098168747132
 50
90.0
 51
150.0000232539706
  0
LINE
  5
E3
  8
DETAIL
  6
CONTINUOUS
 62
     5
 10
325.00000000045509
 20
46.814144543480779
 30
0.0
 11
328.00090670197142
 21
46.814144543480779
 31
0.0
  0
LINE
  5
E4
  8
DETAIL
  6
CONTINUOUS
 62
     5
 10
328.00090670197142
 20
7.2021760835473341
 30
0.0
 11
328.00090670197142
 21
46.814144543480779
 31
0.0
  0
LINE
  5
E5
  8
DETAIL
  6
CONTINUOUS
 62
     5
 10
325.00000000045509
 20
53.999999999912241
 30
0.0
 11
325.00000000045509
 21
-0.0000000000877592
 31
0.0
  0
LINE
  5
E6
  8
DETAIL
  6
CONTINUOUS
 62
     5
 10
325.00000000045509
 20
7.2021760835473341
 30
0.0
 11
328.00090670197142
 21
7.2021760835473341
 31
0.0
  0
LINE
  5
E7
  8
DETAIL
  6
CONTINUOUS
 62
     5
 10
380.0000000004552
 20
2.3006951377506151
 30
0.0
 11
325.00000000045509
 21
2.3006951377506151
 31
0.0
  0
LINE
  5
E8
  8
DETAIL
  6
CONTINUOUS
 62
     5
 10
305.00151116964417
 20
-0.0000000001001004
 30
0.0
 11
380.0000000004552
 21
-0.0000000000877592
 31
0.0
  0
LINE
  5
E9
  8
DETAIL
  6
CONTINUOUS
 62
     5
 10
380.0000000004552
 20
-0.0000000000877592
 30
0.0
 11
380.0000000004552
 21
2.3006951377506151
 31
0.0
  0
ARC
  5
EA
  8
DETAIL
  6
CONTINUOUS
 62
     5
 10
366.61076870156609
 20
64.014597581572616
 30
0.0
 40
8.0024178706930051
 50
273.73139699920551
 51
316.61423244693327
  0
LINE
  5
EB
  8
DETAIL
  6
CONTINUOUS
 62
     5
 10
367.13155915331799
 20
56.029143988710082
 30
0.0
 11
328.59928381577907
 21
53.999999999911338
 31
0.0
  0
LINE
  5
EC
  8
DETAIL
  6
CONTINUOUS
 62
     5
 10
375.41342835933301
 20
53.216078840035607
 30
0.0
 11
368.41131272247497
 21
53.216078840035607
 31
0.0
  0
LINE
  5
ED
  8
DETAIL
  6
CONTINUOUS
 62
     5
 10
373.78893753158889
 20
54.016320627085861
 30
0.0
 11
368.41131272247497
 21
54.016320627085861
 31
0.0
  0
LINE
  5
EF
  8
DETAIL
  6
CONTINUOUS
 62
     5
 10
368.41131272247497
 20
54.016320627085861
 30
0.0
 11
368.41131272247497
 21
53.216078840035607
 31
0.0
  0
LINE
  5
F1
  8
DETAIL
  6
CONTINUOUS
 62
     5
 10
373.78893753158889
 20
54.016320627085861
 30
0.0
 11
373.78893753158889
 21
58.517680679358371
 31
0.0
  0
LINE
  5
F2
  8
DETAIL
  6
CONTINUOUS
 62
     5
 10
375.41342835933301
 20
53.216078840035607
 30
0.0
 11
375.41342835933301
 21
58.517680679358371
 31
0.0
  0
LINE
  5
108
  8
DETAIL
  6
CONTINUOUS
 62
     5
 10
-308.59323913815382
 20
1369.913909239167
 30
0.0
 11
-308.59323913815382
 21
1289.889730532248
 31
0.0
  0
LINE
  5
109
  8
DETAIL
  6
CONTINUOUS
 62
     5
 10
173.55243757110011
 20
1369.913909239167
 30
0.0
 11
173.55243757110011
 21
1289.889730532248
 31
0.0
  0
LINE
  5
10A
  8
DETAIL
  6
CONTINUOUS
 62
     5
 10
173.55243757110011
 20
1289.889730532248
 30
0.0
 11
-308.59323913815382
 21
1289.889730532248
 31
0.0
  0
TEXT
  5
115
  8
NOTE
  6
CONTINUOUS
 62
     4
 10
-541.14088093311955
 20
934.83468188842392
 30
0.0
 40
55.0
  1
吸込
 50
0.0000025045208121
 41
0.630952371610266
  7
STANDARD1
  0
LINE
  5
117
  8
NOTE
  6
CONTINUOUS
 62
     4
 10
-498.9304352184908
 20
890.97887934477149
 30
0.0
 11
-449.01930959058382
 21
840.96376765294042
 31
0.0
  0
LINE
  5
118
  8
NOTE
  6
CONTINUOUS
 62
     4
 10
-539.62881935229007
 20
815.95621180702483
 30
0.0
 11
-539.62881935229007
 21
865.97132349885601
 31
0.0
  0
LINE
  5
119
  8
NOTE
  6
CONTINUOUS
 62
     4
 10
-498.9304352184908
 20
815.95621180702483
 30
0.0
 11
-539.62881935229007
 21
815.95621180702483
 31
0.0
  0
LINE
  5
11A
  8
NOTE
  6
CONTINUOUS
 62
     4
 10
-498.9304352184908
 20
815.95621180702483
 30
0.0
 11
-498.9304352184908
 21
790.94865596110913
 31
0.0
  0
LINE
  5
11B
  8
NOTE
  6
CONTINUOUS
 62
     4
 10
-449.01930959058382
 20
840.96376765294042
 30
0.0
 11
-498.9304352184908
 21
790.94865596110913
 31
0.0
  0
LINE
  5
11C
  8
NOTE
  6
CONTINUOUS
 62
     4
 10
-498.9304352184908
 20
865.97132349885601
 30
0.0
 11
-539.62881935229007
 21
865.97132349885601
 31
0.0
  0
LINE
  5
11D
  8
NOTE
  6
CONTINUOUS
 62
     4
 10
-498.9304352184908
 20
890.97887934477149
 30
0.0
 11
-498.9304352184908
 21
865.97132349885601
 31
0.0
  0
LINE
  5
127
  8
NOTE
  6
CONTINUOUS
 62
     4
 10
-537.61871835368447
 20
1127.632661402899
 30
0.0
 11
-537.61871835368447
 21
1177.647773094729
 31
0.0
  0
LINE
  5
128
  8
NOTE
  6
CONTINUOUS
 62
     4
 10
-447.00920859197907
 20
1152.640217248814
 30
0.0
 11
-496.92033421988481
 21
1102.625105556983
 31
0.0
  0
TEXT
  5
129
  8
NOTE
  6
CONTINUOUS
 62
     4
 10
-541.14088093311955
 20
1009.85734942617
 30
0.0
 40
55.0
  1
空気
 50
0.0000025045208121
 41
0.630952371610266
  7
STANDARD1
  0
LINE
  5
12A
  8
NOTE
  6
CONTINUOUS
 62
     4
 10
-496.92033421988481
 20
1127.632661402899
 30
0.0
 11
-537.61871835368447
 21
1127.632661402899
 31
0.0
  0
LINE
  5
12B
  8
NOTE
  6
CONTINUOUS
 62
     4
 10
-496.92033421988481
 20
1127.632661402899
 30
0.0
 11
-496.92033421988481
 21
1102.625105556983
 31
0.0
  0
LINE
  5
12C
  8
NOTE
  6
CONTINUOUS
 62
     4
 10
-496.92033421988481
 20
1177.647773094729
 30
0.0
 11
-537.61871835368447
 21
1177.647773094729
 31
0.0
  0
LINE
  5
12D
  8
NOTE
  6
CONTINUOUS
 62
     4
 10
-496.92033421988481
 20
1202.6553289406461
 30
0.0
 11
-496.92033421988481
 21
1177.647773094729
 31
0.0
  0
LINE
  5
12E
  8
NOTE
  6
CONTINUOUS
 62
     4
 10
-496.92033421988481
 20
1202.6553289406461
 30
0.0
 11
-447.00920859197907
 21
1152.640217248814
 31
0.0
  0
LINE
  5
13A
  8
DETAIL
  6
CONTINUOUS
 62
     5
 10
-292.58840339676721
 20
83.525236525273144
 30
0.0
 11
-292.58840339676721
 21
1289.889730532248
 31
0.0
  0
LINE
  5
166
  8
DETAIL
  6
CONTINUOUS
 62
     5
 10
157.5476018297131
 20
83.525236525273144
 30
0.0
 11
157.5476018297131
 21
1289.889730532248
 31
0.0
  0
LINE
  5
16B
  8
DETAIL
  6
CONTINUOUS
 62
     5
 10
380.0000000004552
 20
1369.913909239167
 30
0.0
 11
-379.99999999954468
 21
1369.913909239167
 31
0.0
  0
LINE
  5
16C
  8
DETAIL
  6
CONTINUOUS
 62
     5
 10
-379.99999999954468
 20
1409.9999672647759
 30
0.0
 11
380.0000000004552
 21
1409.9999672647759
 31
0.0
  0
LINE
  5
171
  8
DETAIL
  6
CONTINUOUS
 62
     5
 10
361.10910641546621
 20
1549.9817153796989
 30
0.0
 11
-361.10910641456979
 21
1549.9817153796989
 31
0.0
  0
LINE
  5
172
  8
DETAIL
  6
CONTINUOUS
 62
     5
 10
-161.76403983791559
 20
1640.509067671954
 30
0.0
 11
-162.769289818771
 21
1640.3049404655339
 31
0.0
  0
LINE
  5
174
  8
DETAIL
  6
CONTINUOUS
 62
     5
 10
-158.7471683411608
 20
1640.509067671954
 30
0.0
 11
-164.36290127575191
 21
1640.509067671954
 31
0.0
  0
LINE
  5
175
  8
DETAIL
  6
CONTINUOUS
 62
     5
 10
-320.09671482737389
 20
1641.609399999121
 30
0.0
 11
320.0967148280742
 21
1641.609399999121
 31
0.0
  0
LINE
  5
176
  8
DETAIL
  6
CONTINUOUS
 62
     5
 10
-300.09067015062868
 20
1642.3096115628271
 30
0.0
 11
300.090670151344
 21
1642.3096115628271
 31
0.0
  0
LINE
  5
177
  8
DETAIL
  6
CONTINUOUS
 62
     5
 10
-280.08462547389991
 20
1643.009823126504
 30
0.0
 11
280.08462547459931
 21
1643.009823126504
 31
0.0
  0
LINE
  5
178
  8
DETAIL
  6
CONTINUOUS
 62
     5
 10
-260.0785807971701
 20
1643.7100346901809
 30
0.0
 11
260.07858079786911
 21
1643.7100346901809
 31
0.0
  0
LINE
  5
179
  8
DETAIL
  6
CONTINUOUS
 62
     5
 10
-240.07253612044079
 20
1644.4102462538569
 30
0.0
 11
240.07253612113979
 21
1644.4102462538569
 31
0.0
  0
LINE
  5
17A
  8
DETAIL
  6
CONTINUOUS
 62
     5
 10
-220.0664914437115
 20
1645.110457817563
 30
0.0
 11
220.0664914444109
 21
1645.110457817563
 31
0.0
  0
LINE
  5
17B
  8
DETAIL
  6
CONTINUOUS
 62
     5
 10
-200.06044676696681
 20
1645.810669381241
 30
0.0
 11
200.06044676768209
 21
1645.810669381241
 31
0.0
  0
LINE
  5
17C
  8
DETAIL
  6
CONTINUOUS
 62
     5
 10
-180.05440209023789
 20
1646.510880944918
 30
0.0
 11
180.0544020909378
 21
1646.510880944918
 31
0.0
  0
LINE
  5
17D
  8
NOTE
  6
CONTINUOUS
 62
     4
 10
-178.4796550248661
 20
1736.4780491351651
 30
0.0
 11
-178.4796550248661
 21
1695.779665001352
 31
0.0
  0
LINE
  5
17E
  8
NOTE
  6
CONTINUOUS
 62
     4
 10
-228.494766716697
 20
1736.4780491351651
 30
0.0
 11
-228.494766716697
 21
1695.779665001352
 31
0.0
  0
LINE
  5
17F
  8
DETAIL
  6
CONTINUOUS
 62
     5
 10
-366.93105967748482
 20
1416.6236587626611
 30
0.0
 11
-361.10910641456979
 21
1549.9817153796989
 31
0.0
  0
LINE
  5
180
  8
DETAIL
  6
CONTINUOUS
 62
     5
 10
-367.66762464388358
 20
1413.7887792138119
 30
0.0
 11
-368.05236695300113
 21
1413.11713725661
 31
0.0
  0
LINE
  5
181
  8
DETAIL
  6
CONTINUOUS
 62
     5
 10
-368.05236695300113
 20
1413.11713725661
 30
0.0
 11
-368.5088903035047
 21
1412.492064466948
 31
0.0
  0
LINE
  5
182
  8
DETAIL
  6
CONTINUOUS
 62
     5
 10
-368.5088903035047
 20
1412.492064466948
 30
0.0
 11
-369.03161609809598
 21
1411.921199071634
 31
0.0
  0
LINE
  5
183
  8
DETAIL
  6
CONTINUOUS
 62
     5
 10
-369.03161609809598
 20
1411.921199071634
 30
0.0
 11
-369.61415676340482
 21
1411.4115168956639
 31
0.0
  0
LINE
  5
184
  8
DETAIL
  6
CONTINUOUS
 62
     5
 10
-369.61415676340482
 20
1411.4115168956639
 30
0.0
 11
-370.24939381282678
 21
1410.9692461145801
 31
0.0
  0
LINE
  5
185
  8
DETAIL
  6
CONTINUOUS
 62
     5
 10
-370.24939381282678
 20
1410.9692461145801
 30
0.0
 11
-370.92956482851832
 21
1410.5997911569009
 31
0.0
  0
LINE
  5
186
  8
DETAIL
  6
CONTINUOUS
 62
     5
 10
-370.92956482851832
 20
1410.5997911569009
 30
0.0
 11
-371.6463582832929
 21
1410.307666676089
 31
0.0
  0
LINE
  5
187
  8
DETAIL
  6
CONTINUOUS
 62
     5
 10
-371.6463582832929
 20
1410.307666676089
 30
0.0
 11
-372.39101510027291
 21
1410.0964423660459
 31
0.0
  0
LINE
  5
188
  8
DETAIL
  6
CONTINUOUS
 62
     5
 10
-372.39101510027291
 20
1410.0964423660459
 30
0.0
 11
-372.96757158174057
 21
1409.9999672647759
 31
0.0
  0
LINE
  5
189
  8
DETAIL
  6
CONTINUOUS
 62
     5
 10
-366.9311019934762
 20
1416.6226888397809
 30
0.0
 11
-366.98637945284639
 21
1415.9988093705881
 31
0.0
  0
LINE
  5
18A
  8
DETAIL
  6
CONTINUOUS
 62
     5
 10
-366.98637945284639
 20
1415.9988093705881
 30
0.0
 11
-367.13135435323511
 21
1415.238472706541
 31
0.0
  0
LINE
  5
18B
  8
DETAIL
  6
CONTINUOUS
 62
     5
 10
-367.13135435323511
 20
1415.238472706541
 30
0.0
 11
-367.35936482618621
 21
1414.498783050238
 31
0.0
  0
LINE
  5
18C
  8
DETAIL
  6
CONTINUOUS
 62
     5
 10
-367.35936482618621
 20
1414.498783050238
 30
0.0
 11
-367.66762464388358
 21
1413.7887792138119
 31
0.0
  0
LINE
  5
18D
  8
DETAIL
  6
CONTINUOUS
 62
     5
 10
-328.7975463155139
 20
1369.913909239167
 30
0.0
 11
-328.7975463155139
 21
1409.9999672647759
 31
0.0
  0
LINE
  5
195
  8
DETAIL
  6
CONTINUOUS
 62
     5
 10
-298.97173297513569
 20
1637.4069474192329
 30
0.0
 11
-300.08554995881008
 21
1635.810678399665
 31
0.0
  0
LINE
  5
196
  8
DETAIL
  6
CONTINUOUS
 62
     5
 10
-298.90779335636682
 20
1638.7215691891599
 30
0.0
 11
-300.2872438872127
 21
1637.4069474192329
 31
0.0
  0
LINE
  5
197
  8
DETAIL
  6
CONTINUOUS
 62
     5
 10
-299.15817941823337
 20
1640.3049404655339
 30
0.0
 11
-300.91990178316013
 21
1639.700889911376
 31
0.0
  0
LINE
  5
198
  8
DETAIL
  6
CONTINUOUS
 62
     5
 10
-298.54207502849931
 20
1640.509067671954
 30
0.0
 11
-300.37875813616301
 21
1640.3049404655339
 31
0.0
  0
LINE
  5
199
  8
DETAIL
  6
CONTINUOUS
 62
     5
 10
-258.07889271187832
 20
1640.509067671954
 30
0.0
 11
-305.9458947342373
 21
1640.509067671954
 31
0.0
  0
LINE
  5
19F
  8
DETAIL
  6
CONTINUOUS
 62
     5
 10
-327.54345765289912
 20
1625.9949815576169
 30
0.0
 11
-332.40471086729031
 21
1615.830085884832
 31
0.0
  0
LINE
  5
1A0
  8
DETAIL
  6
CONTINUOUS
 62
     5
 10
-326.71629566459018
 20
1625.9949815576169
 30
0.0
 11
-331.57754887898221
 21
1615.830085884832
 31
0.0
  0
LINE
  5
1A1
  8
DETAIL
  6
CONTINUOUS
 62
     5
 10
-330.56726738009269
 20
1625.9949815576169
 30
0.0
 11
-335.47420712212119
 21
1615.830085884832
 31
0.0
  0
LINE
  5
1A2
  8
DETAIL
  6
CONTINUOUS
 62
     5
 10
-329.84128234234038
 20
1625.9949815576169
 30
0.0
 11
-334.74822208438292
 21
1615.830085884832
 31
0.0
  0
LINE
  5
1A3
  8
DETAIL
  6
CONTINUOUS
 62
     5
 10
-333.18833181200262
 20
1625.9949815576169
 30
0.0
 11
-338.13497973135691
 21
1615.830085884832
 31
0.0
  0
LINE
  5
1A4
  8
DETAIL
  6
CONTINUOUS
 62
     5
 10
-332.5644082256585
 20
1625.9949815576169
 30
0.0
 11
-337.5110561451192
 21
1615.830085884832
 31
0.0
  0
LINE
  5
1A5
  8
DETAIL
  6
CONTINUOUS
 62
     5
 10
-335.40345758528201
 20
1625.9949815576169
 30
0.0
 11
-340.38378695364088
 21
1615.830085884832
 31
0.0
  0
LINE
  5
1A6
  8
DETAIL
  6
CONTINUOUS
 62
     5
 10
-334.88235560521059
 20
1625.9949815576169
 30
0.0
 11
-339.86268497357008
 21
1615.830085884832
 31
0.0
  0
LINE
  5
1A7
  8
DETAIL
  6
CONTINUOUS
 62
     5
 10
-337.20994591051112
 20
1625.9949815576169
 30
0.0
 11
-342.21788896343998
 21
1615.830085884832
 31
0.0
  0
LINE
  5
1A8
  8
DETAIL
  6
CONTINUOUS
 62
     5
 10
-336.79230041915793
 20
1625.9949815576169
 30
0.0
 11
-341.80024347217841
 21
1615.830085884832
 31
0.0
  0
LINE
  5
1A9
  8
DETAIL
  6
CONTINUOUS
 62
     5
 10
-338.60559585980491
 20
1625.9949815576169
 30
0.0
 11
-343.63505119030418
 21
1615.830085884832
 31
0.0
  0
LINE
  5
1AA
  8
DETAIL
  6
CONTINUOUS
 62
     5
 10
-338.29191569389189
 20
1625.9949815576169
 30
0.0
 11
-343.32137102438998
 21
1615.830085884832
 31
0.0
  0
LINE
  5
1AB
  8
DETAIL
  6
CONTINUOUS
 62
     5
 10
-339.5887070486923
 20
1625.9949815576169
 30
0.0
 11
-344.63354704016001
 21
1615.830085884832
 31
0.0
  0
LINE
  5
1AC
  8
DETAIL
  6
CONTINUOUS
 62
     5
 10
-339.3793743791901
 20
1625.9949815576169
 30
0.0
 11
-344.42421437065832
 21
1615.830085884832
 31
0.0
  0
LINE
  5
1AD
  8
DETAIL
  6
CONTINUOUS
 62
     5
 10
-340.15808170779059
 20
1625.9949815576169
 30
0.0
 11
-345.21215999963249
 21
1615.830085884832
 31
0.0
  0
LINE
  5
1AE
  8
DETAIL
  6
CONTINUOUS
 62
     5
 10
-340.0533515742581
 20
1625.9949815576169
 30
0.0
 11
-345.10742986611427
 21
1615.830085884832
 31
0.0
  0
ARC
  5
1B6
  8
DETAIL
  6
CONTINUOUS
 62
     5
 10
-186.19631386772909
 20
1542.9795997428409
 30
0.0
 40
175.0528909214085
 50
147.9740682966528
 51
177.7075572283274
  0
LINE
  5
1B9
  8
DETAIL
  6
CONTINUOUS
 62
     5
 10
-328.28205863846591
 20
1594.625018973705
 30
0.0
 11
-331.05992072000521
 21
1583.674045476979
 31
0.0
  0
LINE
  5
1BA
  8
DETAIL
  6
CONTINUOUS
 62
     5
 10
-331.05992072000521
 20
1583.674045476979
 30
0.0
 11
-333.17375650587292
 21
1572.5518934280319
 31
0.0
  0
LINE
  5
1BB
  8
DETAIL
  6
CONTINUOUS
 62
     5
 10
-333.17375650587292
 20
1572.5518934280319
 30
0.0
 11
-334.61467428261312
 21
1561.3053474396979
 31
0.0
  0
LINE
  5
1BC
  8
DETAIL
  6
CONTINUOUS
 62
     5
 10
-334.61467428261312
 20
1561.3053474396979
 30
0.0
 11
-335.37661292296519
 21
1549.9817153796989
 31
0.0
  0
LINE
  5
1BE
  8
DETAIL
  6
CONTINUOUS
 62
     5
 10
-329.17799913238008
 20
1605.358749357039
 30
0.0
 11
-332.65447996426087
 21
1594.625018973705
 31
0.0
  0
LINE
  5
1BF
  8
DETAIL
  6
CONTINUOUS
 62
     5
 10
-332.65447996426087
 20
1594.625018973705
 30
0.0
 11
-335.46981856915312
 21
1583.674045476979
 31
0.0
  0
LINE
  5
1C0
  8
DETAIL
  6
CONTINUOUS
 62
     5
 10
-335.46981856915312
 20
1583.674045476979
 30
0.0
 11
-337.61217240734049
 21
1572.5518934280319
 31
0.0
  0
LINE
  5
1C1
  8
DETAIL
  6
CONTINUOUS
 62
     5
 10
-337.61217240734049
 20
1572.5518934280319
 30
0.0
 11
-339.07252980610372
 21
1561.3053474396979
 31
0.0
  0
LINE
  5
1C2
  8
DETAIL
  6
CONTINUOUS
 62
     5
 10
-339.07252980610372
 20
1561.3053474396979
 30
0.0
 11
-339.84474786651788
 21
1549.9817153796989
 31
0.0
  0
LINE
  5
1C4
  8
DETAIL
  6
CONTINUOUS
 62
     5
 10
-328.15162859220169
 20
1605.358749357039
 30
0.0
 11
-331.62810942417349
 21
1594.625018973705
 31
0.0
  0
LINE
  5
1C5
  8
DETAIL
  6
CONTINUOUS
 62
     5
 10
-331.62810942417349
 20
1594.625018973705
 30
0.0
 11
-334.44344802897461
 21
1583.674045476979
 31
0.0
  0
LINE
  5
1C6
  8
DETAIL
  6
CONTINUOUS
 62
     5
 10
-334.44344802897461
 20
1583.674045476979
 30
0.0
 11
-336.5858018671633
 21
1572.5518934280319
 31
0.0
  0
LINE
  5
1C7
  8
DETAIL
  6
CONTINUOUS
 62
     5
 10
-336.5858018671633
 20
1572.5518934280319
 30
0.0
 11
-338.04615926592618
 21
1561.3053474396979
 31
0.0
  0
LINE
  5
1C8
  8
DETAIL
  6
CONTINUOUS
 62
     5
 10
-338.04615926592618
 20
1561.3053474396979
 30
0.0
 11
-338.81837732633988
 21
1549.9817153796989
 31
0.0
  0
LINE
  5
1C9
  8
DETAIL
  6
CONTINUOUS
 62
     5
 10
-328.93023067529202
 20
1615.830085884832
 30
0.0
 11
-333.1030904204535
 21
1605.358749357039
 31
0.0
  0
LINE
  5
1CA
  8
DETAIL
  6
CONTINUOUS
 62
     5
 10
-333.1030904204535
 20
1605.358749357039
 30
0.0
 11
-336.6216130477448
 21
1594.625018973705
 31
0.0
  0
LINE
  5
1CB
  8
DETAIL
  6
CONTINUOUS
 62
     5
 10
-336.6216130477448
 20
1594.625018973705
 30
0.0
 11
-339.47099811952921
 21
1583.674045476979
 31
0.0
  0
LINE
  5
1CC
  8
DETAIL
  6
CONTINUOUS
 62
     5
 10
-339.47099811952921
 20
1583.674045476979
 30
0.0
 11
-341.63925988189612
 21
1572.5518934280319
 31
0.0
  0
LINE
  5
1CD
  8
DETAIL
  6
CONTINUOUS
 62
     5
 10
-341.63925988189612
 20
1572.5518934280319
 30
0.0
 11
-343.1172776821108
 21
1561.3053474396979
 31
0.0
  0
LINE
  5
1CE
  8
DETAIL
  6
CONTINUOUS
 62
     5
 10
-343.1172776821108
 20
1561.3053474396979
 30
0.0
 11
-343.8988343338051
 21
1549.9817153796989
 31
0.0
  0
LINE
  5
1CF
  8
DETAIL
  6
CONTINUOUS
 62
     5
 10
-328.00289950591872
 20
1615.830085884832
 30
0.0
 11
-332.17575925117308
 21
1605.358749357039
 31
0.0
  0
LINE
  5
1D0
  8
DETAIL
  6
CONTINUOUS
 62
     5
 10
-332.17575925117308
 20
1605.358749357039
 30
0.0
 11
-335.69428187846268
 21
1594.625018973705
 31
0.0
  0
LINE
  5
1D1
  8
DETAIL
  6
CONTINUOUS
 62
     5
 10
-335.69428187846268
 20
1594.625018973705
 30
0.0
 11
-338.5436669502468
 21
1583.674045476979
 31
0.0
  0
LINE
  5
1D2
  8
DETAIL
  6
CONTINUOUS
 62
     5
 10
-338.5436669502468
 20
1583.674045476979
 30
0.0
 11
-340.71192871261292
 21
1572.5518934280319
 31
0.0
  0
LINE
  5
1D3
  8
DETAIL
  6
CONTINUOUS
 62
     5
 10
-340.71192871261292
 20
1572.5518934280319
 30
0.0
 11
-342.189946512738
 21
1561.3053474396979
 31
0.0
  0
LINE
  5
1D4
  8
DETAIL
  6
CONTINUOUS
 62
     5
 10
-342.189946512738
 20
1561.3053474396979
 30
0.0
 11
-342.97150316453821
 21
1549.9817153796989
 31
0.0
  0
LINE
  5
1D5
  8
DETAIL
  6
CONTINUOUS
 62
     5
 10
-332.40471086729031
 20
1615.830085884832
 30
0.0
 11
-336.62234690347628
 21
1605.358749357039
 31
0.0
  0
LINE
  5
1D6
  8
DETAIL
  6
CONTINUOUS
 62
     5
 10
-336.62234690347628
 20
1605.358749357039
 30
0.0
 11
-340.17862454835722
 21
1594.625018973705
 31
0.0
  0
LINE
  5
1D7
  8
DETAIL
  6
CONTINUOUS
 62
     5
 10
-340.17862454835722
 20
1594.625018973705
 30
0.0
 11
-343.05858455022172
 21
1583.674045476979
 31
0.0
  0
LINE
  5
1D8
  8
DETAIL
  6
CONTINUOUS
 62
     5
 10
-343.05858455022172
 20
1583.674045476979
 30
0.0
 11
-345.25011254381792
 21
1572.5518934280319
 31
0.0
  0
LINE
  5
1D9
  8
DETAIL
  6
CONTINUOUS
 62
     5
 10
-345.25011254381792
 20
1572.5518934280319
 30
0.0
 11
-346.74399000840918
 21
1561.3053474396979
 31
0.0
  0
LINE
  5
1DA
  8
DETAIL
  6
CONTINUOUS
 62
     5
 10
-346.74399000840918
 20
1561.3053474396979
 30
0.0
 11
-347.5339330449923
 21
1549.9817153796989
 31
0.0
  0
LINE
  5
1DB
  8
DETAIL
  6
CONTINUOUS
 62
     5
 10
-331.57754887898221
 20
1615.830085884832
 30
0.0
 11
-335.7951849151691
 21
1605.358749357039
 31
0.0
  0
LINE
  5
1DC
  8
DETAIL
  6
CONTINUOUS
 62
     5
 10
-335.7951849151691
 20
1605.358749357039
 30
0.0
 11
-339.35146256015508
 21
1594.625018973705
 31
0.0
  0
LINE
  5
1DD
  8
DETAIL
  6
CONTINUOUS
 62
     5
 10
-339.35146256015508
 20
1594.625018973705
 30
0.0
 11
-342.2314225620193
 21
1583.674045476979
 31
0.0
  0
LINE
  5
1DE
  8
DETAIL
  6
CONTINUOUS
 62
     5
 10
-342.2314225620193
 20
1583.674045476979
 30
0.0
 11
-344.42295055559998
 21
1572.5518934280319
 31
0.0
  0
LINE
  5
1DF
  8
DETAIL
  6
CONTINUOUS
 62
     5
 10
-344.42295055559998
 20
1572.5518934280319
 30
0.0
 11
-345.91682802010013
 21
1561.3053474396979
 31
0.0
  0
LINE
  5
1E0
  8
DETAIL
  6
CONTINUOUS
 62
     5
 10
-345.91682802010013
 20
1561.3053474396979
 30
0.0
 11
-346.70677105678891
 21
1549.9817153796989
 31
0.0
  0
LINE
  5
1E1
  8
DETAIL
  6
CONTINUOUS
 62
     5
 10
-335.47420712212119
 20
1615.830085884832
 30
0.0
 11
-339.73148090944733
 21
1605.358749357039
 31
0.0
  0
LINE
  5
1E2
  8
DETAIL
  6
CONTINUOUS
 62
     5
 10
-339.73148090944733
 20
1605.358749357039
 30
0.0
 11
-343.32118079542198
 21
1594.625018973705
 31
0.0
  0
LINE
  5
1E3
  8
DETAIL
  6
CONTINUOUS
 62
     5
 10
-343.32118079542198
 20
1594.625018973705
 30
0.0
 11
-346.22820693982322
 21
1583.674045476979
 31
0.0
  0
LINE
  5
1E4
  8
DETAIL
  6
CONTINUOUS
 62
     5
 10
-334.74822208438292
 20
1615.830085884832
 30
0.0
 11
-339.00549587170781
 21
1605.358749357039
 31
0.0
  0
LINE
  5
1E5
  8
DETAIL
  6
CONTINUOUS
 62
     5
 10
-339.00549587170781
 20
1605.358749357039
 30
0.0
 11
-342.59519575766939
 21
1594.625018973705
 31
0.0
  0
LINE
  5
1E6
  8
DETAIL
  6
CONTINUOUS
 62
     5
 10
-342.59519575766939
 20
1594.625018973705
 30
0.0
 11
-345.50222190206932
 21
1583.674045476979
 31
0.0
  0
LINE
  5
1E7
  8
DETAIL
  6
CONTINUOUS
 62
     5
 10
-345.50222190206932
 20
1583.674045476979
 30
0.0
 11
-347.71434608754709
 21
1572.5518934280319
 31
0.0
  0
LINE
  5
1E8
  8
DETAIL
  6
CONTINUOUS
 62
     5
 10
-347.71434608754709
 20
1572.5518934280319
 30
0.0
 11
-349.22226315690062
 21
1561.3053474396979
 31
0.0
  0
LINE
  5
1E9
  8
DETAIL
  6
CONTINUOUS
 62
     5
 10
-349.22226315690062
 20
1561.3053474396979
 30
0.0
 11
-350.01963015457289
 21
1549.9817153796989
 31
0.0
  0
LINE
  5
1EA
  8
DETAIL
  6
CONTINUOUS
 62
     5
 10
-338.13497973135691
 20
1615.830085884832
 30
0.0
 11
-342.42670443757788
 21
1605.358749357039
 31
0.0
  0
LINE
  5
1EB
  8
DETAIL
  6
CONTINUOUS
 62
     5
 10
-342.42670443757788
 20
1605.358749357039
 30
0.0
 11
-346.0454530683059
 21
1594.625018973705
 31
0.0
  0
LINE
  5
1EC
  8
DETAIL
  6
CONTINUOUS
 62
     5
 10
-346.0454530683059
 20
1594.625018973705
 30
0.0
 11
-348.97600359161828
 21
1583.674045476979
 31
0.0
  0
LINE
  5
1ED
  8
DETAIL
  6
CONTINUOUS
 62
     5
 10
-348.97600359161828
 20
1583.674045476979
 30
0.0
 11
-351.2060288364691
 21
1572.5518934280319
 31
0.0
  0
LINE
  5
1EE
  8
DETAIL
  6
CONTINUOUS
 62
     5
 10
-351.2060288364691
 20
1572.5518934280319
 30
0.0
 11
-352.72614834589371
 21
1561.3053474396979
 31
0.0
  0
LINE
  5
1EF
  8
DETAIL
  6
CONTINUOUS
 62
     5
 10
-352.72614834589371
 20
1561.3053474396979
 30
0.0
 11
-353.52996783574412
 21
1549.9817153796989
 31
0.0
  0
LINE
  5
1F0
  8
DETAIL
  6
CONTINUOUS
 62
     5
 10
-337.5110561451192
 20
1615.830085884832
 30
0.0
 11
-341.80278085123291
 21
1605.358749357039
 31
0.0
  0
LINE
  5
1F1
  8
DETAIL
  6
CONTINUOUS
 62
     5
 10
-341.80278085123291
 20
1605.358749357039
 30
0.0
 11
-345.42152948196139
 21
1594.625018973705
 31
0.0
  0
LINE
  5
1F2
  8
DETAIL
  6
CONTINUOUS
 62
     5
 10
-345.42152948196139
 20
1594.625018973705
 30
0.0
 11
-348.35208000527291
 21
1583.674045476979
 31
0.0
  0
LINE
  5
1F3
  8
DETAIL
  6
CONTINUOUS
 62
     5
 10
-348.35208000527291
 20
1583.674045476979
 30
0.0
 11
-350.58210525012419
 21
1572.5518934280319
 31
0.0
  0
LINE
  5
1F4
  8
DETAIL
  6
CONTINUOUS
 62
     5
 10
-350.58210525012419
 20
1572.5518934280319
 30
0.0
 11
-352.10222475965469
 21
1561.3053474396979
 31
0.0
  0
LINE
  5
1F5
  8
DETAIL
  6
CONTINUOUS
 62
     5
 10
-352.10222475965469
 20
1561.3053474396979
 30
0.0
 11
-352.90604424950561
 21
1549.9817153796989
 31
0.0
  0
LINE
  5
1F6
  8
DETAIL
  6
CONTINUOUS
 62
     5
 10
-340.38378695364088
 20
1615.830085884832
 30
0.0
 11
-344.7047337730948
 21
1605.358749357039
 31
0.0
  0
LINE
  5
1F7
  8
DETAIL
  6
CONTINUOUS
 62
     5
 10
-344.7047337730948
 20
1605.358749357039
 30
0.0
 11
-348.34812226077111
 21
1594.625018973705
 31
0.0
  0
LINE
  5
1F8
  8
DETAIL
  6
CONTINUOUS
 62
     5
 10
-348.34812226077111
 20
1594.625018973705
 30
0.0
 11
-351.29862673862311
 21
1583.674045476979
 31
0.0
  0
LINE
  5
1F9
  8
DETAIL
  6
CONTINUOUS
 62
     5
 10
-351.29862673862311
 20
1583.674045476979
 30
0.0
 11
-353.54383610053901
 21
1572.5518934280319
 31
0.0
  0
LINE
  5
1FA
  8
DETAIL
  6
CONTINUOUS
 62
     5
 10
-353.54383610053901
 20
1572.5518934280319
 30
0.0
 11
-355.07430601876962
 21
1561.3053474396979
 31
0.0
  0
LINE
  5
1FB
  8
DETAIL
  6
CONTINUOUS
 62
     5
 10
-355.07430601876962
 20
1561.3053474396979
 30
0.0
 11
-355.8835986704907
 21
1549.9817153796989
 31
0.0
  0
LINE
  5
1FC
  8
DETAIL
  6
CONTINUOUS
 62
     5
 10
-339.86268497357008
 20
1615.830085884832
 30
0.0
 11
-344.18363179303918
 21
1605.358749357039
 31
0.0
  0
LINE
  5
1FD
  8
DETAIL
  6
CONTINUOUS
 62
     5
 10
-344.18363179303918
 20
1605.358749357039
 30
0.0
 11
-347.8270202807002
 21
1594.625018973705
 31
0.0
  0
LINE
  5
1FE
  8
DETAIL
  6
CONTINUOUS
 62
     5
 10
-347.8270202807002
 20
1594.625018973705
 30
0.0
 11
-350.77752475856681
 21
1583.674045476979
 31
0.0
  0
LINE
  5
1FF
  8
DETAIL
  6
CONTINUOUS
 62
     5
 10
-350.77752475856681
 20
1583.674045476979
 30
0.0
 11
-353.02273412046759
 21
1572.5518934280319
 31
0.0
  0
LINE
  5
200
  8
DETAIL
  6
CONTINUOUS
 62
     5
 10
-353.02273412046759
 20
1572.5518934280319
 30
0.0
 11
-354.55320403871423
 21
1561.3053474396979
 31
0.0
  0
LINE
  5
201
  8
DETAIL
  6
CONTINUOUS
 62
     5
 10
-354.55320403871423
 20
1561.3053474396979
 30
0.0
 11
-355.36249669043582
 21
1549.9817153796989
 31
0.0
  0
LINE
  5
202
  8
DETAIL
  6
CONTINUOUS
 62
     5
 10
-342.21788896343998
 20
1615.830085884832
 30
0.0
 11
-346.56279348824131
 21
1605.358749357039
 31
0.0
  0
LINE
  5
203
  8
DETAIL
  6
CONTINUOUS
 62
     5
 10
-346.56279348824131
 20
1605.358749357039
 30
0.0
 11
-350.22638292518189
 21
1594.625018973705
 31
0.0
  0
LINE
  5
204
  8
DETAIL
  6
CONTINUOUS
 62
     5
 10
-350.22638292518189
 20
1594.625018973705
 30
0.0
 11
-353.19324662235613
 21
1583.674045476979
 31
0.0
  0
LINE
  5
205
  8
DETAIL
  6
CONTINUOUS
 62
     5
 10
-353.19324662235613
 20
1583.674045476979
 30
0.0
 11
-355.45090465963813
 21
1572.5518934280319
 31
0.0
  0
LINE
  5
206
  8
DETAIL
  6
CONTINUOUS
 62
     5
 10
-355.45090465963813
 20
1572.5518934280319
 30
0.0
 11
-356.98986034468402
 21
1561.3053474396979
 31
0.0
  0
LINE
  5
207
  8
DETAIL
  6
CONTINUOUS
 62
     5
 10
-356.98986034468402
 20
1561.3053474396979
 30
0.0
 11
-357.80364015987368
 21
1549.9817153796989
 31
0.0
  0
LINE
  5
208
  8
DETAIL
  6
CONTINUOUS
 62
     5
 10
-341.80024347217841
 20
1615.830085884832
 30
0.0
 11
-346.14514799697997
 21
1605.358749357039
 31
0.0
  0
LINE
  5
209
  8
DETAIL
  6
CONTINUOUS
 62
     5
 10
-346.14514799697997
 20
1605.358749357039
 30
0.0
 11
-349.80873743381409
 21
1594.625018973705
 31
0.0
  0
LINE
  5
20A
  8
DETAIL
  6
CONTINUOUS
 62
     5
 10
-349.80873743381409
 20
1594.625018973705
 30
0.0
 11
-352.77560113098878
 21
1583.674045476979
 31
0.0
  0
LINE
  5
20B
  8
DETAIL
  6
CONTINUOUS
 62
     5
 10
-352.77560113098878
 20
1583.674045476979
 30
0.0
 11
-355.0332591682689
 21
1572.5518934280319
 31
0.0
  0
LINE
  5
20C
  8
DETAIL
  6
CONTINUOUS
 62
     5
 10
-355.0332591682689
 20
1572.5518934280319
 30
0.0
 11
-356.57221485333082
 21
1561.3053474396979
 31
0.0
  0
LINE
  5
20D
  8
DETAIL
  6
CONTINUOUS
 62
     5
 10
-356.57221485333082
 20
1561.3053474396979
 30
0.0
 11
-357.38599466861291
 21
1549.9817153796989
 31
0.0
  0
LINE
  5
20E
  8
DETAIL
  6
CONTINUOUS
 62
     5
 10
-343.63505119030418
 20
1615.830085884832
 30
0.0
 11
-347.99861982342588
 21
1605.358749357039
 31
0.0
  0
LINE
  5
20F
  8
DETAIL
  6
CONTINUOUS
 62
     5
 10
-347.99861982342588
 20
1605.358749357039
 30
0.0
 11
-351.6779466902089
 21
1594.625018973705
 31
0.0
  0
LINE
  5
210
  8
DETAIL
  6
CONTINUOUS
 62
     5
 10
-351.6779466902089
 20
1594.625018973705
 30
0.0
 11
-354.65755494034693
 21
1583.674045476979
 31
0.0
  0
LINE
  5
211
  8
DETAIL
  6
CONTINUOUS
 62
     5
 10
-354.65755494034693
 20
1583.674045476979
 30
0.0
 11
-356.92491104443479
 21
1572.5518934280319
 31
0.0
  0
LINE
  5
212
  8
DETAIL
  6
CONTINUOUS
 62
     5
 10
-356.92491104443479
 20
1572.5518934280319
 30
0.0
 11
-358.47047751578879
 21
1561.3053474396979
 31
0.0
  0
LINE
  5
213
  8
DETAIL
  6
CONTINUOUS
 62
     5
 10
-358.47047751578879
 20
1561.3053474396979
 30
0.0
 11
-359.28775302916557
 21
1549.9817153796989
 31
0.0
  0
LINE
  5
214
  8
DETAIL
  6
CONTINUOUS
 62
     5
 10
-343.32137102438998
 20
1615.830085884832
 30
0.0
 11
-347.68493965751298
 21
1605.358749357039
 31
0.0
  0
LINE
  5
215
  8
DETAIL
  6
CONTINUOUS
 62
     5
 10
-347.68493965751298
 20
1605.358749357039
 30
0.0
 11
-351.36426652429611
 21
1594.625018973705
 31
0.0
  0
LINE
  5
216
  8
DETAIL
  6
CONTINUOUS
 62
     5
 10
-351.36426652429611
 20
1594.625018973705
 30
0.0
 11
-354.34387477443403
 21
1583.674045476979
 31
0.0
  0
LINE
  5
217
  8
DETAIL
  6
CONTINUOUS
 62
     5
 10
-354.34387477443403
 20
1583.674045476979
 30
0.0
 11
-356.61123087852042
 21
1572.5518934280319
 31
0.0
  0
LINE
  5
218
  8
DETAIL
  6
CONTINUOUS
 62
     5
 10
-356.61123087852042
 20
1572.5518934280319
 30
0.0
 11
-358.15679734987492
 21
1561.3053474396979
 31
0.0
  0
LINE
  5
219
  8
DETAIL
  6
CONTINUOUS
 62
     5
 10
-358.15679734987492
 20
1561.3053474396979
 30
0.0
 11
-358.97407286325227
 21
1549.9817153796989
 31
0.0
  0
LINE
  5
21A
  8
DETAIL
  6
CONTINUOUS
 62
     5
 10
-344.63354704016001
 20
1615.830085884832
 30
0.0
 11
-349.01046344551241
 21
1605.358749357039
 31
0.0
  0
LINE
  5
21B
  8
DETAIL
  6
CONTINUOUS
 62
     5
 10
-349.01046344551241
 20
1605.358749357039
 30
0.0
 11
-352.701045049122
 21
1594.625018973705
 31
0.0
  0
LINE
  5
21C
  8
DETAIL
  6
CONTINUOUS
 62
     5
 10
-352.701045049122
 20
1594.625018973705
 30
0.0
 11
-355.68976765840301
 21
1583.674045476979
 31
0.0
  0
LINE
  5
21D
  8
DETAIL
  6
CONTINUOUS
 62
     5
 10
-355.68976765840301
 20
1583.674045476979
 30
0.0
 11
-357.96405940513557
 21
1572.5518934280319
 31
0.0
  0
LINE
  5
21E
  8
DETAIL
  6
CONTINUOUS
 62
     5
 10
-357.96405940513557
 20
1572.5518934280319
 30
0.0
 11
-359.51435362823798
 21
1561.3053474396979
 31
0.0
  0
LINE
  5
21F
  8
DETAIL
  6
CONTINUOUS
 62
     5
 10
-359.51435362823798
 20
1561.3053474396979
 30
0.0
 11
-360.33412911547691
 21
1549.9817153796989
 31
0.0
  0
LINE
  5
220
  8
DETAIL
  6
CONTINUOUS
 62
     5
 10
-344.42421437065832
 20
1615.830085884832
 30
0.0
 11
-348.80113077590289
 21
1605.358749357039
 31
0.0
  0
LINE
  5
221
  8
DETAIL
  6
CONTINUOUS
 62
     5
 10
-348.80113077590289
 20
1605.358749357039
 30
0.0
 11
-352.49171237963532
 21
1594.625018973705
 31
0.0
  0
LINE
  5
222
  8
DETAIL
  6
CONTINUOUS
 62
     5
 10
-352.49171237963532
 20
1594.625018973705
 30
0.0
 11
-355.48043498890092
 21
1583.674045476979
 31
0.0
  0
LINE
  5
223
  8
DETAIL
  6
CONTINUOUS
 62
     5
 10
-355.48043498890092
 20
1583.674045476979
 30
0.0
 11
-357.75472673564889
 21
1572.5518934280319
 31
0.0
  0
LINE
  5
224
  8
DETAIL
  6
CONTINUOUS
 62
     5
 10
-357.75472673564889
 20
1572.5518934280319
 30
0.0
 11
-359.30502095874999
 21
1561.3053474396979
 31
0.0
  0
LINE
  5
225
  8
DETAIL
  6
CONTINUOUS
 62
     5
 10
-359.30502095874999
 20
1561.3053474396979
 30
0.0
 11
-360.12479644597352
 21
1549.9817153796989
 31
0.0
  0
LINE
  5
226
  8
DETAIL
  6
CONTINUOUS
 62
     5
 10
-345.21215999963249
 20
1615.830085884832
 30
0.0
 11
-349.5970915787147
 21
1605.358749357039
 31
0.0
  0
LINE
  5
227
  8
DETAIL
  6
CONTINUOUS
 62
     5
 10
-349.5970915787147
 20
1605.358749357039
 30
0.0
 11
-353.29443151400221
 21
1594.625018973705
 31
0.0
  0
LINE
  5
228
  8
DETAIL
  6
CONTINUOUS
 62
     5
 10
-353.29443151400221
 20
1594.625018973705
 30
0.0
 11
-356.2886271844277
 21
1583.674045476979
 31
0.0
  0
LINE
  5
229
  8
DETAIL
  6
CONTINUOUS
 62
     5
 10
-356.2886271844277
 20
1583.674045476979
 30
0.0
 11
-358.56708369962769
 21
1572.5518934280319
 31
0.0
  0
LINE
  5
22A
  8
DETAIL
  6
CONTINUOUS
 62
     5
 10
-358.56708369962769
 20
1572.5518934280319
 30
0.0
 11
-360.12021687980132
 21
1561.3053474396979
 31
0.0
  0
LINE
  5
22B
  8
DETAIL
  6
CONTINUOUS
 62
     5
 10
-360.12021687980132
 20
1561.3053474396979
 30
0.0
 11
-360.94149357059581
 21
1549.9817153796989
 31
0.0
  0
LINE
  5
22C
  8
DETAIL
  6
CONTINUOUS
 62
     5
 10
-345.10742986611427
 20
1615.830085884832
 30
0.0
 11
-349.49236144518079
 21
1605.358749357039
 31
0.0
  0
LINE
  5
22D
  8
DETAIL
  6
CONTINUOUS
 62
     5
 10
-349.49236144518079
 20
1605.358749357039
 30
0.0
 11
-353.1897013804828
 21
1594.625018973705
 31
0.0
  0
LINE
  5
22E
  8
DETAIL
  6
CONTINUOUS
 62
     5
 10
-353.1897013804828
 20
1594.625018973705
 30
0.0
 11
-356.18389705091028
 21
1583.674045476979
 31
0.0
  0
LINE
  5
22F
  8
DETAIL
  6
CONTINUOUS
 62
     5
 10
-356.18389705091028
 20
1583.674045476979
 30
0.0
 11
-358.46235356609571
 21
1572.5518934280319
 31
0.0
  0
LINE
  5
230
  8
DETAIL
  6
CONTINUOUS
 62
     5
 10
-358.46235356609571
 20
1572.5518934280319
 30
0.0
 11
-360.01548674626792
 21
1561.3053474396979
 31
0.0
  0
LINE
  5
231
  8
DETAIL
  6
CONTINUOUS
 62
     5
 10
-360.01548674626792
 20
1561.3053474396979
 30
0.0
 11
-360.83676343707771
 21
1549.9817153796989
 31
0.0
  0
LINE
  5
261
  8
DETAIL
  6
CONTINUOUS
 62
     5
 10
-328.32941970355199
 20
1572.5518934280319
 30
0.0
 11
-329.74914232203082
 21
1561.3053474396979
 31
0.0
  0
LINE
  5
262
  8
DETAIL
  6
CONTINUOUS
 62
     5
 10
-329.74914232203082
 20
1561.3053474396979
 30
0.0
 11
-330.4998732374579
 21
1549.9817153796989
 31
0.0
  0
LINE
  5
268
  8
DETAIL
  6
CONTINUOUS
 62
     5
 10
-328.52856360410169
 20
1561.3053474396979
 30
0.0
 11
-329.27929451952872
 21
1549.9817153796989
 31
0.0
  0
LINE
  5
26C
  8
DETAIL
  6
CONTINUOUS
 62
     5
 10
-329.935761283354
 20
1583.674045476979
 30
0.0
 11
-332.04959706922318
 21
1572.5518934280319
 31
0.0
  0
LINE
  5
26D
  8
DETAIL
  6
CONTINUOUS
 62
     5
 10
-332.04959706922318
 20
1572.5518934280319
 30
0.0
 11
-333.49051484603882
 21
1561.3053474396979
 31
0.0
  0
LINE
  5
26E
  8
DETAIL
  6
CONTINUOUS
 62
     5
 10
-333.49051484603882
 20
1561.3053474396979
 30
0.0
 11
-334.25245348640601
 21
1549.9817153796989
 31
0.0
  0
LINE
  5
26F
  8
DETAIL
  6
CONTINUOUS
 62
     5
 10
-346.22820693982322
 20
1583.674045476979
 30
0.0
 11
-348.44033112528541
 21
1572.5518934280319
 31
0.0
  0
LINE
  5
270
  8
DETAIL
  6
CONTINUOUS
 62
     5
 10
-348.44033112528541
 20
1572.5518934280319
 30
0.0
 11
-349.9482481946543
 21
1561.3053474396979
 31
0.0
  0
LINE
  5
271
  8
DETAIL
  6
CONTINUOUS
 62
     5
 10
-349.9482481946543
 20
1561.3053474396979
 30
0.0
 11
-350.74561519232702
 21
1549.9817153796989
 31
0.0
  0
LINE
  5
27E
  8
DETAIL
  6
CONTINUOUS
 62
     5
 10
-325.03130240778268
 20
1635.810678399665
 30
0.0
 11
-330.56726738009269
 21
1625.9949815576169
 31
0.0
  0
LINE
  5
27F
  8
DETAIL
  6
CONTINUOUS
 62
     5
 10
-324.30531737004452
 20
1635.810678399665
 30
0.0
 11
-329.84128234234038
 21
1625.9949815576169
 31
0.0
  0
LINE
  5
280
  8
DETAIL
  6
CONTINUOUS
 62
     5
 10
-327.60756843359502
 20
1635.810678399665
 30
0.0
 11
-333.18833181200262
 21
1625.9949815576169
 31
0.0
  0
LINE
  5
281
  8
DETAIL
  6
CONTINUOUS
 62
     5
 10
-326.98364484735652
 20
1635.810678399665
 30
0.0
 11
-332.5644082256585
 21
1625.9949815576169
 31
0.0
  0
LINE
  5
282
  8
DETAIL
  6
CONTINUOUS
 62
     5
 10
-329.78469510133391
 20
1635.810678399665
 30
0.0
 11
-335.40345758528201
 21
1625.9949815576169
 31
0.0
  0
LINE
  5
283
  8
DETAIL
  6
CONTINUOUS
 62
     5
 10
-329.263593121263
 20
1635.810678399665
 30
0.0
 11
-334.88235560521059
 21
1625.9949815576169
 31
0.0
  0
LINE
  5
284
  8
DETAIL
  6
CONTINUOUS
 62
     5
 10
-331.56002991755571
 20
1635.810678399665
 30
0.0
 11
-337.20994591051112
 21
1625.9949815576169
 31
0.0
  0
LINE
  5
285
  8
DETAIL
  6
CONTINUOUS
 62
     5
 10
-331.14238442620388
 20
1635.810678399665
 30
0.0
 11
-336.79230041915793
 21
1625.9949815576169
 31
0.0
  0
LINE
  5
286
  8
DETAIL
  6
CONTINUOUS
 62
     5
 10
-332.93140991026712
 20
1635.810678399665
 30
0.0
 11
-338.60559585980491
 21
1625.9949815576169
 31
0.0
  0
LINE
  5
287
  8
DETAIL
  6
CONTINUOUS
 62
     5
 10
-332.6177297443532
 20
1635.810678399665
 30
0.0
 11
-338.29191569389189
 21
1625.9949815576169
 31
0.0
  0
LINE
  5
288
  8
DETAIL
  6
CONTINUOUS
 62
     5
 10
-333.89716426412622
 20
1635.810678399665
 30
0.0
 11
-339.5887070486923
 21
1625.9949815576169
 31
0.0
  0
LINE
  5
289
  8
DETAIL
  6
CONTINUOUS
 62
     5
 10
-333.68783159451817
 20
1635.810678399665
 30
0.0
 11
-339.3793743791901
 21
1625.9949815576169
 31
0.0
  0
LINE
  5
28A
  8
DETAIL
  6
CONTINUOUS
 62
     5
 10
-334.45611635621162
 20
1635.810678399665
 30
0.0
 11
-340.15808170779059
 21
1625.9949815576169
 31
0.0
  0
LINE
  5
28B
  8
DETAIL
  6
CONTINUOUS
 62
     5
 10
-334.35138622269318
 20
1635.810678399665
 30
0.0
 11
-340.0533515742581
 21
1625.9949815576169
 31
0.0
  0
LINE
  5
291
  8
DETAIL
  6
CONTINUOUS
 62
     5
 10
-320.09671482737389
 20
1641.609399999121
 30
0.0
 11
-320.09671482737389
 21
1640.509067671954
 31
0.0
  0
LINE
  5
292
  8
DETAIL
  6
CONTINUOUS
 62
     5
 10
-300.09067015062868
 20
1642.3096115628271
 30
0.0
 11
-300.09067015062868
 21
1641.609399999121
 31
0.0
  0
LINE
  5
293
  8
DETAIL
  6
CONTINUOUS
 62
     5
 10
-300.2872438872127
 20
1637.4069474192329
 30
0.0
 11
-301.40106087088719
 21
1635.810678399665
 31
0.0
  0
LINE
  5
294
  8
DETAIL
  6
CONTINUOUS
 62
     5
 10
-300.91990178316013
 20
1639.700889911376
 30
0.0
 11
-302.5347620434199
 21
1638.7215691891599
 31
0.0
  0
LINE
  5
295
  8
DETAIL
  6
CONTINUOUS
 62
     5
 10
-302.5347620434199
 20
1638.7215691891599
 30
0.0
 11
-303.93685273562818
 21
1637.4069474192329
 31
0.0
  0
LINE
  5
296
  8
DETAIL
  6
CONTINUOUS
 62
     5
 10
-303.93685273562818
 20
1637.4069474192329
 30
0.0
 11
-305.06895018359808
 21
1635.810678399665
 31
0.0
  0
LINE
  5
297
  8
DETAIL
  6
CONTINUOUS
 62
     5
 10
-300.37875813616301
 20
1640.3049404655339
 30
0.0
 11
-302.14048050110381
 21
1639.700889911376
 31
0.0
  0
LINE
  5
298
  8
DETAIL
  6
CONTINUOUS
 62
     5
 10
-302.14048050110381
 20
1639.700889911376
 30
0.0
 11
-303.75534076134898
 21
1638.7215691891599
 31
0.0
  0
LINE
  5
299
  8
DETAIL
  6
CONTINUOUS
 62
     5
 10
-303.75534076134898
 20
1638.7215691891599
 30
0.0
 11
-305.15743145366281
 21
1637.4069474192329
 31
0.0
  0
LINE
  5
29A
  8
DETAIL
  6
CONTINUOUS
 62
     5
 10
-305.15743145366281
 20
1637.4069474192329
 30
0.0
 11
-306.28952890163282
 21
1635.810678399665
 31
0.0
  0
LINE
  5
29B
  8
DETAIL
  6
CONTINUOUS
 62
     5
 10
-301.81755462186311
 20
1640.509067671954
 30
0.0
 11
-303.68165772597189
 21
1640.3049404655339
 31
0.0
  0
LINE
  5
29C
  8
DETAIL
  6
CONTINUOUS
 62
     5
 10
-303.68165772597189
 20
1640.3049404655339
 30
0.0
 11
-305.46968099221561
 21
1639.700889911376
 31
0.0
  0
LINE
  5
29D
  8
DETAIL
  6
CONTINUOUS
 62
     5
 10
-305.46968099221561
 20
1639.700889911376
 30
0.0
 11
-307.10864963693922
 21
1638.7215691891599
 31
0.0
  0
LINE
  5
29E
  8
DETAIL
  6
CONTINUOUS
 62
     5
 10
-307.10864963693922
 20
1638.7215691891599
 30
0.0
 11
-308.53167225907322
 21
1637.4069474192329
 31
0.0
  0
LINE
  5
29F
  8
DETAIL
  6
CONTINUOUS
 62
     5
 10
-308.53167225907322
 20
1637.4069474192329
 30
0.0
 11
-309.68067088500669
 21
1635.810678399665
 31
0.0
  0
LINE
  5
2A0
  8
DETAIL
  6
CONTINUOUS
 62
     5
 10
-302.9417140584232
 20
1640.509067671954
 30
0.0
 11
-304.8058171626389
 21
1640.3049404655339
 31
0.0
  0
LINE
  5
2A1
  8
DETAIL
  6
CONTINUOUS
 62
     5
 10
-304.8058171626389
 20
1640.3049404655339
 30
0.0
 11
-306.59384042879122
 21
1639.700889911376
 31
0.0
  0
LINE
  5
2A2
  8
DETAIL
  6
CONTINUOUS
 62
     5
 10
-306.59384042879122
 20
1639.700889911376
 30
0.0
 11
-308.23280907360362
 21
1638.7215691891599
 31
0.0
  0
LINE
  5
2A3
  8
DETAIL
  6
CONTINUOUS
 62
     5
 10
-308.23280907360362
 20
1638.7215691891599
 30
0.0
 11
-309.65583169563291
 21
1637.4069474192329
 31
0.0
  0
LINE
  5
2A4
  8
DETAIL
  6
CONTINUOUS
 62
     5
 10
-309.65583169563291
 20
1637.4069474192329
 30
0.0
 11
-310.8048303215823
 21
1635.810678399665
 31
0.0
  0
LINE
  5
2A5
  8
DETAIL
  6
CONTINUOUS
 62
     5
 10
-305.9458947342373
 20
1640.509067671954
 30
0.0
 11
-307.83514671239072
 21
1640.3049404655339
 31
0.0
  0
LINE
  5
2A6
  8
DETAIL
  6
CONTINUOUS
 62
     5
 10
-307.83514671239072
 20
1640.3049404655339
 30
0.0
 11
-309.64729244886308
 21
1639.700889911376
 31
0.0
  0
LINE
  5
2A7
  8
DETAIL
  6
CONTINUOUS
 62
     5
 10
-309.64729244886308
 20
1639.700889911376
 30
0.0
 11
-311.3083726474174
 21
1638.7215691891599
 31
0.0
  0
LINE
  5
2A8
  8
DETAIL
  6
CONTINUOUS
 62
     5
 10
-311.3083726474174
 20
1638.7215691891599
 30
0.0
 11
-312.7505934654597
 21
1637.4069474192329
 31
0.0
  0
LINE
  5
2A9
  8
DETAIL
  6
CONTINUOUS
 62
     5
 10
-312.7505934654597
 20
1637.4069474192329
 30
0.0
 11
-313.91509339149468
 21
1635.810678399665
 31
0.0
  0
LINE
  5
2AA
  8
DETAIL
  6
CONTINUOUS
 62
     5
 10
-306.97226527432252
 20
1640.509067671954
 30
0.0
 11
-308.86151725246282
 21
1640.3049404655339
 31
0.0
  0
LINE
  5
2AB
  8
DETAIL
  6
CONTINUOUS
 62
     5
 10
-308.86151725246282
 20
1640.3049404655339
 30
0.0
 11
-310.67366298905478
 21
1639.700889911376
 31
0.0
  0
LINE
  5
2AC
  8
DETAIL
  6
CONTINUOUS
 62
     5
 10
-310.67366298905478
 20
1639.700889911376
 30
0.0
 11
-312.33474318761
 21
1638.7215691891599
 31
0.0
  0
LINE
  5
2AD
  8
DETAIL
  6
CONTINUOUS
 62
     5
 10
-312.33474318761
 20
1638.7215691891599
 30
0.0
 11
-313.77696400563798
 21
1637.4069474192329
 31
0.0
  0
LINE
  5
2AE
  8
DETAIL
  6
CONTINUOUS
 62
     5
 10
-313.77696400563798
 20
1637.4069474192329
 30
0.0
 11
-314.9414639316737
 21
1635.810678399665
 31
0.0
  0
LINE
  5
2AF
  8
DETAIL
  6
CONTINUOUS
 62
     5
 10
-309.70148690122232
 20
1640.509067671954
 30
0.0
 11
-311.61358599085997
 21
1640.3049404655339
 31
0.0
  0
LINE
  5
2B0
  8
DETAIL
  6
CONTINUOUS
 62
     5
 10
-311.61358599085997
 20
1640.3049404655339
 30
0.0
 11
-313.44764637727479
 21
1639.700889911376
 31
0.0
  0
LINE
  5
2B1
  8
DETAIL
  6
CONTINUOUS
 62
     5
 10
-313.44764637727479
 20
1639.700889911376
 30
0.0
 11
-315.1288143592032
 21
1638.7215691891599
 31
0.0
  0
LINE
  5
2B2
  8
DETAIL
  6
CONTINUOUS
 62
     5
 10
-315.1288143592032
 20
1638.7215691891599
 30
0.0
 11
-316.58847624922009
 21
1637.4069474192329
 31
0.0
  0
LINE
  5
2B3
  8
DETAIL
  6
CONTINUOUS
 62
     5
 10
-316.58847624922009
 20
1637.4069474192329
 30
0.0
 11
-317.76705871160488
 21
1635.810678399665
 31
0.0
  0
LINE
  5
2B4
  8
DETAIL
  6
CONTINUOUS
 62
     5
 10
-310.6288180704891
 20
1640.509067671954
 30
0.0
 11
-312.54091716012448
 21
1640.3049404655339
 31
0.0
  0
LINE
  5
2B5
  8
DETAIL
  6
CONTINUOUS
 62
     5
 10
-312.54091716012448
 20
1640.3049404655339
 30
0.0
 11
-314.37497754655573
 21
1639.700889911376
 31
0.0
  0
LINE
  5
2B6
  8
DETAIL
  6
CONTINUOUS
 62
     5
 10
-314.37497754655573
 20
1639.700889911376
 30
0.0
 11
-316.05614552848459
 21
1638.7215691891599
 31
0.0
  0
LINE
  5
2B7
  8
DETAIL
  6
CONTINUOUS
 62
     5
 10
-316.05614552848459
 20
1638.7215691891599
 30
0.0
 11
-317.51580741850188
 21
1637.4069474192329
 31
0.0
  0
LINE
  5
2B8
  8
DETAIL
  6
CONTINUOUS
 62
     5
 10
-317.51580741850188
 20
1637.4069474192329
 30
0.0
 11
-318.69438988087131
 21
1635.810678399665
 31
0.0
  0
LINE
  5
2B9
  8
DETAIL
  6
CONTINUOUS
 62
     5
 10
-313.07975551230669
 20
1640.509067671954
 30
0.0
 11
-315.01237211514803
 21
1640.3049404655339
 31
0.0
  0
LINE
  5
2BA
  8
DETAIL
  6
CONTINUOUS
 62
     5
 10
-315.01237211514803
 20
1640.3049404655339
 30
0.0
 11
-316.86611263148683
 21
1639.700889911376
 31
0.0
  0
LINE
  5
2BB
  8
DETAIL
  6
CONTINUOUS
 62
     5
 10
-316.86611263148683
 20
1639.700889911376
 30
0.0
 11
-318.56532015251742
 21
1638.7215691891599
 31
0.0
  0
LINE
  5
2BC
  8
DETAIL
  6
CONTINUOUS
 62
     5
 10
-318.56532015251742
 20
1638.7215691891599
 30
0.0
 11
-320.04064474141478
 21
1637.4069474192329
 31
0.0
  0
LINE
  5
2BD
  8
DETAIL
  6
CONTINUOUS
 62
     5
 10
-320.04064474141478
 20
1637.4069474192329
 30
0.0
 11
-321.23187381896059
 21
1635.810678399665
 31
0.0
  0
LINE
  5
2BE
  8
DETAIL
  6
CONTINUOUS
 62
     5
 10
-313.90691750050968
 20
1640.509067671954
 30
0.0
 11
-315.83953410345708
 21
1640.3049404655339
 31
0.0
  0
LINE
  5
2BF
  8
DETAIL
  6
CONTINUOUS
 62
     5
 10
-315.83953410345708
 20
1640.3049404655339
 30
0.0
 11
-317.69327461968891
 21
1639.700889911376
 31
0.0
  0
LINE
  5
2C0
  8
DETAIL
  6
CONTINUOUS
 62
     5
 10
-317.69327461968891
 20
1639.700889911376
 30
0.0
 11
-319.39248214082488
 21
1638.7215691891599
 31
0.0
  0
LINE
  5
2C1
  8
DETAIL
  6
CONTINUOUS
 62
     5
 10
-319.39248214082488
 20
1638.7215691891599
 30
0.0
 11
-320.86780672972321
 21
1637.4069474192329
 31
0.0
  0
LINE
  5
2C2
  8
DETAIL
  6
CONTINUOUS
 62
     5
 10
-320.86780672972321
 20
1637.4069474192329
 30
0.0
 11
-322.05903580726988
 21
1635.810678399665
 31
0.0
  0
LINE
  5
2C3
  8
DETAIL
  6
CONTINUOUS
 62
     5
 10
-316.07658466751121
 20
1640.509067671954
 30
0.0
 11
-318.02736418805227
 21
1640.3049404655339
 31
0.0
  0
LINE
  5
2C4
  8
DETAIL
  6
CONTINUOUS
 62
     5
 10
-318.02736418805227
 20
1640.3049404655339
 30
0.0
 11
-319.89852633689219
 21
1639.700889911376
 31
0.0
  0
LINE
  5
2C5
  8
DETAIL
  6
CONTINUOUS
 62
     5
 10
-319.89852633689219
 20
1639.700889911376
 30
0.0
 11
-321.61370317455112
 21
1638.7215691891599
 31
0.0
  0
LINE
  5
2C6
  8
DETAIL
  6
CONTINUOUS
 62
     5
 10
-321.61370317455112
 20
1638.7215691891599
 30
0.0
 11
-323.10289300651942
 21
1637.4069474192329
 31
0.0
  0
LINE
  5
2C7
  8
DETAIL
  6
CONTINUOUS
 62
     5
 10
-323.10289300651942
 20
1637.4069474192329
 30
0.0
 11
-324.30531737004452
 21
1635.810678399665
 31
0.0
  0
LINE
  5
2C8
  8
DETAIL
  6
CONTINUOUS
 62
     5
 10
-316.80256970526392
 20
1640.509067671954
 30
0.0
 11
-318.75334922580532
 21
1640.3049404655339
 31
0.0
  0
LINE
  5
2C9
  8
DETAIL
  6
CONTINUOUS
 62
     5
 10
-318.75334922580532
 20
1640.3049404655339
 30
0.0
 11
-320.62451137464632
 21
1639.700889911376
 31
0.0
  0
LINE
  5
2CA
  8
DETAIL
  6
CONTINUOUS
 62
     5
 10
-320.62451137464632
 20
1639.700889911376
 30
0.0
 11
-322.33968821228882
 21
1638.7215691891599
 31
0.0
  0
LINE
  5
2CB
  8
DETAIL
  6
CONTINUOUS
 62
     5
 10
-322.33968821228882
 20
1638.7215691891599
 30
0.0
 11
-323.82887804425673
 21
1637.4069474192329
 31
0.0
  0
LINE
  5
2CC
  8
DETAIL
  6
CONTINUOUS
 62
     5
 10
-323.82887804425673
 20
1637.4069474192329
 30
0.0
 11
-325.03130240778268
 21
1635.810678399665
 31
0.0
  0
LINE
  5
2CD
  8
DETAIL
  6
CONTINUOUS
 62
     5
 10
-318.68832319216381
 20
1640.509067671954
 30
0.0
 11
-320.65488890598408
 21
1640.3049404655339
 31
0.0
  0
LINE
  5
2CE
  8
DETAIL
  6
CONTINUOUS
 62
     5
 10
-320.65488890598408
 20
1640.3049404655339
 30
0.0
 11
-322.54119296455508
 21
1639.700889911376
 31
0.0
  0
LINE
  5
2CF
  8
DETAIL
  6
CONTINUOUS
 62
     5
 10
-322.54119296455508
 20
1639.700889911376
 30
0.0
 11
-324.27024943993132
 21
1638.7215691891599
 31
0.0
  0
LINE
  5
2D0
  8
DETAIL
  6
CONTINUOUS
 62
     5
 10
-324.27024943993132
 20
1638.7215691891599
 30
0.0
 11
-325.77149016658728
 21
1637.4069474192329
 31
0.0
  0
LINE
  5
2D1
  8
DETAIL
  6
CONTINUOUS
 62
     5
 10
-325.77149016658728
 20
1637.4069474192329
 30
0.0
 11
-326.98364484735652
 21
1635.810678399665
 31
0.0
  0
LINE
  5
2D2
  8
DETAIL
  6
CONTINUOUS
 62
     5
 10
-319.31224677841823
 20
1640.509067671954
 30
0.0
 11
-321.27881249232883
 21
1640.3049404655339
 31
0.0
  0
LINE
  5
2D3
  8
DETAIL
  6
CONTINUOUS
 62
     5
 10
-321.27881249232883
 20
1640.3049404655339
 30
0.0
 11
-323.16511655089971
 21
1639.700889911376
 31
0.0
  0
LINE
  5
2D4
  8
DETAIL
  6
CONTINUOUS
 62
     5
 10
-323.16511655089971
 20
1639.700889911376
 30
0.0
 11
-324.89417302627589
 21
1638.7215691891599
 31
0.0
  0
LINE
  5
2D5
  8
DETAIL
  6
CONTINUOUS
 62
     5
 10
-324.89417302627589
 20
1638.7215691891599
 30
0.0
 11
-326.39541375293169
 21
1637.4069474192329
 31
0.0
  0
LINE
  5
2D6
  8
DETAIL
  6
CONTINUOUS
 62
     5
 10
-326.39541375293169
 20
1637.4069474192329
 30
0.0
 11
-327.60756843359502
 21
1635.810678399665
 31
0.0
  0
LINE
  5
2D7
  8
DETAIL
  6
CONTINUOUS
 62
     5
 10
-320.91178908515201
 20
1640.509067671954
 30
0.0
 11
-322.89174503493803
 21
1640.3049404655339
 31
0.0
  0
LINE
  5
2D8
  8
DETAIL
  6
CONTINUOUS
 62
     5
 10
-322.89174503493803
 20
1640.3049404655339
 30
0.0
 11
-324.79089283232668
 21
1639.700889911376
 31
0.0
  0
LINE
  5
2D9
  8
DETAIL
  6
CONTINUOUS
 62
     5
 10
-324.79089283232668
 20
1639.700889911376
 30
0.0
 11
-326.53172235645701
 21
1638.7215691891599
 31
0.0
  0
LINE
  5
2DA
  8
DETAIL
  6
CONTINUOUS
 62
     5
 10
-326.53172235645701
 20
1638.7215691891599
 30
0.0
 11
-328.0431849471633
 21
1637.4069474192329
 31
0.0
  0
LINE
  5
2DB
  8
DETAIL
  6
CONTINUOUS
 62
     5
 10
-328.0431849471633
 20
1637.4069474192329
 30
0.0
 11
-329.263593121263
 21
1635.810678399665
 31
0.0
  0
LINE
  5
2DC
  8
DETAIL
  6
CONTINUOUS
 62
     5
 10
-321.43289106522292
 20
1640.509067671954
 30
0.0
 11
-323.41284701499308
 21
1640.3049404655339
 31
0.0
  0
LINE
  5
2DD
  8
DETAIL
  6
CONTINUOUS
 62
     5
 10
-323.41284701499308
 20
1640.3049404655339
 30
0.0
 11
-325.31199481239798
 21
1639.700889911376
 31
0.0
  0
LINE
  5
2DE
  8
DETAIL
  6
CONTINUOUS
 62
     5
 10
-325.31199481239798
 20
1639.700889911376
 30
0.0
 11
-327.05282433651331
 21
1638.7215691891599
 31
0.0
  0
LINE
  5
2DF
  8
DETAIL
  6
CONTINUOUS
 62
     5
 10
-327.05282433651331
 20
1638.7215691891599
 30
0.0
 11
-328.5642869272346
 21
1637.4069474192329
 31
0.0
  0
LINE
  5
2E0
  8
DETAIL
  6
CONTINUOUS
 62
     5
 10
-328.5642869272346
 20
1637.4069474192329
 30
0.0
 11
-329.78469510133391
 21
1635.810678399665
 31
0.0
  0
LINE
  5
2E1
  8
DETAIL
  6
CONTINUOUS
 62
     5
 10
-322.74427339588692
 20
1640.509067671954
 30
0.0
 11
-324.73520731017101
 21
1640.3049404655339
 31
0.0
  0
LINE
  5
2E2
  8
DETAIL
  6
CONTINUOUS
 62
     5
 10
-324.73520731017101
 20
1640.3049404655339
 30
0.0
 11
-326.64488502730768
 21
1639.700889911376
 31
0.0
  0
LINE
  5
2E3
  8
DETAIL
  6
CONTINUOUS
 62
     5
 10
-326.64488502730768
 20
1639.700889911376
 30
0.0
 11
-328.395366667632
 21
1638.7215691891599
 31
0.0
  0
LINE
  5
2E4
  8
DETAIL
  6
CONTINUOUS
 62
     5
 10
-328.395366667632
 20
1638.7215691891599
 30
0.0
 11
-329.91520963812809
 21
1637.4069474192329
 31
0.0
  0
LINE
  5
2E5
  8
DETAIL
  6
CONTINUOUS
 62
     5
 10
-329.91520963812809
 20
1637.4069474192329
 30
0.0
 11
-331.14238442620388
 21
1635.810678399665
 31
0.0
  0
LINE
  5
2E6
  8
DETAIL
  6
CONTINUOUS
 62
     5
 10
-323.1619188872391
 20
1640.509067671954
 30
0.0
 11
-325.15285280153819
 21
1640.3049404655339
 31
0.0
  0
LINE
  5
2E7
  8
DETAIL
  6
CONTINUOUS
 62
     5
 10
-325.15285280153819
 20
1640.3049404655339
 30
0.0
 11
-327.06253051865991
 21
1639.700889911376
 31
0.0
  0
LINE
  5
2E8
  8
DETAIL
  6
CONTINUOUS
 62
     5
 10
-327.06253051865991
 20
1639.700889911376
 30
0.0
 11
-328.81301215889278
 21
1638.7215691891599
 31
0.0
  0
LINE
  5
2E9
  8
DETAIL
  6
CONTINUOUS
 62
     5
 10
-328.81301215889278
 20
1638.7215691891599
 30
0.0
 11
-330.33285512948032
 21
1637.4069474192329
 31
0.0
  0
LINE
  5
2EA
  8
DETAIL
  6
CONTINUOUS
 62
     5
 10
-330.33285512948032
 20
1637.4069474192329
 30
0.0
 11
-331.56002991755571
 21
1635.810678399665
 31
0.0
  0
LINE
  5
2EB
  8
DETAIL
  6
CONTINUOUS
 62
     5
 10
-324.18354352438701
 20
1640.509067671954
 30
0.0
 11
-326.18302975699493
 21
1640.3049404655339
 31
0.0
  0
LINE
  5
2EC
  8
DETAIL
  6
CONTINUOUS
 62
     5
 10
-326.18302975699493
 20
1640.3049404655339
 30
0.0
 11
-328.10091074568021
 21
1639.700889911376
 31
0.0
  0
LINE
  5
2ED
  8
DETAIL
  6
CONTINUOUS
 62
     5
 10
-328.10091074568021
 20
1639.700889911376
 30
0.0
 11
-329.85891180995839
 21
1638.7215691891599
 31
0.0
  0
LINE
  5
2EE
  8
DETAIL
  6
CONTINUOUS
 62
     5
 10
-329.85891180995839
 20
1638.7215691891599
 30
0.0
 11
-331.3852834656368
 21
1637.4069474192329
 31
0.0
  0
LINE
  5
2EF
  8
DETAIL
  6
CONTINUOUS
 62
     5
 10
-331.3852834656368
 20
1637.4069474192329
 30
0.0
 11
-332.6177297443532
 21
1635.810678399665
 31
0.0
  0
LINE
  5
2F0
  8
DETAIL
  6
CONTINUOUS
 62
     5
 10
-324.4972236902999
 20
1640.509067671954
 30
0.0
 11
-326.49670992290919
 21
1640.3049404655339
 31
0.0
  0
LINE
  5
2F1
  8
DETAIL
  6
CONTINUOUS
 62
     5
 10
-326.49670992290919
 20
1640.3049404655339
 30
0.0
 11
-328.41459091159362
 21
1639.700889911376
 31
0.0
  0
LINE
  5
2F2
  8
DETAIL
  6
CONTINUOUS
 62
     5
 10
-328.41459091159362
 20
1639.700889911376
 30
0.0
 11
-330.17259197587191
 21
1638.7215691891599
 31
0.0
  0
LINE
  5
2F3
  8
DETAIL
  6
CONTINUOUS
 62
     5
 10
-330.17259197587191
 20
1638.7215691891599
 30
0.0
 11
-331.6989636315497
 21
1637.4069474192329
 31
0.0
  0
LINE
  5
2F4
  8
DETAIL
  6
CONTINUOUS
 62
     5
 10
-331.6989636315497
 20
1637.4069474192329
 30
0.0
 11
-332.93140991026712
 21
1635.810678399665
 31
0.0
  0
LINE
  5
2F5
  8
DETAIL
  6
CONTINUOUS
 62
     5
 10
-325.22784594174522
 20
1640.509067671954
 30
0.0
 11
-327.23344842662652
 21
1640.3049404655339
 31
0.0
  0
LINE
  5
2F6
  8
DETAIL
  6
CONTINUOUS
 62
     5
 10
-327.23344842662652
 20
1640.3049404655339
 30
0.0
 11
-329.15719604438482
 21
1639.700889911376
 31
0.0
  0
LINE
  5
2F7
  8
DETAIL
  6
CONTINUOUS
 62
     5
 10
-329.15719604438482
 20
1639.700889911376
 30
0.0
 11
-330.920574679043
 21
1638.7215691891599
 31
0.0
  0
LINE
  5
2F8
  8
DETAIL
  6
CONTINUOUS
 62
     5
 10
-330.920574679043
 20
1638.7215691891599
 30
0.0
 11
-332.4516153712438
 21
1637.4069474192329
 31
0.0
  0
LINE
  5
2F9
  8
DETAIL
  6
CONTINUOUS
 62
     5
 10
-332.4516153712438
 20
1637.4069474192329
 30
0.0
 11
-333.68783159451817
 21
1635.810678399665
 31
0.0
  0
LINE
  5
2FA
  8
DETAIL
  6
CONTINUOUS
 62
     5
 10
-325.43717861124787
 20
1640.509067671954
 30
0.0
 11
-327.44278109623468
 21
1640.3049404655339
 31
0.0
  0
LINE
  5
2FB
  8
DETAIL
  6
CONTINUOUS
 62
     5
 10
-327.44278109623468
 20
1640.3049404655339
 30
0.0
 11
-329.36652871388679
 21
1639.700889911376
 31
0.0
  0
LINE
  5
2FC
  8
DETAIL
  6
CONTINUOUS
 62
     5
 10
-329.36652871388679
 20
1639.700889911376
 30
0.0
 11
-331.12990734854509
 21
1638.7215691891599
 31
0.0
  0
LINE
  5
2FD
  8
DETAIL
  6
CONTINUOUS
 62
     5
 10
-331.12990734854509
 20
1638.7215691891599
 30
0.0
 11
-332.66094804074589
 21
1637.4069474192329
 31
0.0
  0
LINE
  5
2FE
  8
DETAIL
  6
CONTINUOUS
 62
     5
 10
-332.66094804074589
 20
1637.4069474192329
 30
0.0
 11
-333.89716426412622
 21
1635.810678399665
 31
0.0
  0
LINE
  5
2FF
  8
DETAIL
  6
CONTINUOUS
 62
     5
 10
-325.875908326348
 20
1640.509067671954
 30
0.0
 11
-327.88518354582902
 21
1640.3049404655339
 31
0.0
  0
LINE
  5
300
  8
DETAIL
  6
CONTINUOUS
 62
     5
 10
-327.88518354582902
 20
1640.3049404655339
 30
0.0
 11
-329.81245400247508
 21
1639.700889911376
 31
0.0
  0
LINE
  5
301
  8
DETAIL
  6
CONTINUOUS
 62
     5
 10
-329.81245400247508
 20
1639.700889911376
 30
0.0
 11
-331.57906180230918
 21
1638.7215691891599
 31
0.0
  0
LINE
  5
302
  8
DETAIL
  6
CONTINUOUS
 62
     5
 10
-331.57906180230918
 20
1638.7215691891599
 30
0.0
 11
-333.11290619371908
 21
1637.4069474192329
 31
0.0
  0
LINE
  5
303
  8
DETAIL
  6
CONTINUOUS
 62
     5
 10
-333.11290619371908
 20
1637.4069474192329
 30
0.0
 11
-334.35138622269318
 21
1635.810678399665
 31
0.0
  0
LINE
  5
304
  8
DETAIL
  6
CONTINUOUS
 62
     5
 10
-325.98063845988088
 20
1640.509067671954
 30
0.0
 11
-327.98991367934781
 21
1640.3049404655339
 31
0.0
  0
LINE
  5
305
  8
DETAIL
  6
CONTINUOUS
 62
     5
 10
-327.98991367934781
 20
1640.3049404655339
 30
0.0
 11
-329.91718413599301
 21
1639.700889911376
 31
0.0
  0
LINE
  5
306
  8
DETAIL
  6
CONTINUOUS
 62
     5
 10
-329.91718413599301
 20
1639.700889911376
 30
0.0
 11
-331.68379193582768
 21
1638.7215691891599
 31
0.0
  0
LINE
  5
307
  8
DETAIL
  6
CONTINUOUS
 62
     5
 10
-331.68379193582768
 20
1638.7215691891599
 30
0.0
 11
-333.2176363272369
 21
1637.4069474192329
 31
0.0
  0
LINE
  5
308
  8
DETAIL
  6
CONTINUOUS
 62
     5
 10
-333.2176363272369
 20
1637.4069474192329
 30
0.0
 11
-334.45611635621162
 21
1635.810678399665
 31
0.0
  0
LINE
  5
309
  8
DETAIL
  6
CONTINUOUS
 62
     5
 10
-306.97226527432252
 20
1640.509067671954
 30
0.0
 11
-309.70148690122232
 21
1640.509067671954
 31
0.0
  0
LINE
  5
30A
  8
DETAIL
  6
CONTINUOUS
 62
     5
 10
-310.6288180704891
 20
1640.509067671954
 30
0.0
 11
-313.07975551230669
 21
1640.509067671954
 31
0.0
  0
LINE
  5
30B
  8
DETAIL
  6
CONTINUOUS
 62
     5
 10
-313.90691750050968
 20
1640.509067671954
 30
0.0
 11
-316.07658466751121
 21
1640.509067671954
 31
0.0
  0
LINE
  5
30C
  8
DETAIL
  6
CONTINUOUS
 62
     5
 10
-316.80256970526392
 20
1640.509067671954
 30
0.0
 11
-318.68832319216381
 21
1640.509067671954
 31
0.0
  0
LINE
  5
30D
  8
DETAIL
  6
CONTINUOUS
 62
     5
 10
-319.31224677841823
 20
1640.509067671954
 30
0.0
 11
-320.91178908515201
 21
1640.509067671954
 31
0.0
  0
LINE
  5
30E
  8
DETAIL
  6
CONTINUOUS
 62
     5
 10
-321.43289106522292
 20
1640.509067671954
 30
0.0
 11
-322.74427339588692
 21
1640.509067671954
 31
0.0
  0
LINE
  5
30F
  8
DETAIL
  6
CONTINUOUS
 62
     5
 10
-323.1619188872391
 20
1640.509067671954
 30
0.0
 11
-324.18354352438701
 21
1640.509067671954
 31
0.0
  0
LINE
  5
310
  8
DETAIL
  6
CONTINUOUS
 62
     5
 10
-324.4972236902999
 20
1640.509067671954
 30
0.0
 11
-325.22784594174522
 21
1640.509067671954
 31
0.0
  0
LINE
  5
311
  8
DETAIL
  6
CONTINUOUS
 62
     5
 10
-325.43717861124787
 20
1640.509067671954
 30
0.0
 11
-326.12694111402601
 21
1640.509067671949
 31
0.0
  0
ARC
  5
312
  8
DETAIL
  6
CONTINUOUS
 62
     5
 10
-326.12694111402601
 20
1630.506045333583
 30
0.0
 40
10.00302233836611
 50
90.0
 51
147.9740682966528
  0
LINE
  5
44C
  8
DETAIL
  6
CONTINUOUS
 62
     5
 10
-230.49777913494609
 20
1637.4069474192329
 30
0.0
 11
-231.3586240570948
 21
1635.810678399665
 31
0.0
  0
LINE
  5
44D
  8
DETAIL
  6
CONTINUOUS
 62
     5
 10
-230.36236652733569
 20
1639.700889911376
 30
0.0
 11
-231.5903034487992
 21
1638.7215691891599
 31
0.0
  0
LINE
  5
44E
  8
DETAIL
  6
CONTINUOUS
 62
     5
 10
-229.21347474607629
 20
1640.509067671954
 30
0.0
 11
-235.63839118551229
 21
1640.509067671954
 31
0.0
  0
LINE
  5
44F
  8
NOTE
  6
CONTINUOUS
 62
     4
 10
-178.4796550248661
 20
1695.779665001352
 30
0.0
 11
-228.494766716697
 21
1695.779665001352
 31
0.0
  0
LINE
  5
450
  8
DETAIL
  6
CONTINUOUS
 62
     5
 10
-264.586821969612
 20
1640.3049404655339
 30
0.0
 11
-266.1469669199314
 21
1639.700889911376
 31
0.0
  0
LINE
  5
451
  8
DETAIL
  6
CONTINUOUS
 62
     5
 10
-266.1469669199314
 20
1639.700889911376
 30
0.0
 11
-267.57705382270291
 21
1638.7215691891599
 31
0.0
  0
LINE
  5
452
  8
DETAIL
  6
CONTINUOUS
 62
     5
 10
-267.57705382270291
 20
1638.7215691891599
 30
0.0
 11
-268.81871638935809
 21
1637.4069474192329
 31
0.0
  0
LINE
  5
453
  8
DETAIL
  6
CONTINUOUS
 62
     5
 10
-268.81871638935809
 20
1637.4069474192329
 30
0.0
 11
-269.82127851369199
 21
1635.810678399665
 31
0.0
  0
LINE
  5
466
  8
DETAIL
  6
CONTINUOUS
 62
     5
 10
-280.08462547389991
 20
1643.009823126504
 30
0.0
 11
-280.08462547389991
 21
1642.3096115628271
 31
0.0
  0
LINE
  5
467
  8
DETAIL
  6
CONTINUOUS
 62
     5
 10
-260.0785807971701
 20
1643.7100346901809
 30
0.0
 11
-260.0785807971701
 21
1643.009823126504
 31
0.0
  0
LINE
  5
468
  8
DETAIL
  6
CONTINUOUS
 62
     5
 10
-240.07253612044079
 20
1644.4102462538569
 30
0.0
 11
-240.07253612044079
 21
1643.7100346901809
 31
0.0
  0
LINE
  5
469
  8
DETAIL
  6
CONTINUOUS
 62
     5
 10
-236.87160459322101
 20
1640.509067671954
 30
0.0
 11
-236.87160459322101
 21
1640.335006873778
 31
0.0
  0
LINE
  5
46A
  8
DETAIL
  6
CONTINUOUS
 62
     5
 10
-231.5903034487992
 20
1638.7215691891599
 30
0.0
 11
-232.65645076243109
 21
1637.4069474192329
 31
0.0
  0
LINE
  5
46B
  8
DETAIL
  6
CONTINUOUS
 62
     5
 10
-232.65645076243109
 20
1637.4069474192329
 30
0.0
 11
-233.51729568457759
 21
1635.810678399665
 31
0.0
  0
LINE
  5
46C
  8
DETAIL
  6
CONTINUOUS
 62
     5
 10
-233.55378622631579
 20
1640.509067671954
 30
0.0
 11
-235.0000188674002
 21
1640.3049404655339
 31
0.0
  0
LINE
  5
46D
  8
DETAIL
  6
CONTINUOUS
 62
     5
 10
-235.0000188674002
 20
1640.3049404655339
 30
0.0
 11
-236.38722626212979
 21
1639.700889911376
 31
0.0
  0
LINE
  5
46E
  8
DETAIL
  6
CONTINUOUS
 62
     5
 10
-236.38722626212979
 20
1639.700889911376
 30
0.0
 11
-237.6587921677619
 21
1638.7215691891599
 31
0.0
  0
LINE
  5
46F
  8
DETAIL
  6
CONTINUOUS
 62
     5
 10
-237.6587921677619
 20
1638.7215691891599
 30
0.0
 11
-238.76282002991451
 21
1637.4069474192329
 31
0.0
  0
LINE
  5
470
  8
DETAIL
  6
CONTINUOUS
 62
     5
 10
-238.76282002991451
 20
1637.4069474192329
 30
0.0
 11
-239.65425104233191
 21
1635.810678399665
 31
0.0
  0
LINE
  5
471
  8
DETAIL
  6
CONTINUOUS
 62
     5
 10
-235.63839118551229
 20
1640.509067671954
 30
0.0
 11
-237.0846238265961
 21
1640.3049404655339
 31
0.0
  0
LINE
  5
472
  8
DETAIL
  6
CONTINUOUS
 62
     5
 10
-237.0846238265961
 20
1640.3049404655339
 30
0.0
 11
-238.4718312212203
 21
1639.700889911376
 31
0.0
  0
LINE
  5
473
  8
DETAIL
  6
CONTINUOUS
 62
     5
 10
-238.4718312212203
 20
1639.700889911376
 30
0.0
 11
-239.7433971268519
 21
1638.7215691891599
 31
0.0
  0
LINE
  5
474
  8
DETAIL
  6
CONTINUOUS
 62
     5
 10
-239.7433971268519
 20
1638.7215691891599
 30
0.0
 11
-240.8474249891118
 21
1637.4069474192329
 31
0.0
  0
LINE
  5
475
  8
DETAIL
  6
CONTINUOUS
 62
     5
 10
-240.8474249891118
 20
1637.4069474192329
 30
0.0
 11
-241.73885600152781
 21
1635.810678399665
 31
0.0
  0
LINE
  5
476
  8
DETAIL
  6
CONTINUOUS
 62
     5
 10
-241.35554947711799
 20
1640.509067671954
 30
0.0
 11
-242.8496421203325
 21
1640.3049404655339
 31
0.0
  0
LINE
  5
477
  8
DETAIL
  6
CONTINUOUS
 62
     5
 10
-242.8496421203325
 20
1640.3049404655339
 30
0.0
 11
-244.28275620184411
 21
1639.700889911376
 31
0.0
  0
LINE
  5
478
  8
DETAIL
  6
CONTINUOUS
 62
     5
 10
-244.28275620184411
 20
1639.700889911376
 30
0.0
 11
-245.59640188444601
 21
1638.7215691891599
 31
0.0
  0
LINE
  5
479
  8
DETAIL
  6
CONTINUOUS
 62
     5
 10
-245.59640188444601
 20
1638.7215691891599
 30
0.0
 11
-246.73696520733111
 21
1637.4069474192329
 31
0.0
  0
LINE
  5
47A
  8
DETAIL
  6
CONTINUOUS
 62
     5
 10
-246.73696520733111
 20
1637.4069474192329
 30
0.0
 11
-247.65789623855099
 21
1635.810678399665
 31
0.0
  0
LINE
  5
47B
  8
DETAIL
  6
CONTINUOUS
 62
     5
 10
-243.36354799796109
 20
1640.509067671954
 30
0.0
 11
-244.857640641177
 21
1640.3049404655339
 31
0.0
  0
LINE
  5
47C
  8
DETAIL
  6
CONTINUOUS
 62
     5
 10
-244.857640641177
 20
1640.3049404655339
 30
0.0
 11
-246.29075472267269
 21
1639.700889911376
 31
0.0
  0
LINE
  5
47D
  8
DETAIL
  6
CONTINUOUS
 62
     5
 10
-246.29075472267269
 20
1639.700889911376
 30
0.0
 11
-247.60440040518279
 21
1638.7215691891599
 31
0.0
  0
LINE
  5
47E
  8
DETAIL
  6
CONTINUOUS
 62
     5
 10
-247.60440040518279
 20
1638.7215691891599
 30
0.0
 11
-248.74496372815881
 21
1637.4069474192329
 31
0.0
  0
LINE
  5
47F
  8
DETAIL
  6
CONTINUOUS
 62
     5
 10
-248.74496372815881
 20
1637.4069474192329
 30
0.0
 11
-249.66589475938
 21
1635.810678399665
 31
0.0
  0
LINE
  5
480
  8
DETAIL
  6
CONTINUOUS
 62
     5
 10
-248.86325816893711
 20
1640.509067671954
 30
0.0
 11
-250.40339049249269
 21
1640.3049404655339
 31
0.0
  0
LINE
  5
481
  8
DETAIL
  6
CONTINUOUS
 62
     5
 10
-250.40339049249269
 20
1640.3049404655339
 30
0.0
 11
-251.88066523200399
 21
1639.700889911376
 31
0.0
  0
LINE
  5
482
  8
DETAIL
  6
CONTINUOUS
 62
     5
 10
-251.88066523200399
 20
1639.700889911376
 30
0.0
 11
-253.23479021664781
 21
1638.7215691891599
 31
0.0
  0
LINE
  5
483
  8
DETAIL
  6
CONTINUOUS
 62
     5
 10
-253.23479021664781
 20
1638.7215691891599
 30
0.0
 11
-254.41049939958521
 21
1637.4069474192329
 31
0.0
  0
LINE
  5
484
  8
DETAIL
  6
CONTINUOUS
 62
     5
 10
-254.41049939958521
 20
1637.4069474192329
 30
0.0
 11
-255.35980843700099
 21
1635.810678399665
 31
0.0
  0
LINE
  5
485
  8
DETAIL
  6
CONTINUOUS
 62
     5
 10
-250.7922038144429
 20
1640.509067671954
 30
0.0
 11
-252.3323361380898
 21
1640.3049404655339
 31
0.0
  0
LINE
  5
486
  8
DETAIL
  6
CONTINUOUS
 62
     5
 10
-252.3323361380898
 20
1640.3049404655339
 30
0.0
 11
-253.80961087761619
 21
1639.700889911376
 31
0.0
  0
LINE
  5
487
  8
DETAIL
  6
CONTINUOUS
 62
     5
 10
-253.80961087761619
 20
1639.700889911376
 30
0.0
 11
-255.16373586224509
 21
1638.7215691891599
 31
0.0
  0
LINE
  5
488
  8
DETAIL
  6
CONTINUOUS
 62
     5
 10
-255.16373586224509
 20
1638.7215691891599
 30
0.0
 11
-256.33944504507502
 21
1637.4069474192329
 31
0.0
  0
LINE
  5
489
  8
DETAIL
  6
CONTINUOUS
 62
     5
 10
-256.33944504507502
 20
1637.4069474192329
 30
0.0
 11
-257.28875408259768
 21
1635.810678399665
 31
0.0
  0
LINE
  5
48A
  8
DETAIL
  6
CONTINUOUS
 62
     5
 10
-256.06776531508189
 20
1640.509067671954
 30
0.0
 11
-257.65206090503801
 21
1640.3049404655339
 31
0.0
  0
LINE
  5
48B
  8
DETAIL
  6
CONTINUOUS
 62
     5
 10
-257.65206090503801
 20
1640.3049404655339
 30
0.0
 11
-259.17169647085763
 21
1639.700889911376
 31
0.0
  0
LINE
  5
48C
  8
DETAIL
  6
CONTINUOUS
 62
     5
 10
-259.17169647085763
 20
1639.700889911376
 30
0.0
 11
-260.5646509648281
 21
1638.7215691891599
 31
0.0
  0
LINE
  5
48D
  8
DETAIL
  6
CONTINUOUS
 62
     5
 10
-260.5646509648281
 20
1638.7215691891599
 30
0.0
 11
-261.7740735872402
 21
1637.4069474192329
 31
0.0
  0
LINE
  5
48E
  8
DETAIL
  6
CONTINUOUS
 62
     5
 10
-261.7740735872402
 20
1637.4069474192329
 30
0.0
 11
-262.75060404410169
 21
1635.810678399665
 31
0.0
  0
LINE
  5
48F
  8
DETAIL
  6
CONTINUOUS
 62
     5
 10
-257.91530796217279
 20
1640.509067671954
 30
0.0
 11
-259.49960355221901
 21
1640.3049404655339
 31
0.0
  0
LINE
  5
490
  8
DETAIL
  6
CONTINUOUS
 62
     5
 10
-259.49960355221901
 20
1640.3049404655339
 30
0.0
 11
-261.01923911803988
 21
1639.700889911376
 31
0.0
  0
LINE
  5
491
  8
DETAIL
  6
CONTINUOUS
 62
     5
 10
-261.01923911803988
 20
1639.700889911376
 30
0.0
 11
-262.41219361202451
 21
1638.7215691891599
 31
0.0
  0
LINE
  5
492
  8
DETAIL
  6
CONTINUOUS
 62
     5
 10
-262.41219361202451
 20
1638.7215691891599
 30
0.0
 11
-263.62161623431479
 21
1637.4069474192329
 31
0.0
  0
LINE
  5
493
  8
DETAIL
  6
CONTINUOUS
 62
     5
 10
-263.62161623431479
 20
1637.4069474192329
 30
0.0
 11
-264.59814669119248
 21
1635.810678399665
 31
0.0
  0
LINE
  5
494
  8
DETAIL
  6
CONTINUOUS
 62
     5
 10
-262.960293333349
 20
1640.509067671954
 30
0.0
 11
-264.586821969612
 21
1640.3049404655339
 31
0.0
  0
LINE
  5
495
  8
DETAIL
  6
CONTINUOUS
 62
     5
 10
-264.72418203602359
 20
1640.509067671954
 30
0.0
 11
-266.35071067228711
 21
1640.3049404655339
 31
0.0
  0
LINE
  5
496
  8
DETAIL
  6
CONTINUOUS
 62
     5
 10
-266.35071067228711
 20
1640.3049404655339
 30
0.0
 11
-267.9108556225159
 21
1639.700889911376
 31
0.0
  0
LINE
  5
497
  8
DETAIL
  6
CONTINUOUS
 62
     5
 10
-267.9108556225159
 20
1639.700889911376
 30
0.0
 11
-269.34094252537801
 21
1638.7215691891599
 31
0.0
  0
LINE
  5
498
  8
DETAIL
  6
CONTINUOUS
 62
     5
 10
-269.34094252537801
 20
1638.7215691891599
 30
0.0
 11
-270.58260509203188
 21
1637.4069474192329
 31
0.0
  0
LINE
  5
499
  8
DETAIL
  6
CONTINUOUS
 62
     5
 10
-270.58260509203188
 20
1637.4069474192329
 30
0.0
 11
-271.5851672163667
 21
1635.810678399665
 31
0.0
  0
LINE
  5
49A
  8
DETAIL
  6
CONTINUOUS
 62
     5
 10
-269.53244474013212
 20
1640.509067671954
 30
0.0
 11
-271.1992247480411
 21
1640.3049404655339
 31
0.0
  0
LINE
  5
49B
  8
DETAIL
  6
CONTINUOUS
 62
     5
 10
-271.1992247480411
 20
1640.3049404655339
 30
0.0
 11
-272.79797828656501
 21
1639.700889911376
 31
0.0
  0
LINE
  5
49C
  8
DETAIL
  6
CONTINUOUS
 62
     5
 10
-272.79797828656501
 20
1639.700889911376
 30
0.0
 11
-274.26345525756409
 21
1638.7215691891599
 31
0.0
  0
LINE
  5
49D
  8
DETAIL
  6
CONTINUOUS
 62
     5
 10
-274.26345525756409
 20
1638.7215691891599
 30
0.0
 11
-275.5358449939099
 21
1637.4069474192329
 31
0.0
  0
LINE
  5
49E
  8
DETAIL
  6
CONTINUOUS
 62
     5
 10
-275.5358449939099
 20
1637.4069474192329
 30
0.0
 11
-276.5632173182662
 21
1635.810678399665
 31
0.0
  0
LINE
  5
49F
  8
DETAIL
  6
CONTINUOUS
 62
     5
 10
-271.21053047158688
 20
1640.509067671954
 30
0.0
 11
-272.87731047949728
 21
1640.3049404655339
 31
0.0
  0
LINE
  5
4A0
  8
DETAIL
  6
CONTINUOUS
 62
     5
 10
-272.87731047949728
 20
1640.3049404655339
 30
0.0
 11
-274.47606401802022
 21
1639.700889911376
 31
0.0
  0
LINE
  5
4A1
  8
DETAIL
  6
CONTINUOUS
 62
     5
 10
-274.47606401802022
 20
1639.700889911376
 30
0.0
 11
-275.9415409890193
 21
1638.7215691891599
 31
0.0
  0
LINE
  5
4A2
  8
DETAIL
  6
CONTINUOUS
 62
     5
 10
-275.9415409890193
 20
1638.7215691891599
 30
0.0
 11
-277.21393072545601
 21
1637.4069474192329
 31
0.0
  0
LINE
  5
4A3
  8
DETAIL
  6
CONTINUOUS
 62
     5
 10
-277.21393072545601
 20
1637.4069474192329
 30
0.0
 11
-278.24130304972141
 21
1635.810678399665
 31
0.0
  0
LINE
  5
4A4
  8
DETAIL
  6
CONTINUOUS
 62
     5
 10
-275.776212381319
 20
1640.509067671954
 30
0.0
 11
-277.48121304620872
 21
1640.3049404655339
 31
0.0
  0
LINE
  5
4A5
  8
DETAIL
  6
CONTINUOUS
 62
     5
 10
-277.48121304620872
 20
1640.3049404655339
 30
0.0
 11
-279.11662733791388
 21
1639.700889911376
 31
0.0
  0
LINE
  5
4A6
  8
DETAIL
  6
CONTINUOUS
 62
     5
 10
-279.11662733791388
 20
1639.700889911376
 30
0.0
 11
-280.61570891929381
 21
1638.7215691891599
 31
0.0
  0
LINE
  5
4A7
  8
DETAIL
  6
CONTINUOUS
 62
     5
 10
-280.61570891929381
 20
1638.7215691891599
 30
0.0
 11
-281.91727561443213
 21
1637.4069474192329
 31
0.0
  0
LINE
  5
4A8
  8
DETAIL
  6
CONTINUOUS
 62
     5
 10
-281.91727561443213
 20
1637.4069474192329
 30
0.0
 11
-282.96820644382291
 21
1635.810678399665
 31
0.0
  0
LINE
  5
4A9
  8
DETAIL
  6
CONTINUOUS
 62
     5
 10
-277.366450652612
 20
1640.509067671954
 30
0.0
 11
-279.07145131751707
 21
1640.3049404655339
 31
0.0
  0
LINE
  5
4AA
  8
DETAIL
  6
CONTINUOUS
 62
     5
 10
-279.07145131751707
 20
1640.3049404655339
 30
0.0
 11
-280.70686560920689
 21
1639.700889911376
 31
0.0
  0
LINE
  5
4AB
  8
DETAIL
  6
CONTINUOUS
 62
     5
 10
-280.70686560920689
 20
1639.700889911376
 30
0.0
 11
-282.2059471905859
 21
1638.7215691891599
 31
0.0
  0
LINE
  5
4AC
  8
DETAIL
  6
CONTINUOUS
 62
     5
 10
-282.2059471905859
 20
1638.7215691891599
 30
0.0
 11
-283.50751388572507
 21
1637.4069474192329
 31
0.0
  0
LINE
  5
4AD
  8
DETAIL
  6
CONTINUOUS
 62
     5
 10
-283.50751388572507
 20
1637.4069474192329
 30
0.0
 11
-284.55844471511631
 21
1635.810678399665
 31
0.0
  0
LINE
  5
4AE
  8
DETAIL
  6
CONTINUOUS
 62
     5
 10
-281.6839891877857
 20
1640.509067671954
 30
0.0
 11
-283.42513322902403
 21
1640.3049404655339
 31
0.0
  0
LINE
  5
4AF
  8
DETAIL
  6
CONTINUOUS
 62
     5
 10
-283.42513322902403
 20
1640.3049404655339
 30
0.0
 11
-285.09521577356998
 21
1639.700889911376
 31
0.0
  0
LINE
  5
4B0
  8
DETAIL
  6
CONTINUOUS
 62
     5
 10
-285.09521577356998
 20
1639.700889911376
 30
0.0
 11
-286.62607556521601
 21
1638.7215691891599
 31
0.0
  0
LINE
  5
4B1
  8
DETAIL
  6
CONTINUOUS
 62
     5
 10
-286.62607556521601
 20
1638.7215691891599
 30
0.0
 11
-287.955233460621
 21
1637.4069474192329
 31
0.0
  0
LINE
  5
4B2
  8
DETAIL
  6
CONTINUOUS
 62
     5
 10
-287.955233460621
 20
1637.4069474192329
 30
0.0
 11
-289.02844239768081
 21
1635.810678399665
 31
0.0
  0
LINE
  5
4B3
  8
DETAIL
  6
CONTINUOUS
 62
     5
 10
-283.18444253854318
 20
1640.509067671954
 30
0.0
 11
-284.92558657978168
 21
1640.3049404655339
 31
0.0
  0
LINE
  5
4B4
  8
DETAIL
  6
CONTINUOUS
 62
     5
 10
-284.92558657978168
 20
1640.3049404655339
 30
0.0
 11
-286.59566912432808
 21
1639.700889911376
 31
0.0
  0
LINE
  5
4B5
  8
DETAIL
  6
CONTINUOUS
 62
     5
 10
-286.59566912432808
 20
1639.700889911376
 30
0.0
 11
-288.12652891595911
 21
1638.7215691891599
 31
0.0
  0
LINE
  5
4B6
  8
DETAIL
  6
CONTINUOUS
 62
     5
 10
-288.12652891595911
 20
1638.7215691891599
 30
0.0
 11
-289.45568681137769
 21
1637.4069474192329
 31
0.0
  0
LINE
  5
4B7
  8
DETAIL
  6
CONTINUOUS
 62
     5
 10
-289.45568681137769
 20
1637.4069474192329
 30
0.0
 11
-290.52889574843761
 21
1635.810678399665
 31
0.0
  0
LINE
  5
4B8
  8
DETAIL
  6
CONTINUOUS
 62
     5
 10
-287.2485774434922
 20
1640.509067671954
 30
0.0
 11
-289.02374354524892
 21
1640.3049404655339
 31
0.0
  0
LINE
  5
4B9
  8
DETAIL
  6
CONTINUOUS
 62
     5
 10
-289.02374354524892
 20
1640.3049404655339
 30
0.0
 11
-290.72645960427002
 21
1639.700889911376
 31
0.0
  0
LINE
  5
4BA
  8
DETAIL
  6
CONTINUOUS
 62
     5
 10
-290.72645960427002
 20
1639.700889911376
 30
0.0
 11
-292.28723248932192
 21
1638.7215691891599
 31
0.0
  0
LINE
  5
4BB
  8
DETAIL
  6
CONTINUOUS
 62
     5
 10
-292.28723248932192
 20
1638.7215691891599
 30
0.0
 11
-293.64236221102868
 21
1637.4069474192329
 31
0.0
  0
LINE
  5
4BC
  8
DETAIL
  6
CONTINUOUS
 62
     5
 10
-293.64236221102868
 20
1637.4069474192329
 30
0.0
 11
-294.73654171588259
 21
1635.810678399665
 31
0.0
  0
LINE
  5
4BD
  8
DETAIL
  6
CONTINUOUS
 62
     5
 10
-288.65741780247248
 20
1640.509067671954
 30
0.0
 11
-290.43258390412478
 21
1640.3049404655339
 31
0.0
  0
LINE
  5
4BE
  8
DETAIL
  6
CONTINUOUS
 62
     5
 10
-290.43258390412478
 20
1640.3049404655339
 30
0.0
 11
-292.13529996325218
 21
1639.700889911376
 31
0.0
  0
LINE
  5
4BF
  8
DETAIL
  6
CONTINUOUS
 62
     5
 10
-292.13529996325218
 20
1639.700889911376
 30
0.0
 11
-293.69607284830408
 21
1638.7215691891599
 31
0.0
  0
LINE
  5
4C0
  8
DETAIL
  6
CONTINUOUS
 62
     5
 10
-293.69607284830408
 20
1638.7215691891599
 30
0.0
 11
-295.05120256990352
 21
1637.4069474192329
 31
0.0
  0
LINE
  5
4C1
  8
DETAIL
  6
CONTINUOUS
 62
     5
 10
-295.05120256990352
 20
1637.4069474192329
 30
0.0
 11
-296.1453820748647
 21
1635.810678399665
 31
0.0
  0
LINE
  5
4C2
  8
DETAIL
  6
CONTINUOUS
 62
     5
 10
-292.46319755495819
 20
1640.509067671954
 30
0.0
 11
-294.2702229506508
 21
1640.3049404655339
 31
0.0
  0
LINE
  5
4C3
  8
DETAIL
  6
CONTINUOUS
 62
     5
 10
-294.2702229506508
 20
1640.3049404655339
 30
0.0
 11
-296.00349802695558
 21
1639.700889911376
 31
0.0
  0
LINE
  5
4C4
  8
DETAIL
  6
CONTINUOUS
 62
     5
 10
-296.00349802695558
 20
1639.700889911376
 30
0.0
 11
-297.59228244418409
 21
1638.7215691891599
 31
0.0
  0
LINE
  5
4C5
  8
DETAIL
  6
CONTINUOUS
 62
     5
 10
-297.59228244418409
 20
1638.7215691891599
 30
0.0
 11
-298.97173297513569
 21
1637.4069474192329
 31
0.0
  0
LINE
  5
4C6
  8
DETAIL
  6
CONTINUOUS
 62
     5
 10
-293.7787084670349
 20
1640.509067671954
 30
0.0
 11
-295.58573386274293
 21
1640.3049404655339
 31
0.0
  0
LINE
  5
4C7
  8
DETAIL
  6
CONTINUOUS
 62
     5
 10
-295.58573386274293
 20
1640.3049404655339
 30
0.0
 11
-297.31900893913911
 21
1639.700889911376
 31
0.0
  0
LINE
  5
4C8
  8
DETAIL
  6
CONTINUOUS
 62
     5
 10
-297.31900893913911
 20
1639.700889911376
 30
0.0
 11
-298.90779335636682
 21
1638.7215691891599
 31
0.0
  0
LINE
  5
4C9
  8
DETAIL
  6
CONTINUOUS
 62
     5
 10
-297.32149631057013
 20
1640.509067671954
 30
0.0
 11
-299.15817941823337
 21
1640.3049404655339
 31
0.0
  0
LINE
  5
4CA
  8
DETAIL
  6
CONTINUOUS
 62
     5
 10
-236.87160459322101
 20
1640.509067671954
 30
0.0
 11
-243.36354799796109
 21
1640.509067671954
 31
0.0
  0
LINE
  5
4CB
  8
DETAIL
  6
CONTINUOUS
 62
     5
 10
-244.2411428774771
 20
1640.509067671954
 30
0.0
 11
-250.7922038144429
 21
1640.509067671954
 31
0.0
  0
LINE
  5
4CC
  8
DETAIL
  6
CONTINUOUS
 62
     5
 10
-251.31311095163389
 20
1640.509067671954
 30
0.0
 11
-257.91530796217279
 21
1640.509067671954
 31
0.0
  0
LINE
  5
4F3
  8
DETAIL
  6
CONTINUOUS
 62
     5
 10
-229.21347474607629
 20
1640.509067671954
 30
0.0
 11
-229.21347474607629
 21
1640.2189424800019
 31
0.0
  0
LINE
  5
4F4
  8
DETAIL
  6
CONTINUOUS
 62
     5
 10
-221.27608358752281
 20
1640.509067671954
 30
0.0
 11
-221.27608358752281
 21
1640.026773430651
 31
0.0
  0
LINE
  5
4F5
  8
DETAIL
  6
CONTINUOUS
 62
     5
 10
-220.0664914437115
 20
1645.110457817563
 30
0.0
 11
-220.0664914437115
 21
1644.4102462538569
 31
0.0
  0
LINE
  5
4F6
  8
DETAIL
  6
CONTINUOUS
 62
     5
 10
-213.06910160611409
 20
1640.509067671954
 30
0.0
 11
-213.06910160611409
 21
1639.819096996564
 31
0.0
  0
LINE
  5
4F7
  8
DETAIL
  6
CONTINUOUS
 62
     5
 10
-204.6025277451663
 20
1640.509067671954
 30
0.0
 11
-204.6025277451663
 21
1639.5107446021841
 31
0.0
  0
LINE
  5
4F8
  8
DETAIL
  6
CONTINUOUS
 62
     5
 10
-200.06044676696681
 20
1645.810669381241
 30
0.0
 11
-200.06044676696681
 21
1645.110457817563
 31
0.0
  0
LINE
  5
4F9
  8
DETAIL
  6
CONTINUOUS
 62
     5
 10
-195.88667722073021
 20
1640.509067671954
 30
0.0
 11
-195.88667722073021
 21
1639.0741693398611
 31
0.0
  0
LINE
  5
4FA
  8
DETAIL
  6
CONTINUOUS
 62
     5
 10
-186.9321689541452
 20
1640.509067671954
 30
0.0
 11
-186.9321689541452
 21
1638.5235746480889
 31
0.0
  0
LINE
  5
4FB
  8
DETAIL
  6
CONTINUOUS
 62
     5
 10
-180.05440209023789
 20
1646.510880944918
 30
0.0
 11
-180.05440209023789
 21
1645.810669381241
 31
0.0
  0
LINE
  5
4FC
  8
DETAIL
  6
CONTINUOUS
 62
     5
 10
-177.74991263438781
 20
1640.509067671954
 30
0.0
 11
-177.74991263438781
 21
1637.6992787376439
 31
0.0
  0
LINE
  5
4FD
  8
DETAIL
  6
CONTINUOUS
 62
     5
 10
-168.35109542639111
 20
1640.509067671954
 30
0.0
 11
-168.35109542639111
 21
1636.4602145337481
 31
0.0
  0
LINE
  5
4FE
  8
DETAIL
  6
CONTINUOUS
 62
     5
 10
-162.769289818771
 20
1640.3049404655339
 30
0.0
 11
-163.73351242542819
 21
1639.700889911376
 31
0.0
  0
LINE
  5
4FF
  8
DETAIL
  6
CONTINUOUS
 62
     5
 10
-163.73351242542819
 20
1639.700889911376
 30
0.0
 11
-164.61735473816489
 21
1638.7215691891599
 31
0.0
  0
LINE
  5
500
  8
DETAIL
  6
CONTINUOUS
 62
     5
 10
-164.61735473816489
 20
1638.7215691891599
 30
0.0
 11
-165.38474440690831
 21
1637.4069474192329
 31
0.0
  0
LINE
  5
501
  8
DETAIL
  6
CONTINUOUS
 62
     5
 10
-165.38474440690831
 20
1637.4069474192329
 30
0.0
 11
-166.0043618755976
 21
1635.810678399665
 31
0.0
  0
LINE
  5
502
  8
DETAIL
  6
CONTINUOUS
 62
     5
 10
-164.36290127575191
 20
1640.509067671954
 30
0.0
 11
-165.36815125662159
 21
1640.3049404655339
 31
0.0
  0
LINE
  5
503
  8
DETAIL
  6
CONTINUOUS
 62
     5
 10
-165.36815125662159
 20
1640.3049404655339
 30
0.0
 11
-166.332373863263
 21
1639.700889911376
 31
0.0
  0
LINE
  5
504
  8
DETAIL
  6
CONTINUOUS
 62
     5
 10
-166.332373863263
 20
1639.700889911376
 30
0.0
 11
-167.21621617610799
 21
1638.7215691891599
 31
0.0
  0
LINE
  5
505
  8
DETAIL
  6
CONTINUOUS
 62
     5
 10
-167.21621617610799
 20
1638.7215691891599
 30
0.0
 11
-167.98360584486451
 21
1637.4069474192329
 31
0.0
  0
LINE
  5
506
  8
DETAIL
  6
CONTINUOUS
 62
     5
 10
-167.98360584486451
 20
1637.4069474192329
 30
0.0
 11
-168.60322331354061
 21
1635.810678399665
 31
0.0
  0
LINE
  5
507
  8
DETAIL
  6
CONTINUOUS
 62
     5
 10
-171.54849207405999
 20
1640.509067671954
 30
0.0
 11
-172.6138947346011
 21
1640.3049404655339
 31
0.0
  0
LINE
  5
508
  8
DETAIL
  6
CONTINUOUS
 62
     5
 10
-172.6138947346011
 20
1640.3049404655339
 30
0.0
 11
-173.63581500316411
 21
1639.700889911376
 31
0.0
  0
LINE
  5
509
  8
DETAIL
  6
CONTINUOUS
 62
     5
 10
-173.63581500316411
 20
1639.700889911376
 30
0.0
 11
-174.57254513926441
 21
1638.7215691891599
 31
0.0
  0
LINE
  5
50A
  8
DETAIL
  6
CONTINUOUS
 62
     5
 10
-174.57254513926441
 20
1638.7215691891599
 30
0.0
 11
-175.3858542766406
 21
1637.4069474192329
 31
0.0
  0
LINE
  5
50B
  8
DETAIL
  6
CONTINUOUS
 62
     5
 10
-175.3858542766406
 20
1637.4069474192329
 30
0.0
 11
-176.0425487428578
 21
1635.810678399665
 31
0.0
  0
LINE
  5
50C
  8
DETAIL
  6
CONTINUOUS
 62
     5
 10
-174.0934052890529
 20
1640.509067671954
 30
0.0
 11
-175.15880794948859
 21
1640.3049404655339
 31
0.0
  0
LINE
  5
50D
  8
DETAIL
  6
CONTINUOUS
 62
     5
 10
-175.15880794948859
 20
1640.3049404655339
 30
0.0
 11
-176.18072821805069
 21
1639.700889911376
 31
0.0
  0
LINE
  5
50E
  8
DETAIL
  6
CONTINUOUS
 62
     5
 10
-176.18072821805069
 20
1639.700889911376
 30
0.0
 11
-177.11745835425779
 21
1638.7215691891599
 31
0.0
  0
LINE
  5
50F
  8
DETAIL
  6
CONTINUOUS
 62
     5
 10
-177.11745835425779
 20
1638.7215691891599
 30
0.0
 11
-177.930767491528
 21
1637.4069474192329
 31
0.0
  0
LINE
  5
510
  8
DETAIL
  6
CONTINUOUS
 62
     5
 10
-177.930767491528
 20
1637.4069474192329
 30
0.0
 11
-178.58746195776069
 21
1635.810678399665
 31
0.0
  0
LINE
  5
511
  8
DETAIL
  6
CONTINUOUS
 62
     5
 10
-181.12393889778281
 20
1640.509067671954
 30
0.0
 11
-182.2481962088259
 21
1640.3049404655339
 31
0.0
  0
LINE
  5
512
  8
DETAIL
  6
CONTINUOUS
 62
     5
 10
-182.2481962088259
 20
1640.3049404655339
 30
0.0
 11
-183.32656908682381
 21
1639.700889911376
 31
0.0
  0
LINE
  5
513
  8
DETAIL
  6
CONTINUOUS
 62
     5
 10
-183.32656908682381
 20
1639.700889911376
 30
0.0
 11
-184.31504578506281
 21
1638.7215691891599
 31
0.0
  0
LINE
  5
514
  8
DETAIL
  6
CONTINUOUS
 62
     5
 10
-184.31504578506281
 20
1638.7215691891599
 30
0.0
 11
-185.17328349895999
 21
1637.4069474192329
 31
0.0
  0
LINE
  5
515
  8
DETAIL
  6
CONTINUOUS
 62
     5
 10
-185.17328349895999
 20
1637.4069474192329
 30
0.0
 11
-185.86625488167491
 21
1635.810678399665
 31
0.0
  0
LINE
  5
516
  8
DETAIL
  6
CONTINUOUS
 62
     5
 10
-183.61180330501111
 20
1640.509067671954
 30
0.0
 11
-184.7360606161441
 21
1640.3049404655339
 31
0.0
  0
LINE
  5
517
  8
DETAIL
  6
CONTINUOUS
 62
     5
 10
-184.7360606161441
 20
1640.3049404655339
 30
0.0
 11
-185.814433494143
 21
1639.700889911376
 31
0.0
  0
LINE
  5
518
  8
DETAIL
  6
CONTINUOUS
 62
     5
 10
-185.814433494143
 20
1639.700889911376
 30
0.0
 11
-186.8029101922761
 21
1638.7215691891599
 31
0.0
  0
LINE
  5
519
  8
DETAIL
  6
CONTINUOUS
 62
     5
 10
-186.8029101922761
 20
1638.7215691891599
 30
0.0
 11
-187.66114790627799
 21
1637.4069474192329
 31
0.0
  0
LINE
  5
51A
  8
DETAIL
  6
CONTINUOUS
 62
     5
 10
-187.66114790627799
 20
1637.4069474192329
 30
0.0
 11
-188.3541192889019
 21
1635.810678399665
 31
0.0
  0
LINE
  5
51B
  8
DETAIL
  6
CONTINUOUS
 62
     5
 10
-190.47871410193011
 20
1640.509067671954
 30
0.0
 11
-191.66045632909791
 21
1640.3049404655339
 31
0.0
  0
LINE
  5
51C
  8
DETAIL
  6
CONTINUOUS
 62
     5
 10
-191.66045632909791
 20
1640.3049404655339
 30
0.0
 11
-192.79396798537661
 21
1639.700889911376
 31
0.0
  0
LINE
  5
51D
  8
DETAIL
  6
CONTINUOUS
 62
     5
 10
-192.79396798537661
 20
1639.700889911376
 30
0.0
 11
-193.83298693896671
 21
1638.7215691891599
 31
0.0
  0
LINE
  5
51E
  8
DETAIL
  6
CONTINUOUS
 62
     5
 10
-193.83298693896671
 20
1638.7215691891599
 30
0.0
 11
-194.7351075990891
 21
1637.4069474192329
 31
0.0
  0
LINE
  5
51F
  8
DETAIL
  6
CONTINUOUS
 62
     5
 10
-194.7351075990891
 20
1637.4069474192329
 30
0.0
 11
-195.46351161940811
 21
1635.810678399665
 31
0.0
  0
LINE
  5
520
  8
DETAIL
  6
CONTINUOUS
 62
     5
 10
-192.90649862195411
 20
1640.509067671954
 30
0.0
 11
-194.08824084922799
 21
1640.3049404655339
 31
0.0
  0
LINE
  5
521
  8
DETAIL
  6
CONTINUOUS
 62
     5
 10
-194.08824084922799
 20
1640.3049404655339
 30
0.0
 11
-195.2217525054011
 21
1639.700889911376
 31
0.0
  0
LINE
  5
522
  8
DETAIL
  6
CONTINUOUS
 62
     5
 10
-195.2217525054011
 20
1639.700889911376
 30
0.0
 11
-196.26077145909809
 21
1638.7215691891599
 31
0.0
  0
LINE
  5
523
  8
DETAIL
  6
CONTINUOUS
 62
     5
 10
-196.26077145909809
 20
1638.7215691891599
 30
0.0
 11
-197.16289211921909
 21
1637.4069474192329
 31
0.0
  0
LINE
  5
524
  8
DETAIL
  6
CONTINUOUS
 62
     5
 10
-197.16289211921909
 20
1637.4069474192329
 30
0.0
 11
-197.89129613943209
 21
1635.810678399665
 31
0.0
  0
LINE
  5
525
  8
DETAIL
  6
CONTINUOUS
 62
     5
 10
-199.60142033387271
 20
1640.509067671954
 30
0.0
 11
-200.83920770647089
 21
1640.3049404655339
 31
0.0
  0
LINE
  5
526
  8
DETAIL
  6
CONTINUOUS
 62
     5
 10
-200.83920770647089
 20
1640.3049404655339
 30
0.0
 11
-202.02647713153229
 21
1639.700889911376
 31
0.0
  0
LINE
  5
527
  8
DETAIL
  6
CONTINUOUS
 62
     5
 10
-202.02647713153229
 20
1639.700889911376
 30
0.0
 11
-203.1147724560237
 21
1638.7215691891599
 31
0.0
  0
LINE
  5
528
  8
DETAIL
  6
CONTINUOUS
 62
     5
 10
-203.1147724560237
 20
1638.7215691891599
 30
0.0
 11
-204.05967696735931
 21
1637.4069474192329
 31
0.0
  0
LINE
  5
529
  8
DETAIL
  6
CONTINUOUS
 62
     5
 10
-204.05967696735931
 20
1637.4069474192329
 30
0.0
 11
-204.82262617715421
 21
1635.810678399665
 31
0.0
  0
LINE
  5
52A
  8
DETAIL
  6
CONTINUOUS
 62
     5
 10
-201.96616708521009
 20
1640.509067671954
 30
0.0
 11
-203.20395445780741
 21
1640.3049404655339
 31
0.0
  0
LINE
  5
52B
  8
DETAIL
  6
CONTINUOUS
 62
     5
 10
-203.20395445780741
 20
1640.3049404655339
 30
0.0
 11
-204.3912238829748
 21
1639.700889911376
 31
0.0
  0
LINE
  5
52C
  8
DETAIL
  6
CONTINUOUS
 62
     5
 10
-204.3912238829748
 20
1639.700889911376
 30
0.0
 11
-205.4795192074661
 21
1638.7215691891599
 31
0.0
  0
LINE
  5
52D
  8
DETAIL
  6
CONTINUOUS
 62
     5
 10
-205.4795192074661
 20
1638.7215691891599
 30
0.0
 11
-206.42442371869541
 21
1637.4069474192329
 31
0.0
  0
LINE
  5
52E
  8
DETAIL
  6
CONTINUOUS
 62
     5
 10
-206.42442371869541
 20
1637.4069474192329
 30
0.0
 11
-207.1873729284907
 21
1635.810678399665
 31
0.0
  0
LINE
  5
52F
  8
DETAIL
  6
CONTINUOUS
 62
     5
 10
-208.4809429814058
 20
1640.509067671954
 30
0.0
 11
-209.77326744607061
 21
1640.3049404655339
 31
0.0
  0
LINE
  5
530
  8
DETAIL
  6
CONTINUOUS
 62
     5
 10
-209.77326744607061
 20
1640.3049404655339
 30
0.0
 11
-211.01284813521031
 21
1639.700889911376
 31
0.0
  0
LINE
  5
531
  8
DETAIL
  6
CONTINUOUS
 62
     5
 10
-211.01284813521031
 20
1639.700889911376
 30
0.0
 11
-212.14909391036869
 21
1638.7215691891599
 31
0.0
  0
LINE
  5
532
  8
DETAIL
  6
CONTINUOUS
 62
     5
 10
-212.14909391036869
 20
1638.7215691891599
 30
0.0
 11
-213.13563105209499
 21
1637.4069474192329
 31
0.0
  0
LINE
  5
533
  8
DETAIL
  6
CONTINUOUS
 62
     5
 10
-213.13563105209499
 20
1637.4069474192329
 30
0.0
 11
-213.932195915298
 21
1635.810678399665
 31
0.0
  0
LINE
  5
534
  8
DETAIL
  6
CONTINUOUS
 62
     5
 10
-210.77977088446909
 20
1640.509067671954
 30
0.0
 11
-212.07209534913451
 21
1640.3049404655339
 31
0.0
  0
LINE
  5
535
  8
DETAIL
  6
CONTINUOUS
 62
     5
 10
-212.07209534913451
 20
1640.3049404655339
 30
0.0
 11
-213.31167603816809
 21
1639.700889911376
 31
0.0
  0
LINE
  5
536
  8
DETAIL
  6
CONTINUOUS
 62
     5
 10
-213.31167603816809
 20
1639.700889911376
 30
0.0
 11
-214.44792181332741
 21
1638.7215691891599
 31
0.0
  0
LINE
  5
537
  8
DETAIL
  6
CONTINUOUS
 62
     5
 10
-214.44792181332741
 20
1638.7215691891599
 30
0.0
 11
-215.43445895514421
 21
1637.4069474192329
 31
0.0
  0
LINE
  5
538
  8
DETAIL
  6
CONTINUOUS
 62
     5
 10
-215.43445895514421
 20
1637.4069474192329
 30
0.0
 11
-216.23102381836171
 21
1635.810678399665
 31
0.0
  0
LINE
  5
539
  8
DETAIL
  6
CONTINUOUS
 62
     5
 10
-217.10646371397789
 20
1640.509067671954
 30
0.0
 11
-218.45175077249721
 21
1640.3049404655339
 31
0.0
  0
LINE
  5
53A
  8
DETAIL
  6
CONTINUOUS
 62
     5
 10
-218.45175077249721
 20
1640.3049404655339
 30
0.0
 11
-219.74213248737391
 21
1639.700889911376
 31
0.0
  0
LINE
  5
53B
  8
DETAIL
  6
CONTINUOUS
 62
     5
 10
-219.74213248737391
 20
1639.700889911376
 30
0.0
 11
-220.92494437273081
 21
1638.7215691891599
 31
0.0
  0
LINE
  5
53C
  8
DETAIL
  6
CONTINUOUS
 62
     5
 10
-220.92494437273081
 20
1638.7215691891599
 30
0.0
 11
-221.95191220147581
 21
1637.4069474192329
 31
0.0
  0
LINE
  5
53D
  8
DETAIL
  6
CONTINUOUS
 62
     5
 10
-221.95191220147581
 20
1637.4069474192329
 30
0.0
 11
-222.78112222658589
 21
1635.810678399665
 31
0.0
  0
LINE
  5
53E
  8
DETAIL
  6
CONTINUOUS
 62
     5
 10
-219.33657200091321
 20
1640.509067671954
 30
0.0
 11
-220.6818590594321
 21
1640.3049404655339
 31
0.0
  0
LINE
  5
53F
  8
DETAIL
  6
CONTINUOUS
 62
     5
 10
-220.6818590594321
 20
1640.3049404655339
 30
0.0
 11
-221.9722407743088
 21
1639.700889911376
 31
0.0
  0
LINE
  5
540
  8
DETAIL
  6
CONTINUOUS
 62
     5
 10
-221.9722407743088
 20
1639.700889911376
 30
0.0
 11
-223.15505265966701
 21
1638.7215691891599
 31
0.0
  0
LINE
  5
541
  8
DETAIL
  6
CONTINUOUS
 62
     5
 10
-223.15505265966701
 20
1638.7215691891599
 30
0.0
 11
-224.18202048841201
 21
1637.4069474192329
 31
0.0
  0
LINE
  5
542
  8
DETAIL
  6
CONTINUOUS
 62
     5
 10
-224.18202048841201
 20
1637.4069474192329
 30
0.0
 11
-225.0112305135217
 21
1635.810678399665
 31
0.0
  0
LINE
  5
543
  8
DETAIL
  6
CONTINUOUS
 62
     5
 10
-225.4674736631809
 20
1640.509067671954
 30
0.0
 11
-226.8640842904278
 21
1640.3049404655339
 31
0.0
  0
LINE
  5
544
  8
DETAIL
  6
CONTINUOUS
 62
     5
 10
-226.8640842904278
 20
1640.3049404655339
 30
0.0
 11
-228.203694899852
 21
1639.700889911376
 31
0.0
  0
LINE
  5
545
  8
DETAIL
  6
CONTINUOUS
 62
     5
 10
-228.203694899852
 20
1639.700889911376
 30
0.0
 11
-229.43163182131499
 21
1638.7215691891599
 31
0.0
  0
LINE
  5
546
  8
DETAIL
  6
CONTINUOUS
 62
     5
 10
-229.43163182131499
 20
1638.7215691891599
 30
0.0
 11
-230.49777913494609
 21
1637.4069474192329
 31
0.0
  0
LINE
  5
547
  8
DETAIL
  6
CONTINUOUS
 62
     5
 10
-227.6261452906646
 20
1640.509067671954
 30
0.0
 11
-229.02275591791201
 21
1640.3049404655339
 31
0.0
  0
LINE
  5
548
  8
DETAIL
  6
CONTINUOUS
 62
     5
 10
-229.02275591791201
 20
1640.3049404655339
 30
0.0
 11
-230.36236652733569
 21
1639.700889911376
 31
0.0
  0
LINE
  5
550
  8
DETAIL
  6
CONTINUOUS
 62
     5
 10
-168.35109542639111
 20
1640.509067671954
 30
0.0
 11
-174.0934052890529
 21
1640.509067671954
 31
0.0
  0
LINE
  5
551
  8
DETAIL
  6
CONTINUOUS
 62
     5
 10
-177.74991263438781
 20
1640.509067671954
 30
0.0
 11
-183.61180330501111
 21
1640.509067671954
 31
0.0
  0
LINE
  5
552
  8
DETAIL
  6
CONTINUOUS
 62
     5
 10
-186.9321689541452
 20
1640.509067671954
 30
0.0
 11
-192.90649862195411
 21
1640.509067671954
 31
0.0
  0
LINE
  5
553
  8
DETAIL
  6
CONTINUOUS
 62
     5
 10
-195.88667722073021
 20
1640.509067671954
 30
0.0
 11
-201.96616708521009
 21
1640.509067671954
 31
0.0
  0
LINE
  5
554
  8
DETAIL
  6
CONTINUOUS
 62
     5
 10
-204.6025277451663
 20
1640.509067671954
 30
0.0
 11
-210.77977088446909
 21
1640.509067671954
 31
0.0
  0
LINE
  5
555
  8
DETAIL
  6
CONTINUOUS
 62
     5
 10
-213.06910160611409
 20
1640.509067671954
 30
0.0
 11
-219.33657200091321
 21
1640.509067671954
 31
0.0
  0
LINE
  5
556
  8
DETAIL
  6
CONTINUOUS
 62
     5
 10
-221.27608358752281
 20
1640.509067671954
 30
0.0
 11
-227.6261452906646
 21
1640.509067671954
 31
0.0
  0
LINE
  5
557
  8
NOTE
  6
CONTINUOUS
 62
     4
 10
-253.50232256261179
 20
1736.4780491351651
 30
0.0
 11
-203.48721087078181
 21
1786.389174763086
 31
0.0
  0
LINE
  5
558
  8
NOTE
  6
CONTINUOUS
 62
     4
 10
-253.50232256261179
 20
1736.4780491351651
 30
0.0
 11
-228.494766716697
 21
1736.4780491351651
 31
0.0
  0
LINE
  5
559
  8
NOTE
  6
CONTINUOUS
 62
     4
 10
-203.48721087078181
 20
1786.389174763086
 30
0.0
 11
-153.4720991789508
 21
1736.4780491351651
 31
0.0
  0
LINE
  5
55A
  8
NOTE
  6
CONTINUOUS
 62
     4
 10
-178.4796550248661
 20
1736.4780491351651
 30
0.0
 11
-153.4720991789508
 21
1736.4780491351651
 31
0.0
  0
LINE
  5
55B
  8
NOTE
  6
CONTINUOUS
 62
     4
 10
229.595497350394
 20
1736.4780491351651
 30
0.0
 11
229.595497350394
 21
1695.779665001352
 31
0.0
  0
LINE
  5
55C
  8
NOTE
  6
CONTINUOUS
 62
     4
 10
179.5803856585639
 20
1736.4780491351651
 30
0.0
 11
179.5803856585639
 21
1695.779665001352
 31
0.0
  0
LINE
  5
560
  8
DETAIL
  6
CONTINUOUS
 62
     5
 10
108.0683565577182
 20
1640.509067671954
 30
0.0
 11
112.9519480841586
 21
1640.509067671954
 31
0.0
  0
LINE
  5
561
  8
DETAIL
  6
CONTINUOUS
 62
     5
 10
-160.04835741350769
 20
1647.211092508624
 30
0.0
 11
160.04835741420669
 21
1647.211092508624
 31
0.0
  0
LINE
  5
562
  8
DETAIL
  6
CONTINUOUS
 62
     5
 10
-140.04231273677891
 20
1647.9113040723009
 30
0.0
 11
140.04231273747831
 21
1647.9113040723009
 31
0.0
  0
LINE
  5
563
  8
DETAIL
  6
CONTINUOUS
 62
     5
 10
-120.0362680600492
 20
1648.6115156359781
 30
0.0
 11
120.0362680607486
 21
1648.6115156359781
 31
0.0
  0
LINE
  5
564
  8
DETAIL
  6
CONTINUOUS
 62
     5
 10
110.8196496861587
 20
1640.3049404655339
 30
0.0
 11
111.4792167944242
 21
1639.700889911376
 31
0.0
  0
LINE
  5
567
  8
DETAIL
  6
CONTINUOUS
 62
     5
 10
-100.0302233833053
 20
1649.311727199655
 30
0.0
 11
100.0302233840202
 21
1649.311727199655
 31
0.0
  0
LINE
  5
568
  8
DETAIL
  6
CONTINUOUS
 62
     5
 10
80.024178707275013
 20
1649.999967264778
 30
0.0
 11
-80.024178706574702
 21
1649.999967264778
 31
0.0
  0
LINE
  5
67F
  8
DETAIL
  6
CONTINUOUS
 62
     5
 10
-102.2057830640978
 20
1640.509067671954
 30
0.0
 11
-102.82706171948981
 21
1640.3049404655339
 31
0.0
  0
LINE
  5
680
  8
DETAIL
  6
CONTINUOUS
 62
     5
 10
-102.82706171948981
 20
1640.3049404655339
 30
0.0
 11
-103.4229840631678
 21
1639.700889911376
 31
0.0
  0
LINE
  5
681
  8
DETAIL
  6
CONTINUOUS
 62
     5
 10
-103.4229840631678
 20
1639.700889911376
 30
0.0
 11
-103.9692286530812
 21
1638.7215691891599
 31
0.0
  0
LINE
  5
682
  8
DETAIL
  6
CONTINUOUS
 62
     5
 10
-103.9692286530812
 20
1638.7215691891599
 30
0.0
 11
-104.44350155099301
 21
1637.4069474192329
 31
0.0
  0
LINE
  5
683
  8
DETAIL
  6
CONTINUOUS
 62
     5
 10
-104.44350155099301
 20
1637.4069474192329
 30
0.0
 11
-104.8264462067586
 21
1635.810678399665
 31
0.0
  0
LINE
  5
684
  8
DETAIL
  6
CONTINUOUS
 62
     5
 10
-99.351751190818035
 20
1640.509067671954
 30
0.0
 11
-99.973029846210011
 21
1640.3049404655339
 31
0.0
  0
LINE
  5
685
  8
DETAIL
  6
CONTINUOUS
 62
     5
 10
-99.973029846210011
 20
1640.3049404655339
 30
0.0
 11
-100.56895218988799
 21
1639.700889911376
 31
0.0
  0
LINE
  5
686
  8
DETAIL
  6
CONTINUOUS
 62
     5
 10
-100.56895218988799
 20
1639.700889911376
 30
0.0
 11
-101.1151967799069
 21
1638.7215691891599
 31
0.0
  0
LINE
  5
687
  8
DETAIL
  6
CONTINUOUS
 62
     5
 10
-101.1151967799069
 20
1638.7215691891599
 30
0.0
 11
-101.5894696778186
 21
1637.4069474192329
 31
0.0
  0
LINE
  5
688
  8
DETAIL
  6
CONTINUOUS
 62
     5
 10
-101.5894696778186
 20
1637.4069474192329
 30
0.0
 11
-101.9724143334779
 21
1635.810678399665
 31
0.0
  0
LINE
  5
689
  8
DETAIL
  6
CONTINUOUS
 62
     5
 10
-112.9519480834601
 20
1640.509067671954
 30
0.0
 11
-113.6395795685652
 21
1640.3049404655339
 31
0.0
  0
LINE
  5
68A
  8
DETAIL
  6
CONTINUOUS
 62
     5
 10
-113.6395795685652
 20
1640.3049404655339
 30
0.0
 11
-114.2991466768312
 21
1639.700889911376
 31
0.0
  0
LINE
  5
68B
  8
DETAIL
  6
CONTINUOUS
 62
     5
 10
-114.2991466768312
 20
1639.700889911376
 30
0.0
 11
-114.9037304257858
 21
1638.7215691891599
 31
0.0
  0
LINE
  5
68C
  8
DETAIL
  6
CONTINUOUS
 62
     5
 10
-114.9037304257858
 20
1638.7215691891599
 30
0.0
 11
-115.4286558747967
 21
1637.4069474192329
 31
0.0
  0
LINE
  5
68D
  8
DETAIL
  6
CONTINUOUS
 62
     5
 10
-115.4286558747967
 20
1637.4069474192329
 30
0.0
 11
-115.85249918567879
 21
1635.810678399665
 31
0.0
  0
LINE
  5
68E
  8
DETAIL
  6
CONTINUOUS
 62
     5
 10
-110.1320182004456
 20
1640.509067671954
 30
0.0
 11
-110.8196496854452
 21
1640.3049404655339
 31
0.0
  0
LINE
  5
68F
  8
DETAIL
  6
CONTINUOUS
 62
     5
 10
-110.8196496854452
 20
1640.3049404655339
 30
0.0
 11
-111.4792167937252
 21
1639.700889911376
 31
0.0
  0
LINE
  5
690
  8
DETAIL
  6
CONTINUOUS
 62
     5
 10
-111.4792167937252
 20
1639.700889911376
 30
0.0
 11
-112.08380054268081
 21
1638.7215691891599
 31
0.0
  0
LINE
  5
691
  8
DETAIL
  6
CONTINUOUS
 62
     5
 10
-112.08380054268081
 20
1638.7215691891599
 30
0.0
 11
-112.608725991678
 21
1637.4069474192329
 31
0.0
  0
LINE
  5
692
  8
DETAIL
  6
CONTINUOUS
 62
     5
 10
-112.608725991678
 20
1637.4069474192329
 30
0.0
 11
-113.0325693025588
 21
1635.810678399665
 31
0.0
  0
LINE
  5
6C0
  8
DETAIL
  6
CONTINUOUS
 62
     5
 10
-160.04835741350769
 20
1647.211092508624
 30
0.0
 11
-160.04835741350769
 21
1646.510880944918
 31
0.0
  0
LINE
  5
6C1
  8
DETAIL
  6
CONTINUOUS
 62
     5
 10
-158.7471683411608
 20
1640.509067671954
 30
0.0
 11
-158.7471683411608
 21
1634.588176280593
 31
0.0
  0
LINE
  5
6C2
  8
DETAIL
  6
CONTINUOUS
 62
     5
 10
-148.94983228437511
 20
1640.509067671954
 30
0.0
 11
-148.94983228437511
 21
1632.5066498012391
 31
0.0
  0
LINE
  5
6C3
  8
DETAIL
  6
CONTINUOUS
 62
     5
 10
-140.04231273677891
 20
1647.9113040723009
 30
0.0
 11
-140.04231273677891
 21
1647.211092508624
 31
0.0
  0
LINE
  5
6C4
  8
DETAIL
  6
CONTINUOUS
 62
     5
 10
-138.97102380084181
 20
1640.509067671954
 30
0.0
 11
-138.97102380084181
 21
1632.5066498012391
 31
0.0
  0
LINE
  5
6C5
  8
DETAIL
  6
CONTINUOUS
 62
     5
 10
-128.82290053171519
 20
1640.509067671954
 30
0.0
 11
-128.82290053171519
 21
1632.5066498012391
 31
0.0
  0
LINE
  5
6C6
  8
DETAIL
  6
CONTINUOUS
 62
     5
 10
-120.0362680600492
 20
1648.6115156359781
 30
0.0
 11
-120.0362680600492
 21
1647.9113040723009
 31
0.0
  0
LINE
  5
6C7
  8
DETAIL
  6
CONTINUOUS
 62
     5
 10
-118.51782640195501
 20
1640.509067671954
 30
0.0
 11
-118.51782640195501
 21
1632.5066498012391
 31
0.0
  0
LINE
  5
6C8
  8
DETAIL
  6
CONTINUOUS
 62
     5
 10
-108.0683565569129
 20
1640.509067671954
 30
0.0
 11
-108.0683565569129
 21
1632.5066498012391
 31
0.0
  0
LINE
  5
6C9
  8
DETAIL
  6
CONTINUOUS
 62
     5
 10
-100.0302233833053
 20
1649.311727199655
 30
0.0
 11
-100.0302233833053
 21
1648.6115156359781
 31
0.0
  0
LINE
  5
6CA
  8
DETAIL
  6
CONTINUOUS
 62
     5
 10
-97.487222066192317
 20
1640.509067671954
 30
0.0
 11
-97.487222066192317
 21
1632.5066498012391
 31
0.0
  0
LINE
  5
6CB
  8
DETAIL
  6
CONTINUOUS
 62
     5
 10
-120.7781063103197
 20
1640.509067671954
 30
0.0
 11
-121.5312528520212
 21
1640.3049404655339
 31
0.0
  0
LINE
  5
6CC
  8
DETAIL
  6
CONTINUOUS
 62
     5
 10
-121.5312528520212
 20
1640.3049404655339
 30
0.0
 11
-122.2536611439759
 21
1639.700889911376
 31
0.0
  0
LINE
  5
6CD
  8
DETAIL
  6
CONTINUOUS
 62
     5
 10
-122.2536611439759
 20
1639.700889911376
 30
0.0
 11
-122.91584745980791
 21
1638.7215691891599
 31
0.0
  0
LINE
  5
6CE
  8
DETAIL
  6
CONTINUOUS
 62
     5
 10
-122.91584745980791
 20
1638.7215691891599
 30
0.0
 11
-123.4907859190748
 21
1637.4069474192329
 31
0.0
  0
LINE
  5
6CF
  8
DETAIL
  6
CONTINUOUS
 62
     5
 10
-123.4907859190748
 20
1637.4069474192329
 30
0.0
 11
-123.9550114973562
 21
1635.810678399665
 31
0.0
  0
LINE
  5
6D0
  8
DETAIL
  6
CONTINUOUS
 62
     5
 10
-123.560498553024
 20
1640.509067671954
 30
0.0
 11
-124.3136450947104
 21
1640.3049404655339
 31
0.0
  0
LINE
  5
6D1
  8
DETAIL
  6
CONTINUOUS
 62
     5
 10
-124.3136450947104
 20
1640.3049404655339
 30
0.0
 11
-125.0360533866796
 21
1639.700889911376
 31
0.0
  0
LINE
  5
6D2
  8
DETAIL
  6
CONTINUOUS
 62
     5
 10
-125.0360533866796
 20
1639.700889911376
 30
0.0
 11
-125.6982397025117
 21
1638.7215691891599
 31
0.0
  0
LINE
  5
6D3
  8
DETAIL
  6
CONTINUOUS
 62
     5
 10
-125.6982397025117
 20
1638.7215691891599
 30
0.0
 11
-126.2731781617631
 21
1637.4069474192329
 31
0.0
  0
LINE
  5
6D4
  8
DETAIL
  6
CONTINUOUS
 62
     5
 10
-126.2731781617631
 20
1637.4069474192329
 30
0.0
 11
-126.73740374006
 21
1635.810678399665
 31
0.0
  0
LINE
  5
6D5
  8
DETAIL
  6
CONTINUOUS
 62
     5
 10
-131.27704490207481
 20
1640.509067671954
 30
0.0
 11
-132.09478890740999
 21
1640.3049404655339
 31
0.0
  0
LINE
  5
6D6
  8
DETAIL
  6
CONTINUOUS
 62
     5
 10
-132.09478890740999
 20
1640.3049404655339
 30
0.0
 11
-132.87915823983121
 21
1639.700889911376
 31
0.0
  0
LINE
  5
6D7
  8
DETAIL
  6
CONTINUOUS
 62
     5
 10
-132.87915823983121
 20
1639.700889911376
 30
0.0
 11
-133.5981403505038
 21
1638.7215691891599
 31
0.0
  0
LINE
  5
6D8
  8
DETAIL
  6
CONTINUOUS
 62
     5
 10
-133.5981403505038
 20
1638.7215691891599
 30
0.0
 11
-134.22239134605971
 21
1637.4069474192329
 31
0.0
  0
LINE
  5
6D9
  8
DETAIL
  6
CONTINUOUS
 62
     5
 10
-134.22239134605971
 20
1637.4069474192329
 30
0.0
 11
-134.72643360445809
 21
1635.810678399665
 31
0.0
  0
LINE
  5
6DA
  8
DETAIL
  6
CONTINUOUS
 62
     5
 10
-134.01850958801239
 20
1640.509067671954
 30
0.0
 11
-134.83625359345291
 21
1640.3049404655339
 31
0.0
  0
LINE
  5
6DB
  8
DETAIL
  6
CONTINUOUS
 62
     5
 10
-134.83625359345291
 20
1640.3049404655339
 30
0.0
 11
-135.62062292578321
 21
1639.700889911376
 31
0.0
  0
LINE
  5
6DC
  8
DETAIL
  6
CONTINUOUS
 62
     5
 10
-135.62062292578321
 20
1639.700889911376
 30
0.0
 11
-136.33960503644121
 21
1638.7215691891599
 31
0.0
  0
LINE
  5
6DD
  8
DETAIL
  6
CONTINUOUS
 62
     5
 10
-136.33960503644121
 20
1638.7215691891599
 30
0.0
 11
-136.9638560320131
 21
1637.4069474192329
 31
0.0
  0
LINE
  5
6DE
  8
DETAIL
  6
CONTINUOUS
 62
     5
 10
-136.9638560320131
 20
1637.4069474192329
 30
0.0
 11
-137.467898290411
 21
1635.810678399665
 31
0.0
  0
LINE
  5
6DF
  8
DETAIL
  6
CONTINUOUS
 62
     5
 10
-141.61604263639299
 20
1640.509067671954
 30
0.0
 11
-142.49738781024681
 21
1640.3049404655339
 31
0.0
  0
LINE
  5
6E0
  8
DETAIL
  6
CONTINUOUS
 62
     5
 10
-142.49738781024681
 20
1640.3049404655339
 30
0.0
 11
-143.34276254990019
 21
1639.700889911376
 31
0.0
  0
LINE
  5
6E1
  8
DETAIL
  6
CONTINUOUS
 62
     5
 10
-143.34276254990019
 20
1639.700889911376
 30
0.0
 11
-144.11766448631889
 21
1638.7215691891599
 31
0.0
  0
LINE
  5
6E2
  8
DETAIL
  6
CONTINUOUS
 62
     5
 10
-144.11766448631889
 20
1638.7215691891599
 30
0.0
 11
-144.7904674646079
 21
1637.4069474192329
 31
0.0
  0
LINE
  5
6E3
  8
DETAIL
  6
CONTINUOUS
 62
     5
 10
-144.7904674646079
 20
1637.4069474192329
 30
0.0
 11
-145.33371230527291
 21
1635.810678399665
 31
0.0
  0
LINE
  5
6E4
  8
DETAIL
  6
CONTINUOUS
 62
     5
 10
-144.31323971321351
 20
1640.509067671954
 30
0.0
 11
-145.1945848870682
 21
1640.3049404655339
 31
0.0
  0
LINE
  5
6E5
  8
DETAIL
  6
CONTINUOUS
 62
     5
 10
-145.1945848870682
 20
1640.3049404655339
 30
0.0
 11
-146.03995962672019
 21
1639.700889911376
 31
0.0
  0
LINE
  5
6E6
  8
DETAIL
  6
CONTINUOUS
 62
     5
 10
-146.03995962672019
 20
1639.700889911376
 30
0.0
 11
-146.8148615631398
 21
1638.7215691891599
 31
0.0
  0
LINE
  5
6E7
  8
DETAIL
  6
CONTINUOUS
 62
     5
 10
-146.8148615631398
 20
1638.7215691891599
 30
0.0
 11
-147.48766454142921
 21
1637.4069474192329
 31
0.0
  0
LINE
  5
6E8
  8
DETAIL
  6
CONTINUOUS
 62
     5
 10
-147.48766454142921
 20
1637.4069474192329
 30
0.0
 11
-148.03090938209371
 21
1635.810678399665
 31
0.0
  0
LINE
  5
6E9
  8
DETAIL
  6
CONTINUOUS
 62
     5
 10
-151.7825030369381
 20
1640.509067671954
 30
0.0
 11
-152.7263755959838
 21
1640.3049404655339
 31
0.0
  0
LINE
  5
6EA
  8
DETAIL
  6
CONTINUOUS
 62
     5
 10
-152.7263755959838
 20
1640.3049404655339
 30
0.0
 11
-153.63172578396089
 21
1639.700889911376
 31
0.0
  0
LINE
  5
6EB
  8
DETAIL
  6
CONTINUOUS
 62
     5
 10
-153.63172578396089
 20
1639.700889911376
 30
0.0
 11
-154.46160344769299
 21
1638.7215691891599
 31
0.0
  0
LINE
  5
6EC
  8
DETAIL
  6
CONTINUOUS
 62
     5
 10
-154.46160344769299
 20
1638.7215691891599
 30
0.0
 11
-155.18213870183351
 21
1637.4069474192329
 31
0.0
  0
LINE
  5
6ED
  8
DETAIL
  6
CONTINUOUS
 62
     5
 10
-155.18213870183351
 20
1637.4069474192329
 30
0.0
 11
-155.76392426448501
 21
1635.810678399665
 31
0.0
  0
LINE
  5
6EE
  8
DETAIL
  6
CONTINUOUS
 62
     5
 10
-154.4321463854653
 20
1640.509067671954
 30
0.0
 11
-155.37601894449469
 21
1640.3049404655339
 31
0.0
  0
LINE
  5
6EF
  8
DETAIL
  6
CONTINUOUS
 62
     5
 10
-155.37601894449469
 20
1640.3049404655339
 30
0.0
 11
-156.28136913248809
 21
1639.700889911376
 31
0.0
  0
LINE
  5
6F0
  8
DETAIL
  6
CONTINUOUS
 62
     5
 10
-156.28136913248809
 20
1639.700889911376
 30
0.0
 11
-157.1112467962048
 21
1638.7215691891599
 31
0.0
  0
LINE
  5
6F1
  8
DETAIL
  6
CONTINUOUS
 62
     5
 10
-157.1112467962048
 20
1638.7215691891599
 30
0.0
 11
-157.8317820503448
 21
1637.4069474192329
 31
0.0
  0
LINE
  5
6F2
  8
DETAIL
  6
CONTINUOUS
 62
     5
 10
-157.8317820503448
 20
1637.4069474192329
 30
0.0
 11
-158.41356761299579
 21
1635.810678399665
 31
0.0
  0
LINE
  5
700
  8
DETAIL
  6
CONTINUOUS
 62
     5
 10
-97.487222066192317
 20
1640.509067671954
 30
0.0
 11
-102.2057830640978
 21
1640.509067671954
 31
0.0
  0
LINE
  5
701
  8
DETAIL
  6
CONTINUOUS
 62
     5
 10
-108.0683565569129
 20
1640.509067671954
 30
0.0
 11
-112.9519480834601
 21
1640.509067671954
 31
0.0
  0
LINE
  5
702
  8
DETAIL
  6
CONTINUOUS
 62
     5
 10
-118.51782640195501
 20
1640.509067671954
 30
0.0
 11
-123.560498553024
 21
1640.509067671954
 31
0.0
  0
LINE
  5
703
  8
DETAIL
  6
CONTINUOUS
 62
     5
 10
-128.82290053171519
 20
1640.509067671954
 30
0.0
 11
-134.01850958801239
 21
1640.509067671954
 31
0.0
  0
LINE
  5
704
  8
DETAIL
  6
CONTINUOUS
 62
     5
 10
-138.97102380084181
 20
1640.509067671954
 30
0.0
 11
-144.31323971321351
 21
1640.509067671954
 31
0.0
  0
LINE
  5
705
  8
DETAIL
  6
CONTINUOUS
 62
     5
 10
-148.94983228437511
 20
1640.509067671954
 30
0.0
 11
-154.4321463854653
 21
1640.509067671954
 31
0.0
  0
LINE
  5
706
  8
DETAIL
  6
CONTINUOUS
 62
     5
 10
-80.353131273836425
 20
1640.509067671954
 30
0.0
 11
-80.839515235716092
 21
1640.3049404655339
 31
0.0
  0
LINE
  5
707
  8
DETAIL
  6
CONTINUOUS
 62
     5
 10
-80.839515235716092
 20
1640.3049404655339
 30
0.0
 11
-81.306048357309024
 21
1639.700889911376
 31
0.0
  0
LINE
  5
708
  8
DETAIL
  6
CONTINUOUS
 62
     5
 10
-81.306048357309024
 20
1639.700889911376
 30
0.0
 11
-81.733689972721535
 21
1638.7215691891599
 31
0.0
  0
LINE
  5
709
  8
DETAIL
  6
CONTINUOUS
 62
     5
 10
-81.733689972721535
 20
1638.7215691891599
 30
0.0
 11
-82.104986699345318
 21
1637.4069474192329
 31
0.0
  0
LINE
  5
70A
  8
DETAIL
  6
CONTINUOUS
 62
     5
 10
-82.104986699345318
 20
1637.4069474192329
 30
0.0
 11
-82.404784764489705
 21
1635.810678399665
 31
0.0
  0
LINE
  5
70B
  8
DETAIL
  6
CONTINUOUS
 62
     5
 10
-77.441364326436982
 20
1640.509067671954
 30
0.0
 11
-77.927748288316707
 21
1640.3049404655339
 31
0.0
  0
LINE
  5
70C
  8
DETAIL
  6
CONTINUOUS
 62
     5
 10
-77.927748288316707
 20
1640.3049404655339
 30
0.0
 11
-78.39428140980408
 21
1639.700889911376
 31
0.0
  0
LINE
  5
70D
  8
DETAIL
  6
CONTINUOUS
 62
     5
 10
-78.39428140980408
 20
1639.700889911376
 30
0.0
 11
-78.821923025323017
 21
1638.7215691891599
 31
0.0
  0
LINE
  5
70E
  8
DETAIL
  6
CONTINUOUS
 62
     5
 10
-78.821923025323017
 20
1638.7215691891599
 30
0.0
 11
-79.19321975194589
 21
1637.4069474192329
 31
0.0
  0
LINE
  5
70F
  8
DETAIL
  6
CONTINUOUS
 62
     5
 10
-79.19321975194589
 20
1637.4069474192329
 30
0.0
 11
-79.493017817091186
 21
1635.810678399665
 31
0.0
  0
LINE
  5
710
  8
DETAIL
  6
CONTINUOUS
 62
     5
 10
-91.335096041726075
 20
1640.509067671954
 30
0.0
 11
-91.889264935019568
 21
1640.3049404655339
 31
0.0
  0
LINE
  5
711
  8
DETAIL
  6
CONTINUOUS
 62
     5
 10
-91.889264935019568
 20
1640.3049404655339
 30
0.0
 11
-92.420816474436833
 21
1639.700889911376
 31
0.0
  0
LINE
  5
712
  8
DETAIL
  6
CONTINUOUS
 62
     5
 10
-92.420816474436833
 20
1639.700889911376
 30
0.0
 11
-92.908056390631856
 21
1638.7215691891599
 31
0.0
  0
LINE
  5
713
  8
DETAIL
  6
CONTINUOUS
 62
     5
 10
-92.908056390631856
 20
1638.7215691891599
 30
0.0
 11
-93.331098908969125
 21
1637.4069474192329
 31
0.0
  0
LINE
  5
714
  8
DETAIL
  6
CONTINUOUS
 62
     5
 10
-93.331098908969125
 20
1637.4069474192329
 30
0.0
 11
-93.672678350346374
 21
1635.810678399665
 31
0.0
  0
LINE
  5
715
  8
DETAIL
  6
CONTINUOUS
 62
     5
 10
-88.450439376504121
 20
1640.509067671954
 30
0.0
 11
-89.004608269781784
 21
1640.3049404655339
 31
0.0
  0
LINE
  5
716
  8
DETAIL
  6
CONTINUOUS
 62
     5
 10
-89.004608269781784
 20
1640.3049404655339
 30
0.0
 11
-89.536159809215377
 21
1639.700889911376
 31
0.0
  0
LINE
  5
717
  8
DETAIL
  6
CONTINUOUS
 62
     5
 10
-89.536159809215377
 20
1639.700889911376
 30
0.0
 11
-90.023399725303975
 21
1638.7215691891599
 31
0.0
  0
LINE
  5
718
  8
DETAIL
  6
CONTINUOUS
 62
     5
 10
-90.023399725303975
 20
1638.7215691891599
 30
0.0
 11
-90.446442243731312
 21
1637.4069474192329
 31
0.0
  0
LINE
  5
719
  8
DETAIL
  6
CONTINUOUS
 62
     5
 10
-90.446442243731312
 20
1637.4069474192329
 30
0.0
 11
-90.788021685109001
 21
1635.810678399665
 31
0.0
  0
LINE
  5
71A
  8
DETAIL
  6
CONTINUOUS
 62
     5
 10
-58.109007105121222
 20
1640.509067671954
 30
0.0
 11
-58.45812675961178
 21
1640.3049404655339
 31
0.0
  0
LINE
  5
71B
  8
DETAIL
  6
CONTINUOUS
 62
     5
 10
-58.45812675961178
 20
1640.3049404655339
 30
0.0
 11
-58.792997756678687
 21
1639.700889911376
 31
0.0
  0
LINE
  5
71C
  8
DETAIL
  6
CONTINUOUS
 62
     5
 10
-58.792997756678687
 20
1639.700889911376
 30
0.0
 11
-59.099952970605038
 21
1638.7215691891599
 31
0.0
  0
LINE
  5
71D
  8
DETAIL
  6
CONTINUOUS
 62
     5
 10
-59.099952970605038
 20
1638.7215691891599
 30
0.0
 11
-59.366464605710007
 21
1637.4069474192329
 31
0.0
  0
LINE
  5
71E
  8
DETAIL
  6
CONTINUOUS
 62
     5
 10
-59.366464605710007
 20
1637.4069474192329
 30
0.0
 11
-59.581655494224819
 21
1635.810678399665
 31
0.0
  0
LINE
  5
71F
  8
DETAIL
  6
CONTINUOUS
 62
     5
 10
-55.153690919346893
 20
1640.509067671954
 30
0.0
 11
-55.502810573944323
 21
1640.3049404655339
 31
0.0
  0
LINE
  5
720
  8
DETAIL
  6
CONTINUOUS
 62
     5
 10
-55.502810573944323
 20
1640.3049404655339
 30
0.0
 11
-55.837681570904813
 21
1639.700889911376
 31
0.0
  0
LINE
  5
721
  8
DETAIL
  6
CONTINUOUS
 62
     5
 10
-55.837681570904813
 20
1639.700889911376
 30
0.0
 11
-56.14463678493486
 21
1638.7215691891599
 31
0.0
  0
LINE
  5
722
  8
DETAIL
  6
CONTINUOUS
 62
     5
 10
-56.14463678493486
 20
1638.7215691891599
 30
0.0
 11
-56.411148419920671
 21
1637.4069474192329
 31
0.0
  0
LINE
  5
723
  8
DETAIL
  6
CONTINUOUS
 62
     5
 10
-56.411148419920671
 20
1637.4069474192329
 30
0.0
 11
-56.626339308540992
 21
1635.810678399665
 31
0.0
  0
LINE
  5
724
  8
DETAIL
  6
CONTINUOUS
 62
     5
 10
-69.273268593014095
 20
1640.509067671954
 30
0.0
 11
-69.691275039434913
 21
1640.3049404655339
 31
0.0
  0
LINE
  5
725
  8
DETAIL
  6
CONTINUOUS
 62
     5
 10
-69.691275039434913
 20
1640.3049404655339
 30
0.0
 11
-70.092221344370955
 21
1639.700889911376
 31
0.0
  0
LINE
  5
726
  8
DETAIL
  6
CONTINUOUS
 62
     5
 10
-70.092221344370955
 20
1639.700889911376
 30
0.0
 11
-70.459743643682032
 21
1638.7215691891599
 31
0.0
  0
LINE
  5
727
  8
DETAIL
  6
CONTINUOUS
 62
     5
 10
-70.459743643682032
 20
1638.7215691891599
 30
0.0
 11
-70.778842210813295
 21
1637.4069474192329
 31
0.0
  0
LINE
  5
728
  8
DETAIL
  6
CONTINUOUS
 62
     5
 10
-70.778842210813295
 20
1637.4069474192329
 30
0.0
 11
-71.036493641977813
 21
1635.810678399665
 31
0.0
  0
LINE
  5
729
  8
DETAIL
  6
CONTINUOUS
 62
     5
 10
-66.33793890290417
 20
1640.509067671954
 30
0.0
 11
-66.755945349325899
 21
1640.3049404655339
 31
0.0
  0
LINE
  5
72A
  8
DETAIL
  6
CONTINUOUS
 62
     5
 10
-66.755945349325899
 20
1640.3049404655339
 30
0.0
 11
-67.156891654259653
 21
1639.700889911376
 31
0.0
  0
LINE
  5
72B
  8
DETAIL
  6
CONTINUOUS
 62
     5
 10
-67.156891654259653
 20
1639.700889911376
 30
0.0
 11
-67.524413953572093
 21
1638.7215691891599
 31
0.0
  0
LINE
  5
72C
  8
DETAIL
  6
CONTINUOUS
 62
     5
 10
-67.524413953572093
 20
1638.7215691891599
 30
0.0
 11
-67.843512520719287
 21
1637.4069474192329
 31
0.0
  0
LINE
  5
72D
  8
DETAIL
  6
CONTINUOUS
 62
     5
 10
-67.843512520719287
 20
1637.4069474192329
 30
0.0
 11
-68.101163951867875
 21
1635.810678399665
 31
0.0
  0
LINE
  5
72E
  8
DETAIL
  6
CONTINUOUS
 62
     5
 10
-46.873948742998877
 20
1640.509067671954
 30
0.0
 11
-47.153756257137033
 21
1640.3049404655339
 31
0.0
  0
LINE
  5
72F
  8
DETAIL
  6
CONTINUOUS
 62
     5
 10
-47.153756257137033
 20
1640.3049404655339
 30
0.0
 11
-47.422143957575372
 21
1639.700889911376
 31
0.0
  0
LINE
  5
730
  8
DETAIL
  6
CONTINUOUS
 62
     5
 10
-47.422143957575372
 20
1639.700889911376
 30
0.0
 11
-47.668158108403972
 21
1638.7215691891599
 31
0.0
  0
LINE
  5
731
  8
DETAIL
  6
CONTINUOUS
 62
     5
 10
-47.668158108403972
 20
1638.7215691891599
 30
0.0
 11
-47.881758108157101
 21
1637.4069474192329
 31
0.0
  0
LINE
  5
732
  8
DETAIL
  6
CONTINUOUS
 62
     5
 10
-47.881758108157101
 20
1637.4069474192329
 30
0.0
 11
-48.05422627712187
 21
1635.810678399665
 31
0.0
  0
LINE
  5
733
  8
DETAIL
  6
CONTINUOUS
 62
     5
 10
-43.902246659242323
 20
1640.509067671954
 30
0.0
 11
-44.182054173379584
 21
1640.3049404655339
 31
0.0
  0
LINE
  5
734
  8
DETAIL
  6
CONTINUOUS
 62
     5
 10
-44.182054173379584
 20
1640.3049404655339
 30
0.0
 11
-44.450441873817901
 21
1639.700889911376
 31
0.0
  0
LINE
  5
735
  8
DETAIL
  6
CONTINUOUS
 62
     5
 10
-44.450441873817901
 20
1639.700889911376
 30
0.0
 11
-44.696456024661963
 21
1638.7215691891599
 31
0.0
  0
LINE
  5
736
  8
DETAIL
  6
CONTINUOUS
 62
     5
 10
-44.696456024661963
 20
1638.7215691891599
 30
0.0
 11
-44.910056024294128
 21
1637.4069474192329
 31
0.0
  0
LINE
  5
737
  8
DETAIL
  6
CONTINUOUS
 62
     5
 10
-44.910056024294128
 20
1637.4069474192329
 30
0.0
 11
-45.082524193364861
 21
1635.810678399665
 31
0.0
  0
LINE
  5
738
  8
DETAIL
  6
CONTINUOUS
 62
     5
 10
-35.581781694791971
 20
1640.509067671954
 30
0.0
 11
-35.79193616619385
 21
1640.3049404655339
 31
0.0
  0
LINE
  5
739
  8
DETAIL
  6
CONTINUOUS
 62
     5
 10
-35.79193616619385
 20
1640.3049404655339
 30
0.0
 11
-35.993513580799572
 21
1639.700889911376
 31
0.0
  0
LINE
  5
73A
  8
DETAIL
  6
CONTINUOUS
 62
     5
 10
-35.993513580799572
 20
1639.700889911376
 30
0.0
 11
-36.178286938288231
 21
1638.7215691891599
 31
0.0
  0
LINE
  5
73B
  8
DETAIL
  6
CONTINUOUS
 62
     5
 10
-36.178286938288231
 20
1638.7215691891599
 30
0.0
 11
-36.338715063947781
 21
1637.4069474192329
 31
0.0
  0
LINE
  5
73C
  8
DETAIL
  6
CONTINUOUS
 62
     5
 10
-36.338715063947781
 20
1637.4069474192329
 30
0.0
 11
-36.468250387583339
 21
1635.810678399665
 31
0.0
  0
LINE
  5
73D
  8
DETAIL
  6
CONTINUOUS
 62
     5
 10
-32.597314274187738
 20
1640.509067671954
 30
0.0
 11
-32.807468745589631
 21
1640.3049404655339
 31
0.0
  0
LINE
  5
73E
  8
DETAIL
  6
CONTINUOUS
 62
     5
 10
-32.807468745589631
 20
1640.3049404655339
 30
0.0
 11
-33.009046160196696
 21
1639.700889911376
 31
0.0
  0
LINE
  5
73F
  8
DETAIL
  6
CONTINUOUS
 62
     5
 10
-33.009046160196696
 20
1639.700889911376
 30
0.0
 11
-33.193819517684908
 21
1638.7215691891599
 31
0.0
  0
LINE
  5
740
  8
DETAIL
  6
CONTINUOUS
 62
     5
 10
-33.193819517684908
 20
1638.7215691891599
 30
0.0
 11
-33.35424764334357
 21
1637.4069474192329
 31
0.0
  0
LINE
  5
741
  8
DETAIL
  6
CONTINUOUS
 62
     5
 10
-33.35424764334357
 20
1637.4069474192329
 30
0.0
 11
-33.483782966980023
 21
1635.810678399665
 31
0.0
  0
LINE
  5
763
  8
DETAIL
  6
CONTINUOUS
 62
     5
 10
-86.787314412027627
 20
1640.509067671954
 30
0.0
 11
-86.787314412027627
 21
1632.5066498012391
 31
0.0
  0
LINE
  5
764
  8
DETAIL
  6
CONTINUOUS
 62
     5
 10
-80.024178706574702
 20
1649.311727199655
 30
0.0
 11
-80.024178706574702
 21
1649.999967264778
 31
0.0
  0
LINE
  5
765
  8
DETAIL
  6
CONTINUOUS
 62
     5
 10
-75.98166978385099
 20
1640.509067671954
 30
0.0
 11
-75.98166978385099
 21
1632.5066498012391
 31
0.0
  0
LINE
  5
766
  8
DETAIL
  6
CONTINUOUS
 62
     5
 10
-65.083453195130005
 20
1640.509067671954
 30
0.0
 11
-65.083453195130005
 21
1632.5066498012391
 31
0.0
  0
LINE
  5
767
  8
DETAIL
  6
CONTINUOUS
 62
     5
 10
-54.105942444089123
 20
1640.509067671954
 30
0.0
 11
-54.105942444089123
 21
1632.5066498012391
 31
0.0
  0
LINE
  5
770
  8
DETAIL
  6
CONTINUOUS
 62
     5
 10
-43.06251193647585
 20
1640.509067671954
 30
0.0
 11
-43.06251193647585
 21
1632.5066498012391
 31
0.0
  0
LINE
  5
771
  8
DETAIL
  6
CONTINUOUS
 62
     5
 10
-31.966616391347081
 20
1640.509067671954
 30
0.0
 11
-31.966616391347081
 21
1632.5066498012391
 31
0.0
  0
LINE
  5
77D
  8
DETAIL
  6
CONTINUOUS
 62
     5
 10
-31.966616391347081
 20
1640.509067671954
 30
0.0
 11
-35.581781694791971
 21
1640.509067671954
 31
0.0
  0
LINE
  5
77E
  8
DETAIL
  6
CONTINUOUS
 62
     5
 10
-43.06251193647585
 20
1640.509067671954
 30
0.0
 11
-46.873948742998877
 21
1640.509067671954
 31
0.0
  0
LINE
  5
77F
  8
DETAIL
  6
CONTINUOUS
 62
     5
 10
-54.105942444089123
 20
1640.509067671954
 30
0.0
 11
-58.109007105121222
 21
1640.509067671954
 31
0.0
  0
LINE
  5
780
  8
DETAIL
  6
CONTINUOUS
 62
     5
 10
-65.083453195130005
 20
1640.509067671954
 30
0.0
 11
-69.273268593014095
 21
1640.509067671954
 31
0.0
  0
LINE
  5
781
  8
DETAIL
  6
CONTINUOUS
 62
     5
 10
-75.98166978385099
 20
1640.509067671954
 30
0.0
 11
-80.353131273836425
 21
1640.509067671954
 31
0.0
  0
LINE
  5
782
  8
DETAIL
  6
CONTINUOUS
 62
     5
 10
-86.787314412027627
 20
1640.509067671954
 30
0.0
 11
-91.335096041726075
 21
1640.509067671954
 31
0.0
  0
LINE
  5
884
  8
DETAIL
  6
CONTINUOUS
 62
     5
 10
-24.2462637265462
 20
1640.509067671954
 30
0.0
 11
-24.38650911434388
 21
1640.3049404655339
 31
0.0
  0
LINE
  5
885
  8
DETAIL
  6
CONTINUOUS
 62
     5
 10
-24.38650911434388
 20
1640.3049404655339
 30
0.0
 11
-24.521030652217171
 21
1639.700889911376
 31
0.0
  0
LINE
  5
886
  8
DETAIL
  6
CONTINUOUS
 62
     5
 10
-24.521030652217171
 20
1639.700889911376
 30
0.0
 11
-24.644338098429671
 21
1638.7215691891599
 31
0.0
  0
LINE
  5
887
  8
DETAIL
  6
CONTINUOUS
 62
     5
 10
-24.644338098429671
 20
1638.7215691891599
 30
0.0
 11
-24.751398892960871
 21
1637.4069474192329
 31
0.0
  0
LINE
  5
888
  8
DETAIL
  6
CONTINUOUS
 62
     5
 10
-24.751398892960871
 20
1637.4069474192329
 30
0.0
 11
-24.837843552370028
 21
1635.810678399665
 31
0.0
  0
LINE
  5
889
  8
DETAIL
  6
CONTINUOUS
 62
     5
 10
-21.252667082906552
 20
1640.509067671954
 30
0.0
 11
-21.392912470705589
 21
1640.3049404655339
 31
0.0
  0
LINE
  5
88A
  8
DETAIL
  6
CONTINUOUS
 62
     5
 10
-21.392912470705589
 20
1640.3049404655339
 30
0.0
 11
-21.52743400857889
 21
1639.700889911376
 31
0.0
  0
LINE
  5
88B
  8
DETAIL
  6
CONTINUOUS
 62
     5
 10
-21.52743400857889
 20
1639.700889911376
 30
0.0
 11
-21.650741454807761
 21
1638.7215691891599
 31
0.0
  0
LINE
  5
88C
  8
DETAIL
  6
CONTINUOUS
 62
     5
 10
-21.650741454807761
 20
1638.7215691891599
 30
0.0
 11
-21.757802249322591
 21
1637.4069474192329
 31
0.0
  0
LINE
  5
88D
  8
DETAIL
  6
CONTINUOUS
 62
     5
 10
-21.757802249322591
 20
1637.4069474192329
 30
0.0
 11
-21.844246908731751
 21
1635.810678399665
 31
0.0
  0
LINE
  5
88E
  8
DETAIL
  6
CONTINUOUS
 62
     5
 10
-12.881205420796499
 20
1640.509067671954
 30
0.0
 11
-12.951370857558681
 21
1640.3049404655339
 31
0.0
  0
LINE
  5
88F
  8
DETAIL
  6
CONTINUOUS
 62
     5
 10
-12.951370857558681
 20
1640.3049404655339
 30
0.0
 11
-13.01867262488895
 21
1639.700889911376
 31
0.0
  0
LINE
  5
890
  8
DETAIL
  6
CONTINUOUS
 62
     5
 10
-13.01867262488895
 20
1639.700889911376
 30
0.0
 11
-13.08036392865187
 21
1638.7215691891599
 31
0.0
  0
LINE
  5
891
  8
DETAIL
  6
CONTINUOUS
 62
     5
 10
-13.08036392865187
 20
1638.7215691891599
 30
0.0
 11
-13.13392695511356
 21
1637.4069474192329
 31
0.0
  0
LINE
  5
892
  8
DETAIL
  6
CONTINUOUS
 62
     5
 10
-13.13392695511356
 20
1637.4069474192329
 30
0.0
 11
-13.1771756306848
 21
1635.810678399665
 31
0.0
  0
LINE
  5
893
  8
DETAIL
  6
CONTINUOUS
 62
     5
 10
-9.8821267905218502
 20
1640.509067671954
 30
0.0
 11
-9.9522922272840315
 21
1640.3049404655339
 31
0.0
  0
LINE
  5
894
  8
DETAIL
  6
CONTINUOUS
 62
     5
 10
-9.9522922272840315
 20
1640.3049404655339
 30
0.0
 11
-10.019593994721159
 21
1639.700889911376
 31
0.0
  0
LINE
  5
895
  8
DETAIL
  6
CONTINUOUS
 62
     5
 10
-10.019593994721159
 20
1639.700889911376
 30
0.0
 11
-10.08128529848409
 21
1638.7215691891599
 31
0.0
  0
LINE
  5
896
  8
DETAIL
  6
CONTINUOUS
 62
     5
 10
-10.08128529848409
 20
1638.7215691891599
 30
0.0
 11
-10.13484832485619
 21
1637.4069474192329
 31
0.0
  0
LINE
  5
897
  8
DETAIL
  6
CONTINUOUS
 62
     5
 10
-10.13484832485619
 20
1637.4069474192329
 30
0.0
 11
-10.178097000516111
 21
1635.810678399665
 31
0.0
  0
LINE
  5
89F
  8
DETAIL
  6
CONTINUOUS
 62
     5
 10
-20.83177444825559
 20
1640.509067671954
 30
0.0
 11
-20.83177444825559
 21
1632.5066498012391
 31
0.0
  0
LINE
  5
8A0
  8
DETAIL
  6
CONTINUOUS
 62
     5
 10
-9.6715521967921632
 20
1640.509067671954
 30
0.0
 11
-9.6715521967921632
 21
1632.5066498012391
 31
0.0
  0
LINE
  5
8B6
  8
DETAIL
  6
CONTINUOUS
 62
     5
 10
9.6715521975979755
 20
1640.509067671954
 30
0.0
 11
9.6715521975979755
 21
1632.5066498012391
 31
0.0
  0
LINE
  5
8B7
  8
DETAIL
  6
CONTINUOUS
 62
     5
 10
20.831774448954999
 20
1640.509067671954
 30
0.0
 11
20.831774448954999
 21
1632.5066498012391
 31
0.0
  0
LINE
  5
8B8
  8
DETAIL
  6
CONTINUOUS
 62
     5
 10
31.966616392046951
 20
1640.509067671954
 30
0.0
 11
31.966616392046951
 21
1632.5066498012391
 31
0.0
  0
LINE
  5
8C0
  8
DETAIL
  6
CONTINUOUS
 62
     5
 10
9.8821267912371678
 20
1640.509067671954
 30
0.0
 11
9.9522922280889361
 21
1640.3049404655339
 31
0.0
  0
LINE
  5
8C1
  8
DETAIL
  6
CONTINUOUS
 62
     5
 10
9.9522922280889361
 20
1640.3049404655339
 30
0.0
 11
10.019593995419649
 21
1639.700889911376
 31
0.0
  0
LINE
  5
8C2
  8
DETAIL
  6
CONTINUOUS
 62
     5
 10
10.019593995419649
 20
1639.700889911376
 30
0.0
 11
10.08128529918303
 21
1638.7215691891599
 31
0.0
  0
LINE
  5
8C3
  8
DETAIL
  6
CONTINUOUS
 62
     5
 10
10.08128529918303
 20
1638.7215691891599
 30
0.0
 11
10.13484832566064
 21
1637.4069474192329
 31
0.0
  0
LINE
  5
8C4
  8
DETAIL
  6
CONTINUOUS
 62
     5
 10
10.13484832566064
 20
1637.4069474192329
 30
0.0
 11
10.17809700121642
 21
1635.810678399665
 31
0.0
  0
LINE
  5
8C5
  8
DETAIL
  6
CONTINUOUS
 62
     5
 10
12.881205421510909
 20
1640.509067671954
 30
0.0
 11
12.951370858273091
 21
1640.3049404655339
 31
0.0
  0
LINE
  5
8C6
  8
DETAIL
  6
CONTINUOUS
 62
     5
 10
12.951370858273091
 20
1640.3049404655339
 30
0.0
 11
13.01867262569521
 21
1639.700889911376
 31
0.0
  0
LINE
  5
8C7
  8
DETAIL
  6
CONTINUOUS
 62
     5
 10
13.01867262569521
 20
1639.700889911376
 30
0.0
 11
13.08036392945769
 21
1638.7215691891599
 31
0.0
  0
LINE
  5
8C8
  8
DETAIL
  6
CONTINUOUS
 62
     5
 10
13.08036392945769
 20
1638.7215691891599
 30
0.0
 11
13.133926955829329
 21
1637.4069474192329
 31
0.0
  0
LINE
  5
8C9
  8
DETAIL
  6
CONTINUOUS
 62
     5
 10
13.133926955829329
 20
1637.4069474192329
 30
0.0
 11
13.177175631489259
 21
1635.810678399665
 31
0.0
  0
LINE
  5
8CA
  8
DETAIL
  6
CONTINUOUS
 62
     5
 10
21.252667083622772
 20
1640.509067671954
 30
0.0
 11
21.392912471421369
 21
1640.3049404655339
 31
0.0
  0
LINE
  5
8CB
  8
DETAIL
  6
CONTINUOUS
 62
     5
 10
21.392912471421369
 20
1640.3049404655339
 30
0.0
 11
21.527434009385161
 21
1639.700889911376
 31
0.0
  0
LINE
  5
8CC
  8
DETAIL
  6
CONTINUOUS
 62
     5
 10
21.527434009385161
 20
1639.700889911376
 30
0.0
 11
21.650741455505791
 21
1638.7215691891599
 31
0.0
  0
LINE
  5
8CD
  8
DETAIL
  6
CONTINUOUS
 62
     5
 10
21.650741455505791
 20
1638.7215691891599
 30
0.0
 11
21.757802250022898
 21
1637.4069474192329
 31
0.0
  0
LINE
  5
8CE
  8
DETAIL
  6
CONTINUOUS
 62
     5
 10
21.757802250022898
 20
1637.4069474192329
 30
0.0
 11
21.844246909431149
 21
1635.810678399665
 31
0.0
  0
LINE
  5
8CF
  8
DETAIL
  6
CONTINUOUS
 62
     5
 10
24.24626372724515
 20
1640.509067671954
 30
0.0
 11
24.386509115043278
 21
1640.3049404655339
 31
0.0
  0
LINE
  5
8D0
  8
DETAIL
  6
CONTINUOUS
 62
     5
 10
24.386509115043278
 20
1640.3049404655339
 30
0.0
 11
24.521030652917489
 21
1639.700889911376
 31
0.0
  0
LINE
  5
8D1
  8
DETAIL
  6
CONTINUOUS
 62
     5
 10
24.521030652917489
 20
1639.700889911376
 30
0.0
 11
24.64433809914544
 21
1638.7215691891599
 31
0.0
  0
LINE
  5
8D2
  8
DETAIL
  6
CONTINUOUS
 62
     5
 10
24.64433809914544
 20
1638.7215691891599
 30
0.0
 11
24.75139889366028
 21
1637.4069474192329
 31
0.0
  0
LINE
  5
8D3
  8
DETAIL
  6
CONTINUOUS
 62
     5
 10
24.75139889366028
 20
1637.4069474192329
 30
0.0
 11
24.83784355306943
 21
1635.810678399665
 31
0.0
  0
LINE
  5
8D4
  8
DETAIL
  6
CONTINUOUS
 62
     5
 10
32.597314274902601
 20
1640.509067671954
 30
0.0
 11
32.807468746304039
 21
1640.3049404655339
 31
0.0
  0
LINE
  5
8D5
  8
DETAIL
  6
CONTINUOUS
 62
     5
 10
32.807468746304039
 20
1640.3049404655339
 30
0.0
 11
33.009046161003411
 21
1639.700889911376
 31
0.0
  0
LINE
  5
8D6
  8
DETAIL
  6
CONTINUOUS
 62
     5
 10
33.009046161003411
 20
1639.700889911376
 30
0.0
 11
33.193819518398847
 21
1638.7215691891599
 31
0.0
  0
LINE
  5
8D7
  8
DETAIL
  6
CONTINUOUS
 62
     5
 10
33.193819518398847
 20
1638.7215691891599
 30
0.0
 11
33.35424764404388
 21
1637.4069474192329
 31
0.0
  0
LINE
  5
8D8
  8
DETAIL
  6
CONTINUOUS
 62
     5
 10
33.35424764404388
 20
1637.4069474192329
 30
0.0
 11
33.483782967679417
 21
1635.810678399665
 31
0.0
  0
LINE
  5
8D9
  8
DETAIL
  6
CONTINUOUS
 62
     5
 10
35.581781695506827
 20
1640.509067671954
 30
0.0
 11
35.79193616690781
 21
1640.3049404655339
 31
0.0
  0
LINE
  5
8DA
  8
DETAIL
  6
CONTINUOUS
 62
     5
 10
35.79193616690781
 20
1640.3049404655339
 30
0.0
 11
35.993513581606287
 21
1639.700889911376
 31
0.0
  0
LINE
  5
8DB
  8
DETAIL
  6
CONTINUOUS
 62
     5
 10
35.993513581606287
 20
1639.700889911376
 30
0.0
 11
36.178286939003549
 21
1638.7215691891599
 31
0.0
  0
LINE
  5
8DC
  8
DETAIL
  6
CONTINUOUS
 62
     5
 10
36.178286939003549
 20
1638.7215691891599
 30
0.0
 11
36.33871506466312
 21
1637.4069474192329
 31
0.0
  0
LINE
  5
8DD
  8
DETAIL
  6
CONTINUOUS
 62
     5
 10
36.33871506466312
 20
1637.4069474192329
 30
0.0
 11
36.468250388282279
 21
1635.810678399665
 31
0.0
  0
LINE
  5
8E8
  8
DETAIL
  6
CONTINUOUS
 62
     5
 10
-1.500453350399763
 20
1640.509067671954
 30
0.0
 11
1.5004533510991671
 21
1640.509067671954
 31
0.0
  0
LINE
  5
8E9
  8
DETAIL
  6
CONTINUOUS
 62
     5
 10
9.6715521975979755
 20
1640.509067671954
 30
0.0
 11
12.881205421510909
 21
1640.509067671954
 31
0.0
  0
LINE
  5
8EA
  8
DETAIL
  6
CONTINUOUS
 62
     5
 10
20.831774448954999
 20
1640.509067671954
 30
0.0
 11
24.24626372724515
 21
1640.509067671954
 31
0.0
  0
LINE
  5
8EB
  8
DETAIL
  6
CONTINUOUS
 62
     5
 10
31.966616392046951
 20
1640.509067671954
 30
0.0
 11
35.581781695506827
 21
1640.509067671954
 31
0.0
  0
LINE
  5
8EC
  8
DETAIL
  6
CONTINUOUS
 62
     5
 10
-9.6715521967921632
 20
1640.509067671954
 30
0.0
 11
-12.881205420796499
 21
1640.509067671954
 31
0.0
  0
LINE
  5
8ED
  8
DETAIL
  6
CONTINUOUS
 62
     5
 10
-20.83177444825559
 20
1640.509067671954
 30
0.0
 11
-24.2462637265462
 21
1640.509067671954
 31
0.0
  0
LINE
  5
8EE
  8
DETAIL
  6
CONTINUOUS
 62
     5
 10
43.062511937177078
 20
1640.509067671954
 30
0.0
 11
43.062511937177078
 21
1632.5066498012391
 31
0.0
  0
LINE
  5
8EF
  8
DETAIL
  6
CONTINUOUS
 62
     5
 10
54.105942444788077
 20
1640.509067671954
 30
0.0
 11
54.105942444788077
 21
1632.5066498012391
 31
0.0
  0
LINE
  5
8F0
  8
DETAIL
  6
CONTINUOUS
 62
     5
 10
65.083453195843489
 20
1640.509067671954
 30
0.0
 11
65.083453195843489
 21
1632.5066498012391
 31
0.0
  0
LINE
  5
8F8
  8
DETAIL
  6
CONTINUOUS
 62
     5
 10
75.981669784656802
 20
1640.509067671954
 30
0.0
 11
75.981669784656802
 21
1632.5066498012391
 31
0.0
  0
LINE
  5
8F9
  8
DETAIL
  6
CONTINUOUS
 62
     5
 10
80.024178707275013
 20
1649.311727199655
 30
0.0
 11
80.024178707275013
 21
1649.999967264778
 31
0.0
  0
LINE
  5
8FA
  8
DETAIL
  6
CONTINUOUS
 62
     5
 10
86.787314412742944
 20
1640.509067671954
 30
0.0
 11
86.787314412742944
 21
1632.5066498012391
 31
0.0
  0
LINE
  5
8FB
  8
DETAIL
  6
CONTINUOUS
 62
     5
 10
97.487222066891263
 20
1640.509067671954
 30
0.0
 11
97.487222066891263
 21
1632.5066498012391
 31
0.0
  0
LINE
  5
8FC
  8
DETAIL
  6
CONTINUOUS
 62
     5
 10
100.0302233840202
 20
1649.311727199655
 30
0.0
 11
100.0302233840202
 21
1648.6115156359781
 31
0.0
  0
LINE
  5
8FD
  8
DETAIL
  6
CONTINUOUS
 62
     5
 10
108.0683565577182
 20
1640.509067671954
 30
0.0
 11
108.0683565577182
 21
1632.5066498012391
 31
0.0
  0
LINE
  5
905
  8
DETAIL
  6
CONTINUOUS
 62
     5
 10
59.366464606409863
 20
1637.4069474192329
 30
0.0
 11
59.581655495029729
 21
1635.810678399665
 31
0.0
  0
LINE
  5
912
  8
DETAIL
  6
CONTINUOUS
 62
     5
 10
59.099952971318089
 20
1638.7215691891599
 30
0.0
 11
59.366464606409863
 21
1637.4069474192329
 31
0.0
  0
LINE
  5
913
  8
DETAIL
  6
CONTINUOUS
 62
     5
 10
82.104986700150675
 20
1637.4069474192329
 30
0.0
 11
82.404784765295972
 21
1635.810678399665
 31
0.0
  0
LINE
  5
91F
  8
DETAIL
  6
CONTINUOUS
 62
     5
 10
58.792997757394012
 20
1639.700889911376
 30
0.0
 11
59.099952971318089
 21
1638.7215691891599
 31
0.0
  0
LINE
  5
920
  8
DETAIL
  6
CONTINUOUS
 62
     5
 10
81.733689973421406
 20
1638.7215691891599
 30
0.0
 11
82.104986700150675
 21
1637.4069474192329
 31
0.0
  0
LINE
  5
924
  8
DETAIL
  6
CONTINUOUS
 62
     5
 10
104.4435015517992
 20
1637.4069474192329
 30
0.0
 11
104.8264462074585
 21
1635.810678399665
 31
0.0
  0
LINE
  5
92A
  8
DETAIL
  6
CONTINUOUS
 62
     5
 10
81.306048358007047
 20
1639.700889911376
 30
0.0
 11
81.733689973421406
 21
1638.7215691891599
 31
0.0
  0
LINE
  5
92B
  8
DETAIL
  6
CONTINUOUS
 62
     5
 10
103.969228653887
 20
1638.7215691891599
 30
0.0
 11
104.4435015517992
 21
1637.4069474192329
 31
0.0
  0
LINE
  5
92C
  8
DETAIL
  6
CONTINUOUS
 62
     5
 10
103.4229840638681
 20
1639.700889911376
 30
0.0
 11
103.969228653887
 21
1638.7215691891599
 31
0.0
  0
LINE
  5
92D
  8
DETAIL
  6
CONTINUOUS
 62
     5
 10
58.458126760418061
 20
1640.3049404655339
 30
0.0
 11
58.792997757394012
 21
1639.700889911376
 31
0.0
  0
LINE
  5
92E
  8
DETAIL
  6
CONTINUOUS
 62
     5
 10
80.839515236415068
 20
1640.3049404655339
 30
0.0
 11
81.306048358007047
 21
1639.700889911376
 31
0.0
  0
LINE
  5
92F
  8
DETAIL
  6
CONTINUOUS
 62
     5
 10
102.8270617201901
 20
1640.3049404655339
 30
0.0
 11
103.4229840638681
 21
1639.700889911376
 31
0.0
  0
LINE
  5
930
  8
DETAIL
  6
CONTINUOUS
 62
     5
 10
55.153690920150439
 20
1640.509067671954
 30
0.0
 11
55.502810574642808
 21
1640.3049404655339
 31
0.0
  0
LINE
  5
931
  8
DETAIL
  6
CONTINUOUS
 62
     5
 10
55.502810574642808
 20
1640.3049404655339
 30
0.0
 11
55.837681571710142
 21
1639.700889911376
 31
0.0
  0
LINE
  5
932
  8
DETAIL
  6
CONTINUOUS
 62
     5
 10
55.837681571710142
 20
1639.700889911376
 30
0.0
 11
56.144636785633793
 21
1638.7215691891599
 31
0.0
  0
LINE
  5
933
  8
DETAIL
  6
CONTINUOUS
 62
     5
 10
56.144636785633793
 20
1638.7215691891599
 30
0.0
 11
56.411148420726022
 21
1637.4069474192329
 31
0.0
  0
LINE
  5
934
  8
DETAIL
  6
CONTINUOUS
 62
     5
 10
56.411148420726022
 20
1637.4069474192329
 30
0.0
 11
56.6263393092554
 21
1635.810678399665
 31
0.0
  0
LINE
  5
935
  8
DETAIL
  6
CONTINUOUS
 62
     5
 10
58.109007105834742
 20
1640.509067671954
 30
0.0
 11
58.458126760418061
 21
1640.3049404655339
 31
0.0
  0
LINE
  5
936
  8
DETAIL
  6
CONTINUOUS
 62
     5
 10
43.902246659941731
 20
1640.509067671954
 30
0.0
 11
44.182054174186753
 21
1640.3049404655339
 31
0.0
  0
LINE
  5
937
  8
DETAIL
  6
CONTINUOUS
 62
     5
 10
44.182054174186753
 20
1640.3049404655339
 30
0.0
 11
44.450441874532778
 21
1639.700889911376
 31
0.0
  0
LINE
  5
938
  8
DETAIL
  6
CONTINUOUS
 62
     5
 10
44.450441874532778
 20
1639.700889911376
 30
0.0
 11
44.69645602536184
 21
1638.7215691891599
 31
0.0
  0
LINE
  5
939
  8
DETAIL
  6
CONTINUOUS
 62
     5
 10
44.69645602536184
 20
1638.7215691891599
 30
0.0
 11
44.910056025099948
 21
1637.4069474192329
 31
0.0
  0
LINE
  5
93A
  8
DETAIL
  6
CONTINUOUS
 62
     5
 10
44.910056025099948
 20
1637.4069474192329
 30
0.0
 11
45.08252419406471
 21
1635.810678399665
 31
0.0
  0
LINE
  5
93B
  8
DETAIL
  6
CONTINUOUS
 62
     5
 10
46.873948743804696
 20
1640.509067671954
 30
0.0
 11
47.15375625794286
 21
1640.3049404655339
 31
0.0
  0
LINE
  5
93C
  8
DETAIL
  6
CONTINUOUS
 62
     5
 10
47.15375625794286
 20
1640.3049404655339
 30
0.0
 11
47.422143958273843
 21
1639.700889911376
 31
0.0
  0
LINE
  5
93D
  8
DETAIL
  6
CONTINUOUS
 62
     5
 10
47.422143958273843
 20
1639.700889911376
 30
0.0
 11
47.668158109119297
 21
1638.7215691891599
 31
0.0
  0
LINE
  5
93E
  8
DETAIL
  6
CONTINUOUS
 62
     5
 10
47.668158109119297
 20
1638.7215691891599
 30
0.0
 11
47.881758108856019
 21
1637.4069474192329
 31
0.0
  0
LINE
  5
93F
  8
DETAIL
  6
CONTINUOUS
 62
     5
 10
47.881758108856019
 20
1637.4069474192329
 30
0.0
 11
48.054226277927221
 21
1635.810678399665
 31
0.0
  0
LINE
  5
940
  8
DETAIL
  6
CONTINUOUS
 62
     5
 10
77.441364327137762
 20
1640.509067671954
 30
0.0
 11
77.927748289016094
 21
1640.3049404655339
 31
0.0
  0
LINE
  5
941
  8
DETAIL
  6
CONTINUOUS
 62
     5
 10
77.927748289016094
 20
1640.3049404655339
 30
0.0
 11
78.394281410610347
 21
1639.700889911376
 31
0.0
  0
LINE
  5
942
  8
DETAIL
  6
CONTINUOUS
 62
     5
 10
78.394281410610347
 20
1639.700889911376
 30
0.0
 11
78.821923026021963
 21
1638.7215691891599
 31
0.0
  0
LINE
  5
943
  8
DETAIL
  6
CONTINUOUS
 62
     5
 10
78.821923026021963
 20
1638.7215691891599
 30
0.0
 11
79.193219752645291
 21
1637.4069474192329
 31
0.0
  0
LINE
  5
944
  8
DETAIL
  6
CONTINUOUS
 62
     5
 10
79.193219752645291
 20
1637.4069474192329
 30
0.0
 11
79.493017817789664
 21
1635.810678399665
 31
0.0
  0
LINE
  5
945
  8
DETAIL
  6
CONTINUOUS
 62
     5
 10
80.353131274642223
 20
1640.509067671954
 30
0.0
 11
80.839515236415068
 21
1640.3049404655339
 31
0.0
  0
LINE
  5
946
  8
DETAIL
  6
CONTINUOUS
 62
     5
 10
66.337938903616759
 20
1640.509067671954
 30
0.0
 11
66.755945350038914
 21
1640.3049404655339
 31
0.0
  0
LINE
  5
947
  8
DETAIL
  6
CONTINUOUS
 62
     5
 10
66.755945350038914
 20
1640.3049404655339
 30
0.0
 11
67.15689165506592
 21
1639.700889911376
 31
0.0
  0
LINE
  5
948
  8
DETAIL
  6
CONTINUOUS
 62
     5
 10
67.15689165506592
 20
1639.700889911376
 30
0.0
 11
67.524413954377451
 21
1638.7215691891599
 31
0.0
  0
LINE
  5
949
  8
DETAIL
  6
CONTINUOUS
 62
     5
 10
67.524413954377451
 20
1638.7215691891599
 30
0.0
 11
67.843512521418234
 21
1637.4069474192329
 31
0.0
  0
LINE
  5
94A
  8
DETAIL
  6
CONTINUOUS
 62
     5
 10
67.843512521418234
 20
1637.4069474192329
 30
0.0
 11
68.101163952566822
 21
1635.810678399665
 31
0.0
  0
LINE
  5
94B
  8
DETAIL
  6
CONTINUOUS
 62
     5
 10
69.27326859371307
 20
1640.509067671954
 30
0.0
 11
69.691275040134329
 21
1640.3049404655339
 31
0.0
  0
LINE
  5
94C
  8
DETAIL
  6
CONTINUOUS
 62
     5
 10
69.691275040134329
 20
1640.3049404655339
 30
0.0
 11
70.092221345160851
 21
1639.700889911376
 31
0.0
  0
LINE
  5
94D
  8
DETAIL
  6
CONTINUOUS
 62
     5
 10
70.092221345160851
 20
1639.700889911376
 30
0.0
 11
70.459743644471942
 21
1638.7215691891599
 31
0.0
  0
LINE
  5
94E
  8
DETAIL
  6
CONTINUOUS
 62
     5
 10
70.459743644471942
 20
1638.7215691891599
 30
0.0
 11
70.778842211526808
 21
1637.4069474192329
 31
0.0
  0
LINE
  5
94F
  8
DETAIL
  6
CONTINUOUS
 62
     5
 10
70.778842211526808
 20
1637.4069474192329
 30
0.0
 11
71.03649364267676
 21
1635.810678399665
 31
0.0
  0
LINE
  5
95C
  8
DETAIL
  6
CONTINUOUS
 62
     5
 10
43.062511937177078
 20
1640.509067671954
 30
0.0
 11
46.873948743804696
 21
1640.509067671954
 31
0.0
  0
LINE
  5
95D
  8
DETAIL
  6
CONTINUOUS
 62
     5
 10
54.105942444788077
 20
1640.509067671954
 30
0.0
 11
58.109007105834742
 21
1640.509067671954
 31
0.0
  0
LINE
  5
95E
  8
DETAIL
  6
CONTINUOUS
 62
     5
 10
65.083453195843489
 20
1640.509067671954
 30
0.0
 11
69.27326859371307
 21
1640.509067671954
 31
0.0
  0
LINE
  5
95F
  8
DETAIL
  6
CONTINUOUS
 62
     5
 10
75.981669784656802
 20
1640.509067671954
 30
0.0
 11
80.353131274642223
 21
1640.509067671954
 31
0.0
  0
LINE
  5
960
  8
DETAIL
  6
CONTINUOUS
 62
     5
 10
86.787314412742944
 20
1640.509067671954
 30
0.0
 11
91.335096042441364
 21
1640.509067671954
 31
0.0
  0
LINE
  5
961
  8
DETAIL
  6
CONTINUOUS
 62
     5
 10
97.487222066891263
 20
1640.509067671954
 30
0.0
 11
102.2057830649027
 21
1640.509067671954
 31
0.0
  0
LINE
  5
962
  8
DETAIL
  6
CONTINUOUS
 62
     5
 10
110.1320182011449
 20
1640.509067671954
 30
0.0
 11
110.8196496861587
 21
1640.3049404655339
 31
0.0
  0
LINE
  5
963
  8
DETAIL
  6
CONTINUOUS
 62
     5
 10
99.351751191622952
 20
1640.509067671954
 30
0.0
 11
99.973029846908972
 21
1640.3049404655339
 31
0.0
  0
LINE
  5
964
  8
DETAIL
  6
CONTINUOUS
 62
     5
 10
99.973029846908972
 20
1640.3049404655339
 30
0.0
 11
100.5689521905869
 21
1639.700889911376
 31
0.0
  0
LINE
  5
965
  8
DETAIL
  6
CONTINUOUS
 62
     5
 10
100.5689521905869
 20
1639.700889911376
 30
0.0
 11
101.1151967806058
 21
1638.7215691891599
 31
0.0
  0
LINE
  5
966
  8
DETAIL
  6
CONTINUOUS
 62
     5
 10
101.1151967806058
 20
1638.7215691891599
 30
0.0
 11
101.589469678518
 21
1637.4069474192329
 31
0.0
  0
LINE
  5
967
  8
DETAIL
  6
CONTINUOUS
 62
     5
 10
101.589469678518
 20
1637.4069474192329
 30
0.0
 11
101.9724143341782
 21
1635.810678399665
 31
0.0
  0
LINE
  5
968
  8
DETAIL
  6
CONTINUOUS
 62
     5
 10
102.2057830649027
 20
1640.509067671954
 30
0.0
 11
102.8270617201901
 21
1640.3049404655339
 31
0.0
  0
LINE
  5
969
  8
DETAIL
  6
CONTINUOUS
 62
     5
 10
88.450439377203097
 20
1640.509067671954
 30
0.0
 11
89.004608270497087
 21
1640.3049404655339
 31
0.0
  0
LINE
  5
96A
  8
DETAIL
  6
CONTINUOUS
 62
     5
 10
89.004608270497087
 20
1640.3049404655339
 30
0.0
 11
89.536159809913883
 21
1639.700889911376
 31
0.0
  0
LINE
  5
96B
  8
DETAIL
  6
CONTINUOUS
 62
     5
 10
89.536159809913883
 20
1639.700889911376
 30
0.0
 11
90.023399726108863
 21
1638.7215691891599
 31
0.0
  0
LINE
  5
96C
  8
DETAIL
  6
CONTINUOUS
 62
     5
 10
90.023399726108863
 20
1638.7215691891599
 30
0.0
 11
90.446442244446203
 21
1637.4069474192329
 31
0.0
  0
LINE
  5
96D
  8
DETAIL
  6
CONTINUOUS
 62
     5
 10
90.446442244446203
 20
1637.4069474192329
 30
0.0
 11
90.788021685807905
 21
1635.810678399665
 31
0.0
  0
LINE
  5
96E
  8
DETAIL
  6
CONTINUOUS
 62
     5
 10
91.335096042441364
 20
1640.509067671954
 30
0.0
 11
91.889264935718955
 21
1640.3049404655339
 31
0.0
  0
LINE
  5
96F
  8
DETAIL
  6
CONTINUOUS
 62
     5
 10
91.889264935718955
 20
1640.3049404655339
 30
0.0
 11
92.420816475242646
 21
1639.700889911376
 31
0.0
  0
LINE
  5
970
  8
DETAIL
  6
CONTINUOUS
 62
     5
 10
92.420816475242646
 20
1639.700889911376
 30
0.0
 11
92.908056391332124
 21
1638.7215691891599
 31
0.0
  0
LINE
  5
971
  8
DETAIL
  6
CONTINUOUS
 62
     5
 10
92.908056391332124
 20
1638.7215691891599
 30
0.0
 11
93.331098909667574
 21
1637.4069474192329
 31
0.0
  0
LINE
  5
972
  8
DETAIL
  6
CONTINUOUS
 62
     5
 10
93.331098909667574
 20
1637.4069474192329
 30
0.0
 11
93.672678351044851
 21
1635.810678399665
 31
0.0
  0
LINE
  5
973
  8
DETAIL
  6
CONTINUOUS
 62
     5
 10
366.88929144944171
 20
1417.5803084860891
 30
0.0
 11
361.10910641546621
 21
1549.9817153796989
 31
0.0
  0
LINE
  5
974
  8
DETAIL
  6
CONTINUOUS
 62
     5
 10
373.858818519664
 20
1409.9999672647759
 30
0.0
 11
373.24728553288492
 21
1410.0951915637261
 31
0.0
  0
LINE
  5
975
  8
DETAIL
  6
CONTINUOUS
 62
     5
 10
373.24728553288492
 20
1410.0951915637261
 30
0.0
 11
372.45018507864
 21
1410.3051249092171
 31
0.0
  0
LINE
  5
976
  8
DETAIL
  6
CONTINUOUS
 62
     5
 10
372.45018507864
 20
1410.3051249092171
 30
0.0
 11
371.6789084005718
 21
1410.5959402686899
 31
0.0
  0
LINE
  5
977
  8
DETAIL
  6
CONTINUOUS
 62
     5
 10
371.6789084005718
 20
1410.5959402686899
 30
0.0
 11
370.94163869244812
 21
1410.9645521287041
 31
0.0
  0
LINE
  5
978
  8
DETAIL
  6
CONTINUOUS
 62
     5
 10
370.94163869244812
 20
1410.9645521287041
 30
0.0
 11
370.24619831332802
 21
1411.4070495541951
 31
0.0
  0
LINE
  5
979
  8
DETAIL
  6
CONTINUOUS
 62
     5
 10
370.24619831332802
 20
1411.4070495541951
 30
0.0
 11
369.599965770908
 21
1411.9187377141379
 31
0.0
  0
LINE
  5
97A
  8
DETAIL
  6
CONTINUOUS
 62
     5
 10
369.599965770908
 20
1411.9187377141379
 30
0.0
 11
369.00979748136928
 21
1412.494187683164
 31
0.0
  0
LINE
  5
97B
  8
DETAIL
  6
CONTINUOUS
 62
     5
 10
369.00979748136928
 20
1412.494187683164
 30
0.0
 11
368.48195503852583
 21
1413.127294028209
 31
0.0
  0
LINE
  5
97C
  8
DETAIL
  6
CONTINUOUS
 62
     5
 10
368.48195503852583
 20
1413.127294028209
 30
0.0
 11
368.022038774468
 21
1413.811339584832
 31
0.0
  0
LINE
  5
97D
  8
DETAIL
  6
CONTINUOUS
 62
     5
 10
368.022038774468
 20
1413.811339584832
 30
0.0
 11
367.63492833283669
 21
1414.53906673097
 31
0.0
  0
LINE
  5
97E
  8
DETAIL
  6
CONTINUOUS
 62
     5
 10
367.63492833283669
 20
1414.53906673097
 30
0.0
 11
367.32473089660289
 21
1415.3027543916851
 31
0.0
  0
LINE
  5
97F
  8
DETAIL
  6
CONTINUOUS
 62
     5
 10
367.32473089660289
 20
1415.3027543916851
 30
0.0
 11
367.09473761316212
 21
1416.0942999574399
 31
0.0
  0
LINE
  5
980
  8
DETAIL
  6
CONTINUOUS
 62
     5
 10
367.09473761316212
 20
1416.0942999574399
 30
0.0
 11
366.9473886762807
 21
1416.9053052504289
 31
0.0
  0
LINE
  5
981
  8
DETAIL
  6
CONTINUOUS
 62
     5
 10
366.9473886762807
 20
1416.9053052504289
 30
0.0
 11
366.88933289616301
 21
1417.5793584764581
 31
0.0
  0
LINE
  5
982
  8
DETAIL
  6
CONTINUOUS
 62
     5
 10
328.79754631641111
 20
1369.913909239167
 30
0.0
 11
328.79754631641111
 21
1409.9999672647759
 31
0.0
  0
LINE
  5
983
  8
NOTE
  6
CONTINUOUS
 62
     4
 10
179.5803856585639
 20
1695.779665001352
 30
0.0
 11
229.595497350394
 21
1695.779665001352
 31
0.0
  0
LINE
  5
989
  8
DETAIL
  6
CONTINUOUS
 62
     5
 10
244.24114287828201
 20
1640.509067671954
 30
0.0
 11
250.7922038152328
 21
1640.509067671954
 31
0.0
  0
LINE
  5
98A
  8
DETAIL
  6
CONTINUOUS
 62
     5
 10
246.73696520802969
 20
1637.4069474192329
 30
0.0
 11
247.6578962393568
 21
1635.810678399665
 31
0.0
  0
LINE
  5
98B
  8
DETAIL
  6
CONTINUOUS
 62
     5
 10
247.604400405989
 20
1638.7215691891599
 30
0.0
 11
248.74496372885909
 21
1637.4069474192329
 31
0.0
  0
LINE
  5
AC4
  8
DETAIL
  6
CONTINUOUS
 62
     5
 10
177.74991263519311
 20
1640.509067671954
 30
0.0
 11
183.61180330580001
 21
1640.509067671954
 31
0.0
  0
LINE
  5
AC5
  8
DETAIL
  6
CONTINUOUS
 62
     5
 10
118.51782640265399
 20
1640.509067671954
 30
0.0
 11
118.51782640265399
 21
1632.5066498012391
 31
0.0
  0
LINE
  5
AC6
  8
DETAIL
  6
CONTINUOUS
 62
     5
 10
120.0362680607486
 20
1648.6115156359781
 30
0.0
 11
120.0362680607486
 21
1647.9113040723009
 31
0.0
  0
LINE
  5
AC7
  8
DETAIL
  6
CONTINUOUS
 62
     5
 10
128.82290053241371
 20
1640.509067671954
 30
0.0
 11
128.82290053241371
 21
1632.5066498012391
 31
0.0
  0
LINE
  5
AC8
  8
DETAIL
  6
CONTINUOUS
 62
     5
 10
138.97102380154001
 20
1640.509067671954
 30
0.0
 11
138.97102380154001
 21
1632.5066498012391
 31
0.0
  0
LINE
  5
AC9
  8
DETAIL
  6
CONTINUOUS
 62
     5
 10
140.04231273747831
 20
1647.9113040723009
 30
0.0
 11
140.04231273747831
 21
1647.211092508624
 31
0.0
  0
LINE
  5
ACA
  8
DETAIL
  6
CONTINUOUS
 62
     5
 10
148.94983228507309
 20
1640.509067671954
 30
0.0
 11
148.94983228507309
 21
1632.5066498012391
 31
0.0
  0
LINE
  5
ACB
  8
DETAIL
  6
CONTINUOUS
 62
     5
 10
158.7471683418602
 20
1640.509067671954
 30
0.0
 11
158.7471683418602
 21
1634.588176280593
 31
0.0
  0
LINE
  5
ACC
  8
DETAIL
  6
CONTINUOUS
 62
     5
 10
160.04835741420669
 20
1647.211092508624
 30
0.0
 11
160.04835741420669
 21
1646.510880944918
 31
0.0
  0
LINE
  5
ACD
  8
DETAIL
  6
CONTINUOUS
 62
     5
 10
168.3510954271818
 20
1640.509067671954
 30
0.0
 11
168.3510954271818
 21
1636.4602145337481
 31
0.0
  0
LINE
  5
ACE
  8
DETAIL
  6
CONTINUOUS
 62
     5
 10
177.74991263519311
 20
1640.509067671954
 30
0.0
 11
177.74991263519311
 21
1637.6992787376439
 31
0.0
  0
LINE
  5
AE4
  8
DETAIL
  6
CONTINUOUS
 62
     5
 10
157.83178205104511
 20
1637.4069474192329
 30
0.0
 11
158.41356761371111
 21
1635.810678399665
 31
0.0
  0
LINE
  5
AEF
  8
DETAIL
  6
CONTINUOUS
 62
     5
 10
136.963856032818
 20
1637.4069474192329
 30
0.0
 11
137.4678982912159
 21
1635.810678399665
 31
0.0
  0
LINE
  5
AF3
  8
DETAIL
  6
CONTINUOUS
 62
     5
 10
136.33960503713971
 20
1638.7215691891599
 30
0.0
 11
136.963856032818
 21
1637.4069474192329
 31
0.0
  0
LINE
  5
AF4
  8
DETAIL
  6
CONTINUOUS
 62
     5
 10
177.9307674923343
 20
1637.4069474192329
 30
0.0
 11
178.58746195855059
 21
1635.810678399665
 31
0.0
  0
LINE
  5
AFF
  8
DETAIL
  6
CONTINUOUS
 62
     5
 10
157.1112467969042
 20
1638.7215691891599
 30
0.0
 11
157.83178205104511
 21
1637.4069474192329
 31
0.0
  0
LINE
  5
B00
  8
DETAIL
  6
CONTINUOUS
 62
     5
 10
135.62062292657399
 20
1639.700889911376
 30
0.0
 11
136.33960503713971
 21
1638.7215691891599
 31
0.0
  0
LINE
  5
B01
  8
DETAIL
  6
CONTINUOUS
 62
     5
 10
177.1174583549718
 20
1638.7215691891599
 30
0.0
 11
177.9307674923343
 21
1637.4069474192329
 31
0.0
  0
LINE
  5
B02
  8
DETAIL
  6
CONTINUOUS
 62
     5
 10
156.2813691331871
 20
1639.700889911376
 30
0.0
 11
157.1112467969042
 21
1638.7215691891599
 31
0.0
  0
LINE
  5
B03
  8
DETAIL
  6
CONTINUOUS
 62
     5
 10
134.83625359415191
 20
1640.3049404655339
 30
0.0
 11
135.62062292657399
 21
1639.700889911376
 31
0.0
  0
LINE
  5
B04
  8
DETAIL
  6
CONTINUOUS
 62
     5
 10
176.1807282188569
 20
1639.700889911376
 30
0.0
 11
177.1174583549718
 21
1638.7215691891599
 31
0.0
  0
LINE
  5
B05
  8
DETAIL
  6
CONTINUOUS
 62
     5
 10
175.15880795029301
 20
1640.3049404655339
 30
0.0
 11
176.1807282188569
 21
1639.700889911376
 31
0.0
  0
LINE
  5
B06
  8
DETAIL
  6
CONTINUOUS
 62
     5
 10
155.376018945195
 20
1640.3049404655339
 30
0.0
 11
156.2813691331871
 21
1639.700889911376
 31
0.0
  0
LINE
  5
B13
  8
DETAIL
  6
CONTINUOUS
 62
     5
 10
118.51782640265399
 20
1640.509067671954
 30
0.0
 11
123.56049855372289
 21
1640.509067671954
 31
0.0
  0
LINE
  5
B14
  8
DETAIL
  6
CONTINUOUS
 62
     5
 10
128.82290053241371
 20
1640.509067671954
 30
0.0
 11
134.0185095888182
 21
1640.509067671954
 31
0.0
  0
LINE
  5
B15
  8
DETAIL
  6
CONTINUOUS
 62
     5
 10
138.97102380154001
 20
1640.509067671954
 30
0.0
 11
144.31323971391291
 21
1640.509067671954
 31
0.0
  0
LINE
  5
B16
  8
DETAIL
  6
CONTINUOUS
 62
     5
 10
148.94983228507309
 20
1640.509067671954
 30
0.0
 11
154.43214638616419
 21
1640.509067671954
 31
0.0
  0
LINE
  5
B17
  8
DETAIL
  6
CONTINUOUS
 62
     5
 10
158.7471683418602
 20
1640.509067671954
 30
0.0
 11
164.36290127646581
 21
1640.509067671954
 31
0.0
  0
LINE
  5
B18
  8
DETAIL
  6
CONTINUOUS
 62
     5
 10
168.3510954271818
 20
1640.509067671954
 30
0.0
 11
174.0934052897519
 21
1640.509067671954
 31
0.0
  0
LINE
  5
B19
  8
DETAIL
  6
CONTINUOUS
 62
     5
 10
171.5484920748649
 20
1640.509067671954
 30
0.0
 11
172.61389473531599
 21
1640.3049404655339
 31
0.0
  0
LINE
  5
B1A
  8
DETAIL
  6
CONTINUOUS
 62
     5
 10
172.61389473531599
 20
1640.3049404655339
 30
0.0
 11
173.63581500387909
 21
1639.700889911376
 31
0.0
  0
LINE
  5
B1B
  8
DETAIL
  6
CONTINUOUS
 62
     5
 10
173.63581500387909
 20
1639.700889911376
 30
0.0
 11
174.57254514007121
 21
1638.7215691891599
 31
0.0
  0
LINE
  5
B1C
  8
DETAIL
  6
CONTINUOUS
 62
     5
 10
174.57254514007121
 20
1638.7215691891599
 30
0.0
 11
175.38585427734091
 21
1637.4069474192329
 31
0.0
  0
LINE
  5
B1D
  8
DETAIL
  6
CONTINUOUS
 62
     5
 10
175.38585427734091
 20
1637.4069474192329
 30
0.0
 11
176.04254874357321
 21
1635.810678399665
 31
0.0
  0
LINE
  5
B1E
  8
DETAIL
  6
CONTINUOUS
 62
     5
 10
174.0934052897519
 20
1640.509067671954
 30
0.0
 11
175.15880795029301
 21
1640.3049404655339
 31
0.0
  0
LINE
  5
B1F
  8
DETAIL
  6
CONTINUOUS
 62
     5
 10
161.76403983861599
 20
1640.509067671954
 30
0.0
 11
162.76928981948581
 21
1640.3049404655339
 31
0.0
  0
LINE
  5
B20
  8
DETAIL
  6
CONTINUOUS
 62
     5
 10
162.76928981948581
 20
1640.3049404655339
 30
0.0
 11
163.73351242612711
 21
1639.700889911376
 31
0.0
  0
LINE
  5
B21
  8
DETAIL
  6
CONTINUOUS
 62
     5
 10
163.73351242612711
 20
1639.700889911376
 30
0.0
 11
164.61735473897119
 21
1638.7215691891599
 31
0.0
  0
LINE
  5
B22
  8
DETAIL
  6
CONTINUOUS
 62
     5
 10
164.61735473897119
 20
1638.7215691891599
 30
0.0
 11
165.38474440771409
 21
1637.4069474192329
 31
0.0
  0
LINE
  5
B23
  8
DETAIL
  6
CONTINUOUS
 62
     5
 10
165.38474440771409
 20
1637.4069474192329
 30
0.0
 11
166.00436187640381
 21
1635.810678399665
 31
0.0
  0
LINE
  5
B24
  8
DETAIL
  6
CONTINUOUS
 62
     5
 10
164.36290127646581
 20
1640.509067671954
 30
0.0
 11
165.368151257428
 21
1640.3049404655339
 31
0.0
  0
LINE
  5
B25
  8
DETAIL
  6
CONTINUOUS
 62
     5
 10
165.368151257428
 20
1640.3049404655339
 30
0.0
 11
166.33237386406969
 21
1639.700889911376
 31
0.0
  0
LINE
  5
B26
  8
DETAIL
  6
CONTINUOUS
 62
     5
 10
166.33237386406969
 20
1639.700889911376
 30
0.0
 11
167.216216176806
 21
1638.7215691891599
 31
0.0
  0
LINE
  5
B27
  8
DETAIL
  6
CONTINUOUS
 62
     5
 10
167.216216176806
 20
1638.7215691891599
 30
0.0
 11
167.9836058455648
 21
1637.4069474192329
 31
0.0
  0
LINE
  5
B28
  8
DETAIL
  6
CONTINUOUS
 62
     5
 10
167.9836058455648
 20
1637.4069474192329
 30
0.0
 11
168.60322331424001
 21
1635.810678399665
 31
0.0
  0
LINE
  5
B29
  8
DETAIL
  6
CONTINUOUS
 62
     5
 10
151.7825030376529
 20
1640.509067671954
 30
0.0
 11
152.7263755966832
 21
1640.3049404655339
 31
0.0
  0
LINE
  5
B2A
  8
DETAIL
  6
CONTINUOUS
 62
     5
 10
152.7263755966832
 20
1640.3049404655339
 30
0.0
 11
153.6317257847667
 21
1639.700889911376
 31
0.0
  0
LINE
  5
B2B
  8
DETAIL
  6
CONTINUOUS
 62
     5
 10
153.6317257847667
 20
1639.700889911376
 30
0.0
 11
154.46160344839291
 21
1638.7215691891599
 31
0.0
  0
LINE
  5
B2C
  8
DETAIL
  6
CONTINUOUS
 62
     5
 10
154.46160344839291
 20
1638.7215691891599
 30
0.0
 11
155.18213870253291
 21
1637.4069474192329
 31
0.0
  0
LINE
  5
B2D
  8
DETAIL
  6
CONTINUOUS
 62
     5
 10
155.18213870253291
 20
1637.4069474192329
 30
0.0
 11
155.7639242651839
 21
1635.810678399665
 31
0.0
  0
LINE
  5
B2E
  8
DETAIL
  6
CONTINUOUS
 62
     5
 10
154.43214638616419
 20
1640.509067671954
 30
0.0
 11
155.376018945195
 21
1640.3049404655339
 31
0.0
  0
LINE
  5
B2F
  8
DETAIL
  6
CONTINUOUS
 62
     5
 10
141.6160426370929
 20
1640.509067671954
 30
0.0
 11
142.49738781094621
 21
1640.3049404655339
 31
0.0
  0
LINE
  5
B30
  8
DETAIL
  6
CONTINUOUS
 62
     5
 10
142.49738781094621
 20
1640.3049404655339
 30
0.0
 11
143.34276255059871
 21
1639.700889911376
 31
0.0
  0
LINE
  5
B31
  8
DETAIL
  6
CONTINUOUS
 62
     5
 10
143.34276255059871
 20
1639.700889911376
 30
0.0
 11
144.1176644871243
 21
1638.7215691891599
 31
0.0
  0
LINE
  5
B32
  8
DETAIL
  6
CONTINUOUS
 62
     5
 10
144.1176644871243
 20
1638.7215691891599
 30
0.0
 11
144.79046746530821
 21
1637.4069474192329
 31
0.0
  0
LINE
  5
B33
  8
DETAIL
  6
CONTINUOUS
 62
     5
 10
144.79046746530821
 20
1637.4069474192329
 30
0.0
 11
145.33371230597319
 21
1635.810678399665
 31
0.0
  0
LINE
  5
B34
  8
DETAIL
  6
CONTINUOUS
 62
     5
 10
144.31323971391291
 20
1640.509067671954
 30
0.0
 11
145.19458488776709
 21
1640.3049404655339
 31
0.0
  0
LINE
  5
B35
  8
DETAIL
  6
CONTINUOUS
 62
     5
 10
145.19458488776709
 20
1640.3049404655339
 30
0.0
 11
146.0399596274201
 21
1639.700889911376
 31
0.0
  0
LINE
  5
B36
  8
DETAIL
  6
CONTINUOUS
 62
     5
 10
146.0399596274201
 20
1639.700889911376
 30
0.0
 11
146.81486156394519
 21
1638.7215691891599
 31
0.0
  0
LINE
  5
B37
  8
DETAIL
  6
CONTINUOUS
 62
     5
 10
146.81486156394519
 20
1638.7215691891599
 30
0.0
 11
147.48766454212679
 21
1637.4069474192329
 31
0.0
  0
LINE
  5
B38
  8
DETAIL
  6
CONTINUOUS
 62
     5
 10
147.48766454212679
 20
1637.4069474192329
 30
0.0
 11
148.03090938279411
 21
1635.810678399665
 31
0.0
  0
LINE
  5
B39
  8
DETAIL
  6
CONTINUOUS
 62
     5
 10
131.2770449027752
 20
1640.509067671954
 30
0.0
 11
132.09478890821569
 21
1640.3049404655339
 31
0.0
  0
LINE
  5
B3A
  8
DETAIL
  6
CONTINUOUS
 62
     5
 10
132.09478890821569
 20
1640.3049404655339
 30
0.0
 11
132.8791582405301
 21
1639.700889911376
 31
0.0
  0
LINE
  5
B3B
  8
DETAIL
  6
CONTINUOUS
 62
     5
 10
132.8791582405301
 20
1639.700889911376
 30
0.0
 11
133.59814035120229
 21
1638.7215691891599
 31
0.0
  0
LINE
  5
B3C
  8
DETAIL
  6
CONTINUOUS
 62
     5
 10
133.59814035120229
 20
1638.7215691891599
 30
0.0
 11
134.2223913467742
 21
1637.4069474192329
 31
0.0
  0
LINE
  5
B3D
  8
DETAIL
  6
CONTINUOUS
 62
     5
 10
134.2223913467742
 20
1637.4069474192329
 30
0.0
 11
134.726433605263
 21
1635.810678399665
 31
0.0
  0
LINE
  5
B3E
  8
DETAIL
  6
CONTINUOUS
 62
     5
 10
134.0185095888182
 20
1640.509067671954
 30
0.0
 11
134.83625359415191
 21
1640.3049404655339
 31
0.0
  0
LINE
  5
B3F
  8
DETAIL
  6
CONTINUOUS
 62
     5
 10
120.7781063110191
 20
1640.509067671954
 30
0.0
 11
121.53125285272149
 21
1640.3049404655339
 31
0.0
  0
LINE
  5
B40
  8
DETAIL
  6
CONTINUOUS
 62
     5
 10
121.53125285272149
 20
1640.3049404655339
 30
0.0
 11
122.25366114467531
 21
1639.700889911376
 31
0.0
  0
LINE
  5
B41
  8
DETAIL
  6
CONTINUOUS
 62
     5
 10
122.25366114467531
 20
1639.700889911376
 30
0.0
 11
122.9158474605223
 21
1638.7215691891599
 31
0.0
  0
LINE
  5
B42
  8
DETAIL
  6
CONTINUOUS
 62
     5
 10
122.9158474605223
 20
1638.7215691891599
 30
0.0
 11
123.49078591977511
 21
1637.4069474192329
 31
0.0
  0
LINE
  5
B43
  8
DETAIL
  6
CONTINUOUS
 62
     5
 10
123.49078591977511
 20
1637.4069474192329
 30
0.0
 11
123.95501149816209
 21
1635.810678399665
 31
0.0
  0
LINE
  5
B44
  8
DETAIL
  6
CONTINUOUS
 62
     5
 10
123.56049855372289
 20
1640.509067671954
 30
0.0
 11
124.31364509542379
 21
1640.3049404655339
 31
0.0
  0
LINE
  5
B45
  8
DETAIL
  6
CONTINUOUS
 62
     5
 10
124.31364509542379
 20
1640.3049404655339
 30
0.0
 11
125.03605338737989
 21
1639.700889911376
 31
0.0
  0
LINE
  5
B46
  8
DETAIL
  6
CONTINUOUS
 62
     5
 10
125.03605338737989
 20
1639.700889911376
 30
0.0
 11
125.69823970322599
 21
1638.7215691891599
 31
0.0
  0
LINE
  5
B47
  8
DETAIL
  6
CONTINUOUS
 62
     5
 10
125.69823970322599
 20
1638.7215691891599
 30
0.0
 11
126.2731781624779
 21
1637.4069474192329
 31
0.0
  0
LINE
  5
B48
  8
DETAIL
  6
CONTINUOUS
 62
     5
 10
126.2731781624779
 20
1637.4069474192329
 30
0.0
 11
126.7374037408653
 21
1635.810678399665
 31
0.0
  0
LINE
  5
B49
  8
DETAIL
  6
CONTINUOUS
 62
     5
 10
111.4792167944242
 20
1639.700889911376
 30
0.0
 11
112.08380054348611
 21
1638.7215691891599
 31
0.0
  0
LINE
  5
B4A
  8
DETAIL
  6
CONTINUOUS
 62
     5
 10
112.08380054348611
 20
1638.7215691891599
 30
0.0
 11
112.6087259924838
 21
1637.4069474192329
 31
0.0
  0
LINE
  5
B4B
  8
DETAIL
  6
CONTINUOUS
 62
     5
 10
112.6087259924838
 20
1637.4069474192329
 30
0.0
 11
113.0325693033642
 21
1635.810678399665
 31
0.0
  0
LINE
  5
B4C
  8
DETAIL
  6
CONTINUOUS
 62
     5
 10
112.9519480841586
 20
1640.509067671954
 30
0.0
 11
113.6395795692801
 21
1640.3049404655339
 31
0.0
  0
LINE
  5
B4D
  8
DETAIL
  6
CONTINUOUS
 62
     5
 10
113.6395795692801
 20
1640.3049404655339
 30
0.0
 11
114.2991466775451
 21
1639.700889911376
 31
0.0
  0
LINE
  5
B4E
  8
DETAIL
  6
CONTINUOUS
 62
     5
 10
114.2991466775451
 20
1639.700889911376
 30
0.0
 11
114.9037304265007
 21
1638.7215691891599
 31
0.0
  0
LINE
  5
B4F
  8
DETAIL
  6
CONTINUOUS
 62
     5
 10
114.9037304265007
 20
1638.7215691891599
 30
0.0
 11
115.428655875497
 21
1637.4069474192329
 31
0.0
  0
LINE
  5
B50
  8
DETAIL
  6
CONTINUOUS
 62
     5
 10
115.428655875497
 20
1637.4069474192329
 30
0.0
 11
115.85249918637911
 21
1635.810678399665
 31
0.0
  0
LINE
  5
B51
  8
DETAIL
  6
CONTINUOUS
 62
     5
 10
180.0544020909378
 20
1646.510880944918
 30
0.0
 11
180.0544020909378
 21
1645.810669381241
 31
0.0
  0
LINE
  5
B52
  8
DETAIL
  6
CONTINUOUS
 62
     5
 10
186.93216895495101
 20
1640.509067671954
 30
0.0
 11
186.93216895495101
 21
1638.5235746480889
 31
0.0
  0
LINE
  5
B53
  8
DETAIL
  6
CONTINUOUS
 62
     5
 10
195.88667722153369
 20
1640.509067671954
 30
0.0
 11
195.88667722153369
 21
1639.0741693398611
 31
0.0
  0
LINE
  5
B54
  8
DETAIL
  6
CONTINUOUS
 62
     5
 10
200.06044676768209
 20
1645.810669381241
 30
0.0
 11
200.06044676768209
 21
1645.110457817563
 31
0.0
  0
LINE
  5
B55
  8
DETAIL
  6
CONTINUOUS
 62
     5
 10
204.60252774586471
 20
1640.509067671954
 30
0.0
 11
204.60252774586471
 21
1639.5107446021841
 31
0.0
  0
LINE
  5
B56
  8
DETAIL
  6
CONTINUOUS
 62
     5
 10
213.06910160681301
 20
1640.509067671954
 30
0.0
 11
213.06910160681301
 21
1639.819096996564
 31
0.0
  0
LINE
  5
B57
  8
DETAIL
  6
CONTINUOUS
 62
     5
 10
220.0664914444109
 20
1645.110457817563
 30
0.0
 11
220.0664914444109
 21
1644.4102462538569
 31
0.0
  0
LINE
  5
B58
  8
DETAIL
  6
CONTINUOUS
 62
     5
 10
221.27608358822309
 20
1640.509067671954
 30
0.0
 11
221.27608358822309
 21
1640.026773430651
 31
0.0
  0
LINE
  5
B59
  8
DETAIL
  6
CONTINUOUS
 62
     5
 10
229.21347474679121
 20
1640.509067671954
 30
0.0
 11
229.21347474679121
 21
1640.2189424800019
 31
0.0
  0
LINE
  5
B5A
  8
DETAIL
  6
CONTINUOUS
 62
     5
 10
236.87160459402679
 20
1640.509067671954
 30
0.0
 11
236.87160459402679
 21
1640.335006873778
 31
0.0
  0
LINE
  5
B5B
  8
DETAIL
  6
CONTINUOUS
 62
     5
 10
240.07253612113979
 20
1644.4102462538569
 30
0.0
 11
240.07253612113979
 21
1643.7100346901809
 31
0.0
  0
LINE
  5
B7A
  8
DETAIL
  6
CONTINUOUS
 62
     5
 10
240.8474249898108
 20
1637.4069474192329
 30
0.0
 11
241.73885600222769
 21
1635.810678399665
 31
0.0
  0
LINE
  5
B7D
  8
DETAIL
  6
CONTINUOUS
 62
     5
 10
215.4344589558431
 20
1637.4069474192329
 30
0.0
 11
216.23102381906111
 21
1635.810678399665
 31
0.0
  0
LINE
  5
B7E
  8
DETAIL
  6
CONTINUOUS
 62
     5
 10
214.4479218141332
 20
1638.7215691891599
 30
0.0
 11
215.4344589558431
 21
1637.4069474192329
 31
0.0
  0
LINE
  5
B7F
  8
DETAIL
  6
CONTINUOUS
 62
     5
 10
196.26077145981199
 20
1638.7215691891599
 30
0.0
 11
197.16289211991801
 21
1637.4069474192329
 31
0.0
  0
LINE
  5
B80
  8
DETAIL
  6
CONTINUOUS
 62
     5
 10
197.16289211991801
 20
1637.4069474192329
 30
0.0
 11
197.8912961402379
 21
1635.810678399665
 31
0.0
  0
LINE
  5
B81
  8
DETAIL
  6
CONTINUOUS
 62
     5
 10
195.221752506206
 20
1639.700889911376
 30
0.0
 11
196.26077145981199
 21
1638.7215691891599
 31
0.0
  0
LINE
  5
B82
  8
DETAIL
  6
CONTINUOUS
 62
     5
 10
239.74339712765681
 20
1638.7215691891599
 30
0.0
 11
240.8474249898108
 21
1637.4069474192329
 31
0.0
  0
LINE
  5
B83
  8
DETAIL
  6
CONTINUOUS
 62
     5
 10
238.47183122202571
 20
1639.700889911376
 30
0.0
 11
239.74339712765681
 21
1638.7215691891599
 31
0.0
  0
LINE
  5
B89
  8
DETAIL
  6
CONTINUOUS
 62
     5
 10
186.93216895495101
 20
1640.509067671954
 30
0.0
 11
192.90649862266901
 21
1640.509067671954
 31
0.0
  0
LINE
  5
B8A
  8
DETAIL
  6
CONTINUOUS
 62
     5
 10
195.88667722153369
 20
1640.509067671954
 30
0.0
 11
201.96616708590909
 21
1640.509067671954
 31
0.0
  0
LINE
  5
B8B
  8
DETAIL
  6
CONTINUOUS
 62
     5
 10
204.60252774586471
 20
1640.509067671954
 30
0.0
 11
210.77977088516889
 21
1640.509067671954
 31
0.0
  0
LINE
  5
B8C
  8
DETAIL
  6
CONTINUOUS
 62
     5
 10
213.06910160681301
 20
1640.509067671954
 30
0.0
 11
219.3365720017041
 21
1640.509067671954
 31
0.0
  0
LINE
  5
B8D
  8
DETAIL
  6
CONTINUOUS
 62
     5
 10
221.27608358822309
 20
1640.509067671954
 30
0.0
 11
227.626145291364
 21
1640.509067671954
 31
0.0
  0
LINE
  5
B8E
  8
DETAIL
  6
CONTINUOUS
 62
     5
 10
229.21347474679121
 20
1640.509067671954
 30
0.0
 11
235.6383911862257
 21
1640.509067671954
 31
0.0
  0
LINE
  5
B8F
  8
DETAIL
  6
CONTINUOUS
 62
     5
 10
236.87160459402679
 20
1640.509067671954
 30
0.0
 11
243.3635479986601
 21
1640.509067671954
 31
0.0
  0
LINE
  5
B90
  8
DETAIL
  6
CONTINUOUS
 62
     5
 10
241.35554947783109
 20
1640.509067671954
 30
0.0
 11
242.84964212104791
 21
1640.3049404655339
 31
0.0
  0
LINE
  5
B91
  8
DETAIL
  6
CONTINUOUS
 62
     5
 10
242.84964212104791
 20
1640.3049404655339
 30
0.0
 11
244.28275620254499
 21
1639.700889911376
 31
0.0
  0
LINE
  5
B92
  8
DETAIL
  6
CONTINUOUS
 62
     5
 10
244.28275620254499
 20
1639.700889911376
 30
0.0
 11
245.59640188515999
 21
1638.7215691891599
 31
0.0
  0
LINE
  5
B93
  8
DETAIL
  6
CONTINUOUS
 62
     5
 10
245.59640188515999
 20
1638.7215691891599
 30
0.0
 11
246.73696520802969
 21
1637.4069474192329
 31
0.0
  0
LINE
  5
B94
  8
DETAIL
  6
CONTINUOUS
 62
     5
 10
243.3635479986601
 20
1640.509067671954
 30
0.0
 11
244.857640641876
 21
1640.3049404655339
 31
0.0
  0
LINE
  5
B95
  8
DETAIL
  6
CONTINUOUS
 62
     5
 10
244.857640641876
 20
1640.3049404655339
 30
0.0
 11
246.290754723373
 21
1639.700889911376
 31
0.0
  0
LINE
  5
B96
  8
DETAIL
  6
CONTINUOUS
 62
     5
 10
246.290754723373
 20
1639.700889911376
 30
0.0
 11
247.604400405989
 21
1638.7215691891599
 31
0.0
  0
LINE
  5
B97
  8
DETAIL
  6
CONTINUOUS
 62
     5
 10
233.5537862270312
 20
1640.509067671954
 30
0.0
 11
235.00001886809869
 21
1640.3049404655339
 31
0.0
  0
LINE
  5
B98
  8
DETAIL
  6
CONTINUOUS
 62
     5
 10
235.00001886809869
 20
1640.3049404655339
 30
0.0
 11
236.38722626284419
 21
1639.700889911376
 31
0.0
  0
LINE
  5
B99
  8
DETAIL
  6
CONTINUOUS
 62
     5
 10
236.38722626284419
 20
1639.700889911376
 30
0.0
 11
237.65879216846221
 21
1638.7215691891599
 31
0.0
  0
LINE
  5
B9A
  8
DETAIL
  6
CONTINUOUS
 62
     5
 10
237.65879216846221
 20
1638.7215691891599
 30
0.0
 11
238.76282003061479
 21
1637.4069474192329
 31
0.0
  0
LINE
  5
B9B
  8
DETAIL
  6
CONTINUOUS
 62
     5
 10
238.76282003061479
 20
1637.4069474192329
 30
0.0
 11
239.6542510430308
 21
1635.810678399665
 31
0.0
  0
LINE
  5
B9C
  8
DETAIL
  6
CONTINUOUS
 62
     5
 10
235.6383911862257
 20
1640.509067671954
 30
0.0
 11
237.08462382729519
 21
1640.3049404655339
 31
0.0
  0
LINE
  5
B9D
  8
DETAIL
  6
CONTINUOUS
 62
     5
 10
225.4674736638797
 20
1640.509067671954
 30
0.0
 11
226.86408429112811
 21
1640.3049404655339
 31
0.0
  0
LINE
  5
B9E
  8
DETAIL
  6
CONTINUOUS
 62
     5
 10
226.86408429112811
 20
1640.3049404655339
 30
0.0
 11
228.20369490055089
 21
1639.700889911376
 31
0.0
  0
LINE
  5
B9F
  8
DETAIL
  6
CONTINUOUS
 62
     5
 10
228.20369490055089
 20
1639.700889911376
 30
0.0
 11
229.43163182201479
 21
1638.7215691891599
 31
0.0
  0
LINE
  5
BA0
  8
DETAIL
  6
CONTINUOUS
 62
     5
 10
229.43163182201479
 20
1638.7215691891599
 30
0.0
 11
230.49777913564591
 21
1637.4069474192329
 31
0.0
  0
LINE
  5
BA1
  8
DETAIL
  6
CONTINUOUS
 62
     5
 10
230.49777913564591
 20
1637.4069474192329
 30
0.0
 11
231.3586240578997
 21
1635.810678399665
 31
0.0
  0
LINE
  5
BA2
  8
DETAIL
  6
CONTINUOUS
 62
     5
 10
227.626145291364
 20
1640.509067671954
 30
0.0
 11
229.02275591861181
 21
1640.3049404655339
 31
0.0
  0
LINE
  5
BA3
  8
DETAIL
  6
CONTINUOUS
 62
     5
 10
229.02275591861181
 20
1640.3049404655339
 30
0.0
 11
230.3623665280351
 21
1639.700889911376
 31
0.0
  0
LINE
  5
BA4
  8
DETAIL
  6
CONTINUOUS
 62
     5
 10
230.3623665280351
 20
1639.700889911376
 30
0.0
 11
231.59030344949809
 21
1638.7215691891599
 31
0.0
  0
LINE
  5
BA5
  8
DETAIL
  6
CONTINUOUS
 62
     5
 10
231.59030344949809
 20
1638.7215691891599
 30
0.0
 11
232.65645076312919
 21
1637.4069474192329
 31
0.0
  0
LINE
  5
BA6
  8
DETAIL
  6
CONTINUOUS
 62
     5
 10
232.65645076312919
 20
1637.4069474192329
 30
0.0
 11
233.51729568538391
 21
1635.810678399665
 31
0.0
  0
LINE
  5
BA7
  8
DETAIL
  6
CONTINUOUS
 62
     5
 10
217.10646371467689
 20
1640.509067671954
 30
0.0
 11
218.4517507731957
 21
1640.3049404655339
 31
0.0
  0
LINE
  5
BA8
  8
DETAIL
  6
CONTINUOUS
 62
     5
 10
218.4517507731957
 20
1640.3049404655339
 30
0.0
 11
219.74213248807291
 21
1639.700889911376
 31
0.0
  0
LINE
  5
BA9
  8
DETAIL
  6
CONTINUOUS
 62
     5
 10
219.74213248807291
 20
1639.700889911376
 30
0.0
 11
220.9249443734461
 21
1638.7215691891599
 31
0.0
  0
LINE
  5
BAA
  8
DETAIL
  6
CONTINUOUS
 62
     5
 10
220.9249443734461
 20
1638.7215691891599
 30
0.0
 11
221.9519122021911
 21
1637.4069474192329
 31
0.0
  0
LINE
  5
BAB
  8
DETAIL
  6
CONTINUOUS
 62
     5
 10
221.9519122021911
 20
1637.4069474192329
 30
0.0
 11
222.78112222728481
 21
1635.810678399665
 31
0.0
  0
LINE
  5
BAC
  8
DETAIL
  6
CONTINUOUS
 62
     5
 10
219.3365720017041
 20
1640.509067671954
 30
0.0
 11
220.6818590601319
 21
1640.3049404655339
 31
0.0
  0
LINE
  5
BAD
  8
DETAIL
  6
CONTINUOUS
 62
     5
 10
220.6818590601319
 20
1640.3049404655339
 30
0.0
 11
221.9722407751151
 21
1639.700889911376
 31
0.0
  0
LINE
  5
BAE
  8
DETAIL
  6
CONTINUOUS
 62
     5
 10
221.9722407751151
 20
1639.700889911376
 30
0.0
 11
223.15505266047191
 21
1638.7215691891599
 31
0.0
  0
LINE
  5
BAF
  8
DETAIL
  6
CONTINUOUS
 62
     5
 10
223.15505266047191
 20
1638.7215691891599
 30
0.0
 11
224.18202048921691
 21
1637.4069474192329
 31
0.0
  0
LINE
  5
BB0
  8
DETAIL
  6
CONTINUOUS
 62
     5
 10
224.18202048921691
 20
1637.4069474192329
 30
0.0
 11
225.0112305142201
 21
1635.810678399665
 31
0.0
  0
LINE
  5
BB1
  8
DETAIL
  6
CONTINUOUS
 62
     5
 10
208.48094298211981
 20
1640.509067671954
 30
0.0
 11
209.77326744687701
 21
1640.3049404655339
 31
0.0
  0
LINE
  5
BB2
  8
DETAIL
  6
CONTINUOUS
 62
     5
 10
209.77326744687701
 20
1640.3049404655339
 30
0.0
 11
211.0128481359101
 21
1639.700889911376
 31
0.0
  0
LINE
  5
BB3
  8
DETAIL
  6
CONTINUOUS
 62
     5
 10
211.0128481359101
 20
1639.700889911376
 30
0.0
 11
212.14909391106809
 21
1638.7215691891599
 31
0.0
  0
LINE
  5
BB4
  8
DETAIL
  6
CONTINUOUS
 62
     5
 10
212.14909391106809
 20
1638.7215691891599
 30
0.0
 11
213.13563105279479
 21
1637.4069474192329
 31
0.0
  0
LINE
  5
BB5
  8
DETAIL
  6
CONTINUOUS
 62
     5
 10
213.13563105279479
 20
1637.4069474192329
 30
0.0
 11
213.93219591610381
 21
1635.810678399665
 31
0.0
  0
LINE
  5
BB6
  8
DETAIL
  6
CONTINUOUS
 62
     5
 10
210.77977088516889
 20
1640.509067671954
 30
0.0
 11
212.0720953498348
 21
1640.3049404655339
 31
0.0
  0
LINE
  5
BB7
  8
DETAIL
  6
CONTINUOUS
 62
     5
 10
199.60142033457211
 20
1640.509067671954
 30
0.0
 11
200.8392077071712
 21
1640.3049404655339
 31
0.0
  0
LINE
  5
BB8
  8
DETAIL
  6
CONTINUOUS
 62
     5
 10
200.8392077071712
 20
1640.3049404655339
 30
0.0
 11
202.0264771323381
 21
1639.700889911376
 31
0.0
  0
LINE
  5
BB9
  8
DETAIL
  6
CONTINUOUS
 62
     5
 10
202.0264771323381
 20
1639.700889911376
 30
0.0
 11
203.114772456829
 21
1638.7215691891599
 31
0.0
  0
LINE
  5
BBA
  8
DETAIL
  6
CONTINUOUS
 62
     5
 10
203.114772456829
 20
1638.7215691891599
 30
0.0
 11
204.0596769680578
 21
1637.4069474192329
 31
0.0
  0
LINE
  5
BBB
  8
DETAIL
  6
CONTINUOUS
 62
     5
 10
204.0596769680578
 20
1637.4069474192329
 30
0.0
 11
204.822626177854
 21
1635.810678399665
 31
0.0
  0
LINE
  5
BBC
  8
DETAIL
  6
CONTINUOUS
 62
     5
 10
201.96616708590909
 20
1640.509067671954
 30
0.0
 11
203.2039544586118
 21
1640.3049404655339
 31
0.0
  0
LINE
  5
BBD
  8
DETAIL
  6
CONTINUOUS
 62
     5
 10
203.2039544586118
 20
1640.3049404655339
 30
0.0
 11
204.39122388368921
 21
1639.700889911376
 31
0.0
  0
LINE
  5
BBE
  8
DETAIL
  6
CONTINUOUS
 62
     5
 10
204.39122388368921
 20
1639.700889911376
 30
0.0
 11
205.4795192081809
 21
1638.7215691891599
 31
0.0
  0
LINE
  5
BBF
  8
DETAIL
  6
CONTINUOUS
 62
     5
 10
205.4795192081809
 20
1638.7215691891599
 30
0.0
 11
206.42442371939379
 21
1637.4069474192329
 31
0.0
  0
LINE
  5
BC0
  8
DETAIL
  6
CONTINUOUS
 62
     5
 10
206.42442371939379
 20
1637.4069474192329
 30
0.0
 11
207.18737292920511
 21
1635.810678399665
 31
0.0
  0
LINE
  5
BC1
  8
DETAIL
  6
CONTINUOUS
 62
     5
 10
190.478714102629
 20
1640.509067671954
 30
0.0
 11
191.66045632990381
 21
1640.3049404655339
 31
0.0
  0
LINE
  5
BC2
  8
DETAIL
  6
CONTINUOUS
 62
     5
 10
191.66045632990381
 20
1640.3049404655339
 30
0.0
 11
192.79396798607689
 21
1639.700889911376
 31
0.0
  0
LINE
  5
BC3
  8
DETAIL
  6
CONTINUOUS
 62
     5
 10
192.79396798607689
 20
1639.700889911376
 30
0.0
 11
193.83298693977301
 21
1638.7215691891599
 31
0.0
  0
LINE
  5
BC4
  8
DETAIL
  6
CONTINUOUS
 62
     5
 10
193.83298693977301
 20
1638.7215691891599
 30
0.0
 11
194.735107599879
 21
1637.4069474192329
 31
0.0
  0
LINE
  5
BC5
  8
DETAIL
  6
CONTINUOUS
 62
     5
 10
194.735107599879
 20
1637.4069474192329
 30
0.0
 11
195.463511620107
 21
1635.810678399665
 31
0.0
  0
LINE
  5
BC6
  8
DETAIL
  6
CONTINUOUS
 62
     5
 10
192.90649862266901
 20
1640.509067671954
 30
0.0
 11
194.08824084994279
 21
1640.3049404655339
 31
0.0
  0
LINE
  5
BC7
  8
DETAIL
  6
CONTINUOUS
 62
     5
 10
181.12393889848181
 20
1640.509067671954
 30
0.0
 11
182.24819620952479
 21
1640.3049404655339
 31
0.0
  0
LINE
  5
BC8
  8
DETAIL
  6
CONTINUOUS
 62
     5
 10
182.24819620952479
 20
1640.3049404655339
 30
0.0
 11
183.32656908752409
 21
1639.700889911376
 31
0.0
  0
LINE
  5
BC9
  8
DETAIL
  6
CONTINUOUS
 62
     5
 10
183.32656908752409
 20
1639.700889911376
 30
0.0
 11
184.31504578576229
 21
1638.7215691891599
 31
0.0
  0
LINE
  5
BCA
  8
DETAIL
  6
CONTINUOUS
 62
     5
 10
184.31504578576229
 20
1638.7215691891599
 30
0.0
 11
185.1732834996601
 21
1637.4069474192329
 31
0.0
  0
LINE
  5
BCB
  8
DETAIL
  6
CONTINUOUS
 62
     5
 10
185.1732834996601
 20
1637.4069474192329
 30
0.0
 11
185.86625488238991
 21
1635.810678399665
 31
0.0
  0
LINE
  5
BCC
  8
DETAIL
  6
CONTINUOUS
 62
     5
 10
183.61180330580001
 20
1640.509067671954
 30
0.0
 11
184.73606061684399
 21
1640.3049404655339
 31
0.0
  0
LINE
  5
BCD
  8
DETAIL
  6
CONTINUOUS
 62
     5
 10
184.73606061684399
 20
1640.3049404655339
 30
0.0
 11
185.81443349484189
 21
1639.700889911376
 31
0.0
  0
LINE
  5
BCE
  8
DETAIL
  6
CONTINUOUS
 62
     5
 10
185.81443349484189
 20
1639.700889911376
 30
0.0
 11
186.802910193081
 21
1638.7215691891599
 31
0.0
  0
LINE
  5
BCF
  8
DETAIL
  6
CONTINUOUS
 62
     5
 10
186.802910193081
 20
1638.7215691891599
 30
0.0
 11
187.66114790697691
 21
1637.4069474192329
 31
0.0
  0
LINE
  5
BD0
  8
DETAIL
  6
CONTINUOUS
 62
     5
 10
187.66114790697691
 20
1637.4069474192329
 30
0.0
 11
188.35411928970811
 21
1635.810678399665
 31
0.0
  0
LINE
  5
BD1
  8
DETAIL
  6
CONTINUOUS
 62
     5
 10
237.08462382729519
 20
1640.3049404655339
 30
0.0
 11
238.47183122202571
 21
1639.700889911376
 31
0.0
  0
LINE
  5
BD2
  8
DETAIL
  6
CONTINUOUS
 62
     5
 10
212.0720953498348
 20
1640.3049404655339
 30
0.0
 11
213.3116760389739
 21
1639.700889911376
 31
0.0
  0
LINE
  5
BD3
  8
DETAIL
  6
CONTINUOUS
 62
     5
 10
213.3116760389739
 20
1639.700889911376
 30
0.0
 11
214.4479218141332
 21
1638.7215691891599
 31
0.0
  0
LINE
  5
BD4
  8
DETAIL
  6
CONTINUOUS
 62
     5
 10
194.08824084994279
 20
1640.3049404655339
 30
0.0
 11
195.221752506206
 21
1639.700889911376
 31
0.0
  0
LINE
  5
BE1
  8
DETAIL
  6
CONTINUOUS
 62
     5
 10
324.12058667744623
 20
1625.9949815576169
 30
0.0
 11
328.93023067600592
 21
1615.830085884832
 31
0.0
  0
LINE
  5
BEF
  8
DETAIL
  6
CONTINUOUS
 62
     5
 10
340.053351574972
 20
1625.9949815576169
 30
0.0
 11
345.10742986691997
 21
1615.830085884832
 31
0.0
  0
LINE
  5
BF0
  8
DETAIL
  6
CONTINUOUS
 62
     5
 10
340.15808170848999
 20
1625.9949815576169
 30
0.0
 11
345.21216000043893
 21
1615.830085884832
 31
0.0
  0
LINE
  5
BF1
  8
DETAIL
  6
CONTINUOUS
 62
     5
 10
339.37937437990371
 20
1625.9949815576169
 30
0.0
 11
344.424214371358
 21
1615.830085884832
 31
0.0
  0
LINE
  5
BF2
  8
DETAIL
  6
CONTINUOUS
 62
     5
 10
339.58870704949823
 20
1625.9949815576169
 30
0.0
 11
344.63354704086032
 21
1615.830085884832
 31
0.0
  0
LINE
  5
BF3
  8
DETAIL
  6
CONTINUOUS
 62
     5
 10
338.2919156945913
 20
1625.9949815576169
 30
0.0
 11
343.32137102509017
 21
1615.830085884832
 31
0.0
  0
LINE
  5
BF4
  8
DETAIL
  6
CONTINUOUS
 62
     5
 10
338.6055958605038
 20
1625.9949815576169
 30
0.0
 11
343.63505119101768
 21
1615.830085884832
 31
0.0
  0
LINE
  5
BF5
  8
DETAIL
  6
CONTINUOUS
 62
     5
 10
336.79230041985687
 20
1625.9949815576169
 30
0.0
 11
341.80024347287781
 21
1615.830085884832
 31
0.0
  0
LINE
  5
BF6
  8
DETAIL
  6
CONTINUOUS
 62
     5
 10
337.20994591121001
 20
1625.9949815576169
 30
0.0
 11
342.21788896424567
 21
1615.830085884832
 31
0.0
  0
LINE
  5
BF7
  8
DETAIL
  6
CONTINUOUS
 62
     5
 10
334.88235560592369
 20
1625.9949815576169
 30
0.0
 11
339.86268497428398
 21
1615.830085884832
 31
0.0
  0
LINE
  5
BF8
  8
DETAIL
  6
CONTINUOUS
 62
     5
 10
335.4034575859809
 20
1625.9949815576169
 30
0.0
 11
340.3837869543413
 21
1615.830085884832
 31
0.0
  0
LINE
  5
BF9
  8
DETAIL
  6
CONTINUOUS
 62
     5
 10
332.56440822646391
 20
1625.9949815576169
 30
0.0
 11
337.5110561458182
 21
1615.830085884832
 31
0.0
  0
LINE
  5
BFA
  8
DETAIL
  6
CONTINUOUS
 62
     5
 10
333.18833181270202
 20
1625.9949815576169
 30
0.0
 11
338.13497973216272
 21
1615.830085884832
 31
0.0
  0
LINE
  5
BFB
  8
DETAIL
  6
CONTINUOUS
 62
     5
 10
329.84128234303893
 20
1625.9949815576169
 30
0.0
 11
334.74822208508209
 21
1615.830085884832
 31
0.0
  0
LINE
  5
BFC
  8
DETAIL
  6
CONTINUOUS
 62
     5
 10
330.56726738079198
 20
1625.9949815576169
 30
0.0
 11
335.47420712281968
 21
1615.830085884832
 31
0.0
  0
LINE
  5
BFD
  8
DETAIL
  6
CONTINUOUS
 62
     5
 10
326.71629566530419
 20
1625.9949815576169
 30
0.0
 11
331.57754887978808
 21
1615.830085884832
 31
0.0
  0
LINE
  5
BFE
  8
DETAIL
  6
CONTINUOUS
 62
     5
 10
327.54345765361307
 20
1625.9949815576169
 30
0.0
 11
332.4047108680038
 21
1615.830085884832
 31
0.0
  0
ARC
  5
BFF
  8
DETAIL
  6
CONTINUOUS
 62
     5
 10
186.19631386853399
 20
1542.9795997428409
 30
0.0
 40
175.0528909214089
 50
2.2924427799111711
 51
32.025931703347148
  0
LINE
  5
C82
  8
DETAIL
  6
CONTINUOUS
 62
     5
 10
346.22820694052177
 20
1583.674045476979
 30
0.0
 11
348.44033112599982
 21
1572.5518934280319
 31
0.0
  0
LINE
  5
C83
  8
DETAIL
  6
CONTINUOUS
 62
     5
 10
348.44033112599982
 20
1572.5518934280319
 30
0.0
 11
349.9482481953541
 21
1561.3053474396979
 31
0.0
  0
LINE
  5
C84
  8
DETAIL
  6
CONTINUOUS
 62
     5
 10
349.9482481953541
 20
1561.3053474396979
 30
0.0
 11
350.74561519302603
 21
1549.9817153796989
 31
0.0
  0
LINE
  5
C85
  8
DETAIL
  6
CONTINUOUS
 62
     5
 10
328.00289950672487
 20
1615.830085884832
 30
0.0
 11
332.17575925187202
 21
1605.358749357039
 31
0.0
  0
LINE
  5
C86
  8
DETAIL
  6
CONTINUOUS
 62
     5
 10
332.17575925187202
 20
1605.358749357039
 30
0.0
 11
335.69428187916219
 21
1594.625018973705
 31
0.0
  0
LINE
  5
C87
  8
DETAIL
  6
CONTINUOUS
 62
     5
 10
335.69428187916219
 20
1594.625018973705
 30
0.0
 11
338.54366695094632
 21
1583.674045476979
 31
0.0
  0
LINE
  5
C88
  8
DETAIL
  6
CONTINUOUS
 62
     5
 10
338.54366695094632
 20
1583.674045476979
 30
0.0
 11
340.71192871332818
 21
1572.5518934280319
 31
0.0
  0
LINE
  5
C89
  8
DETAIL
  6
CONTINUOUS
 62
     5
 10
340.71192871332818
 20
1572.5518934280319
 30
0.0
 11
342.18994651354291
 21
1561.3053474396979
 31
0.0
  0
LINE
  5
C8A
  8
DETAIL
  6
CONTINUOUS
 62
     5
 10
342.18994651354291
 20
1561.3053474396979
 30
0.0
 11
342.9715031652367
 21
1549.9817153796989
 31
0.0
  0
LINE
  5
C8B
  8
DETAIL
  6
CONTINUOUS
 62
     5
 10
328.93023067600592
 20
1615.830085884832
 30
0.0
 11
333.10309042115381
 21
1605.358749357039
 31
0.0
  0
LINE
  5
C8C
  8
DETAIL
  6
CONTINUOUS
 62
     5
 10
333.10309042115381
 20
1605.358749357039
 30
0.0
 11
336.62161304854988
 21
1594.625018973705
 31
0.0
  0
LINE
  5
C8D
  8
DETAIL
  6
CONTINUOUS
 62
     5
 10
336.62161304854988
 20
1594.625018973705
 30
0.0
 11
339.47099812032002
 21
1583.674045476979
 31
0.0
  0
LINE
  5
C8E
  8
DETAIL
  6
CONTINUOUS
 62
     5
 10
339.47099812032002
 20
1583.674045476979
 30
0.0
 11
341.6392598827
 21
1572.5518934280319
 31
0.0
  0
LINE
  5
C8F
  8
DETAIL
  6
CONTINUOUS
 62
     5
 10
341.6392598827
 20
1572.5518934280319
 30
0.0
 11
343.1172776828252
 21
1561.3053474396979
 31
0.0
  0
LINE
  5
C90
  8
DETAIL
  6
CONTINUOUS
 62
     5
 10
343.1172776828252
 20
1561.3053474396979
 30
0.0
 11
343.89883433451803
 21
1549.9817153796989
 31
0.0
  0
LINE
  5
C92
  8
DETAIL
  6
CONTINUOUS
 62
     5
 10
328.15162859290012
 20
1605.358749357039
 30
0.0
 11
331.6281094248879
 21
1594.625018973705
 31
0.0
  0
LINE
  5
C93
  8
DETAIL
  6
CONTINUOUS
 62
     5
 10
331.6281094248879
 20
1594.625018973705
 30
0.0
 11
334.44344802977997
 21
1583.674045476979
 31
0.0
  0
LINE
  5
C94
  8
DETAIL
  6
CONTINUOUS
 62
     5
 10
334.44344802977997
 20
1583.674045476979
 30
0.0
 11
336.5858018679678
 21
1572.5518934280319
 31
0.0
  0
LINE
  5
C95
  8
DETAIL
  6
CONTINUOUS
 62
     5
 10
336.5858018679678
 20
1572.5518934280319
 30
0.0
 11
338.04615926662478
 21
1561.3053474396979
 31
0.0
  0
LINE
  5
C96
  8
DETAIL
  6
CONTINUOUS
 62
     5
 10
338.04615926662478
 20
1561.3053474396979
 30
0.0
 11
338.8183773270398
 21
1549.9817153796989
 31
0.0
  0
LINE
  5
C97
  8
DETAIL
  6
CONTINUOUS
 62
     5
 10
325.05499966573728
 20
1615.830085884832
 30
0.0
 11
329.17799913307908
 21
1605.358749357039
 31
0.0
  0
LINE
  5
C98
  8
DETAIL
  6
CONTINUOUS
 62
     5
 10
329.17799913307908
 20
1605.358749357039
 30
0.0
 11
332.6544799650668
 21
1594.625018973705
 31
0.0
  0
LINE
  5
C99
  8
DETAIL
  6
CONTINUOUS
 62
     5
 10
332.6544799650668
 20
1594.625018973705
 30
0.0
 11
335.46981856985201
 21
1583.674045476979
 31
0.0
  0
LINE
  5
C9A
  8
DETAIL
  6
CONTINUOUS
 62
     5
 10
335.46981856985201
 20
1583.674045476979
 30
0.0
 11
337.6121724080399
 21
1572.5518934280319
 31
0.0
  0
LINE
  5
C9B
  8
DETAIL
  6
CONTINUOUS
 62
     5
 10
337.6121724080399
 20
1572.5518934280319
 30
0.0
 11
339.07252980680403
 21
1561.3053474396979
 31
0.0
  0
LINE
  5
C9C
  8
DETAIL
  6
CONTINUOUS
 62
     5
 10
339.07252980680403
 20
1561.3053474396979
 30
0.0
 11
339.8447478672183
 21
1549.9817153796989
 31
0.0
  0
LINE
  5
C9F
  8
DETAIL
  6
CONTINUOUS
 62
     5
 10
327.15789920260607
 20
1594.625018973705
 30
0.0
 11
329.93576128414401
 21
1583.674045476979
 31
0.0
  0
LINE
  5
CA0
  8
DETAIL
  6
CONTINUOUS
 62
     5
 10
329.93576128414401
 20
1583.674045476979
 30
0.0
 11
332.04959707001302
 21
1572.5518934280319
 31
0.0
  0
LINE
  5
CA1
  8
DETAIL
  6
CONTINUOUS
 62
     5
 10
332.04959707001302
 20
1572.5518934280319
 30
0.0
 11
333.49051484675277
 21
1561.3053474396979
 31
0.0
  0
LINE
  5
CA2
  8
DETAIL
  6
CONTINUOUS
 62
     5
 10
333.49051484675277
 20
1561.3053474396979
 30
0.0
 11
334.2524534871049
 21
1549.9817153796989
 31
0.0
  0
LINE
  5
CA4
  8
DETAIL
  6
CONTINUOUS
 62
     5
 10
324.85185515904487
 20
1605.358749357039
 30
0.0
 11
328.28205863916628
 21
1594.625018973705
 31
0.0
  0
LINE
  5
CA5
  8
DETAIL
  6
CONTINUOUS
 62
     5
 10
328.28205863916628
 20
1594.625018973705
 30
0.0
 11
331.05992072071922
 21
1583.674045476979
 31
0.0
  0
LINE
  5
CA6
  8
DETAIL
  6
CONTINUOUS
 62
     5
 10
331.05992072071922
 20
1583.674045476979
 30
0.0
 11
333.17375650658778
 21
1572.5518934280319
 31
0.0
  0
LINE
  5
CA7
  8
DETAIL
  6
CONTINUOUS
 62
     5
 10
333.17375650658778
 20
1572.5518934280319
 30
0.0
 11
334.61467428341803
 21
1561.3053474396979
 31
0.0
  0
LINE
  5
CA8
  8
DETAIL
  6
CONTINUOUS
 62
     5
 10
334.61467428341803
 20
1561.3053474396979
 30
0.0
 11
335.3766129236642
 21
1549.9817153796989
 31
0.0
  0
LINE
  5
CAC
  8
DETAIL
  6
CONTINUOUS
 62
     5
 10
327.10884098633818
 20
1572.5518934280319
 30
0.0
 11
328.52856360480058
 21
1561.3053474396979
 31
0.0
  0
LINE
  5
CAD
  8
DETAIL
  6
CONTINUOUS
 62
     5
 10
328.52856360480058
 20
1561.3053474396979
 30
0.0
 11
329.27929452022909
 21
1549.9817153796989
 31
0.0
  0
LINE
  5
CB1
  8
DETAIL
  6
CONTINUOUS
 62
     5
 10
326.246677354045
 20
1583.674045476979
 30
0.0
 11
328.329419704266
 21
1572.5518934280319
 31
0.0
  0
LINE
  5
CB2
  8
DETAIL
  6
CONTINUOUS
 62
     5
 10
328.329419704266
 20
1572.5518934280319
 30
0.0
 11
329.74914232272971
 21
1561.3053474396979
 31
0.0
  0
LINE
  5
CB3
  8
DETAIL
  6
CONTINUOUS
 62
     5
 10
329.74914232272971
 20
1561.3053474396979
 30
0.0
 11
330.49987323815731
 21
1549.9817153796989
 31
0.0
  0
LINE
  5
CC5
  8
DETAIL
  6
CONTINUOUS
 62
     5
 10
345.10742986691997
 20
1615.830085884832
 30
0.0
 11
349.49236144587979
 21
1605.358749357039
 31
0.0
  0
LINE
  5
CC6
  8
DETAIL
  6
CONTINUOUS
 62
     5
 10
349.49236144587979
 20
1605.358749357039
 30
0.0
 11
353.1897013811822
 21
1594.625018973705
 31
0.0
  0
LINE
  5
CC7
  8
DETAIL
  6
CONTINUOUS
 62
     5
 10
353.1897013811822
 20
1594.625018973705
 30
0.0
 11
356.1838970516082
 21
1583.674045476979
 31
0.0
  0
LINE
  5
CC8
  8
DETAIL
  6
CONTINUOUS
 62
     5
 10
356.1838970516082
 20
1583.674045476979
 30
0.0
 11
358.46235356679512
 21
1572.5518934280319
 31
0.0
  0
LINE
  5
CC9
  8
DETAIL
  6
CONTINUOUS
 62
     5
 10
358.46235356679512
 20
1572.5518934280319
 30
0.0
 11
360.0154867469667
 21
1561.3053474396979
 31
0.0
  0
LINE
  5
CCA
  8
DETAIL
  6
CONTINUOUS
 62
     5
 10
360.0154867469667
 20
1561.3053474396979
 30
0.0
 11
360.83676343788193
 21
1549.9817153796989
 31
0.0
  0
LINE
  5
CCB
  8
DETAIL
  6
CONTINUOUS
 62
     5
 10
345.21216000043893
 20
1615.830085884832
 30
0.0
 11
349.59709157952011
 21
1605.358749357039
 31
0.0
  0
LINE
  5
CCC
  8
DETAIL
  6
CONTINUOUS
 62
     5
 10
349.59709157952011
 20
1605.358749357039
 30
0.0
 11
353.294431514716
 21
1594.625018973705
 31
0.0
  0
LINE
  5
CCD
  8
DETAIL
  6
CONTINUOUS
 62
     5
 10
353.294431514716
 20
1594.625018973705
 30
0.0
 11
356.28862718514301
 21
1583.674045476979
 31
0.0
  0
LINE
  5
CCE
  8
DETAIL
  6
CONTINUOUS
 62
     5
 10
356.28862718514301
 20
1583.674045476979
 30
0.0
 11
358.5670837003276
 21
1572.5518934280319
 31
0.0
  0
LINE
  5
CCF
  8
DETAIL
  6
CONTINUOUS
 62
     5
 10
358.5670837003276
 20
1572.5518934280319
 30
0.0
 11
360.12021688049981
 21
1561.3053474396979
 31
0.0
  0
LINE
  5
CD0
  8
DETAIL
  6
CONTINUOUS
 62
     5
 10
360.12021688049981
 20
1561.3053474396979
 30
0.0
 11
360.94149357140083
 21
1549.9817153796989
 31
0.0
  0
LINE
  5
CD1
  8
DETAIL
  6
CONTINUOUS
 62
     5
 10
344.424214371358
 20
1615.830085884832
 30
0.0
 11
348.80113077670768
 21
1605.358749357039
 31
0.0
  0
LINE
  5
CD2
  8
DETAIL
  6
CONTINUOUS
 62
     5
 10
348.80113077670768
 20
1605.358749357039
 30
0.0
 11
352.49171238033477
 21
1594.625018973705
 31
0.0
  0
LINE
  5
CD3
  8
DETAIL
  6
CONTINUOUS
 62
     5
 10
352.49171238033477
 20
1594.625018973705
 30
0.0
 11
355.48043498961579
 21
1583.674045476979
 31
0.0
  0
LINE
  5
CD4
  8
DETAIL
  6
CONTINUOUS
 62
     5
 10
355.48043498961579
 20
1583.674045476979
 30
0.0
 11
357.75472673634789
 21
1572.5518934280319
 31
0.0
  0
LINE
  5
CD5
  8
DETAIL
  6
CONTINUOUS
 62
     5
 10
357.75472673634789
 20
1572.5518934280319
 30
0.0
 11
359.30502095944883
 21
1561.3053474396979
 31
0.0
  0
LINE
  5
CD6
  8
DETAIL
  6
CONTINUOUS
 62
     5
 10
359.30502095944883
 20
1561.3053474396979
 30
0.0
 11
360.12479644667383
 21
1549.9817153796989
 31
0.0
  0
LINE
  5
CD7
  8
DETAIL
  6
CONTINUOUS
 62
     5
 10
344.63354704086032
 20
1615.830085884832
 30
0.0
 11
349.01046344621091
 21
1605.358749357039
 31
0.0
  0
LINE
  5
CD8
  8
DETAIL
  6
CONTINUOUS
 62
     5
 10
349.01046344621091
 20
1605.358749357039
 30
0.0
 11
352.70104504983601
 21
1594.625018973705
 31
0.0
  0
LINE
  5
CD9
  8
DETAIL
  6
CONTINUOUS
 62
     5
 10
352.70104504983601
 20
1594.625018973705
 30
0.0
 11
355.68976765910293
 21
1583.674045476979
 31
0.0
  0
LINE
  5
CDA
  8
DETAIL
  6
CONTINUOUS
 62
     5
 10
355.68976765910293
 20
1583.674045476979
 30
0.0
 11
357.96405940584998
 21
1572.5518934280319
 31
0.0
  0
LINE
  5
CDB
  8
DETAIL
  6
CONTINUOUS
 62
     5
 10
357.96405940584998
 20
1572.5518934280319
 30
0.0
 11
359.51435362895199
 21
1561.3053474396979
 31
0.0
  0
LINE
  5
CDC
  8
DETAIL
  6
CONTINUOUS
 62
     5
 10
359.51435362895199
 20
1561.3053474396979
 30
0.0
 11
360.33412911617592
 21
1549.9817153796989
 31
0.0
  0
LINE
  5
CDD
  8
DETAIL
  6
CONTINUOUS
 62
     5
 10
343.32137102509017
 20
1615.830085884832
 30
0.0
 11
347.6849396583188
 21
1605.358749357039
 31
0.0
  0
LINE
  5
CDE
  8
DETAIL
  6
CONTINUOUS
 62
     5
 10
347.6849396583188
 20
1605.358749357039
 30
0.0
 11
351.36426652509988
 21
1594.625018973705
 31
0.0
  0
LINE
  5
CDF
  8
DETAIL
  6
CONTINUOUS
 62
     5
 10
351.36426652509988
 20
1594.625018973705
 30
0.0
 11
354.34387477514792
 21
1583.674045476979
 31
0.0
  0
LINE
  5
CE0
  8
DETAIL
  6
CONTINUOUS
 62
     5
 10
354.34387477514792
 20
1583.674045476979
 30
0.0
 11
356.61123087922118
 21
1572.5518934280319
 31
0.0
  0
LINE
  5
CE1
  8
DETAIL
  6
CONTINUOUS
 62
     5
 10
356.61123087922118
 20
1572.5518934280319
 30
0.0
 11
358.15679735067982
 21
1561.3053474396979
 31
0.0
  0
LINE
  5
CE2
  8
DETAIL
  6
CONTINUOUS
 62
     5
 10
358.15679735067982
 20
1561.3053474396979
 30
0.0
 11
358.97407286405809
 21
1549.9817153796989
 31
0.0
  0
LINE
  5
CE3
  8
DETAIL
  6
CONTINUOUS
 62
     5
 10
343.63505119101768
 20
1615.830085884832
 30
0.0
 11
347.99861982423181
 21
1605.358749357039
 31
0.0
  0
LINE
  5
CE4
  8
DETAIL
  6
CONTINUOUS
 62
     5
 10
347.99861982423181
 20
1605.358749357039
 30
0.0
 11
351.6779466910138
 21
1594.625018973705
 31
0.0
  0
LINE
  5
CE5
  8
DETAIL
  6
CONTINUOUS
 62
     5
 10
351.6779466910138
 20
1594.625018973705
 30
0.0
 11
354.65755494106219
 21
1583.674045476979
 31
0.0
  0
LINE
  5
CE6
  8
DETAIL
  6
CONTINUOUS
 62
     5
 10
354.65755494106219
 20
1583.674045476979
 30
0.0
 11
356.92491104514818
 21
1572.5518934280319
 31
0.0
  0
LINE
  5
CE7
  8
DETAIL
  6
CONTINUOUS
 62
     5
 10
356.92491104514818
 20
1572.5518934280319
 30
0.0
 11
358.47047751659409
 21
1561.3053474396979
 31
0.0
  0
LINE
  5
CE8
  8
DETAIL
  6
CONTINUOUS
 62
     5
 10
358.47047751659409
 20
1561.3053474396979
 30
0.0
 11
359.28775302997099
 21
1549.9817153796989
 31
0.0
  0
LINE
  5
CE9
  8
DETAIL
  6
CONTINUOUS
 62
     5
 10
341.80024347287781
 20
1615.830085884832
 30
0.0
 11
346.14514799767989
 21
1605.358749357039
 31
0.0
  0
LINE
  5
CEA
  8
DETAIL
  6
CONTINUOUS
 62
     5
 10
346.14514799767989
 20
1605.358749357039
 30
0.0
 11
349.80873743461922
 21
1594.625018973705
 31
0.0
  0
LINE
  5
CEB
  8
DETAIL
  6
CONTINUOUS
 62
     5
 10
349.80873743461922
 20
1594.625018973705
 30
0.0
 11
352.77560113168778
 21
1583.674045476979
 31
0.0
  0
LINE
  5
CEC
  8
DETAIL
  6
CONTINUOUS
 62
     5
 10
352.77560113168778
 20
1583.674045476979
 30
0.0
 11
355.0332591689853
 21
1572.5518934280319
 31
0.0
  0
LINE
  5
CED
  8
DETAIL
  6
CONTINUOUS
 62
     5
 10
355.0332591689853
 20
1572.5518934280319
 30
0.0
 11
356.57221485403079
 21
1561.3053474396979
 31
0.0
  0
LINE
  5
CEE
  8
DETAIL
  6
CONTINUOUS
 62
     5
 10
356.57221485403079
 20
1561.3053474396979
 30
0.0
 11
357.38599466931191
 21
1549.9817153796989
 31
0.0
  0
LINE
  5
CEF
  8
DETAIL
  6
CONTINUOUS
 62
     5
 10
342.21788896424567
 20
1615.830085884832
 30
0.0
 11
346.5627934890461
 21
1605.358749357039
 31
0.0
  0
LINE
  5
CF0
  8
DETAIL
  6
CONTINUOUS
 62
     5
 10
346.5627934890461
 20
1605.358749357039
 30
0.0
 11
350.22638292587988
 21
1594.625018973705
 31
0.0
  0
LINE
  5
CF1
  8
DETAIL
  6
CONTINUOUS
 62
     5
 10
350.22638292587988
 20
1594.625018973705
 30
0.0
 11
353.19324662305502
 21
1583.674045476979
 31
0.0
  0
LINE
  5
CF2
  8
DETAIL
  6
CONTINUOUS
 62
     5
 10
353.19324662305502
 20
1583.674045476979
 30
0.0
 11
355.45090466033611
 21
1572.5518934280319
 31
0.0
  0
LINE
  5
CF3
  8
DETAIL
  6
CONTINUOUS
 62
     5
 10
355.45090466033611
 20
1572.5518934280319
 30
0.0
 11
356.989860345382
 21
1561.3053474396979
 31
0.0
  0
LINE
  5
CF4
  8
DETAIL
  6
CONTINUOUS
 62
     5
 10
356.989860345382
 20
1561.3053474396979
 30
0.0
 11
357.803640160665
 21
1549.9817153796989
 31
0.0
  0
LINE
  5
CF5
  8
DETAIL
  6
CONTINUOUS
 62
     5
 10
339.86268497428398
 20
1615.830085884832
 30
0.0
 11
344.18363179382999
 21
1605.358749357039
 31
0.0
  0
LINE
  5
CF6
  8
DETAIL
  6
CONTINUOUS
 62
     5
 10
344.18363179382999
 20
1605.358749357039
 30
0.0
 11
347.82702028141421
 21
1594.625018973705
 31
0.0
  0
LINE
  5
CF7
  8
DETAIL
  6
CONTINUOUS
 62
     5
 10
347.82702028141421
 20
1594.625018973705
 30
0.0
 11
350.77752475926712
 21
1583.674045476979
 31
0.0
  0
LINE
  5
CF8
  8
DETAIL
  6
CONTINUOUS
 62
     5
 10
350.77752475926712
 20
1583.674045476979
 30
0.0
 11
353.02273412118211
 21
1572.5518934280319
 31
0.0
  0
LINE
  5
CF9
  8
DETAIL
  6
CONTINUOUS
 62
     5
 10
353.02273412118211
 20
1572.5518934280319
 30
0.0
 11
354.55320403941289
 21
1561.3053474396979
 31
0.0
  0
LINE
  5
CFA
  8
DETAIL
  6
CONTINUOUS
 62
     5
 10
354.55320403941289
 20
1561.3053474396979
 30
0.0
 11
355.36249669113511
 21
1549.9817153796989
 31
0.0
  0
LINE
  5
CFB
  8
DETAIL
  6
CONTINUOUS
 62
     5
 10
340.3837869543413
 20
1615.830085884832
 30
0.0
 11
344.7047337739009
 21
1605.358749357039
 31
0.0
  0
LINE
  5
CFC
  8
DETAIL
  6
CONTINUOUS
 62
     5
 10
344.7047337739009
 20
1605.358749357039
 30
0.0
 11
348.34812226147011
 21
1594.625018973705
 31
0.0
  0
LINE
  5
CFD
  8
DETAIL
  6
CONTINUOUS
 62
     5
 10
348.34812226147011
 20
1594.625018973705
 30
0.0
 11
351.29862673933798
 21
1583.674045476979
 31
0.0
  0
LINE
  5
CFE
  8
DETAIL
  6
CONTINUOUS
 62
     5
 10
351.29862673933798
 20
1583.674045476979
 30
0.0
 11
353.54383610123767
 21
1572.5518934280319
 31
0.0
  0
LINE
  5
CFF
  8
DETAIL
  6
CONTINUOUS
 62
     5
 10
353.54383610123767
 20
1572.5518934280319
 30
0.0
 11
355.07430601948488
 21
1561.3053474396979
 31
0.0
  0
LINE
  5
D00
  8
DETAIL
  6
CONTINUOUS
 62
     5
 10
355.07430601948488
 20
1561.3053474396979
 30
0.0
 11
355.88359867120698
 21
1549.9817153796989
 31
0.0
  0
LINE
  5
D01
  8
DETAIL
  6
CONTINUOUS
 62
     5
 10
337.5110561458182
 20
1615.830085884832
 30
0.0
 11
341.80278085203821
 21
1605.358749357039
 31
0.0
  0
LINE
  5
D02
  8
DETAIL
  6
CONTINUOUS
 62
     5
 10
341.80278085203821
 20
1605.358749357039
 30
0.0
 11
345.42152948265999
 21
1594.625018973705
 31
0.0
  0
LINE
  5
D03
  8
DETAIL
  6
CONTINUOUS
 62
     5
 10
345.42152948265999
 20
1594.625018973705
 30
0.0
 11
348.35208000597231
 21
1583.674045476979
 31
0.0
  0
LINE
  5
D04
  8
DETAIL
  6
CONTINUOUS
 62
     5
 10
348.35208000597231
 20
1583.674045476979
 30
0.0
 11
350.58210525082262
 21
1572.5518934280319
 31
0.0
  0
LINE
  5
D05
  8
DETAIL
  6
CONTINUOUS
 62
     5
 10
350.58210525082262
 20
1572.5518934280319
 30
0.0
 11
352.102224760355
 21
1561.3053474396979
 31
0.0
  0
LINE
  5
D06
  8
DETAIL
  6
CONTINUOUS
 62
     5
 10
352.102224760355
 20
1561.3053474396979
 30
0.0
 11
352.9060442502041
 21
1549.9817153796989
 31
0.0
  0
LINE
  5
D07
  8
DETAIL
  6
CONTINUOUS
 62
     5
 10
338.13497973216272
 20
1615.830085884832
 30
0.0
 11
342.42670443827723
 21
1605.358749357039
 31
0.0
  0
LINE
  5
D08
  8
DETAIL
  6
CONTINUOUS
 62
     5
 10
342.42670443827723
 20
1605.358749357039
 30
0.0
 11
346.04545306900491
 21
1594.625018973705
 31
0.0
  0
LINE
  5
D09
  8
DETAIL
  6
CONTINUOUS
 62
     5
 10
346.04545306900491
 20
1594.625018973705
 30
0.0
 11
348.97600359231677
 21
1583.674045476979
 31
0.0
  0
LINE
  5
D0A
  8
DETAIL
  6
CONTINUOUS
 62
     5
 10
348.97600359231677
 20
1583.674045476979
 30
0.0
 11
351.20602883716811
 21
1572.5518934280319
 31
0.0
  0
LINE
  5
D0B
  8
DETAIL
  6
CONTINUOUS
 62
     5
 10
351.20602883716811
 20
1572.5518934280319
 30
0.0
 11
352.72614834669912
 21
1561.3053474396979
 31
0.0
  0
LINE
  5
D0C
  8
DETAIL
  6
CONTINUOUS
 62
     5
 10
352.72614834669912
 20
1561.3053474396979
 30
0.0
 11
353.52996783644397
 21
1549.9817153796989
 31
0.0
  0
LINE
  5
D0D
  8
DETAIL
  6
CONTINUOUS
 62
     5
 10
334.74822208508209
 20
1615.830085884832
 30
0.0
 11
339.00549587240812
 21
1605.358749357039
 31
0.0
  0
LINE
  5
D0E
  8
DETAIL
  6
CONTINUOUS
 62
     5
 10
339.00549587240812
 20
1605.358749357039
 30
0.0
 11
342.59519575836879
 21
1594.625018973705
 31
0.0
  0
LINE
  5
D0F
  8
DETAIL
  6
CONTINUOUS
 62
     5
 10
342.59519575836879
 20
1594.625018973705
 30
0.0
 11
345.50222190276821
 21
1583.674045476979
 31
0.0
  0
LINE
  5
D10
  8
DETAIL
  6
CONTINUOUS
 62
     5
 10
345.50222190276821
 20
1583.674045476979
 30
0.0
 11
347.71434608824569
 21
1572.5518934280319
 31
0.0
  0
LINE
  5
D11
  8
DETAIL
  6
CONTINUOUS
 62
     5
 10
347.71434608824569
 20
1572.5518934280319
 30
0.0
 11
349.22226315761372
 21
1561.3053474396979
 31
0.0
  0
LINE
  5
D12
  8
DETAIL
  6
CONTINUOUS
 62
     5
 10
349.22226315761372
 20
1561.3053474396979
 30
0.0
 11
350.0196301552869
 21
1549.9817153796989
 31
0.0
  0
LINE
  5
D13
  8
DETAIL
  6
CONTINUOUS
 62
     5
 10
335.47420712281968
 20
1615.830085884832
 30
0.0
 11
339.73148091014491
 21
1605.358749357039
 31
0.0
  0
LINE
  5
D14
  8
DETAIL
  6
CONTINUOUS
 62
     5
 10
339.73148091014491
 20
1605.358749357039
 30
0.0
 11
343.32118079612093
 21
1594.625018973705
 31
0.0
  0
LINE
  5
D15
  8
DETAIL
  6
CONTINUOUS
 62
     5
 10
343.32118079612093
 20
1594.625018973705
 30
0.0
 11
346.22820694052177
 21
1583.674045476979
 31
0.0
  0
LINE
  5
D16
  8
DETAIL
  6
CONTINUOUS
 62
     5
 10
331.57754887978808
 20
1615.830085884832
 30
0.0
 11
335.79518491586708
 21
1605.358749357039
 31
0.0
  0
LINE
  5
D17
  8
DETAIL
  6
CONTINUOUS
 62
     5
 10
335.79518491586708
 20
1605.358749357039
 30
0.0
 11
339.35146256085488
 21
1594.625018973705
 31
0.0
  0
LINE
  5
D18
  8
DETAIL
  6
CONTINUOUS
 62
     5
 10
339.35146256085488
 20
1594.625018973705
 30
0.0
 11
342.2314225627178
 21
1583.674045476979
 31
0.0
  0
LINE
  5
D19
  8
DETAIL
  6
CONTINUOUS
 62
     5
 10
342.2314225627178
 20
1583.674045476979
 30
0.0
 11
344.4229505563161
 21
1572.5518934280319
 31
0.0
  0
LINE
  5
D1A
  8
DETAIL
  6
CONTINUOUS
 62
     5
 10
344.4229505563161
 20
1572.5518934280319
 30
0.0
 11
345.91682802081408
 21
1561.3053474396979
 31
0.0
  0
LINE
  5
D1B
  8
DETAIL
  6
CONTINUOUS
 62
     5
 10
345.91682802081408
 20
1561.3053474396979
 30
0.0
 11
346.70677105749007
 21
1549.9817153796989
 31
0.0
  0
LINE
  5
D1C
  8
DETAIL
  6
CONTINUOUS
 62
     5
 10
332.4047108680038
 20
1615.830085884832
 30
0.0
 11
336.62234690417478
 21
1605.358749357039
 31
0.0
  0
LINE
  5
D1D
  8
DETAIL
  6
CONTINUOUS
 62
     5
 10
336.62234690417478
 20
1605.358749357039
 30
0.0
 11
340.17862454905787
 21
1594.625018973705
 31
0.0
  0
LINE
  5
D1E
  8
DETAIL
  6
CONTINUOUS
 62
     5
 10
340.17862454905787
 20
1594.625018973705
 30
0.0
 11
343.0585845510272
 21
1583.674045476979
 31
0.0
  0
LINE
  5
D1F
  8
DETAIL
  6
CONTINUOUS
 62
     5
 10
343.0585845510272
 20
1583.674045476979
 30
0.0
 11
345.25011254462282
 21
1572.5518934280319
 31
0.0
  0
LINE
  5
D20
  8
DETAIL
  6
CONTINUOUS
 62
     5
 10
345.25011254462282
 20
1572.5518934280319
 30
0.0
 11
346.74399000912382
 21
1561.3053474396979
 31
0.0
  0
LINE
  5
D21
  8
DETAIL
  6
CONTINUOUS
 62
     5
 10
346.74399000912382
 20
1561.3053474396979
 30
0.0
 11
347.53393304579828
 21
1549.9817153796989
 31
0.0
  0
LINE
  5
D25
  8
DETAIL
  6
CONTINUOUS
 62
     5
 10
258.07889271268272
 20
1640.509067671954
 30
0.0
 11
318.6883231928777
 21
1640.509067671954
 31
0.0
  0
LINE
  5
D26
  8
DETAIL
  6
CONTINUOUS
 62
     5
 10
315.01237211595372
 20
1640.3049404655339
 30
0.0
 11
316.8661126321872
 21
1639.700889911376
 31
0.0
  0
LINE
  5
D27
  8
DETAIL
  6
CONTINUOUS
 62
     5
 10
315.83953410417138
 20
1640.3049404655339
 30
0.0
 11
317.69327462049608
 21
1639.700889911376
 31
0.0
  0
LINE
  5
D28
  8
DETAIL
  6
CONTINUOUS
 62
     5
 10
315.12881435990221
 20
1638.7215691891599
 30
0.0
 11
316.58847624993399
 21
1637.4069474192329
 31
0.0
  0
LINE
  5
D29
  8
DETAIL
  6
CONTINUOUS
 62
     5
 10
314.37497754736199
 20
1639.700889911376
 30
0.0
 11
316.05614552929131
 21
1638.7215691891599
 31
0.0
  0
LINE
  5
D2A
  8
DETAIL
  6
CONTINUOUS
 62
     5
 10
260.07858079786911
 20
1643.7100346901809
 30
0.0
 11
260.07858079786911
 21
1643.009823126504
 31
0.0
  0
LINE
  5
D2B
  8
DETAIL
  6
CONTINUOUS
 62
     5
 10
280.08462547459931
 20
1643.009823126504
 30
0.0
 11
280.08462547459931
 21
1642.3096115628271
 31
0.0
  0
LINE
  5
D2C
  8
DETAIL
  6
CONTINUOUS
 62
     5
 10
300.090670151344
 20
1642.3096115628271
 30
0.0
 11
300.090670151344
 21
1641.609399999121
 31
0.0
  0
LINE
  5
D42
  8
DETAIL
  6
CONTINUOUS
 62
     5
 10
251.3131109524401
 20
1640.509067671954
 30
0.0
 11
257.9153079629782
 21
1640.509067671954
 31
0.0
  0
LINE
  5
D43
  8
DETAIL
  6
CONTINUOUS
 62
     5
 10
313.07975551300598
 20
1640.509067671954
 30
0.0
 11
315.01237211595372
 21
1640.3049404655339
 31
0.0
  0
LINE
  5
D44
  8
DETAIL
  6
CONTINUOUS
 62
     5
 10
313.90691750131509
 20
1640.509067671954
 30
0.0
 11
315.83953410417138
 21
1640.3049404655339
 31
0.0
  0
LINE
  5
D45
  8
DETAIL
  6
CONTINUOUS
 62
     5
 10
309.70148690192121
 20
1640.509067671954
 30
0.0
 11
311.61358599155892
 21
1640.3049404655339
 31
0.0
  0
LINE
  5
D46
  8
DETAIL
  6
CONTINUOUS
 62
     5
 10
311.61358599155892
 20
1640.3049404655339
 30
0.0
 11
313.44764637797419
 21
1639.700889911376
 31
0.0
  0
LINE
  5
D47
  8
DETAIL
  6
CONTINUOUS
 62
     5
 10
313.44764637797419
 20
1639.700889911376
 30
0.0
 11
315.12881435990221
 21
1638.7215691891599
 31
0.0
  0
LINE
  5
D48
  8
DETAIL
  6
CONTINUOUS
 62
     5
 10
310.62881807120311
 20
1640.509067671954
 30
0.0
 11
312.54091716093069
 21
1640.3049404655339
 31
0.0
  0
LINE
  5
D49
  8
DETAIL
  6
CONTINUOUS
 62
     5
 10
312.54091716093069
 20
1640.3049404655339
 30
0.0
 11
314.37497754736199
 21
1639.700889911376
 31
0.0
  0
LINE
  5
D4A
  8
DETAIL
  6
CONTINUOUS
 62
     5
 10
305.94589473493619
 20
1640.509067671954
 30
0.0
 11
307.83514671309013
 21
1640.3049404655339
 31
0.0
  0
LINE
  5
D4B
  8
DETAIL
  6
CONTINUOUS
 62
     5
 10
307.83514671309013
 20
1640.3049404655339
 30
0.0
 11
309.64729244966787
 21
1639.700889911376
 31
0.0
  0
LINE
  5
D4C
  8
DETAIL
  6
CONTINUOUS
 62
     5
 10
309.64729244966787
 20
1639.700889911376
 30
0.0
 11
311.30837264812999
 21
1638.7215691891599
 31
0.0
  0
LINE
  5
D4D
  8
DETAIL
  6
CONTINUOUS
 62
     5
 10
311.30837264812999
 20
1638.7215691891599
 30
0.0
 11
312.75059346615973
 21
1637.4069474192329
 31
0.0
  0
LINE
  5
D4E
  8
DETAIL
  6
CONTINUOUS
 62
     5
 10
312.75059346615973
 20
1637.4069474192329
 30
0.0
 11
313.9150933921951
 21
1635.810678399665
 31
0.0
  0
LINE
  5
D4F
  8
DETAIL
  6
CONTINUOUS
 62
     5
 10
306.9722652751289
 20
1640.509067671954
 30
0.0
 11
308.86151725326772
 21
1640.3049404655339
 31
0.0
  0
LINE
  5
D50
  8
DETAIL
  6
CONTINUOUS
 62
     5
 10
308.86151725326772
 20
1640.3049404655339
 30
0.0
 11
310.67366298975401
 21
1639.700889911376
 31
0.0
  0
LINE
  5
D51
  8
DETAIL
  6
CONTINUOUS
 62
     5
 10
310.67366298975401
 20
1639.700889911376
 30
0.0
 11
312.33474318830889
 21
1638.7215691891599
 31
0.0
  0
LINE
  5
D52
  8
DETAIL
  6
CONTINUOUS
 62
     5
 10
312.33474318830889
 20
1638.7215691891599
 30
0.0
 11
313.77696400633693
 21
1637.4069474192329
 31
0.0
  0
LINE
  5
D53
  8
DETAIL
  6
CONTINUOUS
 62
     5
 10
313.77696400633693
 20
1637.4069474192329
 30
0.0
 11
314.9414639323731
 21
1635.810678399665
 31
0.0
  0
LINE
  5
D54
  8
DETAIL
  6
CONTINUOUS
 62
     5
 10
301.817554622562
 20
1640.509067671954
 30
0.0
 11
303.68165772667169
 21
1640.3049404655339
 31
0.0
  0
LINE
  5
D55
  8
DETAIL
  6
CONTINUOUS
 62
     5
 10
303.68165772667169
 20
1640.3049404655339
 30
0.0
 11
305.46968099293002
 21
1639.700889911376
 31
0.0
  0
LINE
  5
D56
  8
DETAIL
  6
CONTINUOUS
 62
     5
 10
305.46968099293002
 20
1639.700889911376
 30
0.0
 11
307.10864963774378
 21
1638.7215691891599
 31
0.0
  0
LINE
  5
D57
  8
DETAIL
  6
CONTINUOUS
 62
     5
 10
307.10864963774378
 20
1638.7215691891599
 30
0.0
 11
308.53167225977228
 21
1637.4069474192329
 31
0.0
  0
LINE
  5
D58
  8
DETAIL
  6
CONTINUOUS
 62
     5
 10
308.53167225977228
 20
1637.4069474192329
 30
0.0
 11
309.6806708857211
 21
1635.810678399665
 31
0.0
  0
LINE
  5
D59
  8
DETAIL
  6
CONTINUOUS
 62
     5
 10
302.94171405912221
 20
1640.509067671954
 30
0.0
 11
304.80581716333802
 21
1640.3049404655339
 31
0.0
  0
LINE
  5
D5A
  8
DETAIL
  6
CONTINUOUS
 62
     5
 10
304.80581716333802
 20
1640.3049404655339
 30
0.0
 11
306.59384042948881
 21
1639.700889911376
 31
0.0
  0
LINE
  5
D5B
  8
DETAIL
  6
CONTINUOUS
 62
     5
 10
306.59384042948881
 20
1639.700889911376
 30
0.0
 11
308.23280907430399
 21
1638.7215691891599
 31
0.0
  0
LINE
  5
D5C
  8
DETAIL
  6
CONTINUOUS
 62
     5
 10
308.23280907430399
 20
1638.7215691891599
 30
0.0
 11
309.65583169643838
 21
1637.4069474192329
 31
0.0
  0
LINE
  5
D5D
  8
DETAIL
  6
CONTINUOUS
 62
     5
 10
309.65583169643838
 20
1637.4069474192329
 30
0.0
 11
310.80483032228079
 21
1635.810678399665
 31
0.0
  0
LINE
  5
D5E
  8
DETAIL
  6
CONTINUOUS
 62
     5
 10
297.32149631128408
 20
1640.509067671954
 30
0.0
 11
299.15817941893192
 21
1640.3049404655339
 31
0.0
  0
LINE
  5
D5F
  8
DETAIL
  6
CONTINUOUS
 62
     5
 10
299.15817941893192
 20
1640.3049404655339
 30
0.0
 11
300.9199017838759
 21
1639.700889911376
 31
0.0
  0
LINE
  5
D60
  8
DETAIL
  6
CONTINUOUS
 62
     5
 10
300.9199017838759
 20
1639.700889911376
 30
0.0
 11
302.53476204411982
 21
1638.7215691891599
 31
0.0
  0
LINE
  5
D61
  8
DETAIL
  6
CONTINUOUS
 62
     5
 10
302.53476204411982
 20
1638.7215691891599
 30
0.0
 11
303.93685273643308
 21
1637.4069474192329
 31
0.0
  0
LINE
  5
D62
  8
DETAIL
  6
CONTINUOUS
 62
     5
 10
303.93685273643308
 20
1637.4069474192329
 30
0.0
 11
305.068950184404
 21
1635.810678399665
 31
0.0
  0
LINE
  5
D63
  8
DETAIL
  6
CONTINUOUS
 62
     5
 10
298.54207502921321
 20
1640.509067671954
 30
0.0
 11
300.3787581368619
 21
1640.3049404655339
 31
0.0
  0
LINE
  5
D64
  8
DETAIL
  6
CONTINUOUS
 62
     5
 10
300.3787581368619
 20
1640.3049404655339
 30
0.0
 11
302.14048050180412
 21
1639.700889911376
 31
0.0
  0
LINE
  5
D65
  8
DETAIL
  6
CONTINUOUS
 62
     5
 10
302.14048050180412
 20
1639.700889911376
 30
0.0
 11
303.75534076204889
 21
1638.7215691891599
 31
0.0
  0
LINE
  5
D66
  8
DETAIL
  6
CONTINUOUS
 62
     5
 10
303.75534076204889
 20
1638.7215691891599
 30
0.0
 11
305.15743145436181
 21
1637.4069474192329
 31
0.0
  0
LINE
  5
D67
  8
DETAIL
  6
CONTINUOUS
 62
     5
 10
305.15743145436181
 20
1637.4069474192329
 30
0.0
 11
306.28952890233171
 21
1635.810678399665
 31
0.0
  0
LINE
  5
D68
  8
DETAIL
  6
CONTINUOUS
 62
     5
 10
292.4631975556581
 20
1640.509067671954
 30
0.0
 11
294.27022295136521
 21
1640.3049404655339
 31
0.0
  0
LINE
  5
D69
  8
DETAIL
  6
CONTINUOUS
 62
     5
 10
294.27022295136521
 20
1640.3049404655339
 30
0.0
 11
296.00349802765493
 21
1639.700889911376
 31
0.0
  0
LINE
  5
D6A
  8
DETAIL
  6
CONTINUOUS
 62
     5
 10
296.00349802765493
 20
1639.700889911376
 30
0.0
 11
297.59228244488293
 21
1638.7215691891599
 31
0.0
  0
LINE
  5
D6B
  8
DETAIL
  6
CONTINUOUS
 62
     5
 10
297.59228244488293
 20
1638.7215691891599
 30
0.0
 11
298.97173297583589
 21
1637.4069474192329
 31
0.0
  0
LINE
  5
D6C
  8
DETAIL
  6
CONTINUOUS
 62
     5
 10
298.97173297583589
 20
1637.4069474192329
 30
0.0
 11
300.08554995950902
 21
1635.810678399665
 31
0.0
  0
LINE
  5
D6D
  8
DETAIL
  6
CONTINUOUS
 62
     5
 10
293.7787084678402
 20
1640.509067671954
 30
0.0
 11
295.58573386353322
 21
1640.3049404655339
 31
0.0
  0
LINE
  5
D6E
  8
DETAIL
  6
CONTINUOUS
 62
     5
 10
295.58573386353322
 20
1640.3049404655339
 30
0.0
 11
297.31900893983908
 21
1639.700889911376
 31
0.0
  0
LINE
  5
D6F
  8
DETAIL
  6
CONTINUOUS
 62
     5
 10
297.31900893983908
 20
1639.700889911376
 30
0.0
 11
298.90779335706611
 21
1638.7215691891599
 31
0.0
  0
LINE
  5
D70
  8
DETAIL
  6
CONTINUOUS
 62
     5
 10
298.90779335706611
 20
1638.7215691891599
 30
0.0
 11
300.28724388801908
 21
1637.4069474192329
 31
0.0
  0
LINE
  5
D71
  8
DETAIL
  6
CONTINUOUS
 62
     5
 10
300.28724388801908
 20
1637.4069474192329
 30
0.0
 11
301.4010608716921
 21
1635.810678399665
 31
0.0
  0
LINE
  5
D72
  8
DETAIL
  6
CONTINUOUS
 62
     5
 10
287.24857744429693
 20
1640.509067671954
 30
0.0
 11
289.02374354596287
 21
1640.3049404655339
 31
0.0
  0
LINE
  5
D73
  8
DETAIL
  6
CONTINUOUS
 62
     5
 10
289.02374354596287
 20
1640.3049404655339
 30
0.0
 11
290.72645960496908
 21
1639.700889911376
 31
0.0
  0
LINE
  5
D74
  8
DETAIL
  6
CONTINUOUS
 62
     5
 10
290.72645960496908
 20
1639.700889911376
 30
0.0
 11
292.28723249012808
 21
1638.7215691891599
 31
0.0
  0
LINE
  5
D75
  8
DETAIL
  6
CONTINUOUS
 62
     5
 10
292.28723249012808
 20
1638.7215691891599
 30
0.0
 11
293.64236221172808
 21
1637.4069474192329
 31
0.0
  0
LINE
  5
D76
  8
DETAIL
  6
CONTINUOUS
 62
     5
 10
293.64236221172808
 20
1637.4069474192329
 30
0.0
 11
294.73654171668881
 21
1635.810678399665
 31
0.0
  0
LINE
  5
D77
  8
DETAIL
  6
CONTINUOUS
 62
     5
 10
288.65741780317188
 20
1640.509067671954
 30
0.0
 11
290.43258390492969
 21
1640.3049404655339
 31
0.0
  0
LINE
  5
D78
  8
DETAIL
  6
CONTINUOUS
 62
     5
 10
290.43258390492969
 20
1640.3049404655339
 30
0.0
 11
292.13529996395067
 21
1639.700889911376
 31
0.0
  0
LINE
  5
D79
  8
DETAIL
  6
CONTINUOUS
 62
     5
 10
292.13529996395067
 20
1639.700889911376
 30
0.0
 11
293.69607284900297
 21
1638.7215691891599
 31
0.0
  0
LINE
  5
D7A
  8
DETAIL
  6
CONTINUOUS
 62
     5
 10
293.69607284900297
 20
1638.7215691891599
 30
0.0
 11
295.05120257070979
 21
1637.4069474192329
 31
0.0
  0
LINE
  5
D7B
  8
DETAIL
  6
CONTINUOUS
 62
     5
 10
295.05120257070979
 20
1637.4069474192329
 30
0.0
 11
296.14538207556501
 21
1635.810678399665
 31
0.0
  0
LINE
  5
D7C
  8
DETAIL
  6
CONTINUOUS
 62
     5
 10
281.68398918859202
 20
1640.509067671954
 30
0.0
 11
283.42513322973798
 21
1640.3049404655339
 31
0.0
  0
LINE
  5
D7D
  8
DETAIL
  6
CONTINUOUS
 62
     5
 10
283.42513322973798
 20
1640.3049404655339
 30
0.0
 11
285.09521577428399
 21
1639.700889911376
 31
0.0
  0
LINE
  5
D7E
  8
DETAIL
  6
CONTINUOUS
 62
     5
 10
285.09521577428399
 20
1639.700889911376
 30
0.0
 11
286.62607556591593
 21
1638.7215691891599
 31
0.0
  0
LINE
  5
D7F
  8
DETAIL
  6
CONTINUOUS
 62
     5
 10
286.62607556591593
 20
1638.7215691891599
 30
0.0
 11
287.95523346142721
 21
1637.4069474192329
 31
0.0
  0
LINE
  5
D80
  8
DETAIL
  6
CONTINUOUS
 62
     5
 10
287.95523346142721
 20
1637.4069474192329
 30
0.0
 11
289.02844239837981
 21
1635.810678399665
 31
0.0
  0
LINE
  5
D81
  8
DETAIL
  6
CONTINUOUS
 62
     5
 10
283.18444253934882
 20
1640.509067671954
 30
0.0
 11
284.9255865804962
 21
1640.3049404655339
 31
0.0
  0
LINE
  5
D82
  8
DETAIL
  6
CONTINUOUS
 62
     5
 10
284.9255865804962
 20
1640.3049404655339
 30
0.0
 11
286.59566912504209
 21
1639.700889911376
 31
0.0
  0
LINE
  5
D83
  8
DETAIL
  6
CONTINUOUS
 62
     5
 10
286.59566912504209
 20
1639.700889911376
 30
0.0
 11
288.12652891667312
 21
1638.7215691891599
 31
0.0
  0
LINE
  5
D84
  8
DETAIL
  6
CONTINUOUS
 62
     5
 10
288.12652891667312
 20
1638.7215691891599
 30
0.0
 11
289.45568681218492
 21
1637.4069474192329
 31
0.0
  0
LINE
  5
D85
  8
DETAIL
  6
CONTINUOUS
 62
     5
 10
289.45568681218492
 20
1637.4069474192329
 30
0.0
 11
290.52889574913701
 21
1635.810678399665
 31
0.0
  0
LINE
  5
D86
  8
DETAIL
  6
CONTINUOUS
 62
     5
 10
275.7762123821239
 20
1640.509067671954
 30
0.0
 11
277.48121304701402
 21
1640.3049404655339
 31
0.0
  0
LINE
  5
D87
  8
DETAIL
  6
CONTINUOUS
 62
     5
 10
277.48121304701402
 20
1640.3049404655339
 30
0.0
 11
279.11662733861289
 21
1639.700889911376
 31
0.0
  0
LINE
  5
D88
  8
DETAIL
  6
CONTINUOUS
 62
     5
 10
279.11662733861289
 20
1639.700889911376
 30
0.0
 11
280.6157089199919
 21
1638.7215691891599
 31
0.0
  0
LINE
  5
D89
  8
DETAIL
  6
CONTINUOUS
 62
     5
 10
280.6157089199919
 20
1638.7215691891599
 30
0.0
 11
281.91727561523788
 21
1637.4069474192329
 31
0.0
  0
LINE
  5
D8A
  8
DETAIL
  6
CONTINUOUS
 62
     5
 10
281.91727561523788
 20
1637.4069474192329
 30
0.0
 11
282.9682064445218
 21
1635.810678399665
 31
0.0
  0
LINE
  5
D8B
  8
DETAIL
  6
CONTINUOUS
 62
     5
 10
277.3664506534173
 20
1640.509067671954
 30
0.0
 11
279.07145131832198
 21
1640.3049404655339
 31
0.0
  0
LINE
  5
D8C
  8
DETAIL
  6
CONTINUOUS
 62
     5
 10
279.07145131832198
 20
1640.3049404655339
 30
0.0
 11
280.70686560990629
 21
1639.700889911376
 31
0.0
  0
LINE
  5
D8D
  8
DETAIL
  6
CONTINUOUS
 62
     5
 10
280.70686560990629
 20
1639.700889911376
 30
0.0
 11
282.20594719128712
 21
1638.7215691891599
 31
0.0
  0
LINE
  5
D8E
  8
DETAIL
  6
CONTINUOUS
 62
     5
 10
282.20594719128712
 20
1638.7215691891599
 30
0.0
 11
283.50751388652992
 21
1637.4069474192329
 31
0.0
  0
LINE
  5
D8F
  8
DETAIL
  6
CONTINUOUS
 62
     5
 10
283.50751388652992
 20
1637.4069474192329
 30
0.0
 11
284.5584447158148
 21
1635.810678399665
 31
0.0
  0
LINE
  5
D90
  8
DETAIL
  6
CONTINUOUS
 62
     5
 10
269.53244474093799
 20
1640.509067671954
 30
0.0
 11
271.19922474884601
 21
1640.3049404655339
 31
0.0
  0
LINE
  5
D91
  8
DETAIL
  6
CONTINUOUS
 62
     5
 10
271.19922474884601
 20
1640.3049404655339
 30
0.0
 11
272.7979782872639
 21
1639.700889911376
 31
0.0
  0
LINE
  5
D92
  8
DETAIL
  6
CONTINUOUS
 62
     5
 10
272.7979782872639
 20
1639.700889911376
 30
0.0
 11
274.2634552582781
 21
1638.7215691891599
 31
0.0
  0
LINE
  5
D93
  8
DETAIL
  6
CONTINUOUS
 62
     5
 10
274.2634552582781
 20
1638.7215691891599
 30
0.0
 11
275.53584499471611
 21
1637.4069474192329
 31
0.0
  0
LINE
  5
D94
  8
DETAIL
  6
CONTINUOUS
 62
     5
 10
275.53584499471611
 20
1637.4069474192329
 30
0.0
 11
276.56321731897958
 21
1635.810678399665
 31
0.0
  0
LINE
  5
D95
  8
DETAIL
  6
CONTINUOUS
 62
     5
 10
271.2105304723932
 20
1640.509067671954
 30
0.0
 11
272.87731048030167
 21
1640.3049404655339
 31
0.0
  0
LINE
  5
D96
  8
DETAIL
  6
CONTINUOUS
 62
     5
 10
272.87731048030167
 20
1640.3049404655339
 30
0.0
 11
274.47606401871911
 21
1639.700889911376
 31
0.0
  0
LINE
  5
D97
  8
DETAIL
  6
CONTINUOUS
 62
     5
 10
274.47606401871911
 20
1639.700889911376
 30
0.0
 11
275.94154098971921
 21
1638.7215691891599
 31
0.0
  0
LINE
  5
D98
  8
DETAIL
  6
CONTINUOUS
 62
     5
 10
275.94154098971921
 20
1638.7215691891599
 30
0.0
 11
277.21393072617002
 21
1637.4069474192329
 31
0.0
  0
LINE
  5
D99
  8
DETAIL
  6
CONTINUOUS
 62
     5
 10
277.21393072617002
 20
1637.4069474192329
 30
0.0
 11
278.24130305042121
 21
1635.810678399665
 31
0.0
  0
LINE
  5
D9A
  8
DETAIL
  6
CONTINUOUS
 62
     5
 10
262.96029333406432
 20
1640.509067671954
 30
0.0
 11
264.58682197031112
 21
1640.3049404655339
 31
0.0
  0
LINE
  5
D9B
  8
DETAIL
  6
CONTINUOUS
 62
     5
 10
264.72418203673891
 20
1640.509067671954
 30
0.0
 11
266.35071067298571
 21
1640.3049404655339
 31
0.0
  0
LINE
  5
D9C
  8
DETAIL
  6
CONTINUOUS
 62
     5
 10
266.35071067298571
 20
1640.3049404655339
 30
0.0
 11
267.91085562332182
 21
1639.700889911376
 31
0.0
  0
LINE
  5
D9D
  8
DETAIL
  6
CONTINUOUS
 62
     5
 10
267.91085562332182
 20
1639.700889911376
 30
0.0
 11
269.34094252607701
 21
1638.7215691891599
 31
0.0
  0
LINE
  5
D9E
  8
DETAIL
  6
CONTINUOUS
 62
     5
 10
269.34094252607701
 20
1638.7215691891599
 30
0.0
 11
270.58260509273208
 21
1637.4069474192329
 31
0.0
  0
LINE
  5
D9F
  8
DETAIL
  6
CONTINUOUS
 62
     5
 10
270.58260509273208
 20
1637.4069474192329
 30
0.0
 11
271.58516721708202
 21
1635.810678399665
 31
0.0
  0
LINE
  5
DA0
  8
DETAIL
  6
CONTINUOUS
 62
     5
 10
256.06776531578078
 20
1640.509067671954
 30
0.0
 11
257.65206090573599
 21
1640.3049404655339
 31
0.0
  0
LINE
  5
DA1
  8
DETAIL
  6
CONTINUOUS
 62
     5
 10
257.65206090573599
 20
1640.3049404655339
 30
0.0
 11
259.17169647155691
 21
1639.700889911376
 31
0.0
  0
LINE
  5
DA2
  8
DETAIL
  6
CONTINUOUS
 62
     5
 10
259.17169647155691
 20
1639.700889911376
 30
0.0
 11
260.56465096554302
 21
1638.7215691891599
 31
0.0
  0
LINE
  5
DA3
  8
DETAIL
  6
CONTINUOUS
 62
     5
 10
260.56465096554302
 20
1638.7215691891599
 30
0.0
 11
261.7740735879388
 21
1637.4069474192329
 31
0.0
  0
LINE
  5
DA4
  8
DETAIL
  6
CONTINUOUS
 62
     5
 10
261.7740735879388
 20
1637.4069474192329
 30
0.0
 11
262.75060404480189
 21
1635.810678399665
 31
0.0
  0
LINE
  5
DA5
  8
DETAIL
  6
CONTINUOUS
 62
     5
 10
257.9153079629782
 20
1640.509067671954
 30
0.0
 11
259.49960355293382
 21
1640.3049404655339
 31
0.0
  0
LINE
  5
DA6
  8
DETAIL
  6
CONTINUOUS
 62
     5
 10
259.49960355293382
 20
1640.3049404655339
 30
0.0
 11
261.01923911875519
 21
1639.700889911376
 31
0.0
  0
LINE
  5
DA7
  8
DETAIL
  6
CONTINUOUS
 62
     5
 10
261.01923911875519
 20
1639.700889911376
 30
0.0
 11
262.41219361272391
 21
1638.7215691891599
 31
0.0
  0
LINE
  5
DA8
  8
DETAIL
  6
CONTINUOUS
 62
     5
 10
262.41219361272391
 20
1638.7215691891599
 30
0.0
 11
263.62161623512111
 21
1637.4069474192329
 31
0.0
  0
LINE
  5
DA9
  8
DETAIL
  6
CONTINUOUS
 62
     5
 10
263.62161623512111
 20
1637.4069474192329
 30
0.0
 11
264.59814669199881
 21
1635.810678399665
 31
0.0
  0
LINE
  5
DAA
  8
DETAIL
  6
CONTINUOUS
 62
     5
 10
248.863258169652
 20
1640.509067671954
 30
0.0
 11
250.40339049320801
 21
1640.3049404655339
 31
0.0
  0
LINE
  5
DAB
  8
DETAIL
  6
CONTINUOUS
 62
     5
 10
250.40339049320801
 20
1640.3049404655339
 30
0.0
 11
251.88066523271789
 21
1639.700889911376
 31
0.0
  0
LINE
  5
DAC
  8
DETAIL
  6
CONTINUOUS
 62
     5
 10
251.88066523271789
 20
1639.700889911376
 30
0.0
 11
253.2347902173469
 21
1638.7215691891599
 31
0.0
  0
LINE
  5
DAD
  8
DETAIL
  6
CONTINUOUS
 62
     5
 10
253.2347902173469
 20
1638.7215691891599
 30
0.0
 11
254.4104994002841
 21
1637.4069474192329
 31
0.0
  0
LINE
  5
DAE
  8
DETAIL
  6
CONTINUOUS
 62
     5
 10
254.4104994002841
 20
1637.4069474192329
 30
0.0
 11
255.35980843780581
 21
1635.810678399665
 31
0.0
  0
LINE
  5
DAF
  8
DETAIL
  6
CONTINUOUS
 62
     5
 10
250.7922038152328
 20
1640.509067671954
 30
0.0
 11
252.33233613880429
 21
1640.3049404655339
 31
0.0
  0
LINE
  5
DB0
  8
DETAIL
  6
CONTINUOUS
 62
     5
 10
252.33233613880429
 20
1640.3049404655339
 30
0.0
 11
253.80961087831469
 21
1639.700889911376
 31
0.0
  0
LINE
  5
DB1
  8
DETAIL
  6
CONTINUOUS
 62
     5
 10
253.80961087831469
 20
1639.700889911376
 30
0.0
 11
255.16373586294409
 21
1638.7215691891599
 31
0.0
  0
LINE
  5
DB2
  8
DETAIL
  6
CONTINUOUS
 62
     5
 10
255.16373586294409
 20
1638.7215691891599
 30
0.0
 11
256.33944504588089
 21
1637.4069474192329
 31
0.0
  0
LINE
  5
DB3
  8
DETAIL
  6
CONTINUOUS
 62
     5
 10
256.33944504588089
 20
1637.4069474192329
 30
0.0
 11
257.28875408329708
 21
1635.810678399665
 31
0.0
  0
LINE
  5
DB4
  8
DETAIL
  6
CONTINUOUS
 62
     5
 10
248.74496372885909
 20
1637.4069474192329
 30
0.0
 11
249.66589476007809
 21
1635.810678399665
 31
0.0
  0
LINE
  5
DB5
  8
DETAIL
  6
CONTINUOUS
 62
     5
 10
264.58682197031112
 20
1640.3049404655339
 30
0.0
 11
266.14696692064581
 21
1639.700889911376
 31
0.0
  0
LINE
  5
DB6
  8
DETAIL
  6
CONTINUOUS
 62
     5
 10
266.14696692064581
 20
1639.700889911376
 30
0.0
 11
267.57705382340191
 21
1638.7215691891599
 31
0.0
  0
LINE
  5
DB7
  8
DETAIL
  6
CONTINUOUS
 62
     5
 10
267.57705382340191
 20
1638.7215691891599
 30
0.0
 11
268.81871639005612
 21
1637.4069474192329
 31
0.0
  0
LINE
  5
DB8
  8
DETAIL
  6
CONTINUOUS
 62
     5
 10
268.81871639005612
 20
1637.4069474192329
 30
0.0
 11
269.82127851440731
 21
1635.810678399665
 31
0.0
  0
LINE
  5
DB9
  8
DETAIL
  6
CONTINUOUS
 62
     5
 10
320.0967148280742
 20
1641.609399999121
 30
0.0
 11
320.0967148280742
 21
1640.509067671954
 31
0.0
  0
LINE
  5
DBC
  8
DETAIL
  6
CONTINUOUS
 62
     5
 10
334.35138622339292
 20
1635.810678399665
 30
0.0
 11
340.053351574972
 21
1625.9949815576169
 31
0.0
  0
LINE
  5
DBD
  8
DETAIL
  6
CONTINUOUS
 62
     5
 10
334.45611635692597
 20
1635.810678399665
 30
0.0
 11
340.15808170848999
 21
1625.9949815576169
 31
0.0
  0
LINE
  5
DBE
  8
DETAIL
  6
CONTINUOUS
 62
     5
 10
333.68783159532308
 20
1635.810678399665
 30
0.0
 11
339.37937437990371
 21
1625.9949815576169
 31
0.0
  0
LINE
  5
DBF
  8
DETAIL
  6
CONTINUOUS
 62
     5
 10
333.89716426482619
 20
1635.810678399665
 30
0.0
 11
339.58870704949823
 21
1625.9949815576169
 31
0.0
  0
LINE
  5
DC0
  8
DETAIL
  6
CONTINUOUS
 62
     5
 10
332.61772974505311
 20
1635.810678399665
 30
0.0
 11
338.2919156945913
 21
1625.9949815576169
 31
0.0
  0
LINE
  5
DC1
  8
DETAIL
  6
CONTINUOUS
 62
     5
 10
332.93140991096601
 20
1635.810678399665
 30
0.0
 11
338.6055958605038
 21
1625.9949815576169
 31
0.0
  0
LINE
  5
DC2
  8
DETAIL
  6
CONTINUOUS
 62
     5
 10
331.1423844270098
 20
1635.810678399665
 30
0.0
 11
336.79230041985687
 21
1625.9949815576169
 31
0.0
  0
LINE
  5
DC3
  8
DETAIL
  6
CONTINUOUS
 62
     5
 10
331.56002991827108
 20
1635.810678399665
 30
0.0
 11
337.20994591121001
 21
1625.9949815576169
 31
0.0
  0
LINE
  5
DC4
  8
DETAIL
  6
CONTINUOUS
 62
     5
 10
329.26359312206768
 20
1635.810678399665
 30
0.0
 11
334.88235560592369
 21
1625.9949815576169
 31
0.0
  0
LINE
  5
DC5
  8
DETAIL
  6
CONTINUOUS
 62
     5
 10
329.78469510213921
 20
1635.810678399665
 30
0.0
 11
335.4034575859809
 21
1625.9949815576169
 31
0.0
  0
LINE
  5
DC6
  8
DETAIL
  6
CONTINUOUS
 62
     5
 10
326.98364484805597
 20
1635.810678399665
 30
0.0
 11
332.56440822646391
 21
1625.9949815576169
 31
0.0
  0
LINE
  5
DC7
  8
DETAIL
  6
CONTINUOUS
 62
     5
 10
327.60756843429488
 20
1635.810678399665
 30
0.0
 11
333.18833181270202
 21
1625.9949815576169
 31
0.0
  0
LINE
  5
DC8
  8
DETAIL
  6
CONTINUOUS
 62
     5
 10
324.30531737074392
 20
1635.810678399665
 30
0.0
 11
329.84128234303893
 21
1625.9949815576169
 31
0.0
  0
LINE
  5
DC9
  8
DETAIL
  6
CONTINUOUS
 62
     5
 10
325.03130240849703
 20
1635.810678399665
 30
0.0
 11
330.56726738079198
 21
1625.9949815576169
 31
0.0
  0
LINE
  5
DCA
  8
DETAIL
  6
CONTINUOUS
 62
     5
 10
321.23187381966
 20
1635.810678399665
 30
0.0
 11
326.71629566530419
 21
1625.9949815576169
 31
0.0
  0
LINE
  5
DCB
  8
DETAIL
  6
CONTINUOUS
 62
     5
 10
322.05903580796888
 20
1635.810678399665
 30
0.0
 11
327.54345765361307
 21
1625.9949815576169
 31
0.0
  0
LINE
  5
DCC
  8
DETAIL
  6
CONTINUOUS
 62
     5
 10
319.31224677922307
 20
1640.509067671954
 30
0.0
 11
320.91178908595708
 21
1640.509067671954
 31
0.0
  0
LINE
  5
DCD
  8
DETAIL
  6
CONTINUOUS
 62
     5
 10
321.43289106602782
 20
1640.509067671954
 30
0.0
 11
322.74427339658632
 21
1640.509067671954
 31
0.0
  0
LINE
  5
DCE
  8
DETAIL
  6
CONTINUOUS
 62
     5
 10
323.16191888795299
 20
1640.509067671954
 30
0.0
 11
324.18354352508589
 21
1640.509067671954
 31
0.0
  0
LINE
  5
DCF
  8
DETAIL
  6
CONTINUOUS
 62
     5
 10
324.49722369099891
 20
1640.509067671954
 30
0.0
 11
325.22784594244371
 21
1640.509067671954
 31
0.0
  0
LINE
  5
DD0
  8
DETAIL
  6
CONTINUOUS
 62
     5
 10
325.43717861205317
 20
1640.509067671954
 30
0.0
 11
326.1269411147249
 21
1640.509067671949
 31
0.0
  0
LINE
  5
DD1
  8
DETAIL
  6
CONTINUOUS
 62
     5
 10
325.875908327047
 20
1640.509067671954
 30
0.0
 11
327.88518354663478
 21
1640.3049404655339
 31
0.0
  0
LINE
  5
DD2
  8
DETAIL
  6
CONTINUOUS
 62
     5
 10
327.88518354663478
 20
1640.3049404655339
 30
0.0
 11
329.81245400317408
 21
1639.700889911376
 31
0.0
  0
LINE
  5
DD3
  8
DETAIL
  6
CONTINUOUS
 62
     5
 10
329.81245400317408
 20
1639.700889911376
 30
0.0
 11
331.5790618031142
 21
1638.7215691891599
 31
0.0
  0
LINE
  5
DD4
  8
DETAIL
  6
CONTINUOUS
 62
     5
 10
331.5790618031142
 20
1638.7215691891599
 30
0.0
 11
333.11290619452387
 21
1637.4069474192329
 31
0.0
  0
LINE
  5
DD5
  8
DETAIL
  6
CONTINUOUS
 62
     5
 10
333.11290619452387
 20
1637.4069474192329
 30
0.0
 11
334.35138622339292
 21
1635.810678399665
 31
0.0
  0
LINE
  5
DD6
  8
DETAIL
  6
CONTINUOUS
 62
     5
 10
325.9806384606722
 20
1640.509067671954
 30
0.0
 11
327.98991368015322
 21
1640.3049404655339
 31
0.0
  0
LINE
  5
DD7
  8
DETAIL
  6
CONTINUOUS
 62
     5
 10
327.98991368015322
 20
1640.3049404655339
 30
0.0
 11
329.91718413670918
 21
1639.700889911376
 31
0.0
  0
LINE
  5
DD8
  8
DETAIL
  6
CONTINUOUS
 62
     5
 10
329.91718413670918
 20
1639.700889911376
 30
0.0
 11
331.68379193663287
 21
1638.7215691891599
 31
0.0
  0
LINE
  5
DD9
  8
DETAIL
  6
CONTINUOUS
 62
     5
 10
331.68379193663287
 20
1638.7215691891599
 30
0.0
 11
333.21763632804323
 21
1637.4069474192329
 31
0.0
  0
LINE
  5
DDA
  8
DETAIL
  6
CONTINUOUS
 62
     5
 10
333.21763632804323
 20
1637.4069474192329
 30
0.0
 11
334.45611635692597
 21
1635.810678399665
 31
0.0
  0
LINE
  5
DDB
  8
DETAIL
  6
CONTINUOUS
 62
     5
 10
325.22784594244371
 20
1640.509067671954
 30
0.0
 11
327.23344842743199
 21
1640.3049404655339
 31
0.0
  0
LINE
  5
DDC
  8
DETAIL
  6
CONTINUOUS
 62
     5
 10
327.23344842743199
 20
1640.3049404655339
 30
0.0
 11
329.15719604508428
 21
1639.700889911376
 31
0.0
  0
LINE
  5
DDD
  8
DETAIL
  6
CONTINUOUS
 62
     5
 10
329.15719604508428
 20
1639.700889911376
 30
0.0
 11
330.9205746797569
 21
1638.7215691891599
 31
0.0
  0
LINE
  5
DDE
  8
DETAIL
  6
CONTINUOUS
 62
     5
 10
330.9205746797569
 20
1638.7215691891599
 30
0.0
 11
332.45161537194281
 21
1637.4069474192329
 31
0.0
  0
LINE
  5
DDF
  8
DETAIL
  6
CONTINUOUS
 62
     5
 10
332.45161537194281
 20
1637.4069474192329
 30
0.0
 11
333.68783159532308
 21
1635.810678399665
 31
0.0
  0
LINE
  5
DE0
  8
DETAIL
  6
CONTINUOUS
 62
     5
 10
325.43717861205317
 20
1640.509067671954
 30
0.0
 11
327.44278109693499
 21
1640.3049404655339
 31
0.0
  0
LINE
  5
DE1
  8
DETAIL
  6
CONTINUOUS
 62
     5
 10
327.44278109693499
 20
1640.3049404655339
 30
0.0
 11
329.36652871458602
 21
1639.700889911376
 31
0.0
  0
LINE
  5
DE2
  8
DETAIL
  6
CONTINUOUS
 62
     5
 10
329.36652871458602
 20
1639.700889911376
 30
0.0
 11
331.12990734935107
 21
1638.7215691891599
 31
0.0
  0
LINE
  5
DE3
  8
DETAIL
  6
CONTINUOUS
 62
     5
 10
331.12990734935107
 20
1638.7215691891599
 30
0.0
 11
332.66094804153681
 21
1637.4069474192329
 31
0.0
  0
LINE
  5
DE4
  8
DETAIL
  6
CONTINUOUS
 62
     5
 10
332.66094804153681
 20
1637.4069474192329
 30
0.0
 11
333.89716426482619
 21
1635.810678399665
 31
0.0
  0
LINE
  5
DE5
  8
DETAIL
  6
CONTINUOUS
 62
     5
 10
324.18354352508589
 20
1640.509067671954
 30
0.0
 11
326.18302975769387
 21
1640.3049404655339
 31
0.0
  0
LINE
  5
DE6
  8
DETAIL
  6
CONTINUOUS
 62
     5
 10
326.18302975769387
 20
1640.3049404655339
 30
0.0
 11
328.10091074639507
 21
1639.700889911376
 31
0.0
  0
LINE
  5
DE7
  8
DETAIL
  6
CONTINUOUS
 62
     5
 10
328.10091074639507
 20
1639.700889911376
 30
0.0
 11
329.85891181065699
 21
1638.7215691891599
 31
0.0
  0
LINE
  5
DE8
  8
DETAIL
  6
CONTINUOUS
 62
     5
 10
329.85891181065699
 20
1638.7215691891599
 30
0.0
 11
331.38528346633711
 21
1637.4069474192329
 31
0.0
  0
LINE
  5
DE9
  8
DETAIL
  6
CONTINUOUS
 62
     5
 10
331.38528346633711
 20
1637.4069474192329
 30
0.0
 11
332.61772974505311
 21
1635.810678399665
 31
0.0
  0
LINE
  5
DEA
  8
DETAIL
  6
CONTINUOUS
 62
     5
 10
324.49722369099891
 20
1640.509067671954
 30
0.0
 11
326.49670992360768
 21
1640.3049404655339
 31
0.0
  0
LINE
  5
DEB
  8
DETAIL
  6
CONTINUOUS
 62
     5
 10
326.49670992360768
 20
1640.3049404655339
 30
0.0
 11
328.41459091230797
 21
1639.700889911376
 31
0.0
  0
LINE
  5
DEC
  8
DETAIL
  6
CONTINUOUS
 62
     5
 10
328.41459091230797
 20
1639.700889911376
 30
0.0
 11
330.17259197657131
 21
1638.7215691891599
 31
0.0
  0
LINE
  5
DED
  8
DETAIL
  6
CONTINUOUS
 62
     5
 10
330.17259197657131
 20
1638.7215691891599
 30
0.0
 11
331.6989636322499
 21
1637.4069474192329
 31
0.0
  0
LINE
  5
DEE
  8
DETAIL
  6
CONTINUOUS
 62
     5
 10
331.6989636322499
 20
1637.4069474192329
 30
0.0
 11
332.93140991096601
 21
1635.810678399665
 31
0.0
  0
LINE
  5
DEF
  8
DETAIL
  6
CONTINUOUS
 62
     5
 10
322.74427339658632
 20
1640.509067671954
 30
0.0
 11
324.735207310975
 21
1640.3049404655339
 31
0.0
  0
LINE
  5
DF0
  8
DETAIL
  6
CONTINUOUS
 62
     5
 10
324.735207310975
 20
1640.3049404655339
 30
0.0
 11
326.64488502800799
 21
1639.700889911376
 31
0.0
  0
LINE
  5
DF1
  8
DETAIL
  6
CONTINUOUS
 62
     5
 10
326.64488502800799
 20
1639.700889911376
 30
0.0
 11
328.39536666834692
 21
1638.7215691891599
 31
0.0
  0
LINE
  5
DF2
  8
DETAIL
  6
CONTINUOUS
 62
     5
 10
328.39536666834692
 20
1638.7215691891599
 30
0.0
 11
329.91520963882692
 21
1637.4069474192329
 31
0.0
  0
LINE
  5
DF3
  8
DETAIL
  6
CONTINUOUS
 62
     5
 10
329.91520963882692
 20
1637.4069474192329
 30
0.0
 11
331.1423844270098
 21
1635.810678399665
 31
0.0
  0
LINE
  5
DF4
  8
DETAIL
  6
CONTINUOUS
 62
     5
 10
323.16191888795299
 20
1640.509067671954
 30
0.0
 11
325.15285280232717
 21
1640.3049404655339
 31
0.0
  0
LINE
  5
DF5
  8
DETAIL
  6
CONTINUOUS
 62
     5
 10
325.15285280232717
 20
1640.3049404655339
 30
0.0
 11
327.06253051937392
 21
1639.700889911376
 31
0.0
  0
LINE
  5
DF6
  8
DETAIL
  6
CONTINUOUS
 62
     5
 10
327.06253051937392
 20
1639.700889911376
 30
0.0
 11
328.81301215969779
 21
1638.7215691891599
 31
0.0
  0
LINE
  5
DF7
  8
DETAIL
  6
CONTINUOUS
 62
     5
 10
328.81301215969779
 20
1638.7215691891599
 30
0.0
 11
330.33285513017881
 21
1637.4069474192329
 31
0.0
  0
LINE
  5
DF8
  8
DETAIL
  6
CONTINUOUS
 62
     5
 10
330.33285513017881
 20
1637.4069474192329
 30
0.0
 11
331.56002991827108
 21
1635.810678399665
 31
0.0
  0
LINE
  5
DF9
  8
DETAIL
  6
CONTINUOUS
 62
     5
 10
320.91178908595708
 20
1640.509067671954
 30
0.0
 11
322.89174503574372
 21
1640.3049404655339
 31
0.0
  0
LINE
  5
DFA
  8
DETAIL
  6
CONTINUOUS
 62
     5
 10
322.89174503574372
 20
1640.3049404655339
 30
0.0
 11
324.79089283304108
 21
1639.700889911376
 31
0.0
  0
LINE
  5
DFB
  8
DETAIL
  6
CONTINUOUS
 62
     5
 10
324.79089283304108
 20
1639.700889911376
 30
0.0
 11
326.53172235715601
 21
1638.7215691891599
 31
0.0
  0
LINE
  5
DFC
  8
DETAIL
  6
CONTINUOUS
 62
     5
 10
326.53172235715601
 20
1638.7215691891599
 30
0.0
 11
328.04318494796883
 21
1637.4069474192329
 31
0.0
  0
LINE
  5
DFD
  8
DETAIL
  6
CONTINUOUS
 62
     5
 10
328.04318494796883
 20
1637.4069474192329
 30
0.0
 11
329.26359312206768
 21
1635.810678399665
 31
0.0
  0
LINE
  5
DFE
  8
DETAIL
  6
CONTINUOUS
 62
     5
 10
321.43289106602782
 20
1640.509067671954
 30
0.0
 11
323.41284701579889
 21
1640.3049404655339
 31
0.0
  0
LINE
  5
DFF
  8
DETAIL
  6
CONTINUOUS
 62
     5
 10
323.41284701579889
 20
1640.3049404655339
 30
0.0
 11
325.3119948130979
 21
1639.700889911376
 31
0.0
  0
LINE
  5
E00
  8
DETAIL
  6
CONTINUOUS
 62
     5
 10
325.3119948130979
 20
1639.700889911376
 30
0.0
 11
327.05282433722681
 21
1638.7215691891599
 31
0.0
  0
LINE
  5
E01
  8
DETAIL
  6
CONTINUOUS
 62
     5
 10
327.05282433722681
 20
1638.7215691891599
 30
0.0
 11
328.564286928039
 21
1637.4069474192329
 31
0.0
  0
LINE
  5
E02
  8
DETAIL
  6
CONTINUOUS
 62
     5
 10
328.564286928039
 20
1637.4069474192329
 30
0.0
 11
329.78469510213921
 21
1635.810678399665
 31
0.0
  0
LINE
  5
E03
  8
DETAIL
  6
CONTINUOUS
 62
     5
 10
318.6883231928777
 20
1640.509067671954
 30
0.0
 11
320.65488890678893
 21
1640.3049404655339
 31
0.0
  0
LINE
  5
E04
  8
DETAIL
  6
CONTINUOUS
 62
     5
 10
320.65488890678893
 20
1640.3049404655339
 30
0.0
 11
322.54119296534492
 21
1639.700889911376
 31
0.0
  0
LINE
  5
E05
  8
DETAIL
  6
CONTINUOUS
 62
     5
 10
322.54119296534492
 20
1639.700889911376
 30
0.0
 11
324.27024944062981
 21
1638.7215691891599
 31
0.0
  0
LINE
  5
E06
  8
DETAIL
  6
CONTINUOUS
 62
     5
 10
324.27024944062981
 20
1638.7215691891599
 30
0.0
 11
325.77149016728572
 21
1637.4069474192329
 31
0.0
  0
LINE
  5
E07
  8
DETAIL
  6
CONTINUOUS
 62
     5
 10
325.77149016728572
 20
1637.4069474192329
 30
0.0
 11
326.98364484805597
 21
1635.810678399665
 31
0.0
  0
LINE
  5
E08
  8
DETAIL
  6
CONTINUOUS
 62
     5
 10
319.31224677922307
 20
1640.509067671954
 30
0.0
 11
321.27881249304301
 21
1640.3049404655339
 31
0.0
  0
LINE
  5
E09
  8
DETAIL
  6
CONTINUOUS
 62
     5
 10
321.27881249304301
 20
1640.3049404655339
 30
0.0
 11
323.16511655159911
 21
1639.700889911376
 31
0.0
  0
LINE
  5
E0A
  8
DETAIL
  6
CONTINUOUS
 62
     5
 10
323.16511655159911
 20
1639.700889911376
 30
0.0
 11
324.89417302697478
 21
1638.7215691891599
 31
0.0
  0
LINE
  5
E0B
  8
DETAIL
  6
CONTINUOUS
 62
     5
 10
324.89417302697478
 20
1638.7215691891599
 30
0.0
 11
326.395413753632
 21
1637.4069474192329
 31
0.0
  0
LINE
  5
E0C
  8
DETAIL
  6
CONTINUOUS
 62
     5
 10
326.395413753632
 20
1637.4069474192329
 30
0.0
 11
327.60756843429488
 21
1635.810678399665
 31
0.0
  0
LINE
  5
E0D
  8
DETAIL
  6
CONTINUOUS
 62
     5
 10
316.07658466822608
 20
1640.509067671954
 30
0.0
 11
318.02736418875202
 21
1640.3049404655339
 31
0.0
  0
LINE
  5
E0E
  8
DETAIL
  6
CONTINUOUS
 62
     5
 10
318.02736418875202
 20
1640.3049404655339
 30
0.0
 11
319.89852633760711
 21
1639.700889911376
 31
0.0
  0
LINE
  5
E0F
  8
DETAIL
  6
CONTINUOUS
 62
     5
 10
319.89852633760711
 20
1639.700889911376
 30
0.0
 11
321.61370317525001
 21
1638.7215691891599
 31
0.0
  0
LINE
  5
E10
  8
DETAIL
  6
CONTINUOUS
 62
     5
 10
321.61370317525001
 20
1638.7215691891599
 30
0.0
 11
323.10289300721792
 21
1637.4069474192329
 31
0.0
  0
LINE
  5
E11
  8
DETAIL
  6
CONTINUOUS
 62
     5
 10
323.10289300721792
 20
1637.4069474192329
 30
0.0
 11
324.30531737074392
 21
1635.810678399665
 31
0.0
  0
LINE
  5
E12
  8
DETAIL
  6
CONTINUOUS
 62
     5
 10
316.80256970596292
 20
1640.509067671954
 30
0.0
 11
318.75334922650381
 21
1640.3049404655339
 31
0.0
  0
LINE
  5
E13
  8
DETAIL
  6
CONTINUOUS
 62
     5
 10
318.75334922650381
 20
1640.3049404655339
 30
0.0
 11
320.62451137534481
 21
1639.700889911376
 31
0.0
  0
LINE
  5
E14
  8
DETAIL
  6
CONTINUOUS
 62
     5
 10
320.62451137534481
 20
1639.700889911376
 30
0.0
 11
322.33968821300323
 21
1638.7215691891599
 31
0.0
  0
LINE
  5
E15
  8
DETAIL
  6
CONTINUOUS
 62
     5
 10
322.33968821300323
 20
1638.7215691891599
 30
0.0
 11
323.82887804497102
 21
1637.4069474192329
 31
0.0
  0
LINE
  5
E16
  8
DETAIL
  6
CONTINUOUS
 62
     5
 10
323.82887804497102
 20
1637.4069474192329
 30
0.0
 11
325.03130240849703
 21
1635.810678399665
 31
0.0
  0
LINE
  5
E17
  8
DETAIL
  6
CONTINUOUS
 62
     5
 10
316.8661126321872
 20
1639.700889911376
 30
0.0
 11
318.56532015332181
 21
1638.7215691891599
 31
0.0
  0
LINE
  5
E18
  8
DETAIL
  6
CONTINUOUS
 62
     5
 10
318.56532015332181
 20
1638.7215691891599
 30
0.0
 11
320.04064474211413
 21
1637.4069474192329
 31
0.0
  0
LINE
  5
E19
  8
DETAIL
  6
CONTINUOUS
 62
     5
 10
320.04064474211413
 20
1637.4069474192329
 30
0.0
 11
321.23187381966
 21
1635.810678399665
 31
0.0
  0
LINE
  5
E1A
  8
DETAIL
  6
CONTINUOUS
 62
     5
 10
317.69327462049608
 20
1639.700889911376
 30
0.0
 11
319.3924821415398
 21
1638.7215691891599
 31
0.0
  0
LINE
  5
E1B
  8
DETAIL
  6
CONTINUOUS
 62
     5
 10
319.3924821415398
 20
1638.7215691891599
 30
0.0
 11
320.86780673042318
 21
1637.4069474192329
 31
0.0
  0
LINE
  5
E1C
  8
DETAIL
  6
CONTINUOUS
 62
     5
 10
320.86780673042318
 20
1637.4069474192329
 30
0.0
 11
322.05903580796888
 21
1635.810678399665
 31
0.0
  0
LINE
  5
E1D
  8
DETAIL
  6
CONTINUOUS
 62
     5
 10
316.58847624993399
 20
1637.4069474192329
 30
0.0
 11
317.76705871240893
 21
1635.810678399665
 31
0.0
  0
LINE
  5
E1E
  8
DETAIL
  6
CONTINUOUS
 62
     5
 10
316.05614552929131
 20
1638.7215691891599
 30
0.0
 11
317.51580741930678
 21
1637.4069474192329
 31
0.0
  0
LINE
  5
E1F
  8
DETAIL
  6
CONTINUOUS
 62
     5
 10
317.51580741930678
 20
1637.4069474192329
 30
0.0
 11
318.69438988167627
 21
1635.810678399665
 31
0.0
  0
ARC
  5
E20
  8
DETAIL
  6
CONTINUOUS
 62
     5
 10
326.1269411147249
 20
1630.506045333583
 30
0.0
 40
10.00302233836606
 50
32.025931703347148
 51
90.0
  0
TEXT
  5
E21
  8
NOTE
  6
CONTINUOUS
 62
     4
 10
-79.037462688032974
 20
1717.366435928795
 30
0.0
 40
55.0
  1
空気吹出
 50
0.0000025045208121
 41
0.630952371610266
  7
STANDARD1
  0
LINE
  5
E22
  8
NOTE
  6
CONTINUOUS
 62
     4
 10
204.58794150447781
 20
1786.389174763086
 30
0.0
 11
154.57282981264819
 21
1736.4780491351651
 31
0.0
  0
LINE
  5
E23
  8
NOTE
  6
CONTINUOUS
 62
     4
 10
179.5803856585639
 20
1736.4780491351651
 30
0.0
 11
154.57282981264819
 21
1736.4780491351651
 31
0.0
  0
LINE
  5
E24
  8
NOTE
  6
CONTINUOUS
 62
     4
 10
254.6030531963101
 20
1736.4780491351651
 30
0.0
 11
229.595497350394
 21
1736.4780491351651
 31
0.0
  0
LINE
  5
E25
  8
NOTE
  6
CONTINUOUS
 62
     4
 10
254.6030531963101
 20
1736.4780491351651
 30
0.0
 11
204.58794150447781
 21
1786.389174763086
 31
0.0
  0
LINE
  5
E26
  8
DETAIL
  6
CONTINUOUS
 62
     5
 10
-379.99999999954468
 20
1369.913909239167
 30
0.0
 11
-379.99999999954468
 21
1409.9999672647759
 31
0.0
  0
LINE
  5
E27
  8
DETAIL
  6
CONTINUOUS
 62
     5
 10
380.0000000004552
 20
1369.913909239167
 30
0.0
 11
380.0000000004552
 21
1409.9999672647759
 31
0.0
  0
LINE
  5
E28
  8
SIZE
  6
CONTINUOUS
 62
    30
 10
-379.99999999954468
 20
1429.9999672647759
 30
0.0
 11
-379.99999999954468
 21
1975.4595913218079
 31
0.0
  0
LINE
  5
E29
  8
SIZE
  6
CONTINUOUS
 62
    30
 10
380.0000000004552
 20
1429.9999672647759
 30
0.0
 11
380.0000000004552
 21
1975.4595913218079
 31
0.0
  0
LINE
  5
E2A
  8
SIZE
  6
CONTINUOUS
 62
    30
 10
-369.99999999954468
 20
1945.4595913218079
 30
0.0
 11
370.0000000004552
 21
1945.4595913218079
 31
0.0
  0
CIRCLE
  5
E2B
  8
SIZE
  6
CONTINUOUS
 62
    30
 10
-379.99999999954468
 20
1945.4595913218079
 30
0.0
 40
5.0
  0
LINE
  5
E2C
  8
SIZE
  6
CONTINUOUS
 62
    30
 10
-374.9999999995448
 20
1945.4595913218079
 30
0.0
 11
-369.99999999954468
 21
1945.4595913218079
 31
0.0
  0
CIRCLE
  5
E2D
  8
SIZE
  6
CONTINUOUS
 62
    30
 10
380.0000000004552
 20
1945.4595913218079
 30
0.0
 40
5.0
  0
LINE
  5
E2E
  8
SIZE
  6
CONTINUOUS
 62
    30
 10
375.00000000045509
 20
1945.4595913218079
 30
0.0
 11
370.0000000004552
 21
1945.4595913218079
 31
0.0
  0
TEXT
  5
E2F
  8
SIZE
  6
CONTINUOUS
 62
    30
 10
-63.642857142401873
 20
1960.459591321807
 30
0.0
 40
55.0
  1
760
 41
0.9
 72
     1
 11
0.0000000004552589
 21
1960.459591321807
 31
0.0
  0
POINT
  5
E30
  8
DEFPOINTS
  6
CONTINUOUS
 62
     7
 10
-379.99999999954468
 20
1409.9999672647759
 30
0.0
  0
POINT
  5
E31
  8
DEFPOINTS
  6
CONTINUOUS
 62
     7
 10
380.0000000004552
 20
1409.9999672647759
 30
0.0
  0
POINT
  5
E32
  8
DEFPOINTS
  6
CONTINUOUS
 62
     7
 10
380.0000000004552
 20
1945.4595913218079
 30
0.0
  0
LINE
  5
E33
  8
SIZE
  6
CONTINUOUS
 62
    30
 10
-399.9999999995448
 20
-0.0000000000877535
 30
0.0
 11
-710.00887976408785
 21
-0.0000000000876657
 31
0.0
  0
LINE
  5
E34
  8
SIZE
  6
CONTINUOUS
 62
    30
 10
-399.9999999995448
 20
1409.9999672647759
 30
0.0
 11
-710.00887976408785
 21
1409.9999672647759
 31
0.0
  0
LINE
  5
E35
  8
SIZE
  6
CONTINUOUS
 62
    30
 10
-680.00887976408808
 20
9.9999999999123261
 30
0.0
 11
-680.00887976408785
 21
1399.9999672647759
 31
0.0
  0
CIRCLE
  5
E36
  8
SIZE
  6
CONTINUOUS
 62
    30
 10
-680.00887976408808
 20
-0.0000000000876742
 30
0.0
 40
5.0
  0
LINE
  5
E37
  8
SIZE
  6
CONTINUOUS
 62
    30
 10
-680.00887976408808
 20
4.9999999999123261
 30
0.0
 11
-680.00887976408808
 21
9.9999999999123261
 31
0.0
  0
CIRCLE
  5
E38
  8
SIZE
  6
CONTINUOUS
 62
    30
 10
-680.00887976408785
 20
1409.9999672647759
 30
0.0
 40
5.0
  0
LINE
  5
E39
  8
SIZE
  6
CONTINUOUS
 62
    30
 10
-680.00887976408785
 20
1404.9999672647759
 30
0.0
 11
-680.00887976408785
 21
1399.9999672647759
 31
0.0
  0
TEXT
  5
E3A
  8
SIZE
  6
CONTINUOUS
 62
    30
 10
-695.00887976408785
 20
627.21426934662986
 30
0.0
 40
55.0
  1
1410
 50
90.0
 41
0.9
 72
     1
 11
-695.00887976408785
 21
704.99998363234408
 31
0.0
  0
POINT
  5
E3B
  8
DEFPOINTS
  6
CONTINUOUS
 62
     7
 10
-379.99999999954468
 20
-0.0000000000877592
 30
0.0
  0
POINT
  5
E3C
  8
DEFPOINTS
  6
CONTINUOUS
 62
     7
 10
-379.99999999954468
 20
1409.9999672647759
 30
0.0
  0
POINT
  5
E3D
  8
DEFPOINTS
  6
CONTINUOUS
 62
     7
 10
-680.00887976408785
 20
1409.9999672647759
 30
0.0
  0
LINE
  5
E3E
  8
SIZE
  6
CONTINUOUS
 62
    30
 10
-399.9999999995448
 20
1409.9999672647759
 30
0.0
 11
-710.00887976408785
 21
1409.9999672647759
 31
0.0
  0
LINE
  5
E3F
  8
SIZE
  6
CONTINUOUS
 62
    30
 10
-100.0241787065747
 20
1649.999967264778
 30
0.0
 11
-710.00887976408785
 21
1649.999967264778
 31
0.0
  0
LINE
  5
E40
  8
SIZE
  6
CONTINUOUS
 62
    30
 10
-680.00887976408785
 20
1419.9999672647759
 30
0.0
 11
-680.00887976408785
 21
1639.999967264778
 31
0.0
  0
CIRCLE
  5
E41
  8
SIZE
  6
CONTINUOUS
 62
    30
 10
-680.00887976408785
 20
1409.9999672647759
 30
0.0
 40
5.0
  0
LINE
  5
E42
  8
SIZE
  6
CONTINUOUS
 62
    30
 10
-680.00887976408785
 20
1414.9999672647759
 30
0.0
 11
-680.00887976408785
 21
1419.9999672647759
 31
0.0
  0
CIRCLE
  5
E43
  8
SIZE
  6
CONTINUOUS
 62
    30
 10
-680.00887976408785
 20
1649.999967264778
 30
0.0
 40
5.0
  0
LINE
  5
E44
  8
SIZE
  6
CONTINUOUS
 62
    30
 10
-680.00887976408785
 20
1644.999967264778
 30
0.0
 11
-680.00887976408785
 21
1639.999967264778
 31
0.0
  0
TEXT
  5
E45
  8
SIZE
  6
CONTINUOUS
 62
    30
 10
-695.00887976408785
 20
1466.357110121919
 30
0.0
 40
55.0
  1
240
 50
90.0
 41
0.9
 72
     1
 11
-695.00887976408785
 21
1529.9999672647759
 31
0.0
  0
POINT
  5
E46
  8
DEFPOINTS
  6
CONTINUOUS
 62
     7
 10
-379.99999999954468
 20
1409.9999672647759
 30
0.0
  0
POINT
  5
E47
  8
DEFPOINTS
  6
CONTINUOUS
 62
     7
 10
-80.024178706574702
 20
1649.999967264778
 30
0.0
  0
POINT
  5
E48
  8
DEFPOINTS
  6
CONTINUOUS
 62
     7
 10
-680.00887976408785
 20
1649.999967264778
 30
0.0
  0
LINE
  5
E49
  8
SIZE
  6
CONTINUOUS
 62
    30
 10
-100.0241787065747
 20
1649.999967264778
 30
0.0
 11
-829.9766604389398
 21
1649.999967264778
 31
0.0
  0
LINE
  5
E4A
  8
SIZE
  6
CONTINUOUS
 62
    30
 10
-399.9999999995448
 20
-0.0000000000877535
 30
0.0
 11
-829.9766604389398
 21
-0.0000000000876317
 31
0.0
  0
LINE
  5
E4B
  8
SIZE
  6
CONTINUOUS
 62
    30
 10
-799.9766604389398
 20
1639.999967264778
 30
0.0
 11
-799.97666043894014
 21
9.9999999999123617
 31
0.0
  0
CIRCLE
  5
E4C
  8
SIZE
  6
CONTINUOUS
 62
    30
 10
-799.9766604389398
 20
1649.999967264778
 30
0.0
 40
5.0
  0
LINE
  5
E4D
  8
SIZE
  6
CONTINUOUS
 62
    30
 10
-799.9766604389398
 20
1644.999967264778
 30
0.0
 11
-799.9766604389398
 21
1639.999967264778
 31
0.0
  0
CIRCLE
  5
E4E
  8
SIZE
  6
CONTINUOUS
 62
    30
 10
-799.97666043894014
 20
-0.0000000000876402
 30
0.0
 40
5.0
  0
LINE
  5
E4F
  8
SIZE
  6
CONTINUOUS
 62
    30
 10
-799.97666043894014
 20
4.9999999999123581
 30
0.0
 11
-799.97666043894014
 21
9.9999999999123617
 31
0.0
  0
TEXT
  5
E50
  8
SIZE
  6
CONTINUOUS
 62
    30
 10
-814.9766604389398
 20
742.49998363234511
 30
0.0
 40
55.0
  1
1650
 50
90.0
 41
0.9
 72
     1
 11
-814.9766604389398
 21
824.99998363234499
 31
0.0
  0
POINT
  5
E51
  8
DEFPOINTS
  6
CONTINUOUS
 62
     7
 10
-80.024178706574702
 20
1649.999967264778
 30
0.0
  0
POINT
  5
E52
  8
DEFPOINTS
  6
CONTINUOUS
 62
     7
 10
-379.99999999954468
 20
-0.0000000000877592
 30
0.0
  0
POINT
  5
E53
  8
DEFPOINTS
  6
CONTINUOUS
 62
     7
 10
-799.97666043894014
 20
-0.0000000000876402
 30
0.0
  0
LINE
  5
E55
  8
DETAIL
  6
CONTINUOUS
 62
     5
 10
-299.9999999995448
 20
5.001511169083189
 30
0.0
 11
-299.9999999995448
 21
53.999998287156359
 31
0.0
  0
ARC
  5
E56
  8
DETAIL
  6
CONTINUOUS
 62
     5
 10
-305.00151116872968
 20
5.001511169083189
 30
0.0
 40
5.0015111691832921
 50
270.0
 51
0.000000000000007
  0
LINE
  5
E57
  8
DETAIL
  6
CONTINUOUS
 62
     5
 10
-324.99999999954429
 20
46.814144543480779
 30
0.0
 11
-328.00090670105959
 21
46.814144543480779
 31
0.0
  0
LINE
  5
E58
  8
DETAIL
  6
CONTINUOUS
 62
     5
 10
-328.00090670105959
 20
7.2021760835473341
 30
0.0
 11
-328.00090670105959
 21
46.814144543480779
 31
0.0
  0
LINE
  5
E59
  8
DETAIL
  6
CONTINUOUS
 62
     5
 10
-324.99999999954429
 20
54.000000207511683
 30
0.0
 11
-324.99999999954429
 21
-0.0000000000877592
 31
0.0
  0
LINE
  5
E5A
  8
DETAIL
  6
CONTINUOUS
 62
     5
 10
-324.99999999954429
 20
7.2021760835473341
 30
0.0
 11
-328.00090670105959
 21
7.2021760835473341
 31
0.0
  0
LINE
  5
E5B
  8
DETAIL
  6
CONTINUOUS
 62
     5
 10
-379.99999999954468
 20
2.3006951377506151
 30
0.0
 11
-324.99999999954429
 21
2.3006951377506151
 31
0.0
  0
LINE
  5
E5C
  8
DETAIL
  6
CONTINUOUS
 62
     5
 10
-305.0015111687328
 20
-0.0000000001001004
 30
0.0
 11
-379.99999999954468
 21
-0.0000000000877592
 31
0.0
  0
LINE
  5
E5D
  8
DETAIL
  6
CONTINUOUS
 62
     5
 10
-379.99999999954468
 20
-0.0000000000877592
 30
0.0
 11
-379.99999999954468
 21
2.3006951377506151
 31
0.0
  0
LINE
  5
E5E
  8
SIZE
  6
CONTINUOUS
 62
    30
 10
-399.9999999995448
 20
-0.0000000000877535
 30
0.0
 11
-607.69057267840799
 21
-0.0000000000876947
 31
0.0
  0
LINE
  5
E5F
  8
SIZE
  6
CONTINUOUS
 62
    30
 10
-348.59928377771797
 20
54.000000483988067
 30
0.0
 11
-607.69057267840799
 21
54.000000483988153
 31
0.0
  0
LINE
  5
E60
  8
SIZE
  6
CONTINUOUS
 62
    30
 10
-577.69057267840799
 20
9.9999999999122942
 30
0.0
 11
-577.69057267840799
 21
44.000000483988131
 31
0.0
  0
LINE
  5
E61
  8
SIZE
  6
CONTINUOUS
 62
    30
 10
-577.69057267840799
 20
54.000000483988153
 30
0.0
 11
-577.69057267840799
 21
176.50000048398891
 31
0.0
  0
CIRCLE
  5
E62
  8
SIZE
  6
CONTINUOUS
 62
    30
 10
-577.69057267840799
 20
-0.0000000000877032
 30
0.0
 40
5.0
  0
LINE
  5
E63
  8
SIZE
  6
CONTINUOUS
 62
    30
 10
-577.69057267840799
 20
4.999999999912295
 30
0.0
 11
-577.69057267840799
 21
9.9999999999122942
 31
0.0
  0
CIRCLE
  5
E64
  8
SIZE
  6
CONTINUOUS
 62
    30
 10
-577.69057267840799
 20
54.000000483988153
 30
0.0
 40
5.0
  0
LINE
  5
E65
  8
SIZE
  6
CONTINUOUS
 62
    30
 10
-577.69057267840799
 20
49.000000483988153
 30
0.0
 11
-577.69057267840799
 21
44.000000483988131
 31
0.0
  0
TEXT
  5
E66
  8
SIZE
  6
CONTINUOUS
 62
    30
 10
-592.69057267840765
 20
79.000000483988913
 30
0.0
 40
55.0
  1
54
 50
90.0
 41
0.9
 72
     1
 11
-592.69057267840765
 21
120.2500004839889
 31
0.0
  0
POINT
  5
E67
  8
DEFPOINTS
  6
CONTINUOUS
 62
     7
 10
-379.99999999954468
 20
-0.0000000000877592
 30
0.0
  0
POINT
  5
E68
  8
DEFPOINTS
  6
CONTINUOUS
 62
     7
 10
-328.59928377771797
 20
54.000000483988067
 30
0.0
  0
POINT
  5
E69
  8
DEFPOINTS
  6
CONTINUOUS
 62
     7
 10
-577.69057267840799
 20
54.000000483988153
 30
0.0
  0
LINE
  5
E6A
  8
SIZE
  6
CONTINUOUS
 62
    30
 10
-379.99999999954468
 20
-20.000000000087759
 30
0.0
 11
-379.99999999954468
 21
-125.8709338220292
 31
0.0
  0
LINE
  5
E6B
  8
SIZE
  6
CONTINUOUS
 62
    30
 10
-324.99999999954429
 20
-20.000000000087759
 30
0.0
 11
-324.99999999954429
 21
-125.8709338220292
 31
0.0
  0
LINE
  5
E6C
  8
SIZE
  6
CONTINUOUS
 62
    30
 10
-334.99999999954429
 20
-95.870933822029215
 30
0.0
 11
-369.99999999954491
 21
-95.870933822029215
 31
0.0
  0
LINE
  5
E6D
  8
SIZE
  6
CONTINUOUS
 62
    30
 10
-379.99999999954468
 20
-95.870933822029215
 30
0.0
 11
-500.14285714240168
 21
-95.870933822029215
 31
0.0
  0
CIRCLE
  5
E6E
  8
SIZE
  6
CONTINUOUS
 62
    30
 10
-324.99999999954429
 20
-95.870933822029215
 30
0.0
 40
5.0
  0
LINE
  5
E6F
  8
SIZE
  6
CONTINUOUS
 62
    30
 10
-329.99999999954429
 20
-95.870933822029215
 30
0.0
 11
-334.99999999954429
 21
-95.870933822029215
 31
0.0
  0
CIRCLE
  5
E70
  8
SIZE
  6
CONTINUOUS
 62
    30
 10
-379.99999999954468
 20
-95.870933822029215
 30
0.0
 40
5.0
  0
LINE
  5
E71
  8
SIZE
  6
CONTINUOUS
 62
    30
 10
-374.9999999995448
 20
-95.870933822029215
 30
0.0
 11
-369.99999999954468
 21
-95.870933822029215
 31
0.0
  0
TEXT
  5
E72
  8
SIZE
  6
CONTINUOUS
 62
    30
 10
-485.14285714240162
 20
-80.870933822029215
 30
0.0
 40
55.0
  1
55
 41
0.9
 72
     1
 11
-445.07142857097313
 21
-80.870933822029215
 31
0.0
  0
POINT
  5
E73
  8
DEFPOINTS
  6
CONTINUOUS
 62
     7
 10
-379.99999999954468
 20
-0.0000000000877592
 30
0.0
  0
POINT
  5
E74
  8
DEFPOINTS
  6
CONTINUOUS
 62
     7
 10
-324.99999999954429
 20
-0.0000000000877592
 30
0.0
  0
POINT
  5
E75
  8
DEFPOINTS
  6
CONTINUOUS
 62
     7
 10
-324.99999999954429
 20
-95.870933822029215
 30
0.0
  0
LINE
  5
E76
  8
SIZE
  6
CONTINUOUS
 62
    30
 10
-324.99999999954429
 20
-20.000000000087759
 30
0.0
 11
-324.99999999954429
 21
-125.8709338220292
 31
0.0
  0
LINE
  5
E77
  8
SIZE
  6
CONTINUOUS
 62
    30
 10
-299.9999999995448
 20
-14.9984888309168
 30
0.0
 11
-299.9999999995448
 21
-125.8709338220292
 31
0.0
  0
LINE
  5
E78
  8
SIZE
  6
CONTINUOUS
 62
    30
 10
-334.99999999954429
 20
-95.870933822029215
 30
0.0
 11
-344.99999999954417
 21
-95.870933822029215
 31
0.0
  0
LINE
  5
E79
  8
SIZE
  6
CONTINUOUS
 62
    30
 10
-289.99999999954468
 20
-95.870933822029215
 30
0.0
 11
-167.8857983151764
 21
-95.870933822029215
 31
0.0
  0
LINE
  5
E7A
  8
SIZE
  6
CONTINUOUS
 62
    30
 10
-324.99999999954429
 20
-95.870933822029215
 30
0.0
 11
-299.9999999995448
 21
-95.870933822029215
 31
0.0
  0
CIRCLE
  5
E7B
  8
SIZE
  6
CONTINUOUS
 62
    30
 10
-324.99999999954429
 20
-95.870933822029215
 30
0.0
 40
5.0
  0
LINE
  5
E7C
  8
SIZE
  6
CONTINUOUS
 62
    30
 10
-329.99999999954429
 20
-95.870933822029215
 30
0.0
 11
-334.99999999954429
 21
-95.870933822029215
 31
0.0
  0
CIRCLE
  5
E7D
  8
SIZE
  6
CONTINUOUS
 62
    30
 10
-299.9999999995448
 20
-95.870933822029215
 30
0.0
 40
5.0
  0
LINE
  5
E7E
  8
SIZE
  6
CONTINUOUS
 62
    30
 10
-294.99999999954491
 20
-95.870933822029215
 30
0.0
 11
-289.9999999995448
 21
-95.870933822029215
 31
0.0
  0
TEXT
  5
E7F
  8
SIZE
  6
CONTINUOUS
 62
    30
 10
-263.02865545803348
 20
-80.870933822029215
 30
0.0
 40
55.0
  1
25
 41
0.9
 72
     1
 11
-222.9572268866049
 21
-80.870933822029215
 31
0.0
  0
POINT
  5
E80
  8
DEFPOINTS
  6
CONTINUOUS
 62
     7
 10
-324.99999999954429
 20
-0.0000000000877592
 30
0.0
  0
POINT
  5
E81
  8
DEFPOINTS
  6
CONTINUOUS
 62
     7
 10
-299.9999999995448
 20
5.001511169083189
 30
0.0
  0
POINT
  5
E82
  8
DEFPOINTS
  6
CONTINUOUS
 62
     7
 10
-299.9999999995448
 20
-95.870933822029215
 30
0.0
  0
LINE
  5
E83
  8
SIZE
  6
CONTINUOUS
 62
    30
 10
380.0000000004552
 20
-20.000000000087759
 30
0.0
 11
380.0000000004552
 21
-125.8709338220292
 31
0.0
  0
LINE
  5
E84
  8
SIZE
  6
CONTINUOUS
 62
    30
 10
325.00000000045509
 20
-20.000000000087759
 30
0.0
 11
325.00000000045509
 21
-125.8709338220292
 31
0.0
  0
LINE
  5
E85
  8
SIZE
  6
CONTINUOUS
 62
    30
 10
335.0000000004552
 20
-95.870933822029215
 30
0.0
 11
370.0000000004552
 21
-95.870933822029215
 31
0.0
  0
LINE
  5
E86
  8
SIZE
  6
CONTINUOUS
 62
    30
 10
380.0000000004552
 20
-95.870933822029215
 30
0.0
 11
500.1428571433126
 21
-95.870933822029215
 31
0.0
  0
CIRCLE
  5
E87
  8
SIZE
  6
CONTINUOUS
 62
    30
 10
325.00000000045509
 20
-95.870933822029215
 30
0.0
 40
5.0
  0
LINE
  5
E88
  8
SIZE
  6
CONTINUOUS
 62
    30
 10
330.00000000045492
 20
-95.870933822029215
 30
0.0
 11
335.00000000045492
 21
-95.870933822029215
 31
0.0
  0
CIRCLE
  5
E89
  8
SIZE
  6
CONTINUOUS
 62
    30
 10
380.0000000004552
 20
-95.870933822029215
 30
0.0
 40
5.0
  0
LINE
  5
E8A
  8
SIZE
  6
CONTINUOUS
 62
    30
 10
375.00000000045509
 20
-95.870933822029215
 30
0.0
 11
370.0000000004552
 21
-95.870933822029215
 31
0.0
  0
TEXT
  5
E8B
  8
SIZE
  6
CONTINUOUS
 62
    30
 10
405.0000000004556
 20
-80.870933822029215
 30
0.0
 40
55.0
  1
55
 41
0.9
 72
     1
 11
445.0714285718841
 21
-80.870933822029215
 31
0.0
  0
POINT
  5
E8C
  8
DEFPOINTS
  6
CONTINUOUS
 62
     7
 10
380.0000000004552
 20
-0.0000000000877592
 30
0.0
  0
POINT
  5
E8D
  8
DEFPOINTS
  6
CONTINUOUS
 62
     7
 10
325.00000000045509
 20
-0.0000000000877592
 30
0.0
  0
POINT
  5
E8E
  8
DEFPOINTS
  6
CONTINUOUS
 62
     7
 10
325.00000000045509
 20
-95.870933822029215
 30
0.0
  0
LINE
  5
E8F
  8
SIZE
  6
CONTINUOUS
 62
    30
 10
325.00000000045509
 20
-20.000000000087759
 30
0.0
 11
325.00000000045509
 21
-125.8709338220292
 31
0.0
  0
LINE
  5
E90
  8
SIZE
  6
CONTINUOUS
 62
    30
 10
300.00000000045509
 20
-14.9984888309168
 30
0.0
 11
300.00000000045509
 21
-125.8709338220292
 31
0.0
  0
LINE
  5
E91
  8
SIZE
  6
CONTINUOUS
 62
    30
 10
335.0000000004552
 20
-95.870933822029215
 30
0.0
 11
345.0000000004552
 21
-95.870933822029215
 31
0.0
  0
LINE
  5
E92
  8
SIZE
  6
CONTINUOUS
 62
    30
 10
290.00000000045509
 20
-95.870933822029215
 30
0.0
 11
121.4954976560583
 21
-95.870933822029215
 31
0.0
  0
LINE
  5
E93
  8
SIZE
  6
CONTINUOUS
 62
    30
 10
325.00000000045509
 20
-95.870933822029215
 30
0.0
 11
300.00000000045509
 21
-95.870933822029215
 31
0.0
  0
CIRCLE
  5
E94
  8
SIZE
  6
CONTINUOUS
 62
    30
 10
325.00000000045509
 20
-95.870933822029215
 30
0.0
 40
5.0
  0
LINE
  5
E95
  8
SIZE
  6
CONTINUOUS
 62
    30
 10
330.00000000045492
 20
-95.870933822029215
 30
0.0
 11
335.00000000045492
 21
-95.870933822029215
 31
0.0
  0
CIRCLE
  5
E96
  8
SIZE
  6
CONTINUOUS
 62
    30
 10
300.00000000045509
 20
-95.870933822029215
 30
0.0
 40
5.0
  0
LINE
  5
E97
  8
SIZE
  6
CONTINUOUS
 62
    30
 10
295.0000000004548
 20
-95.870933822029215
 30
0.0
 11
290.00000000045509
 21
-95.870933822029215
 31
0.0
  0
TEXT
  5
E98
  8
SIZE
  6
CONTINUOUS
 62
    30
 10
136.49549765605821
 20
-80.870933822029215
 30
0.0
 40
55.0
  1
25
 41
0.9
 72
     1
 11
176.56692622748679
 21
-80.870933822029215
 31
0.0
  0
POINT
  5
E99
  8
DEFPOINTS
  6
CONTINUOUS
 62
     7
 10
325.00000000045509
 20
-0.0000000000877592
 30
0.0
  0
POINT
  5
E9A
  8
DEFPOINTS
  6
CONTINUOUS
 62
     7
 10
300.00000000045509
 20
5.001511169083189
 30
0.0
  0
POINT
  5
E9B
  8
DEFPOINTS
  6
CONTINUOUS
 62
     7
 10
300.00000000045509
 20
-95.870933822029215
 30
0.0
  0
LINE
  5
E9C
  8
NOTE
  6
CONTINUOUS
 62
     4
 10
263.67684187296072
 20
142.99999999992761
 30
0.0
 11
196.32315812796281
 21
142.99999999992761
 31
0.0
  0
LINE
  5
E9D
  8
NOTE
  6
CONTINUOUS
 62
     4
 10
230.00000000045611
 20
176.6768418724044
 30
0.0
 11
230.00000000045611
 21
109.3231581274207
 31
0.0
  0
LINE
  5
E9E
  8
NOTE
  6
CONTINUOUS
 62
     4
 10
268.67684187252479
 20
171.99999999994259
 30
0.0
 11
201.32315812752611
 21
171.99999999994259
 31
0.0
  0
LINE
  5
E9F
  8
NOTE
  6
CONTINUOUS
 62
     4
 10
235.00000000001879
 20
205.67684187241949
 30
0.0
 11
235.00000000001879
 21
138.3231581274357
 31
0.0
  0
LINE
  5
EA0
  8
SIZE
  6
CONTINUOUS
 62
    30
 10
400.00000000045509
 20
-0.0000000000877648
 30
0.0
 11
608.77507248415066
 21
-0.000000000087824
 31
0.0
  0
LINE
  5
EA1
  8
SIZE
  6
CONTINUOUS
 62
    30
 10
283.67684187296072
 20
142.99999999992761
 30
0.0
 11
608.77507248415066
 21
142.9999999999275
 31
0.0
  0
LINE
  5
EA2
  8
SIZE
  6
CONTINUOUS
 62
    30
 10
578.77507248415066
 20
-10.000000000087811
 30
0.0
 11
578.77507248415066
 21
-20.000000000087809
 31
0.0
  0
LINE
  5
EA3
  8
SIZE
  6
CONTINUOUS
 62
    30
 10
578.77507248415066
 20
152.9999999999275
 30
0.0
 11
578.77507248415066
 21
162.9999999999275
 31
0.0
  0
LINE
  5
EA4
  8
SIZE
  6
CONTINUOUS
 62
    30
 10
578.77507248415066
 20
-0.0000000000878155
 30
0.0
 11
578.77507248415066
 21
142.9999999999275
 31
0.0
  0
CIRCLE
  5
EA5
  8
SIZE
  6
CONTINUOUS
 62
    30
 10
578.77507248415066
 20
-0.0000000000878155
 30
0.0
 40
5.0
  0
LINE
  5
EA6
  8
SIZE
  6
CONTINUOUS
 62
    30
 10
578.77507248415066
 20
-5.0000000000878151
 30
0.0
 11
578.77507248415066
 21
-10.000000000087811
 31
0.0
  0
CIRCLE
  5
EA7
  8
SIZE
  6
CONTINUOUS
 62
    30
 10
578.77507248415066
 20
142.9999999999275
 30
0.0
 40
5.0
  0
LINE
  5
EA8
  8
SIZE
  6
CONTINUOUS
 62
    30
 10
578.77507248415066
 20
147.9999999999275
 30
0.0
 11
578.77507248415066
 21
152.9999999999275
 31
0.0
  0
TEXT
  5
EA9
  8
SIZE
  6
CONTINUOUS
 62
    30
 10
563.77507248415066
 20
12.57142857134855
 30
0.0
 40
55.0
  1
143
 50
90.0
 41
0.9
 72
     1
 11
563.77507248415066
 21
71.499999999919964
 31
0.0
  0
POINT
  5
EAA
  8
DEFPOINTS
  6
CONTINUOUS
 62
     7
 10
380.0000000004552
 20
-0.0000000000877592
 30
0.0
  0
POINT
  5
EAB
  8
DEFPOINTS
  6
CONTINUOUS
 62
     7
 10
263.67684187296072
 20
142.99999999992761
 30
0.0
  0
POINT
  5
EAC
  8
DEFPOINTS
  6
CONTINUOUS
 62
     7
 10
578.77507248415066
 20
142.9999999999275
 30
0.0
  0
LINE
  5
EAD
  8
SIZE
  6
CONTINUOUS
 62
    30
 10
400.00000000045509
 20
-0.0000000000877648
 30
0.0
 11
727.58875976428089
 21
-0.0000000000878576
 31
0.0
  0
LINE
  5
EAE
  8
SIZE
  6
CONTINUOUS
 62
    30
 10
288.67835304214799
 20
171.99999999992761
 30
0.0
 11
727.58875976428089
 21
171.9999999999275
 31
0.0
  0
LINE
  5
EAF
  8
SIZE
  6
CONTINUOUS
 62
    30
 10
697.58875976428089
 20
9.999999999912152
 30
0.0
 11
697.58875976428089
 21
161.9999999999275
 31
0.0
  0
CIRCLE
  5
EB0
  8
SIZE
  6
CONTINUOUS
 62
    30
 10
697.58875976428089
 20
-0.0000000000878491
 30
0.0
 40
5.0
  0
LINE
  5
EB1
  8
SIZE
  6
CONTINUOUS
 62
    30
 10
697.58875976428089
 20
4.9999999999121512
 30
0.0
 11
697.58875976428089
 21
9.9999999999121503
 31
0.0
  0
CIRCLE
  5
EB2
  8
SIZE
  6
CONTINUOUS
 62
    30
 10
697.58875976428089
 20
171.9999999999275
 30
0.0
 40
5.0
  0
LINE
  5
EB3
  8
SIZE
  6
CONTINUOUS
 62
    30
 10
697.58875976428089
 20
166.9999999999275
 30
0.0
 11
697.58875976428089
 21
161.9999999999275
 31
0.0
  0
TEXT
  5
EB4
  8
SIZE
  6
CONTINUOUS
 62
    30
 10
682.58875976428067
 20
27.07142857134853
 30
0.0
 40
55.0
  1
172
 50
90.0
 41
0.9
 72
     1
 11
682.58875976428067
 21
85.999999999919964
 31
0.0
  0
POINT
  5
EB5
  8
DEFPOINTS
  6
CONTINUOUS
 62
     7
 10
380.0000000004552
 20
-0.0000000000877592
 30
0.0
  0
POINT
  5
EB6
  8
DEFPOINTS
  6
CONTINUOUS
 62
     7
 10
268.67835304214799
 20
171.99999999992761
 30
0.0
  0
POINT
  5
EB7
  8
DEFPOINTS
  6
CONTINUOUS
 62
     7
 10
697.58875976428089
 20
171.9999999999275
 30
0.0
  0
LINE
  5
EB8
  8
SIZE
  6
CONTINUOUS
 62
    30
 10
380.0000000004552
 20
-20.000000000087759
 30
0.0
 11
380.0000000004552
 21
-236.24485420156131
 31
0.0
  0
LINE
  5
EB9
  8
SIZE
  6
CONTINUOUS
 62
    30
 10
235.00000000001879
 20
118.3231581274357
 30
0.0
 11
235.00000000001879
 21
-236.2448542015461
 31
0.0
  0
LINE
  5
EBA
  8
SIZE
  6
CONTINUOUS
 62
    30
 10
370.0000000004552
 20
-206.24485420156131
 30
0.0
 11
245.00000000001879
 21
-206.2448542015463
 31
0.0
  0
CIRCLE
  5
EBB
  8
SIZE
  6
CONTINUOUS
 62
    30
 10
380.0000000004552
 20
-206.24485420156131
 30
0.0
 40
5.0
  0
LINE
  5
EBC
  8
SIZE
  6
CONTINUOUS
 62
    30
 10
375.00000000045509
 20
-206.24485420156131
 30
0.0
 11
370.0000000004552
 21
-206.24485420156131
 31
0.0
  0
CIRCLE
  5
EBD
  8
SIZE
  6
CONTINUOUS
 62
    30
 10
235.00000000001879
 20
-206.2448542015463
 30
0.0
 40
5.0
  0
LINE
  5
EBE
  8
SIZE
  6
CONTINUOUS
 62
    30
 10
240.0000000000189
 20
-206.2448542015463
 30
0.0
 11
245.00000000001879
 21
-206.2448542015463
 31
0.0
  0
TEXT
  5
EBF
  8
SIZE
  6
CONTINUOUS
 62
    30
 10
240.7085379737606
 20
-191.24485420156131
 30
0.0
 40
55.0
  1
145
 41
0.9
 72
     1
 11
299.63710940233199
 21
-191.24485420156131
 31
0.0
  0
POINT
  5
EC0
  8
DEFPOINTS
  6
CONTINUOUS
 62
     7
 10
380.0000000004552
 20
-0.0000000000877592
 30
0.0
  0
POINT
  5
EC1
  8
DEFPOINTS
  6
CONTINUOUS
 62
     7
 10
235.00151116964199
 20
138.3231581274207
 30
0.0
  0
POINT
  5
EC2
  8
DEFPOINTS
  6
CONTINUOUS
 62
     7
 10
235.00000000001879
 20
-206.2448542015463
 30
0.0
  0
LINE
  5
EC3
  8
SIZE
  6
CONTINUOUS
 62
    30
 10
380.0000000004552
 20
-20.000000000087759
 30
0.0
 11
380.0000000004552
 21
-332.60736884590227
 31
0.0
  0
LINE
  5
EC4
  8
SIZE
  6
CONTINUOUS
 62
    30
 10
230.00000000045611
 20
89.323158127420783
 30
0.0
 11
230.00000000045611
 21
-332.60736884590227
 31
0.0
  0
LINE
  5
EC5
  8
SIZE
  6
CONTINUOUS
 62
    30
 10
370.0000000004552
 20
-302.60736884590227
 30
0.0
 11
240.000000000456
 21
-302.60736884590227
 31
0.0
  0
CIRCLE
  5
EC6
  8
SIZE
  6
CONTINUOUS
 62
    30
 10
380.0000000004552
 20
-302.60736884590227
 30
0.0
 40
5.0
  0
LINE
  5
EC7
  8
SIZE
  6
CONTINUOUS
 62
    30
 10
375.00000000045509
 20
-302.60736884590227
 30
0.0
 11
370.0000000004552
 21
-302.60736884590227
 31
0.0
  0
CIRCLE
  5
EC8
  8
SIZE
  6
CONTINUOUS
 62
    30
 10
230.00000000045611
 20
-302.60736884590227
 30
0.0
 40
5.0
  0
LINE
  5
EC9
  8
SIZE
  6
CONTINUOUS
 62
    30
 10
235.00000000045611
 20
-302.60736884590227
 30
0.0
 11
240.00000000045611
 21
-302.60736884590227
 31
0.0
  0
TEXT
  5
ECA
  8
SIZE
  6
CONTINUOUS
 62
    30
 10
238.98681827028341
 20
-287.60736884590227
 30
0.0
 40
55.0
  1
150
 41
0.9
 72
     1
 11
297.91538969885488
 21
-287.60736884590227
 31
0.0
  0
POINT
  5
ECB
  8
DEFPOINTS
  6
CONTINUOUS
 62
     7
 10
380.0000000004552
 20
-0.0000000000877592
 30
0.0
  0
POINT
  5
ECC
  8
DEFPOINTS
  6
CONTINUOUS
 62
     7
 10
230.00000000045611
 20
109.3231581274207
 30
0.0
  0
POINT
  5
ECD
  8
DEFPOINTS
  6
CONTINUOUS
 62
     7
 10
230.00000000045611
 20
-302.60736884590227
 30
0.0
  0
LINE
  5
ECE
  8
NOTE
  6
CONTINUOUS
 62
     4
 10
316.8854804473562
 20
1409.9999672647759
 30
0.0
 11
283.11451955355358
 21
1409.9999672647759
 31
0.0
  0
LINE
  5
ECF
  8
NOTE
  6
CONTINUOUS
 62
     4
 10
300.00000000045509
 20
1426.885447711677
 30
0.0
 11
300.00000000045509
 21
1393.114486817874
 31
0.0
  0
LINE
  5
ED0
  8
NOTE
  6
CONTINUOUS
 62
     4
 10
166.8854804473562
 20
1409.9999672647759
 30
0.0
 11
133.11451955355361
 21
1409.9999672647759
 31
0.0
  0
LINE
  5
ED1
  8
NOTE
  6
CONTINUOUS
 62
     4
 10
150.0000000004552
 20
1426.885447711677
 30
0.0
 11
150.0000000004552
 21
1393.114486817874
 31
0.0
  0
LINE
  5
ED2
  8
NOTE
  6
CONTINUOUS
 62
     4
 10
16.8854804473558
 20
1409.9999672647759
 30
0.0
 11
-16.885480446446302
 21
1409.9999672647759
 31
0.0
  0
LINE
  5
ED3
  8
NOTE
  6
CONTINUOUS
 62
     4
 10
0.0000000004552021
 20
1426.885447711677
 30
0.0
 11
0.0000000004552021
 21
1393.114486817874
 31
0.0
  0
LINE
  5
ED4
  8
NOTE
  6
CONTINUOUS
 62
     4
 10
-133.11451955264411
 20
1409.9999672647759
 30
0.0
 11
-166.88548044644631
 21
1409.9999672647759
 31
0.0
  0
LINE
  5
ED5
  8
NOTE
  6
CONTINUOUS
 62
     4
 10
-149.9999999995448
 20
1426.885447711677
 30
0.0
 11
-149.9999999995448
 21
1393.114486817874
 31
0.0
  0
LINE
  5
ED6
  8
NOTE
  6
CONTINUOUS
 62
     4
 10
-283.11451955264278
 20
1409.9999672647759
 30
0.0
 11
-316.88548044644631
 21
1409.9999672647759
 31
0.0
  0
LINE
  5
ED7
  8
NOTE
  6
CONTINUOUS
 62
     4
 10
-299.9999999995448
 20
1426.885447711677
 30
0.0
 11
-299.9999999995448
 21
1393.114486817874
 31
0.0
  0
LINE
  5
ED8
  8
NOTE
  6
CONTINUOUS
 62
     4
 10
362.0000000004552
 20
15.004533507365061
 30
0.0
 11
362.0000000004552
 21
-15.004533507721581
 31
0.0
  0
CIRCLE
  5
ED9
  8
FIX
  6
CONTINUOUS
 62
    11
 10
362.0000000004552
 20
-0.0000000000877592
 30
0.0
 40
12.151512751047431
  0
LINE
  5
EDA
  8
NOTE
  6
CONTINUOUS
 62
     4
 10
346.99546649291239
 20
-0.0000000000877592
 30
0.0
 11
377.00453350799899
 21
-0.0000000000877592
 31
0.0
  0
LINE
  5
EDB
  8
NOTE
  6
CONTINUOUS
 62
     4
 10
-361.99999999954491
 20
15.004533507365061
 30
0.0
 11
-361.99999999954491
 21
-15.004533507721581
 31
0.0
  0
CIRCLE
  5
EDC
  8
FIX
  6
CONTINUOUS
 62
    11
 10
-361.99999999954491
 20
-0.0000000000877592
 30
0.0
 40
12.151512751047431
  0
LINE
  5
EDD
  8
NOTE
  6
CONTINUOUS
 62
     4
 10
-377.00453350708813
 20
-0.0000000000877592
 30
0.0
 11
-346.99546649200198
 21
-0.0000000000877592
 31
0.0
  0
TEXT
  5
EDE
  8
SIZE
  6
CONTINUOUS
 62
    30
 10
-206.2571982473286
 20
-520.79925875364313
 30
0.0
 40
55.0
  1
（据付ピッチ）
 50
359.99999749547902
 41
0.9
  7
STANDARD1
  0
LINE
  5
EDF
  8
SIZE
  6
CONTINUOUS
 62
    30
 10
-379.99999999954468
 20
-20.000000000087759
 30
0.0
 11
-379.99999999954491
 21
-477.60589433453339
 31
0.0
  0
LINE
  5
EE0
  8
SIZE
  6
CONTINUOUS
 62
    30
 10
-361.99999999954491
 20
-35.00453350772159
 30
0.0
 11
-361.99999999954491
 21
-477.60589433453339
 31
0.0
  0
LINE
  5
EE1
  8
SIZE
  6
CONTINUOUS
 62
    30
 10
-351.9999999995448
 20
-447.60589433453367
 30
0.0
 11
-341.9999999995448
 21
-447.60589433453367
 31
0.0
  0
LINE
  5
EE2
  8
SIZE
  6
CONTINUOUS
 62
    30
 10
-389.99999999954468
 20
-447.60589433453367
 30
0.0
 11
-500.71428571383029
 21
-447.60589433453367
 31
0.0
  0
LINE
  5
EE3
  8
SIZE
  6
CONTINUOUS
 62
    30
 10
-361.99999999954491
 20
-447.60589433453367
 30
0.0
 11
-379.99999999954468
 21
-447.60589433453367
 31
0.0
  0
CIRCLE
  5
EE4
  8
SIZE
  6
CONTINUOUS
 62
    30
 10
-361.99999999954491
 20
-447.60589433453367
 30
0.0
 40
5.0
  0
LINE
  5
EE5
  8
SIZE
  6
CONTINUOUS
 62
    30
 10
-356.99999999954491
 20
-447.60589433453367
 30
0.0
 11
-351.9999999995448
 21
-447.60589433453367
 31
0.0
  0
CIRCLE
  5
EE6
  8
SIZE
  6
CONTINUOUS
 62
    30
 10
-379.99999999954468
 20
-447.60589433453367
 30
0.0
 40
5.0
  0
LINE
  5
EE7
  8
SIZE
  6
CONTINUOUS
 62
    30
 10
-384.99999999954468
 20
-447.60589433453367
 30
0.0
 11
-389.99999999954468
 21
-447.60589433453367
 31
0.0
  0
TEXT
  5
EE8
  8
SIZE
  6
CONTINUOUS
 62
    30
 10
-485.71428571383041
 20
-432.60589433453362
 30
0.0
 40
55.0
  1
18
 41
0.9
 72
     1
 11
-450.35714285668757
 21
-432.60589433453362
 31
0.0
  0
POINT
  5
EE9
  8
DEFPOINTS
  6
CONTINUOUS
 62
     7
 10
-379.99999999954468
 20
-0.0000000000877592
 30
0.0
  0
POINT
  5
EEA
  8
DEFPOINTS
  6
CONTINUOUS
 62
     7
 10
-361.99999999954491
 20
-15.004533507721581
 30
0.0
  0
POINT
  5
EEB
  8
DEFPOINTS
  6
CONTINUOUS
 62
     7
 10
-361.99999999954491
 20
-447.60589433453367
 30
0.0
  0
LINE
  5
EEC
  8
SIZE
  6
CONTINUOUS
 62
    30
 10
-361.99999999954491
 20
-35.00453350772159
 30
0.0
 11
-361.99999999954491
 21
-477.60589433453339
 31
0.0
  0
LINE
  5
EED
  8
SIZE
  6
CONTINUOUS
 62
    30
 10
362.0000000004552
 20
-35.00453350772159
 30
0.0
 11
362.0000000004552
 21
-477.60589433453339
 31
0.0
  0
LINE
  5
EEE
  8
SIZE
  6
CONTINUOUS
 62
    30
 10
-351.9999999995448
 20
-447.60589433453367
 30
0.0
 11
352.00000000045509
 21
-447.60589433453367
 31
0.0
  0
CIRCLE
  5
EEF
  8
SIZE
  6
CONTINUOUS
 62
    30
 10
-361.99999999954491
 20
-447.60589433453367
 30
0.0
 40
5.0
  0
LINE
  5
EF0
  8
SIZE
  6
CONTINUOUS
 62
    30
 10
-356.99999999954491
 20
-447.60589433453367
 30
0.0
 11
-351.9999999995448
 21
-447.60589433453367
 31
0.0
  0
CIRCLE
  5
EF1
  8
SIZE
  6
CONTINUOUS
 62
    30
 10
362.0000000004552
 20
-447.60589433453367
 30
0.0
 40
5.0
  0
LINE
  5
EF2
  8
SIZE
  6
CONTINUOUS
 62
    30
 10
357.00000000045509
 20
-447.60589433453367
 30
0.0
 11
352.00000000045509
 21
-447.60589433453367
 31
0.0
  0
TEXT
  5
EF3
  8
SIZE
  6
CONTINUOUS
 62
    30
 10
-350.97857142811603
 20
-418.20113242977158
 30
0.0
 40
55.0
  1
724(721～727で対応)
 41
0.9
 72
     1
 11
0.0000000004552021
 21
-418.20113242977158
 31
0.0
  0
POINT
  5
EF4
  8
DEFPOINTS
  6
CONTINUOUS
 62
     7
 10
-361.99999999954491
 20
-15.004533507721581
 30
0.0
  0
POINT
  5
EF5
  8
DEFPOINTS
  6
CONTINUOUS
 62
     7
 10
362.0000000004552
 20
-15.004533507721581
 30
0.0
  0
POINT
  5
EF6
  8
DEFPOINTS
  6
CONTINUOUS
 62
     7
 10
362.0000000004552
 20
-447.60589433453367
 30
0.0
  0
LINE
  5
EF7
  8
SIZE
  6
CONTINUOUS
 62
    30
 10
362.0000000004552
 20
-35.00453350772159
 30
0.0
 11
362.0000000004552
 21
-477.60589433453339
 31
0.0
  0
LINE
  5
EF8
  8
SIZE
  6
CONTINUOUS
 62
    30
 10
380.0000000004552
 20
-20.000000000087759
 30
0.0
 11
380.00000000045509
 21
-477.60589433453339
 31
0.0
  0
LINE
  5
EF9
  8
SIZE
  6
CONTINUOUS
 62
    30
 10
352.00000000045509
 20
-447.60589433453367
 30
0.0
 11
342.00000000045492
 21
-447.60589433453367
 31
0.0
  0
LINE
  5
EFA
  8
SIZE
  6
CONTINUOUS
 62
    30
 10
390.00000000045509
 20
-447.60589433453367
 30
0.0
 11
500.71428571474092
 21
-447.60589433453367
 31
0.0
  0
LINE
  5
EFB
  8
SIZE
  6
CONTINUOUS
 62
    30
 10
362.0000000004552
 20
-447.60589433453367
 30
0.0
 11
380.0000000004552
 21
-447.60589433453367
 31
0.0
  0
CIRCLE
  5
EFC
  8
SIZE
  6
CONTINUOUS
 62
    30
 10
362.0000000004552
 20
-447.60589433453367
 30
0.0
 40
5.0
  0
LINE
  5
EFD
  8
SIZE
  6
CONTINUOUS
 62
    30
 10
357.00000000045509
 20
-447.60589433453367
 30
0.0
 11
352.00000000045509
 21
-447.60589433453367
 31
0.0
  0
CIRCLE
  5
EFE
  8
SIZE
  6
CONTINUOUS
 62
    30
 10
380.0000000004552
 20
-447.60589433453367
 30
0.0
 40
5.0
  0
LINE
  5
EFF
  8
SIZE
  6
CONTINUOUS
 62
    30
 10
385.0000000004552
 20
-447.60589433453367
 30
0.0
 11
390.00000000045509
 21
-447.60589433453367
 31
0.0
  0
TEXT
  5
F00
  8
SIZE
  6
CONTINUOUS
 62
    30
 10
415.0000000004552
 20
-432.60589433453362
 30
0.0
 40
55.0
  1
18
 41
0.9
 72
     1
 11
450.35714285759798
 21
-432.60589433453362
 31
0.0
  0
POINT
  5
F01
  8
DEFPOINTS
  6
CONTINUOUS
 62
     7
 10
362.0000000004552
 20
-15.004533507721581
 30
0.0
  0
POINT
  5
F02
  8
DEFPOINTS
  6
CONTINUOUS
 62
     7
 10
380.0000000004552
 20
-0.0000000000877592
 30
0.0
  0
POINT
  5
F03
  8
DEFPOINTS
  6
CONTINUOUS
 62
     7
 10
380.0000000004552
 20
-447.60589433453367
 30
0.0
  0
LINE
  5
F04
  8
SIZE
  6
CONTINUOUS
 62
    30
 10
380.0000000004552
 20
1429.9999672647759
 30
0.0
 11
380.0000000004552
 21
1853.318478128793
 31
0.0
  0
LINE
  5
F05
  8
SIZE
  6
CONTINUOUS
 62
    30
 10
300.00000000045509
 20
1446.8854477116761
 30
0.0
 11
300.00000000045509
 21
1853.318478128793
 31
0.0
  0
LINE
  5
F06
  8
SIZE
  6
CONTINUOUS
 62
    30
 10
310.0000000004552
 20
1823.3184781287921
 30
0.0
 11
370.0000000004552
 21
1823.3184781287921
 31
0.0
  0
LINE
  5
F07
  8
SIZE
  6
CONTINUOUS
 62
    30
 10
380.0000000004552
 20
1823.3184781287921
 30
0.0
 11
500.14285714331282
 21
1823.3184781287921
 31
0.0
  0
CIRCLE
  5
F08
  8
SIZE
  6
CONTINUOUS
 62
    30
 10
300.00000000045509
 20
1823.3184781287921
 30
0.0
 40
5.0
  0
LINE
  5
F09
  8
SIZE
  6
CONTINUOUS
 62
    30
 10
305.00000000045492
 20
1823.3184781287921
 30
0.0
 11
310.00000000045492
 21
1823.3184781287921
 31
0.0
  0
CIRCLE
  5
F0A
  8
SIZE
  6
CONTINUOUS
 62
    30
 10
380.0000000004552
 20
1823.3184781287921
 30
0.0
 40
5.0
  0
LINE
  5
F0B
  8
SIZE
  6
CONTINUOUS
 62
    30
 10
375.00000000045509
 20
1823.3184781287921
 30
0.0
 11
370.0000000004552
 21
1823.3184781287921
 31
0.0
  0
TEXT
  5
F0C
  8
SIZE
  6
CONTINUOUS
 62
    30
 10
405.0000000004556
 20
1838.3184781287921
 30
0.0
 40
55.0
  1
80
 41
0.9
 72
     1
 11
445.0714285718841
 21
1838.3184781287921
 31
0.0
  0
POINT
  5
F0D
  8
DEFPOINTS
  6
CONTINUOUS
 62
     7
 10
380.0000000004552
 20
1409.9999672647759
 30
0.0
  0
POINT
  5
F0E
  8
DEFPOINTS
  6
CONTINUOUS
 62
     7
 10
300.00000000045509
 20
1426.885447711677
 30
0.0
  0
POINT
  5
F0F
  8
DEFPOINTS
  6
CONTINUOUS
 62
     7
 10
300.00000000045509
 20
1823.3184781287921
 30
0.0
  0
LINE
  5
F10
  8
SIZE
  6
CONTINUOUS
 62
    30
 10
300.00000000045509
 20
1446.8854477116761
 30
0.0
 11
300.00000000045509
 21
1853.318478128793
 31
0.0
  0
LINE
  5
F11
  8
SIZE
  6
CONTINUOUS
 62
    30
 10
150.0000000004552
 20
1446.8854477116761
 30
0.0
 11
150.0000000004552
 21
1853.318478128793
 31
0.0
  0
LINE
  5
F12
  8
SIZE
  6
CONTINUOUS
 62
    30
 10
290.00000000045509
 20
1823.3184781287921
 30
0.0
 11
160.0000000004552
 21
1823.3184781287921
 31
0.0
  0
CIRCLE
  5
F13
  8
SIZE
  6
CONTINUOUS
 62
    30
 10
300.00000000045509
 20
1823.3184781287921
 30
0.0
 40
5.0
  0
LINE
  5
F14
  8
SIZE
  6
CONTINUOUS
 62
    30
 10
295.0000000004548
 20
1823.3184781287921
 30
0.0
 11
290.00000000045509
 21
1823.3184781287921
 31
0.0
  0
CIRCLE
  5
F15
  8
SIZE
  6
CONTINUOUS
 62
    30
 10
150.0000000004552
 20
1823.3184781287921
 30
0.0
 40
5.0
  0
LINE
  5
F16
  8
SIZE
  6
CONTINUOUS
 62
    30
 10
155.0000000004552
 20
1823.3184781287921
 30
0.0
 11
160.0000000004552
 21
1823.3184781287921
 31
0.0
  0
TEXT
  5
F17
  8
SIZE
  6
CONTINUOUS
 62
    30
 10
166.0714285718837
 20
1838.3184781287921
 30
0.0
 40
55.0
  1
150
 41
0.9
 72
     1
 11
225.00000000045509
 21
1838.3184781287921
 31
0.0
  0
POINT
  5
F18
  8
DEFPOINTS
  6
CONTINUOUS
 62
     7
 10
300.00000000045509
 20
1426.885447711677
 30
0.0
  0
POINT
  5
F19
  8
DEFPOINTS
  6
CONTINUOUS
 62
     7
 10
150.0000000004552
 20
1426.885447711677
 30
0.0
  0
POINT
  5
F1A
  8
DEFPOINTS
  6
CONTINUOUS
 62
     7
 10
150.0000000004552
 20
1823.3184781287921
 30
0.0
  0
LINE
  5
F1B
  8
SIZE
  6
CONTINUOUS
 62
    30
 10
150.0000000004552
 20
1446.8854477116761
 30
0.0
 11
150.0000000004552
 21
1853.318478128793
 31
0.0
  0
LINE
  5
F1C
  8
SIZE
  6
CONTINUOUS
 62
    30
 10
0.0000000004552033
 20
1446.8854477116761
 30
0.0
 11
0.0000000004552282
 21
1853.318478128793
 31
0.0
  0
LINE
  5
F1D
  8
SIZE
  6
CONTINUOUS
 62
    30
 10
140.0000000004552
 20
1823.3184781287921
 30
0.0
 11
10.00000000045522
 21
1823.3184781287921
 31
0.0
  0
CIRCLE
  5
F1E
  8
SIZE
  6
CONTINUOUS
 62
    30
 10
150.0000000004552
 20
1823.3184781287921
 30
0.0
 40
5.0
  0
LINE
  5
F1F
  8
SIZE
  6
CONTINUOUS
 62
    30
 10
145.0000000004552
 20
1823.3184781287921
 30
0.0
 11
140.0000000004552
 21
1823.3184781287921
 31
0.0
  0
CIRCLE
  5
F20
  8
SIZE
  6
CONTINUOUS
 62
    30
 10
0.0000000004552264
 20
1823.3184781287921
 30
0.0
 40
5.0
  0
LINE
  5
F21
  8
SIZE
  6
CONTINUOUS
 62
    30
 10
5.0000000004552252
 20
1823.3184781287921
 30
0.0
 11
10.00000000045522
 21
1823.3184781287921
 31
0.0
  0
TEXT
  5
F22
  8
SIZE
  6
CONTINUOUS
 62
    30
 10
16.071428571883811
 20
1838.3184781287921
 30
0.0
 40
55.0
  1
150
 41
0.9
 72
     1
 11
75.000000000455231
 21
1838.3184781287921
 31
0.0
  0
POINT
  5
F23
  8
DEFPOINTS
  6
CONTINUOUS
 62
     7
 10
150.0000000004552
 20
1426.885447711677
 30
0.0
  0
POINT
  5
F24
  8
DEFPOINTS
  6
CONTINUOUS
 62
     7
 10
0.0000000004552021
 20
1426.885447711677
 30
0.0
  0
POINT
  5
F25
  8
DEFPOINTS
  6
CONTINUOUS
 62
     7
 10
0.0000000004552264
 20
1823.3184781287921
 30
0.0
  0
LINE
  5
F26
  8
SIZE
  6
CONTINUOUS
 62
    30
 10
0.0000000004552033
 20
1446.8854477116761
 30
0.0
 11
0.0000000004552282
 21
1853.318478128793
 31
0.0
  0
LINE
  5
F27
  8
SIZE
  6
CONTINUOUS
 62
    30
 10
-149.9999999995448
 20
1446.8854477116761
 30
0.0
 11
-149.99999999954471
 21
1853.318478128793
 31
0.0
  0
LINE
  5
F28
  8
SIZE
  6
CONTINUOUS
 62
    30
 10
-9.999999999544773
 20
1823.3184781287921
 30
0.0
 11
-139.99999999954471
 21
1823.3184781287921
 31
0.0
  0
CIRCLE
  5
F29
  8
SIZE
  6
CONTINUOUS
 62
    30
 10
0.0000000004552264
 20
1823.3184781287921
 30
0.0
 40
5.0
  0
LINE
  5
F2A
  8
SIZE
  6
CONTINUOUS
 62
    30
 10
-4.999999999544773
 20
1823.3184781287921
 30
0.0
 11
-9.999999999544773
 21
1823.3184781287921
 31
0.0
  0
CIRCLE
  5
F2B
  8
SIZE
  6
CONTINUOUS
 62
    30
 10
-149.99999999954471
 20
1823.3184781287921
 30
0.0
 40
5.0
  0
LINE
  5
F2C
  8
SIZE
  6
CONTINUOUS
 62
    30
 10
-144.99999999954471
 20
1823.3184781287921
 30
0.0
 11
-139.99999999954471
 21
1823.3184781287921
 31
0.0
  0
TEXT
  5
F2D
  8
SIZE
  6
CONTINUOUS
 62
    30
 10
-133.92857142811619
 20
1838.3184781287921
 30
0.0
 40
55.0
  1
150
 41
0.9
 72
     1
 11
-74.999999999544755
 21
1838.3184781287921
 31
0.0
  0
POINT
  5
F2E
  8
DEFPOINTS
  6
CONTINUOUS
 62
     7
 10
0.0000000004552021
 20
1426.885447711677
 30
0.0
  0
POINT
  5
F2F
  8
DEFPOINTS
  6
CONTINUOUS
 62
     7
 10
-149.9999999995448
 20
1426.885447711677
 30
0.0
  0
POINT
  5
F30
  8
DEFPOINTS
  6
CONTINUOUS
 62
     7
 10
-149.99999999954471
 20
1823.3184781287921
 30
0.0
  0
LINE
  5
F31
  8
SIZE
  6
CONTINUOUS
 62
    30
 10
-149.9999999995448
 20
1446.8854477116761
 30
0.0
 11
-149.99999999954471
 21
1853.318478128793
 31
0.0
  0
LINE
  5
F32
  8
SIZE
  6
CONTINUOUS
 62
    30
 10
-299.9999999995448
 20
1446.8854477116761
 30
0.0
 11
-299.9999999995448
 21
1853.318478128793
 31
0.0
  0
LINE
  5
F33
  8
SIZE
  6
CONTINUOUS
 62
    30
 10
-159.99999999954471
 20
1823.3184781287921
 30
0.0
 11
-289.99999999954468
 21
1823.3184781287921
 31
0.0
  0
CIRCLE
  5
F34
  8
SIZE
  6
CONTINUOUS
 62
    30
 10
-149.99999999954471
 20
1823.3184781287921
 30
0.0
 40
5.0
  0
LINE
  5
F35
  8
SIZE
  6
CONTINUOUS
 62
    30
 10
-154.99999999954471
 20
1823.3184781287921
 30
0.0
 11
-159.99999999954471
 21
1823.3184781287921
 31
0.0
  0
CIRCLE
  5
F36
  8
SIZE
  6
CONTINUOUS
 62
    30
 10
-299.9999999995448
 20
1823.3184781287921
 30
0.0
 40
5.0
  0
LINE
  5
F37
  8
SIZE
  6
CONTINUOUS
 62
    30
 10
-294.99999999954491
 20
1823.3184781287921
 30
0.0
 11
-289.9999999995448
 21
1823.3184781287921
 31
0.0
  0
TEXT
  5
F38
  8
SIZE
  6
CONTINUOUS
 62
    30
 10
-283.92857142811619
 20
1838.3184781287921
 30
0.0
 40
55.0
  1
150
 41
0.9
 72
     1
 11
-224.9999999995448
 21
1838.3184781287921
 31
0.0
  0
POINT
  5
F39
  8
DEFPOINTS
  6
CONTINUOUS
 62
     7
 10
-149.9999999995448
 20
1426.885447711677
 30
0.0
  0
POINT
  5
F3A
  8
DEFPOINTS
  6
CONTINUOUS
 62
     7
 10
-299.9999999995448
 20
1426.885447711677
 30
0.0
  0
POINT
  5
F3B
  8
DEFPOINTS
  6
CONTINUOUS
 62
     7
 10
-299.9999999995448
 20
1823.3184781287921
 30
0.0
  0
TEXT
  5
F3C
  8
NOTE
  6
CONTINUOUS
 62
     4
 10
425.9754572628658
 20
222.7607586509078
 30
0.0
 40
55.0
  1
RL %%C12.7
 50
0.0000025044687019
 41
0.630952371610266
  7
STANDARD1
  0
LINE
  5
F3D
  8
NOTE
  6
CONTINUOUS
 62
     4
 10
416.4358703216563
 20
210.19724898855239
 30
0.0
 11
676.22285218283628
 21
210.19724898855239
 31
0.0
  0
TEXT
  5
F3E
  8
NOTE
  6
CONTINUOUS
 62
     4
 10
422.69744730679213
 20
327.44903685073621
 30
0.0
 40
55.0
  1
RG %%C28.58
 50
0.0000025044687019
 41
0.630952371610266
  7
STANDARD1
  0
LINE
  5
F3F
  8
NOTE
  6
CONTINUOUS
 62
     4
 10
414.64706195955802
 20
311.50653287114483
 30
0.0
 11
724.36772561959856
 21
311.50653287114483
 31
0.0
  0
LINE
  5
F40
  8
NOTE
  6
CONTINUOUS
 62
     4
 10
416.4358703216563
 20
210.19724898855239
 30
0.0
 11
230.00000000045611
 21
142.999999999913
 31
0.0
  0
LINE
  5
F41
  8
NOTE
  6
CONTINUOUS
 62
     4
 10
414.64706195955802
 20
311.50653287114483
 30
0.0
 11
235.0
 21
171.999999999913
 31
0.0
  0
TEXT
  5
F42
  8
NOTE
  6
CONTINUOUS
 62
     4
 10
-940.51044745310912
 20
-206.73703458711171
 30
0.0
 40
55.0
  1
AH 2X3-14X20長穴
 50
0.0000025044687019
 41
0.630952371610266
  7
STANDARD1
  0
LINE
  5
F43
  8
NOTE
  6
CONTINUOUS
 62
     4
 10
-949.12069182280163
 20
-220.13514509148749
 30
0.0
 11
-452.99368191050138
 21
-220.13514509148749
 31
0.0
  0
LINE
  5
F44
  8
NOTE
  6
CONTINUOUS
 62
     4
 10
-452.99368191050138
 20
-220.13514509148749
 30
0.0
 11
-361.99999999954491
 21
-0.0000000000877592
 31
0.0
  0
TEXT
  5
F45
  8
NOTE
  6
CONTINUOUS
 62
     4
 10
427.9201925975558
 20
1446.5469296373881
 30
0.0
 40
55.0
  1
＜防雪ﾌ-ﾄﾞ（別売品）取付用穴＞
 50
359.99999749547902
 41
0.638664588406537
  7
STANDARD1
  0
TEXT
  5
F46
  8
NOTE
  6
CONTINUOUS
 62
     4
 10
443.83576000663419
 20
1524.5107176243439
 30
0.0
 40
55.0
  1
(樹脂部の開口加工必要）
 50
359.99999749547902
 41
0.693661939237321
  7
STANDARD1
  0
TEXT
  5
F47
  8
NOTE
  6
CONTINUOUS
 62
     4
 10
437.05820837245858
 20
1595.450087527794
 30
0.0
 40
55.0
  1
2X9-%%c4.6
 50
359.99999749547902
 41
0.603058486986669
  7
STANDARD1
  0
LINE
  5
F48
  8
NOTE
  6
CONTINUOUS
 62
     4
 10
1051.169485770381
 20
1514.0063005523109
 30
0.0
 11
423.21218636416489
 21
1514.0063005523109
 31
0.0
  0
LINE
  5
F49
  8
NOTE
  6
CONTINUOUS
 62
     4
 10
423.21218636416489
 20
1514.0063005523109
 30
0.0
 11
300.00000000045509
 21
1409.9999672647759
 31
0.0
  0
LINE
  5
F4A
  8
NOTE
  6
CONTINUOUS
 62
     4
 10
230.00356891180621
 20
143.0069898829264
 30
0.0
 11
263.17222219993982
 21
146.31630873497161
 31
0.0
  0
LINE
  5
F4B
  8
NOTE
  6
CONTINUOUS
 62
     4
 10
230.00356891180621
 20
143.0069898829264
 30
0.0
 11
257.0738055592268
 21
162.45727111649859
 31
0.0
  0
LINE
  5
F4C
  8
NOTE
  6
CONTINUOUS
 62
     4
 10
235.00000000001879
 20
171.99999999992801
 30
0.0
 11
265.66039427481962
 21
185.0786610600916
 31
0.0
  0
LINE
  5
F4D
  8
NOTE
  6
CONTINUOUS
 62
     4
 10
235.00000000001879
 20
171.99999999992801
 30
0.0
 11
255.01334941356691
 21
198.6566501545075
 31
0.0
  0
LINE
  5
F4E
  8
NOTE
  6
CONTINUOUS
 62
     4
 10
-361.99999999942878
 20
-0.0000000000068141
 30
0.0
 11
-382.450248296393
 21
-26.322965197824931
 31
0.0
  0
LINE
  5
F4F
  8
NOTE
  6
CONTINUOUS
 62
     4
 10
-361.99999999942878
 20
-0.0000000000068141
 30
0.0
 11
-366.54895145826362
 21
-33.021480779002999
 31
0.0
  0
LINE
  5
F50
  8
NOTE
  6
CONTINUOUS
 62
     4
 10
300.00000000045611
 20
1409.9999672647759
 30
0.0
 11
330.20221271290529
 21
1424.1044877984491
 31
0.0
  0
LINE
  5
F51
  8
NOTE
  6
CONTINUOUS
 62
     4
 10
300.00000000045611
 20
1409.9999672647759
 30
0.0
 11
319.1036227950998
 21
1437.315946989698
 31
0.0
  0
LINE
  5
F52
  8
BASIS
  6
DASHDOT
 62
     6
 10
0.0
 20
1674.135475407169
 30
0.0
 11
0.0
 21
-54.054784504457061
 31
0.0
  0
LINE
  5
F53
  8
ARRANGE
  6
CONTINUOUS
 62
     1
 10
-37.897321081808052
 20
-37.897321081805323
 30
0.0
 11
37.897321081807142
 21
37.897321081809878
 31
0.0
  0
LINE
  5
F54
  8
ARRANGE
  6
CONTINUOUS
 62
     1
 10
-37.897321081808052
 20
37.897321081809878
 30
0.0
 11
37.897321081807142
 21
-37.897321081808961
 31
0.0
  0
CIRCLE
  5
F55
  8
ARRANGE
  6
CONTINUOUS
 62
     1
 10
0.0
 20
0.0000000000022808
 30
0.0
 40
34.449674114384848
  0
LINE
  5
F57
  8
OUTLINE
  6
CONTINUOUS
 62
     3
 10
-375.61348880519921
 20
58.517680679358371
 30
0.0
 11
-375.61348880519921
 21
1369.913909239167
 31
0.0
  0
LINE
  5
F58
  8
OUTLINE
  6
CONTINUOUS
 62
     3
 10
-375.61348880519921
 20
1369.913909239167
 30
0.0
 11
-379.99999999954468
 21
1369.913909239167
 31
0.0
  0
LINE
  5
F59
  8
OUTLINE
  6
CONTINUOUS
 62
     3
 10
-379.99999999954468
 20
1369.913909239167
 30
0.0
 11
-379.99999999954468
 21
1409.9999672647759
 31
0.0
  0
LINE
  5
F5A
  8
OUTLINE
  6
CONTINUOUS
 62
     3
 10
-379.99999999954468
 20
1409.9999672647759
 30
0.0
 11
380.0000000004552
 21
1409.9999672647759
 31
0.0
  0
LINE
  5
F5B
  8
OUTLINE
  6
CONTINUOUS
 62
     3
 10
380.0000000004552
 20
1409.9999672647759
 30
0.0
 11
380.0000000004552
 21
1369.913909239167
 31
0.0
  0
LINE
  5
F5C
  8
OUTLINE
  6
CONTINUOUS
 62
     3
 10
380.0000000004552
 20
1369.913909239167
 30
0.0
 11
375.61348880611081
 21
1369.913909239167
 31
0.0
  0
LINE
  5
F5D
  8
OUTLINE
  6
CONTINUOUS
 62
     3
 10
375.61348880611081
 20
1369.913909239167
 30
0.0
 11
375.61348880611081
 21
58.51768067935928
 31
0.0
  0
LINE
  5
F5E
  8
OUTLINE
  6
CONTINUOUS
 62
     3
 10
375.41342835933301
 20
58.517680679358371
 30
0.0
 11
375.41342835933301
 21
53.216078840036538
 31
0.0
  0
LINE
  5
F5F
  8
OUTLINE
  6
CONTINUOUS
 62
     3
 10
375.41342835933301
 20
53.216078840036538
 30
0.0
 11
368.41131272247497
 21
53.216078840035607
 31
0.0
  0
LINE
  5
F60
  8
OUTLINE
  6
CONTINUOUS
 62
     3
 10
368.41131272247497
 20
53.216078840035607
 30
0.0
 11
368.41131272247497
 21
54.016320627085861
 31
0.0
  0
LINE
  5
F61
  8
OUTLINE
  6
CONTINUOUS
 62
     3
 10
368.41131272247497
 20
54.016320627085861
 30
0.0
 11
373.78893753158889
 21
54.016320627085861
 31
0.0
  0
LINE
  5
F62
  8
OUTLINE
  6
CONTINUOUS
 62
     3
 10
373.78893753158889
 20
54.016320627085861
 30
0.0
 11
373.78893753158889
 21
58.517680679358371
 31
0.0
  0
LINE
  5
F63
  8
OUTLINE
  6
CONTINUOUS
 62
     3
 10
287.58133705052978
 20
45.99757996556442
 30
0.0
 11
-282.57982588042972
 21
45.99757996556442
 31
0.0
  0
ARC
  5
F64
  8
OUTLINE
  6
CONTINUOUS
 62
     3
 10
-366.61223240006723
 20
64.008915847465602
 30
0.0
 40
7.9966529994098838
 50
223.36879469551869
 51
266.27641879468672
  0
LINE
  5
F65
  8
OUTLINE
  6
CONTINUOUS
 62
     3
 10
-294.13032115997208
 20
53.999997836279832
 30
0.0
 11
-328.59928377771979
 21
54.000000483986248
 31
0.0
  0
LINE
  5
F66
  8
OUTLINE
  6
CONTINUOUS
 62
     3
 10
-367.1315591524048
 20
56.029143988708263
 30
0.0
 11
-328.59928377771621
 21
54.000000483986248
 31
0.0
  0
LINE
  5
F67
  8
OUTLINE
  6
CONTINUOUS
 62
     3
 10
-286.91126161034288
 20
48.498335550149477
 30
0.0
 11
-288.06631113820822
 21
50.498940017836048
 31
0.0
  0
ARC
  5
F68
  8
OUTLINE
  6
CONTINUOUS
 62
     3
 10
-294.13032115997208
 20
46.997882199423202
 30
0.0
 40
7.002115636856467
 50
29.999999999997289
 51
90.0
  0
ARC
  5
F69
  8
OUTLINE
  6
CONTINUOUS
 62
     3
 10
-282.57982588042972
 20
50.999091134766338
 30
0.0
 40
5.001511169183205
 50
209.9999999999971
 51
270.0
  0
LINE
  5
F6A
  8
OUTLINE
  6
CONTINUOUS
 62
     3
 10
297.97678077228511
 20
53.999999999910422
 30
0.0
 11
328.59928381579812
 21
53.999999999910422
 31
0.0
  0
LINE
  5
F6B
  8
OUTLINE
  6
CONTINUOUS
 62
     3
 10
291.91277278042878
 20
48.498335550149477
 30
0.0
 11
293.6453470722949
 21
51.499242251664789
 31
0.0
  0
ARC
  5
F6C
  8
OUTLINE
  6
CONTINUOUS
 62
     3
 10
287.5813366088982
 20
50.999091899700481
 30
0.0
 40
5.0015098942980281
 50
270.0
 51
329.99999494100291
  0
ARC
  5
F6D
  8
OUTLINE
  6
CONTINUOUS
 62
     3
 10
297.97678077228511
 20
48.998490183035287
 30
0.0
 40
5.0015098168747132
 50
90.0
 51
150.00002325394459
  0
ARC
  5
F6E
  8
OUTLINE
  6
CONTINUOUS
 62
     3
 10
366.6107687015683
 20
64.014597581570797
 30
0.0
 40
8.0024178706930051
 50
273.73139699920551
 51
316.61423244695118
  0
LINE
  5
F6F
  8
OUTLINE
  6
CONTINUOUS
 62
     3
 10
367.1315591533201
 20
56.029143988708263
 30
0.0
 11
328.59928381578118
 21
53.999999999909491
 31
0.0
  0
LINE
  5
F70
  8
OUTLINE
  6
CONTINUOUS
 62
     3
 10
-324.99999999954429
 20
54.000000207509871
 30
0.0
 11
-324.99999999954429
 21
-0.0000000000877592
 31
0.0
  0
LINE
  5
F71
  8
OUTLINE
  6
CONTINUOUS
 62
     3
 10
-324.99999999954429
 20
46.814144543480779
 30
0.0
 11
-328.00090670105959
 21
46.814144543479863
 31
0.0
  0
LINE
  5
F72
  8
OUTLINE
  6
CONTINUOUS
 62
     3
 10
-328.00090670105959
 20
46.814144543479863
 30
0.0
 11
-328.00090670105959
 21
7.2021760835473341
 31
0.0
  0
LINE
  5
F73
  8
OUTLINE
  6
CONTINUOUS
 62
     3
 10
-324.99999999954429
 20
2.3006951377506151
 30
0.0
 11
-379.99999999954468
 21
2.3006951377506151
 31
0.0
  0
LINE
  5
F74
  8
OUTLINE
  6
CONTINUOUS
 62
     3
 10
-379.99999999954468
 20
2.3006951377506151
 30
0.0
 11
-379.99999999954468
 21
-0.0000000000877592
 31
0.0
  0
LINE
  5
F75
  8
OUTLINE
  6
CONTINUOUS
 62
     3
 10
-379.99999999954468
 20
-0.0000000000877592
 30
0.0
 11
-305.00151116872968
 21
-0.0000000000877592
 31
0.0
  0
ARC
  5
F76
  8
OUTLINE
  6
CONTINUOUS
 62
     3
 10
-305.00151116872968
 20
5.0015111690959273
 30
0.0
 40
5.0015111691832921
 50
270.0
 51
0.0
  0
LINE
  5
F77
  8
OUTLINE
  6
CONTINUOUS
 62
     3
 10
-299.9999999995448
 20
5.001511169083189
 30
0.0
 11
-299.9999999995448
 21
53.999998287154547
 31
0.0
  0
LINE
  5
F78
  8
OUTLINE
  6
CONTINUOUS
 62
     3
 10
325.00000000045509
 20
53.999999999912241
 30
0.0
 11
325.00000000045509
 21
-0.0000000000877592
 31
0.0
  0
LINE
  5
F79
  8
OUTLINE
  6
CONTINUOUS
 62
     3
 10
325.00000000045509
 20
46.814144543480779
 30
0.0
 11
328.00090670197142
 21
46.814144543480779
 31
0.0
  0
LINE
  5
F7A
  8
OUTLINE
  6
CONTINUOUS
 62
     3
 10
328.00090670197142
 20
46.814144543480779
 30
0.0
 11
328.00090670197142
 21
7.2021760835473341
 31
0.0
  0
LINE
  5
F7B
  8
OUTLINE
  6
CONTINUOUS
 62
     3
 10
325.00000000045509
 20
2.3006951377506151
 30
0.0
 11
380.0000000004552
 21
2.3006951377506151
 31
0.0
  0
LINE
  5
F7C
  8
OUTLINE
  6
CONTINUOUS
 62
     3
 10
380.0000000004552
 20
2.3006951377506151
 30
0.0
 11
380.0000000004552
 21
-0.0000000000877592
 31
0.0
  0
LINE
  5
F7D
  8
OUTLINE
  6
CONTINUOUS
 62
     3
 10
380.0000000004552
 20
-0.0000000000877592
 30
0.0
 11
305.00151116964111
 21
-0.0000000001004921
 31
0.0
  0
ARC
  5
F7E
  8
OUTLINE
  6
CONTINUOUS
 62
     3
 10
305.00151116964111
 20
5.001511169083189
 30
0.0
 40
5.0015111691832921
 50
180.0
 51
270.0
  0
LINE
  5
F7F
  8
OUTLINE
  6
CONTINUOUS
 62
     3
 10
300.00000000045787
 20
5.001511169083189
 30
0.0
 11
300.00000000045787
 21
53.999999999912241
 31
0.0
  0
LINE
  5
F80
  8
OUTLINE
  6
CONTINUOUS
 62
     3
 10
-320.09671482737389
 20
1641.609399999121
 30
0.0
 11
-300.09067015062868
 21
1641.609399999121
 31
0.0
  0
LINE
  5
F81
  8
OUTLINE
  6
CONTINUOUS
 62
     3
 10
-300.09067015062868
 20
1642.3096115628271
 30
0.0
 11
-280.08462547389991
 21
1642.3096115628271
 31
0.0
  0
LINE
  5
F82
  8
OUTLINE
  6
CONTINUOUS
 62
     3
 10
-280.08462547389991
 20
1643.009823126504
 30
0.0
 11
-260.0785807971701
 21
1643.009823126504
 31
0.0
  0
LINE
  5
F83
  8
OUTLINE
  6
CONTINUOUS
 62
     3
 10
-260.0785807971701
 20
1643.7100346901809
 30
0.0
 11
-240.07253612044079
 21
1643.7100346901809
 31
0.0
  0
LINE
  5
F84
  8
OUTLINE
  6
CONTINUOUS
 62
     3
 10
-240.07253612044079
 20
1644.4102462538569
 30
0.0
 11
-220.0664914437115
 21
1644.4102462538569
 31
0.0
  0
LINE
  5
F85
  8
OUTLINE
  6
CONTINUOUS
 62
     3
 10
-220.0664914437115
 20
1645.110457817563
 30
0.0
 11
-200.06044676696681
 21
1645.110457817563
 31
0.0
  0
LINE
  5
F86
  8
OUTLINE
  6
CONTINUOUS
 62
     3
 10
-200.06044676696681
 20
1645.810669381241
 30
0.0
 11
-180.05440209023789
 21
1645.810669381241
 31
0.0
  0
LINE
  5
F87
  8
OUTLINE
  6
CONTINUOUS
 62
     3
 10
-180.05440209023789
 20
1646.510880944918
 30
0.0
 11
-160.04835741350769
 21
1646.510880944918
 31
0.0
  0
LINE
  5
F88
  8
OUTLINE
  6
CONTINUOUS
 62
     3
 10
-366.93105967748482
 20
1416.6236587626611
 30
0.0
 11
-361.10910641456979
 21
1549.9817153796989
 31
0.0
  0
LINE
  5
F89
  8
OUTLINE
  6
CONTINUOUS
 62
     3
 10
-367.66762464388358
 20
1413.7887792138119
 30
0.0
 11
-368.05236695300113
 21
1413.11713725661
 31
0.0
  0
LINE
  5
F8A
  8
OUTLINE
  6
CONTINUOUS
 62
     3
 10
-368.05236695300113
 20
1413.11713725661
 30
0.0
 11
-368.5088903035047
 21
1412.492064466948
 31
0.0
  0
LINE
  5
F8B
  8
OUTLINE
  6
CONTINUOUS
 62
     3
 10
-368.5088903035047
 20
1412.492064466948
 30
0.0
 11
-369.03161609809598
 21
1411.921199071634
 31
0.0
  0
LINE
  5
F8C
  8
OUTLINE
  6
CONTINUOUS
 62
     3
 10
-369.03161609809598
 20
1411.921199071634
 30
0.0
 11
-369.61415676340482
 21
1411.4115168956639
 31
0.0
  0
LINE
  5
F8D
  8
OUTLINE
  6
CONTINUOUS
 62
     3
 10
-369.61415676340482
 20
1411.4115168956639
 30
0.0
 11
-370.24939381282678
 21
1410.9692461145801
 31
0.0
  0
LINE
  5
F8E
  8
OUTLINE
  6
CONTINUOUS
 62
     3
 10
-370.24939381282678
 20
1410.9692461145801
 30
0.0
 11
-370.92956482851832
 21
1410.5997911569009
 31
0.0
  0
LINE
  5
F8F
  8
OUTLINE
  6
CONTINUOUS
 62
     3
 10
-370.92956482851832
 20
1410.5997911569009
 30
0.0
 11
-371.6463582832929
 21
1410.307666676089
 31
0.0
  0
LINE
  5
F90
  8
OUTLINE
  6
CONTINUOUS
 62
     3
 10
-371.6463582832929
 20
1410.307666676089
 30
0.0
 11
-372.39101510027291
 21
1410.0964423660459
 31
0.0
  0
LINE
  5
F91
  8
OUTLINE
  6
CONTINUOUS
 62
     3
 10
-372.39101510027291
 20
1410.0964423660459
 30
0.0
 11
-372.96757158174057
 21
1409.9999672647759
 31
0.0
  0
LINE
  5
F92
  8
OUTLINE
  6
CONTINUOUS
 62
     3
 10
-366.9311019934762
 20
1416.6226888397809
 30
0.0
 11
-366.98637945284639
 21
1415.9988093705881
 31
0.0
  0
LINE
  5
F93
  8
OUTLINE
  6
CONTINUOUS
 62
     3
 10
-366.98637945284639
 20
1415.9988093705881
 30
0.0
 11
-367.13135435323511
 21
1415.238472706541
 31
0.0
  0
LINE
  5
F94
  8
OUTLINE
  6
CONTINUOUS
 62
     3
 10
-367.13135435323511
 20
1415.238472706541
 30
0.0
 11
-367.35936482618621
 21
1414.498783050238
 31
0.0
  0
LINE
  5
F95
  8
OUTLINE
  6
CONTINUOUS
 62
     3
 10
-367.35936482618621
 20
1414.498783050238
 30
0.0
 11
-367.66762464388358
 21
1413.7887792138119
 31
0.0
  0
ARC
  5
F96
  8
OUTLINE
  6
CONTINUOUS
 62
     3
 10
-186.19631386772909
 20
1542.9795997428409
 30
0.0
 40
175.0528909214085
 50
147.9740682966528
 51
177.70755722837441
  0
LINE
  5
F97
  8
OUTLINE
  6
CONTINUOUS
 62
     3
 10
-320.09671482737389
 20
1641.609399999121
 30
0.0
 11
-320.09671482737389
 21
1640.509067671954
 31
0.0
  0
LINE
  5
F98
  8
OUTLINE
  6
CONTINUOUS
 62
     3
 10
-300.09067015062868
 20
1642.3096115628271
 30
0.0
 11
-300.09067015062868
 21
1641.609399999121
 31
0.0
  0
LINE
  5
F99
  8
OUTLINE
  6
CONTINUOUS
 62
     3
 10
-320.09671482737389
 20
1640.509067671954
 30
0.0
 11
-326.12694111402601
 21
1640.509067671954
 31
0.0
  0
ARC
  5
F9A
  8
OUTLINE
  6
CONTINUOUS
 62
     3
 10
-326.12694111402601
 20
1630.506045333583
 30
0.0
 40
10.00302233836611
 50
90.0
 51
147.9740682966528
  0
LINE
  5
F9B
  8
OUTLINE
  6
CONTINUOUS
 62
     3
 10
-280.08462547389991
 20
1643.009823126504
 30
0.0
 11
-280.08462547389991
 21
1642.3096115628271
 31
0.0
  0
LINE
  5
F9C
  8
OUTLINE
  6
CONTINUOUS
 62
     3
 10
-260.0785807971701
 20
1643.7100346901809
 30
0.0
 11
-260.0785807971701
 21
1643.009823126504
 31
0.0
  0
LINE
  5
F9D
  8
OUTLINE
  6
CONTINUOUS
 62
     3
 10
-240.07253612044079
 20
1644.4102462538569
 30
0.0
 11
-240.07253612044079
 21
1643.7100346901809
 31
0.0
  0
LINE
  5
F9E
  8
OUTLINE
  6
CONTINUOUS
 62
     3
 10
-220.0664914437115
 20
1645.110457817563
 30
0.0
 11
-220.0664914437115
 21
1644.4102462538569
 31
0.0
  0
LINE
  5
F9F
  8
OUTLINE
  6
CONTINUOUS
 62
     3
 10
-200.06044676696681
 20
1645.810669381241
 30
0.0
 11
-200.06044676696681
 21
1645.110457817563
 31
0.0
  0
LINE
  5
FA0
  8
OUTLINE
  6
CONTINUOUS
 62
     3
 10
-180.05440209023789
 20
1646.510880944918
 30
0.0
 11
-180.05440209023789
 21
1645.810669381241
 31
0.0
  0
LINE
  5
FA1
  8
OUTLINE
  6
CONTINUOUS
 62
     3
 10
-160.04835741350769
 20
1647.211092508624
 30
0.0
 11
-140.04231273677891
 21
1647.211092508624
 31
0.0
  0
LINE
  5
FA2
  8
OUTLINE
  6
CONTINUOUS
 62
     3
 10
-140.04231273677891
 20
1647.9113040723009
 30
0.0
 11
-120.0362680600492
 21
1647.9113040723009
 31
0.0
  0
LINE
  5
FA3
  8
OUTLINE
  6
CONTINUOUS
 62
     3
 10
-120.0362680600492
 20
1648.6115156359781
 30
0.0
 11
-100.0302233833053
 21
1648.6115156359781
 31
0.0
  0
LINE
  5
FA4
  8
OUTLINE
  6
CONTINUOUS
 62
     3
 10
-100.0302233833053
 20
1649.311727199655
 30
0.0
 11
-80.024178706574702
 21
1649.311727199655
 31
0.0
  0
LINE
  5
FA5
  8
OUTLINE
  6
CONTINUOUS
 62
     3
 10
80.024178707275013
 20
1649.999967264778
 30
0.0
 11
-80.024178706574702
 21
1649.999967264778
 31
0.0
  0
LINE
  5
FA6
  8
OUTLINE
  6
CONTINUOUS
 62
     3
 10
-160.04835741350769
 20
1647.211092508624
 30
0.0
 11
-160.04835741350769
 21
1646.510880944918
 31
0.0
  0
LINE
  5
FA7
  8
OUTLINE
  6
CONTINUOUS
 62
     3
 10
-140.04231273677891
 20
1647.9113040723009
 30
0.0
 11
-140.04231273677891
 21
1647.211092508624
 31
0.0
  0
LINE
  5
FA8
  8
OUTLINE
  6
CONTINUOUS
 62
     3
 10
-120.0362680600492
 20
1648.6115156359781
 30
0.0
 11
-120.0362680600492
 21
1647.9113040723009
 31
0.0
  0
LINE
  5
FA9
  8
OUTLINE
  6
CONTINUOUS
 62
     3
 10
-100.0302233833053
 20
1649.311727199655
 30
0.0
 11
-100.0302233833053
 21
1648.6115156359781
 31
0.0
  0
LINE
  5
FAA
  8
OUTLINE
  6
CONTINUOUS
 62
     3
 10
-80.024178706574702
 20
1649.311727199655
 30
0.0
 11
-80.024178706574702
 21
1649.999967264778
 31
0.0
  0
LINE
  5
FAB
  8
OUTLINE
  6
CONTINUOUS
 62
     3
 10
80.024178707275013
 20
1649.311727199655
 30
0.0
 11
80.024178707275013
 21
1649.999967264778
 31
0.0
  0
LINE
  5
FAC
  8
OUTLINE
  6
CONTINUOUS
 62
     3
 10
100.0302233840202
 20
1649.311727199655
 30
0.0
 11
100.0302233840202
 21
1648.6115156359781
 31
0.0
  0
LINE
  5
FAD
  8
OUTLINE
  6
CONTINUOUS
 62
     3
 10
366.88929144944171
 20
1417.5803084860891
 30
0.0
 11
361.10910641546621
 21
1549.9817153796989
 31
0.0
  0
LINE
  5
FAE
  8
OUTLINE
  6
CONTINUOUS
 62
     3
 10
373.858818519664
 20
1409.9999672647759
 30
0.0
 11
373.24728553288492
 21
1410.0951915637261
 31
0.0
  0
LINE
  5
FAF
  8
OUTLINE
  6
CONTINUOUS
 62
     3
 10
373.24728553288492
 20
1410.0951915637261
 30
0.0
 11
372.45018507864
 21
1410.3051249092171
 31
0.0
  0
LINE
  5
FB0
  8
OUTLINE
  6
CONTINUOUS
 62
     3
 10
372.45018507864
 20
1410.3051249092171
 30
0.0
 11
371.6789084005718
 21
1410.5959402686899
 31
0.0
  0
LINE
  5
FB1
  8
OUTLINE
  6
CONTINUOUS
 62
     3
 10
371.6789084005718
 20
1410.5959402686899
 30
0.0
 11
370.94163869244812
 21
1410.9645521287041
 31
0.0
  0
LINE
  5
FB2
  8
OUTLINE
  6
CONTINUOUS
 62
     3
 10
370.94163869244812
 20
1410.9645521287041
 30
0.0
 11
370.24619831332802
 21
1411.4070495541951
 31
0.0
  0
LINE
  5
FB3
  8
OUTLINE
  6
CONTINUOUS
 62
     3
 10
370.24619831332802
 20
1411.4070495541951
 30
0.0
 11
369.599965770908
 21
1411.9187377141379
 31
0.0
  0
LINE
  5
FB4
  8
OUTLINE
  6
CONTINUOUS
 62
     3
 10
369.599965770908
 20
1411.9187377141379
 30
0.0
 11
369.00979748136928
 21
1412.494187683164
 31
0.0
  0
LINE
  5
FB5
  8
OUTLINE
  6
CONTINUOUS
 62
     3
 10
369.00979748136928
 20
1412.494187683164
 30
0.0
 11
368.48195503852583
 21
1413.127294028209
 31
0.0
  0
LINE
  5
FB6
  8
OUTLINE
  6
CONTINUOUS
 62
     3
 10
368.48195503852583
 20
1413.127294028209
 30
0.0
 11
368.022038774468
 21
1413.811339584832
 31
0.0
  0
LINE
  5
FB7
  8
OUTLINE
  6
CONTINUOUS
 62
     3
 10
368.022038774468
 20
1413.811339584832
 30
0.0
 11
367.63492833283669
 21
1414.53906673097
 31
0.0
  0
LINE
  5
FB8
  8
OUTLINE
  6
CONTINUOUS
 62
     3
 10
367.63492833283669
 20
1414.53906673097
 30
0.0
 11
367.32473089660289
 21
1415.3027543916851
 31
0.0
  0
LINE
  5
FB9
  8
OUTLINE
  6
CONTINUOUS
 62
     3
 10
367.32473089660289
 20
1415.3027543916851
 30
0.0
 11
367.09473761316212
 21
1416.0942999574399
 31
0.0
  0
LINE
  5
FBA
  8
OUTLINE
  6
CONTINUOUS
 62
     3
 10
367.09473761316212
 20
1416.0942999574399
 30
0.0
 11
366.9473886762807
 21
1416.9053052504289
 31
0.0
  0
LINE
  5
FBB
  8
OUTLINE
  6
CONTINUOUS
 62
     3
 10
366.9473886762807
 20
1416.9053052504289
 30
0.0
 11
366.88933289616301
 21
1417.5793584764581
 31
0.0
  0
LINE
  5
FBC
  8
OUTLINE
  6
CONTINUOUS
 62
     3
 10
120.0362680607486
 20
1648.6115156359781
 30
0.0
 11
120.0362680607486
 21
1647.9113040723009
 31
0.0
  0
LINE
  5
FBD
  8
OUTLINE
  6
CONTINUOUS
 62
     3
 10
140.04231273747831
 20
1647.9113040723009
 30
0.0
 11
140.04231273747831
 21
1647.211092508624
 31
0.0
  0
LINE
  5
FBE
  8
OUTLINE
  6
CONTINUOUS
 62
     3
 10
160.04835741420669
 20
1647.211092508624
 30
0.0
 11
160.04835741420669
 21
1646.510880944918
 31
0.0
  0
LINE
  5
FBF
  8
OUTLINE
  6
CONTINUOUS
 62
     3
 10
180.0544020909378
 20
1646.510880944918
 30
0.0
 11
180.0544020909378
 21
1645.810669381241
 31
0.0
  0
LINE
  5
FC0
  8
OUTLINE
  6
CONTINUOUS
 62
     3
 10
200.06044676768209
 20
1645.810669381241
 30
0.0
 11
200.06044676768209
 21
1645.110457817563
 31
0.0
  0
LINE
  5
FC1
  8
OUTLINE
  6
CONTINUOUS
 62
     3
 10
220.0664914444109
 20
1645.110457817563
 30
0.0
 11
220.0664914444109
 21
1644.4102462538569
 31
0.0
  0
LINE
  5
FC2
  8
OUTLINE
  6
CONTINUOUS
 62
     3
 10
240.07253612113979
 20
1644.4102462538569
 30
0.0
 11
240.07253612113979
 21
1643.7100346901809
 31
0.0
  0
ARC
  5
FC3
  8
OUTLINE
  6
CONTINUOUS
 62
     3
 10
186.19631386853399
 20
1542.9795997428409
 30
0.0
 40
175.0528909214089
 50
2.2924427798647802
 51
32.025931703347148
  0
LINE
  5
FC4
  8
OUTLINE
  6
CONTINUOUS
 62
     3
 10
260.07858079786911
 20
1643.7100346901809
 30
0.0
 11
260.07858079786911
 21
1643.009823126504
 31
0.0
  0
LINE
  5
FC5
  8
OUTLINE
  6
CONTINUOUS
 62
     3
 10
280.08462547459931
 20
1643.009823126504
 30
0.0
 11
280.08462547459931
 21
1642.3096115628271
 31
0.0
  0
LINE
  5
FC6
  8
OUTLINE
  6
CONTINUOUS
 62
     3
 10
300.090670151344
 20
1642.3096115628271
 30
0.0
 11
300.090670151344
 21
1641.609399999121
 31
0.0
  0
LINE
  5
FC7
  8
OUTLINE
  6
CONTINUOUS
 62
     3
 10
320.0967148280742
 20
1641.609399999121
 30
0.0
 11
320.0967148280742
 21
1640.509067671954
 31
0.0
  0
LINE
  5
FC8
  8
OUTLINE
  6
CONTINUOUS
 62
     3
 10
320.0967148280742
 20
1640.509067671954
 30
0.0
 11
326.1269411147249
 21
1640.509067671954
 31
0.0
  0
ARC
  5
FC9
  8
OUTLINE
  6
CONTINUOUS
 62
     3
 10
326.1269411147249
 20
1630.506045333583
 30
0.0
 40
10.00302233836606
 50
32.025931703347148
 51
90.0
  0
LINE
  5
FCA
  8
OUTLINE
  6
CONTINUOUS
 62
     3
 10
300.090670151344
 20
1641.609399999121
 30
0.0
 11
320.0967148280742
 21
1641.609399999121
 31
0.0
  0
LINE
  5
FCB
  8
OUTLINE
  6
CONTINUOUS
 62
     3
 10
280.08462547459931
 20
1642.3096115628271
 30
0.0
 11
300.090670151344
 21
1642.3096115628271
 31
0.0
  0
LINE
  5
FCC
  8
OUTLINE
  6
CONTINUOUS
 62
     3
 10
260.07858079786911
 20
1643.009823126504
 30
0.0
 11
280.08462547459931
 21
1643.009823126504
 31
0.0
  0
LINE
  5
FCD
  8
OUTLINE
  6
CONTINUOUS
 62
     3
 10
240.07253612113979
 20
1643.7100346901809
 30
0.0
 11
260.07858079786911
 21
1643.7100346901809
 31
0.0
  0
LINE
  5
FCE
  8
OUTLINE
  6
CONTINUOUS
 62
     3
 10
220.0664914444109
 20
1644.4102462538569
 30
0.0
 11
240.07253612113979
 21
1644.4102462538569
 31
0.0
  0
LINE
  5
FCF
  8
OUTLINE
  6
CONTINUOUS
 62
     3
 10
200.06044676768209
 20
1645.110457817563
 30
0.0
 11
220.0664914444109
 21
1645.110457817563
 31
0.0
  0
LINE
  5
FD0
  8
OUTLINE
  6
CONTINUOUS
 62
     3
 10
180.0544020909378
 20
1645.810669381241
 30
0.0
 11
200.06044676768209
 21
1645.810669381241
 31
0.0
  0
LINE
  5
FD1
  8
OUTLINE
  6
CONTINUOUS
 62
     3
 10
160.04835741420669
 20
1646.510880944918
 30
0.0
 11
180.0544020909378
 21
1646.510880944918
 31
0.0
  0
LINE
  5
FD2
  8
OUTLINE
  6
CONTINUOUS
 62
     3
 10
140.04231273747831
 20
1647.211092508624
 30
0.0
 11
160.04835741420669
 21
1647.211092508624
 31
0.0
  0
LINE
  5
FD3
  8
OUTLINE
  6
CONTINUOUS
 62
     3
 10
120.0362680607486
 20
1647.9113040723009
 30
0.0
 11
140.04231273747831
 21
1647.9113040723009
 31
0.0
  0
LINE
  5
FD4
  8
OUTLINE
  6
CONTINUOUS
 62
     3
 10
100.0302233840202
 20
1648.6115156359781
 30
0.0
 11
120.0362680607486
 21
1648.6115156359781
 31
0.0
  0
LINE
  5
FD5
  8
OUTLINE
  6
CONTINUOUS
 62
     3
 10
80.024178707275013
 20
1649.311727199655
 30
0.0
 11
100.0302233840202
 21
1649.311727199655
 31
0.0
  0
TEXT
  5
FD6
  8
ETC
  6
CONTINUOUS
 62
    61
 10
17.199383320807101
 20
2083.3575547803998
 30
0.0
 40
65.0
  1
PUTV-P450VCM-E1_5
 50
0.0000025044165917
 41
0.8
  7
STANDARD1
  0
LINE
  5
FD7
  8
OUTLINE
  6
CONTINUOUS
 62
     3
 10
-328.00090670105959
 20
7.2021760835473341
 30
0.0
 11
-324.99999999954429
 21
7.2021760835473341
 31
0.0
  0
LINE
  5
FD9
  8
OUTLINE
  6
CONTINUOUS
 62
     3
 10
328.00090670197142
 20
7.2021760835473341
 30
0.0
 11
325.00000000045509
 21
7.2021760835473341
 31
0.0
  0
LINE
  5
1021
  8
OUTLINE
  6
CONTINUOUS
 62
     3
 10
-372.42538950455952
 20
58.517680679357738
 30
0.0
 11
-375.6134882335981
 21
58.517677845795362
 31
0.0
  0
LINE
  5
1027
  8
OUTLINE
  6
CONTINUOUS
 62
     3
 10
375.61348880611081
 20
58.51768067935928
 30
0.0
 11
372.42648846333083
 21
58.517680679357973
 31
0.0
  0
ENDSEC
  0
EOF
