  0
SECTION
  2
HEADER
  9
$ACADVER
  1
AC1009
  9
$INSBASE
 10
0.0
 20
0.0
 30
0.0
  9
$EXTMIN
 10
-987.63072487412126
 20
-750.04767765114946
 30
-0.0015258207003583
  9
$EXTMAX
 10
1750.2574275036461
 20
2197.7662029497551
 30
0.0000000349246037
  9
$LIMMIN
 10
-4267.1522210604826
 20
-2696.083210198412
  9
$LIMMAX
 10
7190.7174225864646
 20
5141.155363923066
  9
$ORTHOMODE
 70
     1
  9
$REGENMODE
 70
     1
  9
$FILLMODE
 70
     1
  9
$QTEXTMODE
 70
     0
  9
$MIRRTEXT
 70
     0
  9
$DRAGMODE
 70
     2
  9
$LTSCALE
 40
20.0
  9
$OSMODE
 70
  3071
  9
$ATTMODE
 70
     1
  9
$TEXTSIZE
 40
64.0
  9
$TRACEWID
 40
0.05
  9
$TEXTSTYLE
  7
NOTE
  9
$CLAYER
  8
SYMBOLLINE
  9
$CELTYPE
  6
CONTINUOUS
  9
$CECOLOR
 62
     7
  9
$DIMSCALE
 40
1.0
  9
$DIMASZ
 40
30.0
  9
$DIMEXO
 40
20.0
  9
$DIMDLI
 40
80.0
  9
$DIMRND
 40
0.0
  9
$DIMDLE
 40
0.0
  9
$DIMEXE
 40
20.0
  9
$DIMTP
 40
0.0
  9
$DIMTM
 40
0.0
  9
$DIMTXT
 40
60.0
  9
$DIMCEN
 40
0.09
  9
$DIMTSZ
 40
0.0
  9
$DIMTOL
 70
     0
  9
$DIMLIM
 70
     0
  9
$DIMTIH
 70
     0
  9
$DIMTOH
 70
     0
  9
$DIMSE1
 70
     0
  9
$DIMSE2
 70
     0
  9
$DIMTAD
 70
     1
  9
$DIMZIN
 70
     8
  9
$DIMBLK
  1
SMALL
  9
$DIMASO
 70
     1
  9
$DIMSHO
 70
     0
  9
$DIMPOST
  1

  9
$DIMAPOST
  1

  9
$DIMALT
 70
     0
  9
$DIMALTD
 70
     2
  9
$DIMALTF
 40
25.399999999999999
  9
$DIMLFAC
 40
1.0
  9
$DIMTOFL
 70
     1
  9
$DIMTVP
 40
0.0
  9
$DIMTIX
 70
     0
  9
$DIMSOXD
 70
     0
  9
$DIMSAH
 70
     0
  9
$DIMBLK1
  1

  9
$DIMBLK2
  1

  9
$DIMSTYLE
  2
STANDARD
  9
$DIMCLRD
 70
     0
  9
$DIMCLRE
 70
     0
  9
$DIMCLRT
 70
     0
  9
$DIMTFAC
 40
1.0
  9
$DIMGAP
 40
0.09
  9
$LUNITS
 70
     2
  9
$LUPREC
 70
     4
  9
$SKETCHINC
 40
0.1
  9
$FILLETRAD
 40
2.0
  9
$AUNITS
 70
     1
  9
$AUPREC
 70
     3
  9
$MENU
  1
ACAD
  9
$ELEVATION
 40
0.0
  9
$PELEVATION
 40
0.0
  9
$THICKNESS
 40
0.0
  9
$LIMCHECK
 70
     0
  9
$BLIPMODE
 70
     0
  9
$CHAMFERA
 40
0.0
  9
$CHAMFERB
 40
0.0
  9
$SKPOLY
 70
     0
  9
$TDCREATE
 40
2450330.4399309959
  9
$TDUPDATE
 40
2456300.5556597812
  9
$TDINDWG
 40
3.9483268403
  9
$TDUSRTIMER
 40
3.9483255670999999
  9
$USRTIMER
 70
     1
  9
$ANGBASE
 50
0.0
  9
$ANGDIR
 70
     0
  9
$PDMODE
 70
     3
  9
$PDSIZE
 40
-2.0
  9
$PLINEWID
 40
0.0
  9
$COORDS
 70
     1
  9
$SPLFRAME
 70
     0
  9
$SPLINETYPE
 70
     6
  9
$SPLINESEGS
 70
     8
  9
$ATTDIA
 70
     0
  9
$ATTREQ
 70
     1
  9
$HANDLING
 70
     1
  9
$HANDSEED
  5
84C
  9
$SURFTAB1
 70
     6
  9
$SURFTAB2
 70
     6
  9
$SURFTYPE
 70
     6
  9
$SURFU
 70
     6
  9
$SURFV
 70
     6
  9
$UCSNAME
  2

  9
$UCSORG
 10
0.0
 20
0.0
 30
0.0
  9
$UCSXDIR
 10
1.0
 20
0.0
 30
0.0
  9
$UCSYDIR
 10
0.0
 20
1.0
 30
0.0
  9
$PUCSNAME
  2

  9
$PUCSORG
 10
0.0
 20
0.0
 30
0.0
  9
$PUCSXDIR
 10
1.0
 20
0.0
 30
0.0
  9
$PUCSYDIR
 10
0.0
 20
1.0
 30
0.0
  9
$USERI1
 70
     0
  9
$USERI2
 70
     0
  9
$USERI3
 70
     0
  9
$USERI4
 70
     0
  9
$USERI5
 70
     0
  9
$USERR1
 40
20.0
  9
$USERR2
 40
0.0
  9
$USERR3
 40
0.0
  9
$USERR4
 40
0.0
  9
$USERR5
 40
0.0
  9
$WORLDVIEW
 70
     1
  9
$SHADEDGE
 70
     3
  9
$SHADEDIF
 70
    70
  9
$TILEMODE
 70
     1
  9
$MAXACTVP
 70
    64
  9
$PLIMCHECK
 70
     0
  9
$PEXTMIN
 10
1.0000000000000000E+020
 20
1.0000000000000000E+020
 30
1.0000000000000000E+020
  9
$PEXTMAX
 10
-1.0000000000000000E+020
 20
-1.0000000000000000E+020
 30
-1.0000000000000000E+020
  9
$PLIMMIN
 10
0.0
 20
0.0
  9
$PLIMMAX
 10
12.0
 20
9.0
  9
$UNITMODE
 70
     0
  9
$VISRETAIN
 70
     1
  9
$PLINEGEN
 70
     0
  9
$PSLTSCALE
 70
     1
  0
ENDSEC
  0
SECTION
  2
TABLES
  0
TABLE
  2
VPORT
 70
     1
  0
VPORT
  2
*ACTIVE
 70
     0
 10
0.0
 20
0.0
 11
1.0
 21
1.0
 12
1461.782600762991
 22
1222.536076862327
 13
0.0
 23
0.0
 14
50.0
 24
50.0
 15
100.0
 25
100.0
 16
0.0
 26
0.0
 36
1.0
 17
0.0
 27
0.0
 37
0.0
 40
7896.8373465482573
 41
1.552030456852791
 42
50.0
 43
0.0
 44
0.0
 50
0.0
 51
0.0
 71
     0
 72
  1000
 73
     1
 74
     0
 75
     0
 76
     0
 77
     0
 78
     0
  0
ENDTAB
  0
TABLE
  2
LTYPE
 70
     3
  0
LTYPE
  2
CONTINUOUS
 70
     0
  3
実線
 72
    65
 73
     0
 40
0.0
  0
LTYPE
  2
DASHDOT
 70
     0
  3
____ _ ____ _ ____ _ ____ _ ____ _ ____ _ ____
 72
    65
 73
     4
 40
5.5
 49
4.0
 49
-0.6
 49
0.3
 49
-0.6
  0
ENDTAB
  0
TABLE
  2
LAYER
 70
    12
  0
LAYER
  2
0
 70
     0
 62
     7
  6
CONTINUOUS
  0
LAYER
  2
SYMBOLLINE
 70
     0
 62
    15
  6
CONTINUOUS
  0
LAYER
  2
NOTE
 70
     0
 62
     4
  6
CONTINUOUS
  0
LAYER
  2
OUTLINE
 70
     0
 62
     3
  6
CONTINUOUS
  0
LAYER
  2
DETAIL
 70
     0
 62
     5
  6
CONTINUOUS
  0
LAYER
  2
BASIS
 70
     0
 62
     6
  6
DASHDOT
  0
LAYER
  2
SIZE
 70
     0
 62
    30
  6
CONTINUOUS
  0
LAYER
  2
ARRANGE
 70
     0
 62
     1
  6
CONTINUOUS
  0
LAYER
  2
FIX
 70
     0
 62
    11
  6
CONTINUOUS
  0
LAYER
  2
SERVICESPACE
 70
     0
 62
     2
  6
DASHDOT
  0
LAYER
  2
ETC
 70
     0
 62
    61
  6
CONTINUOUS
  0
LAYER
  2
DEFPOINTS
 70
     0
 62
     7
  6
CONTINUOUS
  0
ENDTAB
  0
TABLE
  2
STYLE
 70
     5
  0
STYLE
  2
STANDARD
 70
     0
 40
0.0
 41
0.9
 50
0.0
 71
     0
 42
64.0
  3
SIMPLEX
  4
BIGFONT
  0
STYLE
  2
ANNOTATIVE
 70
     0
 40
0.0
 41
1.0
 50
0.0
 71
     0
 42
0.2
  3
txt
  4

  0
STYLE
  2
NOTE
 70
     0
 40
0.0
 41
0.7
 50
0.0
 71
     0
 42
64.0
  3
SIMPLEX.shx
  4
BIGFONT.shx
  0
STYLE
  2
STANDARD1
 70
     0
 40
0.0
 41
1.0
 50
0.0
 71
     0
 42
64.0
  3
MONOTXT
  4
BIGFONT
  0
ENDTAB
  0
TABLE
  2
VIEW
 70
     1
  0
VIEW
  2
ALL
 70
     0
 40
9000.0
 10
241.50664699999999
 20
0.0
 41
12483.01
 11
0.0
 21
0.0
 31
1.0
 12
0.0
 22
0.0
 32
0.0
 42
50.0
 43
0.0
 44
0.0
 50
0.0
 71
     0
  0
ENDTAB
  0
TABLE
  2
UCS
 70
     0
  0
ENDTAB
  0
TABLE
  2
APPID
 70
     5
  0
APPID
  2
ACAD
 70
     0
  0
APPID
  2
ACADANNOTATIVE
 70
     0
  0
APPID
  2
ACAD_MLEADERVER
 70
     0
  0
APPID
  2
ACAD_EXEMPT_FROM_CAD_STANDARDS
 70
     0
  0
APPID
  2
ACAD_PSEXT
 70
     0
  0
ENDTAB
  0
TABLE
  2
DIMSTYLE
 70
     4
  0
DIMSTYLE
  2
STANDARD
 70
     0
  3

  4

  5

  6

  7

 40
1.0
 41
0.18
 42
0.0625
 43
0.38
 44
0.18
 45
0.0
 46
0.0
 47
0.0
 48
0.0
140
0.18
141
0.09
142
0.0
143
25.399999999999999
144
1.0
145
0.0
146
1.0
147
0.09
 71
     0
 72
     0
 73
     1
 74
     1
 75
     0
 76
     0
 77
     0
 78
     0
170
     0
171
     2
172
     0
173
     0
174
     0
175
     0
176
     0
177
     0
178
     0
  0
DIMSTYLE
  2
ANNOTATIVE
 70
     0
  3

  4

  5

  6

  7

 40
1.0
 41
0.18
 42
0.0625
 43
0.38
 44
0.18
 45
0.0
 46
0.0
 47
0.0
 48
0.0
140
0.18
141
0.09
142
0.0
143
25.399999999999999
144
1.0
145
0.0
146
1.0
147
0.09
 71
     0
 72
     0
 73
     1
 74
     1
 75
     0
 76
     0
 77
     0
 78
     0
170
     0
171
     2
172
     0
173
     0
174
     0
175
     0
176
     0
177
     0
178
     0
  0
ENDTAB
  0
ENDSEC
  0
SECTION
  2
BLOCKS
  0
BLOCK
  8
0
  2
$MODEL_SPACE
 70
     0
 10
0.0
 20
0.0
 30
0.0
  3
$MODEL_SPACE
  1

  0
ENDBLK
  5
3B4
  8
0
  0
BLOCK
 67
     1
  8
0
  2
$PAPER_SPACE
 70
     0
 10
0.0
 20
0.0
 30
0.0
  3
$PAPER_SPACE
  1

  0
ENDBLK
  5
3B0
 67
     1
  8
0
  0
BLOCK
  8
0
  2
_SMALL
 70
     0
 10
0.0
 20
0.0
 30
0.0
  3
_SMALL
  1

  0
CIRCLE
  5
8D
  8
0
  6
CONTINUOUS
 62
     7
 10
0.0
 20
0.0
 30
0.0
 40
0.25
  0
ENDBLK
  5
8E
  8
0
  0
BLOCK
  8
0
 62
     7
  2
_DOTBLANK
 70
     0
 10
0.0
 20
0.0
 30
0.0
  3
_DOTBLANK
  1

  0
CIRCLE
  5
3D3
  8
0
  6
BYBLOCK
 62
     0
 10
0.0
 20
0.0
 30
0.0
 40
0.5
  0
LINE
  5
3D4
  8
0
  6
BYBLOCK
 62
     0
 10
-0.5
 20
0.0
 30
0.0
 11
-1.0
 21
0.0
 31
0.0
  0
ENDBLK
  5
3D5
  8
0
 62
     7
  0
BLOCK
  8
0
 62
     7
  2
*D12
 70
     1
 10
0.0
 20
0.0
 30
0.0
  3
*D12
  1

  0
LINE
  5
677
  8
SYMBOLLINE
  6
CONTINUOUS
 62
     0
 10
-493.0
 20
-136.179550001557
 30
0.0
 11
-400.0
 21
-136.179550001557
 31
0.0
  0
INSERT
  5
678
  8
SYMBOLLINE
  6
CONTINUOUS
 62
     0
  2
_SMALL
 10
-493.0
 20
-136.179550001557
 30
0.0
 41
30.0
 42
30.0
 43
30.0
 50
180.0
  0
INSERT
  5
679
  8
SYMBOLLINE
  6
CONTINUOUS
 62
     0
  2
_SMALL
 10
-400.0
 20
-136.179550001557
 30
0.0
 41
30.0
 42
30.0
 43
30.0
  0
INSERT
  5
67A
  8
SYMBOLLINE
  6
CONTINUOUS
 62
     7
  2
*U40
 10
0.0
 20
0.0
 30
0.0
  0
POINT
  5
67B
  8
DEFPOINTS
  6
CONTINUOUS
 62
     0
 10
-493.0
 20
-136.17955000155601
 30
0.0
  0
POINT
  5
67C
  8
DEFPOINTS
  6
CONTINUOUS
 62
     0
 10
-400.0
 20
-136.17955000155601
 30
0.0
  0
POINT
  5
67D
  8
DEFPOINTS
  6
CONTINUOUS
 62
     0
 10
-400.0
 20
-136.179550001557
 30
0.0
  0
ENDBLK
  5
676
  8
0
 62
     7
  0
BLOCK
  8
0
 62
     7
  2
*D14
 70
     1
 10
0.0
 20
0.0
 30
0.0
  3
*D14
  1

  0
LINE
  5
691
  8
SYMBOLLINE
  6
CONTINUOUS
 62
     0
 10
-0.0000000000000012
 20
-145.0
 30
0.0
 11
-0.0000000000000028
 21
-170.0
 31
0.0
  0
LINE
  5
692
  8
SYMBOLLINE
  6
CONTINUOUS
 62
     0
 10
-0.0000000000000012
 20
-145.0
 30
0.0
 11
-0.0000000000000028
 21
-170.0
 31
0.0
  0
LINE
  5
693
  8
SYMBOLLINE
  6
CONTINUOUS
 62
     0
 10
-0.0000000000000015
 20
-150.0
 30
0.0
 11
-30.0
 21
-150.0
 31
0.0
  0
LINE
  5
694
  8
SYMBOLLINE
  6
CONTINUOUS
 62
     0
 10
-0.0000000000000015
 20
-150.0
 30
0.0
 11
96.180000000000021
 21
-150.0
 31
0.0
  0
INSERT
  5
695
  8
SYMBOLLINE
  6
CONTINUOUS
 62
     0
  2
_SMALL
 10
-0.0000000000000015
 20
-150.0
 30
0.0
 41
30.0
 42
30.0
 43
30.0
  0
INSERT
  5
696
  8
SYMBOLLINE
  6
CONTINUOUS
 62
     0
  2
_SMALL
 10
-0.0000000000000015
 20
-150.0
 30
0.0
 41
30.0
 42
30.0
 43
30.0
 50
180.0
  0
INSERT
  5
697
  8
SYMBOLLINE
  6
CONTINUOUS
 62
     7
  2
*U41
 10
0.0
 20
0.0
 30
0.0
  0
POINT
  5
698
  8
DEFPOINTS
  6
CONTINUOUS
 62
     0
 10
0.0
 20
-125.0
 30
0.0
  0
POINT
  5
699
  8
DEFPOINTS
  6
CONTINUOUS
 62
     0
 10
0.0
 20
-125.0
 30
0.0
  0
POINT
  5
69A
  8
DEFPOINTS
  6
CONTINUOUS
 62
     0
 10
-0.0000000000000015
 20
-150.0
 30
0.0
  0
ENDBLK
  5
690
  8
0
 62
     7
  0
BLOCK
  8
0
 62
     7
  2
A$C002E7EBA
 70
     0
 10
0.0
 20
0.0
 30
0.0
  3
A$C002E7EBA
  1

  0
LINE
  5
74C
  8
DETAIL
  6
CONTINUOUS
 62
     5
 10
28.499995610757651
 20
-0.0000027014775981
 30
0.0
 11
-0.0000043892279109
 21
-0.0000027014775981
 31
0.0
  0
ENDBLK
  5
750
  8
0
 62
     7
  0
BLOCK
  8
0
 62
     7
  2
*U40
 70
     1
 10
0.0
 20
0.0
 30
0.0
  3
*U40
  1

  0
TEXT
  5
845
  8
SYMBOLLINE
  6
CONTINUOUS
 62
     0
 10
-490.21428571428572
 20
-136.089550001557
 30
0.0
 40
60.0
  1
93
 41
0.9
  0
ENDBLK
  5
847
  8
0
 62
     7
  0
BLOCK
  8
0
 62
     7
  2
*U41
 70
     1
 10
0.0
 20
0.0
 30
0.0
  3
*U41
  1

  0
TEXT
  5
849
  8
SYMBOLLINE
  6
CONTINUOUS
 62
     0
 10
60.090000000000003
 20
-149.91
 30
0.0
 40
60.0
  1
0
 41
0.9
  0
ENDBLK
  5
84B
  8
0
 62
     7
  0
ENDSEC
  0
SECTION
  2
ENTITIES
  0
LINE
  5
8F
  8
DETAIL
  6
CONTINUOUS
 62
     5
 10
-475.99999999999818
 20
844.00000000000705
 30
0.0
 11
-20.000000000002728
 21
844.00000000000705
 31
0.0
  0
LINE
  5
90
  8
DETAIL
  6
CONTINUOUS
 62
     5
 10
550.00000000000364
 20
804.99999999999613
 30
0.0
 11
-549.9999999999992
 21
804.99999999999613
 31
0.0
  0
LINE
  5
91
  8
DETAIL
  6
CONTINUOUS
 62
     5
 10
550.00001235112802
 20
1450.0
 30
0.0
 11
-549.99998764887482
 21
1450.0
 31
0.0
  0
LINE
  5
92
  8
DETAIL
  6
CONTINUOUS
 62
     5
 10
550.00000000000364
 20
1879.999999999998
 30
0.0
 11
-549.9999999999992
 21
1879.999999999998
 31
0.0
  0
LINE
  5
93
  8
DETAIL
  6
CONTINUOUS
 62
     5
 10
-549.99998764887482
 20
1412.0
 30
0.0
 11
550.00001235112802
 21
1412.0
 31
0.0
  0
LINE
  5
94
  8
DETAIL
  6
CONTINUOUS
 62
     5
 10
-20.000000000002728
 20
847.00000000000364
 30
0.0
 11
-475.99999999999818
 21
847.00000000000364
 31
0.0
  0
LINE
  5
95
  8
DETAIL
  6
CONTINUOUS
 62
     5
 10
-549.9999999999992
 20
730.0
 30
0.0
 11
550.00000000000364
 21
730.0
 31
0.0
  0
LINE
  5
96
  8
DETAIL
  6
CONTINUOUS
 62
     5
 10
550.00000000000364
 20
97.000000000001805
 30
0.0
 11
521.49999999999454
 21
97.000000000001805
 31
0.0
  0
LINE
  5
97
  8
DETAIL
  6
CONTINUOUS
 62
     5
 10
550.00000000000364
 20
0.0
 30
0.0
 11
-549.9999999999992
 21
0.0
 31
0.0
  0
LINE
  5
98
  8
DETAIL
  6
CONTINUOUS
 62
     5
 10
-549.9999999999992
 20
0.0
 30
0.0
 11
-549.9999999999992
 21
1879.999999999998
 31
0.0
  0
LINE
  5
99
  8
DETAIL
  6
CONTINUOUS
 62
     5
 10
-521.50000000001364
 20
0.0
 30
0.0
 11
-521.50000000001364
 21
97.000000000001805
 31
0.0
  0
LINE
  5
9A
  8
DETAIL
  6
CONTINUOUS
 62
     5
 10
-516.00000000000716
 20
857.50000271368845
 30
0.0
 11
-516.00000000000716
 21
833.49999729473495
 31
0.0
  0
LINE
  5
9B
  8
DETAIL
  6
CONTINUOUS
 62
     5
 10
-475.99999999999818
 20
857.50001118997341
 30
0.0
 11
-475.99999999999818
 21
833.49998880860403
 31
0.0
  0
LINE
  5
9C
  8
DETAIL
  6
CONTINUOUS
 62
     5
 10
-511.86824066492022
 20
815.77346030394574
 30
0.0
 11
-510.99999965053848
 21
815.49999999999807
 31
0.0
  0
LINE
  5
9D
  8
DETAIL
  6
CONTINUOUS
 62
     5
 10
-512.71010061864115
 20
816.58553269744675
 30
0.0
 11
-511.86824066492022
 21
815.77346030394574
 31
0.0
  0
LINE
  5
9E
  8
DETAIL
  6
CONTINUOUS
 62
     5
 10
-513.50000001584613
 20
817.91154276479745
 30
0.0
 11
-512.71010061864115
 21
816.58553269744675
 31
0.0
  0
LINE
  5
9F
  8
DETAIL
  6
CONTINUOUS
 62
     5
 10
-514.21393815635281
 20
819.71120034984415
 30
0.0
 11
-513.50000001584613
 21
817.91154276479745
 31
0.0
  0
LINE
  5
A0
  8
DETAIL
  6
CONTINUOUS
 62
     5
 10
-514.83022238494311
 20
821.92982375220345
 30
0.0
 11
-514.21393815635281
 21
819.71120034984415
 31
0.0
  0
LINE
  5
A1
  8
DETAIL
  6
CONTINUOUS
 62
     5
 10
-515.33012721194973
 20
824.5000012035706
 30
0.0
 11
-514.83022238494311
 21
821.92982375220345
 31
0.0
  0
LINE
  5
A2
  8
DETAIL
  6
CONTINUOUS
 62
     5
 10
-515.69846327790765
 20
827.3436391407829
 30
0.0
 11
-515.33012721194973
 21
824.5000012035706
 31
0.0
  0
LINE
  5
A3
  8
DETAIL
  6
CONTINUOUS
 62
     5
 10
-515.92403887468572
 20
830.3743350398471
 30
0.0
 11
-515.69846327790765
 21
827.3436391407829
 31
0.0
  0
LINE
  5
A4
  8
DETAIL
  6
CONTINUOUS
 62
     5
 10
-516.00000000000716
 20
833.50000271368663
 30
0.0
 11
-515.92403887468572
 21
830.3743350398471
 31
0.0
  0
LINE
  5
A5
  8
DETAIL
  6
CONTINUOUS
 62
     5
 10
-476.07596111858942
 20
830.37433517752277
 30
0.0
 11
-475.99999999999818
 21
833.50000271368663
 31
0.0
  0
LINE
  5
A6
  8
DETAIL
  6
CONTINUOUS
 62
     5
 10
-476.3015366955633
 20
827.34363940349044
 30
0.0
 11
-476.07596111858942
 21
830.37433517752277
 31
0.0
  0
LINE
  5
A7
  8
DETAIL
  6
CONTINUOUS
 62
     5
 10
-476.66987272982522
 20
824.50000156675367
 30
0.0
 11
-476.3015366955633
 21
827.34363940349044
 31
0.0
  0
LINE
  5
A8
  8
DETAIL
  6
CONTINUOUS
 62
     5
 10
-477.16977751522228
 20
821.92982418052975
 30
0.0
 11
-476.66987272982522
 21
824.50000156675367
 31
0.0
  0
LINE
  5
A9
  8
DETAIL
  6
CONTINUOUS
 62
     5
 10
-477.7860616949273
 20
819.71120079911259
 30
0.0
 11
-477.16977751522228
 21
821.92982418052975
 31
0.0
  0
LINE
  5
AA
  8
DETAIL
  6
CONTINUOUS
 62
     5
 10
-478.49999978241061
 20
817.91154318416545
 30
0.0
 11
-477.7860616949273
 21
819.71120079911259
 31
0.0
  0
LINE
  5
AB
  8
DETAIL
  6
CONTINUOUS
 62
     5
 10
-479.28989912597808
 20
816.58553303211716
 30
0.0
 11
-478.49999978241061
 21
817.91154318416545
 31
0.0
  0
LINE
  5
AC
  8
DETAIL
  6
CONTINUOUS
 62
     5
 10
-480.1317590291992
 20
815.77346049814514
 30
0.0
 11
-479.28989912597808
 21
816.58553303211716
 31
0.0
  0
LINE
  5
AD
  8
DETAIL
  6
CONTINUOUS
 62
     5
 10
-481.00000000001631
 20
815.49999999999807
 30
0.0
 11
-480.1317590291992
 21
815.77346049814514
 31
0.0
  0
LINE
  5
AE
  8
DETAIL
  6
CONTINUOUS
 62
     5
 10
-475.99999999999818
 20
839.49999999999989
 30
0.0
 11
-516.00000000000716
 21
839.49999999999989
 31
0.0
  0
LINE
  5
AF
  8
DETAIL
  6
CONTINUOUS
 62
     5
 10
-481.00000000001631
 20
815.49999999999807
 30
0.0
 11
-511.00000000001182
 21
815.49999999999807
 31
0.0
  0
LINE
  5
B0
  8
DETAIL
  6
CONTINUOUS
 62
     5
 10
-480.1317590291992
 20
875.22653950186566
 30
0.0
 11
-481.00000000001631
 21
875.50000000001262
 31
0.0
  0
LINE
  5
B1
  8
DETAIL
  6
CONTINUOUS
 62
     5
 10
-479.28989912597808
 20
874.41446696789342
 30
0.0
 11
-480.1317590291992
 21
875.22653950186566
 31
0.0
  0
LINE
  5
B2
  8
DETAIL
  6
CONTINUOUS
 62
     5
 10
-478.49999978241061
 20
873.08845681584535
 30
0.0
 11
-479.28989912597808
 21
874.41446696789342
 31
0.0
  0
LINE
  5
B3
  8
DETAIL
  6
CONTINUOUS
 62
     5
 10
-477.7860616949273
 20
871.2887992008981
 30
0.0
 11
-478.49999978241061
 21
873.08845681584535
 31
0.0
  0
LINE
  5
B4
  8
DETAIL
  6
CONTINUOUS
 62
     5
 10
-477.16977751522228
 20
869.07017581948048
 30
0.0
 11
-477.7860616949273
 21
871.2887992008981
 31
0.0
  0
LINE
  5
B5
  8
DETAIL
  6
CONTINUOUS
 62
     5
 10
-476.66987272982522
 20
866.49999843325702
 30
0.0
 11
-477.16977751522228
 21
869.07017581948048
 31
0.0
  0
LINE
  5
B6
  8
DETAIL
  6
CONTINUOUS
 62
     5
 10
-476.3015366955633
 20
863.65636059652024
 30
0.0
 11
-476.66987272982522
 21
866.49999843325702
 31
0.0
  0
LINE
  5
B7
  8
DETAIL
  6
CONTINUOUS
 62
     5
 10
-476.07596111858942
 20
860.62566482248803
 30
0.0
 11
-476.3015366955633
 21
863.65636059652024
 31
0.0
  0
LINE
  5
B8
  8
DETAIL
  6
CONTINUOUS
 62
     5
 10
-475.99999999999818
 20
857.49999728632417
 30
0.0
 11
-476.07596111858942
 21
860.62566482248803
 31
0.0
  0
LINE
  5
B9
  8
DETAIL
  6
CONTINUOUS
 62
     5
 10
-515.92403888141598
 20
860.62566482248803
 30
0.0
 11
-516.00000000000716
 21
857.49999728632417
 31
0.0
  0
LINE
  5
BA
  8
DETAIL
  6
CONTINUOUS
 62
     5
 10
-515.69846330446489
 20
863.65636059652024
 30
0.0
 11
-515.92403888141598
 21
860.62566482248803
 31
0.0
  0
LINE
  5
BB
  8
DETAIL
  6
CONTINUOUS
 62
     5
 10
-515.33012727020275
 20
866.49999843325702
 30
0.0
 11
-515.69846330446489
 21
863.65636059652024
 31
0.0
  0
LINE
  5
BC
  8
DETAIL
  6
CONTINUOUS
 62
     5
 10
-514.83022248478312
 20
869.07017581948048
 30
0.0
 11
-515.33012727020275
 21
866.49999843325702
 31
0.0
  0
LINE
  5
BD
  8
DETAIL
  6
CONTINUOUS
 62
     5
 10
-514.21393830507793
 20
871.2887992008981
 30
0.0
 11
-514.83022248478312
 21
869.07017581948048
 31
0.0
  0
LINE
  5
BE
  8
DETAIL
  6
CONTINUOUS
 62
     5
 10
-513.50000021761753
 20
873.08845681584535
 30
0.0
 11
-514.21393830507793
 21
871.2887992008981
 31
0.0
  0
LINE
  5
BF
  8
DETAIL
  6
CONTINUOUS
 62
     5
 10
-512.71010087405011
 20
874.41446696789342
 30
0.0
 11
-513.50000021761753
 21
873.08845681584535
 31
0.0
  0
LINE
  5
C0
  8
DETAIL
  6
CONTINUOUS
 62
     5
 10
-511.86824097082888
 20
875.22653950186566
 30
0.0
 11
-512.71010087405011
 21
874.41446696789342
 31
0.0
  0
LINE
  5
C1
  8
DETAIL
  6
CONTINUOUS
 62
     5
 10
-511.00000000001182
 20
875.50000000001262
 30
0.0
 11
-511.86824097082888
 21
875.22653950186566
 31
0.0
  0
LINE
  5
C2
  8
DETAIL
  6
CONTINUOUS
 62
     5
 10
-549.9999999999992
 20
844.00000000000705
 30
0.0
 11
-516.00000000000716
 21
844.00000000000705
 31
0.0
  0
LINE
  5
C3
  8
DETAIL
  6
CONTINUOUS
 62
     5
 10
-516.00000000000716
 20
847.00000000000364
 30
0.0
 11
-549.9999999999992
 21
847.00000000000364
 31
0.0
  0
LINE
  5
C4
  8
DETAIL
  6
CONTINUOUS
 62
     5
 10
-481.00000000001631
 20
875.50000000001262
 30
0.0
 11
-511.00000000001182
 21
875.50000000001262
 31
0.0
  0
LINE
  5
C5
  8
DETAIL
  6
CONTINUOUS
 62
     5
 10
-475.99999999999818
 20
851.50000000001069
 30
0.0
 11
-516.00000000000716
 21
851.50000000001069
 31
0.0
  0
LINE
  5
C6
  8
DETAIL
  6
CONTINUOUS
 62
     5
 10
550.00000000000364
 20
1879.199999999995
 30
0.0
 11
550.00000000000364
 21
0.0
 31
0.0
  0
LINE
  5
C8
  8
DETAIL
  6
CONTINUOUS
 62
     5
 10
521.49999999999454
 20
0.0
 30
0.0
 11
521.49999999999454
 21
97.000000000001805
 31
0.0
  0
LINE
  5
C9
  8
DETAIL
  6
CONTINUOUS
 62
     5
 10
19.999999999983629
 20
844.00000000000705
 30
0.0
 11
476.00000000000171
 21
844.00000000000705
 31
0.0
  0
LINE
  5
CA
  8
DETAIL
  6
CONTINUOUS
 62
     5
 10
476.00000000000171
 20
847.00000000000364
 30
0.0
 11
19.999999999983629
 21
847.00000000000364
 31
0.0
  0
LINE
  5
CB
  8
DETAIL
  6
CONTINUOUS
 62
     5
 10
19.999999999983629
 20
857.50000271368845
 30
0.0
 11
19.999999999983629
 21
833.49999729473495
 31
0.0
  0
LINE
  5
CC
  8
DETAIL
  6
CONTINUOUS
 62
     5
 10
-20.000000000002728
 20
857.50001118997341
 30
0.0
 11
-20.000000000002728
 21
833.49998880860403
 31
0.0
  0
LINE
  5
CD
  8
DETAIL
  6
CONTINUOUS
 62
     5
 10
19.924038888145319
 20
830.37433531517445
 30
0.0
 11
19.999999999983629
 21
833.50000271368663
 31
0.0
  0
LINE
  5
CE
  8
DETAIL
  6
CONTINUOUS
 62
     5
 10
19.698463330998479
 20
827.3436396661981
 30
0.0
 11
19.924038888145319
 21
830.37433531517445
 31
0.0
  0
LINE
  5
CF
  8
DETAIL
  6
CONTINUOUS
 62
     5
 10
19.330127328432351
 20
824.5000019299149
 30
0.0
 11
19.698463330998479
 21
827.3436396661981
 31
0.0
  0
LINE
  5
D0
  8
DETAIL
  6
CONTINUOUS
 62
     5
 10
18.830222584599131
 20
821.92982460885639
 30
0.0
 11
19.330127328432351
 21
824.5000019299149
 31
0.0
  0
LINE
  5
D1
  8
DETAIL
  6
CONTINUOUS
 62
     5
 10
18.213938453802239
 20
819.71120124837944
 30
0.0
 11
18.830222584599131
 21
821.92982460885639
 31
0.0
  0
LINE
  5
D2
  8
DETAIL
  6
CONTINUOUS
 62
     5
 10
17.500000419365279
 20
817.91154360350993
 30
0.0
 11
18.213938453802239
 21
819.71120124837944
 31
0.0
  0
LINE
  5
D3
  8
DETAIL
  6
CONTINUOUS
 62
     5
 10
16.710101129435301
 20
816.58553336676573
 30
0.0
 11
17.500000419365279
 21
817.91154360350993
 31
0.0
  0
LINE
  5
D4
  8
DETAIL
  6
CONTINUOUS
 62
     5
 10
15.86824127671389
 20
815.77346069232181
 30
0.0
 11
16.710101129435301
 21
816.58553336676573
 31
0.0
  0
LINE
  5
D5
  8
DETAIL
  6
CONTINUOUS
 62
     5
 10
15.00000034946151
 20
815.49999999999807
 30
0.0
 11
15.86824127671389
 21
815.77346069232181
 31
0.0
  0
LINE
  5
D6
  8
DETAIL
  6
CONTINUOUS
 62
     5
 10
-15.86824097082444
 20
815.77346049814514
 30
0.0
 11
-15.00000000000726
 21
815.49999999999807
 31
0.0
  0
LINE
  5
D7
  8
DETAIL
  6
CONTINUOUS
 62
     5
 10
-16.710100874045551
 20
816.58553303211716
 30
0.0
 11
-15.86824097082444
 21
815.77346049814514
 31
0.0
  0
LINE
  5
D8
  8
DETAIL
  6
CONTINUOUS
 62
     5
 10
-17.500000217612971
 20
817.91154318416545
 30
0.0
 11
-16.710100874045551
 21
816.58553303211716
 31
0.0
  0
LINE
  5
D9
  8
DETAIL
  6
CONTINUOUS
 62
     5
 10
-18.21393830507348
 20
819.71120079911259
 30
0.0
 11
-17.500000217612971
 21
817.91154318416545
 31
0.0
  0
LINE
  5
DA
  8
DETAIL
  6
CONTINUOUS
 62
     5
 10
-18.83022248477846
 20
821.92982418052975
 30
0.0
 11
-18.21393830507348
 21
819.71120079911259
 31
0.0
  0
LINE
  5
DB
  8
DETAIL
  6
CONTINUOUS
 62
     5
 10
-19.330127270198311
 20
824.50000156675367
 30
0.0
 11
-18.83022248477846
 21
821.92982418052975
 31
0.0
  0
LINE
  5
DC
  8
DETAIL
  6
CONTINUOUS
 62
     5
 10
-19.698463304460329
 20
827.34363940349044
 30
0.0
 11
-19.330127270198311
 21
824.50000156675367
 31
0.0
  0
LINE
  5
DD
  8
DETAIL
  6
CONTINUOUS
 62
     5
 10
-19.92403888141143
 20
830.37433517752277
 30
0.0
 11
-19.698463304460329
 21
827.34363940349044
 31
0.0
  0
LINE
  5
DE
  8
DETAIL
  6
CONTINUOUS
 62
     5
 10
-20.000000000002728
 20
833.50000271368663
 30
0.0
 11
-19.92403888141143
 21
830.37433517752277
 31
0.0
  0
LINE
  5
DF
  8
DETAIL
  6
CONTINUOUS
 62
     5
 10
-20.000000000002728
 20
839.49999999999989
 30
0.0
 11
19.999999999983629
 21
839.49999999999989
 31
0.0
  0
LINE
  5
E0
  8
DETAIL
  6
CONTINUOUS
 62
     5
 10
-15.00000000000726
 20
815.49999999999807
 30
0.0
 11
14.999999999988161
 21
815.49999999999807
 31
0.0
  0
LINE
  5
E1
  8
DETAIL
  6
CONTINUOUS
 62
     5
 10
-19.92403888141143
 20
860.62566482248803
 30
0.0
 11
-20.000000000002728
 21
857.49999728632417
 31
0.0
  0
LINE
  5
E2
  8
DETAIL
  6
CONTINUOUS
 62
     5
 10
-19.698463304460329
 20
863.65636059652024
 30
0.0
 11
-19.92403888141143
 21
860.62566482248803
 31
0.0
  0
LINE
  5
E3
  8
DETAIL
  6
CONTINUOUS
 62
     5
 10
-19.330127270198311
 20
866.49999843325702
 30
0.0
 11
-19.698463304460329
 21
863.65636059652024
 31
0.0
  0
LINE
  5
E4
  8
DETAIL
  6
CONTINUOUS
 62
     5
 10
-18.83022248477846
 20
869.07017581948048
 30
0.0
 11
-19.330127270198311
 21
866.49999843325702
 31
0.0
  0
LINE
  5
E5
  8
DETAIL
  6
CONTINUOUS
 62
     5
 10
-18.21393830507348
 20
871.2887992008981
 30
0.0
 11
-18.83022248477846
 21
869.07017581948048
 31
0.0
  0
LINE
  5
E6
  8
DETAIL
  6
CONTINUOUS
 62
     5
 10
-17.500000217612971
 20
873.08845681584535
 30
0.0
 11
-18.21393830507348
 21
871.2887992008981
 31
0.0
  0
LINE
  5
E7
  8
DETAIL
  6
CONTINUOUS
 62
     5
 10
-16.710100874045551
 20
874.41446696789342
 30
0.0
 11
-17.500000217612971
 21
873.08845681584535
 31
0.0
  0
LINE
  5
E8
  8
DETAIL
  6
CONTINUOUS
 62
     5
 10
-15.86824097082444
 20
875.22653950186566
 30
0.0
 11
-16.710100874045551
 21
874.41446696789342
 31
0.0
  0
LINE
  5
E9
  8
DETAIL
  6
CONTINUOUS
 62
     5
 10
-15.00000000000726
 20
875.50000000001262
 30
0.0
 11
-15.86824097082444
 21
875.22653950186566
 31
0.0
  0
LINE
  5
EA
  8
DETAIL
  6
CONTINUOUS
 62
     5
 10
15.86824097080534
 20
875.22653950186566
 30
0.0
 11
14.999999999988161
 21
875.50000000001262
 31
0.0
  0
LINE
  5
EB
  8
DETAIL
  6
CONTINUOUS
 62
     5
 10
16.710100874026441
 20
874.41446696789342
 30
0.0
 11
15.86824097080534
 21
875.22653950186566
 31
0.0
  0
LINE
  5
EC
  8
DETAIL
  6
CONTINUOUS
 62
     5
 10
17.500000217593879
 20
873.08845681584535
 30
0.0
 11
16.710100874026441
 21
874.41446696789342
 31
0.0
  0
LINE
  5
ED
  8
DETAIL
  6
CONTINUOUS
 62
     5
 10
18.213938305077122
 20
871.2887992008981
 30
0.0
 11
17.500000217593879
 21
873.08845681584535
 31
0.0
  0
LINE
  5
EE
  8
DETAIL
  6
CONTINUOUS
 62
     5
 10
18.83022248478208
 20
869.07017581948048
 30
0.0
 11
18.213938305077122
 21
871.2887992008981
 31
0.0
  0
LINE
  5
EF
  8
DETAIL
  6
CONTINUOUS
 62
     5
 10
19.330127270179212
 20
866.49999843325702
 30
0.0
 11
18.83022248478208
 21
869.07017581948048
 31
0.0
  0
LINE
  5
F0
  8
DETAIL
  6
CONTINUOUS
 62
     5
 10
19.69846330444123
 20
863.65636059652024
 30
0.0
 11
19.330127270179212
 21
866.49999843325702
 31
0.0
  0
LINE
  5
F1
  8
DETAIL
  6
CONTINUOUS
 62
     5
 10
19.924038881415068
 20
860.62566482248803
 30
0.0
 11
19.69846330444123
 21
863.65636059652024
 31
0.0
  0
LINE
  5
F2
  8
DETAIL
  6
CONTINUOUS
 62
     5
 10
19.999999999983629
 20
857.49999728632417
 30
0.0
 11
19.924038881415068
 21
860.62566482248803
 31
0.0
  0
LINE
  5
F3
  8
DETAIL
  6
CONTINUOUS
 62
     5
 10
-15.00000000000726
 20
875.50000000001262
 30
0.0
 11
14.999999999988161
 21
875.50000000001262
 31
0.0
  0
LINE
  5
F4
  8
DETAIL
  6
CONTINUOUS
 62
     5
 10
-20.000000000002728
 20
851.50000000001069
 30
0.0
 11
19.999999999983629
 21
851.50000000001069
 31
0.0
  0
LINE
  5
F5
  8
DETAIL
  6
CONTINUOUS
 62
     5
 10
478.49999978239231
 20
817.91154318416545
 30
0.0
 11
479.28989912595893
 21
816.58553303211716
 31
0.0
  0
LINE
  5
F6
  8
DETAIL
  6
CONTINUOUS
 62
     5
 10
479.28989912595893
 20
874.41446696789342
 30
0.0
 11
478.49999978239231
 21
873.08845681584535
 31
0.0
  0
LINE
  5
F7
  8
DETAIL
  6
CONTINUOUS
 62
     5
 10
476.00000000000171
 20
851.50000000001069
 30
0.0
 11
515.99999999998897
 21
851.50000000001069
 31
0.0
  0
LINE
  5
F8
  8
DETAIL
  6
CONTINUOUS
 62
     5
 10
476.00000000000171
 20
839.49999999999989
 30
0.0
 11
515.99999999998897
 21
839.49999999999989
 31
0.0
  0
LINE
  5
F9
  8
DETAIL
  6
CONTINUOUS
 62
     5
 10
476.00000000000171
 20
857.50001118997341
 30
0.0
 11
476.00000000000171
 21
833.49998880860403
 31
0.0
  0
LINE
  5
FA
  8
DETAIL
  6
CONTINUOUS
 62
     5
 10
477.78606169490922
 20
819.71120079911259
 30
0.0
 11
478.49999978239231
 21
817.91154318416545
 31
0.0
  0
LINE
  5
FB
  8
DETAIL
  6
CONTINUOUS
 62
     5
 10
477.16977751520398
 20
821.92982418052975
 30
0.0
 11
477.78606169490922
 21
819.71120079911259
 31
0.0
  0
LINE
  5
FC
  8
DETAIL
  6
CONTINUOUS
 62
     5
 10
476.66987272980617
 20
824.50000156675367
 30
0.0
 11
477.16977751520398
 21
821.92982418052975
 31
0.0
  0
LINE
  5
FD
  8
DETAIL
  6
CONTINUOUS
 62
     5
 10
476.3015366955442
 20
827.34363940349044
 30
0.0
 11
476.66987272980617
 21
824.50000156675367
 31
0.0
  0
LINE
  5
FE
  8
DETAIL
  6
CONTINUOUS
 62
     5
 10
476.07596111857117
 20
830.37433517752277
 30
0.0
 11
476.3015366955442
 21
827.34363940349044
 31
0.0
  0
LINE
  5
FF
  8
DETAIL
  6
CONTINUOUS
 62
     5
 10
476.00000000000171
 20
833.50000271368663
 30
0.0
 11
476.07596111857117
 21
830.37433517752277
 31
0.0
  0
LINE
  5
100
  8
DETAIL
  6
CONTINUOUS
 62
     5
 10
476.07596111857117
 20
860.62566482248803
 30
0.0
 11
476.00000000000171
 21
857.49999728632417
 31
0.0
  0
LINE
  5
101
  8
DETAIL
  6
CONTINUOUS
 62
     5
 10
476.3015366955442
 20
863.65636059652024
 30
0.0
 11
476.07596111857117
 21
860.62566482248803
 31
0.0
  0
LINE
  5
102
  8
DETAIL
  6
CONTINUOUS
 62
     5
 10
476.66987272980617
 20
866.49999843325702
 30
0.0
 11
476.3015366955442
 21
863.65636059652024
 31
0.0
  0
LINE
  5
103
  8
DETAIL
  6
CONTINUOUS
 62
     5
 10
477.16977751520398
 20
869.07017581948048
 30
0.0
 11
476.66987272980617
 21
866.49999843325702
 31
0.0
  0
LINE
  5
104
  8
DETAIL
  6
CONTINUOUS
 62
     5
 10
477.78606169490922
 20
871.2887992008981
 30
0.0
 11
477.16977751520398
 21
869.07017581948048
 31
0.0
  0
LINE
  5
105
  8
DETAIL
  6
CONTINUOUS
 62
     5
 10
478.49999978239231
 20
873.08845681584535
 30
0.0
 11
477.78606169490922
 21
871.2887992008981
 31
0.0
  0
LINE
  5
106
  8
DETAIL
  6
CONTINUOUS
 62
     5
 10
515.99999999998897
 20
857.50000271368845
 30
0.0
 11
515.99999999998897
 21
833.49999729473495
 31
0.0
  0
LINE
  5
107
  8
DETAIL
  6
CONTINUOUS
 62
     5
 10
515.92403888814977
 20
830.37433531517445
 30
0.0
 11
515.99999999998897
 21
833.50000271368663
 31
0.0
  0
LINE
  5
108
  8
DETAIL
  6
CONTINUOUS
 62
     5
 10
515.69846333100384
 20
827.3436396661981
 30
0.0
 11
515.92403888814977
 21
830.37433531517445
 31
0.0
  0
LINE
  5
109
  8
DETAIL
  6
CONTINUOUS
 62
     5
 10
515.3301273284377
 20
824.5000019299149
 30
0.0
 11
515.69846333100384
 21
827.3436396661981
 31
0.0
  0
LINE
  5
10A
  8
DETAIL
  6
CONTINUOUS
 62
     5
 10
514.83022258460369
 20
821.92982460885639
 30
0.0
 11
515.3301273284377
 21
824.5000019299149
 31
0.0
  0
LINE
  5
10B
  8
DETAIL
  6
CONTINUOUS
 62
     5
 10
514.21393845378395
 20
819.71120124837944
 30
0.0
 11
514.83022258460369
 21
821.92982460885639
 31
0.0
  0
LINE
  5
10C
  8
DETAIL
  6
CONTINUOUS
 62
     5
 10
513.50000041936971
 20
817.91154360350993
 30
0.0
 11
514.21393845378395
 21
819.71120124837944
 31
0.0
  0
LINE
  5
10D
  8
DETAIL
  6
CONTINUOUS
 62
     5
 10
512.71010112943975
 20
816.58553336676573
 30
0.0
 11
513.50000041936971
 21
817.91154360350993
 31
0.0
  0
LINE
  5
10E
  8
DETAIL
  6
CONTINUOUS
 62
     5
 10
511.86824127671917
 20
815.77346069232181
 30
0.0
 11
512.71010112943975
 21
816.58553336676573
 31
0.0
  0
LINE
  5
10F
  8
DETAIL
  6
CONTINUOUS
 62
     5
 10
511.00000034946572
 20
815.49999999999807
 30
0.0
 11
511.86824127671917
 21
815.77346069232181
 31
0.0
  0
LINE
  5
110
  8
DETAIL
  6
CONTINUOUS
 62
     5
 10
480.1317590291801
 20
815.77346049814514
 30
0.0
 11
480.99999999999801
 21
815.49999999999807
 31
0.0
  0
LINE
  5
111
  8
DETAIL
  6
CONTINUOUS
 62
     5
 10
479.28989912595893
 20
816.58553303211716
 30
0.0
 11
480.1317590291801
 21
815.77346049814514
 31
0.0
  0
LINE
  5
112
  8
DETAIL
  6
CONTINUOUS
 62
     5
 10
480.99999999999801
 20
815.49999999999807
 30
0.0
 11
510.99999999999261
 21
815.49999999999807
 31
0.0
  0
LINE
  5
113
  8
DETAIL
  6
CONTINUOUS
 62
     5
 10
511.8682409708108
 20
875.22653950186566
 30
0.0
 11
510.99999999999261
 21
875.50000000001262
 31
0.0
  0
LINE
  5
114
  8
DETAIL
  6
CONTINUOUS
 62
     5
 10
512.71010087403192
 20
874.41446696789342
 30
0.0
 11
511.8682409708108
 21
875.22653950186566
 31
0.0
  0
LINE
  5
115
  8
DETAIL
  6
CONTINUOUS
 62
     5
 10
513.50000021759831
 20
873.08845681584535
 30
0.0
 11
512.71010087403192
 21
874.41446696789342
 31
0.0
  0
LINE
  5
116
  8
DETAIL
  6
CONTINUOUS
 62
     5
 10
514.21393830505986
 20
871.2887992008981
 30
0.0
 11
513.50000021759831
 21
873.08845681584535
 31
0.0
  0
LINE
  5
117
  8
DETAIL
  6
CONTINUOUS
 62
     5
 10
514.83022248476482
 20
869.07017581948048
 30
0.0
 11
514.21393830505986
 21
871.2887992008981
 31
0.0
  0
LINE
  5
118
  8
DETAIL
  6
CONTINUOUS
 62
     5
 10
515.33012727018445
 20
866.49999843325702
 30
0.0
 11
514.83022248476482
 21
869.07017581948048
 31
0.0
  0
LINE
  5
119
  8
DETAIL
  6
CONTINUOUS
 62
     5
 10
515.6984633044467
 20
863.65636059652024
 30
0.0
 11
515.33012727018445
 21
866.49999843325702
 31
0.0
  0
LINE
  5
11A
  8
DETAIL
  6
CONTINUOUS
 62
     5
 10
515.92403888139768
 20
860.62566482248803
 30
0.0
 11
515.6984633044467
 21
863.65636059652024
 31
0.0
  0
LINE
  5
11B
  8
DETAIL
  6
CONTINUOUS
 62
     5
 10
515.99999999998897
 20
857.49999728632417
 30
0.0
 11
515.92403888139768
 21
860.62566482248803
 31
0.0
  0
LINE
  5
11C
  8
DETAIL
  6
CONTINUOUS
 62
     5
 10
480.1317590291801
 20
875.22653950186566
 30
0.0
 11
479.28989912595893
 21
874.41446696789342
 31
0.0
  0
LINE
  5
11D
  8
DETAIL
  6
CONTINUOUS
 62
     5
 10
480.99999999999801
 20
875.50000000001262
 30
0.0
 11
480.1317590291801
 21
875.22653950186566
 31
0.0
  0
LINE
  5
11E
  8
DETAIL
  6
CONTINUOUS
 62
     5
 10
515.99999999998897
 20
844.00000000000705
 30
0.0
 11
550.00000000000364
 21
844.00000000000705
 31
0.0
  0
LINE
  5
11F
  8
DETAIL
  6
CONTINUOUS
 62
     5
 10
550.00000000000364
 20
847.00000000000364
 30
0.0
 11
515.99999999998897
 21
847.00000000000364
 31
0.0
  0
LINE
  5
120
  8
DETAIL
  6
CONTINUOUS
 62
     5
 10
480.99999999999801
 20
875.50000000001262
 30
0.0
 11
510.99999999999261
 21
875.50000000001262
 31
0.0
  0
LINE
  5
121
  8
DETAIL
  6
CONTINUOUS
 62
     5
 10
550.00000000000364
 20
1879.999999999998
 30
0.0
 11
550.00000000000364
 21
1670.800000000012
 31
0.0
  0
LINE
  5
122
  8
SIZE
  6
CONTINUOUS
 62
    30
 10
570.00000000000364
 20
1879.999999999998
 30
0.0
 11
775.20617860252105
 21
1879.999999999998
 31
0.0
  0
LINE
  5
123
  8
SIZE
  6
CONTINUOUS
 62
    30
 10
570.00000000000364
 20
-0.0000000000000057
 30
0.0
 11
775.20617860252059
 21
-0.0000000000000638
 31
0.0
  0
LINE
  5
124
  8
SIZE
  6
CONTINUOUS
 62
    30
 10
755.20617860252105
 20
1879.999999999998
 30
0.0
 11
755.20617860252048
 21
-0.0000000000000581
 31
0.0
  0
CIRCLE
  5
125
  8
SIZE
  6
CONTINUOUS
 62
    30
 10
755.20617860252105
 20
1879.999999999998
 30
0.0
 40
7.5
  0
CIRCLE
  5
126
  8
SIZE
  6
CONTINUOUS
 62
    30
 10
755.20617860252048
 20
-0.0000000000000581
 30
0.0
 40
7.5
  0
TEXT
  5
127
  8
SIZE
  6
CONTINUOUS
 62
    30
 10
735.20617860252037
 20
849.9999999999992
 30
0.0
 40
60.0
  1
1880
 50
90.0
 41
0.9
 72
     1
 11
735.20617860252037
 21
939.99999999999909
 31
0.0
  0
POINT
  5
128
  8
DEFPOINTS
  6
CONTINUOUS
 62
     7
 10
550.00000000000364
 20
1879.999999999998
 30
0.0
  0
POINT
  5
129
  8
DEFPOINTS
  6
CONTINUOUS
 62
     7
 10
550.00000000000364
 20
0.0
 30
0.0
  0
POINT
  5
12A
  8
DEFPOINTS
  6
CONTINUOUS
 62
     7
 10
755.20617860252048
 20
-0.0000000000000581
 30
0.0
  0
LINE
  5
12B
  8
SIZE
  6
CONTINUOUS
 62
    30
 10
550.00000000000364
 20
1899.199999999995
 30
0.0
 11
550.00000000000364
 21
2054.472914064881
 31
0.0
  0
LINE
  5
12C
  8
SIZE
  6
CONTINUOUS
 62
    30
 10
-549.9999999999992
 20
1899.199999999996
 30
0.0
 11
-549.9999999999992
 21
2054.472914064881
 31
0.0
  0
LINE
  5
12D
  8
SIZE
  6
CONTINUOUS
 62
    30
 10
550.00000000000364
 20
2034.472914064881
 30
0.0
 11
-549.9999999999992
 21
2034.472914064881
 31
0.0
  0
CIRCLE
  5
12E
  8
SIZE
  6
CONTINUOUS
 62
    30
 10
550.00000000000364
 20
2034.472914064881
 30
0.0
 40
7.5
  0
CIRCLE
  5
12F
  8
SIZE
  6
CONTINUOUS
 62
    30
 10
-549.9999999999992
 20
2034.472914064881
 30
0.0
 40
7.5
  0
TEXT
  5
130
  8
SIZE
  6
CONTINUOUS
 62
    30
 10
-84.857142857140573
 20
2054.4729140648801
 30
0.0
 40
60.0
  1
1100
 41
0.9
 72
     1
 11
0.0000000000022737
 21
2054.4729140648801
 31
0.0
  0
POINT
  5
131
  8
DEFPOINTS
  6
CONTINUOUS
 62
     7
 10
550.00000000000364
 20
1879.199999999995
 30
0.0
  0
POINT
  5
132
  8
DEFPOINTS
  6
CONTINUOUS
 62
     7
 10
-549.9999999999992
 20
1879.199999999996
 30
0.0
  0
POINT
  5
133
  8
DEFPOINTS
  6
CONTINUOUS
 62
     7
 10
-549.9999999999992
 20
2034.472914064881
 30
0.0
  0
LINE
  5
134
  8
NOTE
  6
CONTINUOUS
 62
     4
 10
-314.99999999999909
 20
287.18579688291322
 30
0.0
 11
-314.99999999999909
 21
240.81420311708641
 31
0.0
  0
LINE
  5
135
  8
NOTE
  6
CONTINUOUS
 62
     4
 10
-338.18579688291283
 20
264.0
 30
0.0
 11
-291.8142031170853
 21
264.0
 31
0.0
  0
LINE
  5
136
  8
NOTE
  6
CONTINUOUS
 62
     4
 10
-238.99999999999889
 20
259.18579688291351
 30
0.0
 11
-238.99999999999889
 21
212.81420311708641
 31
0.0
  0
LINE
  5
137
  8
NOTE
  6
CONTINUOUS
 62
     4
 10
-262.1857968829126
 20
236.0
 30
0.0
 11
-215.8142031170855
 21
236.0
 31
0.0
  0
LINE
  5
138
  8
NOTE
  6
CONTINUOUS
 62
     4
 10
-474.99999999999631
 20
23.185796882913561
 30
0.0
 11
-474.99999999999631
 21
-23.185796882913561
 31
0.0
  0
LINE
  5
139
  8
NOTE
  6
CONTINUOUS
 62
     4
 10
-498.18579688290959
 20
0.0
 30
0.0
 11
-451.81420311708263
 21
0.0
 31
0.0
  0
LINE
  5
13A
  8
NOTE
  6
CONTINUOUS
 62
     4
 10
475.00000000000358
 20
23.185796882913561
 30
0.0
 11
475.00000000000358
 21
-23.185796882913561
 31
0.0
  0
LINE
  5
13B
  8
NOTE
  6
CONTINUOUS
 62
     4
 10
451.81420311709002
 20
0.0
 30
0.0
 11
498.1857968829172
 21
0.0
 31
0.0
  0
CIRCLE
  5
13C
  8
FIX
  6
CONTINUOUS
 62
    11
 10
475.00000000000358
 20
0.0
 30
0.0
 40
11.22541119637753
  0
CIRCLE
  5
13D
  8
FIX
  6
CONTINUOUS
 62
    11
 10
-474.99999999999631
 20
0.0
 30
0.0
 40
11.22541119637753
  0
LINE
  5
13E
  8
SERVICESPACE
  6
DASHDOT
 62
     2
 10
-550.0
 20
0.0
 30
0.0
 11
550.00000000000364
 21
0.0
 31
0.0
  0
LINE
  5
13F
  8
SERVICESPACE
  6
DASHDOT
 62
     2
 10
550.00000000000364
 20
0.0
 30
0.0
 11
550.00000000000364
 21
-600.0
 31
0.0
  0
LINE
  5
140
  8
SERVICESPACE
  6
DASHDOT
 62
     2
 10
550.00000000000364
 20
-600.0
 30
0.0
 11
-550.0
 21
-600.0
 31
0.0
  0
LINE
  5
141
  8
SERVICESPACE
  6
DASHDOT
 62
     2
 10
-550.0
 20
-600.0
 30
0.0
 11
-550.00000000000068
 21
0.0
 31
0.0
  0
LINE
  5
142
  8
SERVICESPACE
  6
DASHDOT
 62
     2
 10
-550.00000000000068
 20
0.0
 30
0.0
 11
550.00000000000364
 21
-600.0
 31
0.0
  0
LINE
  5
143
  8
SERVICESPACE
  6
DASHDOT
 62
     2
 10
550.00000000000364
 20
0.0
 30
0.0
 11
-550.0
 21
-600.0
 31
0.0
  0
LINE
  5
144
  8
NOTE
  6
CONTINUOUS
 62
     4
 10
-153.26455882420481
 20
1995.489630605518
 30
0.0
 11
-193.3090527062995
 21
1955.5283929465861
 31
0.0
  0
LINE
  5
145
  8
NOTE
  6
CONTINUOUS
 62
     4
 10
-113.22006494210829
 20
1955.5283929465861
 30
0.0
 11
-153.26455882420481
 21
1995.489630605518
 31
0.0
  0
LINE
  5
146
  8
NOTE
  6
CONTINUOUS
 62
     4
 10
-153.26455882420481
 20
1995.489630605518
 30
0.0
 11
-193.3090527062995
 21
1955.5283929465861
 31
0.0
  0
LINE
  5
147
  8
NOTE
  6
CONTINUOUS
 62
     4
 10
-113.22006494210829
 20
1955.5283929465861
 30
0.0
 11
-153.26455882420481
 21
1995.489630605518
 31
0.0
  0
LINE
  5
148
  8
NOTE
  6
CONTINUOUS
 62
     4
 10
-173.28680576525031
 20
1922.9433173698631
 30
0.0
 11
-133.24231188315571
 21
1922.9433173698631
 31
0.0
  0
LINE
  5
149
  8
NOTE
  6
CONTINUOUS
 62
     4
 10
-173.28680576525031
 20
1922.9433173698631
 30
0.0
 11
-133.24231188315571
 21
1922.9433173698631
 31
0.0
  0
LINE
  5
14A
  8
NOTE
  6
CONTINUOUS
 62
     4
 10
-173.28680576525031
 20
1955.5283929465861
 30
0.0
 11
-193.3090527062995
 21
1955.5283929465861
 31
0.0
  0
LINE
  5
14B
  8
NOTE
  6
CONTINUOUS
 62
     4
 10
-173.28680576525031
 20
1955.5283929465861
 30
0.0
 11
-193.3090527062995
 21
1955.5283929465861
 31
0.0
  0
LINE
  5
14C
  8
NOTE
  6
CONTINUOUS
 62
     4
 10
-173.28680576525031
 20
1955.5283929465861
 30
0.0
 11
-173.28680576525031
 21
1922.9433173698631
 31
0.0
  0
LINE
  5
14D
  8
NOTE
  6
CONTINUOUS
 62
     4
 10
-173.28680576525031
 20
1955.5283929465861
 30
0.0
 11
-173.28680576525031
 21
1922.9433173698631
 31
0.0
  0
LINE
  5
14E
  8
NOTE
  6
CONTINUOUS
 62
     4
 10
-113.22006494210829
 20
1955.5283929465861
 30
0.0
 11
-133.24231188315571
 21
1955.5283929465861
 31
0.0
  0
LINE
  5
14F
  8
NOTE
  6
CONTINUOUS
 62
     4
 10
-133.24231188315571
 20
1955.5283929465861
 30
0.0
 11
-133.24231188315571
 21
1922.9433173698631
 31
0.0
  0
LINE
  5
150
  8
NOTE
  6
CONTINUOUS
 62
     4
 10
-113.22006494210829
 20
1955.5283929465861
 30
0.0
 11
-133.24231188315571
 21
1955.5283929465861
 31
0.0
  0
LINE
  5
151
  8
NOTE
  6
CONTINUOUS
 62
     4
 10
-133.24231188315571
 20
1955.5283929465861
 30
0.0
 11
-133.24231188315571
 21
1922.9433173698631
 31
0.0
  0
TEXT
  5
152
  8
NOTE
  6
CONTINUOUS
 62
     4
 10
-97.434244025018444
 20
1927.0630608197639
 30
0.0
 40
60.0
  1
空気吹出
 50
359.99999749558327
 41
0.7031250221965211
  7
STANDARD1
  0
LINE
  5
153
  8
NOTE
  6
CONTINUOUS
 62
     4
 10
150.32428928941951
 20
1995.489630605518
 30
0.0
 11
190.36878317151411
 21
1955.5283929465861
 31
0.0
  0
LINE
  5
154
  8
NOTE
  6
CONTINUOUS
 62
     4
 10
110.27979540732299
 20
1955.5283929465861
 30
0.0
 11
150.32428928941951
 21
1995.489630605518
 31
0.0
  0
LINE
  5
155
  8
NOTE
  6
CONTINUOUS
 62
     4
 10
150.32428928941951
 20
1995.489630605518
 30
0.0
 11
190.36878317151411
 21
1955.5283929465861
 31
0.0
  0
LINE
  5
156
  8
NOTE
  6
CONTINUOUS
 62
     4
 10
110.27979540732299
 20
1955.5283929465861
 30
0.0
 11
150.32428928941951
 21
1995.489630605518
 31
0.0
  0
LINE
  5
157
  8
NOTE
  6
CONTINUOUS
 62
     4
 10
170.34653623046501
 20
1922.9433173698631
 30
0.0
 11
130.30204234837029
 21
1922.9433173698631
 31
0.0
  0
LINE
  5
158
  8
NOTE
  6
CONTINUOUS
 62
     4
 10
170.34653623046501
 20
1922.9433173698631
 30
0.0
 11
130.30204234837029
 21
1922.9433173698631
 31
0.0
  0
LINE
  5
159
  8
NOTE
  6
CONTINUOUS
 62
     4
 10
170.34653623046501
 20
1955.5283929465861
 30
0.0
 11
190.36878317151411
 21
1955.5283929465861
 31
0.0
  0
LINE
  5
15A
  8
NOTE
  6
CONTINUOUS
 62
     4
 10
170.34653623046501
 20
1955.5283929465861
 30
0.0
 11
190.36878317151411
 21
1955.5283929465861
 31
0.0
  0
LINE
  5
15B
  8
NOTE
  6
CONTINUOUS
 62
     4
 10
170.34653623046501
 20
1955.5283929465861
 30
0.0
 11
170.34653623046501
 21
1922.9433173698631
 31
0.0
  0
LINE
  5
15C
  8
NOTE
  6
CONTINUOUS
 62
     4
 10
170.34653623046501
 20
1955.5283929465861
 30
0.0
 11
170.34653623046501
 21
1922.9433173698631
 31
0.0
  0
LINE
  5
15D
  8
NOTE
  6
CONTINUOUS
 62
     4
 10
110.27979540732299
 20
1955.5283929465861
 30
0.0
 11
130.30204234837029
 21
1955.5283929465861
 31
0.0
  0
LINE
  5
15E
  8
NOTE
  6
CONTINUOUS
 62
     4
 10
130.30204234837029
 20
1955.5283929465861
 30
0.0
 11
130.30204234837029
 21
1922.9433173698631
 31
0.0
  0
LINE
  5
15F
  8
NOTE
  6
CONTINUOUS
 62
     4
 10
110.27979540732299
 20
1955.5283929465861
 30
0.0
 11
130.30204234837029
 21
1955.5283929465861
 31
0.0
  0
LINE
  5
160
  8
NOTE
  6
CONTINUOUS
 62
     4
 10
130.30204234837029
 20
1955.5283929465861
 30
0.0
 11
130.30204234837029
 21
1922.9433173698631
 31
0.0
  0
LINE
  5
161
  8
BASIS
  6
DASHDOT
 62
     6
 10
0.000000000001819
 20
1900.0
 30
0.0
 11
0.000000000001819
 21
-70.0
 31
0.0
  0
LINE
  5
162
  8
NOTE
  6
CONTINUOUS
 62
     4
 10
-153.26455882420541
 20
-85.21244063703125
 30
0.0
 11
-193.30905270630041
 21
-125.17367829596149
 31
0.0
  0
LINE
  5
163
  8
NOTE
  6
CONTINUOUS
 62
     4
 10
-113.2200649421092
 20
-125.17367829596149
 30
0.0
 11
-153.26455882420541
 21
-85.21244063703125
 31
0.0
  0
LINE
  5
164
  8
NOTE
  6
CONTINUOUS
 62
     4
 10
-153.26455882420541
 20
-85.21244063703125
 30
0.0
 11
-193.30905270630041
 21
-125.17367829596149
 31
0.0
  0
LINE
  5
165
  8
NOTE
  6
CONTINUOUS
 62
     4
 10
-113.2200649421092
 20
-125.17367829596149
 30
0.0
 11
-153.26455882420541
 21
-85.21244063703125
 31
0.0
  0
LINE
  5
166
  8
NOTE
  6
CONTINUOUS
 62
     4
 10
-173.2868057652513
 20
-157.75875387268559
 30
0.0
 11
-133.2423118831565
 21
-157.75875387268559
 31
0.0
  0
LINE
  5
167
  8
NOTE
  6
CONTINUOUS
 62
     4
 10
-173.2868057652513
 20
-157.75875387268559
 30
0.0
 11
-133.2423118831565
 21
-157.75875387268559
 31
0.0
  0
LINE
  5
168
  8
NOTE
  6
CONTINUOUS
 62
     4
 10
-173.2868057652513
 20
-125.17367829596149
 30
0.0
 11
-193.30905270630041
 21
-125.17367829596149
 31
0.0
  0
LINE
  5
169
  8
NOTE
  6
CONTINUOUS
 62
     4
 10
-173.2868057652513
 20
-125.17367829596149
 30
0.0
 11
-193.30905270630041
 21
-125.17367829596149
 31
0.0
  0
LINE
  5
16A
  8
NOTE
  6
CONTINUOUS
 62
     4
 10
-173.2868057652513
 20
-125.17367829596149
 30
0.0
 11
-173.2868057652513
 21
-157.75875387268559
 31
0.0
  0
LINE
  5
16B
  8
NOTE
  6
CONTINUOUS
 62
     4
 10
-173.2868057652513
 20
-125.17367829596149
 30
0.0
 11
-173.2868057652513
 21
-157.75875387268559
 31
0.0
  0
LINE
  5
16C
  8
NOTE
  6
CONTINUOUS
 62
     4
 10
-113.2200649421092
 20
-125.17367829596149
 30
0.0
 11
-133.2423118831565
 21
-125.17367829596149
 31
0.0
  0
LINE
  5
16D
  8
NOTE
  6
CONTINUOUS
 62
     4
 10
-133.2423118831565
 20
-125.17367829596149
 30
0.0
 11
-133.2423118831565
 21
-157.75875387268559
 31
0.0
  0
LINE
  5
16E
  8
NOTE
  6
CONTINUOUS
 62
     4
 10
-113.2200649421092
 20
-125.17367829596149
 30
0.0
 11
-133.2423118831565
 21
-125.17367829596149
 31
0.0
  0
LINE
  5
16F
  8
NOTE
  6
CONTINUOUS
 62
     4
 10
-133.2423118831565
 20
-125.17367829596149
 30
0.0
 11
-133.2423118831565
 21
-157.75875387268559
 31
0.0
  0
TEXT
  5
170
  8
NOTE
  6
CONTINUOUS
 62
     4
 10
-97.434244025019325
 20
-153.63901042278459
 30
0.0
 40
60.0
  1
空気吸込
 50
359.99999749558327
 41
0.7031250221965211
  7
STANDARD1
  0
LINE
  5
171
  8
NOTE
  6
CONTINUOUS
 62
     4
 10
150.32428928941769
 20
-85.21244063703125
 30
0.0
 11
190.3687831715124
 21
-125.17367829596149
 31
0.0
  0
LINE
  5
172
  8
NOTE
  6
CONTINUOUS
 62
     4
 10
110.279795407322
 20
-125.17367829596149
 30
0.0
 11
150.32428928941769
 21
-85.21244063703125
 31
0.0
  0
LINE
  5
173
  8
NOTE
  6
CONTINUOUS
 62
     4
 10
150.32428928941769
 20
-85.21244063703125
 30
0.0
 11
190.3687831715124
 21
-125.17367829596149
 31
0.0
  0
LINE
  5
174
  8
NOTE
  6
CONTINUOUS
 62
     4
 10
110.279795407322
 20
-125.17367829596149
 30
0.0
 11
150.32428928941769
 21
-85.21244063703125
 31
0.0
  0
LINE
  5
175
  8
NOTE
  6
CONTINUOUS
 62
     4
 10
170.34653623046501
 20
-157.75875387268559
 30
0.0
 11
130.30204234836941
 21
-157.75875387268559
 31
0.0
  0
LINE
  5
176
  8
NOTE
  6
CONTINUOUS
 62
     4
 10
170.34653623046501
 20
-157.75875387268559
 30
0.0
 11
130.30204234836941
 21
-157.75875387268559
 31
0.0
  0
LINE
  5
177
  8
NOTE
  6
CONTINUOUS
 62
     4
 10
170.34653623046501
 20
-125.17367829596149
 30
0.0
 11
190.3687831715124
 21
-125.17367829596149
 31
0.0
  0
LINE
  5
178
  8
NOTE
  6
CONTINUOUS
 62
     4
 10
170.34653623046501
 20
-125.17367829596149
 30
0.0
 11
190.3687831715124
 21
-125.17367829596149
 31
0.0
  0
LINE
  5
179
  8
NOTE
  6
CONTINUOUS
 62
     4
 10
170.34653623046501
 20
-125.17367829596149
 30
0.0
 11
170.34653623046501
 21
-157.75875387268559
 31
0.0
  0
LINE
  5
17A
  8
NOTE
  6
CONTINUOUS
 62
     4
 10
170.34653623046501
 20
-125.17367829596149
 30
0.0
 11
170.34653623046501
 21
-157.75875387268559
 31
0.0
  0
LINE
  5
17B
  8
NOTE
  6
CONTINUOUS
 62
     4
 10
110.279795407322
 20
-125.17367829596149
 30
0.0
 11
130.30204234836941
 21
-125.17367829596149
 31
0.0
  0
LINE
  5
17C
  8
NOTE
  6
CONTINUOUS
 62
     4
 10
130.30204234836941
 20
-125.17367829596149
 30
0.0
 11
130.30204234836941
 21
-157.75875387268559
 31
0.0
  0
LINE
  5
17D
  8
NOTE
  6
CONTINUOUS
 62
     4
 10
110.279795407322
 20
-125.17367829596149
 30
0.0
 11
130.30204234836941
 21
-125.17367829596149
 31
0.0
  0
LINE
  5
17E
  8
NOTE
  6
CONTINUOUS
 62
     4
 10
130.30204234836941
 20
-125.17367829596149
 30
0.0
 11
130.30204234836941
 21
-157.75875387268559
 31
0.0
  0
TEXT
  5
17F
  8
NOTE
  6
CONTINUOUS
 62
     4
 10
-210.08652816536039
 20
-519.11289501838655
 30
0.0
 40
60.0
  1
空気吸込みスペース
 50
0.0000025044165917
 41
0.7031250221965211
  7
STANDARD1
  0
LINE
  5
180
  8
SIZE
  6
CONTINUOUS
 62
    30
 10
-314.99999999999909
 20
220.81420311708641
 30
0.0
 11
-314.99999999999909
 21
-230.5391818449061
 31
0.0
  0
LINE
  5
181
  8
SIZE
  6
CONTINUOUS
 62
    30
 10
-550.00000000000068
 20
-20.0
 30
0.0
 11
-550.00000000000068
 21
-230.5391818449061
 31
0.0
  0
LINE
  5
182
  8
SIZE
  6
CONTINUOUS
 62
    30
 10
-314.99999999999909
 20
-210.53918184490601
 30
0.0
 11
-550.00000000000068
 21
-210.53918184490601
 31
0.0
  0
CIRCLE
  5
183
  8
SIZE
  6
CONTINUOUS
 62
    30
 10
-314.99999999999909
 20
-210.53918184490601
 30
0.0
 40
7.5
  0
CIRCLE
  5
184
  8
SIZE
  6
CONTINUOUS
 62
    30
 10
-550.00000000000068
 20
-210.53918184490601
 30
0.0
 40
7.5
  0
TEXT
  5
185
  8
SIZE
  6
CONTINUOUS
 62
    30
 10
-471.60328975697519
 20
-190.53918184490601
 30
0.0
 40
60.0
  1
235
 41
0.9
 72
     1
 11
-402.17471832840391
 21
-190.53918184490601
 31
0.0
  0
POINT
  5
186
  8
DEFPOINTS
  6
CONTINUOUS
 62
     7
 10
-314.99999999999909
 20
240.81420311708641
 30
0.0
  0
POINT
  5
187
  8
DEFPOINTS
  6
CONTINUOUS
 62
     7
 10
-550.00000000000068
 20
0.0
 30
0.0
  0
POINT
  5
188
  8
DEFPOINTS
  6
CONTINUOUS
 62
     7
 10
-550.00000000000068
 20
-210.53918184490601
 30
0.0
  0
LINE
  5
189
  8
SIZE
  6
CONTINUOUS
 62
    30
 10
-238.99999999999889
 20
192.81420311708641
 30
0.0
 11
-238.99999999999901
 21
-376.42370887720972
 31
0.0
  0
LINE
  5
18A
  8
SIZE
  6
CONTINUOUS
 62
    30
 10
-549.9999999999992
 20
-20.0
 30
0.0
 11
-549.9999999999992
 21
-376.42370887720972
 31
0.0
  0
LINE
  5
18B
  8
SIZE
  6
CONTINUOUS
 62
    30
 10
-238.99999999999901
 20
-356.42370887720972
 30
0.0
 11
-549.9999999999992
 21
-356.42370887720972
 31
0.0
  0
CIRCLE
  5
18C
  8
SIZE
  6
CONTINUOUS
 62
    30
 10
-238.99999999999901
 20
-356.42370887720972
 30
0.0
 40
7.5
  0
CIRCLE
  5
18D
  8
SIZE
  6
CONTINUOUS
 62
    30
 10
-549.9999999999992
 20
-356.42370887720972
 30
0.0
 40
7.5
  0
TEXT
  5
18E
  8
SIZE
  6
CONTINUOUS
 62
    30
 10
-447.21428571428481
 20
-336.42370887720972
 30
0.0
 40
60.0
  1
311
 41
0.9
 72
     1
 11
-394.49999999999909
 21
-336.42370887720972
 31
0.0
  0
POINT
  5
18F
  8
DEFPOINTS
  6
CONTINUOUS
 62
     7
 10
-238.99999999999889
 20
212.81420311708641
 30
0.0
  0
POINT
  5
190
  8
DEFPOINTS
  6
CONTINUOUS
 62
     7
 10
-549.9999999999992
 20
0.0
 30
0.0
  0
POINT
  5
191
  8
DEFPOINTS
  6
CONTINUOUS
 62
     7
 10
-549.9999999999992
 20
-356.42370887720972
 30
0.0
  0
LINE
  5
192
  8
SIZE
  6
CONTINUOUS
 62
    30
 10
-474.99999999999631
 20
-43.185796882913557
 30
0.0
 11
-474.99999999999631
 21
-749.95251568489743
 31
0.0
  0
LINE
  5
193
  8
SIZE
  6
CONTINUOUS
 62
    30
 10
475.00000000000358
 20
-43.185796882913557
 30
0.0
 11
475.00000000000352
 21
-749.95251568489743
 31
0.0
  0
LINE
  5
194
  8
SIZE
  6
CONTINUOUS
 62
    30
 10
-474.99999999999631
 20
-729.95251568489743
 30
0.0
 11
475.00000000000352
 21
-729.95251568489743
 31
0.0
  0
CIRCLE
  5
195
  8
SIZE
  6
CONTINUOUS
 62
    30
 10
-474.99999999999631
 20
-729.95251568489743
 30
0.0
 40
7.5
  0
CIRCLE
  5
196
  8
SIZE
  6
CONTINUOUS
 62
    30
 10
475.00000000000352
 20
-729.95251568489743
 30
0.0
 40
7.5
  0
TEXT
  5
197
  8
SIZE
  6
CONTINUOUS
 62
    30
 10
-266.14285714285347
 20
-694.23822997061154
 30
0.0
 40
60.0
  1
950(据付ピッチ)
 41
0.9
 72
     1
 11
0.0000000000035811
 21
-694.23822997061154
 31
0.0
  0
POINT
  5
198
  8
DEFPOINTS
  6
CONTINUOUS
 62
     7
 10
-474.99999999999631
 20
-23.185796882913561
 30
0.0
  0
POINT
  5
199
  8
DEFPOINTS
  6
CONTINUOUS
 62
     7
 10
475.00000000000358
 20
-23.185796882913561
 30
0.0
  0
POINT
  5
19A
  8
DEFPOINTS
  6
CONTINUOUS
 62
     7
 10
475.00000000000352
 20
-729.95251568489743
 30
0.0
  0
LINE
  5
19B
  8
SIZE
  6
CONTINUOUS
 62
    30
 10
475.00000000000358
 20
-43.185796882913557
 30
0.0
 11
475.00000000000352
 21
-749.95251568489743
 31
0.0
  0
LINE
  5
19C
  8
SIZE
  6
CONTINUOUS
 62
    30
 10
550.00000000000364
 20
-20.0
 30
0.0
 11
550.00000000000364
 21
-749.95251568489743
 31
0.0
  0
LINE
  5
19D
  8
SIZE
  6
CONTINUOUS
 62
    30
 10
475.00000000000352
 20
-729.95251568489743
 30
0.0
 11
550.00000000000364
 21
-729.95251568489743
 31
0.0
  0
LINE
  5
19E
  8
SIZE
  6
CONTINUOUS
 62
    30
 10
550.00000000000364
 20
-729.95251568489743
 30
0.0
 11
707.4285714285752
 21
-729.95251568489743
 31
0.0
  0
CIRCLE
  5
19F
  8
SIZE
  6
CONTINUOUS
 62
    30
 10
475.00000000000352
 20
-729.95251568489743
 30
0.0
 40
7.5
  0
CIRCLE
  5
1A0
  8
SIZE
  6
CONTINUOUS
 62
    30
 10
550.00000000000364
 20
-729.95251568489743
 30
0.0
 40
7.5
  0
TEXT
  5
1A1
  8
SIZE
  6
CONTINUOUS
 62
    30
 10
600.00000000000387
 20
-709.95251568489755
 30
0.0
 40
60.0
  1
75
 41
0.9
 72
     1
 11
643.71428571428953
 21
-709.95251568489755
 31
0.0
  0
POINT
  5
1A2
  8
DEFPOINTS
  6
CONTINUOUS
 62
     7
 10
475.00000000000358
 20
-23.185796882913561
 30
0.0
  0
POINT
  5
1A3
  8
DEFPOINTS
  6
CONTINUOUS
 62
     7
 10
550.00000000000364
 20
0.0
 30
0.0
  0
POINT
  5
1A4
  8
DEFPOINTS
  6
CONTINUOUS
 62
     7
 10
550.00000000000364
 20
-729.95251568489743
 30
0.0
  0
LINE
  5
1A5
  8
SIZE
  6
CONTINUOUS
 62
    30
 10
-282.18579688291283
 20
236.0
 30
0.0
 11
-722.24701959460253
 21
236.0
 31
0.0
  0
LINE
  5
1A6
  8
SIZE
  6
CONTINUOUS
 62
    30
 10
-570.0000000000008
 20
0.0000000000000057
 30
0.0
 11
-722.24701959460253
 21
0.0000000000000488
 31
0.0
  0
LINE
  5
1A7
  8
SIZE
  6
CONTINUOUS
 62
    30
 10
-702.24701959460253
 20
236.0
 30
0.0
 11
-702.24701959460253
 21
0.0000000000000431
 31
0.0
  0
CIRCLE
  5
1A8
  8
SIZE
  6
CONTINUOUS
 62
    30
 10
-702.24701959460253
 20
236.0
 30
0.0
 40
7.5
  0
CIRCLE
  5
1A9
  8
SIZE
  6
CONTINUOUS
 62
    30
 10
-702.24701959460253
 20
0.0000000000000431
 30
0.0
 40
7.5
  0
TEXT
  5
1AA
  8
SIZE
  6
CONTINUOUS
 62
    30
 10
-722.24701959460253
 20
49.857142857142762
 30
0.0
 40
60.0
  1
236
 50
90.0
 41
0.9
 72
     1
 11
-722.24701959460253
 21
117.9999999999999
 31
0.0
  0
POINT
  5
1AB
  8
DEFPOINTS
  6
CONTINUOUS
 62
     7
 10
-262.1857968829126
 20
236.0
 30
0.0
  0
POINT
  5
1AC
  8
DEFPOINTS
  6
CONTINUOUS
 62
     7
 10
-550.00000000000068
 20
0.0
 30
0.0
  0
POINT
  5
1AD
  8
DEFPOINTS
  6
CONTINUOUS
 62
     7
 10
-702.24701959460253
 20
0.0000000000000431
 30
0.0
  0
LINE
  5
1AE
  8
SIZE
  6
CONTINUOUS
 62
    30
 10
-358.1857968829126
 20
264.0
 30
0.0
 11
-846.9723170032247
 21
264.0
 31
0.0
  0
LINE
  5
1AF
  8
SIZE
  6
CONTINUOUS
 62
    30
 10
-569.9999999999992
 20
0.0000000000000057
 30
0.0
 11
-846.9723170032247
 21
0.0000000000000841
 31
0.0
  0
LINE
  5
1B0
  8
SIZE
  6
CONTINUOUS
 62
    30
 10
-826.97231700322459
 20
264.0
 30
0.0
 11
-826.97231700322482
 21
0.0000000000000785
 31
0.0
  0
CIRCLE
  5
1B1
  8
SIZE
  6
CONTINUOUS
 62
    30
 10
-826.97231700322459
 20
264.0
 30
0.0
 40
7.5
  0
CIRCLE
  5
1B2
  8
SIZE
  6
CONTINUOUS
 62
    30
 10
-826.97231700322482
 20
0.0000000000000785
 30
0.0
 40
7.5
  0
TEXT
  5
1B3
  8
SIZE
  6
CONTINUOUS
 62
    30
 10
-846.9723170032247
 20
61.285714285714292
 30
0.0
 40
60.0
  1
264
 50
90.0
 41
0.9
 72
     1
 11
-846.9723170032247
 21
132.0
 31
0.0
  0
POINT
  5
1B4
  8
DEFPOINTS
  6
CONTINUOUS
 62
     7
 10
-338.18579688291283
 20
264.0
 30
0.0
  0
POINT
  5
1B5
  8
DEFPOINTS
  6
CONTINUOUS
 62
     7
 10
-549.9999999999992
 20
0.0
 30
0.0
  0
POINT
  5
1B6
  8
DEFPOINTS
  6
CONTINUOUS
 62
     7
 10
-826.97231700322482
 20
0.0000000000000785
 30
0.0
  0
LINE
  5
1B7
  8
SIZE
  6
CONTINUOUS
 62
    30
 10
570.00000000000364
 20
-0.0000000000000057
 30
0.0
 11
775.20617860252059
 21
-0.0000000000000638
 31
0.0
  0
LINE
  5
1B8
  8
SIZE
  6
CONTINUOUS
 62
    30
 10
570.00000000000364
 20
-600.0
 30
0.0
 11
775.20617860252059
 21
-600.0
 31
0.0
  0
LINE
  5
1B9
  8
SIZE
  6
CONTINUOUS
 62
    30
 10
755.20617860252048
 20
-0.0000000000000581
 30
0.0
 11
755.20617860252048
 21
-600.0
 31
0.0
  0
CIRCLE
  5
1BA
  8
SIZE
  6
CONTINUOUS
 62
    30
 10
755.20617860252048
 20
-0.0000000000000581
 30
0.0
 40
7.5
  0
CIRCLE
  5
1BB
  8
SIZE
  6
CONTINUOUS
 62
    30
 10
755.20617860252048
 20
-600.0
 30
0.0
 40
7.5
  0
TEXT
  5
1BC
  8
SIZE
  6
CONTINUOUS
 62
    30
 10
735.20617860252037
 20
-434.74285714285702
 30
0.0
 40
60.0
  1
600以上
 50
90.0
 41
0.9
 72
     1
 11
735.20617860252037
 21
-299.99999999999989
 31
0.0
  0
POINT
  5
1BD
  8
DEFPOINTS
  6
CONTINUOUS
 62
     7
 10
550.00000000000364
 20
0.0
 30
0.0
  0
POINT
  5
1BE
  8
DEFPOINTS
  6
CONTINUOUS
 62
     7
 10
550.00000000000364
 20
-600.0
 30
0.0
  0
POINT
  5
1BF
  8
DEFPOINTS
  6
CONTINUOUS
 62
     7
 10
755.20617860252048
 20
-600.0
 30
0.0
  0
CIRCLE
  5
1C0
  8
ARRANGE
  6
CONTINUOUS
 62
     1
 10
0.000000000001819
 20
-0.000000000001819
 30
0.0
 40
50.0
  0
LINE
  5
1C1
  8
ARRANGE
  6
CONTINUOUS
 62
     1
 10
50.037350031330789
 20
-49.522353150327028
 30
0.0
 11
-50.037350031327151
 21
49.52235315032339
 31
0.0
  0
LINE
  5
1C2
  8
ARRANGE
  6
CONTINUOUS
 62
     1
 10
49.963763310503047
 20
49.596594797983933
 30
0.0
 11
-49.963763310499402
 21
-49.596594797983933
 31
0.0
  0
TEXT
  5
1C3
  8
NOTE
  6
CONTINUOUS
 62
     4
 10
-931.2376100412564
 20
514.07176043069921
 30
0.0
 40
60.0
  1
RG %%C19.05
 50
0.0000025044165917
 41
0.7
  7
STANDARD1
  0
LINE
  5
1C4
  8
NOTE
  6
CONTINUOUS
 62
     4
 10
-577.22437961427374
 20
500.3944240069394
 30
0.0
 11
-940.90937053927166
 21
500.3944240069394
 31
0.0
  0
TEXT
  5
1C5
  8
NOTE
  6
CONTINUOUS
 62
     4
 10
-894.39083743806441
 20
387.78229834535529
 30
0.0
 40
60.0
  1
RL %%C12.7
 50
0.0000025044165917
 41
0.7
  7
STANDARD1
  0
LINE
  5
1C6
  8
NOTE
  6
CONTINUOUS
 62
     4
 10
-579.76114840779496
 20
374.10496192159547
 30
0.0
 11
-904.0625979360791
 21
374.10496192159547
 31
0.0
  0
LINE
  5
1C7
  8
NOTE
  6
CONTINUOUS
 62
     4
 10
-314.99999999999909
 20
264.0
 30
0.0
 11
-579.76114840779496
 21
374.10496192159547
 31
0.0
  0
LINE
  5
1C8
  8
NOTE
  6
CONTINUOUS
 62
     4
 10
-238.99999999999889
 20
236.0
 30
0.0
 11
-577.22437961427374
 21
500.3944240069394
 31
0.0
  0
TEXT
  5
1C9
  8
NOTE
  6
CONTINUOUS
 62
     4
 10
-980.53861398441563
 20
-121.90882311869601
 30
0.0
 40
60.0
  1
AH 4-%%C12.5
 50
0.0000025044165917
 41
0.7
  7
STANDARD1
  0
LINE
  5
1CA
  8
NOTE
  6
CONTINUOUS
 62
     4
 10
-585.57691035056814
 20
-137.7353538936822
 30
0.0
 11
-987.50868488579931
 21
-137.7353538936822
 31
0.0
  0
LINE
  5
1CB
  8
NOTE
  6
CONTINUOUS
 62
     4
 10
-474.99999999999631
 20
0.0
 30
0.0
 11
-585.57691035056814
 21
-137.7353538936822
 31
0.0
  0
LINE
  5
1CC
  8
NOTE
  6
CONTINUOUS
 62
     4
 10
-238.99999999999889
 20
236.0
 30
0.0
 11
-269.9938719021111
 21
250.89058677508541
 31
0.0
  0
LINE
  5
1CD
  8
NOTE
  6
CONTINUOUS
 62
     4
 10
-238.99999999999889
 20
236.0
 30
0.0
 11
-258.3961866276386
 21
264.39256265811122
 31
0.0
  0
LINE
  5
1CE
  8
NOTE
  6
CONTINUOUS
 62
     4
 10
-314.99999999999909
 20
264.0
 30
0.0
 11
-348.83290084331122
 21
270.1387694628047
 31
0.0
  0
LINE
  5
1CF
  8
NOTE
  6
CONTINUOUS
 62
     4
 10
-314.99999999999909
 20
264.0
 30
0.0
 11
-341.23076655867681
 21
286.23278110657878
 31
0.0
  0
LINE
  5
1D0
  8
NOTE
  6
CONTINUOUS
 62
     4
 10
-474.99999999999818
 20
0.0
 30
0.0
 11
-488.68447544341689
 21
-31.544964761897049
 31
0.0
  0
LINE
  5
1D1
  8
NOTE
  6
CONTINUOUS
 62
     4
 10
-474.99999999999818
 20
0.0
 30
0.0
 11
-502.62358605072762
 21
-20.476502721092391
 31
0.0
  0
LINE
  5
1D2
  8
OUTLINE
  6
CONTINUOUS
 62
     3
 10
-549.9999999999992
 20
1879.999999999998
 30
0.0
 11
550.00000000000364
 21
1879.999999999998
 31
0.0
  0
LINE
  5
1D3
  8
OUTLINE
  6
CONTINUOUS
 62
     3
 10
550.00000000000364
 20
1879.999999999998
 30
0.0
 11
550.00000000000364
 21
0.0
 31
0.0
  0
LINE
  5
1D4
  8
OUTLINE
  6
CONTINUOUS
 62
     3
 10
550.00000000000364
 20
0.0
 30
0.0
 11
-549.9999999999992
 21
0.0
 31
0.0
  0
LINE
  5
1D5
  8
OUTLINE
  6
CONTINUOUS
 62
     3
 10
-549.9999999999992
 20
0.0
 30
0.0
 11
-549.9999999999992
 21
1879.999999999998
 31
0.0
  0
LINE
  5
1D6
  8
OUTLINE
  6
CONTINUOUS
 62
     3
 10
-549.9999999999992
 20
97.000000000001805
 30
0.0
 11
550.00000000000364
 21
97.000000000001805
 31
0.0
  0
TEXT
  5
1D7
  8
ETC
  6
CONTINUOUS
 62
    61
 10
254.17991606834039
 20
2127.221172327786
 30
0.0
 40
70.0
  1
PVDY-P200NM-E1（下吸込＋前吸込）_2
 50
0.0000029998804485
 41
0.8
  0
LINE
  5
403
  8
DETAIL
  6
CONTINUOUS
 62
     5
 10
510.00000000000227
 20
397.5
 30
0.0
 11
-509.99999999999761
 21
397.5
 31
0.0
  0
LINE
  5
404
  8
DETAIL
  6
CONTINUOUS
 62
     5
 10
510.00000000000227
 20
336.0
 30
0.0
 11
-509.99999999999761
 21
336.0
 31
0.0
  0
LINE
  5
405
  8
DETAIL
  6
CONTINUOUS
 62
     5
 10
510.00000000000227
 20
274.5
 30
0.0
 11
-509.99999999999761
 21
274.5
 31
0.0
  0
LINE
  5
406
  8
DETAIL
  6
CONTINUOUS
 62
     5
 10
510.00000000000227
 20
520.5
 30
0.0
 11
-509.99999999999761
 21
520.5
 31
0.0
  0
LINE
  5
407
  8
DETAIL
  6
CONTINUOUS
 62
     5
 10
510.00000000000227
 20
213.0
 30
0.0
 11
-509.99999999999761
 21
213.0
 31
0.0
  0
LINE
  5
408
  8
DETAIL
  6
CONTINUOUS
 62
     5
 10
510.00000000000227
 20
582.0
 30
0.0
 11
-509.99999999999761
 21
582.0
 31
0.0
  0
LINE
  5
40A
  8
DETAIL
  6
CONTINUOUS
 62
     5
 10
510.00000000000227
 20
151.5
 30
0.0
 11
-214.5
 21
151.5
 31
0.0
  0
LINE
  5
40B
  8
DETAIL
  6
CONTINUOUS
 62
     5
 10
510.00000000000227
 20
459.0
 30
0.0
 11
-509.99999999999761
 21
459.0
 31
0.0
  0
LINE
  5
40D
  8
DETAIL
  6
CONTINUOUS
 62
     5
 10
510.00000000000227
 20
705.0
 30
0.0
 11
-509.99999999999761
 21
705.0
 31
0.0
  0
LINE
  5
40E
  8
DETAIL
  6
CONTINUOUS
 62
     5
 10
510.00000000000227
 20
643.5
 30
0.0
 11
-509.99999999999761
 21
643.5
 31
0.0
  0
LINE
  5
410
  8
DETAIL
  6
CONTINUOUS
 62
     5
 10
-491.9999999999975
 20
121.5
 30
0.0
 11
-491.9999999999975
 21
730.0
 31
0.0
  0
LINE
  5
411
  8
DETAIL
  6
CONTINUOUS
 62
     5
 10
-368.99999999999761
 20
115.0
 30
0.0
 11
-368.99999999999761
 21
730.0
 31
0.0
  0
LINE
  5
412
  8
DETAIL
  6
CONTINUOUS
 62
     5
 10
-430.49999999999761
 20
121.5
 30
0.0
 11
-430.49999999999761
 21
730.0
 31
0.0
  0
LINE
  5
413
  8
DETAIL
  6
CONTINUOUS
 62
     5
 10
-184.49999999999761
 20
121.5
 30
0.0
 11
-184.49999999999761
 21
730.0
 31
0.0
  0
LINE
  5
414
  8
DETAIL
  6
CONTINUOUS
 62
     5
 10
-122.9999999999976
 20
121.5
 30
0.0
 11
-122.9999999999976
 21
730.0
 31
0.0
  0
LINE
  5
415
  8
DETAIL
  6
CONTINUOUS
 62
     5
 10
-245.99999999999761
 20
183.0
 30
0.0
 11
-245.99999999999761
 21
730.0
 31
0.0
  0
LINE
  5
416
  8
DETAIL
  6
CONTINUOUS
 62
     5
 10
-307.49999999999761
 20
183.0
 30
0.0
 11
-307.49999999999761
 21
730.0
 31
0.0
  0
LINE
  5
417
  8
DETAIL
  6
CONTINUOUS
 62
     5
 10
123.0000000000023
 20
121.5
 30
0.0
 11
123.0000000000023
 21
730.0
 31
0.0
  0
LINE
  5
418
  8
DETAIL
  6
CONTINUOUS
 62
     5
 10
184.50000000000239
 20
121.5
 30
0.0
 11
184.50000000000239
 21
730.0
 31
0.0
  0
LINE
  5
419
  8
DETAIL
  6
CONTINUOUS
 62
     5
 10
307.50000000000239
 20
121.5
 30
0.0
 11
307.50000000000239
 21
730.0
 31
0.0
  0
LINE
  5
41A
  8
DETAIL
  6
CONTINUOUS
 62
     5
 10
246.00000000000239
 20
121.5
 30
0.0
 11
246.00000000000239
 21
730.0
 31
0.0
  0
LINE
  5
41B
  8
DETAIL
  6
CONTINUOUS
 62
     5
 10
0.0000000000023734
 20
121.5
 30
0.0
 11
0.0000000000023734
 21
730.0
 31
0.0
  0
LINE
  5
41D
  8
DETAIL
  6
CONTINUOUS
 62
     5
 10
-61.499999999997627
 20
121.5
 30
0.0
 11
-61.499999999997627
 21
730.0
 31
0.0
  0
LINE
  5
41E
  8
DETAIL
  6
CONTINUOUS
 62
     5
 10
492.00000000000227
 20
121.5
 30
0.0
 11
492.00000000000227
 21
730.00000049921675
 31
0.0
  0
LINE
  5
421
  8
DETAIL
  6
CONTINUOUS
 62
     5
 10
369.00000000000239
 20
121.5
 30
0.0
 11
369.00000000000239
 21
730.0
 31
0.0
  0
LINE
  5
60A
  8
DETAIL
  6
CONTINUOUS
 62
     5
 10
-521.50000357258523
 20
96.999997362030612
 30
0.0
 11
-521.50000357258523
 21
730.0
 31
0.0
  0
LINE
  5
610
  8
DETAIL
  6
CONTINUOUS
 62
     5
 10
521.50000182254996
 20
96.999994660553014
 30
0.0
 11
521.50000182254996
 21
729.99999729852243
 31
0.0
  0
LINE
  5
6D5
  8
DETAIL
  6
CONTINUOUS
 62
     5
 10
61.750010016265357
 20
736.74647361883081
 30
0.0
 11
67.500012016265345
 21
736.74647361883081
 31
0.0
  0
ARC
  5
6DA
  8
DETAIL
  6
CONTINUOUS
 62
     5
 10
67.500012016265345
 20
742.74647461883069
 30
0.0
 40
6.0000010000000001
 50
270.0
 51
180.0
  0
CIRCLE
  5
6DB
  8
DETAIL
  6
CONTINUOUS
 62
     5
 10
67.250012016265345
 20
742.74647461883069
 30
0.0
 40
1.5
  0
LINE
  5
6DC
  8
DETAIL
  6
CONTINUOUS
 62
     5
 10
61.500013931882769
 20
742.73943434189709
 30
0.0
 11
61.500013931882769
 21
730.0
 31
0.0
  0
LINE
  5
6E5
  8
DETAIL
  6
CONTINUOUS
 62
     5
 10
430.74999428244382
 20
736.74646916175379
 30
0.0
 11
436.49999628244382
 21
736.74646916175379
 31
0.0
  0
ARC
  5
6E6
  8
DETAIL
  6
CONTINUOUS
 62
     5
 10
436.49999628244382
 20
742.74647016175368
 30
0.0
 40
6.0000010000000001
 50
270.0
 51
180.0
  0
CIRCLE
  5
6E7
  8
DETAIL
  6
CONTINUOUS
 62
     5
 10
436.2499962824437
 20
742.74647016175368
 30
0.0
 40
1.5
  0
LINE
  5
6E8
  8
DETAIL
  6
CONTINUOUS
 62
     5
 10
430.49999819806112
 20
742.73942988482008
 30
0.0
 11
430.49999819806112
 21
729.99999554292287
 31
0.0
  0
LINE
  5
6F1
  8
DETAIL
  6
CONTINUOUS
 62
     5
 10
-368.75000571755618
 20
736.74646916175379
 30
0.0
 11
-363.00000371755618
 21
736.74646916175379
 31
0.0
  0
ARC
  5
6F2
  8
DETAIL
  6
CONTINUOUS
 62
     5
 10
-363.00000371755618
 20
742.74647016175368
 30
0.0
 40
6.0000010000000001
 50
270.0
 51
180.0
  0
CIRCLE
  5
6F3
  8
DETAIL
  6
CONTINUOUS
 62
     5
 10
-363.25000371755618
 20
742.74647016175368
 30
0.0
 40
1.5
  0
LINE
  5
6F4
  8
DETAIL
  6
CONTINUOUS
 62
     5
 10
-369.00000180193882
 20
742.73942988482008
 30
0.0
 11
-369.00000180193882
 21
729.99999554292287
 31
0.0
  0
LINE
  5
700
  8
DETAIL
  6
CONTINUOUS
 62
     5
 10
535.48590896073028
 20
459.00000291561742
 30
0.0
 11
510.00000000000227
 21
459.0
 31
0.0
  0
LINE
  5
709
  8
DETAIL
  6
CONTINUOUS
 62
     5
 10
-529.49295731582777
 20
458.74999571623948
 30
0.0
 11
-529.49295731582777
 21
452.99999371623949
 31
0.0
  0
ARC
  5
70A
  8
DETAIL
  6
CONTINUOUS
 62
     5
 10
-535.49295831582765
 20
452.99999371623949
 30
0.0
 40
6.0000010000000001
 50
90.0
 51
0.0
  0
CIRCLE
  5
70B
  8
DETAIL
  6
CONTINUOUS
 62
     5
 10
-535.49295831582765
 20
453.2499937162396
 30
0.0
 40
1.5
  0
LINE
  5
715
  8
DETAIL
  6
CONTINUOUS
 62
     5
 10
529.4859079607304
 20
458.75000391561741
 30
0.0
 11
529.4859079607304
 21
453.00000191561742
 31
0.0
  0
ARC
  5
716
  8
DETAIL
  6
CONTINUOUS
 62
     5
 10
535.48590896073028
 20
453.00000191561742
 30
0.0
 40
6.0000010000000001
 50
180.0
 51
90.0
  0
CIRCLE
  5
717
  8
DETAIL
  6
CONTINUOUS
 62
     5
 10
535.48590896073028
 20
453.25000191561742
 30
0.0
 40
1.5
  0
LINE
  5
71E
  8
DETAIL
  6
CONTINUOUS
 62
     5
 10
-509.9999999999975
 20
459.0
 30
0.0
 11
-535.48590896072517
 21
458.99999708438258
 31
0.0
  0
LINE
  5
724
  8
DETAIL
  6
CONTINUOUS
 62
     5
 10
-368.99999999999761
 20
115.0
 30
0.0
 11
-394.48590896072528
 21
114.9999970843825
 31
0.0
  0
LINE
  5
72B
  8
DETAIL
  6
CONTINUOUS
 62
     5
 10
61.500013931882769
 20
115.0
 30
0.0
 11
61.500013931882769
 21
730.0
 31
0.0
  0
LINE
  5
72C
  8
DETAIL
  6
CONTINUOUS
 62
     5
 10
61.500013931882769
 20
115.0
 30
0.0
 11
36.014104971155049
 21
114.9999970843825
 31
0.0
  0
LINE
  5
733
  8
DETAIL
  6
CONTINUOUS
 62
     5
 10
430.49999819806112
 20
114.999995542923
 30
0.0
 11
430.49999819806112
 21
729.99999554292287
 31
0.0
  0
LINE
  5
734
  8
DETAIL
  6
CONTINUOUS
 62
     5
 10
430.49999819806112
 20
114.999995542923
 30
0.0
 11
405.01408923733339
 21
114.9999926273056
 31
0.0
  0
LINE
  5
73E
  8
DETAIL
  6
CONTINUOUS
 62
     5
 10
440.0
 20
113.0
 30
0.0
 11
-440.0
 21
113.0
 31
0.0
  0
LINE
  5
741
  8
DETAIL
  6
CONTINUOUS
 62
     5
 10
-521.50000000001364
 20
97.000000000001805
 30
0.0
 11
-549.9999999999992
 21
97.000000000001805
 31
0.0
  0
LINE
  5
742
  8
DETAIL
  6
CONTINUOUS
 62
     5
 10
-440.0
 20
93.0
 30
0.0
 11
-521.50000357258523
 21
93.0
 31
0.0
  0
LINE
  5
74A
  8
DETAIL
  6
CONTINUOUS
 62
     5
 10
-440.0
 20
93.0
 30
0.0
 11
-440.0
 21
113.0
 31
0.0
  0
LINE
  5
759
  8
DETAIL
  6
CONTINUOUS
 62
     5
 10
440.0
 20
93.0
 30
0.0
 11
521.50000357258523
 21
93.0
 31
0.0
  0
LINE
  5
75A
  8
DETAIL
  6
CONTINUOUS
 62
     5
 10
440.0
 20
93.0
 30
0.0
 11
440.0
 21
113.0
 31
0.0
  0
LINE
  5
7D0
  8
DETAIL
  6
CONTINUOUS
 62
     5
 10
437.99999999999989
 20
100.0
 30
0.0
 11
-438.00000000000011
 21
100.0
 31
0.0
  0
LINE
  5
7D1
  8
DETAIL
  6
CONTINUOUS
 62
     5
 10
-440.00000000000011
 20
102.0
 30
0.0
 11
-440.0
 21
113.0
 31
0.0
  0
ARC
  5
7D2
  8
DETAIL
  6
CONTINUOUS
 62
     5
 10
-438.00000000000011
 20
102.0
 30
0.0
 40
2.0
 50
179.9999999999996
 51
270.0
  0
ARC
  5
7DB
  8
DETAIL
  6
CONTINUOUS
 62
     5
 10
437.99999999999989
 20
102.0
 30
0.0
 40
2.0
 50
270.0
 51
359.9999999999992
  0
LINE
  5
7DC
  8
DETAIL
  6
CONTINUOUS
 62
     5
 10
439.99999999999977
 20
102.0
 30
0.0
 11
440.0
 21
112.9999999999999
 31
0.0
  0
LINE
  5
7DD
  8
DETAIL
  6
CONTINUOUS
 62
     5
 10
-339.0
 20
151.5
 30
0.0
 11
-509.99999999999761
 21
151.5
 31
0.0
  0
ENDSEC
  0
EOF
