  0
SECTION
  2
HEADER
  9
$ACADVER
  1
AC1009
  9
$INSBASE
 10
0.0
 20
0.0
 30
0.0
  9
$EXTMIN
 10
-1361.773807545469
 20
-799.67618735645374
 30
-0.0000000349181948
  9
$EXTMAX
 10
1324.538546052838
 20
2627.0827085932251
 30
0.0000000814935747
  9
$LIMMIN
 10
-4267.1522210604826
 20
-2696.083210198412
  9
$LIMMAX
 10
7190.7174225864646
 20
5141.155363923066
  9
$ORTHOMODE
 70
     1
  9
$REGENMODE
 70
     1
  9
$FILLMODE
 70
     1
  9
$QTEXTMODE
 70
     0
  9
$MIRRTEXT
 70
     0
  9
$DRAGMODE
 70
     2
  9
$LTSCALE
 40
20.0
  9
$OSMODE
 70
  3071
  9
$ATTMODE
 70
     1
  9
$TEXTSIZE
 40
64.0
  9
$TRACEWID
 40
0.05
  9
$TEXTSTYLE
  7
NOTE
  9
$CLAYER
  8
SYMBOLLINE
  9
$CELTYPE
  6
CONTINUOUS
  9
$CECOLOR
 62
     7
  9
$DIMSCALE
 40
1.0
  9
$DIMASZ
 40
30.0
  9
$DIMEXO
 40
20.0
  9
$DIMDLI
 40
80.0
  9
$DIMRND
 40
0.0
  9
$DIMDLE
 40
0.0
  9
$DIMEXE
 40
20.0
  9
$DIMTP
 40
0.0
  9
$DIMTM
 40
0.0
  9
$DIMTXT
 40
60.0
  9
$DIMCEN
 40
0.09
  9
$DIMTSZ
 40
0.0
  9
$DIMTOL
 70
     0
  9
$DIMLIM
 70
     0
  9
$DIMTIH
 70
     0
  9
$DIMTOH
 70
     0
  9
$DIMSE1
 70
     0
  9
$DIMSE2
 70
     0
  9
$DIMTAD
 70
     1
  9
$DIMZIN
 70
     8
  9
$DIMBLK
  1
SMALL
  9
$DIMASO
 70
     1
  9
$DIMSHO
 70
     0
  9
$DIMPOST
  1

  9
$DIMAPOST
  1

  9
$DIMALT
 70
     0
  9
$DIMALTD
 70
     2
  9
$DIMALTF
 40
25.399999999999999
  9
$DIMLFAC
 40
1.0
  9
$DIMTOFL
 70
     1
  9
$DIMTVP
 40
0.0
  9
$DIMTIX
 70
     0
  9
$DIMSOXD
 70
     0
  9
$DIMSAH
 70
     0
  9
$DIMBLK1
  1

  9
$DIMBLK2
  1

  9
$DIMSTYLE
  2
STANDARD
  9
$DIMCLRD
 70
     0
  9
$DIMCLRE
 70
     0
  9
$DIMCLRT
 70
     0
  9
$DIMTFAC
 40
1.0
  9
$DIMGAP
 40
0.09
  9
$LUNITS
 70
     2
  9
$LUPREC
 70
     4
  9
$SKETCHINC
 40
0.1
  9
$FILLETRAD
 40
30.0
  9
$AUNITS
 70
     1
  9
$AUPREC
 70
     3
  9
$MENU
  1
ACAD
  9
$ELEVATION
 40
0.0
  9
$PELEVATION
 40
0.0
  9
$THICKNESS
 40
0.0
  9
$LIMCHECK
 70
     0
  9
$BLIPMODE
 70
     0
  9
$CHAMFERA
 40
0.0
  9
$CHAMFERB
 40
0.0
  9
$SKPOLY
 70
     0
  9
$TDCREATE
 40
2450330.4399309959
  9
$TDUPDATE
 40
2456301.4518223149
  9
$TDINDWG
 40
3.7182247105999999
  9
$TDUSRTIMER
 40
3.7182220139000002
  9
$USRTIMER
 70
     1
  9
$ANGBASE
 50
0.0
  9
$ANGDIR
 70
     0
  9
$PDMODE
 70
     3
  9
$PDSIZE
 40
-2.0
  9
$PLINEWID
 40
0.0
  9
$COORDS
 70
     1
  9
$SPLFRAME
 70
     0
  9
$SPLINETYPE
 70
     6
  9
$SPLINESEGS
 70
     8
  9
$ATTDIA
 70
     0
  9
$ATTREQ
 70
     1
  9
$HANDLING
 70
     1
  9
$HANDSEED
  5
54C
  9
$SURFTAB1
 70
     6
  9
$SURFTAB2
 70
     6
  9
$SURFTYPE
 70
     6
  9
$SURFU
 70
     6
  9
$SURFV
 70
     6
  9
$UCSNAME
  2

  9
$UCSORG
 10
0.0
 20
0.0
 30
0.0
  9
$UCSXDIR
 10
1.0
 20
0.0
 30
0.0
  9
$UCSYDIR
 10
0.0
 20
1.0
 30
0.0
  9
$PUCSNAME
  2

  9
$PUCSORG
 10
0.0
 20
0.0
 30
0.0
  9
$PUCSXDIR
 10
1.0
 20
0.0
 30
0.0
  9
$PUCSYDIR
 10
0.0
 20
1.0
 30
0.0
  9
$USERI1
 70
     0
  9
$USERI2
 70
     0
  9
$USERI3
 70
     0
  9
$USERI4
 70
     0
  9
$USERI5
 70
     0
  9
$USERR1
 40
20.0
  9
$USERR2
 40
0.0
  9
$USERR3
 40
0.0
  9
$USERR4
 40
0.0
  9
$USERR5
 40
0.0
  9
$WORLDVIEW
 70
     1
  9
$SHADEDGE
 70
     3
  9
$SHADEDIF
 70
    70
  9
$TILEMODE
 70
     1
  9
$MAXACTVP
 70
    64
  9
$PLIMCHECK
 70
     0
  9
$PEXTMIN
 10
1.0000000000000000E+020
 20
1.0000000000000000E+020
 30
1.0000000000000000E+020
  9
$PEXTMAX
 10
-1.0000000000000000E+020
 20
-1.0000000000000000E+020
 30
-1.0000000000000000E+020
  9
$PLIMMIN
 10
0.0
 20
0.0
  9
$PLIMMAX
 10
12.0
 20
9.0
  9
$UNITMODE
 70
     0
  9
$VISRETAIN
 70
     1
  9
$PLINEGEN
 70
     0
  9
$PSLTSCALE
 70
     1
  0
ENDSEC
  0
SECTION
  2
TABLES
  0
TABLE
  2
VPORT
 70
     1
  0
VPORT
  2
*ACTIVE
 70
     0
 10
0.0
 20
0.0
 11
1.0
 21
1.0
 12
1461.782600762991
 22
1222.536076862327
 13
0.0
 23
0.0
 14
50.0
 24
50.0
 15
100.0
 25
100.0
 16
0.0
 26
0.0
 36
1.0
 17
0.0
 27
0.0
 37
0.0
 40
7896.8373465482573
 41
1.552030456852791
 42
50.0
 43
0.0
 44
0.0
 50
0.0
 51
0.0
 71
     0
 72
  1000
 73
     1
 74
     0
 75
     0
 76
     0
 77
     0
 78
     0
  0
ENDTAB
  0
TABLE
  2
LTYPE
 70
     3
  0
LTYPE
  2
CONTINUOUS
 70
     0
  3
実線
 72
    65
 73
     0
 40
0.0
  0
LTYPE
  2
DASHDOT
 70
     0
  3
____ _ ____ _ ____ _ ____ _ ____ _ ____ _ ____
 72
    65
 73
     4
 40
5.5
 49
4.0
 49
-0.6
 49
0.3
 49
-0.6
  0
ENDTAB
  0
TABLE
  2
LAYER
 70
    12
  0
LAYER
  2
0
 70
     0
 62
     7
  6
CONTINUOUS
  0
LAYER
  2
SIZE
 70
     0
 62
    30
  6
CONTINUOUS
  0
LAYER
  2
OUTLINE
 70
     0
 62
     3
  6
CONTINUOUS
  0
LAYER
  2
DETAIL
 70
     0
 62
     5
  6
CONTINUOUS
  0
LAYER
  2
BASIS
 70
     0
 62
     6
  6
DASHDOT
  0
LAYER
  2
NOTE
 70
     0
 62
     4
  6
CONTINUOUS
  0
LAYER
  2
ARRANGE
 70
     0
 62
     1
  6
CONTINUOUS
  0
LAYER
  2
FIX
 70
     0
 62
    11
  6
CONTINUOUS
  0
LAYER
  2
SERVICESPACE
 70
     0
 62
     2
  6
DASHDOT
  0
LAYER
  2
ETC
 70
     0
 62
    61
  6
CONTINUOUS
  0
LAYER
  2
SYMBOLLINE
 70
     0
 62
    15
  6
CONTINUOUS
  0
LAYER
  2
DEFPOINTS
 70
     0
 62
     7
  6
CONTINUOUS
  0
ENDTAB
  0
TABLE
  2
STYLE
 70
     4
  0
STYLE
  2
STANDARD
 70
     0
 40
0.0
 41
0.9
 50
0.0
 71
     0
 42
64.0
  3
SIMPLEX
  4
BIGFONT
  0
STYLE
  2
ANNOTATIVE
 70
     0
 40
0.0
 41
1.0
 50
0.0
 71
     0
 42
0.2
  3
txt
  4

  0
STYLE
  2
NOTE
 70
     0
 40
0.0
 41
0.7
 50
0.0
 71
     0
 42
64.0
  3
SIMPLEX.shx
  4
BIGFONT.shx
  0
STYLE
  2
STANDARD1
 70
     0
 40
0.0
 41
1.0
 50
0.0
 71
     0
 42
64.0
  3
MONOTXT
  4
BIGFONT
  0
ENDTAB
  0
TABLE
  2
VIEW
 70
     1
  0
VIEW
  2
ALL
 70
     0
 40
9000.0
 10
241.50664699999999
 20
0.0
 41
12483.01
 11
0.0
 21
0.0
 31
1.0
 12
0.0
 22
0.0
 32
0.0
 42
50.0
 43
0.0
 44
0.0
 50
0.0
 71
     0
  0
ENDTAB
  0
TABLE
  2
UCS
 70
     0
  0
ENDTAB
  0
TABLE
  2
APPID
 70
     4
  0
APPID
  2
ACAD
 70
     0
  0
APPID
  2
ACADANNOTATIVE
 70
     0
  0
APPID
  2
ACAD_MLEADERVER
 70
     0
  0
APPID
  2
ACAD_EXEMPT_FROM_CAD_STANDARDS
 70
     0
  0
ENDTAB
  0
TABLE
  2
DIMSTYLE
 70
     3
  0
DIMSTYLE
  2
STANDARD
 70
     0
  3

  4

  5

  6

  7

 40
1.0
 41
0.18
 42
0.0625
 43
0.38
 44
0.18
 45
0.0
 46
0.0
 47
0.0
 48
0.0
140
0.18
141
0.09
142
0.0
143
25.399999999999999
144
1.0
145
0.0
146
1.0
147
0.09
 71
     0
 72
     0
 73
     1
 74
     1
 75
     0
 76
     0
 77
     0
 78
     0
170
     0
171
     2
172
     0
173
     0
174
     0
175
     0
176
     0
177
     0
178
     0
  0
DIMSTYLE
  2
ANNOTATIVE
 70
     0
  3

  4

  5

  6

  7

 40
1.0
 41
0.18
 42
0.0625
 43
0.38
 44
0.18
 45
0.0
 46
0.0
 47
0.0
 48
0.0
140
0.18
141
0.09
142
0.0
143
25.399999999999999
144
1.0
145
0.0
146
1.0
147
0.09
 71
     0
 72
     0
 73
     1
 74
     1
 75
     0
 76
     0
 77
     0
 78
     0
170
     0
171
     2
172
     0
173
     0
174
     0
175
     0
176
     0
177
     0
178
     0
  0
ENDTAB
  0
ENDSEC
  0
SECTION
  2
BLOCKS
  0
BLOCK
  8
0
  2
$MODEL_SPACE
 70
     0
 10
0.0
 20
0.0
 30
0.0
  3
$MODEL_SPACE
  1

  0
ENDBLK
  5
49A
  8
0
  0
BLOCK
 67
     1
  8
0
  2
$PAPER_SPACE
 70
     0
 10
0.0
 20
0.0
 30
0.0
  3
$PAPER_SPACE
  1

  0
ENDBLK
  5
496
 67
     1
  8
0
  0
BLOCK
  8
0
  2
_SMALL
 70
     0
 10
0.0
 20
0.0
 30
0.0
  3
_SMALL
  1

  0
CIRCLE
  5
8D
  8
0
  6
CONTINUOUS
 62
     7
 10
0.0
 20
0.0
 30
0.0
 40
0.25
  0
ENDBLK
  5
8E
  8
0
  0
BLOCK
  8
0
 62
     7
  2
*D5
 70
     1
 10
0.0
 20
0.0
 30
0.0
  3
*D5
  1

  0
LINE
  5
4DC
  8
SIZE
  6
CONTINUOUS
 62
     0
 10
919.99999999999375
 20
1980.0
 30
0.0
 11
1126.365584014404
 21
1980.0
 31
0.0
  0
LINE
  5
4DD
  8
SIZE
  6
CONTINUOUS
 62
     0
 10
919.99999999999352
 20
99.999999999999105
 30
0.0
 11
1126.3655840144031
 21
99.999999999999034
 31
0.0
  0
LINE
  5
4DE
  8
SIZE
  6
CONTINUOUS
 62
     0
 10
1106.365584014404
 20
1980.0
 30
0.0
 11
1106.3655840144031
 21
99.999999999999048
 31
0.0
  0
INSERT
  5
4DF
  8
SIZE
  6
CONTINUOUS
 62
     0
  2
_SMALL
 10
1106.365584014404
 20
1980.0
 30
0.0
 41
30.0
 42
30.0
 43
30.0
 50
90.0
  0
INSERT
  5
4E0
  8
SIZE
  6
CONTINUOUS
 62
     0
  2
_SMALL
 10
1106.3655840144031
 20
99.999999999999048
 30
0.0
 41
30.0
 42
30.0
 43
30.0
 50
270.0
  0
INSERT
  5
4E1
  8
SYMBOLLINE
  6
CONTINUOUS
 62
     7
  2
*U6
 10
0.0
 20
0.0
 30
0.0
  0
POINT
  5
4E2
  8
DEFPOINTS
  6
CONTINUOUS
 62
     0
 10
899.99999999999363
 20
1980.0
 30
0.0
  0
POINT
  5
4E3
  8
DEFPOINTS
  6
CONTINUOUS
 62
     0
 10
899.99999999999363
 20
99.999999999999105
 30
0.0
  0
POINT
  5
4E4
  8
DEFPOINTS
  6
CONTINUOUS
 62
     0
 10
1106.3655840144031
 20
99.999999999999048
 30
0.0
  0
ENDBLK
  5
4C9
  8
0
 62
     7
  0
BLOCK
  8
0
 62
     7
  2
*U6
 70
     1
 10
0.0
 20
0.0
 30
0.0
  3
*U6
  1

  0
TEXT
  5
549
  8
SIZE
  6
CONTINUOUS
 62
     0
 10
1106.275584014403
 20
949.99999999999977
 30
0.0
 40
60.0
  1
1880
 50
90.0
 41
0.9
  0
ENDBLK
  5
54B
  8
0
 62
     7
  0
ENDSEC
  0
SECTION
  2
ENTITIES
  0
LINE
  5
8F
  8
DETAIL
  6
CONTINUOUS
 62
     5
 10
899.99999999999363
 20
1980.0
 30
0.0
 11
-899.99999999999272
 21
1980.0
 31
0.0
  0
LINE
  5
90
  8
DETAIL
  6
CONTINUOUS
 62
     5
 10
-899.99999999999272
 20
1519.6885428253579
 30
0.0
 11
899.99999999999363
 21
1519.6885428253579
 31
0.0
  0
LINE
  5
91
  8
DETAIL
  6
CONTINUOUS
 62
     5
 10
899.99999999999363
 20
1471.134593993324
 30
0.0
 11
-899.99999999999272
 21
1471.134593993324
 31
0.0
  0
LINE
  5
92
  8
DETAIL
  6
CONTINUOUS
 62
     5
 10
-245.77469363722679
 20
766.85205784204572
 30
0.0
 11
245.77568703160611
 21
766.85205784204572
 31
0.0
  0
LINE
  5
93
  8
DETAIL
  6
CONTINUOUS
 62
     5
 10
245.7746923614049
 20
765.85094549499263
 30
0.0
 11
-245.77568701908859
 21
765.85094549499263
 31
0.0
  0
LINE
  5
94
  8
DETAIL
  6
CONTINUOUS
 62
     5
 10
899.99999999999363
 20
726.80756395995013
 30
0.0
 11
-899.99999999999272
 21
726.80756395995013
 31
0.0
  0
LINE
  5
95
  8
DETAIL
  6
CONTINUOUS
 62
     5
 10
690.76751946607237
 20
76.084538375966986
 30
0.0
 11
-690.76751946607055
 21
76.084538375966986
 31
0.0
  0
LINE
  5
96
  8
DETAIL
  6
CONTINUOUS
 62
     5
 10
-862.95884315906846
 20
0.0
 30
0.0
 11
862.95884315906903
 21
0.0
 31
0.0
  0
LINE
  5
97
  8
DETAIL
  6
CONTINUOUS
 62
     5
 10
899.99999999999363
 20
677.75305895438305
 30
0.0
 11
-899.99999999999272
 21
677.75305895438305
 31
0.0
  0
LINE
  5
98
  8
DETAIL
  6
CONTINUOUS
 62
     5
 10
-899.99999999999272
 20
99.999999999999091
 30
0.0
 11
899.99999999999363
 21
99.999999999999091
 31
0.0
  0
LINE
  5
99
  8
DETAIL
  6
CONTINUOUS
 62
     5
 10
-899.99999999999272
 20
76.084538375966986
 30
0.0
 11
-899.99999999999272
 21
1980.0
 31
0.0
  0
LINE
  5
9A
  8
DETAIL
  6
CONTINUOUS
 62
     5
 10
-862.95884315906846
 20
95.706340378199442
 30
0.0
 11
-690.76751946607055
 21
95.706340378199442
 31
0.0
  0
LINE
  5
9B
  8
DETAIL
  6
CONTINUOUS
 62
     5
 10
-862.95884315906846
 20
95.706340378199442
 30
0.0
 11
-862.95884315906846
 21
0.0
 31
0.0
  0
LINE
  5
9C
  8
DETAIL
  6
CONTINUOUS
 62
     5
 10
-690.76751946607055
 20
0.0
 30
0.0
 11
-690.76751946607055
 21
99.999999999999105
 31
0.0
  0
LINE
  5
9D
  8
DETAIL
  6
CONTINUOUS
 62
     5
 10
-810.90100111234392
 20
95.706340378199442
 30
0.0
 11
-810.90100111234392
 21
0.0
 31
0.0
  0
LINE
  5
9F
  8
DETAIL
  6
CONTINUOUS
 62
     5
 10
-899.99999999999272
 20
766.85205784204572
 30
0.0
 11
-817.40562553791904
 21
766.85205784204572
 31
0.0
  0
LINE
  5
A0
  8
DETAIL
  6
CONTINUOUS
 62
     5
 10
-817.40662020810657
 20
765.85094549499263
 30
0.0
 11
-899.99999999999272
 21
765.85094549499263
 31
0.0
  0
LINE
  5
A1
  8
DETAIL
  6
CONTINUOUS
 62
     5
 10
-777.36534992198904
 20
766.85205784204572
 30
0.0
 11
-285.8149692531569
 21
766.85205784204572
 31
0.0
  0
LINE
  5
A2
  8
DETAIL
  6
CONTINUOUS
 62
     5
 10
-285.8159639233445
 20
765.85094549499263
 30
0.0
 11
-777.36634330385084
 21
765.85094549499263
 31
0.0
  0
ARC
  5
A3
  8
DETAIL
  6
CONTINUOUS
 62
     5
 10
-877.47497219132038
 20
766.35150166851213
 30
0.0
 40
100.111234705228
 50
344.74247670950058
 51
15.25752329049932
  0
ARC
  5
A4
  8
DETAIL
  6
CONTINUOUS
 62
     5
 10
-717.29699666295255
 20
766.35150166851213
 30
0.0
 40
100.111234705228
 50
164.74247670950069
 51
195.25752329049911
  0
CIRCLE
  5
A5
  8
DETAIL
  6
CONTINUOUS
 62
     5
 10
-787.37486095661927
 20
786.3737486095597
 30
0.0
 40
4.004449388209121
  0
CIRCLE
  5
A6
  8
DETAIL
  6
CONTINUOUS
 62
     5
 10
-807.39710789766741
 20
786.3737486095597
 30
0.0
 40
4.0044493882092258
  0
LINE
  5
A7
  8
DETAIL
  6
CONTINUOUS
 62
     5
 10
-817.18139202146881
 20
773.10901001111972
 30
0.0
 11
-777.59057685253538
 21
773.10901001111972
 31
0.0
  0
LINE
  5
A8
  8
DETAIL
  6
CONTINUOUS
 62
     5
 10
-817.18139200033761
 20
759.59399332591966
 30
0.0
 11
-777.5905768220947
 21
759.59399332591966
 31
0.0
  0
LINE
  5
A9
  8
DETAIL
  6
CONTINUOUS
 62
     5
 10
-785.72151000090332
 20
736.31813125694111
 30
0.0
 11
-809.05045885338302
 21
736.31813125694111
 31
0.0
  0
ARC
  5
AA
  8
DETAIL
  6
CONTINUOUS
 62
     5
 10
-785.72151000090332
 20
741.32369299220318
 30
0.0
 40
5.0055617352614004
 50
270.0
 51
344.74247670950058
  0
ARC
  5
AB
  8
DETAIL
  6
CONTINUOUS
 62
     5
 10
-809.05045885338302
 20
741.32369299220318
 30
0.0
 40
5.0055617352612671
 50
195.25752329049911
 51
270.0
  0
CIRCLE
  5
AC
  8
DETAIL
  6
CONTINUOUS
 62
     5
 10
-787.37486095661927
 20
746.32925472746501
 30
0.0
 40
4.004449388209121
  0
CIRCLE
  5
AD
  8
DETAIL
  6
CONTINUOUS
 62
     5
 10
-807.39710789766741
 20
746.32925472746501
 30
0.0
 40
4.0044493882092258
  0
LINE
  5
AE
  8
DETAIL
  6
CONTINUOUS
 62
     5
 10
-809.05045885338302
 20
796.38487208008405
 30
0.0
 11
-785.72151000090332
 21
796.38487208008405
 31
0.0
  0
ARC
  5
AF
  8
DETAIL
  6
CONTINUOUS
 62
     5
 10
-785.72151000090332
 20
791.37931034482244
 30
0.0
 40
5.0055617352613391
 50
15.25752329049932
 51
90.0
  0
ARC
  5
B0
  8
DETAIL
  6
CONTINUOUS
 62
     5
 10
-809.05045885338302
 20
791.37931034482244
 30
0.0
 40
5.0055617352614004
 50
90.0
 51
164.74247670950069
  0
ARC
  5
B1
  8
DETAIL
  6
CONTINUOUS
 62
     5
 10
-345.88431590655807
 20
766.35150166851213
 30
0.0
 40
100.111234705228
 50
344.74247670950058
 51
15.25752329049932
  0
ARC
  5
B2
  8
DETAIL
  6
CONTINUOUS
 62
     5
 10
-185.70634037820309
 20
766.35150166851213
 30
0.0
 40
100.111234705228
 50
164.74247670950069
 51
195.25752329049911
  0
CIRCLE
  5
B3
  8
DETAIL
  6
CONTINUOUS
 62
     5
 10
-255.7842046718568
 20
786.3737486095597
 30
0.0
 40
4.004449388209121
  0
CIRCLE
  5
B4
  8
DETAIL
  6
CONTINUOUS
 62
     5
 10
-275.80645161290431
 20
786.3737486095597
 30
0.0
 40
4.004449388209121
  0
LINE
  5
B5
  8
DETAIL
  6
CONTINUOUS
 62
     5
 10
-285.59073573670679
 20
773.10901001111972
 30
0.0
 11
-245.9999205677731
 21
773.10901001111972
 31
0.0
  0
LINE
  5
B6
  8
DETAIL
  6
CONTINUOUS
 62
     5
 10
-285.59073571558832
 20
759.59399332591966
 30
0.0
 11
-245.99992053734599
 21
759.59399332591966
 31
0.0
  0
ARC
  5
B7
  8
DETAIL
  6
CONTINUOUS
 62
     5
 10
-277.45980256862077
 20
741.32369299220318
 30
0.0
 40
5.0055617352612671
 50
195.25752329049911
 51
270.0
  0
CIRCLE
  5
B8
  8
DETAIL
  6
CONTINUOUS
 62
     5
 10
-275.80645161290431
 20
746.32925472746501
 30
0.0
 40
4.004449388209121
  0
LINE
  5
B9
  8
DETAIL
  6
CONTINUOUS
 62
     5
 10
-254.13085371614031
 20
736.31813125694111
 30
0.0
 11
-277.45980256862077
 21
736.31813125694111
 31
0.0
  0
ARC
  5
BA
  8
DETAIL
  6
CONTINUOUS
 62
     5
 10
-254.13085371614031
 20
741.32369299220318
 30
0.0
 40
5.0055617352614004
 50
270.0
 51
344.74247670950058
  0
CIRCLE
  5
BB
  8
DETAIL
  6
CONTINUOUS
 62
     5
 10
-255.7842046718568
 20
746.32925472746501
 30
0.0
 40
4.004449388209121
  0
ARC
  5
BC
  8
DETAIL
  6
CONTINUOUS
 62
     5
 10
-277.45980256862077
 20
791.37931034482244
 30
0.0
 40
5.0055617352614004
 50
90.0
 51
164.74247670950069
  0
LINE
  5
BD
  8
DETAIL
  6
CONTINUOUS
 62
     5
 10
-277.45980256862077
 20
796.38487208008405
 30
0.0
 11
-254.13085371614031
 21
796.38487208008405
 31
0.0
  0
ARC
  5
BE
  8
DETAIL
  6
CONTINUOUS
 62
     5
 10
-254.13085371614031
 20
791.37931034482244
 30
0.0
 40
5.005561735261236
 50
15.25752329049932
 51
90.0
  0
LINE
  5
BF
  8
DETAIL
  6
CONTINUOUS
 62
     5
 10
899.99999999999363
 20
1980.0
 30
0.0
 11
899.99999999999363
 21
76.084500000000006
 31
0.0
  0
LINE
  5
C1
  8
DETAIL
  6
CONTINUOUS
 62
     5
 10
862.95884315906903
 20
0.0
 30
0.0
 11
862.95884315906903
 21
95.706340378199442
 31
0.0
  0
LINE
  5
C2
  8
DETAIL
  6
CONTINUOUS
 62
     5
 10
690.76751946607237
 20
0.0
 30
0.0
 11
690.76751946607237
 21
99.999999999999105
 31
0.0
  0
LINE
  5
C3
  8
DETAIL
  6
CONTINUOUS
 62
     5
 10
690.76751946607237
 20
95.706340378199442
 30
0.0
 11
862.95884315906903
 21
95.706340378199442
 31
0.0
  0
LINE
  5
C4
  8
DETAIL
  6
CONTINUOUS
 62
     5
 10
810.9010011123446
 20
95.706340378199442
 30
0.0
 11
810.9010011123446
 21
0.0
 31
0.0
  0
LINE
  5
C5
  8
DETAIL
  6
CONTINUOUS
 62
     5
 10
285.81596264753517
 20
766.85205784204572
 30
0.0
 11
777.36634331635435
 21
766.85205784204572
 31
0.0
  0
LINE
  5
C6
  8
DETAIL
  6
CONTINUOUS
 62
     5
 10
777.36534864616806
 20
765.85094549499263
 30
0.0
 11
285.81496926567422
 21
765.85094549499263
 31
0.0
  0
LINE
  5
C7
  8
DETAIL
  6
CONTINUOUS
 62
     5
 10
254.13085371614201
 20
796.38487208008405
 30
0.0
 11
277.45980256862191
 21
796.38487208008405
 31
0.0
  0
LINE
  5
C8
  8
DETAIL
  6
CONTINUOUS
 62
     5
 10
245.9999205480562
 20
773.10901001111972
 30
0.0
 11
285.5907357169898
 21
773.10901001111972
 31
0.0
  0
LINE
  5
C9
  8
DETAIL
  6
CONTINUOUS
 62
     5
 10
245.99992056917469
 20
759.59399332591966
 30
0.0
 11
285.59073574741689
 21
759.59399332591966
 31
0.0
  0
LINE
  5
CA
  8
DETAIL
  6
CONTINUOUS
 62
     5
 10
277.45980256862191
 20
736.31813125694111
 30
0.0
 11
254.13085371614201
 21
736.31813125694111
 31
0.0
  0
CIRCLE
  5
CB
  8
DETAIL
  6
CONTINUOUS
 62
     5
 10
275.80645161290607
 20
746.32925472746501
 30
0.0
 40
4.004449388209121
  0
CIRCLE
  5
CC
  8
DETAIL
  6
CONTINUOUS
 62
     5
 10
275.80645161290607
 20
786.3737486095597
 30
0.0
 40
4.004449388209121
  0
ARC
  5
CD
  8
DETAIL
  6
CONTINUOUS
 62
     5
 10
345.88431590655881
 20
766.35150166851213
 30
0.0
 40
100.111234705228
 50
164.74247670950069
 51
195.25752329049911
  0
CIRCLE
  5
CE
  8
DETAIL
  6
CONTINUOUS
 62
     5
 10
255.78420467185771
 20
786.3737486095597
 30
0.0
 40
4.004449388209121
  0
ARC
  5
CF
  8
DETAIL
  6
CONTINUOUS
 62
     5
 10
254.13085371614201
 20
741.32369299220318
 30
0.0
 40
5.0055617352613107
 50
195.25752329049911
 51
270.0
  0
CIRCLE
  5
D0
  8
DETAIL
  6
CONTINUOUS
 62
     5
 10
255.78420467185771
 20
746.32925472746501
 30
0.0
 40
4.004449388209121
  0
ARC
  5
D1
  8
DETAIL
  6
CONTINUOUS
 62
     5
 10
254.13085371614201
 20
791.37931034482244
 30
0.0
 40
5.0055617352614004
 50
90.0
 51
164.74247670950069
  0
ARC
  5
D2
  8
DETAIL
  6
CONTINUOUS
 62
     5
 10
185.7063403781911
 20
766.35150166851213
 30
0.0
 40
100.111234705228
 50
344.74247670950058
 51
15.25752329049932
  0
ARC
  5
D3
  8
DETAIL
  6
CONTINUOUS
 62
     5
 10
277.45980256862191
 20
741.32369299220318
 30
0.0
 40
5.0055617352614004
 50
270.0
 51
344.74247670950058
  0
ARC
  5
D4
  8
DETAIL
  6
CONTINUOUS
 62
     5
 10
277.45980256862191
 20
791.37931034482244
 30
0.0
 40
5.0055617352612964
 50
15.25752329049932
 51
90.0
  0
LINE
  5
D5
  8
DETAIL
  6
CONTINUOUS
 62
     5
 10
817.40661893228469
 20
766.85205784204572
 30
0.0
 11
899.99999999999363
 21
766.85205784204572
 31
0.0
  0
LINE
  5
D6
  8
DETAIL
  6
CONTINUOUS
 62
     5
 10
899.99999999999363
 20
765.85094549499263
 30
0.0
 11
817.40562555043641
 21
765.85094549499263
 31
0.0
  0
ARC
  5
D7
  8
DETAIL
  6
CONTINUOUS
 62
     5
 10
717.29699666295335
 20
766.35150166851213
 30
0.0
 40
100.111234705228
 50
344.74247670950058
 51
15.25752329049932
  0
ARC
  5
D8
  8
DETAIL
  6
CONTINUOUS
 62
     5
 10
877.47497219132219
 20
766.35150166851213
 30
0.0
 40
100.111234705228
 50
164.74247670950069
 51
195.25752329049911
  0
CIRCLE
  5
D9
  8
DETAIL
  6
CONTINUOUS
 62
     5
 10
787.37486095662064
 20
786.3737486095597
 30
0.0
 40
4.004449388209121
  0
CIRCLE
  5
DA
  8
DETAIL
  6
CONTINUOUS
 62
     5
 10
807.39710789765456
 20
786.3737486095597
 30
0.0
 40
3.5038932146830271
  0
LINE
  5
DB
  8
DETAIL
  6
CONTINUOUS
 62
     5
 10
777.59057683280469
 20
773.10901001111972
 30
0.0
 11
817.18139200173846
 21
773.10901001111972
 31
0.0
  0
LINE
  5
DC
  8
DETAIL
  6
CONTINUOUS
 62
     5
 10
777.59057685393645
 20
759.59399332591966
 30
0.0
 11
817.18139203217925
 21
759.59399332591966
 31
0.0
  0
LINE
  5
DD
  8
DETAIL
  6
CONTINUOUS
 62
     5
 10
809.05045885338393
 20
736.31813125694111
 30
0.0
 11
785.72151000090525
 21
736.31813125694111
 31
0.0
  0
ARC
  5
DE
  8
DETAIL
  6
CONTINUOUS
 62
     5
 10
809.05045885338393
 20
741.32369299220318
 30
0.0
 40
5.0055617352614004
 50
270.0
 51
344.74247670950058
  0
ARC
  5
DF
  8
DETAIL
  6
CONTINUOUS
 62
     5
 10
785.72151000090525
 20
741.32369299220318
 30
0.0
 40
5.0055617352612671
 50
195.25752329049911
 51
270.0
  0
CIRCLE
  5
E0
  8
DETAIL
  6
CONTINUOUS
 62
     5
 10
807.39710789765456
 20
746.32925472746501
 30
0.0
 40
4.004449388209121
  0
CIRCLE
  5
E1
  8
DETAIL
  6
CONTINUOUS
 62
     5
 10
787.37486095662064
 20
746.32925472746501
 30
0.0
 40
4.004449388209121
  0
LINE
  5
E2
  8
DETAIL
  6
CONTINUOUS
 62
     5
 10
785.72151000090525
 20
796.38487208008405
 30
0.0
 11
809.05045885338393
 21
796.38487208008405
 31
0.0
  0
ARC
  5
E3
  8
DETAIL
  6
CONTINUOUS
 62
     5
 10
809.05045885338393
 20
791.37931034482244
 30
0.0
 40
5.005561735261236
 50
15.25752329049932
 51
90.0
  0
ARC
  5
E4
  8
DETAIL
  6
CONTINUOUS
 62
     5
 10
785.72151000090525
 20
791.37931034482244
 30
0.0
 40
5.0055617352614004
 50
90.0
 51
164.74247670950069
  0
LINE
  5
E5
  8
DETAIL
  6
CONTINUOUS
 62
     5
 10
-862.95884315906846
 20
95.706340378199442
 30
0.0
 11
-862.95884315906846
 21
99.999999999999091
 31
0.0
  0
LINE
  5
E6
  8
DETAIL
  6
CONTINUOUS
 62
     5
 10
862.95884315906903
 20
95.706340378199442
 30
0.0
 11
862.95884315906846
 21
99.999999999999091
 31
0.0
  0
LINE
  5
E7
  8
SIZE
  6
CONTINUOUS
 62
    30
 10
-899.99999999999272
 20
2016.5044
 30
0.0
 11
-899.99999999999272
 21
2442.2491891729069
 31
0.0
  0
LINE
  5
E8
  8
SIZE
  6
CONTINUOUS
 62
    30
 10
899.99999999999363
 20
2016.5044178316459
 30
0.0
 11
899.99999999999363
 21
2442.2491891729069
 31
0.0
  0
LINE
  5
E9
  8
SIZE
  6
CONTINUOUS
 62
    30
 10
-899.99999999999272
 20
2422.2491891729069
 30
0.0
 11
899.99999999999363
 21
2422.2491891729069
 31
0.0
  0
CIRCLE
  5
EA
  8
SIZE
  6
CONTINUOUS
 62
    30
 10
-899.99999999999272
 20
2422.2491891729069
 30
0.0
 40
7.5
  0
CIRCLE
  5
EB
  8
SIZE
  6
CONTINUOUS
 62
    30
 10
899.99999999999363
 20
2422.2491891729069
 30
0.0
 40
7.5
  0
TEXT
  5
EC
  8
SIZE
  6
CONTINUOUS
 62
    30
 10
-89.999999999999545
 20
2442.2491891729092
 30
0.0
 40
60.0
  1
1800
 41
0.9
 72
     1
 11
0.0000000000004547
 21
2442.2491891729092
 31
0.0
  0
POINT
  5
ED
  8
DEFPOINTS
  6
CONTINUOUS
 62
     7
 10
-899.99999999999272
 20
1766.0
 30
0.0
  0
POINT
  5
EF
  8
DEFPOINTS
  6
CONTINUOUS
 62
     7
 10
899.99999999999363
 20
2422.2491891729069
 30
0.0
  0
LINE
  5
104
  8
NOTE
  6
CONTINUOUS
 62
     4
 10
-749.99999999999272
 20
23.185796882913561
 30
0.0
 11
-749.99999999999272
 21
-23.185796882913561
 31
0.0
  0
LINE
  5
105
  8
NOTE
  6
CONTINUOUS
 62
     4
 10
-773.18579688290617
 20
0.0
 30
0.0
 11
-726.81420311707905
 21
0.0
 31
0.0
  0
LINE
  5
106
  8
NOTE
  6
CONTINUOUS
 62
     4
 10
750.00000000000705
 20
23.185796882913561
 30
0.0
 11
750.00000000000705
 21
-23.185796882913561
 31
0.0
  0
LINE
  5
107
  8
NOTE
  6
CONTINUOUS
 62
     4
 10
726.81420311709383
 20
0.0
 30
0.0
 11
773.18579688292073
 21
0.0
 31
0.0
  0
LINE
  5
108
  8
NOTE
  6
CONTINUOUS
 62
     4
 10
-129.99999999999261
 20
353.18579688291351
 30
0.0
 11
-129.99999999999261
 21
306.81420311708638
 31
0.0
  0
LINE
  5
109
  8
NOTE
  6
CONTINUOUS
 62
     4
 10
-153.1857968829062
 20
330.0
 30
0.0
 11
-106.814203117079
 21
330.0
 31
0.0
  0
LINE
  5
10A
  8
NOTE
  6
CONTINUOUS
 62
     4
 10
50.000000000007283
 20
353.18579688291351
 30
0.0
 11
50.000000000007283
 21
306.81420311708638
 31
0.0
  0
LINE
  5
10B
  8
NOTE
  6
CONTINUOUS
 62
     4
 10
26.814203117093712
 20
330.0
 30
0.0
 11
73.18579688292084
 21
330.0
 31
0.0
  0
LINE
  5
10C
  8
NOTE
  6
CONTINUOUS
 62
     4
 10
-49.999999999992717
 20
381.18579688291339
 30
0.0
 11
-49.999999999992717
 21
334.81420311708632
 31
0.0
  0
LINE
  5
10D
  8
NOTE
  6
CONTINUOUS
 62
     4
 10
-73.185796882906232
 20
358.0
 30
0.0
 11
-26.814203117079149
 21
358.0
 31
0.0
  0
LINE
  5
10E
  8
NOTE
  6
CONTINUOUS
 62
     4
 10
130.00000000000719
 20
381.18579688291339
 30
0.0
 11
130.00000000000719
 21
334.81420311708632
 31
0.0
  0
LINE
  5
10F
  8
NOTE
  6
CONTINUOUS
 62
     4
 10
106.8142031170937
 20
358.0
 30
0.0
 11
153.18579688292081
 21
358.0
 31
0.0
  0
LINE
  5
110
  8
SIZE
  6
CONTINUOUS
 62
    30
 10
-882.95884315906835
 20
0.0000000000000057
 30
0.0
 11
-1167.7417900889791
 21
0.0000000000000863
 31
0.0
  0
LINE
  5
111
  8
SIZE
  6
CONTINUOUS
 62
    30
 10
6.8142031170937081
 20
330.0
 30
0.0
 11
-1167.7417900889791
 21
330.00000000000028
 31
0.0
  0
LINE
  5
112
  8
SIZE
  6
CONTINUOUS
 62
    30
 10
-1147.7417900889791
 20
0.0000000000000807
 30
0.0
 11
-1147.7417900889791
 21
330.00000000000011
 31
0.0
  0
CIRCLE
  5
113
  8
SIZE
  6
CONTINUOUS
 62
    30
 10
-1147.7417900889791
 20
0.0000000000000807
 30
0.0
 40
7.5
  0
CIRCLE
  5
114
  8
SIZE
  6
CONTINUOUS
 62
    30
 10
-1147.7417900889791
 20
330.00000000000011
 30
0.0
 40
7.5
  0
TEXT
  5
115
  8
SIZE
  6
CONTINUOUS
 62
    30
 10
-1167.7417900889791
 20
95.571428571428555
 30
0.0
 40
60.0
  1
330
 50
90.0
 41
0.9
 72
     1
 11
-1167.7417900889791
 21
165.0
 31
0.0
  0
POINT
  5
116
  8
DEFPOINTS
  6
CONTINUOUS
 62
     7
 10
-862.95884315906846
 20
0.0
 30
0.0
  0
POINT
  5
117
  8
DEFPOINTS
  6
CONTINUOUS
 62
     7
 10
26.814203117093712
 20
330.0
 30
0.0
  0
POINT
  5
118
  8
DEFPOINTS
  6
CONTINUOUS
 62
     7
 10
-1147.7417900889791
 20
330.00000000000011
 30
0.0
  0
LINE
  5
119
  8
SIZE
  6
CONTINUOUS
 62
    30
 10
-882.95884315906835
 20
0.0000000000000057
 30
0.0
 11
-1285.3591502453651
 21
0.0000000000001197
 31
0.0
  0
LINE
  5
11A
  8
SIZE
  6
CONTINUOUS
 62
    30
 10
86.81420311709374
 20
358.0
 30
0.0
 11
-1285.3591502453651
 21
358.00000000000023
 31
0.0
  0
LINE
  5
11B
  8
SIZE
  6
CONTINUOUS
 62
    30
 10
-1265.3591502453651
 20
0.000000000000114
 30
0.0
 11
-1265.3591502453651
 21
358.00000000000023
 31
0.0
  0
CIRCLE
  5
11C
  8
SIZE
  6
CONTINUOUS
 62
    30
 10
-1265.3591502453651
 20
0.000000000000114
 30
0.0
 40
7.5
  0
CIRCLE
  5
11D
  8
SIZE
  6
CONTINUOUS
 62
    30
 10
-1265.3591502453651
 20
358.00000000000023
 30
0.0
 40
7.5
  0
TEXT
  5
11E
  8
SIZE
  6
CONTINUOUS
 62
    30
 10
-1285.3591502453651
 20
109.5714285714285
 30
0.0
 40
60.0
  1
358
 50
90.0
 41
0.9
 72
     1
 11
-1285.3591502453651
 21
179.0
 31
0.0
  0
POINT
  5
11F
  8
DEFPOINTS
  6
CONTINUOUS
 62
     7
 10
-862.95884315906846
 20
0.0
 30
0.0
  0
POINT
  5
120
  8
DEFPOINTS
  6
CONTINUOUS
 62
     7
 10
106.8142031170937
 20
358.0
 30
0.0
  0
POINT
  5
121
  8
DEFPOINTS
  6
CONTINUOUS
 62
     7
 10
-1265.3591502453651
 20
358.00000000000023
 30
0.0
  0
LINE
  5
122
  8
SIZE
  6
CONTINUOUS
 62
    30
 10
-899.99999999999272
 20
56.084538375966979
 30
0.0
 11
-899.99999999999272
 21
-450.27173492165991
 31
0.0
  0
LINE
  5
123
  8
SIZE
  6
CONTINUOUS
 62
    30
 10
-129.99999999999261
 20
286.81420311708632
 30
0.0
 11
-129.99999999999261
 21
-450.27173492165991
 31
0.0
  0
LINE
  5
124
  8
SIZE
  6
CONTINUOUS
 62
    30
 10
-899.99999999999272
 20
-430.27173492165991
 30
0.0
 11
-129.99999999999261
 21
-430.27173492165991
 31
0.0
  0
CIRCLE
  5
125
  8
SIZE
  6
CONTINUOUS
 62
    30
 10
-899.99999999999272
 20
-430.27173492165991
 30
0.0
 40
7.5
  0
CIRCLE
  5
126
  8
SIZE
  6
CONTINUOUS
 62
    30
 10
-129.99999999999261
 20
-430.27173492165991
 30
0.0
 40
7.5
  0
TEXT
  5
127
  8
SIZE
  6
CONTINUOUS
 62
    30
 10
-584.42857142856406
 20
-410.27173492166003
 30
0.0
 40
60.0
  1
770
 41
0.9
 72
     1
 11
-514.99999999999272
 21
-410.27173492166003
 31
0.0
  0
POINT
  5
128
  8
DEFPOINTS
  6
CONTINUOUS
 62
     7
 10
-899.99999999999272
 20
76.084538375966986
 30
0.0
  0
POINT
  5
129
  8
DEFPOINTS
  6
CONTINUOUS
 62
     7
 10
-129.99999999999261
 20
306.81420311708638
 30
0.0
  0
POINT
  5
12A
  8
DEFPOINTS
  6
CONTINUOUS
 62
     7
 10
-129.99999999999261
 20
-430.27173492165991
 30
0.0
  0
LINE
  5
12B
  8
NOTE
  6
CONTINUOUS
 62
     4
 10
-177.484901667717
 20
-128.05586875266351
 30
0.0
 11
-152.45709299140691
 21
-128.05586875266351
 31
0.0
  0
LINE
  5
12C
  8
NOTE
  6
CONTINUOUS
 62
     4
 10
-202.5127103440262
 20
-78.104321678987631
 30
0.0
 11
-152.45709299140691
 21
-128.05586875266351
 31
0.0
  0
LINE
  5
12D
  8
NOTE
  6
CONTINUOUS
 62
     4
 10
-252.5683276966318
 20
-128.05586875266351
 30
0.0
 11
-202.5127103440262
 21
-78.104321678987631
 31
0.0
  0
LINE
  5
12E
  8
NOTE
  6
CONTINUOUS
 62
     4
 10
-177.484901667717
 20
-168.7872132235679
 30
0.0
 11
-227.54051902032259
 21
-168.7872132235679
 31
0.0
  0
LINE
  5
12F
  8
NOTE
  6
CONTINUOUS
 62
     4
 10
-227.54051902032259
 20
-128.05586875266351
 30
0.0
 11
-227.54051902032259
 21
-168.7872132235679
 31
0.0
  0
LINE
  5
130
  8
NOTE
  6
CONTINUOUS
 62
     4
 10
-252.5683276966318
 20
-128.05586875266351
 30
0.0
 11
-227.54051902032259
 21
-128.05586875266351
 31
0.0
  0
LINE
  5
131
  8
NOTE
  6
CONTINUOUS
 62
     4
 10
-177.484901667717
 20
-128.05586875266351
 30
0.0
 11
-177.484901667717
 21
-168.7872132235679
 31
0.0
  0
LINE
  5
132
  8
NOTE
  6
CONTINUOUS
 62
     4
 10
250.47508121553699
 20
-128.05586875266351
 30
0.0
 11
200.41946386291781
 21
-78.104321678987631
 31
0.0
  0
LINE
  5
133
  8
NOTE
  6
CONTINUOUS
 62
     4
 10
250.47508121553699
 20
-128.05586875266351
 30
0.0
 11
225.44727253922781
 21
-128.05586875266351
 31
0.0
  0
LINE
  5
134
  8
NOTE
  6
CONTINUOUS
 62
     4
 10
150.3638465102984
 20
-128.05586875266351
 30
0.0
 11
200.41946386291781
 21
-78.104321678987631
 31
0.0
  0
LINE
  5
135
  8
NOTE
  6
CONTINUOUS
 62
     4
 10
175.39165518660741
 20
-168.7872132235679
 30
0.0
 11
225.44727253922781
 21
-168.7872132235679
 31
0.0
  0
LINE
  5
136
  8
NOTE
  6
CONTINUOUS
 62
     4
 10
175.39165518660741
 20
-128.05586875266351
 30
0.0
 11
150.3638465102984
 21
-128.05586875266351
 31
0.0
  0
LINE
  5
137
  8
NOTE
  6
CONTINUOUS
 62
     4
 10
175.39165518660741
 20
-128.05586875266351
 30
0.0
 11
175.39165518660741
 21
-168.7872132235679
 31
0.0
  0
LINE
  5
138
  8
NOTE
  6
CONTINUOUS
 62
     4
 10
225.44727253922781
 20
-128.05586875266351
 30
0.0
 11
225.44727253922781
 21
-168.7872132235679
 31
0.0
  0
TEXT
  5
139
  8
NOTE
  6
CONTINUOUS
 62
     4
 10
-95.475836629295387
 20
-155.89507204592331
 30
0.0
 40
60.0
  1
空気吸込
 50
0.0000025044165917
 41
0.7031250221965211
  7
STANDARD1
  0
LINE
  5
13A
  8
SIZE
  6
CONTINUOUS
 62
    30
 10
-129.99999999999261
 20
286.81420311708632
 30
0.0
 11
-129.99999999999261
 21
-450.27173492165991
 31
0.0
  0
LINE
  5
13B
  8
SIZE
  6
CONTINUOUS
 62
    30
 10
50.000000000007283
 20
286.81420311708632
 30
0.0
 11
50.000000000007219
 21
-450.27173492165991
 31
0.0
  0
LINE
  5
13C
  8
SIZE
  6
CONTINUOUS
 62
    30
 10
-129.99999999999261
 20
-430.27173492165991
 30
0.0
 11
50.000000000007219
 21
-430.27173492165991
 31
0.0
  0
LINE
  5
13D
  8
SIZE
  6
CONTINUOUS
 62
    30
 10
50.000000000007219
 20
-430.27173492165991
 30
0.0
 11
297.90506582467282
 21
-430.27173492165991
 31
0.0
  0
CIRCLE
  5
13E
  8
SIZE
  6
CONTINUOUS
 62
    30
 10
-129.99999999999261
 20
-430.27173492165991
 30
0.0
 40
7.5
  0
CIRCLE
  5
13F
  8
SIZE
  6
CONTINUOUS
 62
    30
 10
50.000000000007219
 20
-430.27173492165991
 30
0.0
 40
7.5
  0
TEXT
  5
140
  8
SIZE
  6
CONTINUOUS
 62
    30
 10
149.33363725324429
 20
-410.27173492166003
 30
0.0
 40
60.0
  1
180
 41
0.9
 72
     1
 11
213.6193515389586
 21
-410.27173492166003
 31
0.0
  0
POINT
  5
141
  8
DEFPOINTS
  6
CONTINUOUS
 62
     7
 10
-129.99999999999261
 20
306.81420311708638
 30
0.0
  0
POINT
  5
142
  8
DEFPOINTS
  6
CONTINUOUS
 62
     7
 10
50.000000000007283
 20
306.81420311708638
 30
0.0
  0
POINT
  5
143
  8
DEFPOINTS
  6
CONTINUOUS
 62
     7
 10
50.000000000007219
 20
-430.27173492165991
 30
0.0
  0
LINE
  5
144
  8
SIZE
  6
CONTINUOUS
 62
    30
 10
-899.99999999999272
 20
56.084538375966979
 30
0.0
 11
-899.99999999999272
 21
-592.16599929399115
 31
0.0
  0
LINE
  5
145
  8
SIZE
  6
CONTINUOUS
 62
    30
 10
-49.999999999992717
 20
314.81420311708632
 30
0.0
 11
-49.999999999992781
 21
-592.16599929399115
 31
0.0
  0
LINE
  5
146
  8
SIZE
  6
CONTINUOUS
 62
    30
 10
-899.99999999999272
 20
-572.16599929399115
 30
0.0
 11
-49.999999999992781
 21
-572.16599929399115
 31
0.0
  0
CIRCLE
  5
147
  8
SIZE
  6
CONTINUOUS
 62
    30
 10
-899.99999999999272
 20
-572.16599929399115
 30
0.0
 40
7.5
  0
CIRCLE
  5
148
  8
SIZE
  6
CONTINUOUS
 62
    30
 10
-49.999999999992781
 20
-572.16599929399115
 30
0.0
 40
7.5
  0
TEXT
  5
149
  8
SIZE
  6
CONTINUOUS
 62
    30
 10
-544.42857142856417
 20
-552.16599929399115
 30
0.0
 40
60.0
  1
850
 41
0.9
 72
     1
 11
-474.99999999999272
 21
-552.16599929399115
 31
0.0
  0
POINT
  5
14A
  8
DEFPOINTS
  6
CONTINUOUS
 62
     7
 10
-899.99999999999272
 20
76.084538375966986
 30
0.0
  0
POINT
  5
14B
  8
DEFPOINTS
  6
CONTINUOUS
 62
     7
 10
-49.999999999992717
 20
334.81420311708632
 30
0.0
  0
POINT
  5
14C
  8
DEFPOINTS
  6
CONTINUOUS
 62
     7
 10
-49.999999999992781
 20
-572.16599929399115
 30
0.0
  0
LINE
  5
14D
  8
SIZE
  6
CONTINUOUS
 62
    30
 10
-49.999999999992717
 20
314.81420311708632
 30
0.0
 11
-49.999999999992781
 21
-592.16599929399115
 31
0.0
  0
LINE
  5
14E
  8
SIZE
  6
CONTINUOUS
 62
    30
 10
130.00000000000719
 20
314.81420311708632
 30
0.0
 11
130.00000000000719
 21
-592.16599929399115
 31
0.0
  0
LINE
  5
14F
  8
SIZE
  6
CONTINUOUS
 62
    30
 10
-49.999999999992781
 20
-572.16599929399115
 30
0.0
 11
130.00000000000719
 21
-572.16599929399115
 31
0.0
  0
CIRCLE
  5
150
  8
SIZE
  6
CONTINUOUS
 62
    30
 10
-49.999999999992781
 20
-572.16599929399115
 30
0.0
 40
7.5
  0
CIRCLE
  5
151
  8
SIZE
  6
CONTINUOUS
 62
    30
 10
130.00000000000719
 20
-572.16599929399115
 30
0.0
 40
7.5
  0
TEXT
  5
152
  8
SIZE
  6
CONTINUOUS
 62
    30
 10
-24.285714285707058
 20
-552.16599929399115
 30
0.0
 40
60.0
  1
180
 41
0.9
 72
     1
 11
40.000000000007219
 21
-552.16599929399115
 31
0.0
  0
POINT
  5
153
  8
DEFPOINTS
  6
CONTINUOUS
 62
     7
 10
-49.999999999992717
 20
334.81420311708632
 30
0.0
  0
POINT
  5
154
  8
DEFPOINTS
  6
CONTINUOUS
 62
     7
 10
130.00000000000719
 20
334.81420311708632
 30
0.0
  0
POINT
  5
155
  8
DEFPOINTS
  6
CONTINUOUS
 62
     7
 10
130.00000000000719
 20
-572.16599929399115
 30
0.0
  0
LINE
  5
190
  8
SIZE
  6
CONTINUOUS
 62
    30
 10
750.00000000000705
 20
-43.185796882913557
 30
0.0
 11
750.00000000000705
 21
-799.45255744070346
 31
0.0
  0
LINE
  5
191
  8
SIZE
  6
CONTINUOUS
 62
    30
 10
899.99999999999363
 20
56.084538375966979
 30
0.0
 11
899.99999999999363
 21
-799.45255744070346
 31
0.0
  0
LINE
  5
192
  8
SIZE
  6
CONTINUOUS
 62
    30
 10
750.00000000000705
 20
-779.45255744070334
 30
0.0
 11
899.99999999999363
 21
-779.45255744070334
 31
0.0
  0
LINE
  5
193
  8
SIZE
  6
CONTINUOUS
 62
    30
 10
899.99999999999363
 20
-779.45255744070334
 30
0.0
 11
1098.5714285714221
 21
-779.45255744070334
 31
0.0
  0
CIRCLE
  5
194
  8
SIZE
  6
CONTINUOUS
 62
    30
 10
750.00000000000705
 20
-779.45255744070334
 30
0.0
 40
7.5
  0
CIRCLE
  5
195
  8
SIZE
  6
CONTINUOUS
 62
    30
 10
899.99999999999363
 20
-779.45255744070334
 30
0.0
 40
7.5
  0
TEXT
  5
196
  8
SIZE
  6
CONTINUOUS
 62
    30
 10
949.99999999999363
 20
-759.45255744070334
 30
0.0
 40
60.0
  1
150
 41
0.9
 72
     1
 11
1014.285714285708
 21
-759.45255744070334
 31
0.0
  0
POINT
  5
197
  8
DEFPOINTS
  6
CONTINUOUS
 62
     7
 10
750.00000000000705
 20
-23.185796882913561
 30
0.0
  0
POINT
  5
198
  8
DEFPOINTS
  6
CONTINUOUS
 62
     7
 10
899.99999999999363
 20
76.084538375966986
 30
0.0
  0
POINT
  5
199
  8
DEFPOINTS
  6
CONTINUOUS
 62
     7
 10
899.99999999999363
 20
-779.45255744070334
 30
0.0
  0
LINE
  5
19A
  8
SIZE
  6
CONTINUOUS
 62
    30
 10
-749.99999999999272
 20
-43.185796882913557
 30
0.0
 11
-749.99999999999272
 21
-799.45255744070346
 31
0.0
  0
LINE
  5
19B
  8
SIZE
  6
CONTINUOUS
 62
    30
 10
750.00000000000705
 20
-43.185796882913557
 30
0.0
 11
750.00000000000705
 21
-799.45255744070346
 31
0.0
  0
LINE
  5
19C
  8
SIZE
  6
CONTINUOUS
 62
    30
 10
-749.99999999999272
 20
-779.45255744070334
 30
0.0
 11
750.00000000000705
 21
-779.45255744070334
 31
0.0
  0
CIRCLE
  5
19D
  8
SIZE
  6
CONTINUOUS
 62
    30
 10
-749.99999999999272
 20
-779.45255744070334
 30
0.0
 40
7.5
  0
CIRCLE
  5
19E
  8
SIZE
  6
CONTINUOUS
 62
    30
 10
750.00000000000705
 20
-779.45255744070334
 30
0.0
 40
7.5
  0
TEXT
  5
19F
  8
SIZE
  6
CONTINUOUS
 62
    30
 10
-302.91428571427832
 20
-743.73827172641745
 30
0.0
 40
60.0
  1
1500 (据付ピッチ)
 41
0.9
 72
     1
 11
0.000000000007276
 21
-743.73827172641745
 31
0.0
  0
POINT
  5
1A0
  8
DEFPOINTS
  6
CONTINUOUS
 62
     7
 10
-749.99999999999272
 20
-23.185796882913561
 30
0.0
  0
POINT
  5
1A1
  8
DEFPOINTS
  6
CONTINUOUS
 62
     7
 10
750.00000000000705
 20
-23.185796882913561
 30
0.0
  0
POINT
  5
1A2
  8
DEFPOINTS
  6
CONTINUOUS
 62
     7
 10
750.00000000000705
 20
-779.45255744070334
 30
0.0
  0
POINT
  5
1A9
  8
DEFPOINTS
  6
CONTINUOUS
 62
     7
 10
-899.99999999999272
 20
1766.0
 30
0.0
  0
LINE
  5
1BE
  8
SIZE
  6
CONTINUOUS
 62
    30
 10
919.99999999999375
 20
99.999999999999091
 30
0.0
 11
1126.3655840144031
 21
99.999999999999005
 31
0.0
  0
LINE
  5
1BF
  8
SIZE
  6
CONTINUOUS
 62
    30
 10
882.95884315906915
 20
-0.0000000000000057
 30
0.0
 11
1126.3655840144031
 21
-0.0000000000000746
 31
0.0
  0
LINE
  5
1C0
  8
SIZE
  6
CONTINUOUS
 62
    30
 10
1106.3655840144031
 20
99.999999999999048
 30
0.0
 11
1106.3655840144031
 21
-0.000000000000069
 31
0.0
  0
LINE
  5
1C1
  8
SIZE
  6
CONTINUOUS
 62
    30
 10
1106.3655840144031
 20
-0.000000000000069
 30
0.0
 11
1106.3655840144031
 21
-198.57142857142861
 31
0.0
  0
CIRCLE
  5
1C2
  8
SIZE
  6
CONTINUOUS
 62
    30
 10
1106.3655840144031
 20
99.999999999999048
 30
0.0
 40
7.5
  0
CIRCLE
  5
1C3
  8
SIZE
  6
CONTINUOUS
 62
    30
 10
1106.3655840144031
 20
-0.000000000000069
 30
0.0
 40
7.5
  0
TEXT
  5
1C4
  8
SIZE
  6
CONTINUOUS
 62
    30
 10
1086.3655840144031
 20
-178.57142857142841
 30
0.0
 40
60.0
  1
100
 50
90.0
 41
0.9
 72
     1
 11
1086.3655840144031
 21
-114.28571428571411
 31
0.0
  0
POINT
  5
1C5
  8
DEFPOINTS
  6
CONTINUOUS
 62
     7
 10
899.99999999999363
 20
99.999999999999091
 30
0.0
  0
POINT
  5
1C6
  8
DEFPOINTS
  6
CONTINUOUS
 62
     7
 10
862.95884315906903
 20
0.0
 30
0.0
  0
POINT
  5
1C7
  8
DEFPOINTS
  6
CONTINUOUS
 62
     7
 10
1106.3655840144031
 20
-0.000000000000069
 30
0.0
  0
LINE
  5
1C8
  8
SIZE
  6
CONTINUOUS
 62
    30
 10
919.99999999999375
 20
99.999999999999091
 30
0.0
 11
1126.3655840144031
 21
99.999999999999005
 31
0.0
  0
CIRCLE
  5
1CB
  8
SIZE
  6
CONTINUOUS
 62
    30
 10
1106.3655840144031
 20
99.999999999999048
 30
0.0
 40
7.5
  0
POINT
  5
1CE
  8
DEFPOINTS
  6
CONTINUOUS
 62
     7
 10
899.99999999999363
 20
99.999999999999091
 30
0.0
  0
LINE
  5
1DA
  8
SIZE
  6
CONTINUOUS
 62
    30
 10
882.95884315906915
 20
-0.0000000000000057
 30
0.0
 11
1266.656475523004
 21
-0.0000000000001144
 31
0.0
  0
LINE
  5
1DB
  8
SIZE
  6
CONTINUOUS
 62
    30
 10
919.99999999999375
 20
1980.0
 30
0.0
 11
1266.656475523004
 21
1979.999999999985
 31
0.0
  0
LINE
  5
1DC
  8
SIZE
  6
CONTINUOUS
 62
    30
 10
1246.656475523004
 20
-0.0000000000001087
 30
0.0
 11
1246.656475523004
 21
1979.999999999985
 31
0.0
  0
CIRCLE
  5
1DD
  8
SIZE
  6
CONTINUOUS
 62
    30
 10
1246.656475523004
 20
-0.0000000000001087
 30
0.0
 40
7.5
  0
CIRCLE
  5
1DE
  8
SIZE
  6
CONTINUOUS
 62
    30
 10
1246.656475523004
 20
1979.999999999985
 30
0.0
 40
7.5
  0
TEXT
  5
1DF
  8
SIZE
  6
CONTINUOUS
 62
    30
 10
1226.656475523004
 20
899.99999999999318
 30
0.0
 40
60.0
  1
1980
 50
90.0
 41
0.9
 72
     1
 11
1226.656475523004
 21
989.99999999999318
 31
0.0
  0
POINT
  5
1E0
  8
DEFPOINTS
  6
CONTINUOUS
 62
     7
 10
862.95884315906903
 20
0.0
 30
0.0
  0
POINT
  5
1E2
  8
DEFPOINTS
  6
CONTINUOUS
 62
     7
 10
1246.656475523004
 20
1979.999999999985
 30
0.0
  0
LINE
  5
1E3
  8
BASIS
  6
DASHDOT
 62
     6
 10
0.000000000007276
 20
2020.4891888078489
 30
0.0
 11
0.000000000007276
 21
-100.0
 31
0.0
  0
TEXT
  5
1E4
  8
NOTE
  6
CONTINUOUS
 62
     4
 10
-876.73844457113955
 20
-133.25488132796721
 30
0.0
 40
60.0
  1
RG1 %%C19.05 ﾌﾚｱ
 50
0.0000025044165917
 41
0.7
  7
STANDARD1
  0
LINE
  5
1E5
  8
NOTE
  6
CONTINUOUS
 62
     4
 10
-379.80834361273799
 20
-146.93221775172691
 30
0.0
 11
-886.41020506915424
 21
-146.93221775172691
 31
0.0
  0
TEXT
  5
1E6
  8
NOTE
  6
CONTINUOUS
 62
     4
 10
-874.40230898148684
 20
-255.82277883411089
 30
0.0
 40
60.0
  1
RL1 %%C12.7 ﾌﾚｱ
 50
0.0000025044165917
 41
0.7
  7
STANDARD1
  0
LINE
  5
1E7
  8
NOTE
  6
CONTINUOUS
 62
     4
 10
-410.99132915492368
 20
-269.50011525787062
 30
0.0
 11
-884.0740694795021
 21
-269.50011525787062
 31
0.0
  0
TEXT
  5
1E8
  8
NOTE
  6
CONTINUOUS
 62
     4
 10
353.47722649119072
 20
-253.6895912911086
 30
0.0
 40
60.0
  1
RG2 %%C19.05 ﾌﾚｱ
 50
0.0000025044165917
 41
0.7
  7
STANDARD1
  0
LINE
  5
1E9
  8
NOTE
  6
CONTINUOUS
 62
     4
 10
850.40732744959212
 20
-267.36692771486832
 30
0.0
 11
343.8054659931758
 21
-267.36692771486832
 31
0.0
  0
TEXT
  5
1EA
  8
NOTE
  6
CONTINUOUS
 62
     4
 10
382.69059749971348
 20
-133.4020796486738
 30
0.0
 40
60.0
  1
RL2 %%C12.7 ﾌﾚｱ
 50
0.0000025044165917
 41
0.7
  7
STANDARD1
  0
LINE
  5
1EB
  8
NOTE
  6
CONTINUOUS
 62
     4
 10
846.10157732627704
 20
-147.0794160724335
 30
0.0
 11
373.0188370016985
 21
-147.0794160724335
 31
0.0
  0
LINE
  5
1EC
  8
NOTE
  6
CONTINUOUS
 62
     4
 10
-129.99999999999261
 20
330.0
 30
0.0
 11
-379.80834361273799
 21
-146.93221775172691
 31
0.0
  0
LINE
  5
1ED
  8
NOTE
  6
CONTINUOUS
 62
     4
 10
-49.999999999992717
 20
358.0
 30
0.0
 11
-410.99132915492368
 21
-269.50011525787062
 31
0.0
  0
LINE
  5
1EE
  8
NOTE
  6
CONTINUOUS
 62
     4
 10
343.8054659931758
 20
-267.36692771486832
 30
0.0
 11
50.000000000007283
 21
330.0
 31
0.0
  0
LINE
  5
1EF
  8
NOTE
  6
CONTINUOUS
 62
     4
 10
373.0188370016985
 20
-147.0794160724335
 30
0.0
 11
130.00000000000719
 21
358.0
 31
0.0
  0
TEXT
  5
1F0
  8
NOTE
  6
CONTINUOUS
 62
     4
 10
-1354.224211116978
 20
-118.245208941922
 30
0.0
 40
60.0
  1
AH 4-%%C14
 50
0.0000025044165917
 41
0.7
  7
STANDARD1
  0
LINE
  5
1F1
  8
NOTE
  6
CONTINUOUS
 62
     4
 10
-1041.0366043488509
 20
-134.07173971690821
 30
0.0
 11
-1361.194282018361
 21
-134.07173971690821
 31
0.0
  0
LINE
  5
1F2
  8
NOTE
  6
CONTINUOUS
 62
     4
 10
-749.99999999999272
 20
0.0
 30
0.0
 11
-1041.0366043488509
 21
-134.07173971690821
 31
0.0
  0
CIRCLE
  5
1F3
  8
ARRANGE
  6
CONTINUOUS
 62
     1
 10
0.0000000000004547
 20
0.0
 30
0.0
 40
50.0
  0
LINE
  5
1F4
  8
ARRANGE
  6
CONTINUOUS
 62
     1
 10
50.037350031329417
 20
-49.522353150325202
 30
0.0
 11
-50.037350031328522
 21
49.522353150325202
 31
0.0
  0
LINE
  5
1F5
  8
ARRANGE
  6
CONTINUOUS
 62
     1
 10
49.96376331050169
 20
49.596594797985738
 30
0.0
 11
-49.963763310500781
 21
-49.596594797982121
 31
0.0
  0
LINE
  5
1F6
  8
NOTE
  6
CONTINUOUS
 62
     4
 10
-749.99999999999272
 20
0.0
 30
0.0
 11
-783.86692570246908
 21
-5.9481941338344742
 31
0.0
  0
LINE
  5
1F7
  8
NOTE
  6
CONTINUOUS
 62
     4
 10
-749.99999999999272
 20
0.0
 30
0.0
 11
-776.35552061771159
 21
-22.084750461756801
 31
0.0
  0
LINE
  5
1F8
  8
NOTE
  6
CONTINUOUS
 62
     4
 10
-129.99999999999261
 20
330.0
 30
0.0
 11
-153.34069118607931
 21
304.75001376343681
 31
0.0
  0
LINE
  5
1F9
  8
NOTE
  6
CONTINUOUS
 62
     4
 10
-129.99999999999261
 20
330.0
 30
0.0
 11
-137.58863790211211
 21
296.46252477034608
 31
0.0
  0
LINE
  5
1FA
  8
NOTE
  6
CONTINUOUS
 62
     4
 10
-49.999999999992717
 20
358.0
 30
0.0
 11
-74.897581178825945
 21
334.28375827762181
 31
0.0
  0
LINE
  5
1FB
  8
NOTE
  6
CONTINUOUS
 62
     4
 10
-49.999999999992717
 20
358.0
 30
0.0
 11
-59.70381645182988
 21
325.0123414553554
 31
0.0
  0
LINE
  5
1FC
  8
NOTE
  6
CONTINUOUS
 62
     4
 10
50.000000000007283
 20
330.0
 30
0.0
 11
57.218066091661967
 21
296.38082107059381
 31
0.0
  0
LINE
  5
1FD
  8
NOTE
  6
CONTINUOUS
 62
     4
 10
50.000000000007283
 20
330.0
 30
0.0
 11
73.060618437875732
 21
304.49397037459482
 31
0.0
  0
LINE
  5
1FE
  8
NOTE
  6
CONTINUOUS
 62
     4
 10
130.00000000000719
 20
358.0
 30
0.0
 11
136.8299614318729
 21
324.29983239166171
 31
0.0
  0
LINE
  5
1FF
  8
NOTE
  6
CONTINUOUS
 62
     4
 10
130.00000000000719
 20
358.0
 30
0.0
 11
152.76500428648791
 21
332.22977978701772
 31
0.0
  0
LINE
  5
3C0
  8
OUTLINE
  6
CONTINUOUS
 62
     3
 10
-899.99999999999272
 20
1980.0
 30
0.0
 11
899.99999999999363
 21
1980.0
 31
0.0
  0
LINE
  5
3C1
  8
OUTLINE
  6
CONTINUOUS
 62
     3
 10
899.99999999999363
 20
1980.0
 30
0.0
 11
899.99999999999363
 21
76.084500000000006
 31
0.0
  0
LINE
  5
3C2
  8
OUTLINE
  6
CONTINUOUS
 62
     3
 10
899.99999999999363
 20
99.999999999999091
 30
0.0
 11
-899.99999999999272
 21
99.999999999999091
 31
0.0
  0
LINE
  5
3C3
  8
OUTLINE
  6
CONTINUOUS
 62
     3
 10
-899.99999999999272
 20
76.084538375966986
 30
0.0
 11
-899.99999999999272
 21
1980.0
 31
0.0
  0
LINE
  5
3C4
  8
OUTLINE
  6
CONTINUOUS
 62
     3
 10
-862.95884315906846
 20
99.999999999999091
 30
0.0
 11
-862.95884315906846
 21
0.0
 31
0.0
  0
LINE
  5
3C5
  8
OUTLINE
  6
CONTINUOUS
 62
     3
 10
-862.95884315906846
 20
0.0
 30
0.0
 11
862.95884315906903
 21
0.0
 31
0.0
  0
LINE
  5
3C6
  8
OUTLINE
  6
CONTINUOUS
 62
     3
 10
862.95884315906903
 20
0.0
 30
0.0
 11
862.95884315906903
 21
99.999999999999091
 31
0.0
  0
CIRCLE
  5
3C7
  8
FIX
  6
CONTINUOUS
 62
    11
 10
-749.99975585941104
 20
0.0
 30
0.0
 40
11.59038008087974
  0
CIRCLE
  5
3C8
  8
FIX
  6
CONTINUOUS
 62
    11
 10
750.00000000000705
 20
0.0
 30
0.0
 40
11.59038008087974
  0
TEXT
  5
3C9
  8
ETC
  6
CONTINUOUS
 62
    61
 10
433.04095312492598
 20
2556.5958045207549
 30
0.0
 40
70.0
  1
PVDY-P560NM-E1_2
 50
0.0000029998804485
 41
0.8
  0
LINE
  5
4C5
  8
DETAIL
  6
CONTINUOUS
 62
     5
 10
-899.99999779849895
 20
1541.097397679536
 30
0.0
 11
900.00000220148729
 21
1541.097397679536
 31
0.0
  0
LINE
  5
4E5
  8
SIZE
  6
CONTINUOUS
 62
    30
 10
919.99999999999375
 20
1980.0
 30
0.0
 11
1126.365584014404
 21
1980.0
 31
0.0
  0
LINE
  5
4E6
  8
SIZE
  6
CONTINUOUS
 62
    30
 10
919.99999999999352
 20
99.999999999999105
 30
0.0
 11
1126.3655840144031
 21
99.999999999999034
 31
0.0
  0
LINE
  5
4E7
  8
SIZE
  6
CONTINUOUS
 62
    30
 10
1106.365584014404
 20
1980.0
 30
0.0
 11
1106.3655840144031
 21
99.999999999999048
 31
0.0
  0
TEXT
  5
4ED
  8
SIZE
  6
CONTINUOUS
 62
    30
 10
1088.3296797112921
 20
949.99999999999955
 30
0.0
 40
60.0
  1
1880
 50
90.0
 41
0.9
 72
     1
 11
1088.3296797112921
 21
1039.9999999999991
 31
0.0
  0
CIRCLE
  5
4EE
  8
SIZE
  6
CONTINUOUS
 62
    30
 10
1106.365584014404
 20
1980.0
 30
0.0
 40
7.5
  0
CIRCLE
  5
4EF
  8
SIZE
  6
CONTINUOUS
 62
    30
 10
1106.3655840144031
 20
99.999999999999048
 30
0.0
 40
7.5
  0
ENDSEC
  0
EOF
