  0
SECTION
  2
HEADER
  9
$ACADVER
  1
AC1015
  9
$ACADMAINTVER
 70
    20
  9
$DWGCODEPAGE
  3
ANSI_932
  9
$INSBASE
 10
0.0
 20
0.0
 30
0.0
  9
$EXTMIN
 10
-1564.3920579045
 20
-653.9230173848609
 30
-0.0015258207003583
  9
$EXTMAX
 10
1508.117697327532
 20
1952.583325738764
 30
0.0000000349246037
  9
$LIMMIN
 10
-5000.0
 20
-2500.0
  9
$LIMMAX
 10
7000.0
 20
4000.0
  9
$ORTHOMODE
 70
     0
  9
$REGENMODE
 70
     1
  9
$FILLMODE
 70
     1
  9
$QTEXTMODE
 70
     0
  9
$MIRRTEXT
 70
     0
  9
$LTSCALE
 40
20.0
  9
$ATTMODE
 70
     0
  9
$TEXTSIZE
 40
64.0
  9
$TRACEWID
 40
0.05
  9
$TEXTSTYLE
  7
STANDARD
  9
$CLAYER
  8
SYMBOLLINE
  9
$CELTYPE
  6
CONTINUOUS
  9
$CECOLOR
 62
     7
  9
$CELTSCALE
 40
1.0
  9
$DISPSILH
 70
     0
  9
$DIMSCALE
 40
1.0
  9
$DIMASZ
 40
10.0
  9
$DIMEXO
 40
20.0
  9
$DIMDLI
 40
200.0
  9
$DIMRND
 40
0.0
  9
$DIMDLE
 40
0.0
  9
$DIMEXE
 40
15.0
  9
$DIMTP
 40
0.0
  9
$DIMTM
 40
0.0
  9
$DIMTXT
 40
40.0
  9
$DIMCEN
 40
0.0
  9
$DIMTSZ
 40
0.0
  9
$DIMTOL
 70
     0
  9
$DIMLIM
 70
     0
  9
$DIMTIH
 70
     0
  9
$DIMTOH
 70
     0
  9
$DIMSE1
 70
     0
  9
$DIMSE2
 70
     0
  9
$DIMTAD
 70
     1
  9
$DIMZIN
 70
     8
  9
$DIMBLK
  1
DOTBLANK
  9
$DIMASO
 70
     1
  9
$DIMSHO
 70
     0
  9
$DIMPOST
  1

  9
$DIMAPOST
  1

  9
$DIMALT
 70
     0
  9
$DIMALTD
 70
     2
  9
$DIMALTF
 40
25.4
  9
$DIMLFAC
 40
1.0
  9
$DIMTOFL
 70
     1
  9
$DIMTVP
 40
0.0
  9
$DIMTIX
 70
     1
  9
$DIMSOXD
 70
     0
  9
$DIMSAH
 70
     0
  9
$DIMBLK1
  1

  9
$DIMBLK2
  1

  9
$DIMSTYLE
  2
STANDARD
  9
$DIMCLRD
 70
     0
  9
$DIMCLRE
 70
     0
  9
$DIMCLRT
 70
     0
  9
$DIMTFAC
 40
1.0
  9
$DIMGAP
 40
0.09
  9
$DIMJUST
 70
     0
  9
$DIMSD1
 70
     0
  9
$DIMSD2
 70
     0
  9
$DIMTOLJ
 70
     1
  9
$DIMTZIN
 70
     0
  9
$DIMALTZ
 70
     0
  9
$DIMALTTZ
 70
     0
  9
$DIMUPT
 70
     0
  9
$DIMDEC
 70
     4
  9
$DIMTDEC
 70
     4
  9
$DIMALTU
 70
     2
  9
$DIMALTTD
 70
     2
  9
$DIMTXSTY
  7
STANDARD
  9
$DIMAUNIT
 70
     0
  9
$DIMADEC
 70
     0
  9
$DIMALTRND
 40
0.0
  9
$DIMAZIN
 70
     0
  9
$DIMDSEP
 70
    46
  9
$DIMATFIT
 70
     3
  9
$DIMFRAC
 70
     0
  9
$DIMLDRBLK
  1
DOTBLANK
  9
$DIMLUNIT
 70
     2
  9
$DIMLWD
 70
    -2
  9
$DIMLWE
 70
    -2
  9
$DIMTMOVE
 70
     0
  9
$LUNITS
 70
     2
  9
$LUPREC
 70
     4
  9
$SKETCHINC
 40
0.1
  9
$FILLETRAD
 40
15.0
  9
$AUNITS
 70
     1
  9
$AUPREC
 70
     3
  9
$MENU
  1
ACAD
  9
$ELEVATION
 40
0.0
  9
$PELEVATION
 40
0.0
  9
$THICKNESS
 40
0.0
  9
$LIMCHECK
 70
     0
  9
$CHAMFERA
 40
0.0
  9
$CHAMFERB
 40
0.0
  9
$CHAMFERC
 40
0.0
  9
$CHAMFERD
 40
0.0
  9
$SKPOLY
 70
     0
  9
$TDCREATE
 40
2449761.493611112
  9
$TDUCREATE
 40
2449761.118611112
  9
$TDUPDATE
 40
2460108.406747685
  9
$TDUUPDATE
 40
2460108.031747685
  9
$TDINDWG
 40
9.8292507523
  9
$TDUSRTIMER
 40
9.8292402662
  9
$USRTIMER
 70
     1
  9
$ANGBASE
 50
0.0
  9
$ANGDIR
 70
     0
  9
$PDMODE
 70
    35
  9
$PDSIZE
 40
100.0
  9
$PLINEWID
 40
0.0
  9
$SPLFRAME
 70
     0
  9
$SPLINETYPE
 70
     6
  9
$SPLINESEGS
 70
     8
  9
$HANDSEED
  5
33AF
  9
$SURFTAB1
 70
     6
  9
$SURFTAB2
 70
     6
  9
$SURFTYPE
 70
     6
  9
$SURFU
 70
     6
  9
$SURFV
 70
     6
  9
$UCSBASE
  2

  9
$UCSNAME
  2
W_UCS
  9
$UCSORG
 10
0.0
 20
0.0
 30
0.0
  9
$UCSXDIR
 10
1.0
 20
0.0
 30
0.0
  9
$UCSYDIR
 10
0.0
 20
1.0
 30
0.0
  9
$UCSORTHOREF
  2

  9
$UCSORTHOVIEW
 70
     0
  9
$UCSORGTOP
 10
0.0
 20
0.0
 30
0.0
  9
$UCSORGBOTTOM
 10
0.0
 20
0.0
 30
0.0
  9
$UCSORGLEFT
 10
0.0
 20
0.0
 30
0.0
  9
$UCSORGRIGHT
 10
0.0
 20
0.0
 30
0.0
  9
$UCSORGFRONT
 10
0.0
 20
0.0
 30
0.0
  9
$UCSORGBACK
 10
0.0
 20
0.0
 30
0.0
  9
$PUCSBASE
  2

  9
$PUCSNAME
  2

  9
$PUCSORG
 10
0.0
 20
0.0
 30
0.0
  9
$PUCSXDIR
 10
1.0
 20
0.0
 30
0.0
  9
$PUCSYDIR
 10
0.0
 20
1.0
 30
0.0
  9
$PUCSORTHOREF
  2

  9
$PUCSORTHOVIEW
 70
     0
  9
$PUCSORGTOP
 10
0.0
 20
0.0
 30
0.0
  9
$PUCSORGBOTTOM
 10
0.0
 20
0.0
 30
0.0
  9
$PUCSORGLEFT
 10
0.0
 20
0.0
 30
0.0
  9
$PUCSORGRIGHT
 10
0.0
 20
0.0
 30
0.0
  9
$PUCSORGFRONT
 10
0.0
 20
0.0
 30
0.0
  9
$PUCSORGBACK
 10
0.0
 20
0.0
 30
0.0
  9
$USERI1
 70
     0
  9
$USERI2
 70
     0
  9
$USERI3
 70
     0
  9
$USERI4
 70
     0
  9
$USERI5
 70
     0
  9
$USERR1
 40
20.0
  9
$USERR2
 40
0.0
  9
$USERR3
 40
0.0
  9
$USERR4
 40
0.0
  9
$USERR5
 40
0.0
  9
$WORLDVIEW
 70
     1
  9
$SHADEDGE
 70
     3
  9
$SHADEDIF
 70
    70
  9
$TILEMODE
 70
     1
  9
$MAXACTVP
 70
    64
  9
$PINSBASE
 10
0.0
 20
0.0
 30
0.0
  9
$PLIMCHECK
 70
     0
  9
$PEXTMIN
 10
1.000000000000000E+20
 20
1.000000000000000E+20
 30
1.000000000000000E+20
  9
$PEXTMAX
 10
-1.000000000000000E+20
 20
-1.000000000000000E+20
 30
-1.000000000000000E+20
  9
$PLIMMIN
 10
0.0
 20
0.0
  9
$PLIMMAX
 10
12.0
 20
9.0
  9
$UNITMODE
 70
     0
  9
$VISRETAIN
 70
     1
  9
$PLINEGEN
 70
     0
  9
$PSLTSCALE
 70
     1
  9
$TREEDEPTH
 70
  3020
  9
$CMLSTYLE
  2
Standard
  9
$CMLJUST
 70
     0
  9
$CMLSCALE
 40
1.0
  9
$PROXYGRAPHICS
 70
     1
  9
$MEASUREMENT
 70
     0
  9
$CELWEIGHT
370
    -1
  9
$ENDCAPS
280
     0
  9
$JOINSTYLE
280
     0
  9
$LWDISPLAY
290
     0
  9
$INSUNITS
 70
     0
  9
$HYPERLINKBASE
  1

  9
$STYLESHEET
  1

  9
$XEDIT
290
     1
  9
$CEPSNTYPE
380
     0
  9
$PSTYLEMODE
290
     1
  9
$FINGERPRINTGUID
  2
{81BB6BE0-4111-B641-B37F-2F62A726786D}
  9
$VERSIONGUID
  2
{70F723F4-CC2B-1345-B858-5C2143F20AE6}
  9
$EXTNAMES
290
     1
  9
$PSVPSCALE
 40
0.0
  9
$OLESTARTUP
290
     0
  0
ENDSEC
  0
SECTION
  2
CLASSES
  0
CLASS
  1
ACDBDICTIONARYWDFLT
  2
AcDbDictionaryWithDefault
  3
ObjectDBX Classes
 90
        0
280
     0
281
     0
  0
CLASS
  1
MATERIAL
  2
AcDbMaterial
  3
ObjectDBX Classes
 90
     1153
280
     0
281
     0
  0
CLASS
  1
VISUALSTYLE
  2
AcDbVisualStyle
  3
ObjectDBX Classes
 90
     4095
280
     0
281
     0
  0
CLASS
  1
SCALE
  2
AcDbScale
  3
ObjectDBX Classes
 90
     1153
280
     0
281
     0
  0
CLASS
  1
TABLESTYLE
  2
AcDbTableStyle
  3
ObjectDBX Classes
 90
     4095
280
     0
281
     0
  0
CLASS
  1
MLEADERSTYLE
  2
AcDbMLeaderStyle
  3
ACDB_MLEADERSTYLE_CLASS
 90
     4095
280
     0
281
     0
  0
CLASS
  1
ACDBSECTIONVIEWSTYLE
  2
AcDbSectionViewStyle
  3
ObjectDBX Classes
 90
     1025
280
     0
281
     0
  0
CLASS
  1
ACDBDETAILVIEWSTYLE
  2
AcDbDetailViewStyle
  3
ObjectDBX Classes
 90
     1025
280
     0
281
     0
  0
CLASS
  1
DICTIONARYVAR
  2
AcDbDictionaryVar
  3
ObjectDBX Classes
 90
        0
280
     0
281
     0
  0
CLASS
  1
CELLSTYLEMAP
  2
AcDbCellStyleMap
  3
ObjectDBX Classes
 90
     1152
280
     0
281
     0
  0
CLASS
  1
ACDBPLACEHOLDER
  2
AcDbPlaceHolder
  3
ObjectDBX Classes
 90
        0
280
     0
281
     0
  0
CLASS
  1
LAYOUT
  2
AcDbLayout
  3
ObjectDBX Classes
 90
        0
280
     0
281
     0
  0
ENDSEC
  0
SECTION
  2
TABLES
  0
TABLE
  2
VPORT
  5
329E
330
0
100
AcDbSymbolTable
 70
     1
  0
VPORT
  5
330A
330
329E
100
AcDbSymbolTableRecord
100
AcDbViewportTableRecord
  2
*ACTIVE
 70
     0
 10
0.0
 20
0.0
 11
1.0
 21
1.0
 12
-28.13718028848427
 22
649.3301541769514
 13
0.0
 23
0.0
 14
50.0
 24
50.0
 15
100.0
 25
100.0
 16
0.0
 26
0.0
 36
1.0
 17
0.0
 27
0.0
 37
0.0
 40
2625.742552297969
 41
1.828817733990147
 42
50.0
 43
0.0
 44
0.0
 50
0.0
 51
0.0
 71
     0
 72
  1000
 73
     1
 74
     0
 75
     0
 76
     0
 77
     0
 78
     0
281
     0
 65
     1
110
0.0
120
0.0
130
0.0
111
1.0
121
0.0
131
0.0
112
0.0
122
1.0
132
0.0
 79
     0
146
0.0
1001
ACAD_NAV_VCDISPLAY
1070
     3
  0
ENDTAB
  0
TABLE
  2
LTYPE
  5
329B
330
0
100
AcDbSymbolTable
 70
     3
  0
LTYPE
  5
32F0
330
329B
100
AcDbSymbolTableRecord
100
AcDbLinetypeTableRecord
  2
ByBlock
 70
     0
  3

 72
    65
 73
     0
 40
0.0
  0
LTYPE
  5
32F1
330
329B
100
AcDbSymbolTableRecord
100
AcDbLinetypeTableRecord
  2
ByLayer
 70
     0
  3

 72
    65
 73
     0
 40
0.0
  0
LTYPE
  5
32F2
330
329B
100
AcDbSymbolTableRecord
100
AcDbLinetypeTableRecord
  2
CONTINUOUS
 70
     0
  3
実線
 72
    65
 73
     0
 40
0.0
  0
LTYPE
  5
330B
330
329B
100
AcDbSymbolTableRecord
100
AcDbLinetypeTableRecord
  2
DASHDOT
 70
     0
  3
____ _ ____ _ ____ _ ____ _ ____ _ ____ _ ____
 72
    65
 73
     4
 40
5.5
 49
4.0
 74
     0
 49
-0.6
 74
     0
 49
0.3
 74
     0
 49
-0.6
 74
     0
  0
ENDTAB
  0
TABLE
  2
LAYER
  5
3298
330
0
100
AcDbSymbolTable
 70
    12
  0
LAYER
  5
32EA
102
{ACAD_XDICTIONARY
360
334E
102
}
330
3298
100
AcDbSymbolTableRecord
100
AcDbLayerTableRecord
  2
0
 70
     0
 62
     7
  6
CONTINUOUS
370
    -3
390
32A5
  0
LAYER
  5
3309
102
{ACAD_XDICTIONARY
360
3350
102
}
330
3298
100
AcDbSymbolTableRecord
100
AcDbLayerTableRecord
  2
SYMBOLLINE
 70
     0
 62
    15
  6
CONTINUOUS
370
    -3
390
32A5
  0
LAYER
  5
330C
102
{ACAD_XDICTIONARY
360
3352
102
}
330
3298
100
AcDbSymbolTableRecord
100
AcDbLayerTableRecord
  2
OUTLINE
 70
     0
 62
     3
  6
CONTINUOUS
370
    -3
390
32A5
  0
LAYER
  5
330D
102
{ACAD_XDICTIONARY
360
3354
102
}
330
3298
100
AcDbSymbolTableRecord
100
AcDbLayerTableRecord
  2
DETAIL
 70
     0
 62
     5
  6
CONTINUOUS
370
    -3
390
32A5
  0
LAYER
  5
330E
102
{ACAD_XDICTIONARY
360
3356
102
}
330
3298
100
AcDbSymbolTableRecord
100
AcDbLayerTableRecord
  2
BASIS
 70
     0
 62
     6
  6
DASHDOT
370
    -3
390
32A5
  0
LAYER
  5
330F
102
{ACAD_XDICTIONARY
360
3358
102
}
330
3298
100
AcDbSymbolTableRecord
100
AcDbLayerTableRecord
  2
SIZE
 70
     0
 62
    30
  6
CONTINUOUS
370
    -3
390
32A5
  0
LAYER
  5
3310
102
{ACAD_XDICTIONARY
360
335A
102
}
330
3298
100
AcDbSymbolTableRecord
100
AcDbLayerTableRecord
  2
NOTE
 70
     0
 62
     4
  6
CONTINUOUS
370
    -3
390
32A5
  0
LAYER
  5
3311
102
{ACAD_XDICTIONARY
360
335C
102
}
330
3298
100
AcDbSymbolTableRecord
100
AcDbLayerTableRecord
  2
ARRANGE
 70
     0
 62
     1
  6
CONTINUOUS
370
    -3
390
32A5
  0
LAYER
  5
3312
102
{ACAD_XDICTIONARY
360
335E
102
}
330
3298
100
AcDbSymbolTableRecord
100
AcDbLayerTableRecord
  2
FIX
 70
     0
 62
    11
  6
CONTINUOUS
370
    -3
390
32A5
  0
LAYER
  5
3313
102
{ACAD_XDICTIONARY
360
3360
102
}
330
3298
100
AcDbSymbolTableRecord
100
AcDbLayerTableRecord
  2
SERVICESPACE
 70
     0
 62
     2
  6
DASHDOT
370
    -3
390
32A5
  0
LAYER
  5
3314
102
{ACAD_XDICTIONARY
360
3362
102
}
330
3298
100
AcDbSymbolTableRecord
100
AcDbLayerTableRecord
  2
ETC
 70
     0
 62
    61
  6
CONTINUOUS
370
    -3
390
32A5
  0
LAYER
  5
3315
330
3298
100
AcDbSymbolTableRecord
100
AcDbLayerTableRecord
  2
DEFPOINTS
 70
     0
 62
     7
  6
CONTINUOUS
290
     0
370
    -3
390
32A5
  0
ENDTAB
  0
TABLE
  2
STYLE
  5
3299
330
0
100
AcDbSymbolTable
 70
     3
  0
STYLE
  5
32EB
330
3299
100
AcDbSymbolTableRecord
100
AcDbTextStyleTableRecord
  2
STANDARD
 70
     0
 40
0.0
 41
0.9
 50
0.0
 71
     0
 42
64.0
  3
SIMPLEX
  4
BIGFONT
  0
STYLE
  5
32EF
330
3299
100
AcDbSymbolTableRecord
100
AcDbTextStyleTableRecord
  2
ANNOTATIVE
 70
     0
 40
0.0
 41
1.0
 50
0.0
 71
     0
 42
0.2
  3
txt
  4

1001
ACADANNOTATIVE
1000
AnnotativeData
1002
{
1070
     1
1070
     1
1002
}
  0
STYLE
  5
3316
330
3299
100
AcDbSymbolTableRecord
100
AcDbTextStyleTableRecord
  2
STANDARD1
 70
     0
 40
0.0
 41
1.0
 50
0.0
 71
     0
 42
3.5
  3
MONOTXT
  4
BIGFONT
  0
ENDTAB
  0
TABLE
  2
VIEW
  5
329C
330
0
100
AcDbSymbolTable
 70
     1
  0
VIEW
  5
3317
330
329C
100
AcDbSymbolTableRecord
100
AcDbViewTableRecord
  2
ALL
 70
     0
 40
6056.230032000001
 10
0.0
 20
58.11501599999999
 41
8400.0
 11
0.0
 21
0.0
 31
1.0
 12
0.0
 22
0.0
 32
0.0
 42
50.0
 43
0.0
 44
0.0
 50
0.0
 71
     0
281
     0
 72
     0
  0
ENDTAB
  0
TABLE
  2
UCS
  5
329D
330
0
100
AcDbSymbolTable
 70
     1
  0
UCS
  5
3318
330
329D
100
AcDbSymbolTableRecord
100
AcDbUCSTableRecord
  2
W_UCS
 70
     0
 10
0.0
 20
0.0
 30
0.0
 11
1.0
 21
0.0
 31
0.0
 12
0.0
 22
1.0
 32
0.0
 79
     0
146
0.0
  0
ENDTAB
  0
TABLE
  2
APPID
  5
329F
330
0
100
AcDbSymbolTable
 70
     8
  0
APPID
  5
32EC
330
329F
100
AcDbSymbolTableRecord
100
AcDbRegAppTableRecord
  2
ACAD
 70
     0
  0
APPID
  5
32F3
330
329F
100
AcDbSymbolTableRecord
100
AcDbRegAppTableRecord
  2
ACADANNOTATIVE
 70
     0
  0
APPID
  5
3319
330
329F
100
AcDbSymbolTableRecord
100
AcDbRegAppTableRecord
  2
ACAD_MLEADERVER
 70
     0
  0
APPID
  5
331A
330
329F
100
AcDbSymbolTableRecord
100
AcDbRegAppTableRecord
  2
ACAD_EXEMPT_FROM_CAD_STAND
 70
     0
  0
APPID
  5
331B
330
329F
100
AcDbSymbolTableRecord
100
AcDbRegAppTableRecord
  2
ACAD_DSTYLE_DIMJAG
 70
     0
  0
APPID
  5
331C
330
329F
100
AcDbSymbolTableRecord
100
AcDbRegAppTableRecord
  2
ACAD_DSTYLE_DIMTALN
 70
     0
  0
APPID
  5
334C
330
329F
100
AcDbSymbolTableRecord
100
AcDbRegAppTableRecord
  2
ACAD_EXEMPT_FROM_CAD_STANDARDS
 70
     0
  0
APPID
  5
336E
330
329F
100
AcDbSymbolTableRecord
100
AcDbRegAppTableRecord
  2
ACAD_NAV_VCDISPLAY
 70
     0
  0
ENDTAB
  0
TABLE
  2
DIMSTYLE
  5
32A0
330
0
100
AcDbSymbolTable
 70
     2
100
AcDbDimStyleTable
 71
     0
  0
DIMSTYLE
105
32ED
330
32A0
100
AcDbSymbolTableRecord
100
AcDbDimStyleTableRecord
  2
STANDARD
 70
     0
275
     1
279
     2
284
     8
285
     8
286
     8
340
32EB
  0
DIMSTYLE
105
32EE
330
32A0
100
AcDbSymbolTableRecord
100
AcDbDimStyleTableRecord
  2
ANNOTATIVE
 70
     0
275
     1
279
     2
284
     8
285
     8
286
     8
340
32EB
1001
ACADANNOTATIVE
1000
AnnotativeData
1002
{
1070
     1
1070
     1
1002
}
  0
ENDTAB
  0
TABLE
  2
BLOCK_RECORD
  5
3297
330
0
100
AcDbSymbolTable
 70
    21
  0
BLOCK_RECORD
  5
3305
330
3297
100
AcDbSymbolTableRecord
100
AcDbBlockTableRecord
  2
*Model_Space
340
3308
  0
BLOCK_RECORD
  5
3301
330
3297
100
AcDbSymbolTableRecord
100
AcDbBlockTableRecord
  2
*Paper_Space
340
3304
  0
BLOCK_RECORD
  5
3321
330
3297
100
AcDbSymbolTableRecord
100
AcDbBlockTableRecord
  2
$MODEL_SPACE
340
0
  0
BLOCK_RECORD
  5
3323
330
3297
100
AcDbSymbolTableRecord
100
AcDbBlockTableRecord
  2
$PAPER_SPACE
340
0
  0
BLOCK_RECORD
  5
3325
330
3297
100
AcDbSymbolTableRecord
100
AcDbBlockTableRecord
  2
_DOTBLANK
340
0
102
{BLKREFS
331
2C19
331
2C1A
331
2C22
331
2C23
331
2C07
331
2C34
331
2C35
331
2C4F
331
2C50
331
2C2B
331
2C2C
331
2C3D
331
2C3E
331
2C46
331
2C47
331
2C08
331
2C10
331
2C11
102
}
  0
BLOCK_RECORD
  5
3327
330
3297
100
AcDbSymbolTableRecord
100
AcDbBlockTableRecord
  2
*D3
340
0
  0
BLOCK_RECORD
  5
3329
330
3297
100
AcDbSymbolTableRecord
100
AcDbBlockTableRecord
  2
*U4
340
0
102
{BLKREFS
331
2C3F
102
}
  0
BLOCK_RECORD
  5
332B
330
3297
100
AcDbSymbolTableRecord
100
AcDbBlockTableRecord
  2
*D5
340
0
  0
BLOCK_RECORD
  5
332D
330
3297
100
AcDbSymbolTableRecord
100
AcDbBlockTableRecord
  2
*U6
340
0
102
{BLKREFS
331
2C12
102
}
  0
BLOCK_RECORD
  5
332F
330
3297
100
AcDbSymbolTableRecord
100
AcDbBlockTableRecord
  2
*D7
340
0
  0
BLOCK_RECORD
  5
3331
330
3297
100
AcDbSymbolTableRecord
100
AcDbBlockTableRecord
  2
*U8
340
0
102
{BLKREFS
331
2C09
102
}
  0
BLOCK_RECORD
  5
3333
330
3297
100
AcDbSymbolTableRecord
100
AcDbBlockTableRecord
  2
*D9
340
0
  0
BLOCK_RECORD
  5
3335
330
3297
100
AcDbSymbolTableRecord
100
AcDbBlockTableRecord
  2
*U10
340
0
102
{BLKREFS
331
2C36
102
}
  0
BLOCK_RECORD
  5
3337
330
3297
100
AcDbSymbolTableRecord
100
AcDbBlockTableRecord
  2
*D11
340
0
  0
BLOCK_RECORD
  5
3339
330
3297
100
AcDbSymbolTableRecord
100
AcDbBlockTableRecord
  2
*U12
340
0
102
{BLKREFS
331
2C51
102
}
  0
BLOCK_RECORD
  5
333B
330
3297
100
AcDbSymbolTableRecord
100
AcDbBlockTableRecord
  2
*D13
340
0
  0
BLOCK_RECORD
  5
333D
330
3297
100
AcDbSymbolTableRecord
100
AcDbBlockTableRecord
  2
*U14
340
0
102
{BLKREFS
331
2C2D
102
}
  0
BLOCK_RECORD
  5
333F
330
3297
100
AcDbSymbolTableRecord
100
AcDbBlockTableRecord
  2
*D15
340
0
  0
BLOCK_RECORD
  5
3341
330
3297
100
AcDbSymbolTableRecord
100
AcDbBlockTableRecord
  2
*U16
340
0
102
{BLKREFS
331
2C24
102
}
  0
BLOCK_RECORD
  5
3343
330
3297
100
AcDbSymbolTableRecord
100
AcDbBlockTableRecord
  2
*D17
340
0
  0
BLOCK_RECORD
  5
3345
330
3297
100
AcDbSymbolTableRecord
100
AcDbBlockTableRecord
  2
*U18
340
0
102
{BLKREFS
331
2C1B
102
}
  0
BLOCK_RECORD
  5
3347
330
3297
100
AcDbSymbolTableRecord
100
AcDbBlockTableRecord
  2
*D19
340
0
  0
BLOCK_RECORD
  5
3349
330
3297
100
AcDbSymbolTableRecord
100
AcDbBlockTableRecord
  2
*U20
340
0
102
{BLKREFS
331
2C48
102
}
  0
ENDTAB
  0
ENDSEC
  0
SECTION
  2
BLOCKS
  0
BLOCK
  5
3306
330
3305
100
AcDbEntity
  8
0
100
AcDbBlockBegin
  2
*Model_Space
 70
     0
 10
0.0
 20
0.0
 30
0.0
  3
*Model_Space
  1

  0
ENDBLK
  5
3307
330
3305
100
AcDbEntity
  8
0
100
AcDbBlockEnd
  0
BLOCK
  5
3302
330
3301
100
AcDbEntity
 67
     1
  8
0
100
AcDbBlockBegin
  2
*Paper_Space
 70
     0
 10
0.0
 20
0.0
 30
0.0
  3
*Paper_Space
  1

  0
ENDBLK
  5
3303
330
3301
100
AcDbEntity
 67
     1
  8
0
100
AcDbBlockEnd
  0
BLOCK
  5
3322
330
3321
100
AcDbEntity
  8
0
100
AcDbBlockBegin
  2
$MODEL_SPACE
 70
     0
 10
0.0
 20
0.0
 30
0.0
  3
$MODEL_SPACE
  1

  0
ENDBLK
  5
317B
330
3321
100
AcDbEntity
  8
0
100
AcDbBlockEnd
  0
BLOCK
  5
3324
330
3323
100
AcDbEntity
  8
0
100
AcDbBlockBegin
  2
$PAPER_SPACE
 70
     0
 10
0.0
 20
0.0
 30
0.0
  3
$PAPER_SPACE
  1

  0
ENDBLK
  5
3177
330
3323
100
AcDbEntity
  8
0
100
AcDbBlockEnd
  0
BLOCK
  5
3326
330
3325
100
AcDbEntity
  8
0
100
AcDbBlockBegin
  2
_DOTBLANK
 70
     0
 10
0.0
 20
0.0
 30
0.0
  3
_DOTBLANK
  1

  0
CIRCLE
  5
2879
330
3325
100
AcDbEntity
  8
0
  6
ByBlock
 62
     0
100
AcDbCircle
 10
0.0
 20
0.0
 30
0.0
 40
0.5
  0
LINE
  5
287A
330
3325
100
AcDbEntity
  8
0
  6
ByBlock
 62
     0
100
AcDbLine
 10
-0.5
 20
0.0
 30
0.0
 11
-1.0
 21
0.0
 31
0.0
  0
ENDBLK
  5
287B
330
3325
100
AcDbEntity
  8
0
 62
     7
100
AcDbBlockEnd
  0
BLOCK
  5
3328
330
3327
100
AcDbEntity
  8
0
100
AcDbBlockBegin
  2
*D3
 70
     1
 10
0.0
 20
0.0
 30
0.0
  3
*D3
  1

  0
LINE
  5
2C3A
330
3327
100
AcDbEntity
  8
SIZE
  6
Continuous
 62
     0
100
AcDbLine
 10
456.9999666270009
 20
43.2011361277773
 30
0.0
 11
456.9999666270009
 21
-488.6406983012419
 31
0.0
  0
LINE
  5
2C3B
330
3327
100
AcDbEntity
  8
SIZE
  6
Continuous
 62
     0
100
AcDbLine
 10
-457.0000333729992
 20
43.2011361277773
 30
0.0
 11
-457.0000333729992
 21
-488.6406983012419
 31
0.0
  0
LINE
  5
2C3C
330
3327
100
AcDbEntity
  8
SIZE
  6
Continuous
 62
     0
100
AcDbLine
 10
446.9999666270009
 20
-473.6406983012421
 30
0.0
 11
-447.000033372999
 21
-473.6406983012421
 31
0.0
  0
INSERT
  5
2C3D
330
3327
100
AcDbEntity
  8
SIZE
  6
Continuous
 62
     0
100
AcDbBlockReference
  2
_DOTBLANK
 10
456.9999666270009
 20
-473.6406983012421
 30
0.0
 41
10.0
 42
10.0
 43
10.0
  0
INSERT
  5
2C3E
330
3327
100
AcDbEntity
  8
SIZE
  6
Continuous
 62
     0
100
AcDbBlockReference
  2
_DOTBLANK
 10
-457.0000333729992
 20
-473.6406983012421
 30
0.0
 41
10.0
 42
10.0
 43
10.0
 50
180.0
  0
INSERT
  5
2C3F
330
3327
100
AcDbEntity
  8
SYMBOLLINE
  6
Continuous
 62
     7
100
AcDbBlockReference
  2
*U4
 10
0.0
 20
0.0
 30
0.0
  0
POINT
  5
2C40
330
3327
100
AcDbEntity
  8
DEFPOINTS
  6
Continuous
 62
     0
100
AcDbPoint
 10
456.9999666270009
 20
63.20113612777731
 30
0.0
  0
POINT
  5
2C41
330
3327
100
AcDbEntity
  8
DEFPOINTS
  6
Continuous
 62
     0
100
AcDbPoint
 10
-457.0000333729992
 20
63.20113612777731
 30
0.0
  0
POINT
  5
2C42
330
3327
100
AcDbEntity
  8
DEFPOINTS
  6
Continuous
 62
     0
100
AcDbPoint
 10
-457.0000333729992
 20
-473.6406983012421
 30
0.0
  0
ENDBLK
  5
2A39
330
3327
100
AcDbEntity
  8
0
 62
     7
100
AcDbBlockEnd
  0
BLOCK
  5
332A
330
3329
100
AcDbEntity
  8
0
100
AcDbBlockBegin
  2
*U4
 70
     1
 10
0.0
 20
0.0
 30
0.0
  3
*U4
  1

  0
TEXT
  5
2D62
330
3329
100
AcDbEntity
  8
SIZE
  6
Continuous
 62
     0
100
AcDbText
 10
-69.29453863039585
 20
-473.5506983012418
 30
0.0
 40
40.0
  1
914
 41
0.9
100
AcDbText
  0
ENDBLK
  5
2D64
330
3329
100
AcDbEntity
  8
0
 62
     7
100
AcDbBlockEnd
  0
BLOCK
  5
332C
330
332B
100
AcDbEntity
  8
0
100
AcDbBlockBegin
  2
*D5
 70
     1
 10
0.0
 20
0.0
 30
0.0
  3
*D5
  1

  0
LINE
  5
2C0D
330
332B
100
AcDbEntity
  8
SIZE
  6
Continuous
 62
     0
100
AcDbLine
 10
-286.0000333730009
 20
215.0000010707981
 30
0.0
 11
-792.6244309507408
 21
215.0000010707983
 31
0.0
  0
LINE
  5
2C0E
330
332B
100
AcDbEntity
  8
SIZE
  6
Continuous
 62
     0
100
AcDbLine
 10
-473.7988983160222
 20
60.00000107079814
 30
0.0
 11
-792.6244309507408
 21
60.00000107079824
 31
0.0
  0
LINE
  5
2C0F
330
332B
100
AcDbEntity
  8
SIZE
  6
Continuous
 62
     0
100
AcDbLine
 10
-777.6244309507408
 20
205.0000010707983
 30
0.0
 11
-777.6244309507408
 21
70.00000107079822
 31
0.0
  0
INSERT
  5
2C10
330
332B
100
AcDbEntity
  8
SIZE
  6
Continuous
 62
     0
100
AcDbBlockReference
  2
_DOTBLANK
 10
-777.6244309507408
 20
215.0000010707983
 30
0.0
 41
10.0
 42
10.0
 43
10.0
 50
90.0
  0
INSERT
  5
2C11
330
332B
100
AcDbEntity
  8
SIZE
  6
Continuous
 62
     0
100
AcDbBlockReference
  2
_DOTBLANK
 10
-777.6244309507408
 20
60.00000107079823
 30
0.0
 41
10.0
 42
10.0
 43
10.0
 50
270.0
  0
INSERT
  5
2C12
330
332B
100
AcDbEntity
  8
SYMBOLLINE
  6
Continuous
 62
     7
100
AcDbBlockReference
  2
*U6
 10
0.0
 20
0.0
 30
0.0
  0
POINT
  5
2C13
330
332B
100
AcDbEntity
  8
DEFPOINTS
  6
Continuous
 62
     0
100
AcDbPoint
 10
-266.0000333730009
 20
215.0000010707981
 30
0.0
  0
POINT
  5
2C14
330
332B
100
AcDbEntity
  8
DEFPOINTS
  6
Continuous
 62
     0
100
AcDbPoint
 10
-453.7988983160222
 20
60.00000107079813
 30
0.0
  0
POINT
  5
2C15
330
332B
100
AcDbEntity
  8
DEFPOINTS
  6
Continuous
 62
     0
100
AcDbPoint
 10
-777.6244309507408
 20
60.00000107079823
 30
0.0
  0
ENDBLK
  5
2AA7
330
332B
100
AcDbEntity
  8
0
 62
     7
100
AcDbBlockEnd
  0
BLOCK
  5
332E
330
332D
100
AcDbEntity
  8
0
100
AcDbBlockBegin
  2
*U6
 70
     1
 10
0.0
 20
0.0
 30
0.0
  3
*U6
  1

  0
TEXT
  5
2D4E
330
332D
100
AcDbEntity
  8
SIZE
  6
Continuous
 62
     0
100
AcDbText
 10
-777.7144309507414
 20
94.64285821365528
 30
0.0
 40
40.0
  1
155
 50
90.0
 41
0.9
100
AcDbText
  0
ENDBLK
  5
2D50
330
332D
100
AcDbEntity
  8
0
 62
     7
100
AcDbBlockEnd
  0
BLOCK
  5
3330
330
332F
100
AcDbEntity
  8
0
100
AcDbBlockBegin
  2
*D7
 70
     1
 10
0.0
 20
0.0
 30
0.0
  3
*D7
  1

  0
LINE
  5
2C04
330
332F
100
AcDbEntity
  8
SIZE
  6
Continuous
 62
     0
100
AcDbLine
 10
-286.0000333730009
 20
215.0000010707981
 30
0.0
 11
-792.6244309507408
 21
215.0000010707983
 31
0.0
  0
LINE
  5
2C05
330
332F
100
AcDbEntity
  8
SIZE
  6
Continuous
 62
     0
100
AcDbLine
 10
-286.0000333730011
 20
681.0000010707981
 30
0.0
 11
-792.6244309507408
 21
681.0000010707982
 31
0.0
  0
LINE
  5
2C06
330
332F
100
AcDbEntity
  8
SIZE
  6
Continuous
 62
     0
100
AcDbLine
 10
-777.6244309507408
 20
225.0000010707983
 30
0.0
 11
-777.6244309507408
 21
671.0000010707982
 31
0.0
  0
INSERT
  5
2C07
330
332F
100
AcDbEntity
  8
SIZE
  6
Continuous
 62
     0
100
AcDbBlockReference
  2
_DOTBLANK
 10
-777.6244309507408
 20
215.0000010707983
 30
0.0
 41
10.0
 42
10.0
 43
10.0
 50
270.0
  0
INSERT
  5
2C08
330
332F
100
AcDbEntity
  8
SIZE
  6
Continuous
 62
     0
100
AcDbBlockReference
  2
_DOTBLANK
 10
-777.6244309507408
 20
681.0000010707982
 30
0.0
 41
10.0
 42
10.0
 43
10.0
 50
90.0
  0
INSERT
  5
2C09
330
332F
100
AcDbEntity
  8
SYMBOLLINE
  6
Continuous
 62
     7
100
AcDbBlockReference
  2
*U8
 10
0.0
 20
0.0
 30
0.0
  0
POINT
  5
2C0A
330
332F
100
AcDbEntity
  8
DEFPOINTS
  6
Continuous
 62
     0
100
AcDbPoint
 10
-266.0000333730009
 20
215.0000010707981
 30
0.0
  0
POINT
  5
2C0B
330
332F
100
AcDbEntity
  8
DEFPOINTS
  6
Continuous
 62
     0
100
AcDbPoint
 10
-266.0000333730011
 20
681.0000010707981
 30
0.0
  0
POINT
  5
2C0C
330
332F
100
AcDbEntity
  8
DEFPOINTS
  6
Continuous
 62
     0
100
AcDbPoint
 10
-777.6244309507408
 20
681.0000010707982
 30
0.0
  0
ENDBLK
  5
2AB4
330
332F
100
AcDbEntity
  8
0
 62
     7
100
AcDbBlockEnd
  0
BLOCK
  5
3332
330
3331
100
AcDbEntity
  8
0
100
AcDbBlockBegin
  2
*U8
 70
     1
 10
0.0
 20
0.0
 30
0.0
  3
*U8
  1

  0
TEXT
  5
2D4A
330
3331
100
AcDbEntity
  8
SIZE
  6
Continuous
 62
     0
100
AcDbText
 10
-777.7144309507414
 20
402.5714296422266
 30
0.0
 40
40.0
  1
466
 50
90.0
 41
0.9
100
AcDbText
  0
ENDBLK
  5
2D4C
330
3331
100
AcDbEntity
  8
0
 62
     7
100
AcDbBlockEnd
  0
BLOCK
  5
3334
330
3333
100
AcDbEntity
  8
0
100
AcDbBlockBegin
  2
*D9
 70
     1
 10
0.0
 20
0.0
 30
0.0
  3
*D9
  1

  0
LINE
  5
2C31
330
3333
100
AcDbEntity
  8
SIZE
  6
Continuous
 62
     0
100
AcDbLine
 10
-216.0000333730013
 20
611.0000010707984
 30
0.0
 11
-216.0000333730014
 21
-147.0570840792379
 31
0.0
  0
LINE
  5
2C32
330
3333
100
AcDbEntity
  8
SIZE
  6
Continuous
 62
     0
100
AcDbLine
 10
456.9999666270009
 20
43.2011361277773
 30
0.0
 11
456.9999666270009
 21
-147.0570840792379
 31
0.0
  0
LINE
  5
2C33
330
3333
100
AcDbEntity
  8
SIZE
  6
Continuous
 62
     0
100
AcDbLine
 10
-206.0000333730014
 20
-132.0570840792379
 30
0.0
 11
446.9999666270009
 21
-132.0570840792379
 31
0.0
  0
INSERT
  5
2C34
330
3333
100
AcDbEntity
  8
SIZE
  6
Continuous
 62
     0
100
AcDbBlockReference
  2
_DOTBLANK
 10
-216.0000333730014
 20
-132.0570840792379
 30
0.0
 41
10.0
 42
10.0
 43
10.0
 50
180.0
  0
INSERT
  5
2C35
330
3333
100
AcDbEntity
  8
SIZE
  6
Continuous
 62
     0
100
AcDbBlockReference
  2
_DOTBLANK
 10
456.9999666270009
 20
-132.0570840792379
 30
0.0
 41
10.0
 42
10.0
 43
10.0
  0
INSERT
  5
2C36
330
3333
100
AcDbEntity
  8
SYMBOLLINE
  6
Continuous
 62
     7
100
AcDbBlockReference
  2
*U10
 10
0.0
 20
0.0
 30
0.0
  0
POINT
  5
2C37
330
3333
100
AcDbEntity
  8
DEFPOINTS
  6
Continuous
 62
     0
100
AcDbPoint
 10
-216.0000333730013
 20
631.0000010707982
 30
0.0
  0
POINT
  5
2C38
330
3333
100
AcDbEntity
  8
DEFPOINTS
  6
Continuous
 62
     0
100
AcDbPoint
 10
456.9999666270009
 20
63.2011361277773
 30
0.0
  0
POINT
  5
2C39
330
3333
100
AcDbEntity
  8
DEFPOINTS
  6
Continuous
 62
     0
100
AcDbPoint
 10
456.9999666270009
 20
-132.0570840792379
 30
0.0
  0
ENDBLK
  5
2AC1
330
3333
100
AcDbEntity
  8
0
 62
     7
100
AcDbBlockEnd
  0
BLOCK
  5
3336
330
3335
100
AcDbEntity
  8
0
100
AcDbBlockBegin
  2
*U10
 70
     1
 10
0.0
 20
0.0
 30
0.0
  3
*U10
  1

  0
TEXT
  5
2D5E
330
3335
100
AcDbEntity
  8
SIZE
  6
Continuous
 62
     0
100
AcDbText
 10
74.21425234128554
 20
-131.9670840792379
 30
0.0
 40
40.0
  1
673
 41
0.9
100
AcDbText
  0
ENDBLK
  5
2D60
330
3335
100
AcDbEntity
  8
0
 62
     7
100
AcDbBlockEnd
  0
BLOCK
  5
3338
330
3337
100
AcDbEntity
  8
0
100
AcDbBlockBegin
  2
*D11
 70
     1
 10
0.0
 20
0.0
 30
0.0
  3
*D11
  1

  0
LINE
  5
2C4C
330
3337
100
AcDbEntity
  8
SIZE
  6
Continuous
 62
     0
100
AcDbLine
 10
-140.702814530176
 20
334.0000010707981
 30
0.0
 11
-33.22526456660488
 21
334.0000010707981
 31
0.0
  0
LINE
  5
2C4D
330
3337
100
AcDbEntity
  8
SIZE
  6
Continuous
 62
     0
100
AcDbLine
 10
-146.0000333730008
 20
215.0000010707981
 30
0.0
 11
-33.2252645666049
 21
215.0000010707981
 31
0.0
  0
LINE
  5
2C4E
330
3337
100
AcDbEntity
  8
SIZE
  6
Continuous
 62
     0
100
AcDbLine
 10
-48.22526456660487
 20
324.0000010707981
 30
0.0
 11
-48.22526456660489
 21
225.0000010707981
 31
0.0
  0
INSERT
  5
2C4F
330
3337
100
AcDbEntity
  8
SIZE
  6
Continuous
 62
     0
100
AcDbBlockReference
  2
_DOTBLANK
 10
-48.22526456660487
 20
334.0000010707981
 30
0.0
 41
10.0
 42
10.0
 43
10.0
 50
90.0
  0
INSERT
  5
2C50
330
3337
100
AcDbEntity
  8
SIZE
  6
Continuous
 62
     0
100
AcDbBlockReference
  2
_DOTBLANK
 10
-48.22526456660489
 20
215.0000010707981
 30
0.0
 41
10.0
 42
10.0
 43
10.0
 50
270.0
  0
INSERT
  5
2C51
330
3337
100
AcDbEntity
  8
SYMBOLLINE
  6
Continuous
 62
     7
100
AcDbBlockReference
  2
*U12
 10
0.0
 20
0.0
 30
0.0
  0
POINT
  5
2C52
330
3337
100
AcDbEntity
  8
DEFPOINTS
  6
Continuous
 62
     0
100
AcDbPoint
 10
-160.702814530176
 20
334.0000010707981
 30
0.0
  0
POINT
  5
2C53
330
3337
100
AcDbEntity
  8
DEFPOINTS
  6
Continuous
 62
     0
100
AcDbPoint
 10
-166.0000333730008
 20
215.0000010707981
 30
0.0
  0
POINT
  5
2C54
330
3337
100
AcDbEntity
  8
DEFPOINTS
  6
Continuous
 62
     0
100
AcDbPoint
 10
-48.22526456660489
 20
215.0000010707981
 30
0.0
  0
ENDBLK
  5
2B23
330
3337
100
AcDbEntity
  8
0
 62
     7
100
AcDbBlockEnd
  0
BLOCK
  5
333A
330
3339
100
AcDbEntity
  8
0
100
AcDbBlockBegin
  2
*U12
 70
     1
 10
0.0
 20
0.0
 30
0.0
  3
*U12
  1

  0
TEXT
  5
2D6A
330
3339
100
AcDbEntity
  8
SIZE
  6
Continuous
 62
     0
100
AcDbText
 10
-48.3152645666049
 20
235.9285724993695
 30
0.0
 40
40.0
  1
119
 50
90.0
 41
0.9
100
AcDbText
  0
ENDBLK
  5
2D6C
330
3339
100
AcDbEntity
  8
0
 62
     7
100
AcDbBlockEnd
  0
BLOCK
  5
333C
330
333B
100
AcDbEntity
  8
0
100
AcDbBlockBegin
  2
*D13
 70
     1
 10
0.0
 20
0.0
 30
0.0
  3
*D13
  1

  0
LINE
  5
2C28
330
333B
100
AcDbEntity
  8
SIZE
  6
Continuous
 62
     0
100
AcDbLine
 10
-199.0000333730013
 20
392.2972199136138
 30
0.0
 11
-199.0000333730013
 21
490.7828698583653
 31
0.0
  0
LINE
  5
2C29
330
333B
100
AcDbEntity
  8
SIZE
  6
Continuous
 62
     0
100
AcDbLine
 10
456.9999666270006
 20
138.5207513311552
 30
0.0
 11
456.9999666270006
 21
490.7828698583653
 31
0.0
  0
LINE
  5
2C2A
330
333B
100
AcDbEntity
  8
SIZE
  6
Continuous
 62
     0
100
AcDbLine
 10
-189.0000333730013
 20
475.7828698583653
 30
0.0
 11
446.9999666270006
 21
475.7828698583653
 31
0.0
  0
INSERT
  5
2C2B
330
333B
100
AcDbEntity
  8
SIZE
  6
Continuous
 62
     0
100
AcDbBlockReference
  2
_DOTBLANK
 10
-199.0000333730013
 20
475.7828698583653
 30
0.0
 41
10.0
 42
10.0
 43
10.0
 50
180.0
  0
INSERT
  5
2C2C
330
333B
100
AcDbEntity
  8
SIZE
  6
Continuous
 62
     0
100
AcDbBlockReference
  2
_DOTBLANK
 10
456.9999666270006
 20
475.7828698583653
 30
0.0
 41
10.0
 42
10.0
 43
10.0
  0
INSERT
  5
2C2D
330
333B
100
AcDbEntity
  8
SYMBOLLINE
  6
Continuous
 62
     7
100
AcDbBlockReference
  2
*U14
 10
0.0
 20
0.0
 30
0.0
  0
POINT
  5
2C2E
330
333B
100
AcDbEntity
  8
DEFPOINTS
  6
Continuous
 62
     0
100
AcDbPoint
 10
-199.0000333730013
 20
372.2972199136139
 30
0.0
  0
POINT
  5
2C2F
330
333B
100
AcDbEntity
  8
DEFPOINTS
  6
Continuous
 62
     0
100
AcDbPoint
 10
456.9999666270006
 20
118.5207513311552
 30
0.0
  0
POINT
  5
2C30
330
333B
100
AcDbEntity
  8
DEFPOINTS
  6
Continuous
 62
     0
100
AcDbPoint
 10
456.9999666270006
 20
475.7828698583653
 30
0.0
  0
ENDBLK
  5
2B30
330
333B
100
AcDbEntity
  8
0
 62
     7
100
AcDbBlockEnd
  0
BLOCK
  5
333E
330
333D
100
AcDbEntity
  8
0
100
AcDbBlockBegin
  2
*U14
 70
     1
 10
0.0
 20
0.0
 30
0.0
  3
*U14
  1

  0
TEXT
  5
2D5A
330
333D
100
AcDbEntity
  8
SIZE
  6
Continuous
 62
     0
100
AcDbText
 10
83.5713951984283
 20
475.8728698583649
 30
0.0
 40
40.0
  1
656
 41
0.9
100
AcDbText
  0
ENDBLK
  5
2D5C
330
333D
100
AcDbEntity
  8
0
 62
     7
100
AcDbBlockEnd
  0
BLOCK
  5
3340
330
333F
100
AcDbEntity
  8
0
100
AcDbBlockBegin
  2
*D15
 70
     1
 10
0.0
 20
0.0
 30
0.0
  3
*D15
  1

  0
LINE
  5
2C1F
330
333F
100
AcDbEntity
  8
SIZE
  6
Continuous
 62
     0
100
AcDbLine
 10
-199.0000333730013
 20
392.2972199136138
 30
0.0
 11
-199.0000333730013
 21
490.7828698583653
 31
0.0
  0
LINE
  5
2C20
330
333F
100
AcDbEntity
  8
SIZE
  6
Continuous
 62
     0
100
AcDbLine
 10
-264.0000333730013
 20
392.2972199136138
 30
0.0
 11
-264.0000333730013
 21
490.7828698583653
 31
0.0
  0
LINE
  5
2C21
330
333F
100
AcDbEntity
  8
SIZE
  6
Continuous
 62
     0
100
AcDbLine
 10
-209.0000333730013
 20
475.7828698583653
 30
0.0
 11
-254.0000333730013
 21
475.7828698583653
 31
0.0
  0
INSERT
  5
2C22
330
333F
100
AcDbEntity
  8
SIZE
  6
Continuous
 62
     0
100
AcDbBlockReference
  2
_DOTBLANK
 10
-199.0000333730013
 20
475.7828698583653
 30
0.0
 41
10.0
 42
10.0
 43
10.0
  0
INSERT
  5
2C23
330
333F
100
AcDbEntity
  8
SIZE
  6
Continuous
 62
     0
100
AcDbBlockReference
  2
_DOTBLANK
 10
-264.0000333730013
 20
475.7828698583653
 30
0.0
 41
10.0
 42
10.0
 43
10.0
 50
180.0
  0
INSERT
  5
2C24
330
333F
100
AcDbEntity
  8
SYMBOLLINE
  6
Continuous
 62
     7
100
AcDbBlockReference
  2
*U16
 10
0.0
 20
0.0
 30
0.0
  0
POINT
  5
2C25
330
333F
100
AcDbEntity
  8
DEFPOINTS
  6
Continuous
 62
     0
100
AcDbPoint
 10
-199.0000333730013
 20
372.2972199136139
 30
0.0
  0
POINT
  5
2C26
330
333F
100
AcDbEntity
  8
DEFPOINTS
  6
Continuous
 62
     0
100
AcDbPoint
 10
-264.0000333730013
 20
372.2972199136139
 30
0.0
  0
POINT
  5
2C27
330
333F
100
AcDbEntity
  8
DEFPOINTS
  6
Continuous
 62
     0
100
AcDbPoint
 10
-264.0000333730013
 20
475.7828698583653
 30
0.0
  0
ENDBLK
  5
2B3D
330
333F
100
AcDbEntity
  8
0
 62
     7
100
AcDbBlockEnd
  0
BLOCK
  5
3342
330
3341
100
AcDbEntity
  8
0
100
AcDbBlockBegin
  2
*U16
 70
     1
 10
0.0
 20
0.0
 30
0.0
  3
*U16
  1

  0
TEXT
  5
2D56
330
3341
100
AcDbEntity
  8
SIZE
  6
Continuous
 62
     0
100
AcDbText
 10
-260.6428905158584
 20
475.8728698583649
 30
0.0
 40
40.0
  1
65
 41
0.9
100
AcDbText
  0
ENDBLK
  5
2D58
330
3341
100
AcDbEntity
  8
0
 62
     7
100
AcDbBlockEnd
  0
BLOCK
  5
3344
330
3343
100
AcDbEntity
  8
0
100
AcDbBlockBegin
  2
*D17
 70
     1
 10
0.0
 20
0.0
 30
0.0
  3
*D17
  1

  0
LINE
  5
2C16
330
3343
100
AcDbEntity
  8
SIZE
  6
Continuous
 62
     0
100
AcDbLine
 10
-264.0000333730013
 20
392.2972199136138
 30
0.0
 11
-264.0000333730013
 21
490.7828698583653
 31
0.0
  0
LINE
  5
2C17
330
3343
100
AcDbEntity
  8
SIZE
  6
Continuous
 62
     0
100
AcDbLine
 10
-329.0000333730012
 20
392.2972199136138
 30
0.0
 11
-329.0000333730012
 21
490.7828698583653
 31
0.0
  0
LINE
  5
2C18
330
3343
100
AcDbEntity
  8
SIZE
  6
Continuous
 62
     0
100
AcDbLine
 10
-274.0000333730013
 20
475.7828698583653
 30
0.0
 11
-319.0000333730012
 21
475.7828698583653
 31
0.0
  0
INSERT
  5
2C19
330
3343
100
AcDbEntity
  8
SIZE
  6
Continuous
 62
     0
100
AcDbBlockReference
  2
_DOTBLANK
 10
-264.0000333730013
 20
475.7828698583653
 30
0.0
 41
10.0
 42
10.0
 43
10.0
  0
INSERT
  5
2C1A
330
3343
100
AcDbEntity
  8
SIZE
  6
Continuous
 62
     0
100
AcDbBlockReference
  2
_DOTBLANK
 10
-329.0000333730012
 20
475.7828698583653
 30
0.0
 41
10.0
 42
10.0
 43
10.0
 50
180.0
  0
INSERT
  5
2C1B
330
3343
100
AcDbEntity
  8
SYMBOLLINE
  6
Continuous
 62
     7
100
AcDbBlockReference
  2
*U18
 10
0.0
 20
0.0
 30
0.0
  0
POINT
  5
2C1C
330
3343
100
AcDbEntity
  8
DEFPOINTS
  6
Continuous
 62
     0
100
AcDbPoint
 10
-264.0000333730013
 20
372.2972199136139
 30
0.0
  0
POINT
  5
2C1D
330
3343
100
AcDbEntity
  8
DEFPOINTS
  6
Continuous
 62
     0
100
AcDbPoint
 10
-329.0000333730012
 20
372.2972199136139
 30
0.0
  0
POINT
  5
2C1E
330
3343
100
AcDbEntity
  8
DEFPOINTS
  6
Continuous
 62
     0
100
AcDbPoint
 10
-329.0000333730012
 20
475.7828698583653
 30
0.0
  0
ENDBLK
  5
2B4A
330
3343
100
AcDbEntity
  8
0
 62
     7
100
AcDbBlockEnd
  0
BLOCK
  5
3346
330
3345
100
AcDbEntity
  8
0
100
AcDbBlockBegin
  2
*U18
 70
     1
 10
0.0
 20
0.0
 30
0.0
  3
*U18
  1

  0
TEXT
  5
2D52
330
3345
100
AcDbEntity
  8
SIZE
  6
Continuous
 62
     0
100
AcDbText
 10
-325.6428905158584
 20
475.8728698583649
 30
0.0
 40
40.0
  1
65
 41
0.9
100
AcDbText
  0
ENDBLK
  5
2D54
330
3345
100
AcDbEntity
  8
0
 62
     7
100
AcDbBlockEnd
  0
BLOCK
  5
3348
330
3347
100
AcDbEntity
  8
0
100
AcDbBlockBegin
  2
*D19
 70
     1
 10
0.0
 20
0.0
 30
0.0
  3
*D19
  1

  0
LINE
  5
2C43
330
3347
100
AcDbEntity
  8
SIZE
  6
Continuous
 62
     0
100
AcDbLine
 10
-316.0000333730013
 20
156.7027822279656
 30
0.0
 11
-316.0000333730013
 21
-147.0570840792379
 31
0.0
  0
LINE
  5
2C44
330
3347
100
AcDbEntity
  8
SIZE
  6
Continuous
 62
     0
100
AcDbLine
 10
-216.0000333730011
 20
145.0000010707982
 30
0.0
 11
-216.0000333730011
 21
-147.0570840792379
 31
0.0
  0
LINE
  5
2C45
330
3347
100
AcDbEntity
  8
SIZE
  6
Continuous
 62
     0
100
AcDbLine
 10
-306.0000333730013
 20
-132.0570840792379
 30
0.0
 11
-226.0000333730011
 21
-132.0570840792379
 31
0.0
  0
INSERT
  5
2C46
330
3347
100
AcDbEntity
  8
SIZE
  6
Continuous
 62
     0
100
AcDbBlockReference
  2
_DOTBLANK
 10
-316.0000333730013
 20
-132.0570840792379
 30
0.0
 41
10.0
 42
10.0
 43
10.0
 50
180.0
  0
INSERT
  5
2C47
330
3347
100
AcDbEntity
  8
SIZE
  6
Continuous
 62
     0
100
AcDbBlockReference
  2
_DOTBLANK
 10
-216.0000333730011
 20
-132.0570840792379
 30
0.0
 41
10.0
 42
10.0
 43
10.0
  0
INSERT
  5
2C48
330
3347
100
AcDbEntity
  8
SYMBOLLINE
  6
Continuous
 62
     7
100
AcDbBlockReference
  2
*U20
 10
0.0
 20
0.0
 30
0.0
  0
POINT
  5
2C49
330
3347
100
AcDbEntity
  8
DEFPOINTS
  6
Continuous
 62
     0
100
AcDbPoint
 10
-316.0000333730013
 20
176.7027822279656
 30
0.0
  0
POINT
  5
2C4A
330
3347
100
AcDbEntity
  8
DEFPOINTS
  6
Continuous
 62
     0
100
AcDbPoint
 10
-216.0000333730011
 20
165.0000010707982
 30
0.0
  0
POINT
  5
2C4B
330
3347
100
AcDbEntity
  8
DEFPOINTS
  6
Continuous
 62
     0
100
AcDbPoint
 10
-216.0000333730011
 20
-132.0570840792379
 30
0.0
  0
ENDBLK
  5
2B57
330
3347
100
AcDbEntity
  8
0
 62
     7
100
AcDbBlockEnd
  0
BLOCK
  5
334A
330
3349
100
AcDbEntity
  8
0
100
AcDbBlockBegin
  2
*U20
 70
     1
 10
0.0
 20
0.0
 30
0.0
  3
*U20
  1

  0
TEXT
  5
2D66
330
3349
100
AcDbEntity
  8
SIZE
  6
Continuous
 62
     0
100
AcDbText
 10
-308.8571762301441
 20
-131.9670840792379
 30
0.0
 40
40.0
  1
100
 41
0.9
100
AcDbText
  0
ENDBLK
  5
2D68
330
3349
100
AcDbEntity
  8
0
 62
     7
100
AcDbBlockEnd
  0
ENDSEC
  0
SECTION
  2
ENTITIES
  0
TEXT
  5
8A
330
3305
100
AcDbEntity
  8
ETC
  6
Continuous
 62
    61
100
AcDbText
 10
402.6233569402799
 20
1877.280582190091
 30
0.0
 40
75.0
  1
CAHV-P250AK2-H_2
 50
0.0000025613209388
 41
0.8
  7
STANDARD1
100
AcDbText
  0
LINE
  5
9C
330
3305
100
AcDbEntity
  8
DETAIL
  6
Continuous
 62
     5
100
AcDbLine
 10
387.2993712775807
 20
1317.467146886945
 30
0.0
 11
387.2993712775807
 21
755.0677315643615
 31
0.0
  0
LINE
  5
9F
330
3305
100
AcDbEntity
  8
DETAIL
  6
Continuous
 62
     5
100
AcDbLine
 10
456.9999999999908
 20
1369.98576891547
 30
0.0
 11
456.9999999999908
 21
58.52075026035705
 31
0.0
  0
LINE
  5
A4
330
3305
100
AcDbEntity
  8
DETAIL
  6
Continuous
 62
     5
100
AcDbLine
 10
387.2993712775807
 20
1317.467146886945
 30
0.0
 11
387.2993712775807
 21
744.4444007253943
 31
0.0
  0
LINE
  5
A5
330
3305
100
AcDbEntity
  8
DETAIL
  6
Continuous
 62
     5
100
AcDbLine
 10
-387.4753479812915
 20
744.4444007253943
 30
0.0
 11
-387.4753479812915
 21
1317.467146886945
 31
0.0
  0
LINE
  5
A6
330
3305
100
AcDbEntity
  8
DETAIL
  6
Continuous
 62
     5
100
AcDbLine
 10
-388.9758800392428
 20
83.52961789298658
 30
0.0
 11
-388.9758800392428
 21
1327.970871292644
 31
0.0
  0
LINE
  5
A7
330
3305
100
AcDbEntity
  8
DETAIL
  6
Continuous
 62
     5
100
AcDbLine
 10
-456.999999999998
 20
58.52075026035705
 30
0.0
 11
-456.999999999998
 21
1369.98576891547
 31
0.0
  0
LINE
  5
A8
330
3305
100
AcDbEntity
  8
DETAIL
  6
Continuous
 62
     5
100
AcDbLine
 10
417.9999999999997
 20
1369.98576891547
 30
0.0
 11
417.9999999999997
 21
58.52075026035705
 31
0.0
  0
LINE
  5
1E68
330
3305
100
AcDbEntity
  8
NOTE
  6
Continuous
 62
     4
100
AcDbLine
 10
-216.0
 20
621.0
 30
0.0
 11
-566.6968938291585
 21
1518.037722299349
 31
0.0
  0
LINE
  5
1E69
330
3305
100
AcDbEntity
  8
NOTE
  6
Continuous
 62
     4
100
AcDbLine
 10
-569.3838780561137
 20
1518.037722299349
 30
0.0
 11
-1255.837592237888
 21
1518.037722299349
 31
0.0
  0
POINT
  5
1E73
330
3305
100
AcDbEntity
  8
DEFPOINTS
  6
Continuous
 62
     7
100
AcDbPoint
 10
-456.999999999998
 20
3.201135056979162
 30
0.0
  0
LINE
  5
1E76
330
3305
100
AcDbEntity
  8
NOTE
  6
Continuous
 62
     4
100
AcDbLine
 10
-316.0000000000002
 20
154.9999999999913
 30
0.0
 11
-747.5156137248715
 21
-332.5480158806523
 31
0.0
  0
LINE
  5
1E79
330
3305
100
AcDbEntity
  8
NOTE
  6
Continuous
 62
     4
100
AcDbLine
 10
-264.0000000000002
 20
273.9999999999919
 30
0.0
 11
-985.1146156420613
 21
975.521683890363
 31
0.0
  0
LINE
  5
1E7A
330
3305
100
AcDbEntity
  8
NOTE
  6
Continuous
 62
     4
100
AcDbLine
 10
-985.1146156420613
 20
975.521683890363
 30
0.0
 11
-1564.18069105763
 21
975.521683890363
 31
0.0
  0
LINE
  5
1E7C
330
3305
100
AcDbEntity
  8
NOTE
  6
Continuous
 62
     4
100
AcDbLine
 10
-329.0000000000001
 20
273.9999999999919
 30
0.0
 11
-859.3392990809528
 21
748.6459495067728
 31
0.0
  0
LINE
  5
1E7D
330
3305
100
AcDbEntity
  8
NOTE
  6
Continuous
 62
     4
100
AcDbLine
 10
-859.3392990809528
 20
748.6459495067728
 30
0.0
 11
-1561.012242740365
 21
748.6459495067728
 31
0.0
  0
LINE
  5
1E7F
330
3305
100
AcDbEntity
  8
DETAIL
  6
Continuous
 62
     5
100
AcDbLine
 10
-455.9996452946956
 20
53.99999999999996
 30
0.0
 11
455.8236685909881
 21
53.99999999999996
 31
0.0
  0
LINE
  5
1E80
330
3305
100
AcDbEntity
  8
DETAIL
  6
Continuous
 62
     5
100
AcDbLine
 10
-453.7988649430208
 20
-0.0000000000000142
 30
0.0
 11
453.7988649430207
 21
-0.0000000000000142
 31
0.0
  0
LINE
  5
1E81
330
3305
100
AcDbEntity
  8
DETAIL
  6
Continuous
 62
     5
100
AcDbLine
 10
457.0000000000018
 20
3.201135056979162
 30
0.0
 11
-456.999999999998
 21
3.201135056979162
 31
0.0
  0
POINT
  5
1E8A
330
3305
100
AcDbEntity
  8
DEFPOINTS
  6
Continuous
 62
     7
100
AcDbPoint
 10
-453.7988649430208
 20
-0.0000000000000142
 30
0.0
  0
POINT
  5
1E95
330
3305
100
AcDbEntity
  8
DEFPOINTS
  6
Continuous
 62
     7
100
AcDbPoint
 10
-456.999999999998
 20
3.201135056979162
 30
0.0
  0
LINE
  5
1E98
330
3305
100
AcDbEntity
  8
DETAIL
  6
Continuous
 62
     5
100
AcDbLine
 10
386.4990875133319
 20
743.6441169611562
 30
0.0
 11
-386.6750642170533
 21
743.6441169611562
 31
0.0
  0
LINE
  5
1E9A
330
3305
100
AcDbEntity
  8
DETAIL
  6
Continuous
 62
     5
100
AcDbLine
 10
-386.6384163163613
 20
727.0
 30
0.0
 11
386.4991
 21
727.0
 31
0.0
  0
LINE
  5
1E9B
330
3305
100
AcDbEntity
  8
DETAIL
  6
Continuous
 62
     5
100
AcDbLine
 10
-387.4885003398077
 20
725.9996452946863
 30
0.0
 11
-387.4753479812915
 21
83.52961789298658
 31
0.0
  0
ARC
  5
1E9C
330
3305
100
AcDbEntity
  8
DETAIL
  6
Continuous
 62
     5
100
AcDbCircle
 10
-363.9670124066124
 20
15.90563981435661
 30
0.0
 40
6.002128231831147
100
AcDbArc
 50
270.0
 51
0.0
  0
ARC
  5
1E9D
330
3305
100
AcDbEntity
  8
DETAIL
  6
Continuous
 62
     5
100
AcDbCircle
 10
-363.9670124066124
 20
38.51365615425856
 30
0.0
 40
6.002128231831147
100
AcDbArc
 50
0.0
 51
90.0
  0
LINE
  5
1E9E
330
3305
100
AcDbEntity
  8
DETAIL
  6
Continuous
 62
     5
100
AcDbLine
 10
-456.999999999998
 20
50.31784167686056
 30
0.0
 11
-456.999999999998
 21
3.201135056979162
 31
0.0
  0
LINE
  5
1E9F
330
3305
100
AcDbEntity
  8
DETAIL
  6
Continuous
 62
     5
100
AcDbLine
 10
-437.9932605992013
 20
15.90563981435661
 30
0.0
 11
-437.9932605992013
 21
38.51365615425856
 31
0.0
  0
ARC
  5
1EA0
330
3305
100
AcDbEntity
  8
DETAIL
  6
Continuous
 62
     5
100
AcDbCircle
 10
-431.991132367367
 20
15.90563981435661
 30
0.0
 40
6.002128231831147
100
AcDbArc
 50
180.0
 51
270.0
  0
LINE
  5
1EA1
330
3305
100
AcDbEntity
  8
DETAIL
  6
Continuous
 62
     5
100
AcDbLine
 10
-363.9670124066124
 20
9.903511582524508
 30
0.0
 11
-431.991132367367
 21
9.903511582524508
 31
0.0
  0
LINE
  5
1EA2
330
3305
100
AcDbEntity
  8
DETAIL
  6
Continuous
 62
     5
100
AcDbLine
 10
-453.7988649430208
 20
3.201135056979162
 30
0.0
 11
-453.7988649430208
 21
-0.0000000000000142
 31
0.0
  0
LINE
  5
1EA3
330
3305
100
AcDbEntity
  8
DETAIL
  6
Continuous
 62
     5
100
AcDbLine
 10
-456.999999999998
 20
50.31784167686056
 30
0.0
 11
-453.7988649430208
 21
50.31784167686056
 31
0.0
  0
LINE
  5
1EA4
330
3305
100
AcDbEntity
  8
DETAIL
  6
Continuous
 62
     5
100
AcDbLine
 10
-453.7988649430208
 20
53.99999999999996
 30
0.0
 11
-453.7988649430208
 21
50.31784167686056
 31
0.0
  0
ARC
  5
1EA5
330
3305
100
AcDbEntity
  8
DETAIL
  6
Continuous
 62
     5
100
AcDbCircle
 10
-431.991132367367
 20
38.51365615425856
 30
0.0
 40
6.002128231831147
100
AcDbArc
 50
90.0
 51
180.0
  0
LINE
  5
1EA6
330
3305
100
AcDbEntity
  8
DETAIL
  6
Continuous
 62
     5
100
AcDbLine
 10
-431.991132367367
 20
44.51578438609054
 30
0.0
 11
-363.9670124066124
 21
44.51578438609054
 31
0.0
  0
ARC
  5
1EA7
330
3305
100
AcDbEntity
  8
DETAIL
  6
Continuous
 62
     5
100
AcDbCircle
 10
-393.1773698015329
 20
61.52181437627316
 30
0.0
 40
3.001064115915572
100
AcDbArc
 50
270.0
 51
0.0
  0
LINE
  5
1EA8
330
3305
100
AcDbEntity
  8
DETAIL
  6
Continuous
 62
     5
100
AcDbLine
 10
-387.4753479812915
 20
83.52961789298658
 30
0.0
 11
-390.1763056856198
 21
83.52961789298658
 31
0.0
  0
LINE
  5
1EA9
330
3305
100
AcDbEntity
  8
DETAIL
  6
Continuous
 62
     5
100
AcDbLine
 10
-393.1773698015329
 20
58.52075026035705
 30
0.0
 11
-456.999999999998
 21
58.52075026035705
 31
0.0
  0
LINE
  5
1EAA
330
3305
100
AcDbEntity
  8
DETAIL
  6
Continuous
 62
     5
100
AcDbLine
 10
-390.1763056856198
 20
61.52181437627316
 30
0.0
 11
-390.1763056856198
 21
83.52961789298658
 31
0.0
  0
LINE
  5
1EAB
330
3305
100
AcDbEntity
  8
DETAIL
  6
Continuous
 62
     5
100
AcDbLine
 10
-455.9996452946972
 20
53.99999999999996
 30
0.0
 11
-455.9996452946956
 21
58.52075026035705
 31
0.0
  0
LINE
  5
1EAC
330
3305
100
AcDbEntity
  8
DETAIL
  6
Continuous
 62
     5
100
AcDbLine
 10
-357.9648841747929
 20
38.51365615425856
 30
0.0
 11
-357.9648841747929
 21
15.90563981435661
 31
0.0
  0
LINE
  5
1EAD
330
3305
100
AcDbEntity
  8
NOTE
  6
Continuous
 62
     4
100
AcDbLine
 10
-560.6002049167771
 20
830.9636855735121
 30
0.0
 11
-601.300722201527
 21
830.9636855735121
 31
0.0
  0
LINE
  5
1EAE
330
3305
100
AcDbEntity
  8
NOTE
  6
Continuous
 62
     4
100
AcDbLine
 10
-560.6002049167771
 20
880.9814208387711
 30
0.0
 11
-601.300722201527
 21
880.9814208387711
 31
0.0
  0
LINE
  5
1EAF
330
3305
100
AcDbEntity
  8
NOTE
  6
Continuous
 62
     4
100
AcDbLine
 10
-601.300722201527
 20
830.9636855735121
 30
0.0
 11
-601.300722201527
 21
880.9814208387711
 31
0.0
  0
LINE
  5
1EB2
330
3305
100
AcDbEntity
  8
NOTE
  6
Continuous
 62
     4
100
AcDbLine
 10
-560.6002049167771
 20
830.9636855735121
 30
0.0
 11
-560.6002049167771
 21
805.9548179408832
 31
0.0
  0
LINE
  5
1EB3
330
3305
100
AcDbEntity
  8
NOTE
  6
Continuous
 62
     4
100
AcDbLine
 10
-510.6864493777518
 20
855.9725532061419
 30
0.0
 11
-560.6002049167771
 21
805.9548179408832
 31
0.0
  0
LINE
  5
1EBD
330
3305
100
AcDbEntity
  8
DETAIL
  6
Continuous
 62
     5
100
AcDbLine
 10
-387.4753479812915
 20
744.4444007253943
 30
0.0
 11
-386.6750642170533
 21
744.4444007253943
 31
0.0
  0
LINE
  5
1EBE
330
3305
100
AcDbEntity
  8
DETAIL
  6
Continuous
 62
     5
100
AcDbLine
 10
-386.6384163163613
 20
725.9996452946863
 30
0.0
 11
-387.4887178158763
 21
725.9996452946863
 31
0.0
  0
LINE
  5
1EBF
330
3305
100
AcDbEntity
  8
DETAIL
  6
Continuous
 62
     5
100
AcDbLine
 10
-386.6384163163613
 20
725.9996452946863
 30
0.0
 11
-386.6750642170533
 21
744.4444007253943
 31
0.0
  0
LINE
  5
1EC2
330
3305
100
AcDbEntity
  8
NOTE
  6
Continuous
 62
     4
100
AcDbLine
 10
-560.6002049167771
 20
905.9902884714023
 30
0.0
 11
-510.6864493777518
 21
855.9725532061419
 31
0.0
  0
LINE
  5
1EC3
330
3305
100
AcDbEntity
  8
NOTE
  6
Continuous
 62
     4
100
AcDbLine
 10
-560.6002049167771
 20
905.9902884714023
 30
0.0
 11
-560.6002049167771
 21
880.9814208387711
 31
0.0
  0
LINE
  5
1EE1
330
3305
100
AcDbEntity
  8
NOTE
  6
Continuous
 62
     4
100
AcDbLine
 10
-216.0
 20
155.0
 30
0.0
 11
-710.4302506087528
 21
-567.2729883406382
 31
0.0
  0
LINE
  5
1EE2
330
3305
100
AcDbEntity
  8
NOTE
  6
Continuous
 62
     4
100
AcDbLine
 10
-1391.965146213143
 20
-567.2729883406382
 30
0.0
 11
-710.4302506087528
 21
-567.2729883406382
 31
0.0
  0
LINE
  5
1FB6
330
3305
100
AcDbEntity
  8
DETAIL
  6
Continuous
 62
     5
100
AcDbLine
 10
387.2993712775807
 20
744.4444007253943
 30
0.0
 11
386.4990875133319
 21
744.4444007253943
 31
0.0
  0
LINE
  5
1FB7
330
3305
100
AcDbEntity
  8
DETAIL
  6
Continuous
 62
     5
100
AcDbLine
 10
386.4991
 20
725.9996452946863
 30
0.0
 11
387.2860014429959
 21
725.9996452946863
 31
0.0
  0
LINE
  5
1FB8
330
3305
100
AcDbEntity
  8
DETAIL
  6
Continuous
 62
     5
100
AcDbLine
 10
386.4991
 20
725.9996452946863
 30
0.0
 11
386.4990875133319
 21
744.4444007253943
 31
0.0
  0
LINE
  5
24A3
330
3305
100
AcDbEntity
  8
DETAIL
  6
Continuous
 62
     5
100
AcDbLine
 10
361.0966160412527
 20
1549.964486597148
 30
0.0
 11
-361.0966160412507
 21
1549.964486597148
 31
0.0
  0
LINE
  5
24A5
330
3305
100
AcDbEntity
  8
DETAIL
  6
Continuous
 62
     5
100
AcDbLine
 10
-326.4778409321085
 20
1649.999957127667
 30
0.0
 11
317.1872323867602
 21
1649.999957127667
 31
0.0
  0
LINE
  5
24A6
330
3305
100
AcDbEntity
  8
DETAIL
  6
Continuous
 62
     5
100
AcDbLine
 10
-117.3038560009617
 20
1600.91219446881
 30
0.0
 11
-149.9382846443286
 21
1600.91219446881
 31
0.0
  0
LINE
  5
24A7
330
3305
100
AcDbEntity
  8
DETAIL
  6
Continuous
 62
     5
100
AcDbLine
 10
-116.196034618747
 20
1609.828255921719
 30
0.0
 11
-148.5626111443696
 21
1609.828255921719
 31
0.0
  0
LINE
  5
24A8
330
3305
100
AcDbEntity
  8
DETAIL
  6
Continuous
 62
     5
100
AcDbLine
 10
460.3252647648568
 20
1369.98576891547
 30
0.0
 11
-460.5012414685644
 21
1369.98576891547
 31
0.0
  0
LINE
  5
24A9
330
3305
100
AcDbEntity
  8
DETAIL
  6
Continuous
 62
     5
100
AcDbLine
 10
460.3252647648568
 20
1409.999957127667
 30
0.0
 11
-460.5012414685644
 21
1409.999957127667
 31
0.0
  0
LINE
  5
24AA
330
3305
100
AcDbEntity
  8
DETAIL
  6
Continuous
 62
     5
100
AcDbLine
 10
-365.9896081389644
 20
1438.701562701032
 30
0.0
 11
-361.0966160412507
 21
1549.964486597148
 31
0.0
  0
LINE
  5
24AB
330
3305
100
AcDbEntity
  8
NOTE
  6
Continuous
 62
     4
100
AcDbLine
 10
-560.6002049167771
 20
1281.123302960848
 30
0.0
 11
-601.300722201527
 21
1281.123302960848
 31
0.0
  0
LINE
  5
24AC
330
3305
100
AcDbEntity
  8
NOTE
  6
Continuous
 62
     4
100
AcDbLine
 10
-560.6002049167771
 20
1231.105567695589
 30
0.0
 11
-601.300722201527
 21
1231.105567695589
 31
0.0
  0
LINE
  5
24AD
330
3305
100
AcDbEntity
  8
NOTE
  6
Continuous
 62
     4
100
AcDbLine
 10
-601.300722201527
 20
1231.105567695589
 30
0.0
 11
-601.300722201527
 21
1281.123302960848
 31
0.0
  0
LINE
  5
24AE
330
3305
100
AcDbEntity
  8
DETAIL
  6
Continuous
 62
     5
100
AcDbLine
 10
-386.4749932759897
 20
1369.285520621756
 30
0.0
 11
-386.4749932759897
 21
1317.467146886945
 31
0.0
  0
LINE
  5
24AF
330
3305
100
AcDbEntity
  8
NOTE
  6
Continuous
 62
     4
100
AcDbLine
 10
-560.6002049167771
 20
1231.105567695589
 30
0.0
 11
-560.6002049167771
 21
1206.096700062959
 31
0.0
  0
LINE
  5
24B0
330
3305
100
AcDbEntity
  8
NOTE
  6
Continuous
 62
     4
100
AcDbLine
 10
-510.6864493777518
 20
1256.114435328219
 30
0.0
 11
-560.6002049167771
 21
1206.096700062959
 31
0.0
  0
LINE
  5
24B1
330
3305
100
AcDbEntity
  8
NOTE
  6
Continuous
 62
     4
100
AcDbLine
 10
-560.6002049167771
 20
1306.132170593478
 30
0.0
 11
-560.6002049167771
 21
1281.123302960848
 31
0.0
  0
LINE
  5
24B2
330
3305
100
AcDbEntity
  8
NOTE
  6
Continuous
 62
     4
100
AcDbLine
 10
-560.6002049167771
 20
1306.132170593478
 30
0.0
 11
-510.6864493777518
 21
1256.114435328219
 31
0.0
  0
LINE
  5
24B3
330
3305
100
AcDbEntity
  8
DETAIL
  6
Continuous
 62
     5
100
AcDbLine
 10
-386.4749932759897
 20
1317.467146886945
 30
0.0
 11
-387.4753479812915
 21
1317.467146886945
 31
0.0
  0
LINE
  5
24B4
330
3305
100
AcDbEntity
  8
DETAIL
  6
Continuous
 62
     5
100
AcDbLine
 10
-372.7796443182644
 20
1420.964230548916
 30
0.0
 11
-374.2430489258668
 21
1419.31032982385
 31
0.0
  0
LINE
  5
24B5
330
3305
100
AcDbEntity
  8
DETAIL
  6
Continuous
 62
     5
100
AcDbLine
 10
-385.7747449822766
 20
1369.98576891547
 30
0.0
 11
-386.4749932759897
 21
1369.285520621756
 31
0.0
  0
LINE
  5
24B6
330
3305
100
AcDbEntity
  8
DETAIL
  6
Continuous
 62
     5
100
AcDbLine
 10
-386.4749932759897
 20
1327.970871292644
 30
0.0
 11
-390.1763056856198
 21
1327.970871292644
 31
0.0
  0
LINE
  5
24B7
330
3305
100
AcDbEntity
  8
DETAIL
  6
Continuous
 62
     5
100
AcDbLine
 10
-390.1763056856198
 20
1369.98576891547
 30
0.0
 11
-390.1763056856198
 21
1327.970871292644
 31
0.0
  0
LINE
  5
24B8
330
3305
100
AcDbEntity
  8
DETAIL
  6
Continuous
 62
     5
100
AcDbLine
 10
-393.7650996169297
 20
1410.081214511307
 30
0.0
 11
-395.9719249691744
 21
1409.999957127667
 31
0.0
  0
LINE
  5
24B9
330
3305
100
AcDbEntity
  8
DETAIL
  6
Continuous
 62
     5
100
AcDbLine
 10
-391.5701499041142
 20
1410.324529357206
 30
0.0
 11
-393.7650996169297
 21
1410.081214511307
 31
0.0
  0
LINE
  5
24BA
330
3305
100
AcDbEntity
  8
DETAIL
  6
Continuous
 62
     5
100
AcDbLine
 10
-389.3990372148518
 20
1410.728586913451
 30
0.0
 11
-391.5701499041142
 21
1410.324529357206
 31
0.0
  0
LINE
  5
24BB
330
3305
100
AcDbEntity
  8
DETAIL
  6
Continuous
 62
     5
100
AcDbLine
 10
-387.2635085715269
 20
1411.291214981284
 30
0.0
 11
-389.3990372148518
 21
1410.728586913451
 31
0.0
  0
LINE
  5
24BC
330
3305
100
AcDbEntity
  8
DETAIL
  6
Continuous
 62
     5
100
AcDbLine
 10
-385.1751395071634
 20
1412.00935533344
 30
0.0
 11
-387.2635085715269
 21
1411.291214981284
 31
0.0
  0
LINE
  5
24BD
330
3305
100
AcDbEntity
  8
DETAIL
  6
Continuous
 62
     5
100
AcDbLine
 10
-383.1452340299411
 20
1412.879120877362
 30
0.0
 11
-385.1751395071634
 21
1412.00935533344
 31
0.0
  0
LINE
  5
24BE
330
3305
100
AcDbEntity
  8
DETAIL
  6
Continuous
 62
     5
100
AcDbLine
 10
-381.1847817508324
 20
1413.895809945916
 30
0.0
 11
-383.1452340299411
 21
1412.879120877362
 31
0.0
  0
LINE
  5
24BF
330
3305
100
AcDbEntity
  8
DETAIL
  6
Continuous
 62
     5
100
AcDbLine
 10
-379.3044150112738
 20
1415.05390629747
 30
0.0
 11
-381.1847817508324
 21
1413.895809945916
 31
0.0
  0
LINE
  5
24C0
330
3305
100
AcDbEntity
  8
DETAIL
  6
Continuous
 62
     5
100
AcDbLine
 10
-377.5142945569066
 20
1416.347150569712
 30
0.0
 11
-379.3044150112738
 21
1415.05390629747
 31
0.0
  0
LINE
  5
24C1
330
3305
100
AcDbEntity
  8
DETAIL
  6
Continuous
 62
     5
100
AcDbLine
 10
-375.8241238283855
 20
1417.768511698128
 30
0.0
 11
-377.5142945569066
 21
1416.347150569712
 31
0.0
  0
LINE
  5
24C2
330
3305
100
AcDbEntity
  8
DETAIL
  6
Continuous
 62
     5
100
AcDbLine
 10
-374.2430489258668
 20
1419.31032982385
 30
0.0
 11
-375.8241238283855
 21
1417.768511698128
 31
0.0
  0
LINE
  5
24C3
330
3305
100
AcDbEntity
  8
DETAIL
  6
Continuous
 62
     5
100
AcDbLine
 10
-460.5012414685644
 20
1409.999957127667
 30
0.0
 11
-460.5012414685644
 21
1369.98576891547
 31
0.0
  0
LINE
  5
24C4
330
3305
100
AcDbEntity
  8
DETAIL
  6
Continuous
 62
     5
100
AcDbLine
 10
-371.441812807735
 20
1422.721267844103
 30
0.0
 11
-372.7796443182644
 21
1420.964230548916
 31
0.0
  0
LINE
  5
24C5
330
3305
100
AcDbEntity
  8
DETAIL
  6
Continuous
 62
     5
100
AcDbLine
 10
-370.2368284020604
 20
1424.571909758131
 30
0.0
 11
-371.441812807735
 21
1422.721267844103
 31
0.0
  0
LINE
  5
24C6
330
3305
100
AcDbEntity
  8
DETAIL
  6
Continuous
 62
     5
100
AcDbLine
 10
-369.1711934068414
 20
1426.506152743966
 30
0.0
 11
-370.2368284020604
 21
1424.571909758131
 31
0.0
  0
LINE
  5
24C7
330
3305
100
AcDbEntity
  8
DETAIL
  6
Continuous
 62
     5
100
AcDbLine
 10
-368.2506812978036
 20
1428.513521658756
 30
0.0
 11
-369.1711934068414
 21
1426.506152743966
 31
0.0
  0
LINE
  5
24C8
330
3305
100
AcDbEntity
  8
DETAIL
  6
Continuous
 62
     5
100
AcDbLine
 10
-367.4802795576806
 20
1430.583112636224
 30
0.0
 11
-368.2506812978036
 21
1428.513521658756
 31
0.0
  0
LINE
  5
24C9
330
3305
100
AcDbEntity
  8
DETAIL
  6
Continuous
 62
     5
100
AcDbLine
 10
-366.8641610946876
 20
1432.703735994433
 30
0.0
 11
-367.4802795576806
 21
1430.583112636224
 31
0.0
  0
LINE
  5
24CA
330
3305
100
AcDbEntity
  8
DETAIL
  6
Continuous
 62
     5
100
AcDbLine
 10
-366.4056699516849
 20
1434.863901945065
 30
0.0
 11
-366.8641610946876
 21
1432.703735994433
 31
0.0
  0
LINE
  5
24CB
330
3305
100
AcDbEntity
  8
DETAIL
  6
Continuous
 62
     5
100
AcDbLine
 10
-366.1072498523107
 20
1437.051892047294
 30
0.0
 11
-366.4056699516849
 21
1434.863901945065
 31
0.0
  0
LINE
  5
24CC
330
3305
100
AcDbEntity
  8
DETAIL
  6
Continuous
 62
     5
100
AcDbLine
 10
-365.9896081389644
 20
1438.701562701032
 30
0.0
 11
-366.1072498523107
 21
1437.051892047294
 31
0.0
  0
LINE
  5
24CD
330
3305
100
AcDbEntity
  8
NOTE
  6
Continuous
 62
     4
100
AcDbLine
 10
-287.7369333683725
 20
1756.385747280113
 30
0.0
 11
-237.7191981031119
 21
1806.29948852837
 31
0.0
  0
LINE
  5
24CE
330
3305
100
AcDbEntity
  8
NOTE
  6
Continuous
 62
     4
100
AcDbLine
 10
-237.7191981031119
 20
1806.29948852837
 30
0.0
 11
-187.7014628378548
 21
1756.385747280113
 31
0.0
  0
ARC
  5
24CF
330
3305
100
AcDbEntity
  8
DETAIL
  6
Continuous
 62
     5
100
AcDbCircle
 10
-174.8319427486549
 20
1541.512721563189
 30
0.0
 40
186.4563242397176
100
AcDbArc
 50
144.4201293237414
 51
177.4019843523523
  0
ARC
  5
24D2
330
3305
100
AcDbEntity
  8
DETAIL
  6
Continuous
 62
     5
100
AcDbCircle
 10
39.88163590035498
 20
1546.28808301969
 30
0.0
 40
271.6611540568262
100
AcDbArc
 50
157.556681000018
 51
179.0308249999773
  0
ARC
  5
24D3
330
3305
100
AcDbEntity
  8
DETAIL
  6
Continuous
 62
     5
100
AcDbCircle
 10
48.63382496176297
 20
1546.351834195974
 30
0.0
 40
275.9544335087106
100
AcDbArc
 50
157.9386789999908
 51
179.0591440000055
  0
ARC
  5
24D4
330
3305
100
AcDbEntity
  8
DETAIL
  6
Continuous
 62
     5
100
AcDbCircle
 10
116.4818824943733
 20
1546.772011753767
 30
0.0
 40
312.0901750745425
100
AcDbArc
 50
160.6848940000133
 51
179.245237000009
  0
ARC
  5
24D5
330
3305
100
AcDbEntity
  8
DETAIL
  6
Continuous
 62
     5
100
AcDbCircle
 10
127.2934446244626
 20
1546.828088780386
 30
0.0
 40
318.3041212698312
100
AcDbArc
 50
161.0871340000069
 51
179.2700670000102
  0
ARC
  5
24D6
330
3305
100
AcDbEntity
  8
DETAIL
  6
Continuous
 62
     5
100
AcDbCircle
 10
216.939588455215
 20
1546.931153896601
 30
0.0
 40
375.3472190134157
100
AcDbArc
 50
164.0620659999716
 51
179.396736000018
  0
ARC
  5
24D7
330
3305
100
AcDbEntity
  8
DETAIL
  6
Continuous
 62
     5
100
AcDbCircle
 10
223.2806082796424
 20
1547.891637321512
 30
0.0
 40
376.9662216500445
100
AcDbArc
 50
164.2840369999786
 51
179.5453179999809
  0
ARC
  5
24D8
330
3305
100
AcDbEntity
  8
DETAIL
  6
Continuous
 62
     5
100
AcDbCircle
 10
-120.4975312699924
 20
1544.622463853788
 30
0.0
 40
207.9618675935192
100
AcDbArc
 50
149.5547059999851
 51
178.5280520000045
  0
ARC
  5
24D9
330
3305
100
AcDbEntity
  8
DETAIL
  6
Continuous
 62
     5
100
AcDbCircle
 10
-126.1655124486995
 20
1544.543593030662
 30
0.0
 40
206.2099606888997
100
AcDbArc
 50
149.2426820000257
 51
178.4936230000064
  0
ARC
  5
24DA
330
3305
100
AcDbEntity
  8
DETAIL
  6
Continuous
 62
     5
100
AcDbCircle
 10
-75.77543087134019
 20
1544.781334471772
 30
0.0
 40
224.5634398855711
100
AcDbArc
 50
152.0599489999885
 51
178.4429870000024
  0
ARC
  5
24DB
330
3305
100
AcDbEntity
  8
DETAIL
  6
Continuous
 62
     5
100
AcDbCircle
 10
-71.8761196839614
 20
1545.238182174906
 30
0.0
 40
224.3361878780887
100
AcDbArc
 50
152.161196999998
 51
178.5581309999846
  0
ARC
  5
24DC
330
3305
100
AcDbEntity
  8
DETAIL
  6
Continuous
 62
     5
100
AcDbCircle
 10
-16.30787346397392
 20
1545.818402194762
 30
0.0
 40
246.1368036445528
100
AcDbArc
 50
154.9589890000056
 51
178.8209589999854
  0
ARC
  5
24DD
330
3305
100
AcDbEntity
  8
DETAIL
  6
Continuous
 62
     5
100
AcDbCircle
 10
-23.70355296342222
 20
1545.748220166793
 30
0.0
 40
243.0396911861464
100
AcDbArc
 50
154.5990900000266
 51
178.7893799999913
  0
LINE
  5
24DE
330
3305
100
AcDbEntity
  8
DETAIL
  6
Continuous
 62
     5
100
AcDbLine
 10
-224.244146267817
 20
1609.828255921719
 30
0.0
 11
-253.9758456627886
 21
1609.828255921719
 31
0.0
  0
LINE
  5
24DF
330
3305
100
AcDbEntity
  8
DETAIL
  6
Continuous
 62
     5
100
AcDbLine
 10
-226.2311079466222
 20
1600.91219446881
 30
0.0
 11
-256.1995198464416
 21
1600.91219446881
 31
0.0
  0
LINE
  5
24E2
330
3305
100
AcDbEntity
  8
DETAIL
  6
Continuous
 62
     5
100
AcDbLine
 10
-260.4000378355732
 20
1600.91219446881
 30
0.0
 11
-289.1941619283958
 21
1600.91219446881
 31
0.0
  0
LINE
  5
24E3
330
3305
100
AcDbEntity
  8
DETAIL
  6
Continuous
 62
     5
100
AcDbLine
 10
-258.1433948190087
 20
1609.828255921719
 30
0.0
 11
-286.7129249896958
 21
1609.828255921719
 31
0.0
  0
LINE
  5
24E4
330
3305
100
AcDbEntity
  8
DETAIL
  6
Continuous
 62
     5
100
AcDbLine
 10
-290.7117857610269
 20
1609.828255921719
 30
0.0
 11
-317.9724518353022
 21
1609.828255921719
 31
0.0
  0
LINE
  5
24E5
330
3305
100
AcDbEntity
  8
DETAIL
  6
Continuous
 62
     5
100
AcDbLine
 10
-293.2106146517497
 20
1600.91219446881
 30
0.0
 11
-320.6964462794049
 21
1600.91219446881
 31
0.0
  0
LINE
  5
24E6
330
3305
100
AcDbEntity
  8
DETAIL
  6
Continuous
 62
     5
100
AcDbLine
 10
-321.7683263461503
 20
1609.828255921719
 30
0.0
 11
-348.3202951248028
 21
1609.828255921719
 31
0.0
  0
LINE
  5
24E7
330
3305
100
AcDbEntity
  8
DETAIL
  6
Continuous
 62
     5
100
AcDbLine
 10
-324.521588310773
 20
1600.91219446881
 30
0.0
 11
-351.5742786456176
 21
1600.91219446881
 31
0.0
  0
LINE
  5
24E8
330
3305
100
AcDbEntity
  8
DETAIL
  6
Continuous
 62
     5
100
AcDbLine
 10
-154.5056755762405
 20
1600.91219446881
 30
0.0
 11
-186.3822212040822
 21
1600.91219446881
 31
0.0
  0
LINE
  5
24E9
330
3305
100
AcDbEntity
  8
DETAIL
  6
Continuous
 62
     5
100
AcDbLine
 10
-153.1002629599741
 20
1609.828255921719
 30
0.0
 11
-184.7137438818853
 21
1609.828255921719
 31
0.0
  0
LINE
  5
24EA
330
3305
100
AcDbEntity
  8
DETAIL
  6
Continuous
 62
     5
100
AcDbLine
 10
-190.8764004623433
 20
1600.91219446881
 30
0.0
 11
-221.8731341268713
 21
1600.91219446881
 31
0.0
  0
LINE
  5
24EB
330
3305
100
AcDbEntity
  8
DETAIL
  6
Continuous
 62
     5
100
AcDbLine
 10
-189.1718246260781
 20
1609.828255921719
 30
0.0
 11
-219.9208133024357
 21
1609.828255921719
 31
0.0
  0
LINE
  5
24EC
330
3305
100
AcDbEntity
  8
NOTE
  6
Continuous
 62
     4
100
AcDbLine
 10
-212.710330470485
 20
1715.685229995382
 30
0.0
 11
-262.728065735746
 21
1715.685229995382
 31
0.0
  0
LINE
  5
24ED
330
3305
100
AcDbEntity
  8
NOTE
  6
Continuous
 62
     4
100
AcDbLine
 10
-262.728065735746
 20
1756.385747280113
 30
0.0
 11
-262.728065735746
 21
1715.685229995382
 31
0.0
  0
LINE
  5
24EE
330
3305
100
AcDbEntity
  8
NOTE
  6
Continuous
 62
     4
100
AcDbLine
 10
-287.7369333683725
 20
1756.385747280113
 30
0.0
 11
-262.728065735746
 21
1756.385747280113
 31
0.0
  0
LINE
  5
24EF
330
3305
100
AcDbEntity
  8
NOTE
  6
Continuous
 62
     4
100
AcDbLine
 10
-212.710330470485
 20
1756.385747280113
 30
0.0
 11
-212.710330470485
 21
1715.685229995382
 31
0.0
  0
LINE
  5
24F0
330
3305
100
AcDbEntity
  8
NOTE
  6
Continuous
 62
     4
100
AcDbLine
 10
-212.710330470485
 20
1756.385747280113
 30
0.0
 11
-187.7014628378548
 21
1756.385747280113
 31
0.0
  0
LINE
  5
24FC
330
3305
100
AcDbEntity
  8
DETAIL
  6
Continuous
 62
     5
100
AcDbLine
 10
365.9896081389699
 20
1438.701562701032
 30
0.0
 11
361.096616041253
 21
1549.964486597148
 31
0.0
  0
LINE
  5
24FF
330
3305
100
AcDbEntity
  8
DETAIL
  6
Continuous
 62
     5
100
AcDbLine
 10
386.2990165722678
 20
1369.285520621756
 30
0.0
 11
386.2990165722678
 21
1317.467146886945
 31
0.0
  0
LINE
  5
2500
330
3305
100
AcDbEntity
  8
DETAIL
  6
Continuous
 62
     5
100
AcDbLine
 10
386.2990165722678
 20
1369.285520621756
 30
0.0
 11
386.2990165722678
 21
1317.467146886945
 31
0.0
  0
LINE
  5
250D
330
3305
100
AcDbEntity
  8
DETAIL
  6
Continuous
 62
     5
100
AcDbLine
 10
386.2990165722678
 20
1317.467146886945
 30
0.0
 11
387.2993712775807
 21
1317.467146886945
 31
0.0
  0
LINE
  5
250E
330
3305
100
AcDbEntity
  8
DETAIL
  6
Continuous
 62
     5
100
AcDbLine
 10
386.2990165722678
 20
1317.467146886945
 30
0.0
 11
387.2993712775807
 21
1317.467146886945
 31
0.0
  0
LINE
  5
2512
330
3305
100
AcDbEntity
  8
DETAIL
  6
Continuous
 62
     5
100
AcDbLine
 10
374.2430346350948
 20
1419.31032982385
 30
0.0
 11
372.7796300274813
 21
1420.964230548916
 31
0.0
  0
LINE
  5
2514
330
3305
100
AcDbEntity
  8
DETAIL
  6
Continuous
 62
     5
100
AcDbLine
 10
386.2990165722678
 20
1369.285520621756
 30
0.0
 11
385.5987682785546
 21
1369.98576891547
 31
0.0
  0
LINE
  5
2515
330
3305
100
AcDbEntity
  8
DETAIL
  6
Continuous
 62
     5
100
AcDbLine
 10
390.8006127461505
 20
1369.98576891547
 30
0.0
 11
390.8006127461505
 21
1327.970871292644
 31
0.0
  0
LINE
  5
2516
330
3305
100
AcDbEntity
  8
DETAIL
  6
Continuous
 62
     5
100
AcDbLine
 10
390.8006127461505
 20
1327.970871292644
 30
0.0
 11
386.2990165722678
 21
1327.970871292644
 31
0.0
  0
LINE
  5
2518
330
3305
100
AcDbEntity
  8
DETAIL
  6
Continuous
 62
     5
100
AcDbLine
 10
375.8241095376171
 20
1417.768525988915
 30
0.0
 11
374.2430346350948
 21
1419.31032982385
 31
0.0
  0
LINE
  5
2519
330
3305
100
AcDbEntity
  8
DETAIL
  6
Continuous
 62
     5
100
AcDbLine
 10
377.5142802661348
 20
1416.347150569712
 30
0.0
 11
375.8241095376171
 21
1417.768525988915
 31
0.0
  0
LINE
  5
251A
330
3305
100
AcDbEntity
  8
DETAIL
  6
Continuous
 62
     5
100
AcDbLine
 10
379.3044007204908
 20
1415.053920588256
 30
0.0
 11
377.5142802661348
 21
1416.347150569712
 31
0.0
  0
LINE
  5
251B
330
3305
100
AcDbEntity
  8
DETAIL
  6
Continuous
 62
     5
100
AcDbLine
 10
381.1847674600605
 20
1413.895824236703
 30
0.0
 11
379.3044007204908
 21
1415.053920588256
 31
0.0
  0
LINE
  5
251C
330
3305
100
AcDbEntity
  8
DETAIL
  6
Continuous
 62
     5
100
AcDbLine
 10
383.1452197391726
 20
1412.879135168136
 30
0.0
 11
381.1847674600605
 21
1413.895824236703
 31
0.0
  0
LINE
  5
251D
330
3305
100
AcDbEntity
  8
DETAIL
  6
Continuous
 62
     5
100
AcDbLine
 10
385.1751252163913
 20
1412.00935533344
 30
0.0
 11
383.1452197391726
 21
1412.879135168136
 31
0.0
  0
LINE
  5
251E
330
3305
100
AcDbEntity
  8
DETAIL
  6
Continuous
 62
     5
100
AcDbLine
 10
387.2634942807445
 20
1411.291214981284
 30
0.0
 11
385.1751252163913
 21
1412.00935533344
 31
0.0
  0
LINE
  5
251F
330
3305
100
AcDbEntity
  8
DETAIL
  6
Continuous
 62
     5
100
AcDbLine
 10
389.3990229240691
 20
1410.728586913451
 30
0.0
 11
387.2634942807445
 21
1411.291214981284
 31
0.0
  0
LINE
  5
2520
330
3305
100
AcDbEntity
  8
DETAIL
  6
Continuous
 62
     5
100
AcDbLine
 10
391.570135613346
 20
1410.324529357206
 30
0.0
 11
389.3990229240691
 21
1410.728586913451
 31
0.0
  0
LINE
  5
2521
330
3305
100
AcDbEntity
  8
DETAIL
  6
Continuous
 62
     5
100
AcDbLine
 10
393.7650710353728
 20
1410.081214511307
 30
0.0
 11
391.570135613346
 21
1410.324529357206
 31
0.0
  0
LINE
  5
2522
330
3305
100
AcDbEntity
  8
DETAIL
  6
Continuous
 62
     5
100
AcDbLine
 10
395.9719249691946
 20
1409.999957127667
 30
0.0
 11
393.7650710353728
 21
1410.081214511307
 31
0.0
  0
LINE
  5
2529
330
3305
100
AcDbEntity
  8
DETAIL
  6
Continuous
 62
     5
100
AcDbLine
 10
366.1072498523165
 20
1437.051892047294
 30
0.0
 11
365.9896081389699
 21
1438.701562701032
 31
0.0
  0
LINE
  5
252A
330
3305
100
AcDbEntity
  8
DETAIL
  6
Continuous
 62
     5
100
AcDbLine
 10
366.405655660913
 20
1434.863901945065
 30
0.0
 11
366.1072498523165
 21
1437.051892047294
 31
0.0
  0
LINE
  5
252B
330
3305
100
AcDbEntity
  8
DETAIL
  6
Continuous
 62
     5
100
AcDbLine
 10
366.8641610946898
 20
1432.703750285206
 30
0.0
 11
366.405655660913
 21
1434.863901945065
 31
0.0
  0
LINE
  5
252C
330
3305
100
AcDbEntity
  8
DETAIL
  6
Continuous
 62
     5
100
AcDbLine
 10
367.480279557697
 20
1430.583126926997
 30
0.0
 11
366.8641610946898
 21
1432.703750285206
 31
0.0
  0
LINE
  5
252D
330
3305
100
AcDbEntity
  8
DETAIL
  6
Continuous
 62
     5
100
AcDbLine
 10
368.2506812978054
 20
1428.513521658756
 30
0.0
 11
367.480279557697
 21
1430.583126926997
 31
0.0
  0
LINE
  5
252E
330
3305
100
AcDbEntity
  8
DETAIL
  6
Continuous
 62
     5
100
AcDbLine
 10
369.1711791160733
 20
1426.50616703474
 30
0.0
 11
368.2506812978054
 21
1428.513521658756
 31
0.0
  0
LINE
  5
252F
330
3305
100
AcDbEntity
  8
DETAIL
  6
Continuous
 62
     5
100
AcDbLine
 10
370.2368141112921
 20
1424.571924048917
 30
0.0
 11
369.1711791160733
 21
1426.50616703474
 31
0.0
  0
LINE
  5
2530
330
3305
100
AcDbEntity
  8
DETAIL
  6
Continuous
 62
     5
100
AcDbLine
 10
371.4418128077405
 20
1422.721267844103
 30
0.0
 11
370.2368141112921
 21
1424.571924048917
 31
0.0
  0
LINE
  5
2531
330
3305
100
AcDbEntity
  8
DETAIL
  6
Continuous
 62
     5
100
AcDbLine
 10
372.7796300274813
 20
1420.964230548916
 30
0.0
 11
371.4418128077405
 21
1422.721267844103
 31
0.0
  0
ARC
  5
2550
330
3305
100
AcDbEntity
  8
DETAIL
  6
Continuous
 62
     5
100
AcDbCircle
 10
206.7633640572632
 20
1541.876232953651
 30
0.0
 40
154.5450413658846
100
AcDbArc
 50
3.000000000006486
 51
44.39700599997961
  0
ARC
  5
2551
330
3305
100
AcDbEntity
  8
DETAIL
  6
Continuous
 62
     5
100
AcDbCircle
 10
109.4749265426227
 20
1544.781334471772
 30
0.0
 40
224.5634398855711
100
AcDbArc
 50
1.55701299999712
 51
27.94005100001145
  0
ARC
  5
2552
330
3305
100
AcDbEntity
  8
DETAIL
  6
Continuous
 62
     5
100
AcDbCircle
 10
105.5756296460323
 20
1545.238182174906
 30
0.0
 40
224.3361878780887
100
AcDbArc
 50
1.441869000015376
 51
27.8388030000019
  0
LINE
  5
2553
330
3305
100
AcDbEntity
  8
DETAIL
  6
Continuous
 62
     5
100
AcDbLine
 10
326.9101246138208
 20
1600.91219446881
 30
0.0
 11
349.5881695315352
 21
1600.91219446881
 31
0.0
  0
LINE
  5
2554
330
3305
100
AcDbEntity
  8
DETAIL
  6
Continuous
 62
     5
100
AcDbLine
 10
324.4112814323134
 20
1609.828255921719
 30
0.0
 11
345.5678754584785
 21
1609.828255921719
 31
0.0
  0
LINE
  5
2555
330
3305
100
AcDbEntity
  8
DETAIL
  6
Continuous
 62
     5
100
AcDbLine
 10
74.81512259978746
 20
1600.91219446881
 30
0.0
 11
108.3749936718023
 21
1600.91219446881
 31
0.0
  0
LINE
  5
2556
330
3305
100
AcDbEntity
  8
DETAIL
  6
Continuous
 62
     5
100
AcDbLine
 10
74.3346522348229
 20
1609.828255921719
 30
0.0
 11
107.6173250180011
 21
1609.828255921719
 31
0.0
  0
ARC
  5
2557
330
3305
100
AcDbEntity
  8
DETAIL
  6
Continuous
 62
     5
100
AcDbCircle
 10
-990.4051684288411
 20
1547.980040095892
 30
0.0
 40
1066.534614203588
100
AcDbArc
 50
0.1559560000103132
 51
5.489050000007288
  0
ARC
  5
2558
330
3305
100
AcDbEntity
  8
DETAIL
  6
Continuous
 62
     5
100
AcDbCircle
 10
-1091.186431973734
 20
1547.996274423678
 30
0.0
 40
1162.391731747081
100
AcDbArc
 50
0.1422950000199107
 51
5.034368000000791
  0
ARC
  5
255D
330
3305
100
AcDbEntity
  8
DETAIL
  6
Continuous
 62
     5
100
AcDbCircle
 10
348.7209439982844
 20
1547.535682535797
 30
0.0
 40
469.0715946159794
100
AcDbArc
 50
167.38254099999
 51
179.5911190000002
  0
ARC
  5
255E
330
3305
100
AcDbEntity
  8
DETAIL
  6
Continuous
 62
     5
100
AcDbCircle
 10
369.8369170044325
 20
1547.573295872712
 30
0.0
 40
485.3800486885951
100
AcDbArc
 50
167.8176529999801
 51
179.6092980000114
  0
ARC
  5
255F
330
3305
100
AcDbEntity
  8
DETAIL
  6
Continuous
 62
     5
100
AcDbCircle
 10
565.0177812871852
 20
1547.800547880195
 30
0.0
 40
646.6473450570974
100
AcDbArc
 50
170.9065570000221
 51
179.7268720000231
  0
ARC
  5
2560
330
3305
100
AcDbEntity
  8
DETAIL
  6
Continuous
 62
     5
100
AcDbCircle
 10
602.8521823057534
 20
1547.827743237403
 30
0.0
 40
679.6040736957214
100
AcDbArc
 50
171.3533229999896
 51
179.7424100000248
  0
ARC
  5
2561
330
3305
100
AcDbEntity
  8
DETAIL
  6
Continuous
 62
     5
100
AcDbCircle
 10
1024.104678390912
 20
1547.980040095892
 30
0.0
 40
1066.534614203588
100
AcDbArc
 50
174.5109499999927
 51
179.8440439999897
  0
ARC
  5
2562
330
3305
100
AcDbEntity
  8
DETAIL
  6
Continuous
 62
     5
100
AcDbCircle
 10
1124.885927645017
 20
1547.996274423678
 30
0.0
 40
1162.391731747081
100
AcDbArc
 50
174.9656319999991
 51
179.8577049999801
  0
LINE
  5
2563
330
3305
100
AcDbEntity
  8
DETAIL
  6
Continuous
 62
     5
100
AcDbLine
 10
-2.342939732669944
 20
1609.828255921719
 30
0.0
 11
-35.86009199480304
 21
1609.828255921719
 31
0.0
  0
LINE
  5
2564
330
3305
100
AcDbEntity
  8
DETAIL
  6
Continuous
 62
     5
100
AcDbLine
 10
-2.342939732669944
 20
1600.91219446881
 30
0.0
 11
-36.30071966092407
 21
1600.91219446881
 31
0.0
  0
LINE
  5
2565
330
3305
100
AcDbEntity
  8
DETAIL
  6
Continuous
 62
     5
100
AcDbLine
 10
-41.11561263771601
 20
1600.91219446881
 30
0.0
 11
-74.67548370973145
 21
1600.91219446881
 31
0.0
  0
LINE
  5
2566
330
3305
100
AcDbEntity
  8
DETAIL
  6
Continuous
 62
     5
100
AcDbLine
 10
-40.63514227276301
 20
1609.828255921719
 30
0.0
 11
-73.91782934671095
 21
1609.828255921719
 31
0.0
  0
LINE
  5
2567
330
3305
100
AcDbEntity
  8
DETAIL
  6
Continuous
 62
     5
100
AcDbLine
 10
-78.64777791824849
 20
1609.828255921719
 30
0.0
 11
-111.5341673303036
 21
1609.828255921719
 31
0.0
  0
LINE
  5
2568
330
3305
100
AcDbEntity
  8
DETAIL
  6
Continuous
 62
     5
100
AcDbLine
 10
-79.44474622117468
 20
1600.91219446881
 30
0.0
 11
-112.6035036379316
 21
1600.91219446881
 31
0.0
  0
LINE
  5
2569
330
3305
100
AcDbEntity
  8
DETAIL
  6
Continuous
 62
     5
100
AcDbLine
 10
2.455022332012163
 20
1609.828255921719
 30
0.0
 11
31.11148932263452
 21
1609.828255921719
 31
0.0
  0
LINE
  5
256A
330
3305
100
AcDbEntity
  8
DETAIL
  6
Continuous
 62
     5
100
AcDbLine
 10
2.342939732669943
 20
1600.91219446881
 30
0.0
 11
31.50883937801087
 21
1600.91219446881
 31
0.0
  0
LINE
  5
256B
330
3305
100
AcDbEntity
  8
DETAIL
  6
Continuous
 62
     5
100
AcDbLine
 10
36.0424889031138
 20
1609.828255921719
 30
0.0
 11
69.55960195687396
 21
1609.828255921719
 31
0.0
  0
LINE
  5
256C
330
3305
100
AcDbEntity
  8
DETAIL
  6
Continuous
 62
     5
100
AcDbLine
 10
36.20303154253726
 20
1600.91219446881
 30
0.0
 11
70.00022962299493
 21
1600.91219446881
 31
0.0
  0
ARC
  5
256D
330
3305
100
AcDbEntity
  8
DETAIL
  6
Continuous
 62
     5
100
AcDbCircle
 10
-6.182125938284115
 20
1546.28808301969
 30
0.0
 40
271.6611540568262
100
AcDbArc
 50
0.969175000022701
 51
22.44331899998191
  0
ARC
  5
256E
330
3305
100
AcDbEntity
  8
DETAIL
  6
Continuous
 62
     5
100
AcDbCircle
 10
-14.93432929046594
 20
1546.351834195974
 30
0.0
 40
275.9544335087106
100
AcDbArc
 50
0.9408559999944603
 51
22.06132100000912
  0
ARC
  5
256F
330
3305
100
AcDbEntity
  8
DETAIL
  6
Continuous
 62
     5
100
AcDbCircle
 10
-82.78237253230212
 20
1546.772011753767
 30
0.0
 40
312.0901750745425
100
AcDbArc
 50
0.7547629999910011
 51
19.31510599998663
  0
ARC
  5
2570
330
3305
100
AcDbEntity
  8
DETAIL
  6
Continuous
 62
     5
100
AcDbCircle
 10
-93.59394895317278
 20
1546.828088780386
 30
0.0
 40
318.3041212698312
100
AcDbArc
 50
0.7299329999893109
 51
18.912865999993
  0
ARC
  5
2571
330
3305
100
AcDbEntity
  8
DETAIL
  6
Continuous
 62
     5
100
AcDbCircle
 10
-183.2400784931441
 20
1546.931153896601
 30
0.0
 40
375.3472190134157
100
AcDbArc
 50
0.603263999982018
 51
15.93793400002829
  0
ARC
  5
2572
330
3305
100
AcDbEntity
  8
DETAIL
  6
Continuous
 62
     5
100
AcDbCircle
 10
-189.5811126083561
 20
1547.891637321512
 30
0.0
 40
376.9662216500445
100
AcDbArc
 50
0.4546820000190733
 51
15.71596300002131
  0
ARC
  5
2573
330
3305
100
AcDbEntity
  8
DETAIL
  6
Continuous
 62
     5
100
AcDbCircle
 10
-315.0214483269941
 20
1547.535682535797
 30
0.0
 40
469.0715946159794
100
AcDbArc
 50
0.4088809999997679
 51
12.61745900000991
  0
ARC
  5
2574
330
3305
100
AcDbEntity
  8
DETAIL
  6
Continuous
 62
     5
100
AcDbCircle
 10
-336.1374070423615
 20
1547.573295872712
 30
0.0
 40
485.3800486885951
100
AcDbArc
 50
0.3907019999886263
 51
12.18234700001973
  0
ARC
  5
2575
330
3305
100
AcDbEntity
  8
DETAIL
  6
Continuous
 62
     5
100
AcDbCircle
 10
-531.3182713251143
 20
1547.800547880195
 30
0.0
 40
646.6473450570974
100
AcDbArc
 50
0.2731279999769134
 51
9.093442999977812
  0
ARC
  5
2576
330
3305
100
AcDbEntity
  8
DETAIL
  6
Continuous
 62
     5
100
AcDbCircle
 10
-569.1526723436825
 20
1547.827743237403
 30
0.0
 40
679.6040736957214
100
AcDbArc
 50
0.2575899999751675
 51
8.646677000010242
  0
ARC
  5
2577
330
3305
100
AcDbEntity
  8
DETAIL
  6
Continuous
 62
     5
100
AcDbCircle
 10
50.00736913527112
 20
1545.818402194762
 30
0.0
 40
246.1368036445528
100
AcDbArc
 50
1.179041000014319
 51
25.04101099999427
  0
ARC
  5
2578
330
3305
100
AcDbEntity
  8
DETAIL
  6
Continuous
 62
     5
100
AcDbCircle
 10
57.40304863471919
 20
1545.748220166793
 30
0.0
 40
243.0396911861464
100
AcDbArc
 50
1.210620000008675
 51
25.4009099999733
  0
LINE
  5
2579
330
3305
100
AcDbEntity
  8
DETAIL
  6
Continuous
 62
     5
100
AcDbLine
 10
188.2051855383115
 20
1600.91219446881
 30
0.0
 11
220.0817168753647
 21
1600.91219446881
 31
0.0
  0
LINE
  5
257A
330
3305
100
AcDbEntity
  8
DETAIL
  6
Continuous
 62
     5
100
AcDbLine
 10
186.7997729220451
 20
1609.828255921719
 30
0.0
 11
218.4132538439563
 21
1609.828255921719
 31
0.0
  0
LINE
  5
257B
330
3305
100
AcDbEntity
  8
DETAIL
  6
Continuous
 62
     5
100
AcDbLine
 10
112.3472878803232
 20
1609.828255921719
 30
0.0
 11
145.2336772923745
 21
1609.828255921719
 31
0.0
  0
LINE
  5
257C
330
3305
100
AcDbEntity
  8
DETAIL
  6
Continuous
 62
     5
100
AcDbLine
 10
113.1442418924717
 20
1600.91219446881
 30
0.0
 11
146.3030136000026
 21
1600.91219446881
 31
0.0
  0
LINE
  5
257D
330
3305
100
AcDbEntity
  8
DETAIL
  6
Continuous
 62
     5
100
AcDbLine
 10
151.0033516722624
 20
1600.91219446881
 30
0.0
 11
183.6377946063995
 21
1600.91219446881
 31
0.0
  0
LINE
  5
257E
330
3305
100
AcDbEntity
  8
DETAIL
  6
Continuous
 62
     5
100
AcDbLine
 10
149.8955445808178
 20
1609.828255921719
 30
0.0
 11
182.2621211064407
 21
1609.828255921719
 31
0.0
  0
LINE
  5
257F
330
3305
100
AcDbEntity
  8
DETAIL
  6
Continuous
 62
     5
100
AcDbLine
 10
224.5759104244144
 20
1600.91219446881
 30
0.0
 11
255.5726297981573
 21
1600.91219446881
 31
0.0
  0
LINE
  5
2580
330
3305
100
AcDbEntity
  8
DETAIL
  6
Continuous
 62
     5
100
AcDbLine
 10
222.871320297364
 20
1609.828255921719
 30
0.0
 11
253.6203089737182
 21
1609.828255921719
 31
0.0
  0
LINE
  5
2581
330
3305
100
AcDbEntity
  8
DETAIL
  6
Continuous
 62
     5
100
AcDbLine
 10
257.943656229888
 20
1609.828255921719
 30
0.0
 11
287.6753556248596
 21
1609.828255921719
 31
0.0
  0
LINE
  5
2582
330
3305
100
AcDbEntity
  8
DETAIL
  6
Continuous
 62
     5
100
AcDbLine
 10
259.9306036179087
 20
1600.91219446881
 30
0.0
 11
289.8990155177243
 21
1600.91219446881
 31
0.0
  0
LINE
  5
2583
330
3305
100
AcDbEntity
  8
DETAIL
  6
Continuous
 62
     5
100
AcDbLine
 10
294.0995335068592
 20
1600.91219446881
 30
0.0
 11
322.8936718904668
 21
1600.91219446881
 31
0.0
  0
LINE
  5
2584
330
3305
100
AcDbEntity
  8
DETAIL
  6
Continuous
 62
     5
100
AcDbLine
 10
291.8428904902913
 20
1609.828255921719
 30
0.0
 11
320.412434951767
 21
1609.828255921719
 31
0.0
  0
LINE
  5
25AB
330
3305
100
AcDbEntity
  8
DETAIL
  6
Continuous
 62
     5
100
AcDbLine
 10
460.3252647648568
 20
1369.98576891547
 30
0.0
 11
460.3252647648568
 21
1409.999957127667
 31
0.0
  0
TEXT
  5
2608
330
3305
100
AcDbEntity
  8
NOTE
  6
Continuous
 62
     4
100
AcDbText
 10
-1237.525767769913
 20
1446.401782613383
 30
0.0
 40
50.0
  1
温水出口〈R1-1/4B〉
100
AcDbText
  0
TEXT
  5
2609
330
3305
100
AcDbEntity
  8
NOTE
  6
Continuous
 62
     4
100
AcDbText
 10
-1369.491418428244
 20
-637.0670246405563
 30
0.0
 40
50.0
  1
温水入口〈R1-1/4B〉
100
AcDbText
  0
TEXT
  5
260B
330
3305
100
AcDbEntity
  8
NOTE
  6
Continuous
 62
     4
100
AcDbText
 10
-1552.101862101137
 20
765.4749497615163
 30
0.0
 40
50.0
  1
φ39ノックアウト穴
100
AcDbText
  0
TEXT
  5
260C
330
3305
100
AcDbEntity
  8
NOTE
  6
Continuous
 62
     4
100
AcDbText
 10
-1559.191841383817
 20
994.3013723452217
 30
0.0
 40
50.0
  1
φ39ノックアウト穴
100
AcDbText
  0
TEXT
  5
260D
330
3305
100
AcDbEntity
  8
NOTE
  6
Continuous
 62
     4
100
AcDbText
 10
-1503.45880200329
 20
916.4767620552211
 30
0.0
 40
50.0
  1
〈CL用通し穴〉
100
AcDbText
  0
TEXT
  5
260E
330
3305
100
AcDbEntity
  8
NOTE
  6
Continuous
 62
     4
100
AcDbText
 10
-1567.423251489002
 20
678.294308218218
 30
0.0
 40
50.0
  1
〈EL or CL用通し穴〉
100
AcDbText
  0
TEXT
  5
2611
330
3305
100
AcDbEntity
  8
NOTE
  6
Continuous
 62
     4
100
AcDbText
 10
-112.5658245750817
 20
1734.888710585155
 30
0.0
 40
50.0
  1
空気吹出
100
AcDbText
  0
TEXT
  5
2612
330
3305
100
AcDbEntity
  8
NOTE
  6
Continuous
 62
     4
100
AcDbText
 10
-602.813001281871
 20
1067.32315094544
 30
0.0
 40
50.0
  1
空気
100
AcDbText
  0
TEXT
  5
2613
330
3305
100
AcDbEntity
  8
NOTE
  6
Continuous
 62
     4
100
AcDbText
 10
-602.813001281871
 20
993.011101413553
 30
0.0
 40
50.0
  1
吸込
100
AcDbText
  0
CIRCLE
  5
2614
330
3305
100
AcDbEntity
  8
FIX
  6
Continuous
 62
    11
100
AcDbCircle
 10
-379.9999999999982
 20
-0.0000000000000142
 30
0.0
 40
18.59856373856018
  0
LINE
  5
2615
330
3305
100
AcDbEntity
  8
NOTE
  6
Continuous
 62
     4
100
AcDbLine
 10
-379.9999999999991
 20
-38.29721884283209
 30
0.0
 11
-379.9999999999991
 21
38.29721884281568
 31
0.0
  0
LINE
  5
2616
330
3305
100
AcDbEntity
  8
NOTE
  6
Continuous
 62
     4
100
AcDbLine
 10
-341.7027811571744
 20
-0.0000000000000142
 30
0.0
 11
-418.2972188428231
 21
-0.0000000000000142
 31
0.0
  0
CIRCLE
  5
2617
330
3305
100
AcDbEntity
  8
FIX
  6
Continuous
 62
    11
100
AcDbCircle
 10
380.0000000000018
 20
-0.0000000000000142
 30
0.0
 40
18.59856373856018
  0
LINE
  5
2618
330
3305
100
AcDbEntity
  8
NOTE
  6
Continuous
 62
     4
100
AcDbLine
 10
380.0000000000018
 20
-38.29721884283209
 30
0.0
 11
380.0000000000018
 21
38.29721884281568
 31
0.0
  0
LINE
  5
2619
330
3305
100
AcDbEntity
  8
NOTE
  6
Continuous
 62
     4
100
AcDbLine
 10
418.2972188428267
 20
-0.0000000000000142
 30
0.0
 11
341.702781157177
 21
-0.0000000000000142
 31
0.0
  0
LINE
  5
2623
330
3305
100
AcDbEntity
  8
BASIS
  6
DASHDOT
 62
     6
100
AcDbLine
 10
0.0
 20
1700.018384798468
 30
0.0
 11
0.0
 21
-72.42338100045706
 31
0.0
  0
LINE
  5
2624
330
3305
100
AcDbEntity
  8
NOTE
  6
Continuous
 62
     4
100
AcDbLine
 10
287.7369333683747
 20
1756.385747280113
 30
0.0
 11
237.7191981031139
 21
1806.29948852837
 31
0.0
  0
LINE
  5
2625
330
3305
100
AcDbEntity
  8
NOTE
  6
Continuous
 62
     4
100
AcDbLine
 10
237.7191981031139
 20
1806.29948852837
 30
0.0
 11
187.7014628378565
 21
1756.385747280113
 31
0.0
  0
LINE
  5
2626
330
3305
100
AcDbEntity
  8
NOTE
  6
Continuous
 62
     4
100
AcDbLine
 10
212.7103304704871
 20
1715.685229995382
 30
0.0
 11
262.7280657357478
 21
1715.685229995382
 31
0.0
  0
LINE
  5
2627
330
3305
100
AcDbEntity
  8
NOTE
  6
Continuous
 62
     4
100
AcDbLine
 10
262.7280657357478
 20
1756.385747280113
 30
0.0
 11
262.7280657357478
 21
1715.685229995382
 31
0.0
  0
LINE
  5
2628
330
3305
100
AcDbEntity
  8
NOTE
  6
Continuous
 62
     4
100
AcDbLine
 10
287.7369333683747
 20
1756.385747280113
 30
0.0
 11
262.7280657357478
 21
1756.385747280113
 31
0.0
  0
LINE
  5
2629
330
3305
100
AcDbEntity
  8
NOTE
  6
Continuous
 62
     4
100
AcDbLine
 10
212.7103304704871
 20
1756.385747280113
 30
0.0
 11
212.7103304704871
 21
1715.685229995382
 31
0.0
  0
LINE
  5
262A
330
3305
100
AcDbEntity
  8
NOTE
  6
Continuous
 62
     4
100
AcDbLine
 10
212.7103304704871
 20
1756.385747280113
 30
0.0
 11
187.7014628378565
 21
1756.385747280113
 31
0.0
  0
LINE
  5
2633
330
3305
100
AcDbEntity
  8
ARRANGE
  6
Continuous
 62
     1
100
AcDbLine
 10
37.89732108180669
 20
-37.89732108180669
 30
0.0
 11
-37.89732108180851
 21
37.89732108180849
 31
0.0
  0
LINE
  5
2634
330
3305
100
AcDbEntity
  8
ARRANGE
  6
Continuous
 62
     1
100
AcDbLine
 10
37.89732108180669
 20
37.89732108180849
 30
0.0
 11
-37.89732108180851
 21
-37.89732108181033
 31
0.0
  0
CIRCLE
  5
2635
330
3305
100
AcDbEntity
  8
ARRANGE
  6
Continuous
 62
     1
100
AcDbCircle
 10
0.0000000000009095
 20
0.0
 30
0.0
 40
34.44967411438486
  0
LINE
  5
2676
330
3305
100
AcDbEntity
  8
SIZE
  6
Continuous
 62
    30
100
AcDbLine
 10
380.0000000000018
 20
-58.29721884283209
 30
0.0
 11
380.0000000000018
 21
-367.3153053570513
 31
0.0
  0
LINE
  5
2677
330
3305
100
AcDbEntity
  8
SIZE
  6
Continuous
 62
    30
100
AcDbLine
 10
-379.9999999999991
 20
-58.29721884283209
 30
0.0
 11
-379.9999999999991
 21
-367.3153053570513
 31
0.0
  0
LINE
  5
2678
330
3305
100
AcDbEntity
  8
SIZE
  6
Continuous
 62
    30
100
AcDbLine
 10
370.0000000000018
 20
-352.3153053570514
 30
0.0
 11
-369.9999999999992
 21
-352.3153053570514
 31
0.0
  0
CIRCLE
  5
2679
330
3305
100
AcDbEntity
  8
SIZE
  6
Continuous
 62
    30
100
AcDbCircle
 10
380.0000000000018
 20
-352.3153053570514
 30
0.0
 40
5.0
  0
LINE
  5
267A
330
3305
100
AcDbEntity
  8
SIZE
  6
Continuous
 62
    30
100
AcDbLine
 10
375.0000000000018
 20
-352.3153053570514
 30
0.0
 11
370.0000000000018
 21
-352.3153053570514
 31
0.0
  0
CIRCLE
  5
267B
330
3305
100
AcDbEntity
  8
SIZE
  6
Continuous
 62
    30
100
AcDbCircle
 10
-379.9999999999991
 20
-352.3153053570514
 30
0.0
 40
5.0
  0
LINE
  5
267C
330
3305
100
AcDbEntity
  8
SIZE
  6
Continuous
 62
    30
100
AcDbLine
 10
-374.9999999999989
 20
-352.3153053570514
 30
0.0
 11
-369.9999999999992
 21
-352.3153053570514
 31
0.0
  0
TEXT
  5
267D
330
3305
100
AcDbEntity
  8
SIZE
  6
Continuous
 62
    30
100
AcDbText
 10
-46.28571428571315
 20
-337.3153053570513
 30
0.0
 40
40.0
  1
760
 41
0.9
 72
     1
 11
0.0000000000011369
 21
-337.3153053570513
 31
0.0
100
AcDbText
  0
POINT
  5
267F
330
3305
100
AcDbEntity
  8
DEFPOINTS
  6
Continuous
 62
     7
100
AcDbPoint
 10
-379.9999999999991
 20
-38.29721884283209
 30
0.0
  0
POINT
  5
2680
330
3305
100
AcDbEntity
  8
DEFPOINTS
  6
Continuous
 62
     7
100
AcDbPoint
 10
-379.9999999999991
 20
-352.3153053570514
 30
0.0
  0
LINE
  5
2681
330
3305
100
AcDbEntity
  8
SIZE
  6
Continuous
 62
    30
100
AcDbLine
 10
-456.999999999998
 20
-16.79886494302085
 30
0.0
 11
-456.999999999998
 21
-367.3153053570513
 31
0.0
  0
LINE
  5
2682
330
3305
100
AcDbEntity
  8
SIZE
  6
Continuous
 62
    30
100
AcDbLine
 10
-379.9999999999991
 20
-58.29721884283209
 30
0.0
 11
-379.9999999999991
 21
-367.3153053570513
 31
0.0
  0
LINE
  5
2683
330
3305
100
AcDbEntity
  8
SIZE
  6
Continuous
 62
    30
100
AcDbLine
 10
-446.9999999999978
 20
-352.3153053570514
 30
0.0
 11
-389.9999999999991
 21
-352.3153053570514
 31
0.0
  0
CIRCLE
  5
2684
330
3305
100
AcDbEntity
  8
SIZE
  6
Continuous
 62
    30
100
AcDbCircle
 10
-456.999999999998
 20
-352.3153053570514
 30
0.0
 40
5.0
  0
LINE
  5
2685
330
3305
100
AcDbEntity
  8
SIZE
  6
Continuous
 62
    30
100
AcDbLine
 10
-451.999999999998
 20
-352.3153053570514
 30
0.0
 11
-446.9999999999978
 21
-352.3153053570514
 31
0.0
  0
CIRCLE
  5
2686
330
3305
100
AcDbEntity
  8
SIZE
  6
Continuous
 62
    30
100
AcDbCircle
 10
-379.9999999999991
 20
-352.3153053570514
 30
0.0
 40
5.0
  0
LINE
  5
2687
330
3305
100
AcDbEntity
  8
SIZE
  6
Continuous
 62
    30
100
AcDbLine
 10
-384.9999999999988
 20
-352.3153053570514
 30
0.0
 11
-389.9999999999991
 21
-352.3153053570514
 31
0.0
  0
TEXT
  5
2688
330
3305
100
AcDbEntity
  8
SIZE
  6
Continuous
 62
    30
100
AcDbText
 10
-447.6428571428558
 20
-337.3153053570513
 30
0.0
 40
40.0
  1
77
 41
0.9
 72
     1
 11
-418.4999999999986
 21
-337.3153053570513
 31
0.0
100
AcDbText
  0
POINT
  5
2689
330
3305
100
AcDbEntity
  8
DEFPOINTS
  6
Continuous
 62
     7
100
AcDbPoint
 10
-456.999999999998
 20
3.201135056979162
 30
0.0
  0
POINT
  5
268A
330
3305
100
AcDbEntity
  8
DEFPOINTS
  6
Continuous
 62
     7
100
AcDbPoint
 10
-379.9999999999991
 20
-38.29721884283209
 30
0.0
  0
POINT
  5
268B
330
3305
100
AcDbEntity
  8
DEFPOINTS
  6
Continuous
 62
     7
100
AcDbPoint
 10
-379.9999999999991
 20
-352.3153053570514
 30
0.0
  0
LINE
  5
2697
330
3305
100
AcDbEntity
  8
SIZE
  6
Continuous
 62
    30
100
AcDbLine
 10
380.0000000000018
 20
-58.29721884283209
 30
0.0
 11
380.0000000000018
 21
-367.3153053570513
 31
0.0
  0
CIRCLE
  5
269A
330
3305
100
AcDbEntity
  8
SIZE
  6
Continuous
 62
    30
100
AcDbCircle
 10
380.0000000000018
 20
-352.3153053570514
 30
0.0
 40
5.0
  0
LINE
  5
269B
330
3305
100
AcDbEntity
  8
SIZE
  6
Continuous
 62
    30
100
AcDbLine
 10
385.1759767037023
 20
-352.3153053570514
 30
0.0
 11
390.1759767037023
 21
-352.3153053570514
 31
0.0
  0
TEXT
  5
26AD
330
3305
100
AcDbEntity
  8
SIZE
  6
Continuous
 62
    30
100
AcDbText
 10
-158.4703795136263
 20
-404.4254368582933
 30
0.0
 40
40.0
  1
（据付ピッチ）
 50
0.0000024148365395
  7
STANDARD1
100
AcDbText
  0
LINE
  5
26B0
330
3305
100
AcDbEntity
  8
OUTLINE
  6
Continuous
 62
     3
100
AcDbLine
 10
456.9999999999907
 20
1369.98576891547
 30
0.0
 11
456.9999999999907
 21
58.52075026035705
 31
0.0
  0
LINE
  5
26B1
330
3305
100
AcDbEntity
  8
OUTLINE
  6
Continuous
 62
     3
100
AcDbLine
 10
-456.999999999998
 20
58.52075026035705
 30
0.0
 11
-456.999999999998
 21
1369.98576891547
 31
0.0
  0
LINE
  5
26B3
330
3305
100
AcDbEntity
  8
OUTLINE
  6
Continuous
 62
     3
100
AcDbLine
 10
-453.7988649430211
 20
-0.0000000000000142
 30
0.0
 11
453.7988649430207
 21
-0.0000000000000142
 31
0.0
  0
LINE
  5
26B5
330
3305
100
AcDbEntity
  8
OUTLINE
  6
Continuous
 62
     3
100
AcDbLine
 10
-456.999999999998
 20
50.31784167686056
 30
0.0
 11
-456.999999999998
 21
3.201135056979162
 31
0.0
  0
LINE
  5
26B6
330
3305
100
AcDbEntity
  8
OUTLINE
  6
Continuous
 62
     3
100
AcDbLine
 10
-453.7988649430211
 20
3.201135056979162
 30
0.0
 11
-453.7988649430211
 21
-0.0000000000000142
 31
0.0
  0
LINE
  5
26B7
330
3305
100
AcDbEntity
  8
OUTLINE
  6
Continuous
 62
     3
100
AcDbLine
 10
-456.999999999998
 20
50.31784167686056
 30
0.0
 11
-453.7988649430211
 21
50.31784167686056
 31
0.0
  0
LINE
  5
26B8
330
3305
100
AcDbEntity
  8
OUTLINE
  6
Continuous
 62
     3
100
AcDbLine
 10
-453.7988649430211
 20
53.99999999999996
 30
0.0
 11
-453.7988649430211
 21
50.31784167686056
 31
0.0
  0
LINE
  5
26B9
330
3305
100
AcDbEntity
  8
OUTLINE
  6
Continuous
 62
     3
100
AcDbLine
 10
-455.9996452946972
 20
53.99999999999996
 30
0.0
 11
-455.9996452946963
 21
58.52075026035705
 31
0.0
  0
LINE
  5
26BF
330
3305
100
AcDbEntity
  8
OUTLINE
  6
Continuous
 62
     3
100
AcDbLine
 10
-326.4778409321089
 20
1649.999957127667
 30
0.0
 11
317.1872323867599
 21
1649.999957127667
 31
0.0
  0
LINE
  5
26C0
330
3305
100
AcDbEntity
  8
OUTLINE
  6
Continuous
 62
     3
100
AcDbLine
 10
460.3252647648567
 20
1409.999957127667
 30
0.0
 11
-460.5012414685644
 21
1409.999957127667
 31
0.0
  0
LINE
  5
26C1
330
3305
100
AcDbEntity
  8
OUTLINE
  6
Continuous
 62
     3
100
AcDbLine
 10
-365.9896081389644
 20
1438.701562701032
 30
0.0
 11
-361.0966160412507
 21
1549.964486597148
 31
0.0
  0
LINE
  5
26C2
330
3305
100
AcDbEntity
  8
OUTLINE
  6
Continuous
 62
     3
100
AcDbLine
 10
-372.7796443182644
 20
1420.964230548916
 30
0.0
 11
-374.2430489258671
 21
1419.31032982385
 31
0.0
  0
LINE
  5
26C3
330
3305
100
AcDbEntity
  8
OUTLINE
  6
Continuous
 62
     3
100
AcDbLine
 10
-393.7650996169297
 20
1410.081214511307
 30
0.0
 11
-395.9719249691744
 21
1409.999957127667
 31
0.0
  0
LINE
  5
26C4
330
3305
100
AcDbEntity
  8
OUTLINE
  6
Continuous
 62
     3
100
AcDbLine
 10
-391.5701499041142
 20
1410.324529357206
 30
0.0
 11
-393.7650996169297
 21
1410.081214511307
 31
0.0
  0
LINE
  5
26C5
330
3305
100
AcDbEntity
  8
OUTLINE
  6
Continuous
 62
     3
100
AcDbLine
 10
-389.3990372148523
 20
1410.728586913451
 30
0.0
 11
-391.5701499041142
 21
1410.324529357206
 31
0.0
  0
LINE
  5
26C6
330
3305
100
AcDbEntity
  8
OUTLINE
  6
Continuous
 62
     3
100
AcDbLine
 10
-387.2635085715275
 20
1411.291214981284
 30
0.0
 11
-389.3990372148523
 21
1410.728586913451
 31
0.0
  0
LINE
  5
26C7
330
3305
100
AcDbEntity
  8
OUTLINE
  6
Continuous
 62
     3
100
AcDbLine
 10
-385.1751395071634
 20
1412.00935533344
 30
0.0
 11
-387.2635085715275
 21
1411.291214981284
 31
0.0
  0
LINE
  5
26C8
330
3305
100
AcDbEntity
  8
OUTLINE
  6
Continuous
 62
     3
100
AcDbLine
 10
-383.1452340299411
 20
1412.879120877362
 30
0.0
 11
-385.1751395071634
 21
1412.00935533344
 31
0.0
  0
LINE
  5
26C9
330
3305
100
AcDbEntity
  8
OUTLINE
  6
Continuous
 62
     3
100
AcDbLine
 10
-381.1847817508326
 20
1413.895809945916
 30
0.0
 11
-383.1452340299411
 21
1412.879120877362
 31
0.0
  0
LINE
  5
26CA
330
3305
100
AcDbEntity
  8
OUTLINE
  6
Continuous
 62
     3
100
AcDbLine
 10
-379.3044150112738
 20
1415.05390629747
 30
0.0
 11
-381.1847817508326
 21
1413.895809945916
 31
0.0
  0
LINE
  5
26CB
330
3305
100
AcDbEntity
  8
OUTLINE
  6
Continuous
 62
     3
100
AcDbLine
 10
-377.5142945569066
 20
1416.347150569712
 30
0.0
 11
-379.3044150112738
 21
1415.05390629747
 31
0.0
  0
LINE
  5
26CC
330
3305
100
AcDbEntity
  8
OUTLINE
  6
Continuous
 62
     3
100
AcDbLine
 10
-375.8241238283855
 20
1417.768511698128
 30
0.0
 11
-377.5142945569066
 21
1416.347150569712
 31
0.0
  0
LINE
  5
26CD
330
3305
100
AcDbEntity
  8
OUTLINE
  6
Continuous
 62
     3
100
AcDbLine
 10
-374.2430489258671
 20
1419.31032982385
 30
0.0
 11
-375.8241238283855
 21
1417.768511698128
 31
0.0
  0
LINE
  5
26CE
330
3305
100
AcDbEntity
  8
OUTLINE
  6
Continuous
 62
     3
100
AcDbLine
 10
-460.5012414685644
 20
1409.999957127667
 30
0.0
 11
-460.5012414685644
 21
1369.98576891547
 31
0.0
  0
LINE
  5
26CF
330
3305
100
AcDbEntity
  8
OUTLINE
  6
Continuous
 62
     3
100
AcDbLine
 10
-371.4418128077353
 20
1422.721267844103
 30
0.0
 11
-372.7796443182644
 21
1420.964230548916
 31
0.0
  0
LINE
  5
26D0
330
3305
100
AcDbEntity
  8
OUTLINE
  6
Continuous
 62
     3
100
AcDbLine
 10
-370.2368284020604
 20
1424.571909758131
 30
0.0
 11
-371.4418128077353
 21
1422.721267844103
 31
0.0
  0
LINE
  5
26D1
330
3305
100
AcDbEntity
  8
OUTLINE
  6
Continuous
 62
     3
100
AcDbLine
 10
-369.1711934068418
 20
1426.506152743966
 30
0.0
 11
-370.2368284020604
 21
1424.571909758131
 31
0.0
  0
LINE
  5
26D2
330
3305
100
AcDbEntity
  8
OUTLINE
  6
Continuous
 62
     3
100
AcDbLine
 10
-368.2506812978038
 20
1428.513521658756
 30
0.0
 11
-369.1711934068418
 21
1426.506152743966
 31
0.0
  0
LINE
  5
26D3
330
3305
100
AcDbEntity
  8
OUTLINE
  6
Continuous
 62
     3
100
AcDbLine
 10
-367.4802795576811
 20
1430.583112636224
 30
0.0
 11
-368.2506812978038
 21
1428.513521658756
 31
0.0
  0
LINE
  5
26D4
330
3305
100
AcDbEntity
  8
OUTLINE
  6
Continuous
 62
     3
100
AcDbLine
 10
-366.8641610946881
 20
1432.703735994433
 30
0.0
 11
-367.4802795576811
 21
1430.583112636224
 31
0.0
  0
LINE
  5
26D5
330
3305
100
AcDbEntity
  8
OUTLINE
  6
Continuous
 62
     3
100
AcDbLine
 10
-366.4056699516852
 20
1434.863901945065
 30
0.0
 11
-366.8641610946881
 21
1432.703735994433
 31
0.0
  0
LINE
  5
26D6
330
3305
100
AcDbEntity
  8
OUTLINE
  6
Continuous
 62
     3
100
AcDbLine
 10
-366.1072498523108
 20
1437.051892047294
 30
0.0
 11
-366.4056699516852
 21
1434.863901945065
 31
0.0
  0
LINE
  5
26D7
330
3305
100
AcDbEntity
  8
OUTLINE
  6
Continuous
 62
     3
100
AcDbLine
 10
-365.9896081389644
 20
1438.701562701032
 30
0.0
 11
-366.1072498523108
 21
1437.051892047294
 31
0.0
  0
ARC
  5
26D8
330
3305
100
AcDbEntity
  8
OUTLINE
  6
Continuous
 62
     3
100
AcDbCircle
 10
-174.8319427486549
 20
1541.512721563189
 30
0.0
 40
186.4563242397176
100
AcDbArc
 50
144.4201293237414
 51
177.4019843523523
  0
LINE
  5
26DB
330
3305
100
AcDbEntity
  8
OUTLINE
  6
Continuous
 62
     3
100
AcDbLine
 10
365.9896081389695
 20
1438.701562701032
 30
0.0
 11
361.0966160412527
 21
1549.964486597148
 31
0.0
  0
LINE
  5
26DE
330
3305
100
AcDbEntity
  8
OUTLINE
  6
Continuous
 62
     3
100
AcDbLine
 10
374.2430346350946
 20
1419.31032982385
 30
0.0
 11
372.7796300274812
 21
1420.964230548916
 31
0.0
  0
LINE
  5
26DF
330
3305
100
AcDbEntity
  8
OUTLINE
  6
Continuous
 62
     3
100
AcDbLine
 10
375.8241095376169
 20
1417.768525988915
 30
0.0
 11
374.2430346350946
 21
1419.31032982385
 31
0.0
  0
LINE
  5
26E0
330
3305
100
AcDbEntity
  8
OUTLINE
  6
Continuous
 62
     3
100
AcDbLine
 10
377.5142802661346
 20
1416.347150569712
 30
0.0
 11
375.8241095376169
 21
1417.768525988915
 31
0.0
  0
LINE
  5
26E1
330
3305
100
AcDbEntity
  8
OUTLINE
  6
Continuous
 62
     3
100
AcDbLine
 10
379.3044007204905
 20
1415.053920588256
 30
0.0
 11
377.5142802661346
 21
1416.347150569712
 31
0.0
  0
LINE
  5
26E2
330
3305
100
AcDbEntity
  8
OUTLINE
  6
Continuous
 62
     3
100
AcDbLine
 10
381.18476746006
 20
1413.895824236703
 30
0.0
 11
379.3044007204905
 21
1415.053920588256
 31
0.0
  0
LINE
  5
26E3
330
3305
100
AcDbEntity
  8
OUTLINE
  6
Continuous
 62
     3
100
AcDbLine
 10
383.1452197391725
 20
1412.879135168136
 30
0.0
 11
381.18476746006
 21
1413.895824236703
 31
0.0
  0
LINE
  5
26E4
330
3305
100
AcDbEntity
  8
OUTLINE
  6
Continuous
 62
     3
100
AcDbLine
 10
385.1751252163912
 20
1412.00935533344
 30
0.0
 11
383.1452197391725
 21
1412.879135168136
 31
0.0
  0
LINE
  5
26E5
330
3305
100
AcDbEntity
  8
OUTLINE
  6
Continuous
 62
     3
100
AcDbLine
 10
387.2634942807442
 20
1411.291214981284
 30
0.0
 11
385.1751252163912
 21
1412.00935533344
 31
0.0
  0
LINE
  5
26E6
330
3305
100
AcDbEntity
  8
OUTLINE
  6
Continuous
 62
     3
100
AcDbLine
 10
389.3990229240689
 20
1410.728586913451
 30
0.0
 11
387.2634942807442
 21
1411.291214981284
 31
0.0
  0
LINE
  5
26E7
330
3305
100
AcDbEntity
  8
OUTLINE
  6
Continuous
 62
     3
100
AcDbLine
 10
391.5701356133457
 20
1410.324529357206
 30
0.0
 11
389.3990229240689
 21
1410.728586913451
 31
0.0
  0
LINE
  5
26E8
330
3305
100
AcDbEntity
  8
OUTLINE
  6
Continuous
 62
     3
100
AcDbLine
 10
393.7650710353727
 20
1410.081214511307
 30
0.0
 11
391.5701356133457
 21
1410.324529357206
 31
0.0
  0
LINE
  5
26E9
330
3305
100
AcDbEntity
  8
OUTLINE
  6
Continuous
 62
     3
100
AcDbLine
 10
395.9719249691941
 20
1409.999957127667
 30
0.0
 11
393.7650710353727
 21
1410.081214511307
 31
0.0
  0
LINE
  5
26ED
330
3305
100
AcDbEntity
  8
OUTLINE
  6
Continuous
 62
     3
100
AcDbLine
 10
366.1072498523162
 20
1437.051892047294
 30
0.0
 11
365.9896081389695
 21
1438.701562701032
 31
0.0
  0
LINE
  5
26EE
330
3305
100
AcDbEntity
  8
OUTLINE
  6
Continuous
 62
     3
100
AcDbLine
 10
366.4056556609128
 20
1434.863901945065
 30
0.0
 11
366.1072498523162
 21
1437.051892047294
 31
0.0
  0
LINE
  5
26EF
330
3305
100
AcDbEntity
  8
OUTLINE
  6
Continuous
 62
     3
100
AcDbLine
 10
366.8641610946895
 20
1432.703750285206
 30
0.0
 11
366.4056556609128
 21
1434.863901945065
 31
0.0
  0
LINE
  5
26F0
330
3305
100
AcDbEntity
  8
OUTLINE
  6
Continuous
 62
     3
100
AcDbLine
 10
367.4802795576969
 20
1430.583126926997
 30
0.0
 11
366.8641610946895
 21
1432.703750285206
 31
0.0
  0
LINE
  5
26F1
330
3305
100
AcDbEntity
  8
OUTLINE
  6
Continuous
 62
     3
100
AcDbLine
 10
368.2506812978052
 20
1428.513521658756
 30
0.0
 11
367.4802795576969
 21
1430.583126926997
 31
0.0
  0
LINE
  5
26F2
330
3305
100
AcDbEntity
  8
OUTLINE
  6
Continuous
 62
     3
100
AcDbLine
 10
369.1711791160732
 20
1426.50616703474
 30
0.0
 11
368.2506812978052
 21
1428.513521658756
 31
0.0
  0
LINE
  5
26F3
330
3305
100
AcDbEntity
  8
OUTLINE
  6
Continuous
 62
     3
100
AcDbLine
 10
370.2368141112917
 20
1424.571924048917
 30
0.0
 11
369.1711791160732
 21
1426.50616703474
 31
0.0
  0
LINE
  5
26F4
330
3305
100
AcDbEntity
  8
OUTLINE
  6
Continuous
 62
     3
100
AcDbLine
 10
371.4418128077402
 20
1422.721267844103
 30
0.0
 11
370.2368141112917
 21
1424.571924048917
 31
0.0
  0
LINE
  5
26F5
330
3305
100
AcDbEntity
  8
OUTLINE
  6
Continuous
 62
     3
100
AcDbLine
 10
372.7796300274812
 20
1420.964230548916
 30
0.0
 11
371.4418128077402
 21
1422.721267844103
 31
0.0
  0
ARC
  5
270D
330
3305
100
AcDbEntity
  8
OUTLINE
  6
Continuous
 62
     3
100
AcDbCircle
 10
206.7633640572627
 20
1541.876232953651
 30
0.0
 40
154.5450413658846
100
AcDbArc
 50
3.000000000006243
 51
44.39700599997961
  0
LINE
  5
2725
330
3305
100
AcDbEntity
  8
OUTLINE
  6
Continuous
 62
     3
100
AcDbLine
 10
460.3252647648561
 20
1369.98576891547
 30
0.0
 11
460.3252647648561
 21
1409.999957127667
 31
0.0
  0
LINE
  5
2729
330
3305
100
AcDbEntity
  8
OUTLINE
  6
Continuous
 62
     3
100
AcDbLine
 10
-455.9996452946963
 20
58.52075026035705
 30
0.0
 11
-456.999999999998
 21
58.52075026035705
 31
0.0
  0
LINE
  5
272A
330
3305
100
AcDbEntity
  8
OUTLINE
  6
Continuous
 62
     3
100
AcDbLine
 10
-453.7988649430211
 20
3.201135056979162
 30
0.0
 11
-456.999999999998
 21
3.201135056979162
 31
0.0
  0
LINE
  5
272C
330
3305
100
AcDbEntity
  8
OUTLINE
  6
Continuous
 62
     3
100
AcDbLine
 10
-455.9996452946956
 20
53.99999999999996
 30
0.0
 11
455.8236685909881
 21
53.99999999999996
 31
0.0
  0
LINE
  5
272F
330
3305
100
AcDbEntity
  8
OUTLINE
  6
Continuous
 62
     3
100
AcDbLine
 10
456.9999999999907
 20
1369.98576891547
 30
0.0
 11
460.3252647648561
 21
1369.98576891547
 31
0.0
  0
LINE
  5
2730
330
3305
100
AcDbEntity
  8
OUTLINE
  6
Continuous
 62
     3
100
AcDbLine
 10
-460.5012414685644
 20
1369.98576891547
 30
0.0
 11
-456.999999999998
 21
1369.98576891547
 31
0.0
  0
LINE
  5
2885
330
3305
100
AcDbEntity
  8
NOTE
  6
Continuous
 62
     4
100
AcDbLine
 10
515.5325998816148
 20
-248.3796997446292
 30
0.0
 11
379.9999999999989
 21
-0.0000000000182112
 31
0.0
  0
LINE
  5
2886
330
3305
100
AcDbEntity
  8
NOTE
  6
Continuous
 62
     4
100
AcDbLine
 10
515.5325998816148
 20
-248.3796997446292
 30
0.0
 11
1507.89317378731
 21
-248.3796997446292
 31
0.0
  0
TEXT
  5
2887
330
3305
100
AcDbEntity
  8
NOTE
  6
Continuous
 62
     4
100
AcDbText
 10
540.3797349451886
 20
-225.5786198825371
 30
0.0
 40
50.0
  1
2×2-14×20 長穴〈据付用穴〉
100
AcDbText
  0
LINE
  5
2888
330
3305
100
AcDbEntity
  8
NOTE
  6
Continuous
 62
     4
100
AcDbLine
 10
380.0000000000125
 20
-0.0000000000136495
 30
0.0
 11
402.6633976046225
 21
-24.44343659501829
 31
0.0
  0
LINE
  5
2889
330
3305
100
AcDbEntity
  8
NOTE
  6
Continuous
 62
     4
100
AcDbLine
 10
380.0000000000125
 20
-0.0000000000136495
 30
0.0
 11
387.4053595701884
 21
-32.50033613633306
 31
0.0
  0
LINE
  5
2896
330
3305
100
AcDbEntity
  8
NOTE
  6
Continuous
 62
     4
100
AcDbLine
 10
-199.0000000000002
 20
235.7027811571679
 30
0.0
 11
-199.0000000000002
 21
312.2972188428158
 31
0.0
  0
LINE
  5
2897
330
3305
100
AcDbEntity
  8
NOTE
  6
Continuous
 62
     4
100
AcDbLine
 10
-160.7027811571749
 20
273.9999999999999
 30
0.0
 11
-237.297218842825
 21
273.9999999999999
 31
0.0
  0
ARC
  5
28A2
330
3305
100
AcDbEntity
  8
DETAIL
  6
Continuous
 62
     5
100
AcDbCircle
 10
-216.0
 20
621.0
 30
0.0
 40
45.01596173873362
100
AcDbArc
 50
90.0
 51
270.0
  0
CIRCLE
  5
28A3
330
3305
100
AcDbEntity
  8
DETAIL
  6
Continuous
 62
     5
100
AcDbCircle
 10
-215.7999290589378
 20
621.2200780351594
 30
0.0
 40
42.5
  0
LINE
  5
28A4
330
3305
100
AcDbEntity
  8
DETAIL
  6
Continuous
 62
     5
100
AcDbLine
 10
-150.9769441551607
 20
727.0
 30
0.0
 11
-150.9769441551607
 21
666.0159617387287
 31
0.0
  0
LINE
  5
28A5
330
3305
100
AcDbEntity
  8
DETAIL
  6
Continuous
 62
     5
100
AcDbLine
 10
-216.0
 20
666.0159617387287
 30
0.0
 11
-150.9769441551607
 21
666.0159617387287
 31
0.0
  0
LINE
  5
28A6
330
3305
100
AcDbEntity
  8
DETAIL
  6
Continuous
 62
     5
100
AcDbLine
 10
-216.0
 20
575.9840382612564
 30
0.0
 11
-150.9769441551607
 21
575.9840382612564
 31
0.0
  0
LINE
  5
28A7
330
3305
100
AcDbEntity
  8
DETAIL
  6
Continuous
 62
     5
100
AcDbLine
 10
-150.9769441551607
 20
575.9840382612564
 30
0.0
 11
-150.9771140757295
 21
328.9999257814549
 31
0.0
  0
LINE
  5
28D0
330
3305
100
AcDbEntity
  8
DETAIL
  6
Continuous
 62
     5
100
AcDbLine
 10
-417.9999999999978
 20
58.52075026035705
 30
0.0
 11
-417.9999999999978
 21
1369.98576891547
 31
0.0
  0
LINE
  5
28D9
330
3305
100
AcDbEntity
  8
DETAIL
  6
Continuous
 62
     5
100
AcDbLine
 10
387.2993712775807
 20
78.52784436646837
 30
0.0
 11
387.2993712775807
 21
725.9996452946863
 31
0.0
  0
LINE
  5
28DB
330
3305
100
AcDbEntity
  8
DETAIL
  6
Continuous
 62
     5
100
AcDbLine
 10
390.0003289819091
 20
78.52784436646837
 30
0.0
 11
387.2993712775807
 21
78.52784436646837
 31
0.0
  0
LINE
  5
2996
330
3305
100
AcDbEntity
  8
SIZE
  6
Continuous
 62
    30
100
AcDbLine
 10
480.3252647648674
 20
1409.999957127667
 30
0.0
 11
771.9542667129907
 21
1409.999957127667
 31
0.0
  0
LINE
  5
2997
330
3305
100
AcDbEntity
  8
SIZE
  6
Continuous
 62
    30
100
AcDbLine
 10
473.6228882393208
 20
-0.0000000000000142
 30
0.0
 11
771.9542667129907
 21
-0.0000000000000142
 31
0.0
  0
LINE
  5
2998
330
3305
100
AcDbEntity
  8
SIZE
  6
Continuous
 62
    30
100
AcDbLine
 10
756.9542667129907
 20
1399.999957127667
 30
0.0
 11
756.9542667129907
 21
9.999999999999991
 31
0.0
  0
CIRCLE
  5
2999
330
3305
100
AcDbEntity
  8
SIZE
  6
Continuous
 62
    30
100
AcDbCircle
 10
756.9542667129907
 20
1409.999957127667
 30
0.0
 40
5.0
  0
LINE
  5
299A
330
3305
100
AcDbEntity
  8
SIZE
  6
Continuous
 62
    30
100
AcDbLine
 10
756.9542667129907
 20
1404.999957127667
 30
0.0
 11
756.9542667129907
 21
1399.999957127667
 31
0.0
  0
CIRCLE
  5
299B
330
3305
100
AcDbEntity
  8
SIZE
  6
Continuous
 62
    30
100
AcDbCircle
 10
756.9542667129907
 20
-0.0000000000000142
 30
0.0
 40
5.0
  0
LINE
  5
299C
330
3305
100
AcDbEntity
  8
SIZE
  6
Continuous
 62
    30
100
AcDbLine
 10
756.9542667129907
 20
4.999999999999993
 30
0.0
 11
756.9542667129907
 21
9.999999999999991
 31
0.0
  0
TEXT
  5
299D
330
3305
100
AcDbEntity
  8
SIZE
  6
Continuous
 62
    30
100
AcDbText
 10
741.9542667129907
 20
648.4285642831931
 30
0.0
 40
40.0
  1
1410
 50
90.0
 41
0.9
 72
     1
 11
741.9542667129907
 21
704.9999928546217
 31
0.0
100
AcDbText
  0
POINT
  5
299E
330
3305
100
AcDbEntity
  8
DEFPOINTS
  6
Continuous
 62
     7
100
AcDbPoint
 10
453.6228882393205
 20
-0.0000000000000142
 30
0.0
  0
POINT
  5
299F
330
3305
100
AcDbEntity
  8
DEFPOINTS
  6
Continuous
 62
     7
100
AcDbPoint
 10
756.9542667129907
 20
-0.0000000000000142
 30
0.0
  0
LINE
  5
29A0
330
3305
100
AcDbEntity
  8
DETAIL
  6
Continuous
 62
     5
100
AcDbLine
 10
388.7999033355462
 20
78.52784436646837
 30
0.0
 11
388.7999033355462
 21
1327.970871292644
 31
0.0
  0
LINE
  5
29A1
330
3305
100
AcDbEntity
  8
SIZE
  6
Continuous
 62
    30
100
AcDbLine
 10
473.6228882393208
 20
-0.0000000000000142
 30
0.0
 11
611.9542667129917
 21
-0.0000000000000142
 31
0.0
  0
LINE
  5
29A2
330
3305
100
AcDbEntity
  8
SIZE
  6
Continuous
 62
    30
100
AcDbLine
 10
475.8236685909887
 20
53.99999999999996
 30
0.0
 11
611.9542667129917
 21
53.99999999999996
 31
0.0
  0
LINE
  5
29A3
330
3305
100
AcDbEntity
  8
SIZE
  6
Continuous
 62
    30
100
AcDbLine
 10
596.9542667129917
 20
43.99999999999996
 30
0.0
 11
596.9542667129917
 21
9.999999999999991
 31
0.0
  0
LINE
  5
29A4
330
3305
100
AcDbEntity
  8
SIZE
  6
Continuous
 62
    30
100
AcDbLine
 10
596.9542667129917
 20
-0.0000000000000142
 30
0.0
 11
596.9542667129917
 21
-100.0
 31
0.0
  0
CIRCLE
  5
29A5
330
3305
100
AcDbEntity
  8
SIZE
  6
Continuous
 62
    30
100
AcDbCircle
 10
596.9542667129917
 20
53.99999999999996
 30
0.0
 40
5.0
  0
LINE
  5
29A6
330
3305
100
AcDbEntity
  8
SIZE
  6
Continuous
 62
    30
100
AcDbLine
 10
596.9542667129917
 20
48.99999999999996
 30
0.0
 11
596.9542667129917
 21
43.99999999999996
 31
0.0
  0
CIRCLE
  5
29A7
330
3305
100
AcDbEntity
  8
SIZE
  6
Continuous
 62
    30
100
AcDbCircle
 10
596.9542667129917
 20
-0.0000000000000142
 30
0.0
 40
5.0
  0
LINE
  5
29A8
330
3305
100
AcDbEntity
  8
SIZE
  6
Continuous
 62
    30
100
AcDbLine
 10
596.9542667129917
 20
4.999999999999993
 30
0.0
 11
596.9542667129917
 21
9.999999999999991
 31
0.0
  0
TEXT
  5
29A9
330
3305
100
AcDbEntity
  8
SIZE
  6
Continuous
 62
    30
100
AcDbText
 10
581.9542667129917
 20
-85.0
 30
0.0
 40
40.0
  1
54
 50
90.0
 41
0.9
 72
     1
 11
581.9542667129917
 21
-55.0
 31
0.0
100
AcDbText
  0
POINT
  5
29AA
330
3305
100
AcDbEntity
  8
DEFPOINTS
  6
Continuous
 62
     7
100
AcDbPoint
 10
453.6228882393205
 20
-0.0000000000000142
 30
0.0
  0
POINT
  5
29AB
330
3305
100
AcDbEntity
  8
DEFPOINTS
  6
Continuous
 62
     7
100
AcDbPoint
 10
455.9996452946894
 20
53.99999999999996
 30
0.0
  0
POINT
  5
29AC
330
3305
100
AcDbEntity
  8
DEFPOINTS
  6
Continuous
 62
     7
100
AcDbPoint
 10
596.9542667129917
 20
53.99999999999996
 30
0.0
  0
LINE
  5
29B1
330
3305
100
AcDbEntity
  8
DETAIL
  6
Continuous
 62
     5
100
AcDbLine
 10
363.791035702916
 20
44.51578438609067
 30
0.0
 11
431.8151556636713
 21
44.51578438609067
 31
0.0
  0
LINE
  5
29B2
330
3305
100
AcDbEntity
  8
DETAIL
  6
Continuous
 62
     5
100
AcDbLine
 10
431.8151556636713
 20
9.903511582524508
 30
0.0
 11
363.791035702916
 21
9.903511582524508
 31
0.0
  0
LINE
  5
29B3
330
3305
100
AcDbEntity
  8
DETAIL
  6
Continuous
 62
     5
100
AcDbLine
 10
393.0013930978258
 20
58.52075026035705
 30
0.0
 11
456.8240232963015
 21
58.52075026035705
 31
0.0
  0
LINE
  5
29B4
330
3305
100
AcDbEntity
  8
DETAIL
  6
Continuous
 62
     5
100
AcDbLine
 10
357.7889074710821
 20
15.90563981435661
 30
0.0
 11
357.7889074710821
 21
38.51365615425856
 31
0.0
  0
ARC
  5
29B5
330
3305
100
AcDbEntity
  8
DETAIL
  6
Continuous
 62
     5
100
AcDbCircle
 10
363.791035702916
 20
15.90563981435661
 30
0.0
 40
6.002128231831147
100
AcDbArc
 50
180.0
 51
270.0
  0
ARC
  5
29B6
330
3305
100
AcDbEntity
  8
DETAIL
  6
Continuous
 62
     5
100
AcDbCircle
 10
363.791035702916
 20
38.51365615425856
 30
0.0
 40
6.002128231831147
100
AcDbArc
 50
90.0
 51
180.0
  0
ARC
  5
29B7
330
3305
100
AcDbEntity
  8
DETAIL
  6
Continuous
 62
     5
100
AcDbCircle
 10
393.0013930978258
 20
61.52181437627316
 30
0.0
 40
3.001064115915572
100
AcDbArc
 50
180.0
 51
270.0
  0
LINE
  5
29B8
330
3305
100
AcDbEntity
  8
DETAIL
  6
Continuous
 62
     5
100
AcDbLine
 10
390.0003289819091
 20
61.52181437627316
 30
0.0
 11
390.0003289819091
 21
78.52784436646837
 31
0.0
  0
LINE
  5
29BA
330
3305
100
AcDbEntity
  8
DETAIL
  6
Continuous
 62
     5
100
AcDbLine
 10
390.0003289819091
 20
78.52784436646837
 30
0.0
 11
387.2993712775807
 21
78.52784436646837
 31
0.0
  0
LINE
  5
29BB
330
3305
100
AcDbEntity
  8
DETAIL
  6
Continuous
 62
     5
100
AcDbLine
 10
437.8172838955012
 20
38.51365615425856
 30
0.0
 11
437.8172838955012
 21
15.90563981435661
 31
0.0
  0
LINE
  5
29BC
330
3305
100
AcDbEntity
  8
DETAIL
  6
Continuous
 62
     5
100
AcDbLine
 10
457.0000000000019
 20
50.31784167686056
 30
0.0
 11
457.0000000000019
 21
3.201135056979168
 31
0.0
  0
ARC
  5
29BD
330
3305
100
AcDbEntity
  8
DETAIL
  6
Continuous
 62
     5
100
AcDbCircle
 10
431.8151556636713
 20
15.90563981435661
 30
0.0
 40
6.002128231831147
100
AcDbArc
 50
270.0
 51
0.0
  0
LINE
  5
29BE
330
3305
100
AcDbEntity
  8
DETAIL
  6
Continuous
 62
     5
100
AcDbLine
 10
453.7988649430207
 20
3.201135056979168
 30
0.0
 11
453.7988649430207
 21
-0.0000000000000142
 31
0.0
  0
ARC
  5
29BF
330
3305
100
AcDbEntity
  8
DETAIL
  6
Continuous
 62
     5
100
AcDbCircle
 10
431.8151556636713
 20
38.51365615425856
 30
0.0
 40
6.002128231831147
100
AcDbArc
 50
0.0
 51
90.0
  0
LINE
  5
29C0
330
3305
100
AcDbEntity
  8
DETAIL
  6
Continuous
 62
     5
100
AcDbLine
 10
457.0000000000019
 20
50.31784167686056
 30
0.0
 11
453.7988649430207
 21
50.31784167686056
 31
0.0
  0
LINE
  5
29C1
330
3305
100
AcDbEntity
  8
DETAIL
  6
Continuous
 62
     5
100
AcDbLine
 10
453.7988649430207
 20
53.99999999999996
 30
0.0
 11
453.7988649430207
 21
50.31784167686056
 31
0.0
  0
LINE
  5
29C2
330
3305
100
AcDbEntity
  8
DETAIL
  6
Continuous
 62
     5
100
AcDbLine
 10
455.9996452946894
 20
53.99999999999996
 30
0.0
 11
455.9996452946894
 21
58.52075026035705
 31
0.0
  0
LINE
  5
29C3
330
3305
100
AcDbEntity
  8
SIZE
  6
Continuous
 62
    30
100
AcDbLine
 10
337.0112473555711
 20
1649.999962786841
 30
0.0
 11
771.9542667129907
 21
1649.999962786841
 31
0.0
  0
LINE
  5
29C4
330
3305
100
AcDbEntity
  8
SIZE
  6
Continuous
 62
    30
100
AcDbLine
 10
480.3252647648674
 20
1409.999957127667
 30
0.0
 11
771.9542667129907
 21
1409.999957127667
 31
0.0
  0
LINE
  5
29C5
330
3305
100
AcDbEntity
  8
SIZE
  6
Continuous
 62
    30
100
AcDbLine
 10
756.9542667129907
 20
1639.999962786841
 30
0.0
 11
756.9542667129907
 21
1419.999957127667
 31
0.0
  0
CIRCLE
  5
29C6
330
3305
100
AcDbEntity
  8
SIZE
  6
Continuous
 62
    30
100
AcDbCircle
 10
756.9542667129907
 20
1649.999962786841
 30
0.0
 40
5.0
  0
LINE
  5
29C7
330
3305
100
AcDbEntity
  8
SIZE
  6
Continuous
 62
    30
100
AcDbLine
 10
756.9542667129907
 20
1644.999962786841
 30
0.0
 11
756.9542667129907
 21
1639.999962786841
 31
0.0
  0
CIRCLE
  5
29C8
330
3305
100
AcDbEntity
  8
SIZE
  6
Continuous
 62
    30
100
AcDbCircle
 10
756.9542667129907
 20
1409.999957127667
 30
0.0
 40
5.0
  0
LINE
  5
29C9
330
3305
100
AcDbEntity
  8
SIZE
  6
Continuous
 62
    30
100
AcDbLine
 10
756.9542667129907
 20
1414.999957127667
 30
0.0
 11
756.9542667129907
 21
1419.999957127667
 31
0.0
  0
TEXT
  5
29CA
330
3305
100
AcDbEntity
  8
SIZE
  6
Continuous
 62
    30
100
AcDbText
 10
741.9542667129907
 20
1483.756821769364
 30
0.0
 40
40.0
  1
240
 50
90.0
 41
0.9
 72
     1
 11
741.9542667129907
 21
1530.042536055078
 31
0.0
100
AcDbText
  0
POINT
  5
29CB
330
3305
100
AcDbEntity
  8
DEFPOINTS
  6
Continuous
 62
     7
100
AcDbPoint
 10
756.9542667129907
 20
1409.999957127667
 30
0.0
  0
LINE
  5
29CF
330
3305
100
AcDbEntity
  8
NOTE
  6
Continuous
 62
     4
100
AcDbLine
 10
560.4242282130816
 20
830.9636855735121
 30
0.0
 11
601.1247454978306
 21
830.9636855735121
 31
0.0
  0
LINE
  5
29D0
330
3305
100
AcDbEntity
  8
NOTE
  6
Continuous
 62
     4
100
AcDbLine
 10
560.4242282130816
 20
880.9814208387717
 30
0.0
 11
601.1247454978306
 21
880.9814208387717
 31
0.0
  0
LINE
  5
29D1
330
3305
100
AcDbEntity
  8
NOTE
  6
Continuous
 62
     4
100
AcDbLine
 10
601.1247454978306
 20
830.9636855735121
 30
0.0
 11
601.1247454978306
 21
880.9814208387717
 31
0.0
  0
LINE
  5
29D2
330
3305
100
AcDbEntity
  8
NOTE
  6
Continuous
 62
     4
100
AcDbLine
 10
560.4242282130816
 20
830.9636855735121
 30
0.0
 11
560.4242282130816
 21
805.9548179408832
 31
0.0
  0
LINE
  5
29D3
330
3305
100
AcDbEntity
  8
NOTE
  6
Continuous
 62
     4
100
AcDbLine
 10
510.5104726740558
 20
855.9725532061419
 30
0.0
 11
560.4242282130816
 21
805.9548179408832
 31
0.0
  0
LINE
  5
29D4
330
3305
100
AcDbEntity
  8
NOTE
  6
Continuous
 62
     4
100
AcDbLine
 10
560.4242282130816
 20
905.9902884714023
 30
0.0
 11
510.5104726740558
 21
855.9725532061419
 31
0.0
  0
LINE
  5
29D5
330
3305
100
AcDbEntity
  8
NOTE
  6
Continuous
 62
     4
100
AcDbLine
 10
560.4242282130816
 20
905.9902884714023
 30
0.0
 11
560.4242282130816
 21
880.9814208387717
 31
0.0
  0
LINE
  5
29D6
330
3305
100
AcDbEntity
  8
NOTE
  6
Continuous
 62
     4
100
AcDbLine
 10
560.4242282130816
 20
1281.123302960848
 30
0.0
 11
601.1247454978306
 21
1281.123302960848
 31
0.0
  0
LINE
  5
29D7
330
3305
100
AcDbEntity
  8
NOTE
  6
Continuous
 62
     4
100
AcDbLine
 10
560.4242282130816
 20
1231.105567695589
 30
0.0
 11
601.1247454978306
 21
1231.105567695589
 31
0.0
  0
LINE
  5
29D8
330
3305
100
AcDbEntity
  8
NOTE
  6
Continuous
 62
     4
100
AcDbLine
 10
601.1247454978306
 20
1231.105567695589
 30
0.0
 11
601.1247454978306
 21
1281.123302960848
 31
0.0
  0
LINE
  5
29D9
330
3305
100
AcDbEntity
  8
NOTE
  6
Continuous
 62
     4
100
AcDbLine
 10
560.4242282130816
 20
1231.105567695589
 30
0.0
 11
560.4242282130816
 21
1206.096700062959
 31
0.0
  0
LINE
  5
29DA
330
3305
100
AcDbEntity
  8
NOTE
  6
Continuous
 62
     4
100
AcDbLine
 10
510.5104726740558
 20
1256.114435328219
 30
0.0
 11
560.4242282130816
 21
1206.096700062959
 31
0.0
  0
LINE
  5
29DB
330
3305
100
AcDbEntity
  8
NOTE
  6
Continuous
 62
     4
100
AcDbLine
 10
560.4242282130816
 20
1306.132170593478
 30
0.0
 11
560.4242282130816
 21
1281.123302960848
 31
0.0
  0
LINE
  5
29DC
330
3305
100
AcDbEntity
  8
NOTE
  6
Continuous
 62
     4
100
AcDbLine
 10
560.4242282130816
 20
1306.132170593478
 30
0.0
 11
510.5104726740558
 21
1256.114435328219
 31
0.0
  0
TEXT
  5
29DD
330
3305
100
AcDbEntity
  8
NOTE
  6
Continuous
 62
     4
100
AcDbText
 10
513.7752896577186
 20
1067.32315094544
 30
0.0
 40
50.0
  1
空気
100
AcDbText
  0
TEXT
  5
29DE
330
3305
100
AcDbEntity
  8
NOTE
  6
Continuous
 62
     4
100
AcDbText
 10
513.7752896577186
 20
993.011101413553
 30
0.0
 40
50.0
  1
吸込
100
AcDbText
  0
LINE
  5
29DF
330
3305
100
AcDbEntity
  8
SIZE
  6
Continuous
 62
    30
100
AcDbLine
 10
473.6228882393208
 20
-0.0000000000000142
 30
0.0
 11
691.9542667129897
 21
-0.0000000000000142
 31
0.0
  0
POINT
  5
29E0
330
3305
100
AcDbEntity
  8
DEFPOINTS
  6
Continuous
 62
     7
100
AcDbPoint
 10
453.6228882393205
 20
-0.0000000000000142
 30
0.0
  0
LINE
  5
29E3
330
3305
100
AcDbEntity
  8
SIZE
  6
Continuous
 62
    30
100
AcDbLine
 10
375.0000000000034
 20
-352.3153053570514
 30
0.0
 11
370.0000000000033
 21
-352.3153053570514
 31
0.0
  0
POINT
  5
29E5
330
3305
100
AcDbEntity
  8
DEFPOINTS
  6
Continuous
 62
     7
100
AcDbPoint
 10
379.8240232963028
 20
-352.3153053570514
 30
0.0
  0
LINE
  5
29E6
330
3305
100
AcDbEntity
  8
SIZE
  6
Continuous
 62
    30
100
AcDbLine
 10
380.0000000000034
 20
-58.29724520345646
 30
0.0
 11
380.0000000000034
 21
-367.3153053570513
 31
0.0
  0
LINE
  5
29E7
330
3305
100
AcDbEntity
  8
SIZE
  6
Continuous
 62
    30
100
AcDbLine
 10
457.0000000000019
 20
-16.79886494302084
 30
0.0
 11
457.0000000000019
 21
-367.3153053570513
 31
0.0
  0
LINE
  5
29E8
330
3305
100
AcDbEntity
  8
SIZE
  6
Continuous
 62
    30
100
AcDbLine
 10
390.0000000000032
 20
-352.3153053570514
 30
0.0
 11
447.0000000000022
 21
-352.3153053570514
 31
0.0
  0
LINE
  5
29EA
330
3305
100
AcDbEntity
  8
SIZE
  6
Continuous
 62
    30
100
AcDbLine
 10
385.0000000000034
 20
-352.3153053570514
 30
0.0
 11
390.0000000000032
 21
-352.3153053570514
 31
0.0
  0
CIRCLE
  5
29EB
330
3305
100
AcDbEntity
  8
SIZE
  6
Continuous
 62
    30
100
AcDbCircle
 10
457.0000000000019
 20
-352.3153053570514
 30
0.0
 40
5.0
  0
LINE
  5
29EC
330
3305
100
AcDbEntity
  8
SIZE
  6
Continuous
 62
    30
100
AcDbLine
 10
452.000000000002
 20
-352.3153053570514
 30
0.0
 11
447.000000000002
 21
-352.3153053570514
 31
0.0
  0
TEXT
  5
29ED
330
3305
100
AcDbEntity
  8
SIZE
  6
Continuous
 62
    30
100
AcDbText
 10
389.3571428571453
 20
-337.3153053570513
 30
0.0
 40
40.0
  1
77
 41
0.9
 72
     1
 11
418.5000000000025
 21
-337.3153053570513
 31
0.0
100
AcDbText
  0
POINT
  5
29F0
330
3305
100
AcDbEntity
  8
DEFPOINTS
  6
Continuous
 62
     7
100
AcDbPoint
 10
457.0000000000019
 20
-352.3153053570514
 30
0.0
  0
LINE
  5
29F1
330
3305
100
AcDbEntity
  8
OUTLINE
  6
Continuous
 62
     3
100
AcDbLine
 10
457.0000000000018
 20
3.201135056979168
 30
0.0
 11
453.7988649430207
 21
3.201135056979168
 31
0.0
  0
LINE
  5
29F2
330
3305
100
AcDbEntity
  8
OUTLINE
  6
Continuous
 62
     3
100
AcDbLine
 10
457.0000000000018
 20
50.31784167686056
 30
0.0
 11
457.0000000000018
 21
3.201135056979168
 31
0.0
  0
LINE
  5
29F3
330
3305
100
AcDbEntity
  8
OUTLINE
  6
Continuous
 62
     3
100
AcDbLine
 10
453.7988649430207
 20
3.201135056979168
 30
0.0
 11
453.7988649430207
 21
-0.0000000000000142
 31
0.0
  0
LINE
  5
29F4
330
3305
100
AcDbEntity
  8
OUTLINE
  6
Continuous
 62
     3
100
AcDbLine
 10
457.0000000000018
 20
50.31784167686056
 30
0.0
 11
453.7988649430207
 21
50.31784167686056
 31
0.0
  0
LINE
  5
29F5
330
3305
100
AcDbEntity
  8
OUTLINE
  6
Continuous
 62
     3
100
AcDbLine
 10
453.7988649430207
 20
53.99999999999996
 30
0.0
 11
453.7988649430207
 21
50.31784167686056
 31
0.0
  0
LINE
  5
29F6
330
3305
100
AcDbEntity
  8
OUTLINE
  6
Continuous
 62
     3
100
AcDbLine
 10
455.9996452946888
 20
53.99999999999996
 30
0.0
 11
455.9996452946888
 21
58.52075026035705
 31
0.0
  0
LINE
  5
29F7
330
3305
100
AcDbEntity
  8
OUTLINE
  6
Continuous
 62
     3
100
AcDbLine
 10
455.9996452946888
 20
58.52075026035705
 30
0.0
 11
457.0000000000018
 21
58.52075026035705
 31
0.0
  0
CIRCLE
  5
2A2C
330
3305
100
AcDbEntity
  8
DETAIL
  6
Continuous
 62
     5
100
AcDbCircle
 10
0.0000000000011369
 20
734.6441169611562
 30
0.0
 40
3.549999999999998
  0
CIRCLE
  5
2A2D
330
3305
100
AcDbEntity
  8
DETAIL
  6
Continuous
 62
     5
100
AcDbCircle
 10
360.0000070000011
 20
734.6441169611562
 30
0.0
 40
3.549999999999998
  0
CIRCLE
  5
2A2E
330
3305
100
AcDbEntity
  8
DETAIL
  6
Continuous
 62
     5
100
AcDbCircle
 10
-360.0000069999988
 20
734.6441169611562
 30
0.0
 40
3.549999999999998
  0
ARC
  5
2A2F
330
3305
100
AcDbEntity
  8
DETAIL
  6
Continuous
 62
     5
100
AcDbCircle
 10
379.7000070000012
 20
732.6441169611562
 30
0.0
 40
5.0
100
AcDbArc
 50
270.0
 51
0.0
  0
ARC
  5
2A30
330
3305
100
AcDbEntity
  8
DETAIL
  6
Continuous
 62
     5
100
AcDbCircle
 10
-379.7000069999989
 20
732.6441169611562
 30
0.0
 40
5.0
100
AcDbArc
 50
180.0
 51
270.0
  0
LINE
  5
2A31
330
3305
100
AcDbEntity
  8
DETAIL
  6
Continuous
 62
     5
100
AcDbLine
 10
384.7000070000012
 20
732.6441169611562
 30
0.0
 11
384.7000070000012
 21
743.6441169611562
 31
0.0
  0
LINE
  5
2A32
330
3305
100
AcDbEntity
  8
DETAIL
  6
Continuous
 62
     5
100
AcDbLine
 10
379.7000070000012
 20
727.6441169611562
 30
0.0
 11
-379.7000069999989
 21
727.6441169611562
 31
0.0
  0
LINE
  5
2A33
330
3305
100
AcDbEntity
  8
DETAIL
  6
Continuous
 62
     5
100
AcDbLine
 10
-384.7000069999988
 20
732.6441169611562
 30
0.0
 11
-384.7000069999988
 21
743.6441169611562
 31
0.0
  0
LINE
  5
2A49
330
3305
100
AcDbEntity
  8
NOTE
  6
Continuous
 62
     4
100
AcDbLine
 10
-216.0000000000002
 20
571.0
 30
0.0
 11
-216.0000000000002
 21
671.0
 31
0.0
  0
LINE
  5
2A50
330
3305
100
AcDbEntity
  8
NOTE
  6
Continuous
 62
     4
100
AcDbLine
 10
-166.0
 20
621.0
 30
0.0
 11
-266.0
 21
621.0
 31
0.0
  0
CIRCLE
  5
2A58
330
3305
100
AcDbEntity
  8
DETAIL
  6
Continuous
 62
     5
100
AcDbCircle
 10
-215.7999290589376
 20
155.2200780351595
 30
0.0
 40
42.5
  0
LINE
  5
2A59
330
3305
100
AcDbEntity
  8
NOTE
  6
Continuous
 62
     4
100
AcDbLine
 10
-216.0
 20
105.0000000000001
 30
0.0
 11
-216.0
 21
204.9999999999999
 31
0.0
  0
LINE
  5
2A5A
330
3305
100
AcDbEntity
  8
NOTE
  6
Continuous
 62
     4
100
AcDbLine
 10
-165.9999999999997
 20
155.0
 30
0.0
 11
-265.9999999999998
 21
155.0
 31
0.0
  0
TEXT
  5
2AA2
330
3305
100
AcDbEntity
  8
NOTE
  6
Continuous
 62
     4
100
AcDbText
 10
-1253.608373786221
 20
1538.598063982233
 30
0.0
 40
50.0
  1
φ85穴
100
AcDbText
  0
TEXT
  5
2AA3
330
3305
100
AcDbEntity
  8
NOTE
  6
Continuous
 62
     4
100
AcDbText
 10
-1379.178209638392
 20
-540.2811933279926
 30
0.0
 40
50.0
  1
φ85穴
100
AcDbText
  0
CIRCLE
  5
2AD0
330
3305
100
AcDbEntity
  8
DETAIL
  6
Continuous
 62
     5
100
AcDbCircle
 10
-316.0
 20
154.9999999999996
 30
0.0
 40
19.5
  0
CIRCLE
  5
2AD6
330
3305
100
AcDbEntity
  8
DETAIL
  6
Continuous
 62
     5
100
AcDbCircle
 10
-199.0
 20
273.9999999999999
 30
0.0
 40
19.5
  0
CIRCLE
  5
2ADC
330
3305
100
AcDbEntity
  8
DETAIL
  6
Continuous
 62
     5
100
AcDbCircle
 10
-264.0
 20
273.9999999999999
 30
0.0
 40
19.5
  0
CIRCLE
  5
2AE2
330
3305
100
AcDbEntity
  8
DETAIL
  6
Continuous
 62
     5
100
AcDbCircle
 10
-329.0
 20
273.9999999999999
 30
0.0
 40
19.5
  0
LINE
  5
2AE9
330
3305
100
AcDbEntity
  8
NOTE
  6
Continuous
 62
     4
100
AcDbLine
 10
-264.0000000000002
 20
235.7027811571679
 30
0.0
 11
-264.0000000000002
 21
312.2972188428158
 31
0.0
  0
LINE
  5
2AEA
330
3305
100
AcDbEntity
  8
NOTE
  6
Continuous
 62
     4
100
AcDbLine
 10
-225.7027811571749
 20
273.9999999999999
 30
0.0
 11
-302.297218842825
 21
273.9999999999999
 31
0.0
  0
LINE
  5
2AF1
330
3305
100
AcDbEntity
  8
NOTE
  6
Continuous
 62
     4
100
AcDbLine
 10
-329.0000000000001
 20
235.7027811571679
 30
0.0
 11
-329.0000000000001
 21
312.2972188428158
 31
0.0
  0
LINE
  5
2AF2
330
3305
100
AcDbEntity
  8
NOTE
  6
Continuous
 62
     4
100
AcDbLine
 10
-290.7027811571749
 20
273.9999999999999
 30
0.0
 11
-367.2972188428249
 21
273.9999999999999
 31
0.0
  0
LINE
  5
2AF9
330
3305
100
AcDbEntity
  8
NOTE
  6
Continuous
 62
     4
100
AcDbLine
 10
-316.0000000000002
 20
116.7027811571675
 30
0.0
 11
-316.0000000000002
 21
193.2972188428154
 31
0.0
  0
LINE
  5
2AFA
330
3305
100
AcDbEntity
  8
NOTE
  6
Continuous
 62
     4
100
AcDbLine
 10
-277.7027811571749
 20
154.9999999999996
 30
0.0
 11
-354.2972188428249
 21
154.9999999999996
 31
0.0
  0
LINE
  5
2B00
330
3305
100
AcDbEntity
  8
DETAIL
  6
Continuous
 62
     5
100
AcDbLine
 10
-382.4806039149566
 20
323.9965637438138
 30
0.0
 11
-155.976965643733
 21
323.9999257836581
 31
0.0
  0
ARC
  5
2B07
330
3305
100
AcDbEntity
  8
DETAIL
  6
Continuous
 62
     5
100
AcDbCircle
 10
-382.4806039093593
 20
328.9965637438139
 30
0.0
 40
5.0
100
AcDbArc
 50
180.0
 51
270.0
  0
LINE
  5
2B08
330
3305
100
AcDbEntity
  8
DETAIL
  6
Continuous
 62
     5
100
AcDbLine
 10
-387.4806039093593
 20
328.9965637438139
 30
0.0
 11
-387.4806039093593
 21
339.9965637438139
 31
0.0
  0
LINE
  5
2B13
330
3305
100
AcDbEntity
  8
DETAIL
  6
Continuous
 62
     5
100
AcDbLine
 10
-387.4806039093593
 20
339.9965637438139
 30
0.0
 11
-150.9772773531832
 21
340.0000742110772
 31
0.0
  0
ARC
  5
2B19
330
3305
100
AcDbEntity
  8
DETAIL
  6
Continuous
 62
     5
100
AcDbCircle
 10
-155.9771140757295
 20
328.9999257814549
 30
0.0
 40
5.0
100
AcDbArc
 50
270.0
 51
0.0
  0
LINE
  5
2B1F
330
3305
100
AcDbEntity
  8
DETAIL
  6
Continuous
 62
     5
100
AcDbLine
 10
-149.0
 20
727.0
 30
0.0
 11
-149.0
 21
53.99999999999996
 31
0.0
  0
LINE
  5
2B61
330
3305
100
AcDbEntity
  8
NOTE
  6
Continuous
 62
     4
100
AcDbLine
 10
-747.5156137248715
 20
-332.5480158806523
 30
0.0
 11
-1326.58168914044
 21
-332.5480158806523
 31
0.0
  0
TEXT
  5
2B62
330
3305
100
AcDbEntity
  8
NOTE
  6
Continuous
 62
     4
100
AcDbText
 10
-1321.592839466627
 20
-313.7683274257932
 30
0.0
 40
50.0
  1
φ39ノックアウト穴
100
AcDbText
  0
TEXT
  5
2B63
330
3305
100
AcDbEntity
  8
NOTE
  6
Continuous
 62
     4
100
AcDbText
 10
-1265.8598000861
 20
-391.5929377157946
 30
0.0
 40
50.0
  1
〈EL用通し穴〉
100
AcDbText
  0
LINE
  5
2B69
330
3305
100
AcDbEntity
  8
NOTE
  6
Continuous
 62
     4
100
AcDbLine
 10
-199.0000000000002
 20
273.9999999999919
 30
0.0
 11
-985.1146156420613
 21
975.521683890363
 31
0.0
  0
LINE
  5
2B7E
330
3305
100
AcDbEntity
  8
DETAIL
  6
Continuous
 62
     5
100
AcDbLine
 10
33.7793569883957
 20
1549.964486597148
 30
0.0
 11
29.32121143109555
 21
1649.999957127667
 31
0.0
  0
LINE
  5
2B84
330
3305
100
AcDbEntity
  8
DETAIL
  6
Continuous
 62
     5
100
AcDbLine
 10
38.71642781613853
 20
1549.828255047749
 30
0.0
 11
34.25828225883838
 21
1649.863725578268
 31
0.0
  0
LINE
  5
2B8A
330
3305
100
AcDbEntity
  8
DETAIL
  6
Continuous
 62
     5
100
AcDbLine
 10
-2.342939732669944
 20
1649.999957127667
 30
0.0
 11
-2.342939732669944
 21
1549.964486597148
 31
0.0
  0
LINE
  5
2B90
330
3305
100
AcDbEntity
  8
DETAIL
  6
Continuous
 62
     5
100
AcDbLine
 10
2.342970979478193
 20
1649.999957127667
 30
0.0
 11
2.342970979478193
 21
1549.964486597148
 31
0.0
  0
LINE
  5
2C55
330
3305
100
AcDbEntity
  8
SIZE
  6
Continuous
 62
    30
100
AcDbLine
 10
-285.9999999999999
 20
155.0
 30
0.0
 11
-792.6243975777397
 21
155.0000000000002
 31
0.0
  0
LINE
  5
2C56
330
3305
100
AcDbEntity
  8
SIZE
  6
Continuous
 62
    30
100
AcDbLine
 10
-286.0
 20
621.0
 30
0.0
 11
-792.6243975777397
 21
621.0
 31
0.0
  0
LINE
  5
2C57
330
3305
100
AcDbEntity
  8
SIZE
  6
Continuous
 62
    30
100
AcDbLine
 10
-777.6243975777397
 20
165.0000000000002
 30
0.0
 11
-777.6243975777397
 21
611.0000000000001
 31
0.0
  0
LINE
  5
2C5D
330
3305
100
AcDbEntity
  8
SIZE
  6
Continuous
 62
    30
100
AcDbLine
 10
-285.9999999999999
 20
155.0
 30
0.0
 11
-792.6243975777397
 21
155.0000000000002
 31
0.0
  0
LINE
  5
2C5E
330
3305
100
AcDbEntity
  8
SIZE
  6
Continuous
 62
    30
100
AcDbLine
 10
-473.7988649430211
 20
0.0
 30
0.0
 11
-792.6243975777397
 21
0.0000000000000995
 31
0.0
  0
LINE
  5
2C5F
330
3305
100
AcDbEntity
  8
SIZE
  6
Continuous
 62
    30
100
AcDbLine
 10
-777.6243975777397
 20
145.0000000000002
 30
0.0
 11
-777.6243975777397
 21
10.00000000000008
 31
0.0
  0
LINE
  5
2C63
330
3305
100
AcDbEntity
  8
SIZE
  6
Continuous
 62
    30
100
AcDbLine
 10
-264.0000000000002
 20
332.2972188428157
 30
0.0
 11
-264.0000000000002
 21
430.7828687875672
 31
0.0
  0
LINE
  5
2C64
330
3305
100
AcDbEntity
  8
SIZE
  6
Continuous
 62
    30
100
AcDbLine
 10
-329.0000000000001
 20
332.2972188428157
 30
0.0
 11
-329.0000000000001
 21
430.7828687875672
 31
0.0
  0
LINE
  5
2C65
330
3305
100
AcDbEntity
  8
SIZE
  6
Continuous
 62
    30
100
AcDbLine
 10
-274.0000000000001
 20
415.7828687875672
 30
0.0
 11
-319.0000000000001
 21
415.7828687875672
 31
0.0
  0
LINE
  5
2C69
330
3305
100
AcDbEntity
  8
SIZE
  6
Continuous
 62
    30
100
AcDbLine
 10
-199.0000000000002
 20
332.2972188428157
 30
0.0
 11
-199.0000000000002
 21
430.7828687875672
 31
0.0
  0
LINE
  5
2C6A
330
3305
100
AcDbEntity
  8
SIZE
  6
Continuous
 62
    30
100
AcDbLine
 10
-264.0000000000002
 20
332.2972188428157
 30
0.0
 11
-264.0000000000002
 21
430.7828687875672
 31
0.0
  0
LINE
  5
2C6B
330
3305
100
AcDbEntity
  8
SIZE
  6
Continuous
 62
    30
100
AcDbLine
 10
-209.0000000000002
 20
415.7828687875672
 30
0.0
 11
-254.0000000000002
 21
415.7828687875672
 31
0.0
  0
LINE
  5
2C6F
330
3305
100
AcDbEntity
  8
SIZE
  6
Continuous
 62
    30
100
AcDbLine
 10
-199.0000000000002
 20
332.2972188428157
 30
0.0
 11
-199.0000000000002
 21
430.7828687875672
 31
0.0
  0
LINE
  5
2C70
330
3305
100
AcDbEntity
  8
SIZE
  6
Continuous
 62
    30
100
AcDbLine
 10
457.0000000000018
 20
78.52075026035706
 30
0.0
 11
457.0000000000018
 21
430.7828687875672
 31
0.0
  0
LINE
  5
2C71
330
3305
100
AcDbEntity
  8
SIZE
  6
Continuous
 62
    30
100
AcDbLine
 10
-189.0000000000002
 20
415.7828687875672
 30
0.0
 11
447.0000000000018
 21
415.7828687875672
 31
0.0
  0
LINE
  5
2C75
330
3305
100
AcDbEntity
  8
SIZE
  6
Continuous
 62
    30
100
AcDbLine
 10
-216.0000000000002
 20
551.0000000000001
 30
0.0
 11
-216.0000000000003
 21
-207.057085150036
 31
0.0
  0
LINE
  5
2C76
330
3305
100
AcDbEntity
  8
SIZE
  6
Continuous
 62
    30
100
AcDbLine
 10
457.0000000000019
 20
-16.79886494302084
 30
0.0
 11
457.0000000000019
 21
-207.057085150036
 31
0.0
  0
LINE
  5
2C77
330
3305
100
AcDbEntity
  8
SIZE
  6
Continuous
 62
    30
100
AcDbLine
 10
-206.0000000000003
 20
-192.057085150036
 30
0.0
 11
447.000000000002
 21
-192.057085150036
 31
0.0
  0
LINE
  5
2C7B
330
3305
100
AcDbEntity
  8
SIZE
  6
Continuous
 62
    30
100
AcDbLine
 10
457.0000000000019
 20
-16.79886494302084
 30
0.0
 11
457.0000000000019
 21
-548.64069937204
 31
0.0
  0
LINE
  5
2C7C
330
3305
100
AcDbEntity
  8
SIZE
  6
Continuous
 62
    30
100
AcDbLine
 10
-456.999999999998
 20
-16.79886494302084
 30
0.0
 11
-456.999999999998
 21
-548.64069937204
 31
0.0
  0
LINE
  5
2C7D
330
3305
100
AcDbEntity
  8
SIZE
  6
Continuous
 62
    30
100
AcDbLine
 10
447.000000000002
 20
-533.6406993720402
 30
0.0
 11
-446.9999999999978
 21
-533.6406993720402
 31
0.0
  0
LINE
  5
2C81
330
3305
100
AcDbEntity
  8
SIZE
  6
Continuous
 62
    30
100
AcDbLine
 10
-316.0000000000002
 20
96.70278115716746
 30
0.0
 11
-316.0000000000002
 21
-207.057085150036
 31
0.0
  0
LINE
  5
2C82
330
3305
100
AcDbEntity
  8
SIZE
  6
Continuous
 62
    30
100
AcDbLine
 10
-216.0
 20
85.00000000000007
 30
0.0
 11
-216.0
 21
-207.057085150036
 31
0.0
  0
LINE
  5
2C83
330
3305
100
AcDbEntity
  8
SIZE
  6
Continuous
 62
    30
100
AcDbLine
 10
-306.0000000000002
 20
-192.057085150036
 30
0.0
 11
-226.0
 21
-192.057085150036
 31
0.0
  0
LINE
  5
2C87
330
3305
100
AcDbEntity
  8
SIZE
  6
Continuous
 62
    30
100
AcDbLine
 10
-140.7027811571749
 20
273.9999999999999
 30
0.0
 11
-33.22523119360379
 21
273.9999999999999
 31
0.0
  0
LINE
  5
2C88
330
3305
100
AcDbEntity
  8
SIZE
  6
Continuous
 62
    30
100
AcDbLine
 10
-145.9999999999997
 20
155.0
 30
0.0
 11
-33.22523119360381
 21
155.0
 31
0.0
  0
LINE
  5
2C89
330
3305
100
AcDbEntity
  8
SIZE
  6
Continuous
 62
    30
100
AcDbLine
 10
-48.22523119360378
 20
264.0
 30
0.0
 11
-48.22523119360379
 21
165.0
 31
0.0
  0
TEXT
  5
2C8D
330
3305
100
AcDbEntity
  8
SIZE
  6
Continuous
 62
    30
100
AcDbText
 10
-787.7207276701088
 20
342.5714285714284
 30
0.0
 40
40.0
  1
466
 50
90.0
 41
0.9
 72
     1
 11
-787.7207276701088
 21
387.9999999999999
 31
0.0
100
AcDbText
  0
CIRCLE
  5
2C8E
330
3305
100
AcDbEntity
  8
SIZE
  6
ByBlock
 62
    30
100
AcDbCircle
 10
-777.6243975777397
 20
621.0
 30
0.0
 40
5.0
  0
LINE
  5
2C8F
330
3305
100
AcDbEntity
  8
SIZE
  6
ByBlock
 62
    30
100
AcDbLine
 10
-777.6243975777397
 20
616.0000000000001
 30
0.0
 11
-777.6243975777397
 21
611.0000000000001
 31
0.0
  0
CIRCLE
  5
2C90
330
3305
100
AcDbEntity
  8
SIZE
  6
ByBlock
 62
    30
100
AcDbCircle
 10
-777.6243975777397
 20
155.0000000000002
 30
0.0
 40
5.0
  0
LINE
  5
2C91
330
3305
100
AcDbEntity
  8
SIZE
  6
ByBlock
 62
    30
100
AcDbLine
 10
-777.6243975777397
 20
160.0000000000002
 30
0.0
 11
-777.6243975777397
 21
165.0000000000002
 31
0.0
  0
TEXT
  5
2C92
330
3305
100
AcDbEntity
  8
SIZE
  6
Continuous
 62
    30
100
AcDbText
 10
-787.7207276701088
 20
34.64285714285722
 30
0.0
 40
40.0
  1
155
 50
90.0
 41
0.9
 72
     1
 11
-787.7207276701088
 21
77.50000000000007
 31
0.0
100
AcDbText
  0
CIRCLE
  5
2C93
330
3305
100
AcDbEntity
  8
SIZE
  6
ByBlock
 62
    30
100
AcDbCircle
 10
-777.6243975777397
 20
0.0000000000000853
 30
0.0
 40
5.0
  0
LINE
  5
2C94
330
3305
100
AcDbEntity
  8
SIZE
  6
ByBlock
 62
    30
100
AcDbLine
 10
-777.6243975777397
 20
5.000000000000078
 30
0.0
 11
-777.6243975777397
 21
10.00000000000008
 31
0.0
  0
CIRCLE
  5
2C95
330
3305
100
AcDbEntity
  8
SIZE
  6
ByBlock
 62
    30
100
AcDbCircle
 10
-777.6243975777397
 20
155.0000000000002
 30
0.0
 40
5.0
  0
LINE
  5
2C96
330
3305
100
AcDbEntity
  8
SIZE
  6
ByBlock
 62
    30
100
AcDbLine
 10
-777.6243975777397
 20
150.0000000000002
 30
0.0
 11
-777.6243975777397
 21
145.0000000000002
 31
0.0
  0
TEXT
  5
2C97
330
3305
100
AcDbEntity
  8
SIZE
  6
Continuous
 62
    30
100
AcDbText
 10
-325.6428571428573
 20
425.9927247155233
 30
0.0
 40
40.0
  1
65
 41
0.9
 72
     1
 11
-296.5000000000001
 21
425.9927247155233
 31
0.0
100
AcDbText
  0
CIRCLE
  5
2C98
330
3305
100
AcDbEntity
  8
SIZE
  6
ByBlock
 62
    30
100
AcDbCircle
 10
-329.0000000000001
 20
415.7828687875672
 30
0.0
 40
5.0
  0
LINE
  5
2C99
330
3305
100
AcDbEntity
  8
SIZE
  6
ByBlock
 62
    30
100
AcDbLine
 10
-324.0000000000002
 20
415.7828687875672
 30
0.0
 11
-319.0000000000001
 21
415.7828687875672
 31
0.0
  0
CIRCLE
  5
2C9A
330
3305
100
AcDbEntity
  8
SIZE
  6
ByBlock
 62
    30
100
AcDbCircle
 10
-264.0000000000002
 20
415.7828687875672
 30
0.0
 40
5.0
  0
LINE
  5
2C9B
330
3305
100
AcDbEntity
  8
SIZE
  6
ByBlock
 62
    30
100
AcDbLine
 10
-269.0000000000002
 20
415.7828687875672
 30
0.0
 11
-274.0000000000001
 21
415.7828687875672
 31
0.0
  0
CIRCLE
  5
2C9D
330
3305
100
AcDbEntity
  8
SIZE
  6
ByBlock
 62
    30
100
AcDbCircle
 10
-264.0000000000002
 20
415.7828687875672
 30
0.0
 40
5.0
  0
LINE
  5
2C9E
330
3305
100
AcDbEntity
  8
SIZE
  6
ByBlock
 62
    30
100
AcDbLine
 10
-259.0000000000002
 20
415.7828687875672
 30
0.0
 11
-254.0000000000002
 21
415.7828687875672
 31
0.0
  0
CIRCLE
  5
2C9F
330
3305
100
AcDbEntity
  8
SIZE
  6
ByBlock
 62
    30
100
AcDbCircle
 10
-199.0000000000002
 20
415.7828687875672
 30
0.0
 40
5.0
  0
LINE
  5
2CA0
330
3305
100
AcDbEntity
  8
SIZE
  6
ByBlock
 62
    30
100
AcDbLine
 10
-204.0000000000002
 20
415.7828687875672
 30
0.0
 11
-209.0000000000002
 21
415.7828687875672
 31
0.0
  0
TEXT
  5
2CA1
330
3305
100
AcDbEntity
  8
SIZE
  6
Continuous
 62
    30
100
AcDbText
 10
83.57142857142937
 20
425.9927247155236
 30
0.0
 40
40.0
  1
656
 41
0.9
 72
     1
 11
129.0000000000008
 21
425.9927247155236
 31
0.0
100
AcDbText
  0
CIRCLE
  5
2CA2
330
3305
100
AcDbEntity
  8
SIZE
  6
ByBlock
 62
    30
100
AcDbCircle
 10
457.0000000000018
 20
415.7828687875672
 30
0.0
 40
5.0
  0
LINE
  5
2CA3
330
3305
100
AcDbEntity
  8
SIZE
  6
ByBlock
 62
    30
100
AcDbLine
 10
452.0000000000018
 20
415.7828687875672
 30
0.0
 11
447.0000000000018
 21
415.7828687875672
 31
0.0
  0
CIRCLE
  5
2CA4
330
3305
100
AcDbEntity
  8
SIZE
  6
ByBlock
 62
    30
100
AcDbCircle
 10
-199.0000000000002
 20
415.7828687875672
 30
0.0
 40
5.0
  0
LINE
  5
2CA5
330
3305
100
AcDbEntity
  8
SIZE
  6
ByBlock
 62
    30
100
AcDbLine
 10
-194.0000000000002
 20
415.7828687875672
 30
0.0
 11
-189.0000000000002
 21
415.7828687875672
 31
0.0
  0
TEXT
  5
2CA6
330
3305
100
AcDbEntity
  8
SIZE
  6
Continuous
 62
    30
100
AcDbText
 10
-308.8571428571429
 20
-182.1872523868597
 30
0.0
 40
40.0
  1
100
 41
0.9
 72
     1
 11
-266.0000000000001
 21
-182.1872523868597
 31
0.0
100
AcDbText
  0
CIRCLE
  5
2CA7
330
3305
100
AcDbEntity
  8
SIZE
  6
ByBlock
 62
    30
100
AcDbCircle
 10
-216.0
 20
-192.057085150036
 30
0.0
 40
5.0
  0
LINE
  5
2CA8
330
3305
100
AcDbEntity
  8
SIZE
  6
ByBlock
 62
    30
100
AcDbLine
 10
-221.0
 20
-192.057085150036
 30
0.0
 11
-226.0
 21
-192.057085150036
 31
0.0
  0
CIRCLE
  5
2CA9
330
3305
100
AcDbEntity
  8
SIZE
  6
ByBlock
 62
    30
100
AcDbCircle
 10
-316.0000000000002
 20
-192.057085150036
 30
0.0
 40
5.0
  0
LINE
  5
2CAA
330
3305
100
AcDbEntity
  8
SIZE
  6
ByBlock
 62
    30
100
AcDbLine
 10
-311.0000000000002
 20
-192.057085150036
 30
0.0
 11
-306.0000000000002
 21
-192.057085150036
 31
0.0
  0
TEXT
  5
2CAB
330
3305
100
AcDbEntity
  8
SIZE
  6
Continuous
 62
    30
100
AcDbText
 10
74.21428571428663
 20
-182.1872523868597
 30
0.0
 40
40.0
  1
673
 41
0.9
 72
     1
 11
120.5000000000009
 21
-182.1872523868597
 31
0.0
100
AcDbText
  0
CIRCLE
  5
2CAC
330
3305
100
AcDbEntity
  8
SIZE
  6
ByBlock
 62
    30
100
AcDbCircle
 10
457.0000000000019
 20
-192.057085150036
 30
0.0
 40
5.0
  0
LINE
  5
2CAD
330
3305
100
AcDbEntity
  8
SIZE
  6
ByBlock
 62
    30
100
AcDbLine
 10
452.000000000002
 20
-192.057085150036
 30
0.0
 11
447.000000000002
 21
-192.057085150036
 31
0.0
  0
CIRCLE
  5
2CAE
330
3305
100
AcDbEntity
  8
SIZE
  6
ByBlock
 62
    30
100
AcDbCircle
 10
-216.0000000000003
 20
-192.057085150036
 30
0.0
 40
5.0
  0
LINE
  5
2CAF
330
3305
100
AcDbEntity
  8
SIZE
  6
ByBlock
 62
    30
100
AcDbLine
 10
-211.0000000000003
 20
-192.057085150036
 30
0.0
 11
-206.0000000000003
 21
-192.057085150036
 31
0.0
  0
TEXT
  5
2CB0
330
3305
100
AcDbEntity
  8
SIZE
  6
Continuous
 62
    30
100
AcDbText
 10
-43.71428571428384
 20
-523.7708666088638
 30
0.0
 40
40.0
  1
914
 41
0.9
 72
     1
 11
0.0000000000018759
 21
-523.7708666088638
 31
0.0
100
AcDbText
  0
CIRCLE
  5
2CB1
330
3305
100
AcDbEntity
  8
SIZE
  6
ByBlock
 62
    30
100
AcDbCircle
 10
-456.999999999998
 20
-533.6406993720402
 30
0.0
 40
5.0
  0
LINE
  5
2CB2
330
3305
100
AcDbEntity
  8
SIZE
  6
ByBlock
 62
    30
100
AcDbLine
 10
-451.999999999998
 20
-533.6406993720402
 30
0.0
 11
-446.9999999999978
 21
-533.6406993720402
 31
0.0
  0
CIRCLE
  5
2CB3
330
3305
100
AcDbEntity
  8
SIZE
  6
ByBlock
 62
    30
100
AcDbCircle
 10
457.0000000000019
 20
-533.6406993720402
 30
0.0
 40
5.0
  0
LINE
  5
2CB4
330
3305
100
AcDbEntity
  8
SIZE
  6
ByBlock
 62
    30
100
AcDbLine
 10
452.000000000002
 20
-533.6406993720402
 30
0.0
 11
447.000000000002
 21
-533.6406993720402
 31
0.0
  0
LINE
  5
2CC3
330
3305
100
AcDbEntity
  8
NOTE
  6
Continuous
 62
     4
100
AcDbLine
 10
-315.9999999999894
 20
154.9999999999896
 30
0.0
 11
-329.6363874043967
 21
124.583555071044
 31
0.0
  0
LINE
  5
2CC4
330
3305
100
AcDbEntity
  8
NOTE
  6
Continuous
 62
     4
100
AcDbLine
 10
-315.9999999999894
 20
154.9999999999896
 30
0.0
 11
-343.0176807124737
 21
135.4767797672617
 31
0.0
  0
LINE
  5
2CCD
330
3305
100
AcDbEntity
  8
NOTE
  6
Continuous
 62
     4
100
AcDbLine
 10
-328.9999999999892
 20
273.999999999997
 30
0.0
 11
-358.736186545261
 21
289.0622174099089
 31
0.0
  0
LINE
  5
2CCE
330
3305
100
AcDbEntity
  8
NOTE
  6
Continuous
 62
     4
100
AcDbLine
 10
-328.9999999999892
 20
273.999999999997
 30
0.0
 11
-347.2211841725335
 21
301.9123565233643
 31
0.0
  0
LINE
  5
2CE1
330
3305
100
AcDbEntity
  8
NOTE
  6
Continuous
 62
     4
100
AcDbLine
 10
-216.0000000000002
 20
155.0
 30
0.0
 11
-229.6363874044075
 21
124.5835550710545
 31
0.0
  0
LINE
  5
2CE2
330
3305
100
AcDbEntity
  8
NOTE
  6
Continuous
 62
     4
100
AcDbLine
 10
-216.0000000000002
 20
155.0
 30
0.0
 11
-243.0176807124846
 21
135.4767797672722
 31
0.0
  0
LINE
  5
2CEB
330
3305
100
AcDbEntity
  8
NOTE
  6
Continuous
 62
     4
100
AcDbLine
 10
-264.0000000000086
 20
273.9999999999999
 30
0.0
 11
-293.7361865452804
 21
289.0622174099119
 31
0.0
  0
LINE
  5
2CEC
330
3305
100
AcDbEntity
  8
NOTE
  6
Continuous
 62
     4
100
AcDbLine
 10
-264.0000000000086
 20
273.9999999999999
 30
0.0
 11
-282.2211841725529
 21
301.9123565233673
 31
0.0
  0
LINE
  5
2CF5
330
3305
100
AcDbEntity
  8
NOTE
  6
Continuous
 62
     4
100
AcDbLine
 10
-199.0000000000094
 20
273.9999999999999
 30
0.0
 11
-228.7361865452812
 21
289.0622174099119
 31
0.0
  0
LINE
  5
2CF6
330
3305
100
AcDbEntity
  8
NOTE
  6
Continuous
 62
     4
100
AcDbLine
 10
-199.0000000000094
 20
273.9999999999999
 30
0.0
 11
-217.2211841725537
 21
301.9123565233673
 31
0.0
  0
LINE
  5
2CFF
330
3305
100
AcDbEntity
  8
NOTE
  6
Continuous
 62
     4
100
AcDbLine
 10
-216.0000000000003
 20
620.9999999999999
 30
0.0
 11
-235.7211112656165
 21
647.8735735250791
 31
0.0
  0
LINE
  5
2D00
330
3305
100
AcDbEntity
  8
NOTE
  6
Continuous
 62
     4
100
AcDbLine
 10
-216.0000000000003
 20
620.9999999999999
 30
0.0
 11
-219.642196358837
 21
654.1337532588901
 31
0.0
  0
TEXT
  5
2D01
330
3305
100
AcDbEntity
  8
SIZE
  6
Continuous
 62
    30
100
AcDbText
 10
-56.64966911974009
 20
175.9285714285713
 30
0.0
 40
40.0
  1
119
 50
90.0
 41
0.9
 72
     1
 11
-56.64966911974009
 21
214.4999999999999
 31
0.0
100
AcDbText
  0
CIRCLE
  5
2D07
330
3305
100
AcDbEntity
  8
SIZE
  6
ByBlock
 62
    30
100
AcDbCircle
 10
-48.22523119360379
 20
155.0
 30
0.0
 40
5.0
  0
LINE
  5
2D08
330
3305
100
AcDbEntity
  8
SIZE
  6
ByBlock
 62
    30
100
AcDbLine
 10
-48.22523119360379
 20
160.0
 30
0.0
 11
-48.22523119360379
 21
165.0
 31
0.0
  0
CIRCLE
  5
2D09
330
3305
100
AcDbEntity
  8
SIZE
  6
ByBlock
 62
    30
100
AcDbCircle
 10
-48.22523119360378
 20
273.9999999999999
 30
0.0
 40
5.0
  0
LINE
  5
2D0A
330
3305
100
AcDbEntity
  8
SIZE
  6
ByBlock
 62
    30
100
AcDbLine
 10
-48.22523119360378
 20
268.9999999999999
 30
0.0
 11
-48.22523119360378
 21
264.0
 31
0.0
  0
LINE
  5
2D13
330
3305
100
AcDbEntity
  8
SIZE
  6
Continuous
 62
    30
100
AcDbLine
 10
-272.3976086380001
 20
493.0750408792736
 30
0.0
 11
-347.8719937085709
 21
493.0750408792736
 31
0.0
  0
TEXT
  5
2D14
330
3305
100
AcDbEntity
  8
SIZE
  6
Continuous
 62
    30
100
AcDbText
 10
-332.7770893594695
 20
503.2848968072299
 30
0.0
 40
40.0
  1
65
 41
0.9
 72
     1
 11
-303.6342322166124
 21
503.2848968072299
 31
0.0
100
AcDbText
  0
LINE
  5
2D1C
330
3305
100
AcDbEntity
  8
SIZE
  6
Continuous
 62
    30
100
AcDbLine
 10
-231.5000000000002
 20
415.7828687875672
 30
0.0
 11
-272.3976086380001
 21
493.0750408792736
 31
0.0
  0
ENDSEC
  0
SECTION
  2
OBJECTS
  0
DICTIONARY
  5
32A2
330
0
100
AcDbDictionary
281
     1
  3
ACAD_CIP_PREVIOUS_PRODUCT_INFO
350
334B
  3
ACAD_COLOR
350
32F8
  3
ACAD_DETAILVIEWSTYLE
350
32FF
  3
ACAD_GROUP
350
32A3
  3
ACAD_LAYOUT
350
32F7
  3
ACAD_MATERIAL
350
32A6
  3
ACAD_MLEADERSTYLE
350
32FB
  3
ACAD_MLINESTYLE
350
32F4
  3
ACAD_PLOTSETTINGS
350
32F6
  3
ACAD_PLOTSTYLENAME
350
32A4
  3
ACAD_SCALELIST
350
32D8
  3
ACAD_SECTIONVIEWSTYLE
350
32FD
  3
ACAD_TABLESTYLE
350
32F9
  3
ACAD_VISUALSTYLE
350
32BF
  3
ACDB_RECOMPOSE_DATA
350
3371
  3
AcDbVariableDictionary
350
3364
  3
DWGPROPS
350
3372
  0
DICTIONARY
  5
334E
330
32EA
100
AcDbDictionary
280
     1
281
     1
  3
ADSK_XREC_LAYER_RECONCILED
360
334F
  0
DICTIONARY
  5
3350
330
3309
100
AcDbDictionary
280
     1
281
     1
  3
ADSK_XREC_LAYER_RECONCILED
360
3351
  0
DICTIONARY
  5
3352
330
330C
100
AcDbDictionary
280
     1
281
     1
  3
ADSK_XREC_LAYER_RECONCILED
360
3353
  0
DICTIONARY
  5
3354
330
330D
100
AcDbDictionary
280
     1
281
     1
  3
ADSK_XREC_LAYER_RECONCILED
360
3355
  0
DICTIONARY
  5
3356
330
330E
100
AcDbDictionary
280
     1
281
     1
  3
ADSK_XREC_LAYER_RECONCILED
360
3357
  0
DICTIONARY
  5
3358
330
330F
100
AcDbDictionary
280
     1
281
     1
  3
ADSK_XREC_LAYER_RECONCILED
360
3359
  0
DICTIONARY
  5
335A
330
3310
100
AcDbDictionary
280
     1
281
     1
  3
ADSK_XREC_LAYER_RECONCILED
360
335B
  0
DICTIONARY
  5
335C
330
3311
100
AcDbDictionary
280
     1
281
     1
  3
ADSK_XREC_LAYER_RECONCILED
360
335D
  0
DICTIONARY
  5
335E
330
3312
100
AcDbDictionary
280
     1
281
     1
  3
ADSK_XREC_LAYER_RECONCILED
360
335F
  0
DICTIONARY
  5
3360
330
3313
100
AcDbDictionary
280
     1
281
     1
  3
ADSK_XREC_LAYER_RECONCILED
360
3361
  0
DICTIONARY
  5
3362
330
3314
100
AcDbDictionary
280
     1
281
     1
  3
ADSK_XREC_LAYER_RECONCILED
360
3363
  0
XRECORD
  5
334B
102
{ACAD_REACTORS
330
32A2
102
}
330
32A2
100
AcDbXrecord
280
     1
300
ACD
300
2022
300
87545ACD_2022_0F
  0
DICTIONARY
  5
32F8
102
{ACAD_REACTORS
330
32A2
102
}
330
32A2
100
AcDbDictionary
281
     1
  0
DICTIONARY
  5
32FF
102
{ACAD_REACTORS
330
32A2
102
}
330
32A2
100
AcDbDictionary
281
     1
  3
Imperial24
350
3300
  0
DICTIONARY
  5
32A3
102
{ACAD_REACTORS
330
32A2
102
}
330
32A2
100
AcDbDictionary
281
     1
  0
DICTIONARY
  5
32F7
102
{ACAD_REACTORS
330
32A2
102
}
330
32A2
100
AcDbDictionary
281
     1
  3
Model
350
3308
  3
レイアウト1
350
3304
  0
DICTIONARY
  5
32A6
102
{ACAD_REACTORS
330
32A2
102
}
330
32A2
100
AcDbDictionary
281
     1
  3
ByBlock
350
32AF
  3
ByLayer
350
32A7
  3
Global
350
32B7
  0
DICTIONARY
  5
32FB
102
{ACAD_REACTORS
330
32A2
102
}
330
32A2
100
AcDbDictionary
281
     1
  3
Standard
350
32FC
  0
DICTIONARY
  5
32F4
102
{ACAD_REACTORS
330
32A2
102
}
330
32A2
100
AcDbDictionary
281
     1
  3
Standard
350
32F5
  0
DICTIONARY
  5
32F6
102
{ACAD_REACTORS
330
32A2
102
}
330
32A2
100
AcDbDictionary
281
     1
  0
ACDBDICTIONARYWDFLT
  5
32A4
102
{ACAD_REACTORS
330
32A2
102
}
330
32A2
100
AcDbDictionary
281
     1
  3
Normal
350
32A5
100
AcDbDictionaryWithDefault
340
32A5
  0
DICTIONARY
  5
32D8
102
{ACAD_REACTORS
330
32A2
102
}
330
32A2
100
AcDbDictionary
281
     1
  3
A0
350
32D9
  3
A1
350
32DA
  3
A2
350
32DB
  3
A3
350
32DC
  3
A4
350
32DD
  3
A5
350
32DE
  3
A6
350
32DF
  3
A7
350
32E0
  3
A8
350
32E1
  3
A9
350
32E2
  3
B0
350
32E3
  3
B1
350
32E4
  3
B2
350
32E5
  3
B3
350
32E6
  3
B4
350
32E7
  3
B5
350
32E8
  3
B6
350
32E9
  0
DICTIONARY
  5
32FD
102
{ACAD_REACTORS
330
32A2
102
}
330
32A2
100
AcDbDictionary
281
     1
  3
Imperial24
350
32FE
  0
DICTIONARY
  5
32F9
102
{ACAD_REACTORS
330
32A2
102
}
330
32A2
100
AcDbDictionary
281
     1
  3
Standard
350
32FA
  0
DICTIONARY
  5
32BF
102
{ACAD_REACTORS
330
32A2
102
}
330
32A2
100
AcDbDictionary
281
     1
  3
2dWireframe
350
32C5
  3
Basic
350
32C4
  3
Brighten
350
32CB
  3
ColorChange
350
32CF
  3
Conceptual
350
32C8
  3
Dim
350
32CA
  3
EdgeColorOff
350
32D7
  3
Facepattern
350
32CE
  3
Flat
350
32C0
  3
FlatWithEdges
350
32C1
  3
Gouraud
350
32C2
  3
GouraudWithEdges
350
32C3
  3
Hidden
350
32C7
  3
JitterOff
350
32D5
  3
Linepattern
350
32CD
  3
OverhangOff
350
32D6
  3
Realistic
350
32C9
  3
Shaded
350
32D4
  3
Shaded with edges
350
32D3
  3
Shades of Gray
350
32D0
  3
Sketchy
350
32D1
  3
Thicken
350
32CC
  3
Wireframe
350
32C6
  3
X-Ray
350
32D2
  0
XRECORD
  5
3371
102
{ACAD_REACTORS
330
32A2
102
}
330
32A2
100
AcDbXrecord
280
     1
 90
        1
330
32FA
  0
DICTIONARY
  5
3364
102
{ACAD_REACTORS
330
32A2
102
}
330
32A2
100
AcDbDictionary
281
     1
  3
CANNOSCALE
350
3369
  3
CMLEADERSTYLE
350
3366
  3
CTABLESTYLE
350
3365
  3
CVIEWDETAILSTYLE
350
3367
  3
CVIEWSECTIONSTYLE
350
3368
  3
DIMASSOC
350
336C
  3
INDEXCTL
350
336B
  3
SORTENTS
350
336A
  3
XCLIPFRAME
350
336D
  0
XRECORD
  5
3372
102
{ACAD_REACTORS
330
32A2
102
}
330
32A2
100
AcDbXrecord
280
     1
  1
DWGPROPS COOKIE
  2

  3

  4

  6

  7

  8
NU55418
  9

300
=
301
=
302
=
303
=
304
=
305
=
306
=
307
=
308
=
309
=
 40
9.82923917824074
 41
2449761.493611112
 42
2460108.406747685
  1

 90
        0
  0
XRECORD
  5
334F
102
{ACAD_REACTORS
330
334E
102
}
330
334E
100
AcDbXrecord
280
     1
290
     1
  0
XRECORD
  5
3351
102
{ACAD_REACTORS
330
3350
102
}
330
3350
100
AcDbXrecord
280
     1
290
     1
  0
XRECORD
  5
3353
102
{ACAD_REACTORS
330
3352
102
}
330
3352
100
AcDbXrecord
280
     1
290
     1
  0
XRECORD
  5
3355
102
{ACAD_REACTORS
330
3354
102
}
330
3354
100
AcDbXrecord
280
     1
290
     1
  0
XRECORD
  5
3357
102
{ACAD_REACTORS
330
3356
102
}
330
3356
100
AcDbXrecord
280
     1
290
     1
  0
XRECORD
  5
3359
102
{ACAD_REACTORS
330
3358
102
}
330
3358
100
AcDbXrecord
280
     1
290
     1
  0
XRECORD
  5
335B
102
{ACAD_REACTORS
330
335A
102
}
330
335A
100
AcDbXrecord
280
     1
290
     1
  0
XRECORD
  5
335D
102
{ACAD_REACTORS
330
335C
102
}
330
335C
100
AcDbXrecord
280
     1
290
     1
  0
XRECORD
  5
335F
102
{ACAD_REACTORS
330
335E
102
}
330
335E
100
AcDbXrecord
280
     1
290
     1
  0
XRECORD
  5
3361
102
{ACAD_REACTORS
330
3360
102
}
330
3360
100
AcDbXrecord
280
     1
290
     1
  0
XRECORD
  5
3363
102
{ACAD_REACTORS
330
3362
102
}
330
3362
100
AcDbXrecord
280
     1
290
     1
  0
ACDBDETAILVIEWSTYLE
  5
3300
102
{ACAD_XDICTIONARY
360
33A9
102
}
102
{ACAD_REACTORS
330
32FF
102
}
330
32FF
100
AcDbModelDocViewStyle
 70
     0
  3
Imperial24
290
     0
100
AcDbDetailViewStyle
 70
     0
 71
     0
 90
        3
 71
     1
340
32EB
 40
0.24
340
0
 40
0.24
300

 40
0.36
280
     3
 71
     2
340
32F2
 90
       25
 71
     3
340
32EB
 40
0.24
 90
        1
 40
0.75
 90
        1
300
%<\AcVar ViewType \f "%tc1">% %<\AcVar ViewDetailId>%\PSCALE %<\AcVar ViewScale \f "%sn">%
 71
     4
340
32F2
 90
       25
340
32F2
 90
       25
280
     0
  0
LAYOUT
  5
3308
102
{ACAD_XDICTIONARY
360
33AD
102
}
102
{ACAD_REACTORS
330
32F7
102
}
330
32F7
100
AcDbPlotSettings
  1

  2
FX C3376(5-6西内側 X032)64bit
  4

  6

 40
0.0
 41
0.0
 42
0.0
 43
0.0
 44
0.0
 45
0.0
 46
0.0
 47
0.0
 48
0.0
 49
0.0
140
0.0
141
0.0
142
1.0
143
1.0
 70
  1712
 72
     0
 73
     0
 74
     0
  7

 75
     0
147
1.0
148
0.0
149
0.0
100
AcDbLayout
  1
Model
 70
     1
 71
     0
 10
0.0
 20
0.0
 11
12.0
 21
9.0
 12
0.0
 22
0.0
 32
0.0
 14
0.0
 24
0.0
 34
0.0
 15
0.0
 25
0.0
 35
0.0
146
0.0
 13
0.0
 23
0.0
 33
0.0
 16
1.0
 26
0.0
 36
0.0
 17
0.0
 27
1.0
 37
0.0
 76
     0
330
3305
331
330A
  0
LAYOUT
  5
3304
102
{ACAD_XDICTIONARY
360
33AB
102
}
102
{ACAD_REACTORS
330
32F7
102
}
330
32F7
100
AcDbPlotSettings
  1

  2
FX C3376(5-6西内側 X032)64bit
  4

  6

 40
0.0
 41
0.0
 42
0.0
 43
0.0
 44
0.0
 45
0.0
 46
0.0
 47
0.0
 48
0.0
 49
0.0
140
0.0
141
0.0
142
1.0
143
1.0
 70
   688
 72
     0
 73
     0
 74
     5
  7

 75
    16
147
1.0
148
0.0
149
0.0
100
AcDbLayout
  1
レイアウト1
 70
     1
 71
     1
 10
0.0
 20
0.0
 11
12.0
 21
9.0
 12
0.0
 22
0.0
 32
0.0
 14
1.000000000000000E+20
 24
1.000000000000000E+20
 34
1.000000000000000E+20
 15
-1.000000000000000E+20
 25
-1.000000000000000E+20
 35
-1.000000000000000E+20
146
0.0
 13
0.0
 23
0.0
 33
0.0
 16
1.0
 26
0.0
 36
0.0
 17
0.0
 27
1.0
 37
0.0
 76
     0
330
3301
  0
MATERIAL
  5
32AF
102
{ACAD_XDICTIONARY
360
32B0
102
}
102
{ACAD_REACTORS
330
32A6
102
}
330
32A6
100
AcDbMaterial
  1
ByBlock
 72
     0
 43
0.0208333333333333
 43
0.0
 43
0.0
 43
0.0
 43
0.0
 43
0.0208333333333333
 43
0.0
 43
0.0
 43
0.0
 43
0.0
 43
1.0
 43
0.0
 43
0.0
 43
0.0
 43
0.0
 43
1.0
 77
     0
 47
0.0208333333333333
 47
0.0
 47
0.0
 47
0.0
 47
0.0
 47
0.0208333333333333
 47
0.0
 47
0.0
 47
0.0
 47
0.0
 47
1.0
 47
0.0
 47
0.0
 47
0.0
 47
0.0
 47
1.0
171
     0
 49
0.0208333333333333
 49
0.0
 49
0.0
 49
0.0
 49
0.0
 49
0.0208333333333333
 49
0.0
 49
0.0
 49
0.0
 49
0.0
 49
1.0
 49
0.0
 49
0.0
 49
0.0
 49
0.0
 49
1.0
175
     0
142
0.0208333333333333
142
0.0
142
0.0
142
0.0
142
0.0
142
0.0208333333333333
142
0.0
142
0.0
142
0.0
142
0.0
142
1.0
142
0.0
142
0.0
142
0.0
142
0.0
142
1.0
179
     0
144
0.0208333333333333
144
0.0
144
0.0
144
0.0
144
0.0
144
0.0208333333333333
144
0.0
144
0.0
144
0.0
144
0.0
144
1.0
144
0.0
144
0.0
144
0.0
144
0.0
144
1.0
147
0.0208333333333333
147
0.0
147
0.0
147
0.0
147
0.0
147
0.0208333333333333
147
0.0
147
0.0
147
0.0
147
0.0
147
1.0
147
0.0
147
0.0
147
0.0
147
0.0
147
1.0
  0
MATERIAL
  5
32A7
102
{ACAD_XDICTIONARY
360
32A8
102
}
102
{ACAD_REACTORS
330
32A6
102
}
330
32A6
100
AcDbMaterial
  1
ByLayer
 72
     0
 43
0.0208333333333333
 43
0.0
 43
0.0
 43
0.0
 43
0.0
 43
0.0208333333333333
 43
0.0
 43
0.0
 43
0.0
 43
0.0
 43
1.0
 43
0.0
 43
0.0
 43
0.0
 43
0.0
 43
1.0
 77
     0
 47
0.0208333333333333
 47
0.0
 47
0.0
 47
0.0
 47
0.0
 47
0.0208333333333333
 47
0.0
 47
0.0
 47
0.0
 47
0.0
 47
1.0
 47
0.0
 47
0.0
 47
0.0
 47
0.0
 47
1.0
171
     0
 49
0.0208333333333333
 49
0.0
 49
0.0
 49
0.0
 49
0.0
 49
0.0208333333333333
 49
0.0
 49
0.0
 49
0.0
 49
0.0
 49
1.0
 49
0.0
 49
0.0
 49
0.0
 49
0.0
 49
1.0
175
     0
142
0.0208333333333333
142
0.0
142
0.0
142
0.0
142
0.0
142
0.0208333333333333
142
0.0
142
0.0
142
0.0
142
0.0
142
1.0
142
0.0
142
0.0
142
0.0
142
0.0
142
1.0
179
     0
144
0.0208333333333333
144
0.0
144
0.0
144
0.0
144
0.0
144
0.0208333333333333
144
0.0
144
0.0
144
0.0
144
0.0
144
1.0
144
0.0
144
0.0
144
0.0
144
0.0
144
1.0
147
0.0208333333333333
147
0.0
147
0.0
147
0.0
147
0.0
147
0.0208333333333333
147
0.0
147
0.0
147
0.0
147
0.0
147
1.0
147
0.0
147
0.0
147
0.0
147
0.0
147
1.0
  0
MATERIAL
  5
32B7
102
{ACAD_XDICTIONARY
360
32B8
102
}
102
{ACAD_REACTORS
330
32A6
102
}
330
32A6
100
AcDbMaterial
  1
Global
 72
     0
 43
0.0208333333333333
 43
0.0
 43
0.0
 43
0.0
 43
0.0
 43
0.0208333333333333
 43
0.0
 43
0.0
 43
0.0
 43
0.0
 43
1.0
 43
0.0
 43
0.0
 43
0.0
 43
0.0
 43
1.0
 77
     0
 47
0.0208333333333333
 47
0.0
 47
0.0
 47
0.0
 47
0.0
 47
0.0208333333333333
 47
0.0
 47
0.0
 47
0.0
 47
0.0
 47
1.0
 47
0.0
 47
0.0
 47
0.0
 47
0.0
 47
1.0
171
     0
 49
0.0208333333333333
 49
0.0
 49
0.0
 49
0.0
 49
0.0
 49
0.0208333333333333
 49
0.0
 49
0.0
 49
0.0
 49
0.0
 49
1.0
 49
0.0
 49
0.0
 49
0.0
 49
0.0
 49
1.0
175
     0
142
0.0208333333333333
142
0.0
142
0.0
142
0.0
142
0.0
142
0.0208333333333333
142
0.0
142
0.0
142
0.0
142
0.0
142
1.0
142
0.0
142
0.0
142
0.0
142
0.0
142
1.0
179
     0
144
0.0208333333333333
144
0.0
144
0.0
144
0.0
144
0.0
144
0.0208333333333333
144
0.0
144
0.0
144
0.0
144
0.0
144
1.0
144
0.0
144
0.0
144
0.0
144
0.0
144
1.0
147
0.0208333333333333
147
0.0
147
0.0
147
0.0
147
0.0
147
0.0208333333333333
147
0.0
147
0.0
147
0.0
147
0.0
147
1.0
147
0.0
147
0.0
147
0.0
147
0.0
147
1.0
  0
MLEADERSTYLE
  5
32FC
102
{ACAD_REACTORS
330
32FB
102
}
330
32FB
100
AcDbMLeaderStyle
170
     2
171
     1
172
     0
 90
        2
 40
0.0
 41
0.0
173
     1
 91
-1056964608
340
32F0
 92
       -2
290
     1
 42
0.09
291
     1
 43
0.36
  3
Standard
 44
0.18
300

342
32EB
174
     1
178
     6
175
     1
176
     0
 93
-1056964608
 45
0.18
292
     0
297
     0
 46
0.18
 94
-1056964608
 47
1.0
 49
1.0
140
1.0
293
     1
141
0.0
294
     1
177
     0
142
1.0
295
     0
296
     0
143
0.125
1001
ACAD_MLEADERVER
1070
     2
  0
MLINESTYLE
  5
32F5
102
{ACAD_REACTORS
330
32F4
102
}
330
32F4
100
AcDbMlineStyle
  2
STANDARD
 70
     0
  3

 62
   256
 51
90.0
 52
90.0
 71
     2
 49
0.5
 62
   256
  6
BYLAYER
 49
-0.5
 62
   256
  6
BYLAYER
  0
ACDBPLACEHOLDER
  5
32A5
102
{ACAD_REACTORS
330
32A4
102
}
330
32A4
  0
SCALE
  5
32D9
102
{ACAD_REACTORS
330
32D8
102
}
330
32D8
100
AcDbScale
 70
     0
300
1:1
140
1.0
141
1.0
290
     1
  0
SCALE
  5
32DA
102
{ACAD_REACTORS
330
32D8
102
}
330
32D8
100
AcDbScale
 70
     0
300
1/128" = 1'-0"
140
0.0078125
141
12.0
290
     0
  0
SCALE
  5
32DB
102
{ACAD_REACTORS
330
32D8
102
}
330
32D8
100
AcDbScale
 70
     0
300
1/64" = 1'-0"
140
0.015625
141
12.0
290
     0
  0
SCALE
  5
32DC
102
{ACAD_REACTORS
330
32D8
102
}
330
32D8
100
AcDbScale
 70
     0
300
1/32" = 1'-0"
140
0.03125
141
12.0
290
     0
  0
SCALE
  5
32DD
102
{ACAD_REACTORS
330
32D8
102
}
330
32D8
100
AcDbScale
 70
     0
300
1/16" = 1'-0"
140
0.0625
141
12.0
290
     0
  0
SCALE
  5
32DE
102
{ACAD_REACTORS
330
32D8
102
}
330
32D8
100
AcDbScale
 70
     0
300
3/32" = 1'-0"
140
0.09375
141
12.0
290
     0
  0
SCALE
  5
32DF
102
{ACAD_REACTORS
330
32D8
102
}
330
32D8
100
AcDbScale
 70
     0
300
1/8" = 1'-0"
140
0.125
141
12.0
290
     0
  0
SCALE
  5
32E0
102
{ACAD_REACTORS
330
32D8
102
}
330
32D8
100
AcDbScale
 70
     0
300
3/16" = 1'-0"
140
0.1875
141
12.0
290
     0
  0
SCALE
  5
32E1
102
{ACAD_REACTORS
330
32D8
102
}
330
32D8
100
AcDbScale
 70
     0
300
1/4" = 1'-0"
140
0.25
141
12.0
290
     0
  0
SCALE
  5
32E2
102
{ACAD_REACTORS
330
32D8
102
}
330
32D8
100
AcDbScale
 70
     0
300
3/8" = 1'-0"
140
0.375
141
12.0
290
     0
  0
SCALE
  5
32E3
102
{ACAD_REACTORS
330
32D8
102
}
330
32D8
100
AcDbScale
 70
     0
300
1/2" = 1'-0"
140
0.5
141
12.0
290
     0
  0
SCALE
  5
32E4
102
{ACAD_REACTORS
330
32D8
102
}
330
32D8
100
AcDbScale
 70
     0
300
3/4" = 1'-0"
140
0.75
141
12.0
290
     0
  0
SCALE
  5
32E5
102
{ACAD_REACTORS
330
32D8
102
}
330
32D8
100
AcDbScale
 70
     0
300
1" = 1'-0"
140
1.0
141
12.0
290
     0
  0
SCALE
  5
32E6
102
{ACAD_REACTORS
330
32D8
102
}
330
32D8
100
AcDbScale
 70
     0
300
1-1/2" = 1'-0"
140
1.5
141
12.0
290
     0
  0
SCALE
  5
32E7
102
{ACAD_REACTORS
330
32D8
102
}
330
32D8
100
AcDbScale
 70
     0
300
3" = 1'-0"
140
3.0
141
12.0
290
     0
  0
SCALE
  5
32E8
102
{ACAD_REACTORS
330
32D8
102
}
330
32D8
100
AcDbScale
 70
     0
300
6" = 1'-0"
140
6.0
141
12.0
290
     0
  0
SCALE
  5
32E9
102
{ACAD_REACTORS
330
32D8
102
}
330
32D8
100
AcDbScale
 70
     0
300
1'-0" = 1'-0"
140
12.0
141
12.0
290
     0
  0
ACDBSECTIONVIEWSTYLE
  5
32FE
102
{ACAD_XDICTIONARY
360
33A7
102
}
102
{ACAD_REACTORS
330
32FD
102
}
330
32FD
100
AcDbModelDocViewStyle
 70
     0
  3
Imperial24
290
     0
100
AcDbSectionViewStyle
 70
     0
 71
     0
 90
       78
 71
     1
340
32EB
 40
0.24
340
0
340
0
 40
0.24
300
I, O, Q, S, X, Z
 40
0.48
 90
        3
 40
0.18
 90
        1
 71
     2
340
32F2
 90
       25
340
32F2
 90
       50
 40
0.24
 40
0.0
 40
0.24
 71
     3
340
32EB
 40
0.24
 90
        1
 40
0.75
 90
        1
300
%<\AcVar ViewType \f "%tc1">% %<\AcVar ViewSectionStartId>%-%<\AcVar ViewSectionEndId>%\PSCALE %<\AcVar ViewScale \f "%sn">%
 71
     4
300
ANSI31
 40
1.0
 90
        0
290
     0
290
     0
 90
        6
 40
0.0
 40
1.570796326794896
 40
0.2617993877991494
 40
1.308996938995747
 40
-0.2617993877991494
 40
1.832595714594046
  0
TABLESTYLE
  5
32FA
102
{ACAD_XDICTIONARY
360
336F
102
}
102
{ACAD_REACTORS
330
32F9
102
}
330
32F9
100
AcDbTableStyle
  3
Standard
 70
     0
 71
     0
 40
0.06
 41
0.06
280
     0
281
     0
  7
STANDARD
140
0.18
170
     2
 62
     0
 63
     7
283
     0
274
    -2
284
     1
 64
     0
275
    -2
285
     1
 65
     0
276
    -2
286
     1
 66
     0
277
    -2
287
     1
 67
     0
278
    -2
288
     1
 68
     0
279
    -2
289
     1
 69
     0
  7
STANDARD
140
0.25
170
     5
 62
     0
 63
     7
283
     0
274
    -2
284
     1
 64
     0
275
    -2
285
     1
 65
     0
276
    -2
286
     1
 66
     0
277
    -2
287
     1
 67
     0
278
    -2
288
     1
 68
     0
279
    -2
289
     1
 69
     0
  7
STANDARD
140
0.18
170
     5
 62
     0
 63
     7
283
     0
274
    -2
284
     1
 64
     0
275
    -2
285
     1
 65
     0
276
    -2
286
     1
 66
     0
277
    -2
287
     1
 67
     0
278
    -2
288
     1
 68
     0
279
    -2
289
     1
 69
     0
  0
VISUALSTYLE
  5
32C5
102
{ACAD_XDICTIONARY
360
3380
102
}
102
{ACAD_REACTORS
330
32BF
102
}
330
32BF
100
AcDbVisualStyle
  2
2dWireframe
 70
     4
 71
     0
 72
     2
 73
     0
 90
        0
 40
-0.6
 41
-30.0
 62
     5
 63
     7
 74
     1
 91
        4
 64
     7
 65
   257
 75
     1
175
     1
 42
1.0
 92
        0
 66
   257
 43
1.0
 76
     1
 77
     6
 78
     2
 67
     7
 79
     5
170
     0
171
     0
290
     0
174
     0
 93
        1
 44
0.0
173
     0
291
     0
 45
0.0
1001
ACAD
1000
AcDbSavedByObjectVersion
1070
     0
  0
VISUALSTYLE
  5
32C4
102
{ACAD_XDICTIONARY
360
337E
102
}
102
{ACAD_REACTORS
330
32BF
102
}
330
32BF
100
AcDbVisualStyle
  2
Basic
 70
     7
 71
     1
 72
     0
 73
     1
 90
        0
 40
-0.6
 41
-30.0
 62
     5
 63
     7
 74
     0
 91
        4
 64
     7
 65
   257
 75
     1
175
     1
 42
1.0
 92
        8
 66
     7
 43
1.0
 76
     1
 77
     6
 78
     2
 67
     7
 79
     5
170
     0
171
     0
290
     0
174
     0
 93
        1
 44
0.0
173
     0
291
     1
 45
0.0
1001
ACAD
1000
AcDbSavedByObjectVersion
1070
     0
  0
VISUALSTYLE
  5
32CB
102
{ACAD_XDICTIONARY
360
338C
102
}
102
{ACAD_REACTORS
330
32BF
102
}
330
32BF
100
AcDbVisualStyle
  2
Brighten
 70
    12
 71
     2
 72
     2
 73
     0
 90
        0
 40
-0.6
 41
-30.0
 62
     5
 63
     7
 74
     1
 91
        4
 64
     7
 65
   257
 75
     1
175
     1
 42
1.0
 92
        8
 66
     7
 43
1.0
 76
     1
 77
     6
 78
     2
 67
     7
 79
     5
170
     0
171
     0
290
     0
174
     0
 93
        1
 44
50.0
173
     0
291
     1
 45
0.0
1001
ACAD
1000
AcDbSavedByObjectVersion
1070
     0
  0
VISUALSTYLE
  5
32CF
102
{ACAD_XDICTIONARY
360
3394
102
}
102
{ACAD_REACTORS
330
32BF
102
}
330
32BF
100
AcDbVisualStyle
  2
ColorChange
 70
    16
 71
     2
 72
     2
 73
     3
 90
        0
 40
-0.6
 41
-30.0
 62
     5
 63
     8
 74
     1
 91
        4
 64
     7
 65
   257
 75
     1
175
     1
 42
1.0
 92
        8
 66
     8
 43
1.0
 76
     1
 77
     6
 78
     2
 67
     7
 79
     5
170
     0
171
     0
290
     0
174
     0
 93
        1
 44
0.0
173
     0
291
     1
 45
0.0
1001
ACAD
1000
AcDbSavedByObjectVersion
1070
     0
  0
VISUALSTYLE
  5
32C8
102
{ACAD_XDICTIONARY
360
3386
102
}
102
{ACAD_REACTORS
330
32BF
102
}
330
32BF
100
AcDbVisualStyle
  2
Conceptual
 70
     9
 71
     3
 72
     2
 73
     0
 90
        0
 40
-0.6
 41
-30.0
 62
     5
 63
     7
 74
     2
 91
        2
 64
     7
 65
   257
 75
     1
175
     1
 42
179.0
 92
        8
 66
     7
 43
1.0
 76
     1
 77
     6
 78
     2
 67
     7
 79
     3
170
     0
171
     0
290
     0
174
     0
 93
        1
 44
0.0
173
     0
291
     0
 45
0.0
1001
ACAD
1000
AcDbSavedByObjectVersion
1070
     0
  0
VISUALSTYLE
  5
32CA
102
{ACAD_XDICTIONARY
360
338A
102
}
102
{ACAD_REACTORS
330
32BF
102
}
330
32BF
100
AcDbVisualStyle
  2
Dim
 70
    11
 71
     2
 72
     2
 73
     0
 90
        0
 40
-0.6
 41
-30.0
 62
     5
 63
     7
 74
     1
 91
        4
 64
     7
 65
   257
 75
     1
175
     1
 42
1.0
 92
        8
 66
     7
 43
1.0
 76
     1
 77
     6
 78
     2
 67
     7
 79
     5
170
     0
171
     0
290
     0
174
     0
 93
        1
 44
-50.0
173
     0
291
     1
 45
0.0
1001
ACAD
1000
AcDbSavedByObjectVersion
1070
     0
  0
VISUALSTYLE
  5
32D7
102
{ACAD_XDICTIONARY
360
33A4
102
}
102
{ACAD_REACTORS
330
32BF
102
}
330
32BF
100
AcDbVisualStyle
  2
EdgeColorOff
 70
    22
 71
     2
 72
     2
 73
     0
 90
        0
 40
-0.6
 41
-30.0
 62
     5
 63
     7
 74
     1
 91
        4
 64
     7
 65
   257
 75
     1
175
     1
 42
1.0
 92
        8
 66
     7
 43
1.0
 76
     1
 77
     6
 78
     2
 67
     7
 79
     5
170
     0
171
     0
290
     0
174
     0
 93
        1
 44
0.0
173
     0
291
     1
 45
0.0
1001
ACAD
1000
AcDbSavedByObjectVersion
1070
     0
  0
VISUALSTYLE
  5
32CE
102
{ACAD_XDICTIONARY
360
3392
102
}
102
{ACAD_REACTORS
330
32BF
102
}
330
32BF
100
AcDbVisualStyle
  2
Facepattern
 70
    15
 71
     2
 72
     2
 73
     0
 90
        0
 40
-0.6
 41
-30.0
 62
     5
 63
     7
 74
     1
 91
        4
 64
     7
 65
   257
 75
     1
175
     1
 42
1.0
 92
        8
 66
     7
 43
1.0
 76
     1
 77
     6
 78
     2
 67
     7
 79
     5
170
     0
171
     0
290
     0
174
     0
 93
        1
 44
0.0
173
     0
291
     1
 45
0.0
1001
ACAD
1000
AcDbSavedByObjectVersion
1070
     0
  0
VISUALSTYLE
  5
32C0
102
{ACAD_XDICTIONARY
360
3376
102
}
102
{ACAD_REACTORS
330
32BF
102
}
330
32BF
100
AcDbVisualStyle
  2
Flat
 70
     0
 71
     2
 72
     1
 73
     1
 90
        2
 40
-0.6
 41
30.0
 62
     5
 63
     7
 74
     0
 91
        0
 64
     7
 65
   257
 75
     1
175
     1
 42
1.0
 92
        8
 66
     7
 43
1.0
 76
     1
 77
     6
 78
     2
 67
     7
 79
     5
170
     0
171
     0
290
     0
174
     0
 93
       13
 44
0.0
173
     0
291
     1
 45
0.0
1001
ACAD
1000
AcDbSavedByObjectVersion
1070
     0
  0
VISUALSTYLE
  5
32C1
102
{ACAD_XDICTIONARY
360
3378
102
}
102
{ACAD_REACTORS
330
32BF
102
}
330
32BF
100
AcDbVisualStyle
  2
FlatWithEdges
 70
     1
 71
     2
 72
     1
 73
     1
 90
        2
 40
-0.6
 41
30.0
 62
     5
 63
     7
 74
     1
 91
        0
 64
     7
 65
   257
 75
     1
175
     1
 42
1.0
 92
        0
 66
   257
 43
1.0
 76
     1
 77
     6
 78
     2
 67
     7
 79
     5
170
     0
171
     0
290
     0
174
     0
 93
       13
 44
0.0
173
     0
291
     1
 45
0.0
1001
ACAD
1000
AcDbSavedByObjectVersion
1070
     0
  0
VISUALSTYLE
  5
32C2
102
{ACAD_XDICTIONARY
360
337A
102
}
102
{ACAD_REACTORS
330
32BF
102
}
330
32BF
100
AcDbVisualStyle
  2
Gouraud
 70
     2
 71
     2
 72
     2
 73
     1
 90
        2
 40
-0.6
 41
30.0
 62
     5
 63
     7
 74
     0
 91
        0
 64
     7
 65
   257
 75
     1
175
     1
 42
1.0
 92
        0
 66
     7
 43
1.0
 76
     1
 77
     6
 78
     2
 67
     7
 79
     5
170
     0
171
     0
290
     0
174
     0
 93
       13
 44
0.0
173
     0
291
     1
 45
0.0
1001
ACAD
1000
AcDbSavedByObjectVersion
1070
     0
  0
VISUALSTYLE
  5
32C3
102
{ACAD_XDICTIONARY
360
337C
102
}
102
{ACAD_REACTORS
330
32BF
102
}
330
32BF
100
AcDbVisualStyle
  2
GouraudWithEdges
 70
     3
 71
     2
 72
     2
 73
     1
 90
        2
 40
-0.6
 41
30.0
 62
     5
 63
     7
 74
     1
 91
        0
 64
     7
 65
   257
 75
     1
175
     1
 42
1.0
 92
        0
 66
   257
 43
1.0
 76
     1
 77
     6
 78
     2
 67
     7
 79
     5
170
     0
171
     0
290
     0
174
     0
 93
       13
 44
0.0
173
     0
291
     1
 45
0.0
1001
ACAD
1000
AcDbSavedByObjectVersion
1070
     0
  0
VISUALSTYLE
  5
32C7
102
{ACAD_XDICTIONARY
360
3384
102
}
102
{ACAD_REACTORS
330
32BF
102
}
330
32BF
100
AcDbVisualStyle
  2
Hidden
 70
     6
 71
     1
 72
     2
 73
     2
 90
        0
 40
-0.6
 41
-30.0
 62
     5
 63
     7
 74
     2
 91
        2
 64
     7
 65
   257
 75
     2
175
     1
 42
40.0
 92
        0
 66
   257
 43
1.0
 76
     1
 77
     6
 78
     2
 67
     7
 79
     3
170
     0
171
     0
290
     0
174
     0
 93
        1
 44
0.0
173
     0
291
     0
 45
0.0
1001
ACAD
1000
AcDbSavedByObjectVersion
1070
     0
  0
VISUALSTYLE
  5
32D5
102
{ACAD_XDICTIONARY
360
33A0
102
}
102
{ACAD_REACTORS
330
32BF
102
}
330
32BF
100
AcDbVisualStyle
  2
JitterOff
 70
    20
 71
     2
 72
     2
 73
     0
 90
        0
 40
-0.6
 41
-30.0
 62
     5
 63
     7
 74
     1
 91
        4
 64
     7
 65
   257
 75
     1
175
     1
 42
1.0
 92
       10
 66
     7
 43
1.0
 76
     1
 77
     6
 78
     2
 67
     7
 79
     5
170
     0
171
     0
290
     0
174
     0
 93
        1
 44
0.0
173
     0
291
     1
 45
0.0
1001
ACAD
1000
AcDbSavedByObjectVersion
1070
     0
  0
VISUALSTYLE
  5
32CD
102
{ACAD_XDICTIONARY
360
3390
102
}
102
{ACAD_REACTORS
330
32BF
102
}
330
32BF
100
AcDbVisualStyle
  2
Linepattern
 70
    14
 71
     2
 72
     2
 73
     0
 90
        0
 40
-0.6
 41
-30.0
 62
     5
 63
     7
 74
     1
 91
        4
 64
     7
 65
   257
 75
     7
175
     7
 42
1.0
 92
        8
 66
     7
 43
1.0
 76
     1
 77
     6
 78
     2
 67
     7
 79
     5
170
     0
171
     0
290
     0
174
     0
 93
        1
 44
0.0
173
     0
291
     1
 45
0.0
1001
ACAD
1000
AcDbSavedByObjectVersion
1070
     0
  0
VISUALSTYLE
  5
32D6
102
{ACAD_XDICTIONARY
360
33A2
102
}
102
{ACAD_REACTORS
330
32BF
102
}
330
32BF
100
AcDbVisualStyle
  2
OverhangOff
 70
    21
 71
     2
 72
     2
 73
     0
 90
        0
 40
-0.6
 41
-30.0
 62
     5
 63
     7
 74
     1
 91
        4
 64
     7
 65
   257
 75
     1
175
     1
 42
1.0
 92
        9
 66
     7
 43
1.0
 76
     1
 77
     6
 78
     2
 67
     7
 79
     5
170
     0
171
     0
290
     0
174
     0
 93
        1
 44
0.0
173
     0
291
     1
 45
0.0
1001
ACAD
1000
AcDbSavedByObjectVersion
1070
     0
  0
VISUALSTYLE
  5
32C9
102
{ACAD_XDICTIONARY
360
3388
102
}
102
{ACAD_REACTORS
330
32BF
102
}
330
32BF
100
AcDbVisualStyle
  2
Realistic
 70
     8
 71
     2
 72
     3
 73
     0
 90
        2
 40
-0.6
 41
30.0
 62
     5
 63
     7
 74
     0
 91
        0
 64
     7
 65
   257
 75
     1
175
     1
 42
1.0
 92
        8
 66
   257
 43
1.0
 76
     1
 77
     6
 78
     2
 67
     7
 79
     3
170
     0
171
     0
290
     0
174
     0
 93
       13
 44
0.0
173
     0
291
     0
 45
0.0
1001
ACAD
1000
AcDbSavedByObjectVersion
1070
     0
  0
VISUALSTYLE
  5
32D4
102
{ACAD_XDICTIONARY
360
339E
102
}
102
{ACAD_REACTORS
330
32BF
102
}
330
32BF
100
AcDbVisualStyle
  2
Shaded
 70
    27
 71
     2
 72
     2
 73
     1
 90
        2
 40
-0.6
 41
30.0
 62
     5
 63
     7
 74
     0
 91
        4
 64
     7
 65
   257
 75
     1
175
     1
 42
1.0
 92
        8
 66
   257
 43
1.0
 76
     1
 77
     6
 78
     2
 67
     8
 79
     3
170
     0
171
     0
290
     0
174
     0
 93
        5
 44
0.0
173
     0
291
     0
 45
0.0
1001
ACAD
1000
AcDbSavedByObjectVersion
1070
     0
  0
VISUALSTYLE
  5
32D3
102
{ACAD_XDICTIONARY
360
339C
102
}
102
{ACAD_REACTORS
330
32BF
102
}
330
32BF
100
AcDbVisualStyle
  2
Shaded with edges
 70
    26
 71
     2
 72
     2
 73
     1
 90
        2
 40
-0.6
 41
30.0
 62
     5
 63
     7
 74
     1
 91
        2
 64
     7
 65
   257
 75
     2
175
     1
 42
1.0
 92
        8
 66
   257
 43
1.0
 76
     1
 77
     6
 78
     2
 67
     7
 79
     3
170
     0
171
     0
290
     0
174
     0
 93
        5
 44
0.0
173
     0
291
     0
 45
0.0
1001
ACAD
1000
AcDbSavedByObjectVersion
1070
     0
  0
VISUALSTYLE
  5
32D0
102
{ACAD_XDICTIONARY
360
3396
102
}
102
{ACAD_REACTORS
330
32BF
102
}
330
32BF
100
AcDbVisualStyle
  2
Shades of Gray
 70
    23
 71
     2
 72
     2
 73
     3
 90
        0
 40
-0.6
 41
-30.0
 62
     5
 63
     7
 74
     2
 91
        2
 64
     7
 65
     7
 75
     1
175
     1
 42
40.0
 92
        8
 66
     7
 43
1.0
 76
     1
 77
     6
 78
     2
 67
     7
 79
     3
170
     0
171
     0
290
     0
174
     0
 93
        1
 44
0.0
173
     0
291
     0
 45
0.0
1001
ACAD
1000
AcDbSavedByObjectVersion
1070
     0
  0
VISUALSTYLE
  5
32D1
102
{ACAD_XDICTIONARY
360
3398
102
}
102
{ACAD_REACTORS
330
32BF
102
}
330
32BF
100
AcDbVisualStyle
  2
Sketchy
 70
    24
 71
     1
 72
     2
 73
     2
 90
        0
 40
-0.6
 41
-30.0
 62
     5
 63
     7
 74
     2
 91
        2
 64
     7
 65
     7
 75
     1
175
     1
 42
40.0
 92
       11
 66
     7
 43
1.0
 76
     1
 77
     6
 78
     2
 67
     7
 79
     6
170
     0
171
     0
290
     0
174
     0
 93
        1
 44
0.0
173
     0
291
     0
 45
0.0
1001
ACAD
1000
AcDbSavedByObjectVersion
1070
     0
  0
VISUALSTYLE
  5
32CC
102
{ACAD_XDICTIONARY
360
338E
102
}
102
{ACAD_REACTORS
330
32BF
102
}
330
32BF
100
AcDbVisualStyle
  2
Thicken
 70
    13
 71
     2
 72
     2
 73
     0
 90
        0
 40
-0.6
 41
-30.0
 62
     5
 63
     7
 74
     1
 91
        4
 64
     7
 65
   257
 75
     1
175
     1
 42
1.0
 92
       12
 66
     7
 43
1.0
 76
     1
 77
     6
 78
     2
 67
     7
 79
     5
170
     0
171
     0
290
     0
174
     0
 93
        1
 44
0.0
173
     0
291
     1
 45
0.0
1001
ACAD
1000
AcDbSavedByObjectVersion
1070
     0
  0
VISUALSTYLE
  5
32C6
102
{ACAD_XDICTIONARY
360
3382
102
}
102
{ACAD_REACTORS
330
32BF
102
}
330
32BF
100
AcDbVisualStyle
  2
Wireframe
 70
     5
 71
     0
 72
     2
 73
     0
 90
        0
 40
-0.6
 41
-30.0
 62
     5
 63
     7
 74
     1
 91
        4
 64
     7
 65
   257
 75
     1
175
     1
 42
1.0
 92
        0
 66
   257
 43
1.0
 76
     1
 77
     6
 78
     2
 67
     7
 79
     3
170
     0
171
     0
290
     0
174
     0
 93
        1
 44
0.0
173
     0
291
     0
 45
0.0
1001
ACAD
1000
AcDbSavedByObjectVersion
1070
     0
  0
VISUALSTYLE
  5
32D2
102
{ACAD_XDICTIONARY
360
339A
102
}
102
{ACAD_REACTORS
330
32BF
102
}
330
32BF
100
AcDbVisualStyle
  2
X-Ray
 70
    25
 71
     2
 72
     2
 73
     1
 90
        1
 40
0.5
 41
-30.0
 62
     5
 63
     7
 74
     1
 91
        0
 64
     7
 65
   257
 75
     1
175
     1
 42
1.0
 92
        8
 66
     7
 43
1.0
 76
     1
 77
     6
 78
     2
 67
     7
 79
     3
170
     0
171
     0
290
     0
174
     0
 93
       13
 44
0.0
173
     0
291
     0
 45
0.0
1001
ACAD
1000
AcDbSavedByObjectVersion
1070
     0
  0
DICTIONARYVAR
  5
3369
102
{ACAD_REACTORS
330
3364
102
}
330
3364
100
DictionaryVariables
280
     0
  1
1:1
  0
DICTIONARYVAR
  5
3366
102
{ACAD_REACTORS
330
3364
102
}
330
3364
100
DictionaryVariables
280
     0
  1
STANDARD
  0
DICTIONARYVAR
  5
3365
102
{ACAD_REACTORS
330
3364
102
}
330
3364
100
DictionaryVariables
280
     0
  1
STANDARD
  0
DICTIONARYVAR
  5
3367
102
{ACAD_REACTORS
330
3364
102
}
330
3364
100
DictionaryVariables
280
     0
  1
Imperial24
  0
DICTIONARYVAR
  5
3368
102
{ACAD_REACTORS
330
3364
102
}
330
3364
100
DictionaryVariables
280
     0
  1
Imperial24
  0
DICTIONARYVAR
  5
336C
102
{ACAD_REACTORS
330
3364
102
}
330
3364
100
DictionaryVariables
280
     0
  1
1
  0
DICTIONARYVAR
  5
336B
102
{ACAD_REACTORS
330
3364
102
}
330
3364
100
DictionaryVariables
280
     0
  1
0
  0
DICTIONARYVAR
  5
336A
102
{ACAD_REACTORS
330
3364
102
}
330
3364
100
DictionaryVariables
280
     0
  1
127
  0
DICTIONARYVAR
  5
336D
102
{ACAD_REACTORS
330
3364
102
}
330
3364
100
DictionaryVariables
280
     0
  1
2
  0
DICTIONARY
  5
33A9
330
3300
100
AcDbDictionary
280
     1
281
     1
  3
ACAD_XREC_ROUNDTRIP
360
33AA
  0
DICTIONARY
  5
33AD
330
3308
100
AcDbDictionary
280
     1
281
     1
  3
ACAD_XREC_ROUNDTRIP
360
33AE
  0
DICTIONARY
  5
33AB
330
3304
100
AcDbDictionary
280
     1
281
     1
  3
ACAD_XREC_ROUNDTRIP
360
33AC
  0
DICTIONARY
  5
32B0
330
32AF
100
AcDbDictionary
280
     1
281
     1
  3
ACAD_XREC_ROUNDTRIP
360
3374
  3
BUMPTILE
360
32B2
  3
DIFFUSETILE
360
32B1
  3
OPACITYTILE
360
32B5
  3
REFLECTIONTILE
360
32B4
  3
REFRACTIONTILE
360
32B6
  3
SPECULARTILE
360
32B3
  0
DICTIONARY
  5
32A8
330
32A7
100
AcDbDictionary
280
     1
281
     1
  3
ACAD_XREC_ROUNDTRIP
360
3373
  3
BUMPTILE
360
32AA
  3
DIFFUSETILE
360
32A9
  3
OPACITYTILE
360
32AD
  3
REFLECTIONTILE
360
32AC
  3
REFRACTIONTILE
360
32AE
  3
SPECULARTILE
360
32AB
  0
DICTIONARY
  5
32B8
330
32B7
100
AcDbDictionary
280
     1
281
     1
  3
ACAD_XREC_ROUNDTRIP
360
3375
  3
BUMPTILE
360
32BA
  3
DIFFUSETILE
360
32B9
  3
OPACITYTILE
360
32BD
  3
REFLECTIONTILE
360
32BC
  3
REFRACTIONTILE
360
32BE
  3
SPECULARTILE
360
32BB
  0
DICTIONARY
  5
33A7
330
32FE
100
AcDbDictionary
280
     1
281
     1
  3
ACAD_XREC_ROUNDTRIP
360
33A8
  0
DICTIONARY
  5
336F
330
32FA
100
AcDbDictionary
280
     1
281
     1
  3
ACAD_ROUNDTRIP_2008_TABLESTYLE_CELLSTYLEMAP
360
3370
  3
ACAD_XREC_ROUNDTRIP
360
33A6
  0
DICTIONARY
  5
3380
330
32C5
100
AcDbDictionary
280
     1
281
     1
  3
ACAD_XREC_ROUNDTRIP
360
3381
  0
DICTIONARY
  5
337E
330
32C4
100
AcDbDictionary
280
     1
281
     1
  3
ACAD_XREC_ROUNDTRIP
360
337F
  0
DICTIONARY
  5
338C
330
32CB
100
AcDbDictionary
280
     1
281
     1
  3
ACAD_XREC_ROUNDTRIP
360
338D
  0
DICTIONARY
  5
3394
330
32CF
100
AcDbDictionary
280
     1
281
     1
  3
ACAD_XREC_ROUNDTRIP
360
3395
  0
DICTIONARY
  5
3386
330
32C8
100
AcDbDictionary
280
     1
281
     1
  3
ACAD_XREC_ROUNDTRIP
360
3387
  0
DICTIONARY
  5
338A
330
32CA
100
AcDbDictionary
280
     1
281
     1
  3
ACAD_XREC_ROUNDTRIP
360
338B
  0
DICTIONARY
  5
33A4
330
32D7
100
AcDbDictionary
280
     1
281
     1
  3
ACAD_XREC_ROUNDTRIP
360
33A5
  0
DICTIONARY
  5
3392
330
32CE
100
AcDbDictionary
280
     1
281
     1
  3
ACAD_XREC_ROUNDTRIP
360
3393
  0
DICTIONARY
  5
3376
330
32C0
100
AcDbDictionary
280
     1
281
     1
  3
ACAD_XREC_ROUNDTRIP
360
3377
  0
DICTIONARY
  5
3378
330
32C1
100
AcDbDictionary
280
     1
281
     1
  3
ACAD_XREC_ROUNDTRIP
360
3379
  0
DICTIONARY
  5
337A
330
32C2
100
AcDbDictionary
280
     1
281
     1
  3
ACAD_XREC_ROUNDTRIP
360
337B
  0
DICTIONARY
  5
337C
330
32C3
100
AcDbDictionary
280
     1
281
     1
  3
ACAD_XREC_ROUNDTRIP
360
337D
  0
DICTIONARY
  5
3384
330
32C7
100
AcDbDictionary
280
     1
281
     1
  3
ACAD_XREC_ROUNDTRIP
360
3385
  0
DICTIONARY
  5
33A0
330
32D5
100
AcDbDictionary
280
     1
281
     1
  3
ACAD_XREC_ROUNDTRIP
360
33A1
  0
DICTIONARY
  5
3390
330
32CD
100
AcDbDictionary
280
     1
281
     1
  3
ACAD_XREC_ROUNDTRIP
360
3391
  0
DICTIONARY
  5
33A2
330
32D6
100
AcDbDictionary
280
     1
281
     1
  3
ACAD_XREC_ROUNDTRIP
360
33A3
  0
DICTIONARY
  5
3388
330
32C9
100
AcDbDictionary
280
     1
281
     1
  3
ACAD_XREC_ROUNDTRIP
360
3389
  0
DICTIONARY
  5
339E
330
32D4
100
AcDbDictionary
280
     1
281
     1
  3
ACAD_XREC_ROUNDTRIP
360
339F
  0
DICTIONARY
  5
339C
330
32D3
100
AcDbDictionary
280
     1
281
     1
  3
ACAD_XREC_ROUNDTRIP
360
339D
  0
DICTIONARY
  5
3396
330
32D0
100
AcDbDictionary
280
     1
281
     1
  3
ACAD_XREC_ROUNDTRIP
360
3397
  0
DICTIONARY
  5
3398
330
32D1
100
AcDbDictionary
280
     1
281
     1
  3
ACAD_XREC_ROUNDTRIP
360
3399
  0
DICTIONARY
  5
338E
330
32CC
100
AcDbDictionary
280
     1
281
     1
  3
ACAD_XREC_ROUNDTRIP
360
338F
  0
DICTIONARY
  5
3382
330
32C6
100
AcDbDictionary
280
     1
281
     1
  3
ACAD_XREC_ROUNDTRIP
360
3383
  0
DICTIONARY
  5
339A
330
32D2
100
AcDbDictionary
280
     1
281
     1
  3
ACAD_XREC_ROUNDTRIP
360
339B
  0
XRECORD
  5
33AA
102
{ACAD_REACTORS
330
33A9
102
}
330
33A9
100
AcDbXrecord
280
     1
102
DISPLAYNAME
  1
Imperial24
102
FLAGS
 90
        0
  0
XRECORD
  5
33AE
102
{ACAD_REACTORS
330
33AD
102
}
330
33AD
100
AcDbXrecord
280
     1
102
SHADEPLOT
 70
     0
102
SHADEPLOTRESLEVEL
 70
     2
102
SHADEPLOTCUSTOMDPI
 70
   300
  0
XRECORD
  5
33AC
102
{ACAD_REACTORS
330
33AB
102
}
330
33AB
100
AcDbXrecord
280
     1
102
SHADEPLOT
 70
     0
102
SHADEPLOTRESLEVEL
 70
     2
102
SHADEPLOTCUSTOMDPI
 70
   300
  0
XRECORD
  5
3374
102
{ACAD_REACTORS
330
32B0
102
}
330
32B0
100
AcDbXrecord
280
     1
102
MATERIAL
148
0.0
149
0.0
149
0.0
 93
        0
 94
      127
282
     0
 72
     0
 77
     0
171
     0
175
     0
179
     0
273
     0
  0
XRECORD
  5
32B2
102
{ACAD_REACTORS
330
32B0
102
}
330
32B0
100
AcDbXrecord
280
     1
270
     1
271
     1
  0
XRECORD
  5
32B1
102
{ACAD_REACTORS
330
32B0
102
}
330
32B0
100
AcDbXrecord
280
     1
270
     1
271
     1
  0
XRECORD
  5
32B5
102
{ACAD_REACTORS
330
32B0
102
}
330
32B0
100
AcDbXrecord
280
     1
270
     1
271
     1
  0
XRECORD
  5
32B4
102
{ACAD_REACTORS
330
32B0
102
}
330
32B0
100
AcDbXrecord
280
     1
270
     1
271
     1
  0
XRECORD
  5
32B6
102
{ACAD_REACTORS
330
32B0
102
}
330
32B0
100
AcDbXrecord
280
     1
270
     1
271
     1
  0
XRECORD
  5
32B3
102
{ACAD_REACTORS
330
32B0
102
}
330
32B0
100
AcDbXrecord
280
     1
270
     1
271
     1
  0
XRECORD
  5
3373
102
{ACAD_REACTORS
330
32A8
102
}
330
32A8
100
AcDbXrecord
280
     1
102
MATERIAL
148
0.0
149
0.0
149
0.0
 93
        0
 94
      127
282
     0
 72
     0
 77
     0
171
     0
175
     0
179
     0
273
     0
  0
XRECORD
  5
32AA
102
{ACAD_REACTORS
330
32A8
102
}
330
32A8
100
AcDbXrecord
280
     1
270
     1
271
     1
  0
XRECORD
  5
32A9
102
{ACAD_REACTORS
330
32A8
102
}
330
32A8
100
AcDbXrecord
280
     1
270
     1
271
     1
  0
XRECORD
  5
32AD
102
{ACAD_REACTORS
330
32A8
102
}
330
32A8
100
AcDbXrecord
280
     1
270
     1
271
     1
  0
XRECORD
  5
32AC
102
{ACAD_REACTORS
330
32A8
102
}
330
32A8
100
AcDbXrecord
280
     1
270
     1
271
     1
  0
XRECORD
  5
32AE
102
{ACAD_REACTORS
330
32A8
102
}
330
32A8
100
AcDbXrecord
280
     1
270
     1
271
     1
  0
XRECORD
  5
32AB
102
{ACAD_REACTORS
330
32A8
102
}
330
32A8
100
AcDbXrecord
280
     1
270
     1
271
     1
  0
XRECORD
  5
3375
102
{ACAD_REACTORS
330
32B8
102
}
330
32B8
100
AcDbXrecord
280
     1
102
MATERIAL
148
0.0
149
0.0
149
0.0
 93
        0
 94
      127
282
     0
 72
     0
 77
     0
171
     0
175
     0
179
     0
273
     0
  0
XRECORD
  5
32BA
102
{ACAD_REACTORS
330
32B8
102
}
330
32B8
100
AcDbXrecord
280
     1
270
     1
271
     1
  0
XRECORD
  5
32B9
102
{ACAD_REACTORS
330
32B8
102
}
330
32B8
100
AcDbXrecord
280
     1
270
     1
271
     1
  0
XRECORD
  5
32BD
102
{ACAD_REACTORS
330
32B8
102
}
330
32B8
100
AcDbXrecord
280
     1
270
     1
271
     1
  0
XRECORD
  5
32BC
102
{ACAD_REACTORS
330
32B8
102
}
330
32B8
100
AcDbXrecord
280
     1
270
     1
271
     1
  0
XRECORD
  5
32BE
102
{ACAD_REACTORS
330
32B8
102
}
330
32B8
100
AcDbXrecord
280
     1
270
     1
271
     1
  0
XRECORD
  5
32BB
102
{ACAD_REACTORS
330
32B8
102
}
330
32B8
100
AcDbXrecord
280
     1
270
     1
271
     1
  0
XRECORD
  5
33A8
102
{ACAD_REACTORS
330
33A7
102
}
330
33A7
100
AcDbXrecord
280
     1
102
DISPLAYNAME
  1
Imperial24
102
FLAGS
 90
        0
  0
CELLSTYLEMAP
  5
3370
102
{ACAD_REACTORS
330
336F
102
}
330
336F
100
AcDbCellStyleMap
 90
        3
300
CELLSTYLE
  1
TABLEFORMAT_BEGIN
 90
        5
170
     1
 91
        0
 92
    32768
 62
   257
 93
        1
300
CONTENTFORMAT
  1
CONTENTFORMAT_BEGIN
 90
        0
 91
        0
 92
      512
 93
        0
300

 40
0.0
140
1.0
 94
        5
 62
     0
340
32EB
144
0.25
309
CONTENTFORMAT_END
171
     0
 94
        0
309
TABLEFORMAT_END
  1
CELLSTYLE_BEGIN
 90
        1
 91
        1
300
_TITLE
309
CELLSTYLE_END
300
CELLSTYLE
  1
TABLEFORMAT_BEGIN
 90
        5
170
     1
 91
        0
 92
        0
 62
   257
 93
        1
300
CONTENTFORMAT
  1
CONTENTFORMAT_BEGIN
 90
        0
 91
        0
 92
      512
 93
        0
300

 40
0.0
140
1.0
 94
        5
 62
     0
340
32EB
144
0.18
309
CONTENTFORMAT_END
171
     0
 94
        0
309
TABLEFORMAT_END
  1
CELLSTYLE_BEGIN
 90
        2
 91
        1
300
_HEADER
309
CELLSTYLE_END
300
CELLSTYLE
  1
TABLEFORMAT_BEGIN
 90
        5
170
     1
 91
        0
 92
        0
 62
   257
 93
        1
300
CONTENTFORMAT
  1
CONTENTFORMAT_BEGIN
 90
        0
 91
        0
 92
      512
 93
        0
300

 40
0.0
140
1.0
 94
        2
 62
     0
340
32EB
144
0.18
309
CONTENTFORMAT_END
171
     0
 94
        0
309
TABLEFORMAT_END
  1
CELLSTYLE_BEGIN
 90
        3
 91
        2
300
_DATA
309
CELLSTYLE_END
  0
XRECORD
  5
33A6
102
{ACAD_REACTORS
330
336F
102
}
330
336F
100
AcDbXrecord
280
     1
102
ACAD_ROUNDTRIP_PRE2007_TABLESTYLE
 90
      512
 91
        0
  1

 92
      512
 93
        0
  2

 94
      512
 95
        0
  3

  0
XRECORD
  5
3381
102
{ACAD_REACTORS
330
3380
102
}
330
3380
100
AcDbXrecord
280
     1
102
RTVSPost2010Prop28
280
     1
102
RTVSPost2010PropOp28
 70
     1
102
RTVSPost2010Prop29
280
     1
102
RTVSPost2010PropOp29
 70
     1
102
RTVSPost2010Prop30
280
     0
102
RTVSPost2010PropOp30
 70
     1
102
RTVSPost2010Prop31
280
     0
102
RTVSPost2010PropOp31
 70
     1
102
RTVSPost2010Prop32
280
     0
102
RTVSPost2010PropOp32
 70
     1
102
RTVSPost2010Prop33
280
     0
102
RTVSPost2010PropOp33
 70
     1
102
RTVSPost2010Prop34
280
     0
102
RTVSPost2010PropOp34
 70
     1
102
RTVSPost2010Prop35
280
     0
102
RTVSPost2010PropOp35
 70
     1
102
RTVSPost2010Prop36
280
     0
102
RTVSPost2010PropOp36
 70
     1
102
RTVSPost2010Prop37
 90
       50
102
RTVSPost2010PropOp37
 70
     1
102
RTVSPost2010Prop38
140
0.0
102
RTVSPost2010PropOp38
 70
     1
102
RTVSPost2010Prop39
140
1.0
102
RTVSPost2010PropOp39
 70
     1
102
RTVSPost2010Prop40
 90
        0
102
RTVSPost2010PropOp40
 70
     1
102
RTVSPost2010Prop41ColorIndex
 90
       18
102
RTVSPost2010Prop41ColorRGB
 90
        0
102
RTVSPost2010PropOp41
 70
     1
102
RTVSPost2010Prop42
 90
       50
102
RTVSPost2010PropOp42
 70
     1
102
RTVSPost2010Prop43
 90
        3
102
RTVSPost2010PropOp43
 70
     1
102
RTVSPost2010Prop44ColorIndex
 90
        5
102
RTVSPost2010Prop44ColorRGB
 90
      255
102
RTVSPost2010PropOp44
 70
     1
102
RTVSPost2010Prop45
280
     0
102
RTVSPost2010PropOp45
 70
     1
102
RTVSPost2010Prop46
 90
       50
102
RTVSPost2010PropOp46
 70
     1
102
RTVSPost2010Prop47
 90
       50
102
RTVSPost2010PropOp47
 70
     1
102
RTVSPost2010Prop48
 90
       50
102
RTVSPost2010PropOp48
 70
     1
102
RTVSPost2010Prop49
280
     0
102
RTVSPost2010PropOp49
 70
     1
102
RTVSPost2010Prop50
 90
       50
102
RTVSPost2010PropOp50
 70
     1
102
RTVSPost2010Prop51ColorIndex
 90
      256
102
RTVSPost2010Prop51ColorRGB
 90
-16777216
102
RTVSPost2010PropOp51
 70
     0
102
RTVSPost2010Prop52
140
1.0
102
RTVSPost2010PropOp52
 70
     0
102
RTVSPost2010Prop53
 90
        2
102
RTVSPost2010PropOp53
 70
     1
102
RTVSPost2010Prop54
  1
strokes_ogs.tif
102
RTVSPost2010PropOp54
 70
     1
102
RTVSPost2010Prop55
280
     0
102
RTVSPost2010PropOp55
 70
     1
102
RTVSPost2010Prop56
140
1.0
102
RTVSPost2010PropOp56
 70
     1
102
RTVSPost2010Prop57
140
1.0
102
RTVSPost2010PropOp57
 70
     1
102
RTVSPropertyOp0
 70
     1
102
RTVSPropertyOp1
 70
     1
102
RTVSPropertyOp2
 70
     1
102
RTVSPropertyOp3
 70
     1
102
RTVSPropertyOp4
 70
     1
102
RTVSPropertyOp5
 70
     1
102
RTVSPropertyOp6
 70
     1
102
RTVSPropertyOp7
 70
     1
102
RTVSPropertyOp8
 70
     1
102
RTVSPropertyOp9
 70
     1
102
RTVSPropertyOp10
 70
     1
102
RTVSPropertyOp11
 70
     1
102
RTVSPropertyOp12
 70
     1
102
RTVSPropertyOp13
 70
     1
102
RTVSPropertyOp14
 70
     1
102
RTVSPropertyOp15
 70
     1
102
RTVSPropertyOp16
 70
     1
102
RTVSPropertyOp17
 70
     1
102
RTVSPropertyOp18
 70
     1
102
RTVSPropertyOp19
 70
     1
102
RTVSPropertyOp20
 70
     1
102
RTVSPropertyOp21
 70
     1
102
RTVSPropertyOp22
 70
     1
102
RTVSPropertyOp23
 70
     1
102
RTVSPropertyOp24
 70
     1
102
RTVSPropertyOp25
 70
     1
102
RTVSPropertyOp26
 70
     1
102
RTVSPropertyOp27
 70
     1
102
RTVSPropertyOp28
 70
     1
102
RTVSPropertyOp29
 70
     1
102
RTVSPropertyOp30
 70
     1
102
RTVSPropertyOp31
 70
     1
102
RTVSPropertyOp32
 70
     1
102
RTVSPropertyOp33
 70
     1
102
RTVSPropertyOp34
 70
     1
102
RTVSPropertyOp35
 70
     1
102
RTVSPropertyOp36
 70
     1
102
RTVSPropertyOp37
 70
     1
102
RTVSPropertyOp38
 70
     1
102
RTVSPropertyOp39
 70
     1
102
RTVSPropertyOp40
 70
     1
102
RTVSPropertyOp41
 70
     1
102
RTVSPropertyOp42
 70
     1
102
RTVSPropertyOp43
 70
     1
102
RTVSPropertyOp44
 70
     1
102
RTVSPropertyOp45
 70
     1
102
RTVSPropertyOp46
 70
     1
102
RTVSPropertyOp47
 70
     1
102
RTVSPropertyOp48
 70
     1
102
RTVSPropertyOp49
 70
     1
102
RTVSPropertyOp50
 70
     1
102
RTVSPropertyOp51
 70
     0
102
RTVSPropertyOp52
 70
     0
102
RTVSPropertyOp53
 70
     1
102
RTVSPropertyOp54
 70
     1
102
RTVSPropertyOp55
 70
     1
102
RTVSPropertyOp56
 70
     1
102
RTVSPropertyOp57
 70
     1
102
RTVSPropertyOp58
 70
     1
102
RTVSPropertyOp59
 70
     1
102
RTVSPropertyOp60
 70
     1
102
RTVSPropertyOp61
 70
     1
102
RTVSPropertyOp62
 70
     1
  0
XRECORD
  5
337F
102
{ACAD_REACTORS
330
337E
102
}
330
337E
100
AcDbXrecord
280
     1
102
RTVSPost2010Prop28
280
     0
102
RTVSPost2010PropOp28
 70
     1
102
RTVSPost2010Prop29
280
     1
102
RTVSPost2010PropOp29
 70
     1
102
RTVSPost2010Prop30
280
     1
102
RTVSPost2010PropOp30
 70
     1
102
RTVSPost2010Prop31
280
     0
102
RTVSPost2010PropOp31
 70
     1
102
RTVSPost2010Prop32
280
     0
102
RTVSPost2010PropOp32
 70
     1
102
RTVSPost2010Prop33
280
     0
102
RTVSPost2010PropOp33
 70
     1
102
RTVSPost2010Prop34
280
     0
102
RTVSPost2010PropOp34
 70
     1
102
RTVSPost2010Prop35
280
     0
102
RTVSPost2010PropOp35
 70
     1
102
RTVSPost2010Prop36
280
     0
102
RTVSPost2010PropOp36
 70
     1
102
RTVSPost2010Prop37
 90
       50
102
RTVSPost2010PropOp37
 70
     1
102
RTVSPost2010Prop38
140
0.0
102
RTVSPost2010PropOp38
 70
     1
102
RTVSPost2010Prop39
140
1.0
102
RTVSPost2010PropOp39
 70
     1
102
RTVSPost2010Prop40
 90
        0
102
RTVSPost2010PropOp40
 70
     1
102
RTVSPost2010Prop41ColorIndex
 90
       18
102
RTVSPost2010Prop41ColorRGB
 90
        0
102
RTVSPost2010PropOp41
 70
     1
102
RTVSPost2010Prop42
 90
       50
102
RTVSPost2010PropOp42
 70
     1
102
RTVSPost2010Prop43
 90
        3
102
RTVSPost2010PropOp43
 70
     1
102
RTVSPost2010Prop44ColorIndex
 90
        5
102
RTVSPost2010Prop44ColorRGB
 90
      255
102
RTVSPost2010PropOp44
 70
     1
102
RTVSPost2010Prop45
280
     0
102
RTVSPost2010PropOp45
 70
     1
102
RTVSPost2010Prop46
 90
       50
102
RTVSPost2010PropOp46
 70
     1
102
RTVSPost2010Prop47
 90
       50
102
RTVSPost2010PropOp47
 70
     1
102
RTVSPost2010Prop48
 90
       50
102
RTVSPost2010PropOp48
 70
     1
102
RTVSPost2010Prop49
280
     0
102
RTVSPost2010PropOp49
 70
     1
102
RTVSPost2010Prop50
 90
       50
102
RTVSPost2010PropOp50
 70
     1
102
RTVSPost2010Prop51ColorIndex
 90
      256
102
RTVSPost2010Prop51ColorRGB
 90
-16777216
102
RTVSPost2010PropOp51
 70
     0
102
RTVSPost2010Prop52
140
1.0
102
RTVSPost2010PropOp52
 70
     0
102
RTVSPost2010Prop53
 90
        2
102
RTVSPost2010PropOp53
 70
     1
102
RTVSPost2010Prop54
  1
strokes_ogs.tif
102
RTVSPost2010PropOp54
 70
     1
102
RTVSPost2010Prop55
280
     0
102
RTVSPost2010PropOp55
 70
     1
102
RTVSPost2010Prop56
140
1.0
102
RTVSPost2010PropOp56
 70
     1
102
RTVSPost2010Prop57
140
1.0
102
RTVSPost2010PropOp57
 70
     1
102
RTVSPropertyOp0
 70
     1
102
RTVSPropertyOp1
 70
     1
102
RTVSPropertyOp2
 70
     1
102
RTVSPropertyOp3
 70
     1
102
RTVSPropertyOp4
 70
     1
102
RTVSPropertyOp5
 70
     1
102
RTVSPropertyOp6
 70
     1
102
RTVSPropertyOp7
 70
     1
102
RTVSPropertyOp8
 70
     1
102
RTVSPropertyOp9
 70
     1
102
RTVSPropertyOp10
 70
     1
102
RTVSPropertyOp11
 70
     1
102
RTVSPropertyOp12
 70
     1
102
RTVSPropertyOp13
 70
     1
102
RTVSPropertyOp14
 70
     1
102
RTVSPropertyOp15
 70
     1
102
RTVSPropertyOp16
 70
     1
102
RTVSPropertyOp17
 70
     1
102
RTVSPropertyOp18
 70
     1
102
RTVSPropertyOp19
 70
     1
102
RTVSPropertyOp20
 70
     1
102
RTVSPropertyOp21
 70
     1
102
RTVSPropertyOp22
 70
     1
102
RTVSPropertyOp23
 70
     1
102
RTVSPropertyOp24
 70
     1
102
RTVSPropertyOp25
 70
     1
102
RTVSPropertyOp26
 70
     1
102
RTVSPropertyOp27
 70
     1
102
RTVSPropertyOp28
 70
     1
102
RTVSPropertyOp29
 70
     1
102
RTVSPropertyOp30
 70
     1
102
RTVSPropertyOp31
 70
     1
102
RTVSPropertyOp32
 70
     1
102
RTVSPropertyOp33
 70
     1
102
RTVSPropertyOp34
 70
     1
102
RTVSPropertyOp35
 70
     1
102
RTVSPropertyOp36
 70
     1
102
RTVSPropertyOp37
 70
     1
102
RTVSPropertyOp38
 70
     1
102
RTVSPropertyOp39
 70
     1
102
RTVSPropertyOp40
 70
     1
102
RTVSPropertyOp41
 70
     1
102
RTVSPropertyOp42
 70
     1
102
RTVSPropertyOp43
 70
     1
102
RTVSPropertyOp44
 70
     1
102
RTVSPropertyOp45
 70
     1
102
RTVSPropertyOp46
 70
     1
102
RTVSPropertyOp47
 70
     1
102
RTVSPropertyOp48
 70
     1
102
RTVSPropertyOp49
 70
     1
102
RTVSPropertyOp50
 70
     1
102
RTVSPropertyOp51
 70
     0
102
RTVSPropertyOp52
 70
     0
102
RTVSPropertyOp53
 70
     1
102
RTVSPropertyOp54
 70
     1
102
RTVSPropertyOp55
 70
     1
102
RTVSPropertyOp56
 70
     1
102
RTVSPropertyOp57
 70
     1
102
RTVSPropertyOp58
 70
     1
102
RTVSPropertyOp59
 70
     1
102
RTVSPropertyOp60
 70
     1
102
RTVSPropertyOp61
 70
     1
102
RTVSPropertyOp62
 70
     1
  0
XRECORD
  5
338D
102
{ACAD_REACTORS
330
338C
102
}
330
338C
100
AcDbXrecord
280
     1
102
RTVSPost2010Prop28
280
     0
102
RTVSPost2010PropOp28
 70
     1
102
RTVSPost2010Prop29
280
     1
102
RTVSPost2010PropOp29
 70
     1
102
RTVSPost2010Prop30
280
     1
102
RTVSPost2010PropOp30
 70
     1
102
RTVSPost2010Prop31
280
     0
102
RTVSPost2010PropOp31
 70
     1
102
RTVSPost2010Prop32
280
     0
102
RTVSPost2010PropOp32
 70
     1
102
RTVSPost2010Prop33
280
     0
102
RTVSPost2010PropOp33
 70
     1
102
RTVSPost2010Prop34
280
     0
102
RTVSPost2010PropOp34
 70
     1
102
RTVSPost2010Prop35
280
     0
102
RTVSPost2010PropOp35
 70
     1
102
RTVSPost2010Prop36
280
     0
102
RTVSPost2010PropOp36
 70
     1
102
RTVSPost2010Prop37
 90
       50
102
RTVSPost2010PropOp37
 70
     1
102
RTVSPost2010Prop38
140
0.0
102
RTVSPost2010PropOp38
 70
     1
102
RTVSPost2010Prop39
140
1.0
102
RTVSPost2010PropOp39
 70
     1
102
RTVSPost2010Prop40
 90
        0
102
RTVSPost2010PropOp40
 70
     1
102
RTVSPost2010Prop41ColorIndex
 90
       18
102
RTVSPost2010Prop41ColorRGB
 90
        0
102
RTVSPost2010PropOp41
 70
     1
102
RTVSPost2010Prop42
 90
       50
102
RTVSPost2010PropOp42
 70
     1
102
RTVSPost2010Prop43
 90
        3
102
RTVSPost2010PropOp43
 70
     1
102
RTVSPost2010Prop44ColorIndex
 90
        5
102
RTVSPost2010Prop44ColorRGB
 90
      255
102
RTVSPost2010PropOp44
 70
     1
102
RTVSPost2010Prop45
280
     0
102
RTVSPost2010PropOp45
 70
     1
102
RTVSPost2010Prop46
 90
       50
102
RTVSPost2010PropOp46
 70
     1
102
RTVSPost2010Prop47
 90
       50
102
RTVSPost2010PropOp47
 70
     1
102
RTVSPost2010Prop48
 90
       50
102
RTVSPost2010PropOp48
 70
     1
102
RTVSPost2010Prop49
280
     0
102
RTVSPost2010PropOp49
 70
     1
102
RTVSPost2010Prop50
 90
       50
102
RTVSPost2010PropOp50
 70
     1
102
RTVSPost2010Prop51ColorIndex
 90
      256
102
RTVSPost2010Prop51ColorRGB
 90
-16777216
102
RTVSPost2010PropOp51
 70
     0
102
RTVSPost2010Prop52
140
1.0
102
RTVSPost2010PropOp52
 70
     0
102
RTVSPost2010Prop53
 90
        2
102
RTVSPost2010PropOp53
 70
     1
102
RTVSPost2010Prop54
  1
strokes_ogs.tif
102
RTVSPost2010PropOp54
 70
     1
102
RTVSPost2010Prop55
280
     0
102
RTVSPost2010PropOp55
 70
     1
102
RTVSPost2010Prop56
140
1.0
102
RTVSPost2010PropOp56
 70
     1
102
RTVSPost2010Prop57
140
1.0
102
RTVSPost2010PropOp57
 70
     1
102
RTVSPropertyOp0
 70
     1
102
RTVSPropertyOp1
 70
     1
102
RTVSPropertyOp2
 70
     1
102
RTVSPropertyOp3
 70
     1
102
RTVSPropertyOp4
 70
     1
102
RTVSPropertyOp5
 70
     1
102
RTVSPropertyOp6
 70
     1
102
RTVSPropertyOp7
 70
     1
102
RTVSPropertyOp8
 70
     1
102
RTVSPropertyOp9
 70
     1
102
RTVSPropertyOp10
 70
     1
102
RTVSPropertyOp11
 70
     1
102
RTVSPropertyOp12
 70
     1
102
RTVSPropertyOp13
 70
     1
102
RTVSPropertyOp14
 70
     1
102
RTVSPropertyOp15
 70
     1
102
RTVSPropertyOp16
 70
     1
102
RTVSPropertyOp17
 70
     1
102
RTVSPropertyOp18
 70
     1
102
RTVSPropertyOp19
 70
     1
102
RTVSPropertyOp20
 70
     1
102
RTVSPropertyOp21
 70
     1
102
RTVSPropertyOp22
 70
     1
102
RTVSPropertyOp23
 70
     1
102
RTVSPropertyOp24
 70
     1
102
RTVSPropertyOp25
 70
     1
102
RTVSPropertyOp26
 70
     1
102
RTVSPropertyOp27
 70
     1
102
RTVSPropertyOp28
 70
     1
102
RTVSPropertyOp29
 70
     1
102
RTVSPropertyOp30
 70
     1
102
RTVSPropertyOp31
 70
     1
102
RTVSPropertyOp32
 70
     1
102
RTVSPropertyOp33
 70
     1
102
RTVSPropertyOp34
 70
     1
102
RTVSPropertyOp35
 70
     1
102
RTVSPropertyOp36
 70
     1
102
RTVSPropertyOp37
 70
     1
102
RTVSPropertyOp38
 70
     1
102
RTVSPropertyOp39
 70
     1
102
RTVSPropertyOp40
 70
     1
102
RTVSPropertyOp41
 70
     1
102
RTVSPropertyOp42
 70
     1
102
RTVSPropertyOp43
 70
     1
102
RTVSPropertyOp44
 70
     1
102
RTVSPropertyOp45
 70
     1
102
RTVSPropertyOp46
 70
     1
102
RTVSPropertyOp47
 70
     1
102
RTVSPropertyOp48
 70
     1
102
RTVSPropertyOp49
 70
     1
102
RTVSPropertyOp50
 70
     1
102
RTVSPropertyOp51
 70
     0
102
RTVSPropertyOp52
 70
     0
102
RTVSPropertyOp53
 70
     1
102
RTVSPropertyOp54
 70
     1
102
RTVSPropertyOp55
 70
     1
102
RTVSPropertyOp56
 70
     1
102
RTVSPropertyOp57
 70
     1
102
RTVSPropertyOp58
 70
     1
102
RTVSPropertyOp59
 70
     1
102
RTVSPropertyOp60
 70
     1
102
RTVSPropertyOp61
 70
     1
102
RTVSPropertyOp62
 70
     1
  0
XRECORD
  5
3395
102
{ACAD_REACTORS
330
3394
102
}
330
3394
100
AcDbXrecord
280
     1
102
RTVSPost2010Prop28
280
     0
102
RTVSPost2010PropOp28
 70
     1
102
RTVSPost2010Prop29
280
     1
102
RTVSPost2010PropOp29
 70
     1
102
RTVSPost2010Prop30
280
     1
102
RTVSPost2010PropOp30
 70
     1
102
RTVSPost2010Prop31
280
     0
102
RTVSPost2010PropOp31
 70
     1
102
RTVSPost2010Prop32
280
     0
102
RTVSPost2010PropOp32
 70
     1
102
RTVSPost2010Prop33
280
     0
102
RTVSPost2010PropOp33
 70
     1
102
RTVSPost2010Prop34
280
     0
102
RTVSPost2010PropOp34
 70
     1
102
RTVSPost2010Prop35
280
     0
102
RTVSPost2010PropOp35
 70
     1
102
RTVSPost2010Prop36
280
     0
102
RTVSPost2010PropOp36
 70
     1
102
RTVSPost2010Prop37
 90
       50
102
RTVSPost2010PropOp37
 70
     1
102
RTVSPost2010Prop38
140
0.0
102
RTVSPost2010PropOp38
 70
     1
102
RTVSPost2010Prop39
140
1.0
102
RTVSPost2010PropOp39
 70
     1
102
RTVSPost2010Prop40
 90
        0
102
RTVSPost2010PropOp40
 70
     1
102
RTVSPost2010Prop41ColorIndex
 90
       18
102
RTVSPost2010Prop41ColorRGB
 90
        0
102
RTVSPost2010PropOp41
 70
     1
102
RTVSPost2010Prop42
 90
       50
102
RTVSPost2010PropOp42
 70
     1
102
RTVSPost2010Prop43
 90
        3
102
RTVSPost2010PropOp43
 70
     1
102
RTVSPost2010Prop44ColorIndex
 90
        5
102
RTVSPost2010Prop44ColorRGB
 90
      255
102
RTVSPost2010PropOp44
 70
     1
102
RTVSPost2010Prop45
280
     0
102
RTVSPost2010PropOp45
 70
     1
102
RTVSPost2010Prop46
 90
       50
102
RTVSPost2010PropOp46
 70
     1
102
RTVSPost2010Prop47
 90
       50
102
RTVSPost2010PropOp47
 70
     1
102
RTVSPost2010Prop48
 90
       50
102
RTVSPost2010PropOp48
 70
     1
102
RTVSPost2010Prop49
280
     0
102
RTVSPost2010PropOp49
 70
     1
102
RTVSPost2010Prop50
 90
       50
102
RTVSPost2010PropOp50
 70
     1
102
RTVSPost2010Prop51ColorIndex
 90
      256
102
RTVSPost2010Prop51ColorRGB
 90
-16777216
102
RTVSPost2010PropOp51
 70
     0
102
RTVSPost2010Prop52
140
1.0
102
RTVSPost2010PropOp52
 70
     0
102
RTVSPost2010Prop53
 90
        2
102
RTVSPost2010PropOp53
 70
     1
102
RTVSPost2010Prop54
  1
strokes_ogs.tif
102
RTVSPost2010PropOp54
 70
     1
102
RTVSPost2010Prop55
280
     0
102
RTVSPost2010PropOp55
 70
     1
102
RTVSPost2010Prop56
140
1.0
102
RTVSPost2010PropOp56
 70
     1
102
RTVSPost2010Prop57
140
1.0
102
RTVSPost2010PropOp57
 70
     1
102
RTVSPropertyOp0
 70
     1
102
RTVSPropertyOp1
 70
     1
102
RTVSPropertyOp2
 70
     1
102
RTVSPropertyOp3
 70
     1
102
RTVSPropertyOp4
 70
     1
102
RTVSPropertyOp5
 70
     1
102
RTVSPropertyOp6
 70
     1
102
RTVSPropertyOp7
 70
     1
102
RTVSPropertyOp8
 70
     1
102
RTVSPropertyOp9
 70
     1
102
RTVSPropertyOp10
 70
     1
102
RTVSPropertyOp11
 70
     1
102
RTVSPropertyOp12
 70
     1
102
RTVSPropertyOp13
 70
     1
102
RTVSPropertyOp14
 70
     1
102
RTVSPropertyOp15
 70
     1
102
RTVSPropertyOp16
 70
     1
102
RTVSPropertyOp17
 70
     1
102
RTVSPropertyOp18
 70
     1
102
RTVSPropertyOp19
 70
     1
102
RTVSPropertyOp20
 70
     1
102
RTVSPropertyOp21
 70
     1
102
RTVSPropertyOp22
 70
     1
102
RTVSPropertyOp23
 70
     1
102
RTVSPropertyOp24
 70
     1
102
RTVSPropertyOp25
 70
     1
102
RTVSPropertyOp26
 70
     1
102
RTVSPropertyOp27
 70
     1
102
RTVSPropertyOp28
 70
     1
102
RTVSPropertyOp29
 70
     1
102
RTVSPropertyOp30
 70
     1
102
RTVSPropertyOp31
 70
     1
102
RTVSPropertyOp32
 70
     1
102
RTVSPropertyOp33
 70
     1
102
RTVSPropertyOp34
 70
     1
102
RTVSPropertyOp35
 70
     1
102
RTVSPropertyOp36
 70
     1
102
RTVSPropertyOp37
 70
     1
102
RTVSPropertyOp38
 70
     1
102
RTVSPropertyOp39
 70
     1
102
RTVSPropertyOp40
 70
     1
102
RTVSPropertyOp41
 70
     1
102
RTVSPropertyOp42
 70
     1
102
RTVSPropertyOp43
 70
     1
102
RTVSPropertyOp44
 70
     1
102
RTVSPropertyOp45
 70
     1
102
RTVSPropertyOp46
 70
     1
102
RTVSPropertyOp47
 70
     1
102
RTVSPropertyOp48
 70
     1
102
RTVSPropertyOp49
 70
     1
102
RTVSPropertyOp50
 70
     1
102
RTVSPropertyOp51
 70
     0
102
RTVSPropertyOp52
 70
     0
102
RTVSPropertyOp53
 70
     1
102
RTVSPropertyOp54
 70
     1
102
RTVSPropertyOp55
 70
     1
102
RTVSPropertyOp56
 70
     1
102
RTVSPropertyOp57
 70
     1
102
RTVSPropertyOp58
 70
     1
102
RTVSPropertyOp59
 70
     1
102
RTVSPropertyOp60
 70
     1
102
RTVSPropertyOp61
 70
     1
102
RTVSPropertyOp62
 70
     1
  0
XRECORD
  5
3387
102
{ACAD_REACTORS
330
3386
102
}
330
3386
100
AcDbXrecord
280
     1
102
RTVSPost2010Prop28
280
     0
102
RTVSPost2010PropOp28
 70
     1
102
RTVSPost2010Prop29
280
     1
102
RTVSPost2010PropOp29
 70
     1
102
RTVSPost2010Prop30
280
     1
102
RTVSPost2010PropOp30
 70
     1
102
RTVSPost2010Prop31
280
     0
102
RTVSPost2010PropOp31
 70
     1
102
RTVSPost2010Prop32
280
     0
102
RTVSPost2010PropOp32
 70
     1
102
RTVSPost2010Prop33
280
     0
102
RTVSPost2010PropOp33
 70
     1
102
RTVSPost2010Prop34
280
     0
102
RTVSPost2010PropOp34
 70
     1
102
RTVSPost2010Prop35
280
     0
102
RTVSPost2010PropOp35
 70
     1
102
RTVSPost2010Prop36
280
     0
102
RTVSPost2010PropOp36
 70
     1
102
RTVSPost2010Prop37
 90
       50
102
RTVSPost2010PropOp37
 70
     1
102
RTVSPost2010Prop38
140
0.0
102
RTVSPost2010PropOp38
 70
     1
102
RTVSPost2010Prop39
140
1.0
102
RTVSPost2010PropOp39
 70
     1
102
RTVSPost2010Prop40
 90
        0
102
RTVSPost2010PropOp40
 70
     1
102
RTVSPost2010Prop41ColorIndex
 90
       18
102
RTVSPost2010Prop41ColorRGB
 90
        0
102
RTVSPost2010PropOp41
 70
     1
102
RTVSPost2010Prop42
 90
       50
102
RTVSPost2010PropOp42
 70
     1
102
RTVSPost2010Prop43
 90
        3
102
RTVSPost2010PropOp43
 70
     1
102
RTVSPost2010Prop44ColorIndex
 90
        5
102
RTVSPost2010Prop44ColorRGB
 90
      255
102
RTVSPost2010PropOp44
 70
     1
102
RTVSPost2010Prop45
280
     0
102
RTVSPost2010PropOp45
 70
     1
102
RTVSPost2010Prop46
 90
       50
102
RTVSPost2010PropOp46
 70
     1
102
RTVSPost2010Prop47
 90
       50
102
RTVSPost2010PropOp47
 70
     1
102
RTVSPost2010Prop48
 90
       50
102
RTVSPost2010PropOp48
 70
     1
102
RTVSPost2010Prop49
280
     0
102
RTVSPost2010PropOp49
 70
     1
102
RTVSPost2010Prop50
 90
       50
102
RTVSPost2010PropOp50
 70
     1
102
RTVSPost2010Prop51ColorIndex
 90
      256
102
RTVSPost2010Prop51ColorRGB
 90
-16777216
102
RTVSPost2010PropOp51
 70
     0
102
RTVSPost2010Prop52
140
1.0
102
RTVSPost2010PropOp52
 70
     0
102
RTVSPost2010Prop53
 90
        2
102
RTVSPost2010PropOp53
 70
     1
102
RTVSPost2010Prop54
  1
strokes_ogs.tif
102
RTVSPost2010PropOp54
 70
     1
102
RTVSPost2010Prop55
280
     0
102
RTVSPost2010PropOp55
 70
     1
102
RTVSPost2010Prop56
140
1.0
102
RTVSPost2010PropOp56
 70
     1
102
RTVSPost2010Prop57
140
1.0
102
RTVSPost2010PropOp57
 70
     1
102
RTVSPropertyOp0
 70
     1
102
RTVSPropertyOp1
 70
     1
102
RTVSPropertyOp2
 70
     1
102
RTVSPropertyOp3
 70
     1
102
RTVSPropertyOp4
 70
     1
102
RTVSPropertyOp5
 70
     1
102
RTVSPropertyOp6
 70
     1
102
RTVSPropertyOp7
 70
     1
102
RTVSPropertyOp8
 70
     1
102
RTVSPropertyOp9
 70
     1
102
RTVSPropertyOp10
 70
     1
102
RTVSPropertyOp11
 70
     1
102
RTVSPropertyOp12
 70
     1
102
RTVSPropertyOp13
 70
     1
102
RTVSPropertyOp14
 70
     1
102
RTVSPropertyOp15
 70
     1
102
RTVSPropertyOp16
 70
     1
102
RTVSPropertyOp17
 70
     1
102
RTVSPropertyOp18
 70
     1
102
RTVSPropertyOp19
 70
     1
102
RTVSPropertyOp20
 70
     1
102
RTVSPropertyOp21
 70
     1
102
RTVSPropertyOp22
 70
     1
102
RTVSPropertyOp23
 70
     1
102
RTVSPropertyOp24
 70
     1
102
RTVSPropertyOp25
 70
     1
102
RTVSPropertyOp26
 70
     1
102
RTVSPropertyOp27
 70
     1
102
RTVSPropertyOp28
 70
     1
102
RTVSPropertyOp29
 70
     1
102
RTVSPropertyOp30
 70
     1
102
RTVSPropertyOp31
 70
     1
102
RTVSPropertyOp32
 70
     1
102
RTVSPropertyOp33
 70
     1
102
RTVSPropertyOp34
 70
     1
102
RTVSPropertyOp35
 70
     1
102
RTVSPropertyOp36
 70
     1
102
RTVSPropertyOp37
 70
     1
102
RTVSPropertyOp38
 70
     1
102
RTVSPropertyOp39
 70
     1
102
RTVSPropertyOp40
 70
     1
102
RTVSPropertyOp41
 70
     1
102
RTVSPropertyOp42
 70
     1
102
RTVSPropertyOp43
 70
     1
102
RTVSPropertyOp44
 70
     1
102
RTVSPropertyOp45
 70
     1
102
RTVSPropertyOp46
 70
     1
102
RTVSPropertyOp47
 70
     1
102
RTVSPropertyOp48
 70
     1
102
RTVSPropertyOp49
 70
     1
102
RTVSPropertyOp50
 70
     1
102
RTVSPropertyOp51
 70
     0
102
RTVSPropertyOp52
 70
     0
102
RTVSPropertyOp53
 70
     1
102
RTVSPropertyOp54
 70
     1
102
RTVSPropertyOp55
 70
     1
102
RTVSPropertyOp56
 70
     1
102
RTVSPropertyOp57
 70
     1
102
RTVSPropertyOp58
 70
     1
102
RTVSPropertyOp59
 70
     1
102
RTVSPropertyOp60
 70
     1
102
RTVSPropertyOp61
 70
     1
102
RTVSPropertyOp62
 70
     1
  0
XRECORD
  5
338B
102
{ACAD_REACTORS
330
338A
102
}
330
338A
100
AcDbXrecord
280
     1
102
RTVSPost2010Prop28
280
     0
102
RTVSPost2010PropOp28
 70
     1
102
RTVSPost2010Prop29
280
     1
102
RTVSPost2010PropOp29
 70
     1
102
RTVSPost2010Prop30
280
     1
102
RTVSPost2010PropOp30
 70
     1
102
RTVSPost2010Prop31
280
     0
102
RTVSPost2010PropOp31
 70
     1
102
RTVSPost2010Prop32
280
     0
102
RTVSPost2010PropOp32
 70
     1
102
RTVSPost2010Prop33
280
     0
102
RTVSPost2010PropOp33
 70
     1
102
RTVSPost2010Prop34
280
     0
102
RTVSPost2010PropOp34
 70
     1
102
RTVSPost2010Prop35
280
     0
102
RTVSPost2010PropOp35
 70
     1
102
RTVSPost2010Prop36
280
     0
102
RTVSPost2010PropOp36
 70
     1
102
RTVSPost2010Prop37
 90
       50
102
RTVSPost2010PropOp37
 70
     1
102
RTVSPost2010Prop38
140
0.0
102
RTVSPost2010PropOp38
 70
     1
102
RTVSPost2010Prop39
140
1.0
102
RTVSPost2010PropOp39
 70
     1
102
RTVSPost2010Prop40
 90
        0
102
RTVSPost2010PropOp40
 70
     1
102
RTVSPost2010Prop41ColorIndex
 90
       18
102
RTVSPost2010Prop41ColorRGB
 90
        0
102
RTVSPost2010PropOp41
 70
     1
102
RTVSPost2010Prop42
 90
       50
102
RTVSPost2010PropOp42
 70
     1
102
RTVSPost2010Prop43
 90
        3
102
RTVSPost2010PropOp43
 70
     1
102
RTVSPost2010Prop44ColorIndex
 90
        5
102
RTVSPost2010Prop44ColorRGB
 90
      255
102
RTVSPost2010PropOp44
 70
     1
102
RTVSPost2010Prop45
280
     0
102
RTVSPost2010PropOp45
 70
     1
102
RTVSPost2010Prop46
 90
       50
102
RTVSPost2010PropOp46
 70
     1
102
RTVSPost2010Prop47
 90
       50
102
RTVSPost2010PropOp47
 70
     1
102
RTVSPost2010Prop48
 90
       50
102
RTVSPost2010PropOp48
 70
     1
102
RTVSPost2010Prop49
280
     0
102
RTVSPost2010PropOp49
 70
     1
102
RTVSPost2010Prop50
 90
       50
102
RTVSPost2010PropOp50
 70
     1
102
RTVSPost2010Prop51ColorIndex
 90
      256
102
RTVSPost2010Prop51ColorRGB
 90
-16777216
102
RTVSPost2010PropOp51
 70
     0
102
RTVSPost2010Prop52
140
1.0
102
RTVSPost2010PropOp52
 70
     0
102
RTVSPost2010Prop53
 90
        2
102
RTVSPost2010PropOp53
 70
     1
102
RTVSPost2010Prop54
  1
strokes_ogs.tif
102
RTVSPost2010PropOp54
 70
     1
102
RTVSPost2010Prop55
280
     0
102
RTVSPost2010PropOp55
 70
     1
102
RTVSPost2010Prop56
140
1.0
102
RTVSPost2010PropOp56
 70
     1
102
RTVSPost2010Prop57
140
1.0
102
RTVSPost2010PropOp57
 70
     1
102
RTVSPropertyOp0
 70
     1
102
RTVSPropertyOp1
 70
     1
102
RTVSPropertyOp2
 70
     1
102
RTVSPropertyOp3
 70
     1
102
RTVSPropertyOp4
 70
     1
102
RTVSPropertyOp5
 70
     1
102
RTVSPropertyOp6
 70
     1
102
RTVSPropertyOp7
 70
     1
102
RTVSPropertyOp8
 70
     1
102
RTVSPropertyOp9
 70
     1
102
RTVSPropertyOp10
 70
     1
102
RTVSPropertyOp11
 70
     1
102
RTVSPropertyOp12
 70
     1
102
RTVSPropertyOp13
 70
     1
102
RTVSPropertyOp14
 70
     1
102
RTVSPropertyOp15
 70
     1
102
RTVSPropertyOp16
 70
     1
102
RTVSPropertyOp17
 70
     1
102
RTVSPropertyOp18
 70
     1
102
RTVSPropertyOp19
 70
     1
102
RTVSPropertyOp20
 70
     1
102
RTVSPropertyOp21
 70
     1
102
RTVSPropertyOp22
 70
     1
102
RTVSPropertyOp23
 70
     1
102
RTVSPropertyOp24
 70
     1
102
RTVSPropertyOp25
 70
     1
102
RTVSPropertyOp26
 70
     1
102
RTVSPropertyOp27
 70
     1
102
RTVSPropertyOp28
 70
     1
102
RTVSPropertyOp29
 70
     1
102
RTVSPropertyOp30
 70
     1
102
RTVSPropertyOp31
 70
     1
102
RTVSPropertyOp32
 70
     1
102
RTVSPropertyOp33
 70
     1
102
RTVSPropertyOp34
 70
     1
102
RTVSPropertyOp35
 70
     1
102
RTVSPropertyOp36
 70
     1
102
RTVSPropertyOp37
 70
     1
102
RTVSPropertyOp38
 70
     1
102
RTVSPropertyOp39
 70
     1
102
RTVSPropertyOp40
 70
     1
102
RTVSPropertyOp41
 70
     1
102
RTVSPropertyOp42
 70
     1
102
RTVSPropertyOp43
 70
     1
102
RTVSPropertyOp44
 70
     1
102
RTVSPropertyOp45
 70
     1
102
RTVSPropertyOp46
 70
     1
102
RTVSPropertyOp47
 70
     1
102
RTVSPropertyOp48
 70
     1
102
RTVSPropertyOp49
 70
     1
102
RTVSPropertyOp50
 70
     1
102
RTVSPropertyOp51
 70
     0
102
RTVSPropertyOp52
 70
     0
102
RTVSPropertyOp53
 70
     1
102
RTVSPropertyOp54
 70
     1
102
RTVSPropertyOp55
 70
     1
102
RTVSPropertyOp56
 70
     1
102
RTVSPropertyOp57
 70
     1
102
RTVSPropertyOp58
 70
     1
102
RTVSPropertyOp59
 70
     1
102
RTVSPropertyOp60
 70
     1
102
RTVSPropertyOp61
 70
     1
102
RTVSPropertyOp62
 70
     1
  0
XRECORD
  5
33A5
102
{ACAD_REACTORS
330
33A4
102
}
330
33A4
100
AcDbXrecord
280
     1
102
RTVSPost2010Prop28
280
     0
102
RTVSPost2010PropOp28
 70
     1
102
RTVSPost2010Prop29
280
     1
102
RTVSPost2010PropOp29
 70
     1
102
RTVSPost2010Prop30
280
     1
102
RTVSPost2010PropOp30
 70
     1
102
RTVSPost2010Prop31
280
     0
102
RTVSPost2010PropOp31
 70
     1
102
RTVSPost2010Prop32
280
     0
102
RTVSPost2010PropOp32
 70
     1
102
RTVSPost2010Prop33
280
     0
102
RTVSPost2010PropOp33
 70
     1
102
RTVSPost2010Prop34
280
     0
102
RTVSPost2010PropOp34
 70
     1
102
RTVSPost2010Prop35
280
     0
102
RTVSPost2010PropOp35
 70
     1
102
RTVSPost2010Prop36
280
     0
102
RTVSPost2010PropOp36
 70
     1
102
RTVSPost2010Prop37
 90
       50
102
RTVSPost2010PropOp37
 70
     0
102
RTVSPost2010Prop38
140
0.0
102
RTVSPost2010PropOp38
 70
     0
102
RTVSPost2010Prop39
140
1.0
102
RTVSPost2010PropOp39
 70
     0
102
RTVSPost2010Prop40
 90
        0
102
RTVSPost2010PropOp40
 70
     0
102
RTVSPost2010Prop41ColorIndex
 90
       18
102
RTVSPost2010Prop41ColorRGB
 90
        0
102
RTVSPost2010PropOp41
 70
     0
102
RTVSPost2010Prop42
 90
       50
102
RTVSPost2010PropOp42
 70
     0
102
RTVSPost2010Prop43
 90
        3
102
RTVSPost2010PropOp43
 70
     0
102
RTVSPost2010Prop44ColorIndex
 90
        5
102
RTVSPost2010Prop44ColorRGB
 90
      255
102
RTVSPost2010PropOp44
 70
     0
102
RTVSPost2010Prop45
280
     0
102
RTVSPost2010PropOp45
 70
     1
102
RTVSPost2010Prop46
 90
       50
102
RTVSPost2010PropOp46
 70
     0
102
RTVSPost2010Prop47
 90
       50
102
RTVSPost2010PropOp47
 70
     0
102
RTVSPost2010Prop48
 90
       50
102
RTVSPost2010PropOp48
 70
     0
102
RTVSPost2010Prop49
280
     0
102
RTVSPost2010PropOp49
 70
     1
102
RTVSPost2010Prop50
 90
       50
102
RTVSPost2010PropOp50
 70
     0
102
RTVSPost2010Prop51ColorIndex
 90
      256
102
RTVSPost2010Prop51ColorRGB
 90
-16777216
102
RTVSPost2010PropOp51
 70
     0
102
RTVSPost2010Prop52
140
1.0
102
RTVSPost2010PropOp52
 70
     0
102
RTVSPost2010Prop53
 90
        2
102
RTVSPost2010PropOp53
 70
     0
102
RTVSPost2010Prop54
  1
strokes_ogs.tif
102
RTVSPost2010PropOp54
 70
     0
102
RTVSPost2010Prop55
280
     0
102
RTVSPost2010PropOp55
 70
     1
102
RTVSPost2010Prop56
140
1.0
102
RTVSPost2010PropOp56
 70
     0
102
RTVSPost2010Prop57
140
1.0
102
RTVSPost2010PropOp57
 70
     0
102
RTVSPropertyOp0
 70
     0
102
RTVSPropertyOp1
 70
     0
102
RTVSPropertyOp2
 70
     0
102
RTVSPropertyOp3
 70
     0
102
RTVSPropertyOp4
 70
     0
102
RTVSPropertyOp5
 70
     0
102
RTVSPropertyOp6
 70
     0
102
RTVSPropertyOp7
 70
     0
102
RTVSPropertyOp8
 70
     0
102
RTVSPropertyOp9
 70
     0
102
RTVSPropertyOp10
 70
     0
102
RTVSPropertyOp11
 70
     0
102
RTVSPropertyOp12
 70
     0
102
RTVSPropertyOp13
 70
     0
102
RTVSPropertyOp14
 70
     2
102
RTVSPropertyOp15
 70
     0
102
RTVSPropertyOp16
 70
     0
102
RTVSPropertyOp17
 70
     0
102
RTVSPropertyOp18
 70
     0
102
RTVSPropertyOp19
 70
     0
102
RTVSPropertyOp20
 70
     0
102
RTVSPropertyOp21
 70
     0
102
RTVSPropertyOp22
 70
     0
102
RTVSPropertyOp23
 70
     0
102
RTVSPropertyOp24
 70
     0
102
RTVSPropertyOp25
 70
     0
102
RTVSPropertyOp26
 70
     0
102
RTVSPropertyOp27
 70
     0
102
RTVSPropertyOp28
 70
     1
102
RTVSPropertyOp29
 70
     1
102
RTVSPropertyOp30
 70
     1
102
RTVSPropertyOp31
 70
     1
102
RTVSPropertyOp32
 70
     1
102
RTVSPropertyOp33
 70
     1
102
RTVSPropertyOp34
 70
     1
102
RTVSPropertyOp35
 70
     1
102
RTVSPropertyOp36
 70
     1
102
RTVSPropertyOp37
 70
     0
102
RTVSPropertyOp38
 70
     0
102
RTVSPropertyOp39
 70
     0
102
RTVSPropertyOp40
 70
     0
102
RTVSPropertyOp41
 70
     0
102
RTVSPropertyOp42
 70
     0
102
RTVSPropertyOp43
 70
     0
102
RTVSPropertyOp44
 70
     0
102
RTVSPropertyOp45
 70
     1
102
RTVSPropertyOp46
 70
     0
102
RTVSPropertyOp47
 70
     0
102
RTVSPropertyOp48
 70
     0
102
RTVSPropertyOp49
 70
     1
102
RTVSPropertyOp50
 70
     0
102
RTVSPropertyOp51
 70
     0
102
RTVSPropertyOp52
 70
     0
102
RTVSPropertyOp53
 70
     0
102
RTVSPropertyOp54
 70
     0
102
RTVSPropertyOp55
 70
     1
102
RTVSPropertyOp56
 70
     0
102
RTVSPropertyOp57
 70
     0
102
RTVSPropertyOp58
 70
     0
102
RTVSPropertyOp59
 70
     0
102
RTVSPropertyOp60
 70
     0
102
RTVSPropertyOp61
 70
     0
102
RTVSPropertyOp62
 70
     0
  0
XRECORD
  5
3393
102
{ACAD_REACTORS
330
3392
102
}
330
3392
100
AcDbXrecord
280
     1
102
RTVSPost2010Prop28
280
     0
102
RTVSPost2010PropOp28
 70
     1
102
RTVSPost2010Prop29
280
     1
102
RTVSPost2010PropOp29
 70
     1
102
RTVSPost2010Prop30
280
     1
102
RTVSPost2010PropOp30
 70
     1
102
RTVSPost2010Prop31
280
     0
102
RTVSPost2010PropOp31
 70
     1
102
RTVSPost2010Prop32
280
     0
102
RTVSPost2010PropOp32
 70
     1
102
RTVSPost2010Prop33
280
     0
102
RTVSPost2010PropOp33
 70
     1
102
RTVSPost2010Prop34
280
     0
102
RTVSPost2010PropOp34
 70
     1
102
RTVSPost2010Prop35
280
     0
102
RTVSPost2010PropOp35
 70
     1
102
RTVSPost2010Prop36
280
     0
102
RTVSPost2010PropOp36
 70
     1
102
RTVSPost2010Prop37
 90
       50
102
RTVSPost2010PropOp37
 70
     1
102
RTVSPost2010Prop38
140
0.0
102
RTVSPost2010PropOp38
 70
     1
102
RTVSPost2010Prop39
140
1.0
102
RTVSPost2010PropOp39
 70
     1
102
RTVSPost2010Prop40
 90
        0
102
RTVSPost2010PropOp40
 70
     1
102
RTVSPost2010Prop41ColorIndex
 90
       18
102
RTVSPost2010Prop41ColorRGB
 90
        0
102
RTVSPost2010PropOp41
 70
     1
102
RTVSPost2010Prop42
 90
       50
102
RTVSPost2010PropOp42
 70
     1
102
RTVSPost2010Prop43
 90
        3
102
RTVSPost2010PropOp43
 70
     1
102
RTVSPost2010Prop44ColorIndex
 90
        5
102
RTVSPost2010Prop44ColorRGB
 90
      255
102
RTVSPost2010PropOp44
 70
     1
102
RTVSPost2010Prop45
280
     0
102
RTVSPost2010PropOp45
 70
     1
102
RTVSPost2010Prop46
 90
       50
102
RTVSPost2010PropOp46
 70
     1
102
RTVSPost2010Prop47
 90
       50
102
RTVSPost2010PropOp47
 70
     1
102
RTVSPost2010Prop48
 90
       50
102
RTVSPost2010PropOp48
 70
     1
102
RTVSPost2010Prop49
280
     0
102
RTVSPost2010PropOp49
 70
     1
102
RTVSPost2010Prop50
 90
       50
102
RTVSPost2010PropOp50
 70
     1
102
RTVSPost2010Prop51ColorIndex
 90
      256
102
RTVSPost2010Prop51ColorRGB
 90
-16777216
102
RTVSPost2010PropOp51
 70
     0
102
RTVSPost2010Prop52
140
1.0
102
RTVSPost2010PropOp52
 70
     0
102
RTVSPost2010Prop53
 90
        2
102
RTVSPost2010PropOp53
 70
     1
102
RTVSPost2010Prop54
  1
strokes_ogs.tif
102
RTVSPost2010PropOp54
 70
     1
102
RTVSPost2010Prop55
280
     0
102
RTVSPost2010PropOp55
 70
     1
102
RTVSPost2010Prop56
140
1.0
102
RTVSPost2010PropOp56
 70
     1
102
RTVSPost2010Prop57
140
1.0
102
RTVSPost2010PropOp57
 70
     1
102
RTVSPropertyOp0
 70
     1
102
RTVSPropertyOp1
 70
     1
102
RTVSPropertyOp2
 70
     1
102
RTVSPropertyOp3
 70
     1
102
RTVSPropertyOp4
 70
     1
102
RTVSPropertyOp5
 70
     1
102
RTVSPropertyOp6
 70
     1
102
RTVSPropertyOp7
 70
     1
102
RTVSPropertyOp8
 70
     1
102
RTVSPropertyOp9
 70
     1
102
RTVSPropertyOp10
 70
     1
102
RTVSPropertyOp11
 70
     1
102
RTVSPropertyOp12
 70
     1
102
RTVSPropertyOp13
 70
     1
102
RTVSPropertyOp14
 70
     1
102
RTVSPropertyOp15
 70
     1
102
RTVSPropertyOp16
 70
     1
102
RTVSPropertyOp17
 70
     1
102
RTVSPropertyOp18
 70
     1
102
RTVSPropertyOp19
 70
     1
102
RTVSPropertyOp20
 70
     1
102
RTVSPropertyOp21
 70
     1
102
RTVSPropertyOp22
 70
     1
102
RTVSPropertyOp23
 70
     1
102
RTVSPropertyOp24
 70
     1
102
RTVSPropertyOp25
 70
     1
102
RTVSPropertyOp26
 70
     1
102
RTVSPropertyOp27
 70
     1
102
RTVSPropertyOp28
 70
     1
102
RTVSPropertyOp29
 70
     1
102
RTVSPropertyOp30
 70
     1
102
RTVSPropertyOp31
 70
     1
102
RTVSPropertyOp32
 70
     1
102
RTVSPropertyOp33
 70
     1
102
RTVSPropertyOp34
 70
     1
102
RTVSPropertyOp35
 70
     1
102
RTVSPropertyOp36
 70
     1
102
RTVSPropertyOp37
 70
     1
102
RTVSPropertyOp38
 70
     1
102
RTVSPropertyOp39
 70
     1
102
RTVSPropertyOp40
 70
     1
102
RTVSPropertyOp41
 70
     1
102
RTVSPropertyOp42
 70
     1
102
RTVSPropertyOp43
 70
     1
102
RTVSPropertyOp44
 70
     1
102
RTVSPropertyOp45
 70
     1
102
RTVSPropertyOp46
 70
     1
102
RTVSPropertyOp47
 70
     1
102
RTVSPropertyOp48
 70
     1
102
RTVSPropertyOp49
 70
     1
102
RTVSPropertyOp50
 70
     1
102
RTVSPropertyOp51
 70
     0
102
RTVSPropertyOp52
 70
     0
102
RTVSPropertyOp53
 70
     1
102
RTVSPropertyOp54
 70
     1
102
RTVSPropertyOp55
 70
     1
102
RTVSPropertyOp56
 70
     1
102
RTVSPropertyOp57
 70
     1
102
RTVSPropertyOp58
 70
     1
102
RTVSPropertyOp59
 70
     1
102
RTVSPropertyOp60
 70
     1
102
RTVSPropertyOp61
 70
     1
102
RTVSPropertyOp62
 70
     1
  0
XRECORD
  5
3377
102
{ACAD_REACTORS
330
3376
102
}
330
3376
100
AcDbXrecord
280
     1
102
RTVSPost2010Prop28
280
     0
102
RTVSPost2010PropOp28
 70
     1
102
RTVSPost2010Prop29
280
     1
102
RTVSPost2010PropOp29
 70
     1
102
RTVSPost2010Prop30
280
     1
102
RTVSPost2010PropOp30
 70
     1
102
RTVSPost2010Prop31
280
     0
102
RTVSPost2010PropOp31
 70
     1
102
RTVSPost2010Prop32
280
     0
102
RTVSPost2010PropOp32
 70
     1
102
RTVSPost2010Prop33
280
     0
102
RTVSPost2010PropOp33
 70
     1
102
RTVSPost2010Prop34
280
     0
102
RTVSPost2010PropOp34
 70
     1
102
RTVSPost2010Prop35
280
     0
102
RTVSPost2010PropOp35
 70
     1
102
RTVSPost2010Prop36
280
     0
102
RTVSPost2010PropOp36
 70
     1
102
RTVSPost2010Prop37
 90
       50
102
RTVSPost2010PropOp37
 70
     1
102
RTVSPost2010Prop38
140
0.0
102
RTVSPost2010PropOp38
 70
     1
102
RTVSPost2010Prop39
140
1.0
102
RTVSPost2010PropOp39
 70
     1
102
RTVSPost2010Prop40
 90
        0
102
RTVSPost2010PropOp40
 70
     1
102
RTVSPost2010Prop41ColorIndex
 90
       18
102
RTVSPost2010Prop41ColorRGB
 90
        0
102
RTVSPost2010PropOp41
 70
     1
102
RTVSPost2010Prop42
 90
       50
102
RTVSPost2010PropOp42
 70
     1
102
RTVSPost2010Prop43
 90
        3
102
RTVSPost2010PropOp43
 70
     1
102
RTVSPost2010Prop44ColorIndex
 90
        5
102
RTVSPost2010Prop44ColorRGB
 90
      255
102
RTVSPost2010PropOp44
 70
     1
102
RTVSPost2010Prop45
280
     0
102
RTVSPost2010PropOp45
 70
     1
102
RTVSPost2010Prop46
 90
       50
102
RTVSPost2010PropOp46
 70
     1
102
RTVSPost2010Prop47
 90
       50
102
RTVSPost2010PropOp47
 70
     1
102
RTVSPost2010Prop48
 90
       50
102
RTVSPost2010PropOp48
 70
     1
102
RTVSPost2010Prop49
280
     0
102
RTVSPost2010PropOp49
 70
     1
102
RTVSPost2010Prop50
 90
       50
102
RTVSPost2010PropOp50
 70
     1
102
RTVSPost2010Prop51ColorIndex
 90
      256
102
RTVSPost2010Prop51ColorRGB
 90
-16777216
102
RTVSPost2010PropOp51
 70
     0
102
RTVSPost2010Prop52
140
1.0
102
RTVSPost2010PropOp52
 70
     0
102
RTVSPost2010Prop53
 90
        2
102
RTVSPost2010PropOp53
 70
     1
102
RTVSPost2010Prop54
  1
strokes_ogs.tif
102
RTVSPost2010PropOp54
 70
     1
102
RTVSPost2010Prop55
280
     0
102
RTVSPost2010PropOp55
 70
     1
102
RTVSPost2010Prop56
140
1.0
102
RTVSPost2010PropOp56
 70
     1
102
RTVSPost2010Prop57
140
1.0
102
RTVSPost2010PropOp57
 70
     1
102
RTVSPropertyOp0
 70
     1
102
RTVSPropertyOp1
 70
     1
102
RTVSPropertyOp2
 70
     1
102
RTVSPropertyOp3
 70
     1
102
RTVSPropertyOp4
 70
     1
102
RTVSPropertyOp5
 70
     1
102
RTVSPropertyOp6
 70
     1
102
RTVSPropertyOp7
 70
     1
102
RTVSPropertyOp8
 70
     1
102
RTVSPropertyOp9
 70
     1
102
RTVSPropertyOp10
 70
     1
102
RTVSPropertyOp11
 70
     1
102
RTVSPropertyOp12
 70
     1
102
RTVSPropertyOp13
 70
     1
102
RTVSPropertyOp14
 70
     1
102
RTVSPropertyOp15
 70
     1
102
RTVSPropertyOp16
 70
     1
102
RTVSPropertyOp17
 70
     1
102
RTVSPropertyOp18
 70
     1
102
RTVSPropertyOp19
 70
     1
102
RTVSPropertyOp20
 70
     1
102
RTVSPropertyOp21
 70
     1
102
RTVSPropertyOp22
 70
     1
102
RTVSPropertyOp23
 70
     1
102
RTVSPropertyOp24
 70
     1
102
RTVSPropertyOp25
 70
     1
102
RTVSPropertyOp26
 70
     1
102
RTVSPropertyOp27
 70
     1
102
RTVSPropertyOp28
 70
     1
102
RTVSPropertyOp29
 70
     1
102
RTVSPropertyOp30
 70
     1
102
RTVSPropertyOp31
 70
     1
102
RTVSPropertyOp32
 70
     1
102
RTVSPropertyOp33
 70
     1
102
RTVSPropertyOp34
 70
     1
102
RTVSPropertyOp35
 70
     1
102
RTVSPropertyOp36
 70
     1
102
RTVSPropertyOp37
 70
     1
102
RTVSPropertyOp38
 70
     1
102
RTVSPropertyOp39
 70
     1
102
RTVSPropertyOp40
 70
     1
102
RTVSPropertyOp41
 70
     1
102
RTVSPropertyOp42
 70
     1
102
RTVSPropertyOp43
 70
     1
102
RTVSPropertyOp44
 70
     1
102
RTVSPropertyOp45
 70
     1
102
RTVSPropertyOp46
 70
     1
102
RTVSPropertyOp47
 70
     1
102
RTVSPropertyOp48
 70
     1
102
RTVSPropertyOp49
 70
     1
102
RTVSPropertyOp50
 70
     1
102
RTVSPropertyOp51
 70
     0
102
RTVSPropertyOp52
 70
     0
102
RTVSPropertyOp53
 70
     1
102
RTVSPropertyOp54
 70
     1
102
RTVSPropertyOp55
 70
     1
102
RTVSPropertyOp56
 70
     1
102
RTVSPropertyOp57
 70
     1
102
RTVSPropertyOp58
 70
     1
102
RTVSPropertyOp59
 70
     1
102
RTVSPropertyOp60
 70
     1
102
RTVSPropertyOp61
 70
     1
102
RTVSPropertyOp62
 70
     1
  0
XRECORD
  5
3379
102
{ACAD_REACTORS
330
3378
102
}
330
3378
100
AcDbXrecord
280
     1
102
RTVSPost2010Prop28
280
     0
102
RTVSPost2010PropOp28
 70
     1
102
RTVSPost2010Prop29
280
     1
102
RTVSPost2010PropOp29
 70
     1
102
RTVSPost2010Prop30
280
     1
102
RTVSPost2010PropOp30
 70
     1
102
RTVSPost2010Prop31
280
     0
102
RTVSPost2010PropOp31
 70
     1
102
RTVSPost2010Prop32
280
     0
102
RTVSPost2010PropOp32
 70
     1
102
RTVSPost2010Prop33
280
     0
102
RTVSPost2010PropOp33
 70
     1
102
RTVSPost2010Prop34
280
     0
102
RTVSPost2010PropOp34
 70
     1
102
RTVSPost2010Prop35
280
     0
102
RTVSPost2010PropOp35
 70
     1
102
RTVSPost2010Prop36
280
     0
102
RTVSPost2010PropOp36
 70
     1
102
RTVSPost2010Prop37
 90
       50
102
RTVSPost2010PropOp37
 70
     1
102
RTVSPost2010Prop38
140
0.0
102
RTVSPost2010PropOp38
 70
     1
102
RTVSPost2010Prop39
140
1.0
102
RTVSPost2010PropOp39
 70
     1
102
RTVSPost2010Prop40
 90
        0
102
RTVSPost2010PropOp40
 70
     1
102
RTVSPost2010Prop41ColorIndex
 90
       18
102
RTVSPost2010Prop41ColorRGB
 90
        0
102
RTVSPost2010PropOp41
 70
     1
102
RTVSPost2010Prop42
 90
       50
102
RTVSPost2010PropOp42
 70
     1
102
RTVSPost2010Prop43
 90
        3
102
RTVSPost2010PropOp43
 70
     1
102
RTVSPost2010Prop44ColorIndex
 90
        5
102
RTVSPost2010Prop44ColorRGB
 90
      255
102
RTVSPost2010PropOp44
 70
     1
102
RTVSPost2010Prop45
280
     0
102
RTVSPost2010PropOp45
 70
     1
102
RTVSPost2010Prop46
 90
       50
102
RTVSPost2010PropOp46
 70
     1
102
RTVSPost2010Prop47
 90
       50
102
RTVSPost2010PropOp47
 70
     1
102
RTVSPost2010Prop48
 90
       50
102
RTVSPost2010PropOp48
 70
     1
102
RTVSPost2010Prop49
280
     0
102
RTVSPost2010PropOp49
 70
     1
102
RTVSPost2010Prop50
 90
       50
102
RTVSPost2010PropOp50
 70
     1
102
RTVSPost2010Prop51ColorIndex
 90
      256
102
RTVSPost2010Prop51ColorRGB
 90
-16777216
102
RTVSPost2010PropOp51
 70
     0
102
RTVSPost2010Prop52
140
1.0
102
RTVSPost2010PropOp52
 70
     0
102
RTVSPost2010Prop53
 90
        2
102
RTVSPost2010PropOp53
 70
     1
102
RTVSPost2010Prop54
  1
strokes_ogs.tif
102
RTVSPost2010PropOp54
 70
     1
102
RTVSPost2010Prop55
280
     0
102
RTVSPost2010PropOp55
 70
     1
102
RTVSPost2010Prop56
140
1.0
102
RTVSPost2010PropOp56
 70
     1
102
RTVSPost2010Prop57
140
1.0
102
RTVSPost2010PropOp57
 70
     1
102
RTVSPropertyOp0
 70
     1
102
RTVSPropertyOp1
 70
     1
102
RTVSPropertyOp2
 70
     1
102
RTVSPropertyOp3
 70
     1
102
RTVSPropertyOp4
 70
     1
102
RTVSPropertyOp5
 70
     1
102
RTVSPropertyOp6
 70
     1
102
RTVSPropertyOp7
 70
     1
102
RTVSPropertyOp8
 70
     1
102
RTVSPropertyOp9
 70
     1
102
RTVSPropertyOp10
 70
     1
102
RTVSPropertyOp11
 70
     1
102
RTVSPropertyOp12
 70
     1
102
RTVSPropertyOp13
 70
     1
102
RTVSPropertyOp14
 70
     1
102
RTVSPropertyOp15
 70
     1
102
RTVSPropertyOp16
 70
     1
102
RTVSPropertyOp17
 70
     1
102
RTVSPropertyOp18
 70
     1
102
RTVSPropertyOp19
 70
     1
102
RTVSPropertyOp20
 70
     1
102
RTVSPropertyOp21
 70
     1
102
RTVSPropertyOp22
 70
     1
102
RTVSPropertyOp23
 70
     1
102
RTVSPropertyOp24
 70
     1
102
RTVSPropertyOp25
 70
     1
102
RTVSPropertyOp26
 70
     1
102
RTVSPropertyOp27
 70
     1
102
RTVSPropertyOp28
 70
     1
102
RTVSPropertyOp29
 70
     1
102
RTVSPropertyOp30
 70
     1
102
RTVSPropertyOp31
 70
     1
102
RTVSPropertyOp32
 70
     1
102
RTVSPropertyOp33
 70
     1
102
RTVSPropertyOp34
 70
     1
102
RTVSPropertyOp35
 70
     1
102
RTVSPropertyOp36
 70
     1
102
RTVSPropertyOp37
 70
     1
102
RTVSPropertyOp38
 70
     1
102
RTVSPropertyOp39
 70
     1
102
RTVSPropertyOp40
 70
     1
102
RTVSPropertyOp41
 70
     1
102
RTVSPropertyOp42
 70
     1
102
RTVSPropertyOp43
 70
     1
102
RTVSPropertyOp44
 70
     1
102
RTVSPropertyOp45
 70
     1
102
RTVSPropertyOp46
 70
     1
102
RTVSPropertyOp47
 70
     1
102
RTVSPropertyOp48
 70
     1
102
RTVSPropertyOp49
 70
     1
102
RTVSPropertyOp50
 70
     1
102
RTVSPropertyOp51
 70
     0
102
RTVSPropertyOp52
 70
     0
102
RTVSPropertyOp53
 70
     1
102
RTVSPropertyOp54
 70
     1
102
RTVSPropertyOp55
 70
     1
102
RTVSPropertyOp56
 70
     1
102
RTVSPropertyOp57
 70
     1
102
RTVSPropertyOp58
 70
     1
102
RTVSPropertyOp59
 70
     1
102
RTVSPropertyOp60
 70
     1
102
RTVSPropertyOp61
 70
     1
102
RTVSPropertyOp62
 70
     1
  0
XRECORD
  5
337B
102
{ACAD_REACTORS
330
337A
102
}
330
337A
100
AcDbXrecord
280
     1
102
RTVSPost2010Prop28
280
     0
102
RTVSPost2010PropOp28
 70
     1
102
RTVSPost2010Prop29
280
     1
102
RTVSPost2010PropOp29
 70
     1
102
RTVSPost2010Prop30
280
     1
102
RTVSPost2010PropOp30
 70
     1
102
RTVSPost2010Prop31
280
     0
102
RTVSPost2010PropOp31
 70
     1
102
RTVSPost2010Prop32
280
     0
102
RTVSPost2010PropOp32
 70
     1
102
RTVSPost2010Prop33
280
     0
102
RTVSPost2010PropOp33
 70
     1
102
RTVSPost2010Prop34
280
     0
102
RTVSPost2010PropOp34
 70
     1
102
RTVSPost2010Prop35
280
     0
102
RTVSPost2010PropOp35
 70
     1
102
RTVSPost2010Prop36
280
     0
102
RTVSPost2010PropOp36
 70
     1
102
RTVSPost2010Prop37
 90
       50
102
RTVSPost2010PropOp37
 70
     1
102
RTVSPost2010Prop38
140
0.0
102
RTVSPost2010PropOp38
 70
     1
102
RTVSPost2010Prop39
140
1.0
102
RTVSPost2010PropOp39
 70
     1
102
RTVSPost2010Prop40
 90
        0
102
RTVSPost2010PropOp40
 70
     1
102
RTVSPost2010Prop41ColorIndex
 90
       18
102
RTVSPost2010Prop41ColorRGB
 90
        0
102
RTVSPost2010PropOp41
 70
     1
102
RTVSPost2010Prop42
 90
       50
102
RTVSPost2010PropOp42
 70
     1
102
RTVSPost2010Prop43
 90
        3
102
RTVSPost2010PropOp43
 70
     1
102
RTVSPost2010Prop44ColorIndex
 90
        5
102
RTVSPost2010Prop44ColorRGB
 90
      255
102
RTVSPost2010PropOp44
 70
     1
102
RTVSPost2010Prop45
280
     0
102
RTVSPost2010PropOp45
 70
     1
102
RTVSPost2010Prop46
 90
       50
102
RTVSPost2010PropOp46
 70
     1
102
RTVSPost2010Prop47
 90
       50
102
RTVSPost2010PropOp47
 70
     1
102
RTVSPost2010Prop48
 90
       50
102
RTVSPost2010PropOp48
 70
     1
102
RTVSPost2010Prop49
280
     0
102
RTVSPost2010PropOp49
 70
     1
102
RTVSPost2010Prop50
 90
       50
102
RTVSPost2010PropOp50
 70
     1
102
RTVSPost2010Prop51ColorIndex
 90
      256
102
RTVSPost2010Prop51ColorRGB
 90
-16777216
102
RTVSPost2010PropOp51
 70
     0
102
RTVSPost2010Prop52
140
1.0
102
RTVSPost2010PropOp52
 70
     0
102
RTVSPost2010Prop53
 90
        2
102
RTVSPost2010PropOp53
 70
     1
102
RTVSPost2010Prop54
  1
strokes_ogs.tif
102
RTVSPost2010PropOp54
 70
     1
102
RTVSPost2010Prop55
280
     0
102
RTVSPost2010PropOp55
 70
     1
102
RTVSPost2010Prop56
140
1.0
102
RTVSPost2010PropOp56
 70
     1
102
RTVSPost2010Prop57
140
1.0
102
RTVSPost2010PropOp57
 70
     1
102
RTVSPropertyOp0
 70
     1
102
RTVSPropertyOp1
 70
     1
102
RTVSPropertyOp2
 70
     1
102
RTVSPropertyOp3
 70
     1
102
RTVSPropertyOp4
 70
     1
102
RTVSPropertyOp5
 70
     1
102
RTVSPropertyOp6
 70
     1
102
RTVSPropertyOp7
 70
     1
102
RTVSPropertyOp8
 70
     1
102
RTVSPropertyOp9
 70
     1
102
RTVSPropertyOp10
 70
     1
102
RTVSPropertyOp11
 70
     1
102
RTVSPropertyOp12
 70
     1
102
RTVSPropertyOp13
 70
     1
102
RTVSPropertyOp14
 70
     1
102
RTVSPropertyOp15
 70
     1
102
RTVSPropertyOp16
 70
     1
102
RTVSPropertyOp17
 70
     1
102
RTVSPropertyOp18
 70
     1
102
RTVSPropertyOp19
 70
     1
102
RTVSPropertyOp20
 70
     1
102
RTVSPropertyOp21
 70
     1
102
RTVSPropertyOp22
 70
     1
102
RTVSPropertyOp23
 70
     1
102
RTVSPropertyOp24
 70
     1
102
RTVSPropertyOp25
 70
     1
102
RTVSPropertyOp26
 70
     1
102
RTVSPropertyOp27
 70
     1
102
RTVSPropertyOp28
 70
     1
102
RTVSPropertyOp29
 70
     1
102
RTVSPropertyOp30
 70
     1
102
RTVSPropertyOp31
 70
     1
102
RTVSPropertyOp32
 70
     1
102
RTVSPropertyOp33
 70
     1
102
RTVSPropertyOp34
 70
     1
102
RTVSPropertyOp35
 70
     1
102
RTVSPropertyOp36
 70
     1
102
RTVSPropertyOp37
 70
     1
102
RTVSPropertyOp38
 70
     1
102
RTVSPropertyOp39
 70
     1
102
RTVSPropertyOp40
 70
     1
102
RTVSPropertyOp41
 70
     1
102
RTVSPropertyOp42
 70
     1
102
RTVSPropertyOp43
 70
     1
102
RTVSPropertyOp44
 70
     1
102
RTVSPropertyOp45
 70
     1
102
RTVSPropertyOp46
 70
     1
102
RTVSPropertyOp47
 70
     1
102
RTVSPropertyOp48
 70
     1
102
RTVSPropertyOp49
 70
     1
102
RTVSPropertyOp50
 70
     1
102
RTVSPropertyOp51
 70
     0
102
RTVSPropertyOp52
 70
     0
102
RTVSPropertyOp53
 70
     1
102
RTVSPropertyOp54
 70
     1
102
RTVSPropertyOp55
 70
     1
102
RTVSPropertyOp56
 70
     1
102
RTVSPropertyOp57
 70
     1
102
RTVSPropertyOp58
 70
     1
102
RTVSPropertyOp59
 70
     1
102
RTVSPropertyOp60
 70
     1
102
RTVSPropertyOp61
 70
     1
102
RTVSPropertyOp62
 70
     1
  0
XRECORD
  5
337D
102
{ACAD_REACTORS
330
337C
102
}
330
337C
100
AcDbXrecord
280
     1
102
RTVSPost2010Prop28
280
     0
102
RTVSPost2010PropOp28
 70
     1
102
RTVSPost2010Prop29
280
     1
102
RTVSPost2010PropOp29
 70
     1
102
RTVSPost2010Prop30
280
     1
102
RTVSPost2010PropOp30
 70
     1
102
RTVSPost2010Prop31
280
     0
102
RTVSPost2010PropOp31
 70
     1
102
RTVSPost2010Prop32
280
     0
102
RTVSPost2010PropOp32
 70
     1
102
RTVSPost2010Prop33
280
     0
102
RTVSPost2010PropOp33
 70
     1
102
RTVSPost2010Prop34
280
     0
102
RTVSPost2010PropOp34
 70
     1
102
RTVSPost2010Prop35
280
     0
102
RTVSPost2010PropOp35
 70
     1
102
RTVSPost2010Prop36
280
     0
102
RTVSPost2010PropOp36
 70
     1
102
RTVSPost2010Prop37
 90
       50
102
RTVSPost2010PropOp37
 70
     1
102
RTVSPost2010Prop38
140
0.0
102
RTVSPost2010PropOp38
 70
     1
102
RTVSPost2010Prop39
140
1.0
102
RTVSPost2010PropOp39
 70
     1
102
RTVSPost2010Prop40
 90
        0
102
RTVSPost2010PropOp40
 70
     1
102
RTVSPost2010Prop41ColorIndex
 90
       18
102
RTVSPost2010Prop41ColorRGB
 90
        0
102
RTVSPost2010PropOp41
 70
     1
102
RTVSPost2010Prop42
 90
       50
102
RTVSPost2010PropOp42
 70
     1
102
RTVSPost2010Prop43
 90
        3
102
RTVSPost2010PropOp43
 70
     1
102
RTVSPost2010Prop44ColorIndex
 90
        5
102
RTVSPost2010Prop44ColorRGB
 90
      255
102
RTVSPost2010PropOp44
 70
     1
102
RTVSPost2010Prop45
280
     0
102
RTVSPost2010PropOp45
 70
     1
102
RTVSPost2010Prop46
 90
       50
102
RTVSPost2010PropOp46
 70
     1
102
RTVSPost2010Prop47
 90
       50
102
RTVSPost2010PropOp47
 70
     1
102
RTVSPost2010Prop48
 90
       50
102
RTVSPost2010PropOp48
 70
     1
102
RTVSPost2010Prop49
280
     0
102
RTVSPost2010PropOp49
 70
     1
102
RTVSPost2010Prop50
 90
       50
102
RTVSPost2010PropOp50
 70
     1
102
RTVSPost2010Prop51ColorIndex
 90
      256
102
RTVSPost2010Prop51ColorRGB
 90
-16777216
102
RTVSPost2010PropOp51
 70
     0
102
RTVSPost2010Prop52
140
1.0
102
RTVSPost2010PropOp52
 70
     0
102
RTVSPost2010Prop53
 90
        2
102
RTVSPost2010PropOp53
 70
     1
102
RTVSPost2010Prop54
  1
strokes_ogs.tif
102
RTVSPost2010PropOp54
 70
     1
102
RTVSPost2010Prop55
280
     0
102
RTVSPost2010PropOp55
 70
     1
102
RTVSPost2010Prop56
140
1.0
102
RTVSPost2010PropOp56
 70
     1
102
RTVSPost2010Prop57
140
1.0
102
RTVSPost2010PropOp57
 70
     1
102
RTVSPropertyOp0
 70
     1
102
RTVSPropertyOp1
 70
     1
102
RTVSPropertyOp2
 70
     1
102
RTVSPropertyOp3
 70
     1
102
RTVSPropertyOp4
 70
     1
102
RTVSPropertyOp5
 70
     1
102
RTVSPropertyOp6
 70
     1
102
RTVSPropertyOp7
 70
     1
102
RTVSPropertyOp8
 70
     1
102
RTVSPropertyOp9
 70
     1
102
RTVSPropertyOp10
 70
     1
102
RTVSPropertyOp11
 70
     1
102
RTVSPropertyOp12
 70
     1
102
RTVSPropertyOp13
 70
     1
102
RTVSPropertyOp14
 70
     1
102
RTVSPropertyOp15
 70
     1
102
RTVSPropertyOp16
 70
     1
102
RTVSPropertyOp17
 70
     1
102
RTVSPropertyOp18
 70
     1
102
RTVSPropertyOp19
 70
     1
102
RTVSPropertyOp20
 70
     1
102
RTVSPropertyOp21
 70
     1
102
RTVSPropertyOp22
 70
     1
102
RTVSPropertyOp23
 70
     1
102
RTVSPropertyOp24
 70
     1
102
RTVSPropertyOp25
 70
     1
102
RTVSPropertyOp26
 70
     1
102
RTVSPropertyOp27
 70
     1
102
RTVSPropertyOp28
 70
     1
102
RTVSPropertyOp29
 70
     1
102
RTVSPropertyOp30
 70
     1
102
RTVSPropertyOp31
 70
     1
102
RTVSPropertyOp32
 70
     1
102
RTVSPropertyOp33
 70
     1
102
RTVSPropertyOp34
 70
     1
102
RTVSPropertyOp35
 70
     1
102
RTVSPropertyOp36
 70
     1
102
RTVSPropertyOp37
 70
     1
102
RTVSPropertyOp38
 70
     1
102
RTVSPropertyOp39
 70
     1
102
RTVSPropertyOp40
 70
     1
102
RTVSPropertyOp41
 70
     1
102
RTVSPropertyOp42
 70
     1
102
RTVSPropertyOp43
 70
     1
102
RTVSPropertyOp44
 70
     1
102
RTVSPropertyOp45
 70
     1
102
RTVSPropertyOp46
 70
     1
102
RTVSPropertyOp47
 70
     1
102
RTVSPropertyOp48
 70
     1
102
RTVSPropertyOp49
 70
     1
102
RTVSPropertyOp50
 70
     1
102
RTVSPropertyOp51
 70
     0
102
RTVSPropertyOp52
 70
     0
102
RTVSPropertyOp53
 70
     1
102
RTVSPropertyOp54
 70
     1
102
RTVSPropertyOp55
 70
     1
102
RTVSPropertyOp56
 70
     1
102
RTVSPropertyOp57
 70
     1
102
RTVSPropertyOp58
 70
     1
102
RTVSPropertyOp59
 70
     1
102
RTVSPropertyOp60
 70
     1
102
RTVSPropertyOp61
 70
     1
102
RTVSPropertyOp62
 70
     1
  0
XRECORD
  5
3385
102
{ACAD_REACTORS
330
3384
102
}
330
3384
100
AcDbXrecord
280
     1
102
RTVSPost2010Prop28
280
     0
102
RTVSPost2010PropOp28
 70
     1
102
RTVSPost2010Prop29
280
     1
102
RTVSPost2010PropOp29
 70
     1
102
RTVSPost2010Prop30
280
     1
102
RTVSPost2010PropOp30
 70
     1
102
RTVSPost2010Prop31
280
     0
102
RTVSPost2010PropOp31
 70
     1
102
RTVSPost2010Prop32
280
     0
102
RTVSPost2010PropOp32
 70
     1
102
RTVSPost2010Prop33
280
     0
102
RTVSPost2010PropOp33
 70
     1
102
RTVSPost2010Prop34
280
     0
102
RTVSPost2010PropOp34
 70
     1
102
RTVSPost2010Prop35
280
     0
102
RTVSPost2010PropOp35
 70
     1
102
RTVSPost2010Prop36
280
     0
102
RTVSPost2010PropOp36
 70
     1
102
RTVSPost2010Prop37
 90
       50
102
RTVSPost2010PropOp37
 70
     1
102
RTVSPost2010Prop38
140
0.0
102
RTVSPost2010PropOp38
 70
     1
102
RTVSPost2010Prop39
140
1.0
102
RTVSPost2010PropOp39
 70
     1
102
RTVSPost2010Prop40
 90
        0
102
RTVSPost2010PropOp40
 70
     1
102
RTVSPost2010Prop41ColorIndex
 90
       18
102
RTVSPost2010Prop41ColorRGB
 90
        0
102
RTVSPost2010PropOp41
 70
     1
102
RTVSPost2010Prop42
 90
       50
102
RTVSPost2010PropOp42
 70
     1
102
RTVSPost2010Prop43
 90
        3
102
RTVSPost2010PropOp43
 70
     1
102
RTVSPost2010Prop44ColorIndex
 90
        5
102
RTVSPost2010Prop44ColorRGB
 90
      255
102
RTVSPost2010PropOp44
 70
     1
102
RTVSPost2010Prop45
280
     0
102
RTVSPost2010PropOp45
 70
     1
102
RTVSPost2010Prop46
 90
       50
102
RTVSPost2010PropOp46
 70
     1
102
RTVSPost2010Prop47
 90
       50
102
RTVSPost2010PropOp47
 70
     1
102
RTVSPost2010Prop48
 90
       50
102
RTVSPost2010PropOp48
 70
     1
102
RTVSPost2010Prop49
280
     0
102
RTVSPost2010PropOp49
 70
     1
102
RTVSPost2010Prop50
 90
       50
102
RTVSPost2010PropOp50
 70
     1
102
RTVSPost2010Prop51ColorIndex
 90
      256
102
RTVSPost2010Prop51ColorRGB
 90
-16777216
102
RTVSPost2010PropOp51
 70
     0
102
RTVSPost2010Prop52
140
1.0
102
RTVSPost2010PropOp52
 70
     0
102
RTVSPost2010Prop53
 90
        2
102
RTVSPost2010PropOp53
 70
     1
102
RTVSPost2010Prop54
  1
strokes_ogs.tif
102
RTVSPost2010PropOp54
 70
     1
102
RTVSPost2010Prop55
280
     0
102
RTVSPost2010PropOp55
 70
     1
102
RTVSPost2010Prop56
140
1.0
102
RTVSPost2010PropOp56
 70
     1
102
RTVSPost2010Prop57
140
1.0
102
RTVSPost2010PropOp57
 70
     1
102
RTVSPropertyOp0
 70
     1
102
RTVSPropertyOp1
 70
     1
102
RTVSPropertyOp2
 70
     1
102
RTVSPropertyOp3
 70
     1
102
RTVSPropertyOp4
 70
     1
102
RTVSPropertyOp5
 70
     1
102
RTVSPropertyOp6
 70
     1
102
RTVSPropertyOp7
 70
     1
102
RTVSPropertyOp8
 70
     1
102
RTVSPropertyOp9
 70
     1
102
RTVSPropertyOp10
 70
     1
102
RTVSPropertyOp11
 70
     1
102
RTVSPropertyOp12
 70
     1
102
RTVSPropertyOp13
 70
     1
102
RTVSPropertyOp14
 70
     1
102
RTVSPropertyOp15
 70
     1
102
RTVSPropertyOp16
 70
     1
102
RTVSPropertyOp17
 70
     1
102
RTVSPropertyOp18
 70
     1
102
RTVSPropertyOp19
 70
     1
102
RTVSPropertyOp20
 70
     1
102
RTVSPropertyOp21
 70
     1
102
RTVSPropertyOp22
 70
     1
102
RTVSPropertyOp23
 70
     1
102
RTVSPropertyOp24
 70
     1
102
RTVSPropertyOp25
 70
     1
102
RTVSPropertyOp26
 70
     1
102
RTVSPropertyOp27
 70
     1
102
RTVSPropertyOp28
 70
     1
102
RTVSPropertyOp29
 70
     1
102
RTVSPropertyOp30
 70
     1
102
RTVSPropertyOp31
 70
     1
102
RTVSPropertyOp32
 70
     1
102
RTVSPropertyOp33
 70
     1
102
RTVSPropertyOp34
 70
     1
102
RTVSPropertyOp35
 70
     1
102
RTVSPropertyOp36
 70
     1
102
RTVSPropertyOp37
 70
     1
102
RTVSPropertyOp38
 70
     1
102
RTVSPropertyOp39
 70
     1
102
RTVSPropertyOp40
 70
     1
102
RTVSPropertyOp41
 70
     1
102
RTVSPropertyOp42
 70
     1
102
RTVSPropertyOp43
 70
     1
102
RTVSPropertyOp44
 70
     1
102
RTVSPropertyOp45
 70
     1
102
RTVSPropertyOp46
 70
     1
102
RTVSPropertyOp47
 70
     1
102
RTVSPropertyOp48
 70
     1
102
RTVSPropertyOp49
 70
     1
102
RTVSPropertyOp50
 70
     1
102
RTVSPropertyOp51
 70
     0
102
RTVSPropertyOp52
 70
     0
102
RTVSPropertyOp53
 70
     1
102
RTVSPropertyOp54
 70
     1
102
RTVSPropertyOp55
 70
     1
102
RTVSPropertyOp56
 70
     1
102
RTVSPropertyOp57
 70
     1
102
RTVSPropertyOp58
 70
     1
102
RTVSPropertyOp59
 70
     1
102
RTVSPropertyOp60
 70
     1
102
RTVSPropertyOp61
 70
     1
102
RTVSPropertyOp62
 70
     1
  0
XRECORD
  5
33A1
102
{ACAD_REACTORS
330
33A0
102
}
330
33A0
100
AcDbXrecord
280
     1
102
RTVSPost2010Prop28
280
     0
102
RTVSPost2010PropOp28
 70
     1
102
RTVSPost2010Prop29
280
     1
102
RTVSPost2010PropOp29
 70
     1
102
RTVSPost2010Prop30
280
     1
102
RTVSPost2010PropOp30
 70
     1
102
RTVSPost2010Prop31
280
     0
102
RTVSPost2010PropOp31
 70
     1
102
RTVSPost2010Prop32
280
     0
102
RTVSPost2010PropOp32
 70
     1
102
RTVSPost2010Prop33
280
     0
102
RTVSPost2010PropOp33
 70
     1
102
RTVSPost2010Prop34
280
     0
102
RTVSPost2010PropOp34
 70
     1
102
RTVSPost2010Prop35
280
     0
102
RTVSPost2010PropOp35
 70
     1
102
RTVSPost2010Prop36
280
     0
102
RTVSPost2010PropOp36
 70
     1
102
RTVSPost2010Prop37
 90
       50
102
RTVSPost2010PropOp37
 70
     0
102
RTVSPost2010Prop38
140
0.0
102
RTVSPost2010PropOp38
 70
     0
102
RTVSPost2010Prop39
140
1.0
102
RTVSPost2010PropOp39
 70
     0
102
RTVSPost2010Prop40
 90
        0
102
RTVSPost2010PropOp40
 70
     0
102
RTVSPost2010Prop41ColorIndex
 90
       18
102
RTVSPost2010Prop41ColorRGB
 90
        0
102
RTVSPost2010PropOp41
 70
     0
102
RTVSPost2010Prop42
 90
       50
102
RTVSPost2010PropOp42
 70
     0
102
RTVSPost2010Prop43
 90
        3
102
RTVSPost2010PropOp43
 70
     0
102
RTVSPost2010Prop44ColorIndex
 90
        5
102
RTVSPost2010Prop44ColorRGB
 90
      255
102
RTVSPost2010PropOp44
 70
     0
102
RTVSPost2010Prop45
280
     0
102
RTVSPost2010PropOp45
 70
     1
102
RTVSPost2010Prop46
 90
       50
102
RTVSPost2010PropOp46
 70
     0
102
RTVSPost2010Prop47
 90
       50
102
RTVSPost2010PropOp47
 70
     0
102
RTVSPost2010Prop48
 90
       50
102
RTVSPost2010PropOp48
 70
     0
102
RTVSPost2010Prop49
280
     0
102
RTVSPost2010PropOp49
 70
     1
102
RTVSPost2010Prop50
 90
       50
102
RTVSPost2010PropOp50
 70
     0
102
RTVSPost2010Prop51ColorIndex
 90
      256
102
RTVSPost2010Prop51ColorRGB
 90
-16777216
102
RTVSPost2010PropOp51
 70
     0
102
RTVSPost2010Prop52
140
1.0
102
RTVSPost2010PropOp52
 70
     0
102
RTVSPost2010Prop53
 90
        2
102
RTVSPost2010PropOp53
 70
     0
102
RTVSPost2010Prop54
  1
strokes_ogs.tif
102
RTVSPost2010PropOp54
 70
     0
102
RTVSPost2010Prop55
280
     0
102
RTVSPost2010PropOp55
 70
     1
102
RTVSPost2010Prop56
140
1.0
102
RTVSPost2010PropOp56
 70
     0
102
RTVSPost2010Prop57
140
1.0
102
RTVSPost2010PropOp57
 70
     0
102
RTVSPropertyOp0
 70
     0
102
RTVSPropertyOp1
 70
     0
102
RTVSPropertyOp2
 70
     0
102
RTVSPropertyOp3
 70
     0
102
RTVSPropertyOp4
 70
     0
102
RTVSPropertyOp5
 70
     0
102
RTVSPropertyOp6
 70
     0
102
RTVSPropertyOp7
 70
     0
102
RTVSPropertyOp8
 70
     0
102
RTVSPropertyOp9
 70
     0
102
RTVSPropertyOp10
 70
     0
102
RTVSPropertyOp11
 70
     0
102
RTVSPropertyOp12
 70
     0
102
RTVSPropertyOp13
 70
     0
102
RTVSPropertyOp14
 70
     2
102
RTVSPropertyOp15
 70
     0
102
RTVSPropertyOp16
 70
     0
102
RTVSPropertyOp17
 70
     0
102
RTVSPropertyOp18
 70
     0
102
RTVSPropertyOp19
 70
     0
102
RTVSPropertyOp20
 70
     0
102
RTVSPropertyOp21
 70
     0
102
RTVSPropertyOp22
 70
     0
102
RTVSPropertyOp23
 70
     0
102
RTVSPropertyOp24
 70
     0
102
RTVSPropertyOp25
 70
     0
102
RTVSPropertyOp26
 70
     0
102
RTVSPropertyOp27
 70
     0
102
RTVSPropertyOp28
 70
     1
102
RTVSPropertyOp29
 70
     1
102
RTVSPropertyOp30
 70
     1
102
RTVSPropertyOp31
 70
     1
102
RTVSPropertyOp32
 70
     1
102
RTVSPropertyOp33
 70
     1
102
RTVSPropertyOp34
 70
     1
102
RTVSPropertyOp35
 70
     1
102
RTVSPropertyOp36
 70
     1
102
RTVSPropertyOp37
 70
     0
102
RTVSPropertyOp38
 70
     0
102
RTVSPropertyOp39
 70
     0
102
RTVSPropertyOp40
 70
     0
102
RTVSPropertyOp41
 70
     0
102
RTVSPropertyOp42
 70
     0
102
RTVSPropertyOp43
 70
     0
102
RTVSPropertyOp44
 70
     0
102
RTVSPropertyOp45
 70
     1
102
RTVSPropertyOp46
 70
     0
102
RTVSPropertyOp47
 70
     0
102
RTVSPropertyOp48
 70
     0
102
RTVSPropertyOp49
 70
     1
102
RTVSPropertyOp50
 70
     0
102
RTVSPropertyOp51
 70
     0
102
RTVSPropertyOp52
 70
     0
102
RTVSPropertyOp53
 70
     0
102
RTVSPropertyOp54
 70
     0
102
RTVSPropertyOp55
 70
     1
102
RTVSPropertyOp56
 70
     0
102
RTVSPropertyOp57
 70
     0
102
RTVSPropertyOp58
 70
     0
102
RTVSPropertyOp59
 70
     0
102
RTVSPropertyOp60
 70
     0
102
RTVSPropertyOp61
 70
     0
102
RTVSPropertyOp62
 70
     0
  0
XRECORD
  5
3391
102
{ACAD_REACTORS
330
3390
102
}
330
3390
100
AcDbXrecord
280
     1
102
RTVSPost2010Prop28
280
     0
102
RTVSPost2010PropOp28
 70
     1
102
RTVSPost2010Prop29
280
     1
102
RTVSPost2010PropOp29
 70
     1
102
RTVSPost2010Prop30
280
     1
102
RTVSPost2010PropOp30
 70
     1
102
RTVSPost2010Prop31
280
     0
102
RTVSPost2010PropOp31
 70
     1
102
RTVSPost2010Prop32
280
     0
102
RTVSPost2010PropOp32
 70
     1
102
RTVSPost2010Prop33
280
     0
102
RTVSPost2010PropOp33
 70
     1
102
RTVSPost2010Prop34
280
     0
102
RTVSPost2010PropOp34
 70
     1
102
RTVSPost2010Prop35
280
     0
102
RTVSPost2010PropOp35
 70
     1
102
RTVSPost2010Prop36
280
     0
102
RTVSPost2010PropOp36
 70
     1
102
RTVSPost2010Prop37
 90
       50
102
RTVSPost2010PropOp37
 70
     1
102
RTVSPost2010Prop38
140
0.0
102
RTVSPost2010PropOp38
 70
     1
102
RTVSPost2010Prop39
140
1.0
102
RTVSPost2010PropOp39
 70
     1
102
RTVSPost2010Prop40
 90
        0
102
RTVSPost2010PropOp40
 70
     1
102
RTVSPost2010Prop41ColorIndex
 90
       18
102
RTVSPost2010Prop41ColorRGB
 90
        0
102
RTVSPost2010PropOp41
 70
     1
102
RTVSPost2010Prop42
 90
       50
102
RTVSPost2010PropOp42
 70
     1
102
RTVSPost2010Prop43
 90
        3
102
RTVSPost2010PropOp43
 70
     1
102
RTVSPost2010Prop44ColorIndex
 90
        5
102
RTVSPost2010Prop44ColorRGB
 90
      255
102
RTVSPost2010PropOp44
 70
     1
102
RTVSPost2010Prop45
280
     0
102
RTVSPost2010PropOp45
 70
     1
102
RTVSPost2010Prop46
 90
       50
102
RTVSPost2010PropOp46
 70
     1
102
RTVSPost2010Prop47
 90
       50
102
RTVSPost2010PropOp47
 70
     1
102
RTVSPost2010Prop48
 90
       50
102
RTVSPost2010PropOp48
 70
     1
102
RTVSPost2010Prop49
280
     0
102
RTVSPost2010PropOp49
 70
     1
102
RTVSPost2010Prop50
 90
       50
102
RTVSPost2010PropOp50
 70
     1
102
RTVSPost2010Prop51ColorIndex
 90
      256
102
RTVSPost2010Prop51ColorRGB
 90
-16777216
102
RTVSPost2010PropOp51
 70
     0
102
RTVSPost2010Prop52
140
1.0
102
RTVSPost2010PropOp52
 70
     0
102
RTVSPost2010Prop53
 90
        2
102
RTVSPost2010PropOp53
 70
     1
102
RTVSPost2010Prop54
  1
strokes_ogs.tif
102
RTVSPost2010PropOp54
 70
     1
102
RTVSPost2010Prop55
280
     0
102
RTVSPost2010PropOp55
 70
     1
102
RTVSPost2010Prop56
140
1.0
102
RTVSPost2010PropOp56
 70
     1
102
RTVSPost2010Prop57
140
1.0
102
RTVSPost2010PropOp57
 70
     1
102
RTVSPropertyOp0
 70
     1
102
RTVSPropertyOp1
 70
     1
102
RTVSPropertyOp2
 70
     1
102
RTVSPropertyOp3
 70
     1
102
RTVSPropertyOp4
 70
     1
102
RTVSPropertyOp5
 70
     1
102
RTVSPropertyOp6
 70
     1
102
RTVSPropertyOp7
 70
     1
102
RTVSPropertyOp8
 70
     1
102
RTVSPropertyOp9
 70
     1
102
RTVSPropertyOp10
 70
     1
102
RTVSPropertyOp11
 70
     1
102
RTVSPropertyOp12
 70
     1
102
RTVSPropertyOp13
 70
     1
102
RTVSPropertyOp14
 70
     1
102
RTVSPropertyOp15
 70
     1
102
RTVSPropertyOp16
 70
     1
102
RTVSPropertyOp17
 70
     1
102
RTVSPropertyOp18
 70
     1
102
RTVSPropertyOp19
 70
     1
102
RTVSPropertyOp20
 70
     1
102
RTVSPropertyOp21
 70
     1
102
RTVSPropertyOp22
 70
     1
102
RTVSPropertyOp23
 70
     1
102
RTVSPropertyOp24
 70
     1
102
RTVSPropertyOp25
 70
     1
102
RTVSPropertyOp26
 70
     1
102
RTVSPropertyOp27
 70
     1
102
RTVSPropertyOp28
 70
     1
102
RTVSPropertyOp29
 70
     1
102
RTVSPropertyOp30
 70
     1
102
RTVSPropertyOp31
 70
     1
102
RTVSPropertyOp32
 70
     1
102
RTVSPropertyOp33
 70
     1
102
RTVSPropertyOp34
 70
     1
102
RTVSPropertyOp35
 70
     1
102
RTVSPropertyOp36
 70
     1
102
RTVSPropertyOp37
 70
     1
102
RTVSPropertyOp38
 70
     1
102
RTVSPropertyOp39
 70
     1
102
RTVSPropertyOp40
 70
     1
102
RTVSPropertyOp41
 70
     1
102
RTVSPropertyOp42
 70
     1
102
RTVSPropertyOp43
 70
     1
102
RTVSPropertyOp44
 70
     1
102
RTVSPropertyOp45
 70
     1
102
RTVSPropertyOp46
 70
     1
102
RTVSPropertyOp47
 70
     1
102
RTVSPropertyOp48
 70
     1
102
RTVSPropertyOp49
 70
     1
102
RTVSPropertyOp50
 70
     1
102
RTVSPropertyOp51
 70
     0
102
RTVSPropertyOp52
 70
     0
102
RTVSPropertyOp53
 70
     1
102
RTVSPropertyOp54
 70
     1
102
RTVSPropertyOp55
 70
     1
102
RTVSPropertyOp56
 70
     1
102
RTVSPropertyOp57
 70
     1
102
RTVSPropertyOp58
 70
     1
102
RTVSPropertyOp59
 70
     1
102
RTVSPropertyOp60
 70
     1
102
RTVSPropertyOp61
 70
     1
102
RTVSPropertyOp62
 70
     1
  0
XRECORD
  5
33A3
102
{ACAD_REACTORS
330
33A2
102
}
330
33A2
100
AcDbXrecord
280
     1
102
RTVSPost2010Prop28
280
     0
102
RTVSPost2010PropOp28
 70
     1
102
RTVSPost2010Prop29
280
     1
102
RTVSPost2010PropOp29
 70
     1
102
RTVSPost2010Prop30
280
     1
102
RTVSPost2010PropOp30
 70
     1
102
RTVSPost2010Prop31
280
     0
102
RTVSPost2010PropOp31
 70
     1
102
RTVSPost2010Prop32
280
     0
102
RTVSPost2010PropOp32
 70
     1
102
RTVSPost2010Prop33
280
     0
102
RTVSPost2010PropOp33
 70
     1
102
RTVSPost2010Prop34
280
     0
102
RTVSPost2010PropOp34
 70
     1
102
RTVSPost2010Prop35
280
     0
102
RTVSPost2010PropOp35
 70
     1
102
RTVSPost2010Prop36
280
     0
102
RTVSPost2010PropOp36
 70
     1
102
RTVSPost2010Prop37
 90
       50
102
RTVSPost2010PropOp37
 70
     0
102
RTVSPost2010Prop38
140
0.0
102
RTVSPost2010PropOp38
 70
     0
102
RTVSPost2010Prop39
140
1.0
102
RTVSPost2010PropOp39
 70
     0
102
RTVSPost2010Prop40
 90
        0
102
RTVSPost2010PropOp40
 70
     0
102
RTVSPost2010Prop41ColorIndex
 90
       18
102
RTVSPost2010Prop41ColorRGB
 90
        0
102
RTVSPost2010PropOp41
 70
     0
102
RTVSPost2010Prop42
 90
       50
102
RTVSPost2010PropOp42
 70
     0
102
RTVSPost2010Prop43
 90
        3
102
RTVSPost2010PropOp43
 70
     0
102
RTVSPost2010Prop44ColorIndex
 90
        5
102
RTVSPost2010Prop44ColorRGB
 90
      255
102
RTVSPost2010PropOp44
 70
     0
102
RTVSPost2010Prop45
280
     0
102
RTVSPost2010PropOp45
 70
     1
102
RTVSPost2010Prop46
 90
       50
102
RTVSPost2010PropOp46
 70
     0
102
RTVSPost2010Prop47
 90
       50
102
RTVSPost2010PropOp47
 70
     0
102
RTVSPost2010Prop48
 90
       50
102
RTVSPost2010PropOp48
 70
     0
102
RTVSPost2010Prop49
280
     0
102
RTVSPost2010PropOp49
 70
     1
102
RTVSPost2010Prop50
 90
       50
102
RTVSPost2010PropOp50
 70
     0
102
RTVSPost2010Prop51ColorIndex
 90
      256
102
RTVSPost2010Prop51ColorRGB
 90
-16777216
102
RTVSPost2010PropOp51
 70
     0
102
RTVSPost2010Prop52
140
1.0
102
RTVSPost2010PropOp52
 70
     0
102
RTVSPost2010Prop53
 90
        2
102
RTVSPost2010PropOp53
 70
     0
102
RTVSPost2010Prop54
  1
strokes_ogs.tif
102
RTVSPost2010PropOp54
 70
     0
102
RTVSPost2010Prop55
280
     0
102
RTVSPost2010PropOp55
 70
     1
102
RTVSPost2010Prop56
140
1.0
102
RTVSPost2010PropOp56
 70
     0
102
RTVSPost2010Prop57
140
1.0
102
RTVSPost2010PropOp57
 70
     0
102
RTVSPropertyOp0
 70
     0
102
RTVSPropertyOp1
 70
     0
102
RTVSPropertyOp2
 70
     0
102
RTVSPropertyOp3
 70
     0
102
RTVSPropertyOp4
 70
     0
102
RTVSPropertyOp5
 70
     0
102
RTVSPropertyOp6
 70
     0
102
RTVSPropertyOp7
 70
     0
102
RTVSPropertyOp8
 70
     0
102
RTVSPropertyOp9
 70
     0
102
RTVSPropertyOp10
 70
     0
102
RTVSPropertyOp11
 70
     0
102
RTVSPropertyOp12
 70
     0
102
RTVSPropertyOp13
 70
     0
102
RTVSPropertyOp14
 70
     2
102
RTVSPropertyOp15
 70
     0
102
RTVSPropertyOp16
 70
     0
102
RTVSPropertyOp17
 70
     0
102
RTVSPropertyOp18
 70
     0
102
RTVSPropertyOp19
 70
     0
102
RTVSPropertyOp20
 70
     0
102
RTVSPropertyOp21
 70
     0
102
RTVSPropertyOp22
 70
     0
102
RTVSPropertyOp23
 70
     0
102
RTVSPropertyOp24
 70
     0
102
RTVSPropertyOp25
 70
     0
102
RTVSPropertyOp26
 70
     0
102
RTVSPropertyOp27
 70
     0
102
RTVSPropertyOp28
 70
     1
102
RTVSPropertyOp29
 70
     1
102
RTVSPropertyOp30
 70
     1
102
RTVSPropertyOp31
 70
     1
102
RTVSPropertyOp32
 70
     1
102
RTVSPropertyOp33
 70
     1
102
RTVSPropertyOp34
 70
     1
102
RTVSPropertyOp35
 70
     1
102
RTVSPropertyOp36
 70
     1
102
RTVSPropertyOp37
 70
     0
102
RTVSPropertyOp38
 70
     0
102
RTVSPropertyOp39
 70
     0
102
RTVSPropertyOp40
 70
     0
102
RTVSPropertyOp41
 70
     0
102
RTVSPropertyOp42
 70
     0
102
RTVSPropertyOp43
 70
     0
102
RTVSPropertyOp44
 70
     0
102
RTVSPropertyOp45
 70
     1
102
RTVSPropertyOp46
 70
     0
102
RTVSPropertyOp47
 70
     0
102
RTVSPropertyOp48
 70
     0
102
RTVSPropertyOp49
 70
     1
102
RTVSPropertyOp50
 70
     0
102
RTVSPropertyOp51
 70
     0
102
RTVSPropertyOp52
 70
     0
102
RTVSPropertyOp53
 70
     0
102
RTVSPropertyOp54
 70
     0
102
RTVSPropertyOp55
 70
     1
102
RTVSPropertyOp56
 70
     0
102
RTVSPropertyOp57
 70
     0
102
RTVSPropertyOp58
 70
     0
102
RTVSPropertyOp59
 70
     0
102
RTVSPropertyOp60
 70
     0
102
RTVSPropertyOp61
 70
     0
102
RTVSPropertyOp62
 70
     0
  0
XRECORD
  5
3389
102
{ACAD_REACTORS
330
3388
102
}
330
3388
100
AcDbXrecord
280
     1
102
RTVSPost2010Prop28
280
     0
102
RTVSPost2010PropOp28
 70
     1
102
RTVSPost2010Prop29
280
     1
102
RTVSPost2010PropOp29
 70
     1
102
RTVSPost2010Prop30
280
     1
102
RTVSPost2010PropOp30
 70
     1
102
RTVSPost2010Prop31
280
     0
102
RTVSPost2010PropOp31
 70
     1
102
RTVSPost2010Prop32
280
     0
102
RTVSPost2010PropOp32
 70
     1
102
RTVSPost2010Prop33
280
     0
102
RTVSPost2010PropOp33
 70
     1
102
RTVSPost2010Prop34
280
     0
102
RTVSPost2010PropOp34
 70
     1
102
RTVSPost2010Prop35
280
     0
102
RTVSPost2010PropOp35
 70
     1
102
RTVSPost2010Prop36
280
     0
102
RTVSPost2010PropOp36
 70
     1
102
RTVSPost2010Prop37
 90
       50
102
RTVSPost2010PropOp37
 70
     1
102
RTVSPost2010Prop38
140
0.0
102
RTVSPost2010PropOp38
 70
     1
102
RTVSPost2010Prop39
140
1.0
102
RTVSPost2010PropOp39
 70
     1
102
RTVSPost2010Prop40
 90
        0
102
RTVSPost2010PropOp40
 70
     1
102
RTVSPost2010Prop41ColorIndex
 90
       18
102
RTVSPost2010Prop41ColorRGB
 90
        0
102
RTVSPost2010PropOp41
 70
     1
102
RTVSPost2010Prop42
 90
       50
102
RTVSPost2010PropOp42
 70
     1
102
RTVSPost2010Prop43
 90
        3
102
RTVSPost2010PropOp43
 70
     1
102
RTVSPost2010Prop44ColorIndex
 90
        5
102
RTVSPost2010Prop44ColorRGB
 90
      255
102
RTVSPost2010PropOp44
 70
     1
102
RTVSPost2010Prop45
280
     0
102
RTVSPost2010PropOp45
 70
     1
102
RTVSPost2010Prop46
 90
       50
102
RTVSPost2010PropOp46
 70
     1
102
RTVSPost2010Prop47
 90
       50
102
RTVSPost2010PropOp47
 70
     1
102
RTVSPost2010Prop48
 90
       50
102
RTVSPost2010PropOp48
 70
     1
102
RTVSPost2010Prop49
280
     0
102
RTVSPost2010PropOp49
 70
     1
102
RTVSPost2010Prop50
 90
       50
102
RTVSPost2010PropOp50
 70
     1
102
RTVSPost2010Prop51ColorIndex
 90
      256
102
RTVSPost2010Prop51ColorRGB
 90
-16777216
102
RTVSPost2010PropOp51
 70
     0
102
RTVSPost2010Prop52
140
1.0
102
RTVSPost2010PropOp52
 70
     0
102
RTVSPost2010Prop53
 90
        2
102
RTVSPost2010PropOp53
 70
     1
102
RTVSPost2010Prop54
  1
strokes_ogs.tif
102
RTVSPost2010PropOp54
 70
     1
102
RTVSPost2010Prop55
280
     0
102
RTVSPost2010PropOp55
 70
     1
102
RTVSPost2010Prop56
140
1.0
102
RTVSPost2010PropOp56
 70
     1
102
RTVSPost2010Prop57
140
1.0
102
RTVSPost2010PropOp57
 70
     1
102
RTVSPropertyOp0
 70
     1
102
RTVSPropertyOp1
 70
     1
102
RTVSPropertyOp2
 70
     1
102
RTVSPropertyOp3
 70
     1
102
RTVSPropertyOp4
 70
     1
102
RTVSPropertyOp5
 70
     1
102
RTVSPropertyOp6
 70
     1
102
RTVSPropertyOp7
 70
     1
102
RTVSPropertyOp8
 70
     1
102
RTVSPropertyOp9
 70
     1
102
RTVSPropertyOp10
 70
     1
102
RTVSPropertyOp11
 70
     1
102
RTVSPropertyOp12
 70
     1
102
RTVSPropertyOp13
 70
     1
102
RTVSPropertyOp14
 70
     1
102
RTVSPropertyOp15
 70
     1
102
RTVSPropertyOp16
 70
     1
102
RTVSPropertyOp17
 70
     1
102
RTVSPropertyOp18
 70
     1
102
RTVSPropertyOp19
 70
     1
102
RTVSPropertyOp20
 70
     1
102
RTVSPropertyOp21
 70
     1
102
RTVSPropertyOp22
 70
     1
102
RTVSPropertyOp23
 70
     1
102
RTVSPropertyOp24
 70
     1
102
RTVSPropertyOp25
 70
     1
102
RTVSPropertyOp26
 70
     1
102
RTVSPropertyOp27
 70
     1
102
RTVSPropertyOp28
 70
     1
102
RTVSPropertyOp29
 70
     1
102
RTVSPropertyOp30
 70
     1
102
RTVSPropertyOp31
 70
     1
102
RTVSPropertyOp32
 70
     1
102
RTVSPropertyOp33
 70
     1
102
RTVSPropertyOp34
 70
     1
102
RTVSPropertyOp35
 70
     1
102
RTVSPropertyOp36
 70
     1
102
RTVSPropertyOp37
 70
     1
102
RTVSPropertyOp38
 70
     1
102
RTVSPropertyOp39
 70
     1
102
RTVSPropertyOp40
 70
     1
102
RTVSPropertyOp41
 70
     1
102
RTVSPropertyOp42
 70
     1
102
RTVSPropertyOp43
 70
     1
102
RTVSPropertyOp44
 70
     1
102
RTVSPropertyOp45
 70
     1
102
RTVSPropertyOp46
 70
     1
102
RTVSPropertyOp47
 70
     1
102
RTVSPropertyOp48
 70
     1
102
RTVSPropertyOp49
 70
     1
102
RTVSPropertyOp50
 70
     1
102
RTVSPropertyOp51
 70
     0
102
RTVSPropertyOp52
 70
     0
102
RTVSPropertyOp53
 70
     1
102
RTVSPropertyOp54
 70
     1
102
RTVSPropertyOp55
 70
     1
102
RTVSPropertyOp56
 70
     1
102
RTVSPropertyOp57
 70
     1
102
RTVSPropertyOp58
 70
     1
102
RTVSPropertyOp59
 70
     1
102
RTVSPropertyOp60
 70
     1
102
RTVSPropertyOp61
 70
     1
102
RTVSPropertyOp62
 70
     1
  0
XRECORD
  5
339F
102
{ACAD_REACTORS
330
339E
102
}
330
339E
100
AcDbXrecord
280
     1
102
RTVSPost2010Prop28
280
     0
102
RTVSPost2010PropOp28
 70
     1
102
RTVSPost2010Prop29
280
     1
102
RTVSPost2010PropOp29
 70
     1
102
RTVSPost2010Prop30
280
     1
102
RTVSPost2010PropOp30
 70
     1
102
RTVSPost2010Prop31
280
     0
102
RTVSPost2010PropOp31
 70
     1
102
RTVSPost2010Prop32
280
     0
102
RTVSPost2010PropOp32
 70
     1
102
RTVSPost2010Prop33
280
     0
102
RTVSPost2010PropOp33
 70
     1
102
RTVSPost2010Prop34
280
     0
102
RTVSPost2010PropOp34
 70
     1
102
RTVSPost2010Prop35
280
     0
102
RTVSPost2010PropOp35
 70
     1
102
RTVSPost2010Prop36
280
     0
102
RTVSPost2010PropOp36
 70
     1
102
RTVSPost2010Prop37
 90
       50
102
RTVSPost2010PropOp37
 70
     1
102
RTVSPost2010Prop38
140
0.0
102
RTVSPost2010PropOp38
 70
     1
102
RTVSPost2010Prop39
140
1.0
102
RTVSPost2010PropOp39
 70
     1
102
RTVSPost2010Prop40
 90
        0
102
RTVSPost2010PropOp40
 70
     1
102
RTVSPost2010Prop41ColorIndex
 90
       18
102
RTVSPost2010Prop41ColorRGB
 90
        0
102
RTVSPost2010PropOp41
 70
     1
102
RTVSPost2010Prop42
 90
       50
102
RTVSPost2010PropOp42
 70
     1
102
RTVSPost2010Prop43
 90
        3
102
RTVSPost2010PropOp43
 70
     1
102
RTVSPost2010Prop44ColorIndex
 90
        5
102
RTVSPost2010Prop44ColorRGB
 90
      255
102
RTVSPost2010PropOp44
 70
     1
102
RTVSPost2010Prop45
280
     0
102
RTVSPost2010PropOp45
 70
     1
102
RTVSPost2010Prop46
 90
       50
102
RTVSPost2010PropOp46
 70
     1
102
RTVSPost2010Prop47
 90
       50
102
RTVSPost2010PropOp47
 70
     1
102
RTVSPost2010Prop48
 90
       50
102
RTVSPost2010PropOp48
 70
     1
102
RTVSPost2010Prop49
280
     0
102
RTVSPost2010PropOp49
 70
     1
102
RTVSPost2010Prop50
 90
       50
102
RTVSPost2010PropOp50
 70
     1
102
RTVSPost2010Prop51ColorIndex
 90
      256
102
RTVSPost2010Prop51ColorRGB
 90
-16777216
102
RTVSPost2010PropOp51
 70
     0
102
RTVSPost2010Prop52
140
1.0
102
RTVSPost2010PropOp52
 70
     0
102
RTVSPost2010Prop53
 90
        2
102
RTVSPost2010PropOp53
 70
     1
102
RTVSPost2010Prop54
  1
strokes_ogs.tif
102
RTVSPost2010PropOp54
 70
     1
102
RTVSPost2010Prop55
280
     0
102
RTVSPost2010PropOp55
 70
     1
102
RTVSPost2010Prop56
140
1.0
102
RTVSPost2010PropOp56
 70
     1
102
RTVSPost2010Prop57
140
1.0
102
RTVSPost2010PropOp57
 70
     1
102
RTVSPropertyOp0
 70
     1
102
RTVSPropertyOp1
 70
     1
102
RTVSPropertyOp2
 70
     1
102
RTVSPropertyOp3
 70
     1
102
RTVSPropertyOp4
 70
     1
102
RTVSPropertyOp5
 70
     1
102
RTVSPropertyOp6
 70
     1
102
RTVSPropertyOp7
 70
     1
102
RTVSPropertyOp8
 70
     1
102
RTVSPropertyOp9
 70
     1
102
RTVSPropertyOp10
 70
     1
102
RTVSPropertyOp11
 70
     1
102
RTVSPropertyOp12
 70
     1
102
RTVSPropertyOp13
 70
     1
102
RTVSPropertyOp14
 70
     1
102
RTVSPropertyOp15
 70
     1
102
RTVSPropertyOp16
 70
     1
102
RTVSPropertyOp17
 70
     1
102
RTVSPropertyOp18
 70
     1
102
RTVSPropertyOp19
 70
     1
102
RTVSPropertyOp20
 70
     1
102
RTVSPropertyOp21
 70
     1
102
RTVSPropertyOp22
 70
     1
102
RTVSPropertyOp23
 70
     1
102
RTVSPropertyOp24
 70
     1
102
RTVSPropertyOp25
 70
     1
102
RTVSPropertyOp26
 70
     1
102
RTVSPropertyOp27
 70
     1
102
RTVSPropertyOp28
 70
     1
102
RTVSPropertyOp29
 70
     1
102
RTVSPropertyOp30
 70
     1
102
RTVSPropertyOp31
 70
     1
102
RTVSPropertyOp32
 70
     1
102
RTVSPropertyOp33
 70
     1
102
RTVSPropertyOp34
 70
     1
102
RTVSPropertyOp35
 70
     1
102
RTVSPropertyOp36
 70
     1
102
RTVSPropertyOp37
 70
     1
102
RTVSPropertyOp38
 70
     1
102
RTVSPropertyOp39
 70
     1
102
RTVSPropertyOp40
 70
     1
102
RTVSPropertyOp41
 70
     1
102
RTVSPropertyOp42
 70
     1
102
RTVSPropertyOp43
 70
     1
102
RTVSPropertyOp44
 70
     1
102
RTVSPropertyOp45
 70
     1
102
RTVSPropertyOp46
 70
     1
102
RTVSPropertyOp47
 70
     1
102
RTVSPropertyOp48
 70
     1
102
RTVSPropertyOp49
 70
     1
102
RTVSPropertyOp50
 70
     1
102
RTVSPropertyOp51
 70
     0
102
RTVSPropertyOp52
 70
     0
102
RTVSPropertyOp53
 70
     1
102
RTVSPropertyOp54
 70
     1
102
RTVSPropertyOp55
 70
     1
102
RTVSPropertyOp56
 70
     1
102
RTVSPropertyOp57
 70
     1
102
RTVSPropertyOp58
 70
     1
102
RTVSPropertyOp59
 70
     1
102
RTVSPropertyOp60
 70
     1
102
RTVSPropertyOp61
 70
     1
102
RTVSPropertyOp62
 70
     1
  0
XRECORD
  5
339D
102
{ACAD_REACTORS
330
339C
102
}
330
339C
100
AcDbXrecord
280
     1
102
RTVSPost2010Prop28
280
     0
102
RTVSPost2010PropOp28
 70
     1
102
RTVSPost2010Prop29
280
     1
102
RTVSPost2010PropOp29
 70
     1
102
RTVSPost2010Prop30
280
     1
102
RTVSPost2010PropOp30
 70
     1
102
RTVSPost2010Prop31
280
     0
102
RTVSPost2010PropOp31
 70
     1
102
RTVSPost2010Prop32
280
     0
102
RTVSPost2010PropOp32
 70
     1
102
RTVSPost2010Prop33
280
     0
102
RTVSPost2010PropOp33
 70
     1
102
RTVSPost2010Prop34
280
     0
102
RTVSPost2010PropOp34
 70
     1
102
RTVSPost2010Prop35
280
     0
102
RTVSPost2010PropOp35
 70
     1
102
RTVSPost2010Prop36
280
     0
102
RTVSPost2010PropOp36
 70
     1
102
RTVSPost2010Prop37
 90
       50
102
RTVSPost2010PropOp37
 70
     1
102
RTVSPost2010Prop38
140
0.0
102
RTVSPost2010PropOp38
 70
     1
102
RTVSPost2010Prop39
140
1.0
102
RTVSPost2010PropOp39
 70
     1
102
RTVSPost2010Prop40
 90
        0
102
RTVSPost2010PropOp40
 70
     1
102
RTVSPost2010Prop41ColorIndex
 90
       18
102
RTVSPost2010Prop41ColorRGB
 90
        0
102
RTVSPost2010PropOp41
 70
     1
102
RTVSPost2010Prop42
 90
       50
102
RTVSPost2010PropOp42
 70
     1
102
RTVSPost2010Prop43
 90
        3
102
RTVSPost2010PropOp43
 70
     1
102
RTVSPost2010Prop44ColorIndex
 90
        5
102
RTVSPost2010Prop44ColorRGB
 90
      255
102
RTVSPost2010PropOp44
 70
     1
102
RTVSPost2010Prop45
280
     0
102
RTVSPost2010PropOp45
 70
     1
102
RTVSPost2010Prop46
 90
       50
102
RTVSPost2010PropOp46
 70
     1
102
RTVSPost2010Prop47
 90
       50
102
RTVSPost2010PropOp47
 70
     1
102
RTVSPost2010Prop48
 90
       50
102
RTVSPost2010PropOp48
 70
     1
102
RTVSPost2010Prop49
280
     0
102
RTVSPost2010PropOp49
 70
     1
102
RTVSPost2010Prop50
 90
       50
102
RTVSPost2010PropOp50
 70
     1
102
RTVSPost2010Prop51ColorIndex
 90
      256
102
RTVSPost2010Prop51ColorRGB
 90
-16777216
102
RTVSPost2010PropOp51
 70
     0
102
RTVSPost2010Prop52
140
1.0
102
RTVSPost2010PropOp52
 70
     0
102
RTVSPost2010Prop53
 90
        2
102
RTVSPost2010PropOp53
 70
     1
102
RTVSPost2010Prop54
  1
strokes_ogs.tif
102
RTVSPost2010PropOp54
 70
     1
102
RTVSPost2010Prop55
280
     0
102
RTVSPost2010PropOp55
 70
     1
102
RTVSPost2010Prop56
140
1.0
102
RTVSPost2010PropOp56
 70
     1
102
RTVSPost2010Prop57
140
1.0
102
RTVSPost2010PropOp57
 70
     1
102
RTVSPropertyOp0
 70
     1
102
RTVSPropertyOp1
 70
     1
102
RTVSPropertyOp2
 70
     1
102
RTVSPropertyOp3
 70
     1
102
RTVSPropertyOp4
 70
     1
102
RTVSPropertyOp5
 70
     1
102
RTVSPropertyOp6
 70
     1
102
RTVSPropertyOp7
 70
     1
102
RTVSPropertyOp8
 70
     1
102
RTVSPropertyOp9
 70
     1
102
RTVSPropertyOp10
 70
     1
102
RTVSPropertyOp11
 70
     1
102
RTVSPropertyOp12
 70
     1
102
RTVSPropertyOp13
 70
     1
102
RTVSPropertyOp14
 70
     1
102
RTVSPropertyOp15
 70
     1
102
RTVSPropertyOp16
 70
     1
102
RTVSPropertyOp17
 70
     1
102
RTVSPropertyOp18
 70
     1
102
RTVSPropertyOp19
 70
     1
102
RTVSPropertyOp20
 70
     1
102
RTVSPropertyOp21
 70
     1
102
RTVSPropertyOp22
 70
     1
102
RTVSPropertyOp23
 70
     1
102
RTVSPropertyOp24
 70
     1
102
RTVSPropertyOp25
 70
     1
102
RTVSPropertyOp26
 70
     1
102
RTVSPropertyOp27
 70
     1
102
RTVSPropertyOp28
 70
     1
102
RTVSPropertyOp29
 70
     1
102
RTVSPropertyOp30
 70
     1
102
RTVSPropertyOp31
 70
     1
102
RTVSPropertyOp32
 70
     1
102
RTVSPropertyOp33
 70
     1
102
RTVSPropertyOp34
 70
     1
102
RTVSPropertyOp35
 70
     1
102
RTVSPropertyOp36
 70
     1
102
RTVSPropertyOp37
 70
     1
102
RTVSPropertyOp38
 70
     1
102
RTVSPropertyOp39
 70
     1
102
RTVSPropertyOp40
 70
     1
102
RTVSPropertyOp41
 70
     1
102
RTVSPropertyOp42
 70
     1
102
RTVSPropertyOp43
 70
     1
102
RTVSPropertyOp44
 70
     1
102
RTVSPropertyOp45
 70
     1
102
RTVSPropertyOp46
 70
     1
102
RTVSPropertyOp47
 70
     1
102
RTVSPropertyOp48
 70
     1
102
RTVSPropertyOp49
 70
     1
102
RTVSPropertyOp50
 70
     1
102
RTVSPropertyOp51
 70
     0
102
RTVSPropertyOp52
 70
     0
102
RTVSPropertyOp53
 70
     1
102
RTVSPropertyOp54
 70
     1
102
RTVSPropertyOp55
 70
     1
102
RTVSPropertyOp56
 70
     1
102
RTVSPropertyOp57
 70
     1
102
RTVSPropertyOp58
 70
     1
102
RTVSPropertyOp59
 70
     1
102
RTVSPropertyOp60
 70
     1
102
RTVSPropertyOp61
 70
     1
102
RTVSPropertyOp62
 70
     1
  0
XRECORD
  5
3397
102
{ACAD_REACTORS
330
3396
102
}
330
3396
100
AcDbXrecord
280
     1
102
RTVSPost2010Prop28
280
     0
102
RTVSPost2010PropOp28
 70
     1
102
RTVSPost2010Prop29
280
     1
102
RTVSPost2010PropOp29
 70
     1
102
RTVSPost2010Prop30
280
     1
102
RTVSPost2010PropOp30
 70
     1
102
RTVSPost2010Prop31
280
     0
102
RTVSPost2010PropOp31
 70
     1
102
RTVSPost2010Prop32
280
     0
102
RTVSPost2010PropOp32
 70
     1
102
RTVSPost2010Prop33
280
     0
102
RTVSPost2010PropOp33
 70
     1
102
RTVSPost2010Prop34
280
     0
102
RTVSPost2010PropOp34
 70
     1
102
RTVSPost2010Prop35
280
     0
102
RTVSPost2010PropOp35
 70
     1
102
RTVSPost2010Prop36
280
     0
102
RTVSPost2010PropOp36
 70
     1
102
RTVSPost2010Prop37
 90
       50
102
RTVSPost2010PropOp37
 70
     1
102
RTVSPost2010Prop38
140
0.0
102
RTVSPost2010PropOp38
 70
     1
102
RTVSPost2010Prop39
140
1.0
102
RTVSPost2010PropOp39
 70
     1
102
RTVSPost2010Prop40
 90
        0
102
RTVSPost2010PropOp40
 70
     1
102
RTVSPost2010Prop41ColorIndex
 90
       18
102
RTVSPost2010Prop41ColorRGB
 90
        0
102
RTVSPost2010PropOp41
 70
     1
102
RTVSPost2010Prop42
 90
       50
102
RTVSPost2010PropOp42
 70
     1
102
RTVSPost2010Prop43
 90
        3
102
RTVSPost2010PropOp43
 70
     1
102
RTVSPost2010Prop44ColorIndex
 90
        5
102
RTVSPost2010Prop44ColorRGB
 90
      255
102
RTVSPost2010PropOp44
 70
     1
102
RTVSPost2010Prop45
280
     0
102
RTVSPost2010PropOp45
 70
     1
102
RTVSPost2010Prop46
 90
       50
102
RTVSPost2010PropOp46
 70
     1
102
RTVSPost2010Prop47
 90
       50
102
RTVSPost2010PropOp47
 70
     1
102
RTVSPost2010Prop48
 90
       50
102
RTVSPost2010PropOp48
 70
     1
102
RTVSPost2010Prop49
280
     0
102
RTVSPost2010PropOp49
 70
     1
102
RTVSPost2010Prop50
 90
       50
102
RTVSPost2010PropOp50
 70
     1
102
RTVSPost2010Prop51ColorIndex
 90
      256
102
RTVSPost2010Prop51ColorRGB
 90
-16777216
102
RTVSPost2010PropOp51
 70
     0
102
RTVSPost2010Prop52
140
1.0
102
RTVSPost2010PropOp52
 70
     0
102
RTVSPost2010Prop53
 90
        2
102
RTVSPost2010PropOp53
 70
     1
102
RTVSPost2010Prop54
  1
strokes_ogs.tif
102
RTVSPost2010PropOp54
 70
     1
102
RTVSPost2010Prop55
280
     0
102
RTVSPost2010PropOp55
 70
     1
102
RTVSPost2010Prop56
140
1.0
102
RTVSPost2010PropOp56
 70
     1
102
RTVSPost2010Prop57
140
1.0
102
RTVSPost2010PropOp57
 70
     1
102
RTVSPropertyOp0
 70
     1
102
RTVSPropertyOp1
 70
     1
102
RTVSPropertyOp2
 70
     1
102
RTVSPropertyOp3
 70
     1
102
RTVSPropertyOp4
 70
     1
102
RTVSPropertyOp5
 70
     1
102
RTVSPropertyOp6
 70
     1
102
RTVSPropertyOp7
 70
     1
102
RTVSPropertyOp8
 70
     1
102
RTVSPropertyOp9
 70
     1
102
RTVSPropertyOp10
 70
     1
102
RTVSPropertyOp11
 70
     1
102
RTVSPropertyOp12
 70
     1
102
RTVSPropertyOp13
 70
     1
102
RTVSPropertyOp14
 70
     1
102
RTVSPropertyOp15
 70
     1
102
RTVSPropertyOp16
 70
     1
102
RTVSPropertyOp17
 70
     1
102
RTVSPropertyOp18
 70
     1
102
RTVSPropertyOp19
 70
     1
102
RTVSPropertyOp20
 70
     1
102
RTVSPropertyOp21
 70
     1
102
RTVSPropertyOp22
 70
     1
102
RTVSPropertyOp23
 70
     1
102
RTVSPropertyOp24
 70
     1
102
RTVSPropertyOp25
 70
     1
102
RTVSPropertyOp26
 70
     1
102
RTVSPropertyOp27
 70
     1
102
RTVSPropertyOp28
 70
     1
102
RTVSPropertyOp29
 70
     1
102
RTVSPropertyOp30
 70
     1
102
RTVSPropertyOp31
 70
     1
102
RTVSPropertyOp32
 70
     1
102
RTVSPropertyOp33
 70
     1
102
RTVSPropertyOp34
 70
     1
102
RTVSPropertyOp35
 70
     1
102
RTVSPropertyOp36
 70
     1
102
RTVSPropertyOp37
 70
     1
102
RTVSPropertyOp38
 70
     1
102
RTVSPropertyOp39
 70
     1
102
RTVSPropertyOp40
 70
     1
102
RTVSPropertyOp41
 70
     1
102
RTVSPropertyOp42
 70
     1
102
RTVSPropertyOp43
 70
     1
102
RTVSPropertyOp44
 70
     1
102
RTVSPropertyOp45
 70
     1
102
RTVSPropertyOp46
 70
     1
102
RTVSPropertyOp47
 70
     1
102
RTVSPropertyOp48
 70
     1
102
RTVSPropertyOp49
 70
     1
102
RTVSPropertyOp50
 70
     1
102
RTVSPropertyOp51
 70
     0
102
RTVSPropertyOp52
 70
     0
102
RTVSPropertyOp53
 70
     1
102
RTVSPropertyOp54
 70
     1
102
RTVSPropertyOp55
 70
     1
102
RTVSPropertyOp56
 70
     1
102
RTVSPropertyOp57
 70
     1
102
RTVSPropertyOp58
 70
     1
102
RTVSPropertyOp59
 70
     1
102
RTVSPropertyOp60
 70
     1
102
RTVSPropertyOp61
 70
     1
102
RTVSPropertyOp62
 70
     1
  0
XRECORD
  5
3399
102
{ACAD_REACTORS
330
3398
102
}
330
3398
100
AcDbXrecord
280
     1
102
RTVSPost2010Prop28
280
     0
102
RTVSPost2010PropOp28
 70
     1
102
RTVSPost2010Prop29
280
     1
102
RTVSPost2010PropOp29
 70
     1
102
RTVSPost2010Prop30
280
     1
102
RTVSPost2010PropOp30
 70
     1
102
RTVSPost2010Prop31
280
     0
102
RTVSPost2010PropOp31
 70
     1
102
RTVSPost2010Prop32
280
     0
102
RTVSPost2010PropOp32
 70
     1
102
RTVSPost2010Prop33
280
     0
102
RTVSPost2010PropOp33
 70
     1
102
RTVSPost2010Prop34
280
     0
102
RTVSPost2010PropOp34
 70
     1
102
RTVSPost2010Prop35
280
     0
102
RTVSPost2010PropOp35
 70
     1
102
RTVSPost2010Prop36
280
     0
102
RTVSPost2010PropOp36
 70
     1
102
RTVSPost2010Prop37
 90
       50
102
RTVSPost2010PropOp37
 70
     1
102
RTVSPost2010Prop38
140
0.0
102
RTVSPost2010PropOp38
 70
     1
102
RTVSPost2010Prop39
140
1.0
102
RTVSPost2010PropOp39
 70
     1
102
RTVSPost2010Prop40
 90
        0
102
RTVSPost2010PropOp40
 70
     1
102
RTVSPost2010Prop41ColorIndex
 90
       18
102
RTVSPost2010Prop41ColorRGB
 90
        0
102
RTVSPost2010PropOp41
 70
     1
102
RTVSPost2010Prop42
 90
       50
102
RTVSPost2010PropOp42
 70
     1
102
RTVSPost2010Prop43
 90
        3
102
RTVSPost2010PropOp43
 70
     1
102
RTVSPost2010Prop44ColorIndex
 90
        5
102
RTVSPost2010Prop44ColorRGB
 90
      255
102
RTVSPost2010PropOp44
 70
     1
102
RTVSPost2010Prop45
280
     0
102
RTVSPost2010PropOp45
 70
     1
102
RTVSPost2010Prop46
 90
       50
102
RTVSPost2010PropOp46
 70
     1
102
RTVSPost2010Prop47
 90
       50
102
RTVSPost2010PropOp47
 70
     1
102
RTVSPost2010Prop48
 90
       50
102
RTVSPost2010PropOp48
 70
     1
102
RTVSPost2010Prop49
280
     0
102
RTVSPost2010PropOp49
 70
     1
102
RTVSPost2010Prop50
 90
       50
102
RTVSPost2010PropOp50
 70
     1
102
RTVSPost2010Prop51ColorIndex
 90
      256
102
RTVSPost2010Prop51ColorRGB
 90
-16777216
102
RTVSPost2010PropOp51
 70
     0
102
RTVSPost2010Prop52
140
1.0
102
RTVSPost2010PropOp52
 70
     0
102
RTVSPost2010Prop53
 90
        2
102
RTVSPost2010PropOp53
 70
     1
102
RTVSPost2010Prop54
  1
strokes_ogs.tif
102
RTVSPost2010PropOp54
 70
     1
102
RTVSPost2010Prop55
280
     0
102
RTVSPost2010PropOp55
 70
     1
102
RTVSPost2010Prop56
140
1.0
102
RTVSPost2010PropOp56
 70
     1
102
RTVSPost2010Prop57
140
1.0
102
RTVSPost2010PropOp57
 70
     1
102
RTVSPropertyOp0
 70
     1
102
RTVSPropertyOp1
 70
     1
102
RTVSPropertyOp2
 70
     1
102
RTVSPropertyOp3
 70
     1
102
RTVSPropertyOp4
 70
     1
102
RTVSPropertyOp5
 70
     1
102
RTVSPropertyOp6
 70
     1
102
RTVSPropertyOp7
 70
     1
102
RTVSPropertyOp8
 70
     1
102
RTVSPropertyOp9
 70
     1
102
RTVSPropertyOp10
 70
     1
102
RTVSPropertyOp11
 70
     1
102
RTVSPropertyOp12
 70
     1
102
RTVSPropertyOp13
 70
     1
102
RTVSPropertyOp14
 70
     1
102
RTVSPropertyOp15
 70
     1
102
RTVSPropertyOp16
 70
     1
102
RTVSPropertyOp17
 70
     1
102
RTVSPropertyOp18
 70
     1
102
RTVSPropertyOp19
 70
     1
102
RTVSPropertyOp20
 70
     1
102
RTVSPropertyOp21
 70
     1
102
RTVSPropertyOp22
 70
     1
102
RTVSPropertyOp23
 70
     1
102
RTVSPropertyOp24
 70
     1
102
RTVSPropertyOp25
 70
     1
102
RTVSPropertyOp26
 70
     1
102
RTVSPropertyOp27
 70
     1
102
RTVSPropertyOp28
 70
     1
102
RTVSPropertyOp29
 70
     1
102
RTVSPropertyOp30
 70
     1
102
RTVSPropertyOp31
 70
     1
102
RTVSPropertyOp32
 70
     1
102
RTVSPropertyOp33
 70
     1
102
RTVSPropertyOp34
 70
     1
102
RTVSPropertyOp35
 70
     1
102
RTVSPropertyOp36
 70
     1
102
RTVSPropertyOp37
 70
     1
102
RTVSPropertyOp38
 70
     1
102
RTVSPropertyOp39
 70
     1
102
RTVSPropertyOp40
 70
     1
102
RTVSPropertyOp41
 70
     1
102
RTVSPropertyOp42
 70
     1
102
RTVSPropertyOp43
 70
     1
102
RTVSPropertyOp44
 70
     1
102
RTVSPropertyOp45
 70
     1
102
RTVSPropertyOp46
 70
     1
102
RTVSPropertyOp47
 70
     1
102
RTVSPropertyOp48
 70
     1
102
RTVSPropertyOp49
 70
     1
102
RTVSPropertyOp50
 70
     1
102
RTVSPropertyOp51
 70
     0
102
RTVSPropertyOp52
 70
     0
102
RTVSPropertyOp53
 70
     1
102
RTVSPropertyOp54
 70
     1
102
RTVSPropertyOp55
 70
     1
102
RTVSPropertyOp56
 70
     1
102
RTVSPropertyOp57
 70
     1
102
RTVSPropertyOp58
 70
     1
102
RTVSPropertyOp59
 70
     1
102
RTVSPropertyOp60
 70
     1
102
RTVSPropertyOp61
 70
     1
102
RTVSPropertyOp62
 70
     1
  0
XRECORD
  5
338F
102
{ACAD_REACTORS
330
338E
102
}
330
338E
100
AcDbXrecord
280
     1
102
RTVSPost2010Prop28
280
     0
102
RTVSPost2010PropOp28
 70
     1
102
RTVSPost2010Prop29
280
     1
102
RTVSPost2010PropOp29
 70
     1
102
RTVSPost2010Prop30
280
     1
102
RTVSPost2010PropOp30
 70
     1
102
RTVSPost2010Prop31
280
     0
102
RTVSPost2010PropOp31
 70
     1
102
RTVSPost2010Prop32
280
     0
102
RTVSPost2010PropOp32
 70
     1
102
RTVSPost2010Prop33
280
     0
102
RTVSPost2010PropOp33
 70
     1
102
RTVSPost2010Prop34
280
     0
102
RTVSPost2010PropOp34
 70
     1
102
RTVSPost2010Prop35
280
     0
102
RTVSPost2010PropOp35
 70
     1
102
RTVSPost2010Prop36
280
     0
102
RTVSPost2010PropOp36
 70
     1
102
RTVSPost2010Prop37
 90
       50
102
RTVSPost2010PropOp37
 70
     1
102
RTVSPost2010Prop38
140
0.0
102
RTVSPost2010PropOp38
 70
     1
102
RTVSPost2010Prop39
140
1.0
102
RTVSPost2010PropOp39
 70
     1
102
RTVSPost2010Prop40
 90
        0
102
RTVSPost2010PropOp40
 70
     1
102
RTVSPost2010Prop41ColorIndex
 90
       18
102
RTVSPost2010Prop41ColorRGB
 90
        0
102
RTVSPost2010PropOp41
 70
     1
102
RTVSPost2010Prop42
 90
       50
102
RTVSPost2010PropOp42
 70
     1
102
RTVSPost2010Prop43
 90
        3
102
RTVSPost2010PropOp43
 70
     1
102
RTVSPost2010Prop44ColorIndex
 90
        5
102
RTVSPost2010Prop44ColorRGB
 90
      255
102
RTVSPost2010PropOp44
 70
     1
102
RTVSPost2010Prop45
280
     0
102
RTVSPost2010PropOp45
 70
     1
102
RTVSPost2010Prop46
 90
       50
102
RTVSPost2010PropOp46
 70
     1
102
RTVSPost2010Prop47
 90
       50
102
RTVSPost2010PropOp47
 70
     1
102
RTVSPost2010Prop48
 90
       50
102
RTVSPost2010PropOp48
 70
     1
102
RTVSPost2010Prop49
280
     0
102
RTVSPost2010PropOp49
 70
     1
102
RTVSPost2010Prop50
 90
       50
102
RTVSPost2010PropOp50
 70
     1
102
RTVSPost2010Prop51ColorIndex
 90
      256
102
RTVSPost2010Prop51ColorRGB
 90
-16777216
102
RTVSPost2010PropOp51
 70
     0
102
RTVSPost2010Prop52
140
1.0
102
RTVSPost2010PropOp52
 70
     0
102
RTVSPost2010Prop53
 90
        2
102
RTVSPost2010PropOp53
 70
     1
102
RTVSPost2010Prop54
  1
strokes_ogs.tif
102
RTVSPost2010PropOp54
 70
     1
102
RTVSPost2010Prop55
280
     0
102
RTVSPost2010PropOp55
 70
     1
102
RTVSPost2010Prop56
140
1.0
102
RTVSPost2010PropOp56
 70
     1
102
RTVSPost2010Prop57
140
1.0
102
RTVSPost2010PropOp57
 70
     1
102
RTVSPropertyOp0
 70
     1
102
RTVSPropertyOp1
 70
     1
102
RTVSPropertyOp2
 70
     1
102
RTVSPropertyOp3
 70
     1
102
RTVSPropertyOp4
 70
     1
102
RTVSPropertyOp5
 70
     1
102
RTVSPropertyOp6
 70
     1
102
RTVSPropertyOp7
 70
     1
102
RTVSPropertyOp8
 70
     1
102
RTVSPropertyOp9
 70
     1
102
RTVSPropertyOp10
 70
     1
102
RTVSPropertyOp11
 70
     1
102
RTVSPropertyOp12
 70
     1
102
RTVSPropertyOp13
 70
     1
102
RTVSPropertyOp14
 70
     1
102
RTVSPropertyOp15
 70
     1
102
RTVSPropertyOp16
 70
     1
102
RTVSPropertyOp17
 70
     1
102
RTVSPropertyOp18
 70
     1
102
RTVSPropertyOp19
 70
     1
102
RTVSPropertyOp20
 70
     1
102
RTVSPropertyOp21
 70
     1
102
RTVSPropertyOp22
 70
     1
102
RTVSPropertyOp23
 70
     1
102
RTVSPropertyOp24
 70
     1
102
RTVSPropertyOp25
 70
     1
102
RTVSPropertyOp26
 70
     1
102
RTVSPropertyOp27
 70
     1
102
RTVSPropertyOp28
 70
     1
102
RTVSPropertyOp29
 70
     1
102
RTVSPropertyOp30
 70
     1
102
RTVSPropertyOp31
 70
     1
102
RTVSPropertyOp32
 70
     1
102
RTVSPropertyOp33
 70
     1
102
RTVSPropertyOp34
 70
     1
102
RTVSPropertyOp35
 70
     1
102
RTVSPropertyOp36
 70
     1
102
RTVSPropertyOp37
 70
     1
102
RTVSPropertyOp38
 70
     1
102
RTVSPropertyOp39
 70
     1
102
RTVSPropertyOp40
 70
     1
102
RTVSPropertyOp41
 70
     1
102
RTVSPropertyOp42
 70
     1
102
RTVSPropertyOp43
 70
     1
102
RTVSPropertyOp44
 70
     1
102
RTVSPropertyOp45
 70
     1
102
RTVSPropertyOp46
 70
     1
102
RTVSPropertyOp47
 70
     1
102
RTVSPropertyOp48
 70
     1
102
RTVSPropertyOp49
 70
     1
102
RTVSPropertyOp50
 70
     1
102
RTVSPropertyOp51
 70
     0
102
RTVSPropertyOp52
 70
     0
102
RTVSPropertyOp53
 70
     1
102
RTVSPropertyOp54
 70
     1
102
RTVSPropertyOp55
 70
     1
102
RTVSPropertyOp56
 70
     1
102
RTVSPropertyOp57
 70
     1
102
RTVSPropertyOp58
 70
     1
102
RTVSPropertyOp59
 70
     1
102
RTVSPropertyOp60
 70
     1
102
RTVSPropertyOp61
 70
     1
102
RTVSPropertyOp62
 70
     1
  0
XRECORD
  5
3383
102
{ACAD_REACTORS
330
3382
102
}
330
3382
100
AcDbXrecord
280
     1
102
RTVSPost2010Prop28
280
     0
102
RTVSPost2010PropOp28
 70
     1
102
RTVSPost2010Prop29
280
     1
102
RTVSPost2010PropOp29
 70
     1
102
RTVSPost2010Prop30
280
     1
102
RTVSPost2010PropOp30
 70
     1
102
RTVSPost2010Prop31
280
     0
102
RTVSPost2010PropOp31
 70
     1
102
RTVSPost2010Prop32
280
     0
102
RTVSPost2010PropOp32
 70
     1
102
RTVSPost2010Prop33
280
     0
102
RTVSPost2010PropOp33
 70
     1
102
RTVSPost2010Prop34
280
     0
102
RTVSPost2010PropOp34
 70
     1
102
RTVSPost2010Prop35
280
     0
102
RTVSPost2010PropOp35
 70
     1
102
RTVSPost2010Prop36
280
     0
102
RTVSPost2010PropOp36
 70
     1
102
RTVSPost2010Prop37
 90
       50
102
RTVSPost2010PropOp37
 70
     1
102
RTVSPost2010Prop38
140
0.0
102
RTVSPost2010PropOp38
 70
     1
102
RTVSPost2010Prop39
140
1.0
102
RTVSPost2010PropOp39
 70
     1
102
RTVSPost2010Prop40
 90
        0
102
RTVSPost2010PropOp40
 70
     1
102
RTVSPost2010Prop41ColorIndex
 90
       18
102
RTVSPost2010Prop41ColorRGB
 90
        0
102
RTVSPost2010PropOp41
 70
     1
102
RTVSPost2010Prop42
 90
       50
102
RTVSPost2010PropOp42
 70
     1
102
RTVSPost2010Prop43
 90
        3
102
RTVSPost2010PropOp43
 70
     1
102
RTVSPost2010Prop44ColorIndex
 90
        5
102
RTVSPost2010Prop44ColorRGB
 90
      255
102
RTVSPost2010PropOp44
 70
     1
102
RTVSPost2010Prop45
280
     0
102
RTVSPost2010PropOp45
 70
     1
102
RTVSPost2010Prop46
 90
       50
102
RTVSPost2010PropOp46
 70
     1
102
RTVSPost2010Prop47
 90
       50
102
RTVSPost2010PropOp47
 70
     1
102
RTVSPost2010Prop48
 90
       50
102
RTVSPost2010PropOp48
 70
     1
102
RTVSPost2010Prop49
280
     0
102
RTVSPost2010PropOp49
 70
     1
102
RTVSPost2010Prop50
 90
       50
102
RTVSPost2010PropOp50
 70
     1
102
RTVSPost2010Prop51ColorIndex
 90
      256
102
RTVSPost2010Prop51ColorRGB
 90
-16777216
102
RTVSPost2010PropOp51
 70
     0
102
RTVSPost2010Prop52
140
1.0
102
RTVSPost2010PropOp52
 70
     0
102
RTVSPost2010Prop53
 90
        2
102
RTVSPost2010PropOp53
 70
     1
102
RTVSPost2010Prop54
  1
strokes_ogs.tif
102
RTVSPost2010PropOp54
 70
     1
102
RTVSPost2010Prop55
280
     0
102
RTVSPost2010PropOp55
 70
     1
102
RTVSPost2010Prop56
140
1.0
102
RTVSPost2010PropOp56
 70
     1
102
RTVSPost2010Prop57
140
1.0
102
RTVSPost2010PropOp57
 70
     1
102
RTVSPropertyOp0
 70
     1
102
RTVSPropertyOp1
 70
     1
102
RTVSPropertyOp2
 70
     1
102
RTVSPropertyOp3
 70
     1
102
RTVSPropertyOp4
 70
     1
102
RTVSPropertyOp5
 70
     1
102
RTVSPropertyOp6
 70
     1
102
RTVSPropertyOp7
 70
     1
102
RTVSPropertyOp8
 70
     1
102
RTVSPropertyOp9
 70
     1
102
RTVSPropertyOp10
 70
     1
102
RTVSPropertyOp11
 70
     1
102
RTVSPropertyOp12
 70
     1
102
RTVSPropertyOp13
 70
     1
102
RTVSPropertyOp14
 70
     1
102
RTVSPropertyOp15
 70
     1
102
RTVSPropertyOp16
 70
     1
102
RTVSPropertyOp17
 70
     1
102
RTVSPropertyOp18
 70
     1
102
RTVSPropertyOp19
 70
     1
102
RTVSPropertyOp20
 70
     1
102
RTVSPropertyOp21
 70
     1
102
RTVSPropertyOp22
 70
     1
102
RTVSPropertyOp23
 70
     1
102
RTVSPropertyOp24
 70
     1
102
RTVSPropertyOp25
 70
     1
102
RTVSPropertyOp26
 70
     1
102
RTVSPropertyOp27
 70
     1
102
RTVSPropertyOp28
 70
     1
102
RTVSPropertyOp29
 70
     1
102
RTVSPropertyOp30
 70
     1
102
RTVSPropertyOp31
 70
     1
102
RTVSPropertyOp32
 70
     1
102
RTVSPropertyOp33
 70
     1
102
RTVSPropertyOp34
 70
     1
102
RTVSPropertyOp35
 70
     1
102
RTVSPropertyOp36
 70
     1
102
RTVSPropertyOp37
 70
     1
102
RTVSPropertyOp38
 70
     1
102
RTVSPropertyOp39
 70
     1
102
RTVSPropertyOp40
 70
     1
102
RTVSPropertyOp41
 70
     1
102
RTVSPropertyOp42
 70
     1
102
RTVSPropertyOp43
 70
     1
102
RTVSPropertyOp44
 70
     1
102
RTVSPropertyOp45
 70
     1
102
RTVSPropertyOp46
 70
     1
102
RTVSPropertyOp47
 70
     1
102
RTVSPropertyOp48
 70
     1
102
RTVSPropertyOp49
 70
     1
102
RTVSPropertyOp50
 70
     1
102
RTVSPropertyOp51
 70
     0
102
RTVSPropertyOp52
 70
     0
102
RTVSPropertyOp53
 70
     1
102
RTVSPropertyOp54
 70
     1
102
RTVSPropertyOp55
 70
     1
102
RTVSPropertyOp56
 70
     1
102
RTVSPropertyOp57
 70
     1
102
RTVSPropertyOp58
 70
     1
102
RTVSPropertyOp59
 70
     1
102
RTVSPropertyOp60
 70
     1
102
RTVSPropertyOp61
 70
     1
102
RTVSPropertyOp62
 70
     1
  0
XRECORD
  5
339B
102
{ACAD_REACTORS
330
339A
102
}
330
339A
100
AcDbXrecord
280
     1
102
RTVSPost2010Prop28
280
     0
102
RTVSPost2010PropOp28
 70
     1
102
RTVSPost2010Prop29
280
     1
102
RTVSPost2010PropOp29
 70
     1
102
RTVSPost2010Prop30
280
     1
102
RTVSPost2010PropOp30
 70
     1
102
RTVSPost2010Prop31
280
     0
102
RTVSPost2010PropOp31
 70
     1
102
RTVSPost2010Prop32
280
     0
102
RTVSPost2010PropOp32
 70
     1
102
RTVSPost2010Prop33
280
     0
102
RTVSPost2010PropOp33
 70
     1
102
RTVSPost2010Prop34
280
     0
102
RTVSPost2010PropOp34
 70
     1
102
RTVSPost2010Prop35
280
     0
102
RTVSPost2010PropOp35
 70
     1
102
RTVSPost2010Prop36
280
     0
102
RTVSPost2010PropOp36
 70
     1
102
RTVSPost2010Prop37
 90
       50
102
RTVSPost2010PropOp37
 70
     1
102
RTVSPost2010Prop38
140
0.0
102
RTVSPost2010PropOp38
 70
     1
102
RTVSPost2010Prop39
140
1.0
102
RTVSPost2010PropOp39
 70
     1
102
RTVSPost2010Prop40
 90
        0
102
RTVSPost2010PropOp40
 70
     1
102
RTVSPost2010Prop41ColorIndex
 90
       18
102
RTVSPost2010Prop41ColorRGB
 90
        0
102
RTVSPost2010PropOp41
 70
     1
102
RTVSPost2010Prop42
 90
       50
102
RTVSPost2010PropOp42
 70
     1
102
RTVSPost2010Prop43
 90
        3
102
RTVSPost2010PropOp43
 70
     1
102
RTVSPost2010Prop44ColorIndex
 90
        5
102
RTVSPost2010Prop44ColorRGB
 90
      255
102
RTVSPost2010PropOp44
 70
     1
102
RTVSPost2010Prop45
280
     0
102
RTVSPost2010PropOp45
 70
     1
102
RTVSPost2010Prop46
 90
       50
102
RTVSPost2010PropOp46
 70
     1
102
RTVSPost2010Prop47
 90
       50
102
RTVSPost2010PropOp47
 70
     1
102
RTVSPost2010Prop48
 90
       50
102
RTVSPost2010PropOp48
 70
     1
102
RTVSPost2010Prop49
280
     0
102
RTVSPost2010PropOp49
 70
     1
102
RTVSPost2010Prop50
 90
       50
102
RTVSPost2010PropOp50
 70
     1
102
RTVSPost2010Prop51ColorIndex
 90
      256
102
RTVSPost2010Prop51ColorRGB
 90
-16777216
102
RTVSPost2010PropOp51
 70
     0
102
RTVSPost2010Prop52
140
1.0
102
RTVSPost2010PropOp52
 70
     0
102
RTVSPost2010Prop53
 90
        2
102
RTVSPost2010PropOp53
 70
     1
102
RTVSPost2010Prop54
  1
strokes_ogs.tif
102
RTVSPost2010PropOp54
 70
     1
102
RTVSPost2010Prop55
280
     0
102
RTVSPost2010PropOp55
 70
     1
102
RTVSPost2010Prop56
140
1.0
102
RTVSPost2010PropOp56
 70
     1
102
RTVSPost2010Prop57
140
1.0
102
RTVSPost2010PropOp57
 70
     1
102
RTVSPropertyOp0
 70
     1
102
RTVSPropertyOp1
 70
     1
102
RTVSPropertyOp2
 70
     1
102
RTVSPropertyOp3
 70
     1
102
RTVSPropertyOp4
 70
     1
102
RTVSPropertyOp5
 70
     1
102
RTVSPropertyOp6
 70
     1
102
RTVSPropertyOp7
 70
     1
102
RTVSPropertyOp8
 70
     1
102
RTVSPropertyOp9
 70
     1
102
RTVSPropertyOp10
 70
     1
102
RTVSPropertyOp11
 70
     1
102
RTVSPropertyOp12
 70
     1
102
RTVSPropertyOp13
 70
     1
102
RTVSPropertyOp14
 70
     1
102
RTVSPropertyOp15
 70
     1
102
RTVSPropertyOp16
 70
     1
102
RTVSPropertyOp17
 70
     1
102
RTVSPropertyOp18
 70
     1
102
RTVSPropertyOp19
 70
     1
102
RTVSPropertyOp20
 70
     1
102
RTVSPropertyOp21
 70
     1
102
RTVSPropertyOp22
 70
     1
102
RTVSPropertyOp23
 70
     1
102
RTVSPropertyOp24
 70
     1
102
RTVSPropertyOp25
 70
     1
102
RTVSPropertyOp26
 70
     1
102
RTVSPropertyOp27
 70
     1
102
RTVSPropertyOp28
 70
     1
102
RTVSPropertyOp29
 70
     1
102
RTVSPropertyOp30
 70
     1
102
RTVSPropertyOp31
 70
     1
102
RTVSPropertyOp32
 70
     1
102
RTVSPropertyOp33
 70
     1
102
RTVSPropertyOp34
 70
     1
102
RTVSPropertyOp35
 70
     1
102
RTVSPropertyOp36
 70
     1
102
RTVSPropertyOp37
 70
     1
102
RTVSPropertyOp38
 70
     1
102
RTVSPropertyOp39
 70
     1
102
RTVSPropertyOp40
 70
     1
102
RTVSPropertyOp41
 70
     1
102
RTVSPropertyOp42
 70
     1
102
RTVSPropertyOp43
 70
     1
102
RTVSPropertyOp44
 70
     1
102
RTVSPropertyOp45
 70
     1
102
RTVSPropertyOp46
 70
     1
102
RTVSPropertyOp47
 70
     1
102
RTVSPropertyOp48
 70
     1
102
RTVSPropertyOp49
 70
     1
102
RTVSPropertyOp50
 70
     1
102
RTVSPropertyOp51
 70
     0
102
RTVSPropertyOp52
 70
     0
102
RTVSPropertyOp53
 70
     1
102
RTVSPropertyOp54
 70
     1
102
RTVSPropertyOp55
 70
     1
102
RTVSPropertyOp56
 70
     1
102
RTVSPropertyOp57
 70
     1
102
RTVSPropertyOp58
 70
     1
102
RTVSPropertyOp59
 70
     1
102
RTVSPropertyOp60
 70
     1
102
RTVSPropertyOp61
 70
     1
102
RTVSPropertyOp62
 70
     1
  0
ENDSEC
  0
EOF
