  0
SECTION
  2
HEADER
  9
$ACADVER
  1
AC1015
  9
$ACADMAINTVER
 70
    20
  9
$DWGCODEPAGE
  3
ANSI_932
  9
$INSBASE
 10
0.0
 20
0.0
 30
0.0
  9
$EXTMIN
 10
-1510.314902419122
 20
-447.624189019698
 30
-0.0015258207003583
  9
$EXTMAX
 10
1374.66433268816
 20
2032.424939601245
 30
0.0000000349246037
  9
$LIMMIN
 10
-7000.0
 20
-2500.0
  9
$LIMMAX
 10
7000.0
 20
4000.0
  9
$ORTHOMODE
 70
     0
  9
$REGENMODE
 70
     1
  9
$FILLMODE
 70
     1
  9
$QTEXTMODE
 70
     0
  9
$MIRRTEXT
 70
     0
  9
$LTSCALE
 40
20.0
  9
$ATTMODE
 70
     0
  9
$TEXTSIZE
 40
64.0
  9
$TRACEWID
 40
0.05
  9
$TEXTSTYLE
  7
STANDARD
  9
$CLAYER
  8
SYMBOLLINE
  9
$CELTYPE
  6
CONTINUOUS
  9
$CECOLOR
 62
     7
  9
$CELTSCALE
 40
1.0
  9
$DISPSILH
 70
     0
  9
$DIMSCALE
 40
1.0
  9
$DIMASZ
 40
10.0
  9
$DIMEXO
 40
20.0
  9
$DIMDLI
 40
200.0
  9
$DIMRND
 40
0.0
  9
$DIMDLE
 40
0.0
  9
$DIMEXE
 40
15.0
  9
$DIMTP
 40
0.0
  9
$DIMTM
 40
0.0
  9
$DIMTXT
 40
40.0
  9
$DIMCEN
 40
0.0
  9
$DIMTSZ
 40
0.0
  9
$DIMTOL
 70
     0
  9
$DIMLIM
 70
     0
  9
$DIMTIH
 70
     0
  9
$DIMTOH
 70
     0
  9
$DIMSE1
 70
     0
  9
$DIMSE2
 70
     0
  9
$DIMTAD
 70
     1
  9
$DIMZIN
 70
     8
  9
$DIMBLK
  1
DOTBLANK
  9
$DIMASO
 70
     1
  9
$DIMSHO
 70
     0
  9
$DIMPOST
  1

  9
$DIMAPOST
  1

  9
$DIMALT
 70
     0
  9
$DIMALTD
 70
     2
  9
$DIMALTF
 40
25.4
  9
$DIMLFAC
 40
1.0
  9
$DIMTOFL
 70
     1
  9
$DIMTVP
 40
0.0
  9
$DIMTIX
 70
     1
  9
$DIMSOXD
 70
     0
  9
$DIMSAH
 70
     0
  9
$DIMBLK1
  1

  9
$DIMBLK2
  1

  9
$DIMSTYLE
  2
STANDARD
  9
$DIMCLRD
 70
     0
  9
$DIMCLRE
 70
     0
  9
$DIMCLRT
 70
     0
  9
$DIMTFAC
 40
1.0
  9
$DIMGAP
 40
0.09
  9
$DIMJUST
 70
     0
  9
$DIMSD1
 70
     0
  9
$DIMSD2
 70
     0
  9
$DIMTOLJ
 70
     1
  9
$DIMTZIN
 70
     0
  9
$DIMALTZ
 70
     0
  9
$DIMALTTZ
 70
     0
  9
$DIMUPT
 70
     0
  9
$DIMDEC
 70
     4
  9
$DIMTDEC
 70
     4
  9
$DIMALTU
 70
     2
  9
$DIMALTTD
 70
     2
  9
$DIMTXSTY
  7
STANDARD
  9
$DIMAUNIT
 70
     0
  9
$DIMADEC
 70
     0
  9
$DIMALTRND
 40
0.0
  9
$DIMAZIN
 70
     0
  9
$DIMDSEP
 70
    46
  9
$DIMATFIT
 70
     3
  9
$DIMFRAC
 70
     0
  9
$DIMLDRBLK
  1
DOTBLANK
  9
$DIMLUNIT
 70
     2
  9
$DIMLWD
 70
    -2
  9
$DIMLWE
 70
    -2
  9
$DIMTMOVE
 70
     0
  9
$LUNITS
 70
     2
  9
$LUPREC
 70
     4
  9
$SKETCHINC
 40
0.1
  9
$FILLETRAD
 40
15.0
  9
$AUNITS
 70
     1
  9
$AUPREC
 70
     3
  9
$MENU
  1
ACAD
  9
$ELEVATION
 40
0.0
  9
$PELEVATION
 40
0.0
  9
$THICKNESS
 40
0.0
  9
$LIMCHECK
 70
     0
  9
$CHAMFERA
 40
0.0
  9
$CHAMFERB
 40
0.0
  9
$CHAMFERC
 40
0.0
  9
$CHAMFERD
 40
0.0
  9
$SKPOLY
 70
     0
  9
$TDCREATE
 40
2449761.493611112
  9
$TDUCREATE
 40
2449761.118611112
  9
$TDUPDATE
 40
2460108.411122686
  9
$TDUUPDATE
 40
2460108.036122686
  9
$TDINDWG
 40
9.8450569792
  9
$TDUSRTIMER
 40
9.8450482755
  9
$USRTIMER
 70
     1
  9
$ANGBASE
 50
0.0
  9
$ANGDIR
 70
     0
  9
$PDMODE
 70
    35
  9
$PDSIZE
 40
100.0
  9
$PLINEWID
 40
0.0
  9
$SPLFRAME
 70
     0
  9
$SPLINETYPE
 70
     6
  9
$SPLINESEGS
 70
     8
  9
$HANDSEED
  5
2571
  9
$SURFTAB1
 70
     6
  9
$SURFTAB2
 70
     6
  9
$SURFTYPE
 70
     6
  9
$SURFU
 70
     6
  9
$SURFV
 70
     6
  9
$UCSBASE
  2

  9
$UCSNAME
  2
W_UCS
  9
$UCSORG
 10
0.0
 20
0.0
 30
0.0
  9
$UCSXDIR
 10
1.0
 20
0.0
 30
0.0
  9
$UCSYDIR
 10
0.0
 20
1.0
 30
0.0
  9
$UCSORTHOREF
  2

  9
$UCSORTHOVIEW
 70
     0
  9
$UCSORGTOP
 10
0.0
 20
0.0
 30
0.0
  9
$UCSORGBOTTOM
 10
0.0
 20
0.0
 30
0.0
  9
$UCSORGLEFT
 10
0.0
 20
0.0
 30
0.0
  9
$UCSORGRIGHT
 10
0.0
 20
0.0
 30
0.0
  9
$UCSORGFRONT
 10
0.0
 20
0.0
 30
0.0
  9
$UCSORGBACK
 10
0.0
 20
0.0
 30
0.0
  9
$PUCSBASE
  2

  9
$PUCSNAME
  2

  9
$PUCSORG
 10
0.0
 20
0.0
 30
0.0
  9
$PUCSXDIR
 10
1.0
 20
0.0
 30
0.0
  9
$PUCSYDIR
 10
0.0
 20
1.0
 30
0.0
  9
$PUCSORTHOREF
  2

  9
$PUCSORTHOVIEW
 70
     0
  9
$PUCSORGTOP
 10
0.0
 20
0.0
 30
0.0
  9
$PUCSORGBOTTOM
 10
0.0
 20
0.0
 30
0.0
  9
$PUCSORGLEFT
 10
0.0
 20
0.0
 30
0.0
  9
$PUCSORGRIGHT
 10
0.0
 20
0.0
 30
0.0
  9
$PUCSORGFRONT
 10
0.0
 20
0.0
 30
0.0
  9
$PUCSORGBACK
 10
0.0
 20
0.0
 30
0.0
  9
$USERI1
 70
     0
  9
$USERI2
 70
     0
  9
$USERI3
 70
     0
  9
$USERI4
 70
     0
  9
$USERI5
 70
     0
  9
$USERR1
 40
20.0
  9
$USERR2
 40
0.0
  9
$USERR3
 40
0.0
  9
$USERR4
 40
0.0
  9
$USERR5
 40
0.0
  9
$WORLDVIEW
 70
     1
  9
$SHADEDGE
 70
     3
  9
$SHADEDIF
 70
    70
  9
$TILEMODE
 70
     1
  9
$MAXACTVP
 70
    64
  9
$PINSBASE
 10
0.0
 20
0.0
 30
0.0
  9
$PLIMCHECK
 70
     0
  9
$PEXTMIN
 10
1.000000000000000E+20
 20
1.000000000000000E+20
 30
1.000000000000000E+20
  9
$PEXTMAX
 10
-1.000000000000000E+20
 20
-1.000000000000000E+20
 30
-1.000000000000000E+20
  9
$PLIMMIN
 10
0.0
 20
0.0
  9
$PLIMMAX
 10
12.0
 20
9.0
  9
$UNITMODE
 70
     0
  9
$VISRETAIN
 70
     1
  9
$PLINEGEN
 70
     0
  9
$PSLTSCALE
 70
     1
  9
$TREEDEPTH
 70
  3020
  9
$CMLSTYLE
  2
Standard
  9
$CMLJUST
 70
     0
  9
$CMLSCALE
 40
1.0
  9
$PROXYGRAPHICS
 70
     1
  9
$MEASUREMENT
 70
     0
  9
$CELWEIGHT
370
    -1
  9
$ENDCAPS
280
     0
  9
$JOINSTYLE
280
     0
  9
$LWDISPLAY
290
     0
  9
$INSUNITS
 70
     0
  9
$HYPERLINKBASE
  1

  9
$STYLESHEET
  1

  9
$XEDIT
290
     1
  9
$CEPSNTYPE
380
     0
  9
$PSTYLEMODE
290
     1
  9
$FINGERPRINTGUID
  2
{D197E32A-5648-2E4C-8051-8608787B9063}
  9
$VERSIONGUID
  2
{4B424C0A-84B7-854E-B56A-36F89C3B8588}
  9
$EXTNAMES
290
     1
  9
$PSVPSCALE
 40
0.0
  9
$OLESTARTUP
290
     0
  0
ENDSEC
  0
SECTION
  2
CLASSES
  0
CLASS
  1
ACDBDICTIONARYWDFLT
  2
AcDbDictionaryWithDefault
  3
ObjectDBX Classes
 90
        0
280
     0
281
     0
  0
CLASS
  1
MATERIAL
  2
AcDbMaterial
  3
ObjectDBX Classes
 90
     1153
280
     0
281
     0
  0
CLASS
  1
VISUALSTYLE
  2
AcDbVisualStyle
  3
ObjectDBX Classes
 90
     4095
280
     0
281
     0
  0
CLASS
  1
SCALE
  2
AcDbScale
  3
ObjectDBX Classes
 90
     1153
280
     0
281
     0
  0
CLASS
  1
TABLESTYLE
  2
AcDbTableStyle
  3
ObjectDBX Classes
 90
     4095
280
     0
281
     0
  0
CLASS
  1
MLEADERSTYLE
  2
AcDbMLeaderStyle
  3
ACDB_MLEADERSTYLE_CLASS
 90
     4095
280
     0
281
     0
  0
CLASS
  1
ACDBSECTIONVIEWSTYLE
  2
AcDbSectionViewStyle
  3
ObjectDBX Classes
 90
     1025
280
     0
281
     0
  0
CLASS
  1
ACDBDETAILVIEWSTYLE
  2
AcDbDetailViewStyle
  3
ObjectDBX Classes
 90
     1025
280
     0
281
     0
  0
CLASS
  1
DICTIONARYVAR
  2
AcDbDictionaryVar
  3
ObjectDBX Classes
 90
        0
280
     0
281
     0
  0
CLASS
  1
CELLSTYLEMAP
  2
AcDbCellStyleMap
  3
ObjectDBX Classes
 90
     1152
280
     0
281
     0
  0
CLASS
  1
ACDBPLACEHOLDER
  2
AcDbPlaceHolder
  3
ObjectDBX Classes
 90
        0
280
     0
281
     0
  0
CLASS
  1
LAYOUT
  2
AcDbLayout
  3
ObjectDBX Classes
 90
        0
280
     0
281
     0
  0
ENDSEC
  0
SECTION
  2
TABLES
  0
TABLE
  2
VPORT
  5
247D
330
0
100
AcDbSymbolTable
 70
     1
  0
VPORT
  5
24E9
330
247D
100
AcDbSymbolTableRecord
100
AcDbViewportTableRecord
  2
*ACTIVE
 70
     0
 10
0.0
 20
0.0
 11
1.0
 21
1.0
 12
-67.82528486548097
 22
792.4003752907737
 13
0.0
 23
0.0
 14
50.0
 24
50.0
 15
100.0
 25
100.0
 16
0.0
 26
0.0
 36
1.0
 17
0.0
 27
0.0
 37
0.0
 40
2498.352074219622
 41
1.828817733990147
 42
50.0
 43
0.0
 44
0.0
 50
0.0
 51
0.0
 71
     0
 72
  1000
 73
     1
 74
     0
 75
     0
 76
     0
 77
     0
 78
     0
281
     0
 65
     1
110
0.0
120
0.0
130
0.0
111
1.0
121
0.0
131
0.0
112
0.0
122
1.0
132
0.0
 79
     0
146
0.0
1001
ACAD_NAV_VCDISPLAY
1070
     3
  0
ENDTAB
  0
TABLE
  2
LTYPE
  5
247A
330
0
100
AcDbSymbolTable
 70
     3
  0
LTYPE
  5
24CF
330
247A
100
AcDbSymbolTableRecord
100
AcDbLinetypeTableRecord
  2
ByBlock
 70
     0
  3

 72
    65
 73
     0
 40
0.0
  0
LTYPE
  5
24D0
330
247A
100
AcDbSymbolTableRecord
100
AcDbLinetypeTableRecord
  2
ByLayer
 70
     0
  3

 72
    65
 73
     0
 40
0.0
  0
LTYPE
  5
24D1
330
247A
100
AcDbSymbolTableRecord
100
AcDbLinetypeTableRecord
  2
CONTINUOUS
 70
     0
  3
実線
 72
    65
 73
     0
 40
0.0
  0
LTYPE
  5
24EA
330
247A
100
AcDbSymbolTableRecord
100
AcDbLinetypeTableRecord
  2
DASHDOT
 70
     0
  3
____ _ ____ _ ____ _ ____ _ ____ _ ____ _ ____
 72
    65
 73
     4
 40
5.5
 49
4.0
 74
     0
 49
-0.6
 74
     0
 49
0.3
 74
     0
 49
-0.6
 74
     0
  0
ENDTAB
  0
TABLE
  2
LAYER
  5
2477
330
0
100
AcDbSymbolTable
 70
    12
  0
LAYER
  5
24C9
102
{ACAD_XDICTIONARY
360
2510
102
}
330
2477
100
AcDbSymbolTableRecord
100
AcDbLayerTableRecord
  2
0
 70
     0
 62
     7
  6
CONTINUOUS
370
    -3
390
2484
  0
LAYER
  5
24E8
102
{ACAD_XDICTIONARY
360
2512
102
}
330
2477
100
AcDbSymbolTableRecord
100
AcDbLayerTableRecord
  2
SYMBOLLINE
 70
     0
 62
    15
  6
CONTINUOUS
370
    -3
390
2484
  0
LAYER
  5
24EB
102
{ACAD_XDICTIONARY
360
2514
102
}
330
2477
100
AcDbSymbolTableRecord
100
AcDbLayerTableRecord
  2
SIZE
 70
     0
 62
    30
  6
CONTINUOUS
370
    -3
390
2484
  0
LAYER
  5
24EC
102
{ACAD_XDICTIONARY
360
2516
102
}
330
2477
100
AcDbSymbolTableRecord
100
AcDbLayerTableRecord
  2
OUTLINE
 70
     0
 62
     3
  6
CONTINUOUS
370
    -3
390
2484
  0
LAYER
  5
24ED
102
{ACAD_XDICTIONARY
360
2518
102
}
330
2477
100
AcDbSymbolTableRecord
100
AcDbLayerTableRecord
  2
DETAIL
 70
     0
 62
     5
  6
CONTINUOUS
370
    -3
390
2484
  0
LAYER
  5
24EE
102
{ACAD_XDICTIONARY
360
251A
102
}
330
2477
100
AcDbSymbolTableRecord
100
AcDbLayerTableRecord
  2
BASIS
 70
     0
 62
     6
  6
DASHDOT
370
    -3
390
2484
  0
LAYER
  5
24EF
102
{ACAD_XDICTIONARY
360
251C
102
}
330
2477
100
AcDbSymbolTableRecord
100
AcDbLayerTableRecord
  2
NOTE
 70
     0
 62
     4
  6
CONTINUOUS
370
    -3
390
2484
  0
LAYER
  5
24F0
102
{ACAD_XDICTIONARY
360
251E
102
}
330
2477
100
AcDbSymbolTableRecord
100
AcDbLayerTableRecord
  2
ARRANGE
 70
     0
 62
     1
  6
CONTINUOUS
370
    -3
390
2484
  0
LAYER
  5
24F1
102
{ACAD_XDICTIONARY
360
2520
102
}
330
2477
100
AcDbSymbolTableRecord
100
AcDbLayerTableRecord
  2
FIX
 70
     0
 62
    11
  6
CONTINUOUS
370
    -3
390
2484
  0
LAYER
  5
24F2
102
{ACAD_XDICTIONARY
360
2522
102
}
330
2477
100
AcDbSymbolTableRecord
100
AcDbLayerTableRecord
  2
SERVICESPACE
 70
     0
 62
     2
  6
DASHDOT
370
    -3
390
2484
  0
LAYER
  5
24F3
102
{ACAD_XDICTIONARY
360
2524
102
}
330
2477
100
AcDbSymbolTableRecord
100
AcDbLayerTableRecord
  2
ETC
 70
     0
 62
    61
  6
CONTINUOUS
370
    -3
390
2484
  0
LAYER
  5
24F4
330
2477
100
AcDbSymbolTableRecord
100
AcDbLayerTableRecord
  2
DEFPOINTS
 70
     0
 62
     7
  6
CONTINUOUS
290
     0
370
    -3
390
2484
  0
ENDTAB
  0
TABLE
  2
STYLE
  5
2478
330
0
100
AcDbSymbolTable
 70
     4
  0
STYLE
  5
24CA
330
2478
100
AcDbSymbolTableRecord
100
AcDbTextStyleTableRecord
  2
STANDARD
 70
     0
 40
0.0
 41
0.9
 50
0.0
 71
     0
 42
64.0
  3
SIMPLEX
  4
BIGFONT
  0
STYLE
  5
24CE
330
2478
100
AcDbSymbolTableRecord
100
AcDbTextStyleTableRecord
  2
ANNOTATIVE
 70
     0
 40
0.0
 41
1.0
 50
0.0
 71
     0
 42
0.2
  3
txt
  4

1001
ACADANNOTATIVE
1000
AnnotativeData
1002
{
1070
     1
1070
     1
1002
}
  0
STYLE
  5
24F5
330
2478
100
AcDbSymbolTableRecord
100
AcDbTextStyleTableRecord
  2
STANDARD1
 70
     0
 40
0.0
 41
1.0
 50
0.0
 71
     0
 42
3.5
  3
MONOTXT
  4
BIGFONT
  0
STYLE
  5
24F6
330
2478
100
AcDbSymbolTableRecord
100
AcDbTextStyleTableRecord
  2
STANDARD_MODELNAME
 70
     0
 40
80.0
 41
0.8
 50
0.0
 71
     0
 42
64.0
  3
MONOTXT.shx
  4
BIGFONT.shx
  0
ENDTAB
  0
TABLE
  2
VIEW
  5
247B
330
0
100
AcDbSymbolTable
 70
     1
  0
VIEW
  5
24F7
330
247B
100
AcDbSymbolTableRecord
100
AcDbViewTableRecord
  2
ALL
 70
     0
 40
6056.230032000001
 10
0.0
 20
58.11501599999999
 41
8400.0
 11
0.0
 21
0.0
 31
1.0
 12
0.0
 22
0.0
 32
0.0
 42
50.0
 43
0.0
 44
0.0
 50
0.0
 71
     0
281
     0
 72
     0
  0
ENDTAB
  0
TABLE
  2
UCS
  5
247C
330
0
100
AcDbSymbolTable
 70
     1
  0
UCS
  5
24F8
330
247C
100
AcDbSymbolTableRecord
100
AcDbUCSTableRecord
  2
W_UCS
 70
     0
 10
0.0
 20
0.0
 30
0.0
 11
1.0
 21
0.0
 31
0.0
 12
0.0
 22
1.0
 32
0.0
 79
     0
146
0.0
  0
ENDTAB
  0
TABLE
  2
APPID
  5
247E
330
0
100
AcDbSymbolTable
 70
     8
  0
APPID
  5
24CB
330
247E
100
AcDbSymbolTableRecord
100
AcDbRegAppTableRecord
  2
ACAD
 70
     0
  0
APPID
  5
24D2
330
247E
100
AcDbSymbolTableRecord
100
AcDbRegAppTableRecord
  2
ACADANNOTATIVE
 70
     0
  0
APPID
  5
24F9
330
247E
100
AcDbSymbolTableRecord
100
AcDbRegAppTableRecord
  2
ACAD_MLEADERVER
 70
     0
  0
APPID
  5
24FA
330
247E
100
AcDbSymbolTableRecord
100
AcDbRegAppTableRecord
  2
ACAD_EXEMPT_FROM_CAD_STAND
 70
     0
  0
APPID
  5
24FB
330
247E
100
AcDbSymbolTableRecord
100
AcDbRegAppTableRecord
  2
ACAD_DSTYLE_DIMJAG
 70
     0
  0
APPID
  5
24FC
330
247E
100
AcDbSymbolTableRecord
100
AcDbRegAppTableRecord
  2
ACAD_DSTYLE_DIMTALN
 70
     0
  0
APPID
  5
250E
330
247E
100
AcDbSymbolTableRecord
100
AcDbRegAppTableRecord
  2
ACAD_EXEMPT_FROM_CAD_STANDARDS
 70
     0
  0
APPID
  5
2530
330
247E
100
AcDbSymbolTableRecord
100
AcDbRegAppTableRecord
  2
ACAD_NAV_VCDISPLAY
 70
     0
  0
ENDTAB
  0
TABLE
  2
DIMSTYLE
  5
247F
330
0
100
AcDbSymbolTable
 70
     2
100
AcDbDimStyleTable
 71
     0
  0
DIMSTYLE
105
24CC
330
247F
100
AcDbSymbolTableRecord
100
AcDbDimStyleTableRecord
  2
STANDARD
 70
     0
275
     1
279
     2
284
     8
285
     8
286
     8
340
24CA
  0
DIMSTYLE
105
24CD
330
247F
100
AcDbSymbolTableRecord
100
AcDbDimStyleTableRecord
  2
ANNOTATIVE
 70
     0
275
     1
279
     2
284
     8
285
     8
286
     8
340
24CA
1001
ACADANNOTATIVE
1000
AnnotativeData
1002
{
1070
     1
1070
     1
1002
}
  0
ENDTAB
  0
TABLE
  2
BLOCK_RECORD
  5
2476
330
0
100
AcDbSymbolTable
 70
     6
  0
BLOCK_RECORD
  5
24E4
330
2476
100
AcDbSymbolTableRecord
100
AcDbBlockTableRecord
  2
*Model_Space
340
24E7
  0
BLOCK_RECORD
  5
24E0
330
2476
100
AcDbSymbolTableRecord
100
AcDbBlockTableRecord
  2
*Paper_Space
340
24E3
  0
BLOCK_RECORD
  5
2501
330
2476
100
AcDbSymbolTableRecord
100
AcDbBlockTableRecord
  2
$MODEL_SPACE
340
0
  0
BLOCK_RECORD
  5
2503
330
2476
100
AcDbSymbolTableRecord
100
AcDbBlockTableRecord
  2
$PAPER_SPACE
340
0
  0
BLOCK_RECORD
  5
2505
330
2476
100
AcDbSymbolTableRecord
100
AcDbBlockTableRecord
  2
_SMALL
340
0
  0
BLOCK_RECORD
  5
2507
330
2476
100
AcDbSymbolTableRecord
100
AcDbBlockTableRecord
  2
_DOTBLANK
340
0
102
{BLKREFS
331
118F
331
1190
102
}
  0
BLOCK_RECORD
  5
2509
330
2476
100
AcDbSymbolTableRecord
100
AcDbBlockTableRecord
  2
*D4
340
0
  0
BLOCK_RECORD
  5
250B
330
2476
100
AcDbSymbolTableRecord
100
AcDbBlockTableRecord
  2
*U5
340
0
102
{BLKREFS
331
1191
102
}
  0
ENDTAB
  0
ENDSEC
  0
SECTION
  2
BLOCKS
  0
BLOCK
  5
24E5
330
24E4
100
AcDbEntity
  8
0
100
AcDbBlockBegin
  2
*Model_Space
 70
     0
 10
0.0
 20
0.0
 30
0.0
  3
*Model_Space
  1

  0
ENDBLK
  5
24E6
330
24E4
100
AcDbEntity
  8
0
100
AcDbBlockEnd
  0
BLOCK
  5
24E1
330
24E0
100
AcDbEntity
 67
     1
  8
0
100
AcDbBlockBegin
  2
*Paper_Space
 70
     0
 10
0.0
 20
0.0
 30
0.0
  3
*Paper_Space
  1

  0
ENDBLK
  5
24E2
330
24E0
100
AcDbEntity
 67
     1
  8
0
100
AcDbBlockEnd
  0
BLOCK
  5
2502
330
2501
100
AcDbEntity
  8
0
100
AcDbBlockBegin
  2
$MODEL_SPACE
 70
     0
 10
0.0
 20
0.0
 30
0.0
  3
$MODEL_SPACE
  1

  0
ENDBLK
  5
1EA8
330
2501
100
AcDbEntity
  8
0
100
AcDbBlockEnd
  0
BLOCK
  5
2504
330
2503
100
AcDbEntity
  8
0
100
AcDbBlockBegin
  2
$PAPER_SPACE
 70
     0
 10
0.0
 20
0.0
 30
0.0
  3
$PAPER_SPACE
  1

  0
ENDBLK
  5
1EA4
330
2503
100
AcDbEntity
  8
0
100
AcDbBlockEnd
  0
BLOCK
  5
2506
330
2505
100
AcDbEntity
  8
0
100
AcDbBlockBegin
  2
_SMALL
 70
     0
 10
0.0
 20
0.0
 30
0.0
  3
_SMALL
  1

  0
CIRCLE
  5
E9E
330
2505
100
AcDbEntity
  8
0
  6
Continuous
 62
     7
100
AcDbCircle
 10
0.0
 20
0.0
 30
0.0
 40
0.25
  0
ENDBLK
  5
E9F
330
2505
100
AcDbEntity
  8
0
100
AcDbBlockEnd
  0
BLOCK
  5
2508
330
2507
100
AcDbEntity
  8
0
100
AcDbBlockBegin
  2
_DOTBLANK
 70
     0
 10
0.0
 20
0.0
 30
0.0
  3
_DOTBLANK
  1

  0
CIRCLE
  5
1088
330
2507
100
AcDbEntity
  8
0
  6
ByBlock
 62
     0
100
AcDbCircle
 10
0.0
 20
0.0
 30
0.0
 40
0.5
  0
LINE
  5
1089
330
2507
100
AcDbEntity
  8
0
  6
ByBlock
 62
     0
100
AcDbLine
 10
-0.5
 20
0.0
 30
0.0
 11
-1.0
 21
0.0
 31
0.0
  0
ENDBLK
  5
108A
330
2507
100
AcDbEntity
  8
0
 62
     7
100
AcDbBlockEnd
  0
BLOCK
  5
250A
330
2509
100
AcDbEntity
  8
0
100
AcDbBlockBegin
  2
*D4
 70
     1
 10
0.0
 20
0.0
 30
0.0
  3
*D4
  1

  0
LINE
  5
118A
330
2509
100
AcDbEntity
  8
SIZE
  6
Continuous
 62
     0
100
AcDbLine
 10
-365.5000333730078
 20
273.2972199136295
 30
0.0
 11
-365.5000333730078
 21
888.773666998235
 31
0.0
  0
LINE
  5
118B
330
2509
100
AcDbEntity
  8
SIZE
  6
Continuous
 62
     0
100
AcDbLine
 10
-375.5000333730028
 20
138.5207513311548
 30
0.0
 11
-375.5000333730026
 21
888.773666998235
 31
0.0
  0
LINE
  5
118C
330
2509
100
AcDbEntity
  8
SIZE
  6
Continuous
 62
     0
100
AcDbLine
 10
-355.5000333730077
 20
873.7736669982346
 30
0.0
 11
-345.5000333730077
 21
873.7736669982346
 31
0.0
  0
LINE
  5
118D
330
2509
100
AcDbEntity
  8
SIZE
  6
Continuous
 62
     0
100
AcDbLine
 10
-385.5000333730028
 20
873.7736669982346
 30
0.0
 11
-452.0354427254335
 21
873.7736669982346
 31
0.0
  0
LINE
  5
118E
330
2509
100
AcDbEntity
  8
SIZE
  6
Continuous
 62
     0
100
AcDbLine
 10
-365.5000333730078
 20
873.7736669982346
 30
0.0
 11
-375.5000333730026
 21
873.7736669982346
 31
0.0
  0
INSERT
  5
118F
330
2509
100
AcDbEntity
  8
SIZE
  6
Continuous
 62
     0
100
AcDbBlockReference
  2
_DOTBLANK
 10
-365.5000333730078
 20
873.7736669982346
 30
0.0
 41
10.0
 42
10.0
 43
10.0
 50
180.0
  0
INSERT
  5
1190
330
2509
100
AcDbEntity
  8
SIZE
  6
Continuous
 62
     0
100
AcDbBlockReference
  2
_DOTBLANK
 10
-375.5000333730026
 20
873.7736669982346
 30
0.0
 41
10.0
 42
10.0
 43
10.0
  0
INSERT
  5
1191
330
2509
100
AcDbEntity
  8
SYMBOLLINE
  6
Continuous
 62
     7
100
AcDbBlockReference
  2
*U5
 10
0.0
 20
0.0
 30
0.0
  0
POINT
  5
1192
330
2509
100
AcDbEntity
  8
DEFPOINTS
  6
Continuous
 62
     0
100
AcDbPoint
 10
-365.5000333730078
 20
253.2972199136295
 30
0.0
  0
POINT
  5
1193
330
2509
100
AcDbEntity
  8
DEFPOINTS
  6
Continuous
 62
     0
100
AcDbPoint
 10
-375.5000333730028
 20
118.5207513311548
 30
0.0
  0
POINT
  5
1194
330
2509
100
AcDbEntity
  8
DEFPOINTS
  6
Continuous
 62
     0
100
AcDbPoint
 10
-375.5000333730026
 20
873.7736669982346
 30
0.0
  0
ENDBLK
  5
115D
330
2509
100
AcDbEntity
  8
0
 62
     7
100
AcDbBlockEnd
  0
BLOCK
  5
250C
330
250B
100
AcDbEntity
  8
0
100
AcDbBlockBegin
  2
*U5
 70
     1
 10
0.0
 20
0.0
 30
0.0
  3
*U5
  1

  0
TEXT
  5
1470
330
250B
100
AcDbEntity
  8
SIZE
  6
Continuous
 62
     0
100
AcDbText
 10
-451.9454427254335
 20
873.8636669982353
 30
0.0
 40
40.0
  1
10
 41
0.9
100
AcDbText
  0
ENDBLK
  5
1472
330
250B
100
AcDbEntity
  8
0
 62
     7
100
AcDbBlockEnd
  0
ENDSEC
  0
SECTION
  2
ENTITIES
  0
TEXT
  5
8A
330
24E4
100
AcDbEntity
  8
ETC
  6
Continuous
 62
    61
100
AcDbText
 10
301.3647159745876
 20
1957.30335900948
 30
0.0
 40
75.0
  1
CAHV-P250AK2-H_5
 50
0.0000025613209388
 41
0.8
  7
STANDARD1
100
AcDbText
  0
LINE
  5
8B
330
24E4
100
AcDbEntity
  8
DETAIL
  6
Continuous
 62
     5
100
AcDbLine
 10
-282.6002042487173
 20
1123.648422734062
 30
0.0
 11
-282.6002042487173
 21
1120.147181265494
 31
0.0
  0
LINE
  5
8C
330
24E4
100
AcDbEntity
  8
DETAIL
  6
Continuous
 62
     5
100
AcDbLine
 10
-267.3447949928134
 20
93.53316494603449
 30
0.0
 11
-267.3447949928134
 21
1279.953845437998
 31
0.0
  0
LINE
  5
8D
330
24E4
100
AcDbEntity
  8
DETAIL
  6
Continuous
 62
     5
100
AcDbLine
 10
-263.8435535242471
 20
93.53316494603449
 30
0.0
 11
-263.8435535242471
 21
1279.953845437998
 31
0.0
  0
LINE
  5
8E
330
24E4
100
AcDbEntity
  8
DETAIL
  6
Continuous
 62
     5
100
AcDbLine
 10
-135.2979738925325
 20
93.53316494603449
 30
0.0
 11
-135.2979738925325
 21
1279.953845437998
 31
0.0
  0
LINE
  5
8F
330
24E4
100
AcDbEntity
  8
DETAIL
  6
Continuous
 62
     5
100
AcDbLine
 10
-131.7967324239637
 20
93.53316494603449
 30
0.0
 11
-131.7967324239637
 21
1279.953845437998
 31
0.0
  0
LINE
  5
90
330
24E4
100
AcDbEntity
  8
DETAIL
  6
Continuous
 62
     5
100
AcDbLine
 10
-3.251152792248147
 20
93.53316494603449
 30
0.0
 11
-3.251152792248147
 21
1279.953845437998
 31
0.0
  0
LINE
  5
91
330
24E4
100
AcDbEntity
  8
DETAIL
  6
Continuous
 62
     5
100
AcDbLine
 10
0.2500886763325525
 20
93.53316494603449
 30
0.0
 11
0.2500886763325525
 21
1279.953845437998
 31
0.0
  0
LINE
  5
92
330
24E4
100
AcDbEntity
  8
DETAIL
  6
Continuous
 62
     5
100
AcDbLine
 10
128.7956683080481
 20
93.53316494603449
 30
0.0
 11
128.7956683080481
 21
1279.953845437998
 31
0.0
  0
LINE
  5
93
330
24E4
100
AcDbEntity
  8
DETAIL
  6
Continuous
 62
     5
100
AcDbLine
 10
132.2969097766133
 20
93.53316494603449
 30
0.0
 11
132.2969097766133
 21
1279.953845437998
 31
0.0
  0
LINE
  5
94
330
24E4
100
AcDbEntity
  8
DETAIL
  6
Continuous
 62
     5
100
AcDbLine
 10
147.5523190325209
 20
1123.648422734062
 30
0.0
 11
147.5523190325209
 21
1120.147181265494
 31
0.0
  0
LINE
  5
95
330
24E4
100
AcDbEntity
  8
DETAIL
  6
Continuous
 62
     5
100
AcDbLine
 10
-375.5000000000011
 20
1369.985768915468
 30
0.0
 11
-375.5000000000011
 21
58.52075026035565
 31
0.0
  0
LINE
  5
96
330
24E4
100
AcDbEntity
  8
DETAIL
  6
Continuous
 62
     5
100
AcDbLine
 10
-307.6090718813469
 20
1289.957392491047
 30
0.0
 11
-307.6090718813469
 21
78.52784436646698
 31
0.0
  0
LINE
  5
97
330
24E4
100
AcDbEntity
  8
DETAIL
  6
Continuous
 62
     5
100
AcDbLine
 10
-292.6037513017657
 20
1259.344566380858
 30
0.0
 11
-292.6037513017657
 21
687.7438598973172
 31
0.0
  0
LINE
  5
98
330
24E4
100
AcDbEntity
  8
DETAIL
  6
Continuous
 62
     5
100
AcDbLine
 10
157.5558660855711
 20
1259.344566380858
 30
0.0
 11
157.5558660855711
 21
687.7438598973172
 31
0.0
  0
LINE
  5
99
330
24E4
100
AcDbEntity
  8
DETAIL
  6
Continuous
 62
     5
100
AcDbLine
 10
172.5611866651485
 20
78.52784436646698
 30
0.0
 11
172.5611866651485
 21
1289.957392491047
 31
0.0
  0
LINE
  5
9A
330
24E4
100
AcDbEntity
  8
DETAIL
  6
Continuous
 62
     5
100
AcDbLine
 10
375.4999999999989
 20
1369.985768915468
 30
0.0
 11
375.4999999999989
 21
58.52075026035565
 31
0.0
  0
LINE
  5
326
330
24E4
100
AcDbEntity
  8
SIZE
  6
Continuous
 62
    30
100
AcDbLine
 10
433.7972188428233
 20
155.0000000000066
 30
0.0
 11
609.550672643267
 21
155.0000000000066
 31
0.0
  0
LINE
  5
327
330
24E4
100
AcDbEntity
  8
SIZE
  6
Continuous
 62
    30
100
AcDbLine
 10
433.7972188428233
 20
621.0000000000064
 30
0.0
 11
609.5506726432662
 21
621.0000000000064
 31
0.0
  0
LINE
  5
328
330
24E4
100
AcDbEntity
  8
SIZE
  6
Continuous
 62
    30
100
AcDbLine
 10
594.5506726432673
 20
165.0000000000066
 30
0.0
 11
594.5506726432673
 21
611.0000000000062
 31
0.0
  0
CIRCLE
  5
329
330
24E4
100
AcDbEntity
  8
SIZE
  6
Continuous
 62
    30
100
AcDbCircle
 10
594.5506726432673
 20
155.0000000000066
 30
0.0
 40
5.0
  0
LINE
  5
32A
330
24E4
100
AcDbEntity
  8
SIZE
  6
Continuous
 62
    30
100
AcDbLine
 10
594.5506726432673
 20
160.0000000000066
 30
0.0
 11
594.5506726432673
 21
165.0000000000066
 31
0.0
  0
CIRCLE
  5
32B
330
24E4
100
AcDbEntity
  8
SIZE
  6
Continuous
 62
    30
100
AcDbCircle
 10
594.5506726432673
 20
621.0000000000064
 30
0.0
 40
5.0
  0
LINE
  5
32C
330
24E4
100
AcDbEntity
  8
SIZE
  6
Continuous
 62
    30
100
AcDbLine
 10
594.5506726432673
 20
616.0000000000064
 30
0.0
 11
594.5506726432673
 21
611.0000000000063
 31
0.0
  0
TEXT
  5
32D
330
24E4
100
AcDbEntity
  8
SIZE
  6
Continuous
 62
    30
100
AcDbText
 10
581.6547812590239
 20
342.9091537524775
 30
0.0
 40
40.0
  1
466
 50
90.0
 41
0.9
 72
     1
 11
581.6547812590239
 21
388.3377251810489
 31
0.0
100
AcDbText
  0
POINT
  5
32E
330
24E4
100
AcDbEntity
  8
DEFPOINTS
  6
Continuous
 62
     7
100
AcDbPoint
 10
403.7972188428291
 20
155.0000000000148
 30
0.0
 50
180.0
  0
POINT
  5
32F
330
24E4
100
AcDbEntity
  8
DEFPOINTS
  6
Continuous
 62
     7
100
AcDbPoint
 10
403.7972188428226
 20
621.0000000000148
 30
0.0
 50
180.0
  0
POINT
  5
330
330
24E4
100
AcDbEntity
  8
DEFPOINTS
  6
Continuous
 62
     7
100
AcDbPoint
 10
594.5506726432673
 20
621.0000000000064
 30
0.0
 50
180.0
  0
LINE
  5
331
330
24E4
100
AcDbEntity
  8
DETAIL
  6
Continuous
 62
     5
100
AcDbLine
 10
-292.6037513017657
 20
677.1381278932405
 30
0.0
 11
-292.6037513017657
 21
105.5374214096996
 31
0.0
  0
LINE
  5
332
330
24E4
100
AcDbEntity
  8
DETAIL
  6
Continuous
 62
     5
100
AcDbLine
 10
126.0965684053169
 20
394.8900199192313
 30
0.0
 11
126.0965684053169
 21
253.3398291185372
 31
0.0
  0
LINE
  5
333
330
24E4
100
AcDbEntity
  8
DETAIL
  6
Continuous
 62
     5
100
AcDbLine
 10
138.0333866710596
 20
394.8900199192313
 30
0.0
 11
138.0333866710596
 21
253.3398291185372
 31
0.0
  0
LINE
  5
334
330
24E4
100
AcDbEntity
  8
DETAIL
  6
Continuous
 62
     5
100
AcDbLine
 10
143.5191032224536
 20
253.3398291185372
 30
0.0
 11
143.5191032224536
 21
394.8900199192313
 31
0.0
  0
LINE
  5
335
330
24E4
100
AcDbEntity
  8
DETAIL
  6
Continuous
 62
     5
100
AcDbLine
 10
157.5558660855711
 20
677.1381278932405
 30
0.0
 11
157.5558660855711
 21
105.5374214096996
 31
0.0
  0
LINE
  5
336
330
24E4
100
AcDbEntity
  8
SIZE
  6
Continuous
 62
    30
100
AcDbLine
 10
329.4999999999989
 20
-16.79886494302219
 30
0.0
 11
329.4999999999989
 21
-287.3153053570528
 31
0.0
  0
LINE
  5
337
330
24E4
100
AcDbEntity
  8
SIZE
  6
Continuous
 62
    30
100
AcDbLine
 10
299.5000000000025
 20
-11.7970914164921
 30
0.0
 11
299.5000000000025
 21
-287.3153053570528
 31
0.0
  0
LINE
  5
338
330
24E4
100
AcDbEntity
  8
SIZE
  6
Continuous
 62
    30
100
AcDbLine
 10
339.4999999999989
 20
-272.3153053570528
 30
0.0
 11
349.4999999999989
 21
-272.3153053570528
 31
0.0
  0
LINE
  5
339
330
24E4
100
AcDbEntity
  8
SIZE
  6
Continuous
 62
    30
100
AcDbLine
 10
289.5000000000025
 20
-272.3153053570528
 30
0.0
 11
191.2142857142878
 21
-272.3153053570528
 31
0.0
  0
LINE
  5
33A
330
24E4
100
AcDbEntity
  8
SIZE
  6
Continuous
 62
    30
100
AcDbLine
 10
329.4999999999989
 20
-272.3153053570528
 30
0.0
 11
299.5000000000025
 21
-272.3153053570528
 31
0.0
  0
CIRCLE
  5
33B
330
24E4
100
AcDbEntity
  8
SIZE
  6
Continuous
 62
    30
100
AcDbCircle
 10
329.4999999999989
 20
-272.3153053570528
 30
0.0
 40
5.0
  0
LINE
  5
33C
330
24E4
100
AcDbEntity
  8
SIZE
  6
Continuous
 62
    30
100
AcDbLine
 10
334.4999999999989
 20
-272.3153053570528
 30
0.0
 11
339.4999999999989
 21
-272.3153053570528
 31
0.0
  0
CIRCLE
  5
33D
330
24E4
100
AcDbEntity
  8
SIZE
  6
Continuous
 62
    30
100
AcDbCircle
 10
299.5000000000025
 20
-272.3153053570528
 30
0.0
 40
5.0
  0
LINE
  5
33E
330
24E4
100
AcDbEntity
  8
SIZE
  6
Continuous
 62
    30
100
AcDbLine
 10
294.5000000000025
 20
-272.3153053570528
 30
0.0
 11
289.5000000000025
 21
-272.3153053570528
 31
0.0
  0
TEXT
  5
33F
330
24E4
100
AcDbEntity
  8
SIZE
  6
Continuous
 62
    30
100
AcDbText
 10
206.2142857142867
 20
-257.3153053570526
 30
0.0
 40
40.0
  1
30
 41
0.9
 72
     1
 11
235.3571428571438
 21
-257.3153053570526
 31
0.0
100
AcDbText
  0
POINT
  5
340
330
24E4
100
AcDbEntity
  8
DEFPOINTS
  6
Continuous
 62
     7
100
AcDbPoint
 10
329.4999999999989
 20
3.201135056977812
 30
0.0
 50
180.0
  0
POINT
  5
341
330
24E4
100
AcDbEntity
  8
DEFPOINTS
  6
Continuous
 62
     7
100
AcDbPoint
 10
299.5000000000025
 20
8.202908583507896
 30
0.0
 50
180.0
  0
POINT
  5
342
330
24E4
100
AcDbEntity
  8
DEFPOINTS
  6
Continuous
 62
     7
100
AcDbPoint
 10
299.5000000000025
 20
-272.3153053570528
 30
0.0
 50
180.0
  0
LINE
  5
343
330
24E4
100
AcDbEntity
  8
SIZE
  6
Continuous
 62
    30
100
AcDbLine
 10
329.4999999999989
 20
-16.79886494302219
 30
0.0
 11
329.4999999999989
 21
-287.3153053570528
 31
0.0
  0
LINE
  5
344
330
24E4
100
AcDbEntity
  8
SIZE
  6
Continuous
 62
    30
100
AcDbLine
 10
379.4999999999989
 20
-20.00000000000137
 30
0.0
 11
379.4999999999989
 21
-287.3153053570528
 31
0.0
  0
LINE
  5
345
330
24E4
100
AcDbEntity
  8
SIZE
  6
Continuous
 62
    30
100
AcDbLine
 10
339.4999999999989
 20
-272.3153053570528
 30
0.0
 11
369.4999999999989
 21
-272.3153053570528
 31
0.0
  0
LINE
  5
346
330
24E4
100
AcDbEntity
  8
SIZE
  6
Continuous
 62
    30
100
AcDbLine
 10
379.4999999999989
 20
-272.3153053570528
 30
0.0
 11
477.7857142857135
 21
-272.3153053570528
 31
0.0
  0
CIRCLE
  5
347
330
24E4
100
AcDbEntity
  8
SIZE
  6
Continuous
 62
    30
100
AcDbCircle
 10
329.4999999999989
 20
-272.3153053570528
 30
0.0
 40
5.0
  0
LINE
  5
348
330
24E4
100
AcDbEntity
  8
SIZE
  6
Continuous
 62
    30
100
AcDbLine
 10
334.4999999999989
 20
-272.3153053570528
 30
0.0
 11
339.4999999999989
 21
-272.3153053570528
 31
0.0
  0
CIRCLE
  5
349
330
24E4
100
AcDbEntity
  8
SIZE
  6
Continuous
 62
    30
100
AcDbCircle
 10
379.4999999999989
 20
-272.3153053570528
 30
0.0
 40
5.0
  0
LINE
  5
34A
330
24E4
100
AcDbEntity
  8
SIZE
  6
Continuous
 62
    30
100
AcDbLine
 10
374.4999999999989
 20
-272.3153053570528
 30
0.0
 11
369.4999999999989
 21
-272.3153053570528
 31
0.0
  0
TEXT
  5
34B
330
24E4
100
AcDbEntity
  8
SIZE
  6
Continuous
 62
    30
100
AcDbText
 10
404.4999999999976
 20
-257.3153053570526
 30
0.0
 40
40.0
  1
50
 41
0.9
 72
     1
 11
433.6428571428548
 21
-257.3153053570526
 31
0.0
100
AcDbText
  0
POINT
  5
34C
330
24E4
100
AcDbEntity
  8
DEFPOINTS
  6
Continuous
 62
     7
100
AcDbPoint
 10
329.4999999999989
 20
3.201135056977812
 30
0.0
 50
180.0
  0
POINT
  5
34D
330
24E4
100
AcDbEntity
  8
DEFPOINTS
  6
Continuous
 62
     7
100
AcDbPoint
 10
379.4999999999989
 20
-0.0000000000013642
 30
0.0
 50
180.0
  0
POINT
  5
34E
330
24E4
100
AcDbEntity
  8
DEFPOINTS
  6
Continuous
 62
     7
100
AcDbPoint
 10
379.4999999999989
 20
-272.3153053570528
 30
0.0
 50
180.0
  0
LINE
  5
34F
330
24E4
100
AcDbEntity
  8
SIZE
  6
Continuous
 62
    30
100
AcDbLine
 10
-379.5000000000011
 20
-20.00000000000137
 30
0.0
 11
-379.5000000000011
 21
-447.3153053570528
 31
0.0
  0
LINE
  5
350
330
24E4
100
AcDbEntity
  8
SIZE
  6
Continuous
 62
    30
100
AcDbLine
 10
379.4999999999989
 20
-20.00000000000137
 30
0.0
 11
379.4999999999989
 21
-447.3153053570528
 31
0.0
  0
LINE
  5
351
330
24E4
100
AcDbEntity
  8
SIZE
  6
Continuous
 62
    30
100
AcDbLine
 10
-369.5000000000011
 20
-432.3153053570526
 30
0.0
 11
369.4999999999989
 21
-432.3153053570526
 31
0.0
  0
CIRCLE
  5
352
330
24E4
100
AcDbEntity
  8
SIZE
  6
Continuous
 62
    30
100
AcDbCircle
 10
-379.5000000000011
 20
-432.3153053570526
 30
0.0
 40
5.0
  0
LINE
  5
353
330
24E4
100
AcDbEntity
  8
SIZE
  6
Continuous
 62
    30
100
AcDbLine
 10
-374.5000000000012
 20
-432.3153053570526
 30
0.0
 11
-369.5000000000011
 21
-432.3153053570526
 31
0.0
  0
CIRCLE
  5
354
330
24E4
100
AcDbEntity
  8
SIZE
  6
Continuous
 62
    30
100
AcDbCircle
 10
379.4999999999989
 20
-432.3153053570526
 30
0.0
 40
5.0
  0
LINE
  5
355
330
24E4
100
AcDbEntity
  8
SIZE
  6
Continuous
 62
    30
100
AcDbLine
 10
374.4999999999989
 20
-432.3153053570526
 30
0.0
 11
369.4999999999989
 21
-432.3153053570526
 31
0.0
  0
TEXT
  5
356
330
24E4
100
AcDbEntity
  8
SIZE
  6
Continuous
 62
    30
100
AcDbText
 10
-45.42857142857255
 20
-417.3153053570526
 30
0.0
 40
40.0
  1
759
 41
0.9
 72
     1
 11
-0.0000000000011368
 21
-417.3153053570526
 31
0.0
100
AcDbText
  0
POINT
  5
357
330
24E4
100
AcDbEntity
  8
DEFPOINTS
  6
Continuous
 62
     7
100
AcDbPoint
 10
-379.5000000000011
 20
-0.0000000000013642
 30
0.0
 50
180.0
  0
POINT
  5
358
330
24E4
100
AcDbEntity
  8
DEFPOINTS
  6
Continuous
 62
     7
100
AcDbPoint
 10
379.4999999999989
 20
-0.0000000000013642
 30
0.0
 50
180.0
  0
POINT
  5
359
330
24E4
100
AcDbEntity
  8
DEFPOINTS
  6
Continuous
 62
     7
100
AcDbPoint
 10
379.4999999999989
 20
-432.3153053570526
 30
0.0
 50
180.0
  0
ARC
  5
35A
330
24E4
100
AcDbEntity
  8
DETAIL
  6
Continuous
 62
     5
100
AcDbCircle
 10
284.7086375703109
 20
50.51791261792136
 30
0.0
 40
5.001773526525957
100
AcDbArc
 50
270.0
 51
329.9999999999781
  0
LINE
  5
35B
330
24E4
100
AcDbEntity
  8
DETAIL
  6
Continuous
 62
     5
100
AcDbLine
 10
289.0403020613073
 20
48.01702585465545
 30
0.0
 11
290.7729735740239
 21
51.01808997057235
 31
0.0
  0
LINE
  5
35C
330
24E4
100
AcDbEntity
  8
DETAIL
  6
Continuous
 62
     5
100
AcDbLine
 10
375.5000000000007
 20
58.52075026035565
 30
0.0
 11
176.7626764274271
 21
58.52075026035565
 31
0.0
  0
LINE
  5
35D
330
24E4
100
AcDbEntity
  8
SIZE
  6
Continuous
 62
    30
100
AcDbLine
 10
418.165475143153
 20
-0.0000000000013642
 30
0.0
 11
609.550672643267
 21
-0.0000000000013642
 31
0.0
  0
LINE
  5
35E
330
24E4
100
AcDbEntity
  8
SIZE
  6
Continuous
 62
    30
100
AcDbLine
 10
433.7972188428233
 20
155.0000000000066
 30
0.0
 11
609.550672643267
 21
155.0000000000066
 31
0.0
  0
LINE
  5
35F
330
24E4
100
AcDbEntity
  8
SIZE
  6
Continuous
 62
    30
100
AcDbLine
 10
594.5506726432673
 20
9.999999999998626
 30
0.0
 11
594.5506726432673
 21
145.0000000000066
 31
0.0
  0
CIRCLE
  5
360
330
24E4
100
AcDbEntity
  8
SIZE
  6
Continuous
 62
    30
100
AcDbCircle
 10
594.5506726432673
 20
-0.0000000000013642
 30
0.0
 40
5.0
  0
LINE
  5
361
330
24E4
100
AcDbEntity
  8
SIZE
  6
Continuous
 62
    30
100
AcDbLine
 10
594.5506726432673
 20
4.999999999998628
 30
0.0
 11
594.5506726432673
 21
9.999999999998626
 31
0.0
  0
CIRCLE
  5
362
330
24E4
100
AcDbEntity
  8
SIZE
  6
Continuous
 62
    30
100
AcDbCircle
 10
594.5506726432673
 20
155.0000000000066
 30
0.0
 40
5.0
  0
LINE
  5
363
330
24E4
100
AcDbEntity
  8
SIZE
  6
Continuous
 62
    30
100
AcDbLine
 10
594.5506726432673
 20
150.0000000000065
 30
0.0
 11
594.5506726432673
 21
145.0000000000066
 31
0.0
  0
TEXT
  5
364
330
24E4
100
AcDbEntity
  8
SIZE
  6
Continuous
 62
    30
100
AcDbText
 10
581.6547812590239
 20
34.77039656532522
 30
0.0
 40
40.0
  1
155
 50
90.0
 41
0.9
 72
     1
 11
581.6547812590239
 21
77.62753942246806
 31
0.0
100
AcDbText
  0
POINT
  5
365
330
24E4
100
AcDbEntity
  8
DEFPOINTS
  6
Continuous
 62
     7
100
AcDbPoint
 10
380.2267897063819
 20
-0.0000000000013642
 30
0.0
 50
180.0
  0
POINT
  5
366
330
24E4
100
AcDbEntity
  8
DEFPOINTS
  6
Continuous
 62
     7
100
AcDbPoint
 10
403.7972188428291
 20
155.0000000000148
 30
0.0
 50
180.0
  0
POINT
  5
367
330
24E4
100
AcDbEntity
  8
DEFPOINTS
  6
Continuous
 62
     7
100
AcDbPoint
 10
594.5506726432673
 20
155.0000000000066
 30
0.0
 50
180.0
  0
ARC
  5
369
330
24E4
100
AcDbEntity
  8
DETAIL
  6
Continuous
 62
     5
100
AcDbCircle
 10
295.1046237742446
 20
48.51721749809295
 30
0.0
 40
5.001773526525957
100
AcDbArc
 50
90.0
 51
150.0000310000481
  0
LINE
  5
36A
330
24E4
100
AcDbEntity
  8
DETAIL
  6
Continuous
 62
     5
100
AcDbLine
 10
375.4331209010413
 20
54.91947332126475
 30
0.0
 11
375.4331209010413
 21
58.52075026035565
 31
0.0
  0
LINE
  5
36C
330
24E4
100
AcDbEntity
  8
DETAIL
  6
Continuous
 62
     5
100
AcDbLine
 10
295.1046237742446
 20
53.51899102461875
 30
0.0
 11
374.0326243136149
 21
53.51897673383746
 31
0.0
  0
LINE
  5
36E
330
24E4
100
AcDbEntity
  8
SIZE
  6
Continuous
 62
    30
100
AcDbLine
 10
-299.5000000000011
 20
-11.7970914164921
 30
0.0
 11
-299.5000000000011
 21
-207.3153053570526
 31
0.0
  0
LINE
  5
36F
330
24E4
100
AcDbEntity
  8
SIZE
  6
Continuous
 62
    30
100
AcDbLine
 10
-329.5000000000011
 20
-16.79886494302219
 30
0.0
 11
-329.5000000000011
 21
-207.3153053570526
 31
0.0
  0
LINE
  5
370
330
24E4
100
AcDbEntity
  8
SIZE
  6
Continuous
 62
    30
100
AcDbLine
 10
-339.5000000000011
 20
-192.3153053570526
 30
0.0
 11
-349.5000000000012
 21
-192.3153053570526
 31
0.0
  0
LINE
  5
371
330
24E4
100
AcDbEntity
  8
SIZE
  6
Continuous
 62
    30
100
AcDbLine
 10
-289.5000000000011
 20
-192.3153053570526
 30
0.0
 11
-191.2142857142864
 21
-192.3153053570526
 31
0.0
  0
LINE
  5
372
330
24E4
100
AcDbEntity
  8
SIZE
  6
Continuous
 62
    30
100
AcDbLine
 10
-329.5000000000011
 20
-192.3153053570526
 30
0.0
 11
-299.5000000000011
 21
-192.3153053570526
 31
0.0
  0
CIRCLE
  5
373
330
24E4
100
AcDbEntity
  8
SIZE
  6
Continuous
 62
    30
100
AcDbCircle
 10
-329.5000000000011
 20
-192.3153053570526
 30
0.0
 40
5.0
  0
LINE
  5
374
330
24E4
100
AcDbEntity
  8
SIZE
  6
Continuous
 62
    30
100
AcDbLine
 10
-334.5000000000011
 20
-192.3153053570526
 30
0.0
 11
-339.5000000000011
 21
-192.3153053570526
 31
0.0
  0
CIRCLE
  5
375
330
24E4
100
AcDbEntity
  8
SIZE
  6
Continuous
 62
    30
100
AcDbCircle
 10
-299.5000000000011
 20
-192.3153053570526
 30
0.0
 40
5.0
  0
LINE
  5
376
330
24E4
100
AcDbEntity
  8
SIZE
  6
Continuous
 62
    30
100
AcDbLine
 10
-294.5000000000011
 20
-192.3153053570526
 30
0.0
 11
-289.5000000000011
 21
-192.3153053570526
 31
0.0
  0
TEXT
  5
377
330
24E4
100
AcDbEntity
  8
SIZE
  6
Continuous
 62
    30
100
AcDbText
 10
-264.5000000000015
 20
-177.3153053570526
 30
0.0
 40
40.0
  1
30
 41
0.9
 72
     1
 11
-235.3571428571443
 21
-177.3153053570526
 31
0.0
100
AcDbText
  0
POINT
  5
378
330
24E4
100
AcDbEntity
  8
DEFPOINTS
  6
Continuous
 62
     7
100
AcDbPoint
 10
-299.5000000000011
 20
8.202908583507896
 30
0.0
 50
180.0
  0
POINT
  5
379
330
24E4
100
AcDbEntity
  8
DEFPOINTS
  6
Continuous
 62
     7
100
AcDbPoint
 10
-329.5000000000011
 20
3.201135056977812
 30
0.0
 50
180.0
  0
POINT
  5
37A
330
24E4
100
AcDbEntity
  8
DEFPOINTS
  6
Continuous
 62
     7
100
AcDbPoint
 10
-329.5000000000011
 20
-192.3153053570526
 30
0.0
 50
180.0
  0
LINE
  5
37B
330
24E4
100
AcDbEntity
  8
SIZE
  6
Continuous
 62
    30
100
AcDbLine
 10
-379.5000000000011
 20
-20.00000000000137
 30
0.0
 11
-379.5000000000011
 21
-207.3153053570526
 31
0.0
  0
LINE
  5
37C
330
24E4
100
AcDbEntity
  8
SIZE
  6
Continuous
 62
    30
100
AcDbLine
 10
-329.5000000000011
 20
-16.79886494302219
 30
0.0
 11
-329.5000000000011
 21
-207.3153053570526
 31
0.0
  0
LINE
  5
37D
330
24E4
100
AcDbEntity
  8
SIZE
  6
Continuous
 62
    30
100
AcDbLine
 10
-339.5000000000011
 20
-192.3153053570526
 30
0.0
 11
-369.5000000000011
 21
-192.3153053570526
 31
0.0
  0
LINE
  5
37E
330
24E4
100
AcDbEntity
  8
SIZE
  6
Continuous
 62
    30
100
AcDbLine
 10
-379.5000000000011
 20
-192.3153053570526
 30
0.0
 11
-477.7857142857148
 21
-192.3153053570526
 31
0.0
  0
CIRCLE
  5
37F
330
24E4
100
AcDbEntity
  8
SIZE
  6
Continuous
 62
    30
100
AcDbCircle
 10
-329.5000000000011
 20
-192.3153053570526
 30
0.0
 40
5.0
  0
LINE
  5
380
330
24E4
100
AcDbEntity
  8
SIZE
  6
Continuous
 62
    30
100
AcDbLine
 10
-334.5000000000011
 20
-192.3153053570526
 30
0.0
 11
-339.5000000000011
 21
-192.3153053570526
 31
0.0
  0
CIRCLE
  5
381
330
24E4
100
AcDbEntity
  8
SIZE
  6
Continuous
 62
    30
100
AcDbCircle
 10
-379.5000000000011
 20
-192.3153053570526
 30
0.0
 40
5.0
  0
LINE
  5
382
330
24E4
100
AcDbEntity
  8
SIZE
  6
Continuous
 62
    30
100
AcDbLine
 10
-374.5000000000012
 20
-192.3153053570526
 30
0.0
 11
-369.5000000000011
 21
-192.3153053570526
 31
0.0
  0
TEXT
  5
383
330
24E4
100
AcDbEntity
  8
SIZE
  6
Continuous
 62
    30
100
AcDbText
 10
-462.7857142857159
 20
-177.3153053570526
 30
0.0
 40
40.0
  1
50
 41
0.9
 72
     1
 11
-433.6428571428588
 21
-177.3153053570526
 31
0.0
100
AcDbText
  0
POINT
  5
384
330
24E4
100
AcDbEntity
  8
DEFPOINTS
  6
Continuous
 62
     7
100
AcDbPoint
 10
-379.5000000000011
 20
-0.0000000000013642
 30
0.0
 50
180.0
  0
POINT
  5
385
330
24E4
100
AcDbEntity
  8
DEFPOINTS
  6
Continuous
 62
     7
100
AcDbPoint
 10
-329.5000000000011
 20
3.201135056977812
 30
0.0
 50
180.0
  0
POINT
  5
386
330
24E4
100
AcDbEntity
  8
DEFPOINTS
  6
Continuous
 62
     7
100
AcDbPoint
 10
-329.5000000000011
 20
-192.3153053570526
 30
0.0
 50
180.0
  0
LINE
  5
387
330
24E4
100
AcDbEntity
  8
DETAIL
  6
Continuous
 62
     5
100
AcDbLine
 10
-135.2979738925325
 20
253.3398291185372
 30
0.0
 11
-263.8435535242471
 21
253.3398291185372
 31
0.0
  0
LINE
  5
388
330
24E4
100
AcDbEntity
  8
DETAIL
  6
Continuous
 62
     5
100
AcDbLine
 10
-135.2979738925325
 20
249.8385876499711
 30
0.0
 11
-263.8435535242471
 21
249.8385876499711
 31
0.0
  0
LINE
  5
389
330
24E4
100
AcDbEntity
  8
DETAIL
  6
Continuous
 62
     5
100
AcDbLine
 10
-263.8435535242471
 20
105.5374214096996
 30
0.0
 11
-135.2979738925325
 21
105.5374214096996
 31
0.0
  0
LINE
  5
38A
330
24E4
100
AcDbEntity
  8
DETAIL
  6
Continuous
 62
     5
100
AcDbLine
 10
-263.8435535242471
 20
102.0361799411326
 30
0.0
 11
-135.2979738925325
 21
102.0361799411326
 31
0.0
  0
LINE
  5
38B
330
24E4
100
AcDbEntity
  8
DETAIL
  6
Continuous
 62
     5
100
AcDbLine
 10
80.77864245338671
 20
83.52961789298527
 30
0.0
 11
-301.8749958381888
 21
83.52961789298527
 31
0.0
  0
LINE
  5
38C
330
24E4
100
AcDbEntity
  8
DETAIL
  6
Continuous
 62
     5
100
AcDbLine
 10
-284.7086375703142
 20
45.51613909139535
 30
0.0
 11
284.7086375703109
 21
45.51613909139036
 31
0.0
  0
LINE
  5
38E
330
24E4
100
AcDbEntity
  8
DETAIL
  6
Continuous
 62
     5
100
AcDbLine
 10
126.0965684053169
 20
249.8385876499711
 30
0.0
 11
126.0965684053169
 21
105.5374214096996
 31
0.0
  0
LINE
  5
38F
330
24E4
100
AcDbEntity
  8
DETAIL
  6
Continuous
 62
     5
100
AcDbLine
 10
143.5191032224536
 20
105.5374214096996
 30
0.0
 11
143.5191032224536
 21
249.8385876499711
 31
0.0
  0
LINE
  5
390
330
24E4
100
AcDbEntity
  8
DETAIL
  6
Continuous
 62
     5
100
AcDbLine
 10
0.2500886763325525
 20
105.5374214096996
 30
0.0
 11
128.7956683080481
 21
105.5374214096996
 31
0.0
  0
LINE
  5
391
330
24E4
100
AcDbEntity
  8
DETAIL
  6
Continuous
 62
     5
100
AcDbLine
 10
0.2500886763325525
 20
102.0361799411326
 30
0.0
 11
128.7956683080481
 21
102.0361799411326
 31
0.0
  0
ARC
  5
392
330
24E4
100
AcDbEntity
  8
DETAIL
  6
Continuous
 62
     5
100
AcDbCircle
 10
176.7626764274271
 20
61.52181437627175
 30
0.0
 40
3.001064115915572
100
AcDbArc
 50
180.0
 51
270.0
  0
LINE
  5
393
330
24E4
100
AcDbEntity
  8
DETAIL
  6
Continuous
 62
     5
100
AcDbLine
 10
172.5611866651485
 20
83.52961789298527
 30
0.0
 11
173.7616123115101
 21
83.52961789298527
 31
0.0
  0
LINE
  5
394
330
24E4
100
AcDbEntity
  8
DETAIL
  6
Continuous
 62
     5
100
AcDbLine
 10
166.5590584333174
 20
78.52784436646698
 30
0.0
 11
173.7616123115101
 21
78.52784436646698
 31
0.0
  0
LINE
  5
395
330
24E4
100
AcDbEntity
  8
DETAIL
  6
Continuous
 62
     5
100
AcDbLine
 10
173.7616123115101
 20
61.52181437627175
 30
0.0
 11
173.7616123115101
 21
83.52961789298527
 31
0.0
  0
LINE
  5
397
330
24E4
100
AcDbEntity
  8
DETAIL
  6
Continuous
 62
     5
100
AcDbLine
 10
132.2969097766133
 20
93.53316494603449
 30
0.0
 11
128.7956683080481
 21
93.53316494603449
 31
0.0
  0
ARC
  5
398
330
24E4
100
AcDbEntity
  8
DETAIL
  6
Continuous
 62
     5
100
AcDbCircle
 10
163.5579943174005
 20
98.5349384725653
 30
0.0
 40
3.501241468568167
100
AcDbArc
 50
180.0
 51
90.0
  0
ARC
  5
399
330
24E4
100
AcDbEntity
  8
DETAIL
  6
Continuous
 62
     5
100
AcDbCircle
 10
163.5579943174005
 20
98.5349384725653
 30
0.0
 40
7.002482937136337
100
AcDbArc
 50
180.0
 51
90.0
  0
LINE
  5
39A
330
24E4
100
AcDbEntity
  8
DETAIL
  6
Continuous
 62
     5
100
AcDbLine
 10
80.77864245338671
 20
83.52961789298527
 30
0.0
 11
82.52926318767981
 21
80.52855377706917
 31
0.0
  0
LINE
  5
39B
330
24E4
100
AcDbEntity
  8
DETAIL
  6
Continuous
 62
     5
100
AcDbLine
 10
164.8263869206009
 20
83.52961789298527
 30
0.0
 11
166.5590584333174
 21
80.52855377706917
 31
0.0
  0
LINE
  5
39C
330
24E4
100
AcDbEntity
  8
DETAIL
  6
Continuous
 62
     5
100
AcDbLine
 10
82.52926318767981
 20
80.52855377706917
 30
0.0
 11
82.52926318767981
 21
78.52784436646698
 31
0.0
  0
LINE
  5
39D
330
24E4
100
AcDbEntity
  8
DETAIL
  6
Continuous
 62
     5
100
AcDbLine
 10
92.53281024072908
 20
78.52784436646698
 30
0.0
 11
92.53281024072908
 21
80.52855377706917
 31
0.0
  0
LINE
  5
39E
330
24E4
100
AcDbEntity
  8
DETAIL
  6
Continuous
 62
     5
100
AcDbLine
 10
126.0965684053169
 20
102.0361799411326
 30
0.0
 11
126.0965684053169
 21
83.52961789298527
 31
0.0
  0
LINE
  5
39F
330
24E4
100
AcDbEntity
  8
DETAIL
  6
Continuous
 62
     5
100
AcDbLine
 10
143.5191032224536
 20
83.52961789298527
 30
0.0
 11
143.5191032224536
 21
102.0361799411326
 31
0.0
  0
LINE
  5
3A0
330
24E4
100
AcDbEntity
  8
DETAIL
  6
Continuous
 62
     5
100
AcDbLine
 10
156.5555113802691
 20
98.5349384725653
 30
0.0
 11
156.5555113802691
 21
100.0354705305173
 31
0.0
  0
LINE
  5
3A1
330
24E4
100
AcDbEntity
  8
DETAIL
  6
Continuous
 62
     5
100
AcDbLine
 10
157.5558660855711
 20
94.93168940562215
 30
0.0
 11
157.5558660855711
 21
83.52961789298527
 31
0.0
  0
LINE
  5
3A2
330
24E4
100
AcDbEntity
  8
DETAIL
  6
Continuous
 62
     5
100
AcDbLine
 10
157.5558660855711
 20
102.0361799411326
 30
0.0
 11
157.5558660855711
 21
100.0354705305173
 31
0.0
  0
LINE
  5
3A3
330
24E4
100
AcDbEntity
  8
DETAIL
  6
Continuous
 62
     5
100
AcDbLine
 10
160.0567528488342
 20
98.5349384725653
 30
0.0
 11
160.0567528488342
 21
100.0354705305173
 31
0.0
  0
LINE
  5
3A4
330
24E4
100
AcDbEntity
  8
DETAIL
  6
Continuous
 62
     5
100
AcDbLine
 10
166.5590584333174
 20
80.52855377706917
 30
0.0
 11
166.5590584333174
 21
78.52784436646698
 31
0.0
  0
LINE
  5
3A5
330
24E4
100
AcDbEntity
  8
DETAIL
  6
Continuous
 62
     5
100
AcDbLine
 10
92.53281024072908
 20
80.52855377706917
 30
0.0
 11
94.28343097502128
 21
83.52961789298527
 31
0.0
  0
LINE
  5
3A6
330
24E4
100
AcDbEntity
  8
DETAIL
  6
Continuous
 62
     5
100
AcDbLine
 10
132.2969097766133
 20
105.5374214096996
 30
0.0
 11
163.5579943174005
 21
105.5374214096996
 31
0.0
  0
LINE
  5
3A7
330
24E4
100
AcDbEntity
  8
DETAIL
  6
Continuous
 62
     5
100
AcDbLine
 10
132.2969097766133
 20
102.0361799411326
 30
0.0
 11
163.5579943174005
 21
102.0361799411326
 31
0.0
  0
LINE
  5
3A8
330
24E4
100
AcDbEntity
  8
DETAIL
  6
Continuous
 62
     5
100
AcDbLine
 10
160.0567528488342
 20
100.0354705305173
 30
0.0
 11
156.5555113802691
 21
100.0354705305173
 31
0.0
  0
LINE
  5
3A9
330
24E4
100
AcDbEntity
  8
DETAIL
  6
Continuous
 62
     5
100
AcDbLine
 10
164.8263869206009
 20
83.52961789298527
 30
0.0
 11
94.28343097502128
 21
83.52961789298527
 31
0.0
  0
LINE
  5
3AA
330
24E4
100
AcDbEntity
  8
DETAIL
  6
Continuous
 62
     5
100
AcDbLine
 10
82.52926318767981
 20
78.52784436646698
 30
0.0
 11
92.53281024072908
 21
78.52784436646698
 31
0.0
  0
LINE
  5
3AB
330
24E4
100
AcDbEntity
  8
DETAIL
  6
Continuous
 62
     5
100
AcDbLine
 10
-131.7967324239637
 20
105.5374214096996
 30
0.0
 11
-3.251152792248147
 21
105.5374214096996
 31
0.0
  0
LINE
  5
3AC
330
24E4
100
AcDbEntity
  8
DETAIL
  6
Continuous
 62
     5
100
AcDbLine
 10
-131.7967324239637
 20
102.0361799411326
 30
0.0
 11
-3.251152792248147
 21
102.0361799411326
 31
0.0
  0
LINE
  5
3AD
330
24E4
100
AcDbEntity
  8
DETAIL
  6
Continuous
 62
     5
100
AcDbLine
 10
0.2500886763325525
 20
93.53316494603449
 30
0.0
 11
-3.251152792248147
 21
93.53316494603449
 31
0.0
  0
LINE
  5
3AE
330
24E4
100
AcDbEntity
  8
DETAIL
  6
Continuous
 62
     5
100
AcDbLine
 10
-131.7967324239637
 20
93.53316494603449
 30
0.0
 11
-135.2979738925325
 21
93.53316494603449
 31
0.0
  0
LINE
  5
3AF
330
24E4
100
AcDbEntity
  8
DETAIL
  6
Continuous
 62
     5
100
AcDbLine
 10
128.7956683080481
 20
253.3398291185372
 30
0.0
 11
0.2500886763325525
 21
253.3398291185372
 31
0.0
  0
LINE
  5
3B0
330
24E4
100
AcDbEntity
  8
DETAIL
  6
Continuous
 62
     5
100
AcDbLine
 10
128.7956683080481
 20
249.8385876499711
 30
0.0
 11
0.2500886763325525
 21
249.8385876499711
 31
0.0
  0
LINE
  5
3B1
330
24E4
100
AcDbEntity
  8
DETAIL
  6
Continuous
 62
     5
100
AcDbLine
 10
147.5523190325209
 20
253.3398291185372
 30
0.0
 11
147.5523190325209
 21
249.8385876499711
 31
0.0
  0
LINE
  5
3B2
330
24E4
100
AcDbEntity
  8
DETAIL
  6
Continuous
 62
     5
100
AcDbLine
 10
147.5523190325209
 20
253.3398291185372
 30
0.0
 11
132.2969097766133
 21
253.3398291185372
 31
0.0
  0
LINE
  5
3B3
330
24E4
100
AcDbEntity
  8
DETAIL
  6
Continuous
 62
     5
100
AcDbLine
 10
147.5523190325209
 20
249.8385876499711
 30
0.0
 11
132.2969097766133
 21
249.8385876499711
 31
0.0
  0
LINE
  5
3B4
330
24E4
100
AcDbEntity
  8
DETAIL
  6
Continuous
 62
     5
100
AcDbLine
 10
-3.251152792248147
 20
253.3398291185372
 30
0.0
 11
-131.7967324239637
 21
253.3398291185372
 31
0.0
  0
LINE
  5
3B5
330
24E4
100
AcDbEntity
  8
DETAIL
  6
Continuous
 62
     5
100
AcDbLine
 10
-3.251152792248147
 20
249.8385876499711
 30
0.0
 11
-131.7967324239637
 21
249.8385876499711
 31
0.0
  0
LINE
  5
3B6
330
24E4
100
AcDbEntity
  8
DETAIL
  6
Continuous
 62
     5
100
AcDbLine
 10
-332.6179395139771
 20
50.31784167685915
 30
0.0
 11
-332.6179395139771
 21
3.201135056977812
 31
0.0
  0
LINE
  5
3B7
330
24E4
100
AcDbEntity
  8
DETAIL
  6
Continuous
 62
     5
100
AcDbLine
 10
-299.5000000000011
 20
8.202908583507896
 30
0.0
 11
-299.5000000000011
 21
50.31784167685915
 31
0.0
  0
ARC
  5
3B8
330
24E4
100
AcDbEntity
  8
DETAIL
  6
Continuous
 62
     5
100
AcDbCircle
 10
-332.7011350569785
 20
3.201135056977812
 30
0.0
 40
3.201135056976608
100
AcDbArc
 50
270.0
 51
0.0
  0
ARC
  5
3B9
330
24E4
100
AcDbEntity
  8
DETAIL
  6
Continuous
 62
     5
100
AcDbCircle
 10
-304.5017735265294
 20
8.202908583507896
 30
0.0
 40
5.001773526525957
100
AcDbArc
 50
270.0
 51
0.0
  0
LINE
  5
3BA
330
24E4
100
AcDbEntity
  8
DETAIL
  6
Continuous
 62
     5
100
AcDbLine
 10
-304.5017735265294
 20
3.201135056977812
 30
0.0
 11
-379.5000000000011
 21
3.201135056977812
 31
0.0
  0
LINE
  5
3BB
330
24E4
100
AcDbEntity
  8
DETAIL
  6
Continuous
 62
     5
100
AcDbLine
 10
-379.5000000000011
 20
-0.0000000000013642
 30
0.0
 11
-332.7011350569785
 21
0.0000000000013713
 31
0.0
  0
LINE
  5
3BC
330
24E4
100
AcDbEntity
  8
DETAIL
  6
Continuous
 62
     5
100
AcDbLine
 10
-379.5000000000011
 20
3.201135056977812
 30
0.0
 11
-379.5000000000011
 21
-0.0000000000013642
 31
0.0
  0
LINE
  5
3BE
330
24E4
100
AcDbEntity
  8
DETAIL
  6
Continuous
 62
     5
100
AcDbLine
 10
-298.6058795336006
 20
105.5374214096996
 30
0.0
 11
-267.3447949928134
 21
105.5374214096996
 31
0.0
  0
LINE
  5
3BF
330
24E4
100
AcDbEntity
  8
DETAIL
  6
Continuous
 62
     5
100
AcDbLine
 10
-298.6058795336006
 20
102.0361799411326
 30
0.0
 11
-267.3447949928134
 21
102.0361799411326
 31
0.0
  0
LINE
  5
3C0
330
24E4
100
AcDbEntity
  8
DETAIL
  6
Continuous
 62
     5
100
AcDbLine
 10
-263.8435535242471
 20
93.53316494603449
 30
0.0
 11
-267.3447949928134
 21
93.53316494603449
 31
0.0
  0
LINE
  5
3C3
330
24E4
100
AcDbEntity
  8
DETAIL
  6
Continuous
 62
     5
100
AcDbLine
 10
-299.5000000000011
 20
50.31784167685915
 30
0.0
 11
-332.6179395139771
 21
50.31784167685915
 31
0.0
  0
LINE
  5
3C4
330
24E4
100
AcDbEntity
  8
DETAIL
  6
Continuous
 62
     5
100
AcDbLine
 10
-299.5000000000011
 20
53.51897673383746
 30
0.0
 11
-299.5000000000011
 21
50.31784167685915
 31
0.0
  0
ARC
  5
3C5
330
24E4
100
AcDbEntity
  8
DETAIL
  6
Continuous
 62
     5
100
AcDbCircle
 10
-329.4168044569998
 20
50.31784167685915
 30
0.0
 40
3.201135056976608
100
AcDbArc
 50
90.0
 51
180.0
  0
ARC
  5
3C7
330
24E4
100
AcDbEntity
  8
DETAIL
  6
Continuous
 62
     5
100
AcDbCircle
 10
-374.032624313618
 20
54.91947332126386
 30
0.0
 40
1.400496587427267
100
AcDbArc
 50
180.0
 51
270.0
  0
ARC
  5
3C8
330
24E4
100
AcDbEntity
  8
DETAIL
  6
Continuous
 62
     5
100
AcDbCircle
 10
-298.6058795336006
 20
98.5349384725653
 30
0.0
 40
3.501241468568167
100
AcDbArc
 50
90.0
 51
0.0
  0
ARC
  5
3C9
330
24E4
100
AcDbEntity
  8
DETAIL
  6
Continuous
 62
     5
100
AcDbCircle
 10
-313.8112710542421
 20
63.52252378688665
 30
0.0
 40
5.001773526525957
100
AcDbArc
 50
270.0
 51
0.0
  0
ARC
  5
3CA
330
24E4
100
AcDbEntity
  8
DETAIL
  6
Continuous
 62
     5
100
AcDbCircle
 10
-298.6058795336006
 20
98.5349384725653
 30
0.0
 40
7.002482937136337
100
AcDbArc
 50
90.0
 51
0.0
  0
LINE
  5
3CB
330
24E4
100
AcDbEntity
  8
DETAIL
  6
Continuous
 62
     5
100
AcDbLine
 10
-375.4331209010437
 20
54.91947332126386
 30
0.0
 11
-375.4331209010437
 21
58.52075026035565
 31
0.0
  0
LINE
  5
3CC
330
24E4
100
AcDbEntity
  8
DETAIL
  6
Continuous
 62
     5
100
AcDbLine
 10
-308.8094975277128
 20
63.52252378688665
 30
0.0
 11
-308.8094975277128
 21
83.52961789298527
 31
0.0
  0
LINE
  5
3CE
330
24E4
100
AcDbEntity
  8
DETAIL
  6
Continuous
 62
     5
100
AcDbLine
 10
-303.6076530601324
 20
80.52855377706917
 30
0.0
 11
-303.6076530601324
 21
78.52784436646698
 31
0.0
  0
LINE
  5
3CF
330
24E4
100
AcDbEntity
  8
DETAIL
  6
Continuous
 62
     5
100
AcDbLine
 10
-295.1046380650334
 20
100.0354705305173
 30
0.0
 11
-295.1046380650334
 21
98.5349384725653
 31
0.0
  0
LINE
  5
3D0
330
24E4
100
AcDbEntity
  8
DETAIL
  6
Continuous
 62
     5
100
AcDbLine
 10
-292.6037513017657
 20
94.93168940562215
 30
0.0
 11
-292.6037513017657
 21
83.52961789298527
 31
0.0
  0
LINE
  5
3D1
330
24E4
100
AcDbEntity
  8
DETAIL
  6
Continuous
 62
     5
100
AcDbLine
 10
-292.6037513017657
 20
102.0361799411326
 30
0.0
 11
-292.6037513017657
 21
100.0354705305173
 31
0.0
  0
LINE
  5
3D2
330
24E4
100
AcDbEntity
  8
DETAIL
  6
Continuous
 62
     5
100
AcDbLine
 10
-291.6033965964682
 20
100.0354705305173
 30
0.0
 11
-291.6033965964682
 21
98.5349384725653
 31
0.0
  0
LINE
  5
3D3
330
24E4
100
AcDbEntity
  8
DETAIL
  6
Continuous
 62
     5
100
AcDbLine
 10
-303.6076530601324
 20
80.52855377706917
 30
0.0
 11
-301.8749958381888
 21
83.52961789298527
 31
0.0
  0
LINE
  5
3D4
330
24E4
100
AcDbEntity
  8
DETAIL
  6
Continuous
 62
     5
100
AcDbLine
 10
-295.1046380650334
 20
100.0354705305173
 30
0.0
 11
-291.6033965964682
 21
100.0354705305173
 31
0.0
  0
LINE
  5
3D5
330
24E4
100
AcDbEntity
  8
DETAIL
  6
Continuous
 62
     5
100
AcDbLine
 10
-308.8094975277128
 20
83.52961789298527
 30
0.0
 11
-307.6090718813469
 21
83.52961789298527
 31
0.0
  0
LINE
  5
3D6
330
24E4
100
AcDbEntity
  8
DETAIL
  6
Continuous
 62
     5
100
AcDbLine
 10
-308.8094975277128
 20
78.52784436646698
 30
0.0
 11
-303.6076530601324
 21
78.52784436646698
 31
0.0
  0
LINE
  5
3D7
330
24E4
100
AcDbEntity
  8
DETAIL
  6
Continuous
 62
     5
100
AcDbLine
 10
-313.8112710542421
 20
58.52075026035565
 30
0.0
 11
-375.4999999999993
 21
58.52075026035565
 31
0.0
  0
LINE
  5
3D8
330
24E4
100
AcDbEntity
  8
DETAIL
  6
Continuous
 62
     5
100
AcDbLine
 10
-295.1046237742469
 20
53.51899102461875
 30
0.0
 11
-374.032624313618
 21
53.51897673383657
 31
0.0
  0
LINE
  5
3DA
330
24E4
100
AcDbEntity
  8
DETAIL
  6
Continuous
 62
     5
100
AcDbLine
 10
-282.6002042487173
 20
253.3398291185372
 30
0.0
 11
-282.6002042487173
 21
249.8385876499711
 31
0.0
  0
LINE
  5
3DB
330
24E4
100
AcDbEntity
  8
DETAIL
  6
Continuous
 62
     5
100
AcDbLine
 10
-267.3447949928134
 20
253.3398291185372
 30
0.0
 11
-282.6002042487173
 21
253.3398291185372
 31
0.0
  0
LINE
  5
3DC
330
24E4
100
AcDbEntity
  8
DETAIL
  6
Continuous
 62
     5
100
AcDbLine
 10
-267.3447949928134
 20
249.8385876499711
 30
0.0
 11
-282.6002042487173
 21
249.8385876499711
 31
0.0
  0
LINE
  5
3DE
330
24E4
100
AcDbEntity
  8
DETAIL
  6
Continuous
 62
     5
100
AcDbLine
 10
126.0965684053169
 20
830.0443167269872
 30
0.0
 11
126.0965684053169
 21
687.7438598973172
 31
0.0
  0
LINE
  5
3DF
330
24E4
100
AcDbEntity
  8
DETAIL
  6
Continuous
 62
     5
100
AcDbLine
 10
138.0333866710596
 20
830.0443167269872
 30
0.0
 11
138.0333866710596
 21
687.7438598973172
 31
0.0
  0
LINE
  5
3E0
330
24E4
100
AcDbEntity
  8
DETAIL
  6
Continuous
 62
     5
100
AcDbLine
 10
143.5191032224536
 20
687.7438598973172
 30
0.0
 11
143.5191032224536
 21
830.0443167269872
 31
0.0
  0
LINE
  5
3E1
330
24E4
100
AcDbEntity
  8
DETAIL
  6
Continuous
 62
     5
100
AcDbLine
 10
-135.2979738925325
 20
543.4426936570457
 30
0.0
 11
-263.8435535242471
 21
543.4426936570457
 31
0.0
  0
LINE
  5
3E2
330
24E4
100
AcDbEntity
  8
DETAIL
  6
Continuous
 62
     5
100
AcDbLine
 10
-135.2979738925325
 20
539.9414521884794
 30
0.0
 11
-263.8435535242471
 21
539.9414521884794
 31
0.0
  0
LINE
  5
3E3
330
24E4
100
AcDbEntity
  8
DETAIL
  6
Continuous
 62
     5
100
AcDbLine
 10
-135.2979738925325
 20
398.3912613877978
 30
0.0
 11
-263.8435535242471
 21
398.3912613877978
 31
0.0
  0
LINE
  5
3E4
330
24E4
100
AcDbEntity
  8
DETAIL
  6
Continuous
 62
     5
100
AcDbLine
 10
-135.2979738925325
 20
394.8900199192313
 30
0.0
 11
-263.8435535242471
 21
394.8900199192313
 31
0.0
  0
LINE
  5
3E5
330
24E4
100
AcDbEntity
  8
DETAIL
  6
Continuous
 62
     5
100
AcDbLine
 10
-263.8435535242471
 20
687.7438598973172
 30
0.0
 11
-135.2979738925325
 21
687.7438598973172
 31
0.0
  0
LINE
  5
3E6
330
24E4
100
AcDbEntity
  8
DETAIL
  6
Continuous
 62
     5
100
AcDbLine
 10
-263.8435535242471
 20
684.2426184287508
 30
0.0
 11
-135.2979738925325
 21
684.2426184287508
 31
0.0
  0
LINE
  5
3E8
330
24E4
100
AcDbEntity
  8
DETAIL
  6
Continuous
 62
     5
100
AcDbLine
 10
126.0965684053169
 20
539.9414521884794
 30
0.0
 11
126.0965684053169
 21
398.3912613877978
 31
0.0
  0
LINE
  5
3E9
330
24E4
100
AcDbEntity
  8
DETAIL
  6
Continuous
 62
     5
100
AcDbLine
 10
143.5191032224536
 20
398.3912613877978
 30
0.0
 11
143.5191032224536
 21
539.9414521884794
 31
0.0
  0
LINE
  5
3EA
330
24E4
100
AcDbEntity
  8
DETAIL
  6
Continuous
 62
     5
100
AcDbLine
 10
128.7956683080481
 20
398.3912613877978
 30
0.0
 11
0.2500886763325525
 21
398.3912613877978
 31
0.0
  0
LINE
  5
3EB
330
24E4
100
AcDbEntity
  8
DETAIL
  6
Continuous
 62
     5
100
AcDbLine
 10
128.7956683080481
 20
394.8900199192313
 30
0.0
 11
0.2500886763325525
 21
394.8900199192313
 31
0.0
  0
LINE
  5
3EC
330
24E4
100
AcDbEntity
  8
DETAIL
  6
Continuous
 62
     5
100
AcDbLine
 10
147.5523190325209
 20
398.3912613877978
 30
0.0
 11
147.5523190325209
 21
394.8900199192313
 31
0.0
  0
LINE
  5
3ED
330
24E4
100
AcDbEntity
  8
DETAIL
  6
Continuous
 62
     5
100
AcDbLine
 10
147.5523190325209
 20
398.3912613877978
 30
0.0
 11
132.2969097766133
 21
398.3912613877978
 31
0.0
  0
LINE
  5
3EE
330
24E4
100
AcDbEntity
  8
DETAIL
  6
Continuous
 62
     5
100
AcDbLine
 10
147.5523190325209
 20
394.8900199192313
 30
0.0
 11
132.2969097766133
 21
394.8900199192313
 31
0.0
  0
LINE
  5
3EF
330
24E4
100
AcDbEntity
  8
DETAIL
  6
Continuous
 62
     5
100
AcDbLine
 10
-3.251152792248147
 20
398.3912613877978
 30
0.0
 11
-131.7967324239637
 21
398.3912613877978
 31
0.0
  0
LINE
  5
3F0
330
24E4
100
AcDbEntity
  8
DETAIL
  6
Continuous
 62
     5
100
AcDbLine
 10
-3.251152792248147
 20
394.8900199192313
 30
0.0
 11
-131.7967324239637
 21
394.8900199192313
 31
0.0
  0
LINE
  5
3F1
330
24E4
100
AcDbEntity
  8
DETAIL
  6
Continuous
 62
     5
100
AcDbLine
 10
128.7956683080481
 20
543.4426936570457
 30
0.0
 11
0.2500886763325525
 21
543.4426936570457
 31
0.0
  0
LINE
  5
3F2
330
24E4
100
AcDbEntity
  8
DETAIL
  6
Continuous
 62
     5
100
AcDbLine
 10
128.7956683080481
 20
539.9414521884794
 30
0.0
 11
0.2500886763325525
 21
539.9414521884794
 31
0.0
  0
LINE
  5
3F3
330
24E4
100
AcDbEntity
  8
DETAIL
  6
Continuous
 62
     5
100
AcDbLine
 10
0.2500886763325525
 20
687.7438598973172
 30
0.0
 11
128.7956683080481
 21
687.7438598973172
 31
0.0
  0
LINE
  5
3F4
330
24E4
100
AcDbEntity
  8
DETAIL
  6
Continuous
 62
     5
100
AcDbLine
 10
0.2500886763325525
 20
684.2426184287508
 30
0.0
 11
128.7956683080481
 21
684.2426184287508
 31
0.0
  0
LINE
  5
3F6
330
24E4
100
AcDbEntity
  8
DETAIL
  6
Continuous
 62
     5
100
AcDbLine
 10
126.0965684053169
 20
684.2426184287508
 30
0.0
 11
126.0965684053169
 21
543.4426936570457
 31
0.0
  0
LINE
  5
3F7
330
24E4
100
AcDbEntity
  8
DETAIL
  6
Continuous
 62
     5
100
AcDbLine
 10
138.0333866710596
 20
684.2426184287508
 30
0.0
 11
138.0333866710596
 21
543.4426936570457
 31
0.0
  0
LINE
  5
3F8
330
24E4
100
AcDbEntity
  8
DETAIL
  6
Continuous
 62
     5
100
AcDbLine
 10
143.5191032224536
 20
543.4426936570457
 30
0.0
 11
143.5191032224536
 21
684.2426184287508
 31
0.0
  0
LINE
  5
3F9
330
24E4
100
AcDbEntity
  8
DETAIL
  6
Continuous
 62
     5
100
AcDbLine
 10
147.5523190325209
 20
543.4426936570457
 30
0.0
 11
132.2969097766133
 21
543.4426936570457
 31
0.0
  0
LINE
  5
3FA
330
24E4
100
AcDbEntity
  8
DETAIL
  6
Continuous
 62
     5
100
AcDbLine
 10
147.5523190325209
 20
539.9414521884794
 30
0.0
 11
132.2969097766133
 21
539.9414521884794
 31
0.0
  0
LINE
  5
3FB
330
24E4
100
AcDbEntity
  8
DETAIL
  6
Continuous
 62
     5
100
AcDbLine
 10
147.5523190325209
 20
543.4426936570457
 30
0.0
 11
147.5523190325209
 21
539.9414521884794
 31
0.0
  0
ARC
  5
3FD
330
24E4
100
AcDbEntity
  8
DETAIL
  6
Continuous
 62
     5
100
AcDbCircle
 10
163.5579943174005
 20
680.7413769601839
 30
0.0
 40
3.501241468568167
100
AcDbArc
 50
180.0
 51
90.0
  0
ARC
  5
3FE
330
24E4
100
AcDbEntity
  8
DETAIL
  6
Continuous
 62
     5
100
AcDbCircle
 10
163.5579943174005
 20
680.7413769601839
 30
0.0
 40
7.002482937136337
100
AcDbArc
 50
180.0
 51
90.0
  0
LINE
  5
3FF
330
24E4
100
AcDbEntity
  8
DETAIL
  6
Continuous
 62
     5
100
AcDbLine
 10
132.2969097766133
 20
687.7438598973172
 30
0.0
 11
163.5579943174005
 21
687.7438598973172
 31
0.0
  0
LINE
  5
400
330
24E4
100
AcDbEntity
  8
DETAIL
  6
Continuous
 62
     5
100
AcDbLine
 10
132.2969097766133
 20
684.2426184287508
 30
0.0
 11
163.5579943174005
 21
684.2426184287508
 31
0.0
  0
LINE
  5
401
330
24E4
100
AcDbEntity
  8
DETAIL
  6
Continuous
 62
     5
100
AcDbLine
 10
160.0567528488342
 20
682.2419090181483
 30
0.0
 11
156.5555113802691
 21
682.2419090181483
 31
0.0
  0
LINE
  5
402
330
24E4
100
AcDbEntity
  8
DETAIL
  6
Continuous
 62
     5
100
AcDbLine
 10
156.5555113802691
 20
680.7413769601839
 30
0.0
 11
156.5555113802691
 21
682.2419090181483
 31
0.0
  0
LINE
  5
403
330
24E4
100
AcDbEntity
  8
DETAIL
  6
Continuous
 62
     5
100
AcDbLine
 10
157.5558660855711
 20
684.2426184287508
 30
0.0
 11
157.5558660855711
 21
682.2419090181483
 31
0.0
  0
LINE
  5
404
330
24E4
100
AcDbEntity
  8
DETAIL
  6
Continuous
 62
     5
100
AcDbLine
 10
160.0567528488342
 20
680.7413769601839
 30
0.0
 11
160.0567528488342
 21
682.2419090181483
 31
0.0
  0
LINE
  5
405
330
24E4
100
AcDbEntity
  8
DETAIL
  6
Continuous
 62
     5
100
AcDbLine
 10
-3.251152792248147
 20
543.4426936570457
 30
0.0
 11
-131.7967324239637
 21
543.4426936570457
 31
0.0
  0
LINE
  5
406
330
24E4
100
AcDbEntity
  8
DETAIL
  6
Continuous
 62
     5
100
AcDbLine
 10
-3.251152792248147
 20
539.9414521884794
 30
0.0
 11
-131.7967324239637
 21
539.9414521884794
 31
0.0
  0
LINE
  5
407
330
24E4
100
AcDbEntity
  8
DETAIL
  6
Continuous
 62
     5
100
AcDbLine
 10
-131.7967324239637
 20
687.7438598973172
 30
0.0
 11
-3.251152792248147
 21
687.7438598973172
 31
0.0
  0
LINE
  5
408
330
24E4
100
AcDbEntity
  8
DETAIL
  6
Continuous
 62
     5
100
AcDbLine
 10
-131.7967324239637
 20
684.2426184287508
 30
0.0
 11
-3.251152792248147
 21
684.2426184287508
 31
0.0
  0
LINE
  5
409
330
24E4
100
AcDbEntity
  8
DETAIL
  6
Continuous
 62
     5
100
AcDbLine
 10
-282.6002042487173
 20
398.3912613877978
 30
0.0
 11
-282.6002042487173
 21
394.8900199192313
 31
0.0
  0
LINE
  5
40A
330
24E4
100
AcDbEntity
  8
DETAIL
  6
Continuous
 62
     5
100
AcDbLine
 10
-267.3447949928134
 20
398.3912613877978
 30
0.0
 11
-282.6002042487173
 21
398.3912613877978
 31
0.0
  0
LINE
  5
40B
330
24E4
100
AcDbEntity
  8
DETAIL
  6
Continuous
 62
     5
100
AcDbLine
 10
-267.3447949928134
 20
394.8900199192313
 30
0.0
 11
-282.6002042487173
 21
394.8900199192313
 31
0.0
  0
LINE
  5
40C
330
24E4
100
AcDbEntity
  8
NOTE
  6
Continuous
 62
     4
100
AcDbLine
 10
-478.3803238722939
 20
440.8253505044834
 30
0.0
 11
-478.3803238722939
 21
415.816482871854
 31
0.0
  0
LINE
  5
40D
330
24E4
100
AcDbEntity
  8
NOTE
  6
Continuous
 62
     4
100
AcDbLine
 10
-428.466582624039
 20
465.834218137113
 30
0.0
 11
-478.3803238722939
 21
415.816482871854
 31
0.0
  0
LINE
  5
40E
330
24E4
100
AcDbEntity
  8
NOTE
  6
Continuous
 62
     4
100
AcDbLine
 10
-519.0808554478137
 20
440.8253505044834
 30
0.0
 11
-519.0808554478137
 21
490.8430857697434
 31
0.0
  0
LINE
  5
40F
330
24E4
100
AcDbEntity
  8
NOTE
  6
Continuous
 62
     4
100
AcDbLine
 10
-478.3803238722939
 20
490.8430857697434
 30
0.0
 11
-519.0808554478137
 21
490.8430857697434
 31
0.0
  0
LINE
  5
410
330
24E4
100
AcDbEntity
  8
NOTE
  6
Continuous
 62
     4
100
AcDbLine
 10
-478.3803238722939
 20
440.8253505044834
 30
0.0
 11
-519.0808554478137
 21
440.8253505044834
 31
0.0
  0
LINE
  5
411
330
24E4
100
AcDbEntity
  8
NOTE
  6
Continuous
 62
     4
100
AcDbLine
 10
-478.3803238722939
 20
515.8519534023728
 30
0.0
 11
-478.3803238722939
 21
490.8430857697434
 31
0.0
  0
LINE
  5
412
330
24E4
100
AcDbEntity
  8
NOTE
  6
Continuous
 62
     4
100
AcDbLine
 10
-478.3803238722939
 20
515.8519534023728
 30
0.0
 11
-428.466582624039
 21
465.834218137113
 31
0.0
  0
LINE
  5
413
330
24E4
100
AcDbEntity
  8
DETAIL
  6
Continuous
 62
     5
100
AcDbLine
 10
-282.6002042487173
 20
543.4426936570457
 30
0.0
 11
-282.6002042487173
 21
539.9414521884794
 31
0.0
  0
LINE
  5
414
330
24E4
100
AcDbEntity
  8
DETAIL
  6
Continuous
 62
     5
100
AcDbLine
 10
-267.3447949928134
 20
543.4426936570457
 30
0.0
 11
-282.6002042487173
 21
543.4426936570457
 31
0.0
  0
LINE
  5
415
330
24E4
100
AcDbEntity
  8
DETAIL
  6
Continuous
 62
     5
100
AcDbLine
 10
-267.3447949928134
 20
539.9414521884794
 30
0.0
 11
-282.6002042487173
 21
539.9414521884794
 31
0.0
  0
LINE
  5
416
330
24E4
100
AcDbEntity
  8
DETAIL
  6
Continuous
 62
     5
100
AcDbLine
 10
-298.6058795336006
 20
687.7438598973172
 30
0.0
 11
-267.3447949928134
 21
687.7438598973172
 31
0.0
  0
LINE
  5
417
330
24E4
100
AcDbEntity
  8
DETAIL
  6
Continuous
 62
     5
100
AcDbLine
 10
-298.6058795336006
 20
684.2426184287508
 30
0.0
 11
-267.3447949928134
 21
684.2426184287508
 31
0.0
  0
ARC
  5
418
330
24E4
100
AcDbEntity
  8
DETAIL
  6
Continuous
 62
     5
100
AcDbCircle
 10
-298.6058795336006
 20
680.7413769601839
 30
0.0
 40
3.501241468568167
100
AcDbArc
 50
90.0
 51
0.0
  0
ARC
  5
419
330
24E4
100
AcDbEntity
  8
DETAIL
  6
Continuous
 62
     5
100
AcDbCircle
 10
-298.6058795336006
 20
680.7413769601839
 30
0.0
 40
7.002482937136337
100
AcDbArc
 50
90.0
 51
0.0
  0
LINE
  5
41A
330
24E4
100
AcDbEntity
  8
DETAIL
  6
Continuous
 62
     5
100
AcDbLine
 10
-295.1046380650334
 20
682.2419090181483
 30
0.0
 11
-295.1046380650334
 21
680.7413769601839
 31
0.0
  0
LINE
  5
41B
330
24E4
100
AcDbEntity
  8
DETAIL
  6
Continuous
 62
     5
100
AcDbLine
 10
-292.6037513017657
 20
684.2426184287508
 30
0.0
 11
-292.6037513017657
 21
682.2419090181483
 31
0.0
  0
LINE
  5
41C
330
24E4
100
AcDbEntity
  8
DETAIL
  6
Continuous
 62
     5
100
AcDbLine
 10
-291.6033965964682
 20
682.2419090181483
 30
0.0
 11
-291.6033965964682
 21
680.7413769601839
 31
0.0
  0
LINE
  5
41D
330
24E4
100
AcDbEntity
  8
DETAIL
  6
Continuous
 62
     5
100
AcDbLine
 10
-295.1046380650334
 20
682.2419090181483
 30
0.0
 11
-291.6033965964682
 21
682.2419090181483
 31
0.0
  0
LINE
  5
41E
330
24E4
100
AcDbEntity
  8
DETAIL
  6
Continuous
 62
     5
100
AcDbLine
 10
-135.2979738925325
 20
1120.147181265494
 30
0.0
 11
-263.8435535242471
 21
1120.147181265494
 31
0.0
  0
LINE
  5
41F
330
24E4
100
AcDbEntity
  8
DETAIL
  6
Continuous
 62
     5
100
AcDbLine
 10
-135.2979738925325
 20
978.5969904648018
 30
0.0
 11
-263.8435535242471
 21
978.5969904648018
 31
0.0
  0
LINE
  5
420
330
24E4
100
AcDbEntity
  8
DETAIL
  6
Continuous
 62
     5
100
AcDbLine
 10
-135.2979738925325
 20
975.095748996236
 30
0.0
 11
-263.8435535242471
 21
975.095748996236
 31
0.0
  0
LINE
  5
421
330
24E4
100
AcDbEntity
  8
DETAIL
  6
Continuous
 62
     5
100
AcDbLine
 10
-135.2979738925325
 20
833.5455581955542
 30
0.0
 11
-263.8435535242471
 21
833.5455581955542
 31
0.0
  0
LINE
  5
422
330
24E4
100
AcDbEntity
  8
DETAIL
  6
Continuous
 62
     5
100
AcDbLine
 10
-135.2979738925325
 20
830.0443167269872
 30
0.0
 11
-263.8435535242471
 21
830.0443167269872
 31
0.0
  0
LINE
  5
424
330
24E4
100
AcDbEntity
  8
DETAIL
  6
Continuous
 62
     5
100
AcDbLine
 10
126.0965684053169
 20
975.095748996236
 30
0.0
 11
126.0965684053169
 21
833.5455581955542
 31
0.0
  0
LINE
  5
425
330
24E4
100
AcDbEntity
  8
DETAIL
  6
Continuous
 62
     5
100
AcDbLine
 10
143.5191032224536
 20
833.5455581955542
 30
0.0
 11
143.5191032224536
 21
975.095748996236
 31
0.0
  0
LINE
  5
426
330
24E4
100
AcDbEntity
  8
DETAIL
  6
Continuous
 62
     5
100
AcDbLine
 10
128.7956683080481
 20
833.5455581955542
 30
0.0
 11
0.2500886763325525
 21
833.5455581955542
 31
0.0
  0
LINE
  5
427
330
24E4
100
AcDbEntity
  8
DETAIL
  6
Continuous
 62
     5
100
AcDbLine
 10
128.7956683080481
 20
830.0443167269872
 30
0.0
 11
0.2500886763325525
 21
830.0443167269872
 31
0.0
  0
LINE
  5
428
330
24E4
100
AcDbEntity
  8
DETAIL
  6
Continuous
 62
     5
100
AcDbLine
 10
147.5523190325209
 20
833.5455581955542
 30
0.0
 11
132.2969097766133
 21
833.5455581955542
 31
0.0
  0
LINE
  5
429
330
24E4
100
AcDbEntity
  8
DETAIL
  6
Continuous
 62
     5
100
AcDbLine
 10
147.5523190325209
 20
830.0443167269872
 30
0.0
 11
132.2969097766133
 21
830.0443167269872
 31
0.0
  0
LINE
  5
42A
330
24E4
100
AcDbEntity
  8
DETAIL
  6
Continuous
 62
     5
100
AcDbLine
 10
147.5523190325209
 20
833.5455581955542
 30
0.0
 11
147.5523190325209
 21
830.0443167269872
 31
0.0
  0
LINE
  5
42B
330
24E4
100
AcDbEntity
  8
DETAIL
  6
Continuous
 62
     5
100
AcDbLine
 10
-3.251152792248147
 20
833.5455581955542
 30
0.0
 11
-131.7967324239637
 21
833.5455581955542
 31
0.0
  0
LINE
  5
42C
330
24E4
100
AcDbEntity
  8
DETAIL
  6
Continuous
 62
     5
100
AcDbLine
 10
-3.251152792248147
 20
830.0443167269872
 30
0.0
 11
-131.7967324239637
 21
830.0443167269872
 31
0.0
  0
LINE
  5
42D
330
24E4
100
AcDbEntity
  8
DETAIL
  6
Continuous
 62
     5
100
AcDbLine
 10
128.7956683080481
 20
1120.147181265494
 30
0.0
 11
0.2500886763325525
 21
1120.147181265494
 31
0.0
  0
LINE
  5
42E
330
24E4
100
AcDbEntity
  8
DETAIL
  6
Continuous
 62
     5
100
AcDbLine
 10
128.7956683080481
 20
978.5969904648018
 30
0.0
 11
0.2500886763325525
 21
978.5969904648018
 31
0.0
  0
LINE
  5
42F
330
24E4
100
AcDbEntity
  8
DETAIL
  6
Continuous
 62
     5
100
AcDbLine
 10
128.7956683080481
 20
975.095748996236
 30
0.0
 11
0.2500886763325525
 21
975.095748996236
 31
0.0
  0
LINE
  5
431
330
24E4
100
AcDbEntity
  8
DETAIL
  6
Continuous
 62
     5
100
AcDbLine
 10
126.0965684053169
 20
1120.147181265494
 30
0.0
 11
126.0965684053169
 21
978.5969904648018
 31
0.0
  0
LINE
  5
432
330
24E4
100
AcDbEntity
  8
DETAIL
  6
Continuous
 62
     5
100
AcDbLine
 10
138.0333866710596
 20
1120.147181265494
 30
0.0
 11
138.0333866710596
 21
978.5969904648018
 31
0.0
  0
LINE
  5
433
330
24E4
100
AcDbEntity
  8
DETAIL
  6
Continuous
 62
     5
100
AcDbLine
 10
143.5191032224536
 20
978.5969904648018
 30
0.0
 11
143.5191032224536
 21
1120.147181265494
 31
0.0
  0
LINE
  5
434
330
24E4
100
AcDbEntity
  8
DETAIL
  6
Continuous
 62
     5
100
AcDbLine
 10
147.5523190325209
 20
978.5969904648018
 30
0.0
 11
132.2969097766133
 21
978.5969904648018
 31
0.0
  0
LINE
  5
435
330
24E4
100
AcDbEntity
  8
DETAIL
  6
Continuous
 62
     5
100
AcDbLine
 10
147.5523190325209
 20
975.095748996236
 30
0.0
 11
132.2969097766133
 21
975.095748996236
 31
0.0
  0
LINE
  5
436
330
24E4
100
AcDbEntity
  8
DETAIL
  6
Continuous
 62
     5
100
AcDbLine
 10
147.5523190325209
 20
978.5969904648018
 30
0.0
 11
147.5523190325209
 21
975.095748996236
 31
0.0
  0
LINE
  5
437
330
24E4
100
AcDbEntity
  8
DETAIL
  6
Continuous
 62
     5
100
AcDbLine
 10
147.5523190325209
 20
1120.147181265494
 30
0.0
 11
132.2969097766133
 21
1120.147181265494
 31
0.0
  0
LINE
  5
438
330
24E4
100
AcDbEntity
  8
DETAIL
  6
Continuous
 62
     5
100
AcDbLine
 10
-3.251152792248147
 20
978.5969904648018
 30
0.0
 11
-131.7967324239637
 21
978.5969904648018
 31
0.0
  0
LINE
  5
439
330
24E4
100
AcDbEntity
  8
DETAIL
  6
Continuous
 62
     5
100
AcDbLine
 10
-3.251152792248147
 20
975.095748996236
 30
0.0
 11
-131.7967324239637
 21
975.095748996236
 31
0.0
  0
LINE
  5
43A
330
24E4
100
AcDbEntity
  8
DETAIL
  6
Continuous
 62
     5
100
AcDbLine
 10
-3.251152792248147
 20
1120.147181265494
 30
0.0
 11
-131.7967324239637
 21
1120.147181265494
 31
0.0
  0
LINE
  5
43B
330
24E4
100
AcDbEntity
  8
DETAIL
  6
Continuous
 62
     5
100
AcDbLine
 10
-267.3447949928134
 20
833.5455581955542
 30
0.0
 11
-282.6002042487173
 21
833.5455581955542
 31
0.0
  0
LINE
  5
43C
330
24E4
100
AcDbEntity
  8
DETAIL
  6
Continuous
 62
     5
100
AcDbLine
 10
-267.3447949928134
 20
830.0443167269872
 30
0.0
 11
-282.6002042487173
 21
830.0443167269872
 31
0.0
  0
LINE
  5
43D
330
24E4
100
AcDbEntity
  8
DETAIL
  6
Continuous
 62
     5
100
AcDbLine
 10
-282.6002042487173
 20
833.5455581955542
 30
0.0
 11
-282.6002042487173
 21
830.0443167269872
 31
0.0
  0
LINE
  5
43E
330
24E4
100
AcDbEntity
  8
DETAIL
  6
Continuous
 62
     5
100
AcDbLine
 10
-267.3447949928134
 20
978.5969904648018
 30
0.0
 11
-282.6002042487173
 21
978.5969904648018
 31
0.0
  0
LINE
  5
43F
330
24E4
100
AcDbEntity
  8
DETAIL
  6
Continuous
 62
     5
100
AcDbLine
 10
-267.3447949928134
 20
975.095748996236
 30
0.0
 11
-282.6002042487173
 21
975.095748996236
 31
0.0
  0
LINE
  5
440
330
24E4
100
AcDbEntity
  8
DETAIL
  6
Continuous
 62
     5
100
AcDbLine
 10
-282.6002042487173
 20
978.5969904648018
 30
0.0
 11
-282.6002042487173
 21
975.095748996236
 31
0.0
  0
LINE
  5
441
330
24E4
100
AcDbEntity
  8
DETAIL
  6
Continuous
 62
     5
100
AcDbLine
 10
-267.3447949928134
 20
1120.147181265494
 30
0.0
 11
-282.6002042487173
 21
1120.147181265494
 31
0.0
  0
LINE
  5
442
330
24E4
100
AcDbEntity
  8
NOTE
  6
Continuous
 62
     4
100
AcDbLine
 10
-478.3803238722939
 20
1041.038173687598
 30
0.0
 11
-478.3803238722939
 21
1016.029306054968
 31
0.0
  0
LINE
  5
443
330
24E4
100
AcDbEntity
  8
NOTE
  6
Continuous
 62
     4
100
AcDbLine
 10
-428.466582624039
 20
1066.047041320227
 30
0.0
 11
-478.3803238722939
 21
1016.029306054968
 31
0.0
  0
LINE
  5
444
330
24E4
100
AcDbEntity
  8
NOTE
  6
Continuous
 62
     4
100
AcDbLine
 10
-519.0808554478137
 20
1041.038173687598
 30
0.0
 11
-519.0808554478137
 21
1091.055908952857
 31
0.0
  0
LINE
  5
445
330
24E4
100
AcDbEntity
  8
NOTE
  6
Continuous
 62
     4
100
AcDbLine
 10
-478.3803238722939
 20
1091.055908952857
 30
0.0
 11
-519.0808554478137
 21
1091.055908952857
 31
0.0
  0
LINE
  5
446
330
24E4
100
AcDbEntity
  8
NOTE
  6
Continuous
 62
     4
100
AcDbLine
 10
-478.3803238722939
 20
1041.038173687598
 30
0.0
 11
-519.0808554478137
 21
1041.038173687598
 31
0.0
  0
LINE
  5
447
330
24E4
100
AcDbEntity
  8
NOTE
  6
Continuous
 62
     4
100
AcDbLine
 10
-478.3803238722939
 20
1116.064776585487
 30
0.0
 11
-478.3803238722939
 21
1091.055908952857
 31
0.0
  0
LINE
  5
448
330
24E4
100
AcDbEntity
  8
NOTE
  6
Continuous
 62
     4
100
AcDbLine
 10
-478.3803238722939
 20
1116.064776585487
 30
0.0
 11
-428.466582624039
 21
1066.047041320227
 31
0.0
  0
LWPOLYLINE
  5
449
330
24E4
100
AcDbEntity
  8
DETAIL
  6
Continuous
 62
     5
100
AcDbPolyline
 90
        8
 70
     0
 43
0.0
 10
148.4023563901889
 20
1289.956146626999
 10
148.4183085088296
 20
1289.956445731624
 10
148.4342608026088
 20
1289.956689326047
 10
148.4502132423383
 20
1289.956886661968
 10
148.4661657988279
 20
1289.957046991086
 10
148.4821184428899
 20
1289.957179565102
 10
148.4980711453334
 20
1289.957293635718
 10
148.5140238769696
 20
1289.957398454633
  0
LWPOLYLINE
  5
453
330
24E4
100
AcDbEntity
  8
DETAIL
  6
Continuous
 62
     5
100
AcDbPolyline
 90
        8
 70
     0
 43
0.0
 10
148.290714806443
 20
1289.952393241754
 10
148.3066589980069
 20
1289.953091232158
 10
148.3226052368807
 20
1289.95373945752
 10
148.3385532159016
 20
1289.954335418363
 10
148.3545026279059
 20
1289.954876615209
 10
148.370453165731
 20
1289.955360548582
 10
148.3864045222133
 20
1289.955784719004
 10
148.4023563901889
 20
1289.956146626999
  0
LWPOLYLINE
  5
45D
330
24E4
100
AcDbEntity
  8
DETAIL
  6
Continuous
 62
     5
100
AcDbPolyline
 90
        8
 70
     0
 43
0.0
 10
148.1791652598783
 20
1289.946141445314
 10
148.1950951586556
 20
1289.947185340955
 10
148.2110268060503
 20
1289.948177824032
 10
148.2269603030388
 20
1289.94911958571
 10
148.2428957505961
 20
1289.950011317153
 10
148.2588332496996
 20
1289.950853709531
 10
148.2747729013224
 20
1289.95164745401
 10
148.290714806443
 20
1289.952393241754
  0
LWPOLYLINE
  5
467
330
24E4
100
AcDbEntity
  8
DETAIL
  6
Continuous
 62
     5
100
AcDbPolyline
 90
        8
 70
     0
 43
0.0
 10
148.0677738846732
 20
1289.937394384168
 10
148.0836656984882
 20
1289.938796112546
 10
148.0995666815713
 20
1289.940147658568
 10
148.1154755803188
 20
1289.941448702007
 10
148.1313911411259
 20
1289.94269892263
 10
148.1473121103916
 20
1289.943898000208
 10
148.16323723451
 20
1289.945045614513
 10
148.1791652598783
 20
1289.946141445314
  0
LWPOLYLINE
  5
471
330
24E4
100
AcDbEntity
  8
DETAIL
  6
Continuous
 62
     5
100
AcDbPolyline
 90
        8
 70
     0
 43
0.0
 10
147.956606814975
 20
1289.926155204757
 10
147.9725053917953
 20
1289.927917339442
 10
147.9883918520343
 20
1289.929626403732
 10
148.0042699522689
 20
1289.931282932339
 10
148.0201434490752
 20
1289.932887459976
 10
148.0360160990274
 20
1289.934440521352
 10
148.0518916587014
 20
1289.935942651179
 10
148.0677738846732
 20
1289.937394384168
  0
LWPOLYLINE
  5
47B
330
24E4
100
AcDbEntity
  8
DETAIL
  6
Continuous
 62
     5
100
AcDbPolyline
 90
        8
 70
     0
 43
0.0
 10
147.8451123057335
 20
1289.912344837304
 10
147.8610341368792
 20
1289.914472901134
 10
147.8769648219566
 20
1289.916549972684
 10
147.8929002397842
 20
1289.918575616483
 10
147.9088362691816
 20
1289.920549397062
 10
147.9247687889662
 20
1289.922470878948
 10
147.9406936779576
 20
1289.92433962667
 10
147.956606814975
 20
1289.926155204757
  0
LWPOLYLINE
  5
485
330
24E4
100
AcDbEntity
  8
DETAIL
  6
Continuous
 62
     5
100
AcDbPolyline
 90
        8
 70
     0
 43
0.0
 10
147.7339649547235
 20
1289.896027364045
 10
147.749816281266
 20
1289.898511222668
 10
147.7656750172843
 20
1289.900944007288
 10
147.7815420903851
 20
1289.903325804105
 10
147.7974184281745
 20
1289.905656699317
 10
147.8133049582582
 20
1289.907936779122
 10
147.8292026082424
 20
1289.910166129718
 10
147.8451123057335
 20
1289.912344837304
  0
LWPOLYLINE
  5
48F
330
24E4
100
AcDbEntity
  8
DETAIL
  6
Continuous
 62
     5
100
AcDbPolyline
 90
        8
 70
     0
 43
0.0
 10
147.6232182415421
 20
1289.877212407435
 10
147.6390129332328
 20
1289.880052729574
 10
147.6548172552825
 20
1289.882842357395
 10
147.6706306829426
 20
1289.885581213247
 10
147.6864526914649
 20
1289.888269219487
 10
147.7022827561011
 20
1289.890906298465
 10
147.7181203521038
 20
1289.893492372533
 10
147.7339649547235
 20
1289.896027364045
  0
LWPOLYLINE
  5
499
330
24E4
100
AcDbEntity
  8
DETAIL
  6
Continuous
 62
     5
100
AcDbPolyline
 90
        8
 70
     0
 43
0.0
 10
147.5129256458474
 20
1289.85590958993
 10
147.5286543321015
 20
1289.859105428461
 10
147.5443917581667
 20
1289.862250313919
 10
147.5601381599251
 20
1289.865344302371
 10
147.5758937732605
 20
1289.868387449882
 10
147.5916588340531
 20
1289.871379812519
 10
147.6074335781866
 20
1289.874321446348
 10
147.6232182415421
 20
1289.877212407435
  0
LWPOLYLINE
  5
4A3
330
24E4
100
AcDbEntity
  8
DETAIL
  6
Continuous
 62
     5
100
AcDbPolyline
 90
        8
 70
     0
 43
0.0
 10
147.4031406472511
 20
1289.832128533937
 10
147.4187811009894
 20
1289.835674760806
 10
147.4344381843645
 20
1289.839171868196
 10
147.4501105430934
 20
1289.842619541164
 10
147.46579682289
 20
1289.846017464765
 10
147.4814956694715
 20
1289.849365324056
 10
147.497205728552
 20
1289.852662804092
 10
147.5129256458474
 20
1289.85590958993
  0
LWPOLYLINE
  5
4AD
330
24E4
100
AcDbEntity
  8
DETAIL
  6
Continuous
 62
     5
100
AcDbPolyline
 90
        8
 70
     0
 43
0.0
 10
147.2941011611425
 20
1289.805926352626
 10
147.3096375319399
 20
1289.809818595352
 10
147.3251857698339
 20
1289.813660805683
 10
147.3407468942967
 20
1289.817453188264
 10
147.3563219247987
 20
1289.821195947736
 10
147.371911880811
 20
1289.824889288743
 10
147.3875177818052
 20
1289.828533415929
 10
147.4031406472511
 20
1289.832128533937
  0
LWPOLYLINE
  5
4B7
330
24E4
100
AcDbEntity
  8
DETAIL
  6
Continuous
 62
     5
100
AcDbPolyline
 90
        8
 70
     0
 43
0.0
 10
147.1856760430117
 20
1289.777279745283
 10
147.2011272188927
 20
1289.781521580426
 10
147.216591819553
 20
1289.785713754737
 10
147.2320694154656
 20
1289.789856172182
 10
147.2475595771071
 20
1289.793948736726
 10
147.2630618749505
 20
1289.797991352338
 10
147.2785758794705
 20
1289.801983922982
 10
147.2941011611425
 20
1289.805926352626
  0
LWPOLYLINE
  5
4C1
330
24E4
100
AcDbEntity
  8
DETAIL
  6
Continuous
 62
     5
100
AcDbPolyline
 90
        8
 70
     0
 43
0.0
 10
147.0779204791503
 20
1289.74620456409
 10
147.0932691007645
 20
1289.75079129862
 10
147.1086331770455
 20
1289.755329055181
 10
147.1240124412677
 20
1289.75981773597
 10
147.1394066267019
 20
1289.764257243179
 10
147.1548154666223
 20
1289.768647479005
 10
147.1702386943013
 20
1289.772988345641
 10
147.1856760430117
 20
1289.777279745283
  0
LWPOLYLINE
  5
4CB
330
24E4
100
AcDbEntity
  8
DETAIL
  6
Continuous
 62
     5
100
AcDbPolyline
 90
        8
 70
     0
 43
0.0
 10
146.9708896558466
 20
1289.712716661178
 10
146.9861395132518
 20
1289.71765001722
 10
147.0014019056023
 20
1289.722533233366
 10
147.0166773639746
 20
1289.727366519573
 10
147.031966419441
 20
1289.732150085792
 10
147.0472696030763
 20
1289.736884141982
 10
147.0625874459545
 20
1289.741568898097
 10
147.0779204791503
 20
1289.74620456409
  0
LWPOLYLINE
  5
4D5
330
24E4
100
AcDbEntity
  8
DETAIL
  6
Continuous
 62
     5
100
AcDbPolyline
 90
        8
 70
     0
 43
0.0
 10
146.8646387594069
 20
1289.676831888751
 10
146.879744749213
 20
1289.68209608329
 10
146.8948796804613
 20
1289.687316043859
 10
146.9100407302219
 20
1289.692490751143
 10
146.9252250755696
 20
1289.69761918583
 10
146.940429893574
 20
1289.702700328606
 10
146.9556523613089
 20
1289.70773316016
 10
146.9708896558466
 20
1289.712716661178
  0
LWPOLYLINE
  5
4DF
330
24E4
100
AcDbEntity
  8
DETAIL
  6
Continuous
 62
     5
100
AcDbPolyline
 90
        8
 70
     0
 43
0.0
 10
146.7596368485854
 20
1289.638722787964
 10
146.7745750503516
 20
1289.644307627278
 10
146.7895296833019
 20
1289.649844157434
 10
146.8045033029673
 20
1289.655333227516
 10
146.8194984648796
 20
1289.660775686606
 10
146.8345177245699
 20
1289.666172383786
 10
146.8495636375681
 20
1289.67152416814
 10
146.8646387594069
 20
1289.676831888751
  0
LWPOLYLINE
  5
4E9
330
24E4
100
AcDbEntity
  8
DETAIL
  6
Continuous
 62
     5
100
AcDbPolyline
 90
        8
 70
     0
 43
0.0
 10
146.6555148530475
 20
1289.5982729806
 10
146.6703355358347
 20
1289.604194563002
 10
146.6851757532192
 20
1289.610069034652
 10
146.7000345620433
 20
1289.615896054306
 10
146.7149110191501
 20
1289.621675280711
 10
146.7298041813817
 20
1289.627406372624
 10
146.7447131055785
 20
1289.63308898879
 10
146.7596368485854
 20
1289.638722787964
  0
LWPOLYLINE
  5
4F3
330
24E4
100
AcDbEntity
  8
DETAIL
  6
Continuous
 62
     5
100
AcDbPolyline
 90
        8
 70
     0
 43
0.0
 10
146.5523241548677
 20
1289.55550401715
 10
146.56700838766
 20
1289.561755983746
 10
146.5817111884787
 20
1289.567960347222
 10
146.5964328756106
 20
1289.574117246516
 10
146.6111737673461
 20
1289.580226820565
 10
146.6259341819711
 20
1289.586289208305
 10
146.6407144377761
 20
1289.592304548671
 10
146.6555148530475
 20
1289.5982729806
  0
LWPOLYLINE
  5
4FD
330
24E4
100
AcDbEntity
  8
DETAIL
  6
Continuous
 62
     5
100
AcDbPolyline
 90
        8
 70
     0
 43
0.0
 10
146.4501161360847
 20
1289.51043744812
 10
146.4646465579305
 20
1289.517011066424
 10
146.4792026023513
 20
1289.523540491512
 10
146.4937830405404
 20
1289.53002513191
 10
146.5083866436933
 20
1289.536464396146
 10
146.5230121830025
 20
1289.542857692746
 10
146.5376584296625
 20
1289.54920443024
 10
146.5523241548677
 20
1289.55550401715
  0
LWPOLYLINE
  5
507
330
24E4
100
AcDbEntity
  8
DETAIL
  6
Continuous
 62
     5
100
AcDbPolyline
 90
        8
 70
     0
 43
0.0
 10
146.3489421787551
 20
1289.463094823998
 10
146.3633631227028
 20
1289.470012910978
 10
146.3777887292861
 20
1289.476876296338
 10
146.3922226966285
 20
1289.483686830056
 10
146.4066687228549
 20
1289.490446362114
 10
146.4211305060895
 20
1289.49715674249
 10
146.4356117444582
 20
1289.503819821165
 10
146.4501161360847
 20
1289.51043744812
  0
LWPOLYLINE
  5
511
330
24E4
100
AcDbEntity
  8
DETAIL
  6
Continuous
 62
     5
100
AcDbPolyline
 90
        8
 70
     0
 43
0.0
 10
146.2482571471352
 20
1289.413194850978
 10
146.262585468309
 20
1289.420468531251
 10
146.2769389207185
 20
1289.427696987047
 10
146.2913134765783
 20
1289.434878330512
 10
146.3057051081002
 20
1289.442010673793
 10
146.3201097874951
 20
1289.449092129036
 10
146.3345234869764
 20
1289.456120808389
 10
146.3489421787551
 20
1289.463094823998
  0
LWPOLYLINE
  5
51B
330
24E4
100
AcDbEntity
  8
DETAIL
  6
Continuous
 62
     5
100
AcDbPolyline
 90
        8
 70
     0
 43
0.0
 10
146.1487204460151
 20
1289.361041025408
 10
146.1628639148946
 20
1289.368626683803
 10
146.1770312733113
 20
1289.376166650797
 10
146.1912233995151
 20
1289.383661318855
 10
146.2054411717515
 20
1289.391111080436
 10
146.2196854682685
 20
1289.398516328011
 10
146.2339571673144
 20
1289.405877454036
 10
146.2482571471352
 20
1289.413194850978
  0
LWPOLYLINE
  5
525
330
24E4
100
AcDbEntity
  8
DETAIL
  6
Continuous
 62
     5
100
AcDbPolyline
 90
        8
 70
     0
 43
0.0
 10
146.0503819209286
 20
1289.306661086874
 10
146.06435660501
 20
1289.314565726985
 10
146.0783564432011
 20
1289.322425286676
 10
146.092381078364
 20
1289.330239598706
 10
146.1064301533631
 20
1289.338008495835
 10
146.1205033110625
 20
1289.345731810822
 10
146.1346001943254
 20
1289.353409376427
 10
146.1487204460151
 20
1289.361041025408
  0
LWPOLYLINE
  5
52F
330
24E4
100
AcDbEntity
  8
DETAIL
  6
Continuous
 62
     5
100
AcDbPolyline
 90
        8
 70
     0
 43
0.0
 10
145.9532914173785
 20
1289.250082775024
 10
145.9670807743257
 20
1289.258297416901
 10
145.980897572326
 20
1289.266468398046
 10
145.9947414897458
 20
1289.274595509722
 10
146.0086122049504
 20
1289.282678543182
 10
146.0225093963061
 20
1289.29071728969
 10
146.0364327421764
 20
1289.298711540501
 10
146.0503819209286
 20
1289.306661086874
  0
LWPOLYLINE
  5
539
330
24E4
100
AcDbEntity
  8
DETAIL
  6
Continuous
 62
     5
100
AcDbPolyline
 90
        8
 70
     0
 43
0.0
 10
145.8574987808704
 20
1289.191333829472
 10
145.8711101878112
 20
1289.199863612499
 10
145.884744726987
 20
1289.208346841743
 10
145.8984031701409
 20
1289.21678403417
 10
145.9120862890138
 20
1289.225175706745
 10
145.9257948553501
 20
1289.233522376436
 10
145.9395296408909
 20
1289.241824560206
 10
145.9532914173785
 20
1289.250082775024
  0
LWPOLYLINE
  5
543
330
24E4
100
AcDbEntity
  8
DETAIL
  6
Continuous
 62
     5
100
AcDbPolyline
 90
        8
 70
     0
 43
0.0
 10
145.76290842306
 20
1289.130347187081
 10
145.7763400377905
 20
1289.13919185875
 10
145.7898005724207
 20
1289.1479935757
 10
145.8032889337153
 20
1289.156751651924
 10
145.8168040284415
 20
1289.165465401418
 10
145.8303447633659
 20
1289.174134138177
 10
145.8439100452531
 20
1289.182757176197
 10
145.8574987808704
 20
1289.191333829472
  0
LWPOLYLINE
  5
54D
330
24E4
100
AcDbEntity
  8
DETAIL
  6
Continuous
 62
     5
100
AcDbPolyline
 90
        8
 70
     0
 43
0.0
 10
145.6697164396644
 20
1289.067244357069
 10
145.682941763095
 20
1289.076387173067
 10
145.6961960739597
 20
1289.085487111186
 10
145.7094795432083
 20
1289.094544272955
 10
145.722792341792
 20
1289.103558759902
 10
145.7361346406612
 20
1289.112530673552
 10
145.7495066107674
 20
1289.121460115436
 10
145.76290842306
 20
1289.130347187081
  0
LWPOLYLINE
  5
557
330
24E4
100
AcDbEntity
  8
DETAIL
  6
Continuous
 62
     5
100
AcDbPolyline
 90
        8
 70
     0
 43
0.0
 10
145.5779693252286
 20
1289.002058672053
 10
145.5909843559527
 20
1289.011495909645
 10
145.6040306264481
 20
1289.020891986911
 10
145.6171077328351
 20
1289.030246600671
 10
145.6302152712312
 20
1289.039559447746
 10
145.6433528377554
 20
1289.048830224957
 10
145.6565200285265
 20
1289.058058629125
 10
145.6697164396644
 20
1289.067244357069
  0
LWPOLYLINE
  5
561
330
24E4
100
AcDbEntity
  8
DETAIL
  6
Continuous
 62
     5
100
AcDbPolyline
 90
        8
 70
     0
 43
0.0
 10
145.487713574347
 20
1288.934823464591
 10
145.5005205284531
 20
1288.944557931145
 10
145.5133553386583
 20
1288.954248371869
 10
145.5262186362222
 20
1288.96389531488
 10
145.5391110524011
 20
1288.973499288288
 10
145.5520332184567
 20
1288.983060820211
 10
145.5649857656469
 20
1288.99258043876
 10
145.5779693252286
 20
1289.002058672053
  0
LWPOLYLINE
  5
56B
330
24E4
100
AcDbEntity
  8
DETAIL
  6
Continuous
 62
     5
100
AcDbPolyline
 90
        8
 70
     0
 43
0.0
 10
145.3989956815228
 20
1288.865572067258
 10
145.4115498435491
 20
1288.875567685243
 10
145.4241488372515
 20
1288.885533103412
 10
145.4367897281579
 20
1288.895465929409
 10
145.4494695817937
 20
1288.905363770879
 10
145.4621854636859
 20
1288.915224235469
 10
145.474934439361
 20
1288.925044930825
 10
145.487713574347
 20
1288.934823464591
  0
LWPOLYLINE
  5
575
330
24E4
100
AcDbEntity
  8
DETAIL
  6
Continuous
 62
     5
100
AcDbPolyline
 90
        8
 70
     0
 43
0.0
 10
145.3122943716605
 20
1288.79470072086
 10
145.3245724963023
 20
1288.804936051031
 10
145.3368819924705
 20
1288.815130913866
 10
145.3492255926046
 20
1288.825287419343
 10
145.3616060291385
 20
1288.835407677442
 10
145.3740260345128
 20
1288.845493798141
 10
145.3864883411613
 20
1288.85554789142
 10
145.3989956815228
 20
1288.865572067258
  0
LWPOLYLINE
  5
57F
330
24E4
100
AcDbEntity
  8
DETAIL
  6
Continuous
 62
     5
100
AcDbPolyline
 90
        8
 70
     0
 43
0.0
 10
145.2272033009528
 20
1288.721904034672
 10
145.2392617170669
 20
1288.732422122392
 10
145.2513540955904
 20
1288.742901865487
 10
145.2634795493038
 20
1288.753342558505
 10
145.2756371909879
 20
1288.763743495999
 10
145.2878261334224
 20
1288.774103972521
 10
145.3000454893861
 20
1288.784423282624
 10
145.3122943716605
 20
1288.79470072086
  0
LWPOLYLINE
  5
589
330
24E4
100
AcDbEntity
  8
DETAIL
  6
Continuous
 62
     5
100
AcDbPolyline
 90
        8
 70
     0
 43
0.0
 10
145.1437642057151
 20
1288.647219689653
 10
145.1555806502472
 20
1288.658002484033
 10
145.1674314262534
 20
1288.668747323219
 10
145.1793166200929
 20
1288.679454259883
 10
145.1912363181252
 20
1288.690123346691
 10
145.2031906067066
 20
1288.700754636312
 10
145.2151795721963
 20
1288.711348181417
 10
145.2272033009528
 20
1288.721904034672
  0
LWPOLYLINE
  5
593
330
24E4
100
AcDbEntity
  8
DETAIL
  6
Continuous
 62
     5
100
AcDbPolyline
 90
        8
 70
     0
 43
0.0
 10
145.0620188223281
 20
1288.570685366812
 10
145.0735915510165
 20
1288.581730728268
 10
145.0851996546105
 20
1288.592739068088
 10
145.096842944811
 20
1288.6037102219
 10
145.1085212333198
 20
1288.614644025332
 10
145.1202343318398
 20
1288.625540314016
 10
145.1319820520709
 20
1288.63639892358
 10
145.1437642057151
 20
1288.647219689653
  0
LWPOLYLINE
  5
59D
330
24E4
100
AcDbEntity
  8
DETAIL
  6
Continuous
 62
     5
100
AcDbPolyline
 90
        8
 70
     0
 43
0.0
 10
144.9820088871072
 20
1288.492338747153
 10
144.9933313660356
 20
1288.503640986917
 10
145.0046897876489
 20
1288.514906695386
 10
145.0160840886981
 20
1288.526135818234
 10
145.0275142059379
 20
1288.537328301128
 10
145.0389800761211
 20
1288.548484089743
 10
145.0504816360005
 20
1288.559603129747
 10
145.0620188223281
 20
1288.570685366812
  0
LWPOLYLINE
  5
5A7
330
24E4
100
AcDbEntity
  8
DETAIL
  6
Continuous
 62
     5
100
AcDbPolyline
 90
        8
 70
     0
 43
0.0
 10
144.9037681258065
 20
1288.41221063586
 10
144.9148354269334
 20
1288.423764896454
 10
144.9259396260047
 20
1288.435283623164
 10
144.9370805743517
 20
1288.446766658812
 10
144.9482581233058
 20
1288.458213846215
 10
144.9594721241953
 20
1288.469625028193
 10
144.9707224283526
 20
1288.481000047565
 10
144.9820088871072
 20
1288.492338747153
  0
LWPOLYLINE
  5
5B1
330
24E4
100
AcDbEntity
  8
DETAIL
  6
Continuous
 62
     5
100
AcDbPolyline
 90
        8
 70
     0
 43
0.0
 10
144.827342135223
 20
1288.330349645668
 10
144.8381471780737
 20
1288.342148027809
 10
144.8489901056752
 20
1288.353912037157
 10
144.8598707783381
 20
1288.365641506392
 10
144.8707890563735
 20
1288.377336268196
 10
144.8817448000897
 20
1288.388996155253
 10
144.8927378697979
 20
1288.400621000248
 10
144.9037681258065
 20
1288.41221063586
  0
LWPOLYLINE
  5
5BB
330
24E4
100
AcDbEntity
  8
DETAIL
  6
Continuous
 62
     5
100
AcDbPolyline
 90
        8
 70
     0
 43
0.0
 10
144.7527681677482
 20
1288.246797846837
 10
144.7633082435129
 20
1288.258837611422
 10
144.7738860090283
 20
1288.27084262735
 10
144.7845015200753
 20
1288.28281298515
 10
144.795154832437
 20
1288.294748775351
 10
144.8058460018944
 20
1288.306650088484
 10
144.8165750842286
 20
1288.31851701508
 10
144.827342135223
 20
1288.330349645668
  0
LWPOLYLINE
  5
5C5
330
24E4
100
AcDbEntity
  8
DETAIL
  6
Continuous
 62
     5
100
AcDbPolyline
 90
        8
 70
     0
 43
0.0
 10
144.6800834758056
 20
1288.161597309579
 10
144.6903445452478
 20
1288.173861233017
 10
144.700647659153
 20
1288.186095901628
 10
144.7109920824401
 20
1288.198300384686
 10
144.7213770800251
 20
1288.210473751462
 10
144.7318019168267
 20
1288.222615071232
 10
144.7422658577623
 20
1288.234723413266
 10
144.7527681677482
 20
1288.246797846837
  0
LWPOLYLINE
  5
5CF
330
24E4
100
AcDbEntity
  8
DETAIL
  6
Continuous
 62
     5
100
AcDbPolyline
 90
        8
 70
     0
 43
0.0
 10
144.6093253117749
 20
1288.074790104165
 10
144.6193343100201
 20
1288.087313759748
 10
144.6293726903947
 20
1288.099791712489
 10
144.6394426858003
 20
1288.112226858846
 10
144.6495465291407
 20
1288.124622095276
 10
144.6596864533201
 20
1288.136980318237
 10
144.6698646912407
 20
1288.149304424185
 10
144.6800834758056
 20
1288.161597309579
  0
LWPOLYLINE
  5
5D9
330
24E4
100
AcDbEntity
  8
DETAIL
  6
Continuous
 62
     5
100
AcDbPolyline
 90
        8
 70
     0
 43
0.0
 10
144.5401689740263
 20
1287.985944120843
 10
144.5499342871569
 20
1287.99874194978
 10
144.5597418492114
 20
1288.011509757399
 10
144.5695891435723
 20
1288.024244447368
 10
144.5794736536242
 20
1288.03694292336
 10
144.5893928627536
 20
1288.049602089043
 10
144.599344254342
 20
1288.062218848088
 10
144.6093253117749
 20
1288.074790104165
  0
LWPOLYLINE
  5
5E3
330
24E4
100
AcDbEntity
  8
DETAIL
  6
Continuous
 62
     5
100
AcDbPolyline
 90
        8
 70
     0
 43
0.0
 10
144.4730302464038
 20
1287.895563548419
 10
144.4824944814752
 20
1287.908564533757
 10
144.4920001198313
 20
1287.921534578709
 10
144.5015477218482
 20
1287.934474352508
 10
144.5111378479012
 20
1287.947384524388
 10
144.5207710583652
 20
1287.960265763582
 10
144.5304479136155
 20
1287.973118739323
 10
144.5401689740263
 20
1287.985944120843
  0
LWPOLYLINE
  5
5ED
330
24E4
100
AcDbEntity
  8
DETAIL
  6
Continuous
 62
     5
100
AcDbPolyline
 90
        8
 70
     0
 43
0.0
 10
144.4079419820216
 20
1287.803695108308
 10
144.4171138822419
 20
1287.81690882753
 10
144.4263284228489
 20
1287.830093324444
 10
144.4355853042632
 20
1287.843248201164
 10
144.4448842269055
 20
1287.856373059806
 10
144.4542248911964
 20
1287.869467502486
 10
144.4636069975556
 20
1287.882531131319
 10
144.4730302464038
 20
1287.895563548419
  0
LWPOLYLINE
  5
5F7
330
24E4
100
AcDbEntity
  8
DETAIL
  6
Continuous
 62
     5
100
AcDbPolyline
 90
        8
 70
     0
 43
0.0
 10
144.3449370340702
 20
1287.710385521965
 10
144.3538097433018
 20
1287.72380330141
 10
144.3627250129855
 20
1287.737191626307
 10
144.3716829063739
 20
1287.750550601678
 10
144.380683486718
 20
1287.763880332543
 10
144.389726817273
 20
1287.777180923923
 10
144.3988129612896
 20
1287.790452480838
 10
144.4079419820216
 20
1287.803695108308
  0
LWPOLYLINE
  5
601
330
24E4
100
AcDbEntity
  8
DETAIL
  6
Continuous
 62
     5
100
AcDbPolyline
 90
        8
 70
     0
 43
0.0
 10
144.2840482557383
 20
1287.61568151083
 10
144.2926122954657
 20
1287.629288420719
 10
144.3012220011221
 20
1287.642870807929
 10
144.3098768445859
 20
1287.656427832981
 10
144.3185762977343
 20
1287.669958656392
 10
144.3273198324457
 20
1287.683462438679
 10
144.3361069205982
 20
1287.696938340364
 10
144.3449370340702
 20
1287.710385521965
  0
LWPOLYLINE
  5
60B
330
24E4
100
AcDbEntity
  8
DETAIL
  6
Continuous
 62
     5
100
AcDbPolyline
 90
        8
 70
     0
 43
0.0
 10
144.2253724994405
 20
1287.519739242216
 10
144.2336207834849
 20
1287.533523104698
 10
144.2419131314434
 20
1287.547280157282
 10
144.2502498983392
 20
1287.561010921084
 10
144.2586314391935
 20
1287.574715917223
 10
144.2670581090303
 20
1287.588395666815
 10
144.2755302628709
 20
1287.602050690978
 10
144.2840482557383
 20
1287.61568151083
  0
LWPOLYLINE
  5
615
330
24E4
100
AcDbEntity
  8
DETAIL
  6
Continuous
 62
     5
100
AcDbPolyline
 90
        8
 70
     0
 43
0.0
 10
144.1688682058618
 20
1287.422502273218
 10
144.1768069763363
 20
1287.436471912426
 10
144.184790445606
 20
1287.450415766501
 10
144.1928184486856
 20
1287.464333577794
 10
144.2008908205932
 20
1287.478225088659
 10
144.2090073963443
 20
1287.492090041449
 10
144.2171680109546
 20
1287.505928178517
 10
144.2253724994405
 20
1287.519739242216
  0
LWPOLYLINE
  5
61F
330
24E4
100
AcDbEntity
  8
DETAIL
  6
Continuous
 62
     5
100
AcDbPolyline
 90
        8
 70
     0
 43
0.0
 10
144.1145626511004
 20
1287.324020573887
 10
144.1221837573
 20
1287.338161230194
 10
144.1298507605986
 20
1287.352278546866
 10
144.1375634887769
 20
1287.366372159259
 10
144.1453217696132
 20
1287.380441702733
 10
144.1531254308863
 20
1287.394486812644
 10
144.1609743003762
 20
1287.408507124354
 10
144.1688682058618
 20
1287.422502273218
  0
LWPOLYLINE
  5
629
330
24E4
100
AcDbEntity
  8
DETAIL
  6
Continuous
 62
     5
100
AcDbPolyline
 90
        8
 70
     0
 43
0.0
 10
144.0624831112243
 20
1287.224344114354
 10
144.0697897350362
 20
1287.238663480883
 10
144.0771401677828
 20
1287.252954819807
 10
144.0845347861939
 20
1287.267218973227
 10
144.0919739669995
 20
1287.281456783243
 10
144.0994580869326
 20
1287.295669091958
 10
144.1069875227229
 20
1287.309856741472
 10
144.1145626511004
 20
1287.324020573887
  0
LWPOLYLINE
  5
633
330
24E4
100
AcDbEntity
  8
DETAIL
  6
Continuous
 62
     5
100
AcDbPolyline
 90
        8
 70
     0
 43
0.0
 10
144.0126568623407
 20
1287.123522864673
 10
144.0196210474403
 20
1287.137962097048
 10
144.0266395357482
 20
1287.152395726983
 10
144.0337105154301
 20
1287.166819876603
 10
144.0408321746524
 20
1287.181230668027
 10
144.0480027015817
 20
1287.19562422338
 10
144.0552202843835
 20
1287.209996664781
 10
144.0624831112243
 20
1287.224344114354
  0
LWPOLYLINE
  5
63D
330
24E4
100
AcDbEntity
  8
DETAIL
  6
Continuous
 62
     5
100
AcDbPolyline
 90
        8
 70
     0
 43
0.0
 10
143.9653753880435
 20
1287.022192552864
 10
143.9719845722272
 20
1287.036719619824
 10
143.9786392408456
 20
1287.051223669402
 10
143.9853411656675
 20
1287.0657082504
 10
143.99209211846
 20
1287.080176911624
 10
143.998893870991
 20
1287.094633201874
 10
144.0057481950286
 20
1287.109080669956
 10
144.0126568623407
 20
1287.123522864673
  0
LWPOLYLINE
  5
647
330
24E4
100
AcDbEntity
  8
DETAIL
  6
Continuous
 62
     5
100
AcDbPolyline
 90
        8
 70
     0
 43
0.0
 10
143.9203696300708
 20
1286.919831287294
 10
143.9266604932097
 20
1286.934518579303
 10
143.9329984811036
 20
1286.949186433351
 10
143.9393830250699
 20
1286.963833661402
 10
143.945813556428
 20
1286.978459075416
 10
143.9522895064972
 20
1286.993061487356
 10
143.9588103065959
 20
1287.007639709184
 10
143.9653753880435
 20
1287.022192552864
  0
LWPOLYLINE
  5
651
330
24E4
100
AcDbEntity
  8
DETAIL
  6
Continuous
 62
     5
100
AcDbPolyline
 90
        8
 70
     0
 43
0.0
 10
143.8776607262286
 20
1286.81649045811
 10
143.8836206494931
 20
1286.831312140623
 10
143.8896274669966
 20
1286.846113746837
 10
143.8956813119364
 20
1286.860895581149
 10
143.9017823175143
 20
1286.875657947953
 10
143.9079306169294
 20
1286.890401151649
 10
143.914126343381
 20
1286.90512549663
 10
143.9203696300708
 20
1286.919831287294
  0
LWPOLYLINE
  5
65B
330
24E4
100
AcDbEntity
  8
DETAIL
  6
Continuous
 62
     5
100
AcDbPolyline
 90
        8
 70
     0
 43
0.0
 10
143.8372698143237
 20
1286.712221455429
 10
143.842895321113
 20
1286.72716609884
 10
143.8485695921879
 20
1286.742095932548
 10
143.8542922936738
 20
1286.757010028056
 10
143.8600630916941
 20
1286.771907456866
 10
143.8658816523773
 20
1286.786787290476
 10
143.8717476418467
 20
1286.801648600391
 10
143.8776607262286
 20
1286.81649045811
  0
LWPOLYLINE
  5
665
330
24E4
100
AcDbEntity
  8
DETAIL
  6
Continuous
 62
     5
100
AcDbPolyline
 90
        8
 70
     0
 43
0.0
 10
143.7992180321341
 20
1286.607075669355
 10
143.8045175295708
 20
1286.622170777929
 10
143.8098611299208
 20
1286.637236941431
 10
143.8152496657265
 20
1286.652276670505
 10
143.8206839695283
 20
1286.667292475796
 10
143.8261648738678
 20
1286.68228686795
 10
143.8316932112855
 20
1286.697262357613
 10
143.8372698143237
 20
1286.712221455429
  0
LWPOLYLINE
  5
66F
330
24E4
100
AcDbEntity
  8
DETAIL
  6
Continuous
 62
     5
100
AcDbPolyline
 90
        8
 70
     0
 43
0.0
 10
143.7633912280741
 20
1286.500690899633
 10
143.7683665387337
 20
1286.515946974227
 10
143.7733911165758
 20
1286.531188262398
 10
143.7784639621329
 20
1286.546411985932
 10
143.7835840759351
 20
1286.561615366611
 10
143.7887504585148
 20
1286.576795626218
 10
143.7939621104039
 20
1286.591949986538
 10
143.7992180321341
 20
1286.607075669355
  0
LWPOLYLINE
  5
679
330
24E4
100
AcDbEntity
  8
DETAIL
  6
Continuous
 62
     5
100
AcDbPolyline
 90
        8
 70
     0
 43
0.0
 10
143.7299586102187
 20
1286.393529335157
 10
143.7345865690565
 20
1286.408880879353
 10
143.739263561996
 20
1286.424217311658
 10
143.7439897944603
 20
1286.439539149352
 10
143.748765471875
 20
1286.454846909716
 10
143.753590799666
 20
1286.470141110031
 10
143.7584659832571
 20
1286.485422267576
 10
143.7633912280741
 20
1286.500690899633
  0
LWPOLYLINE
  5
683
330
24E4
100
AcDbEntity
  8
DETAIL
  6
Continuous
 62
     5
100
AcDbPolyline
 90
        8
 70
     0
 43
0.0
 10
143.6989356841247
 20
1286.285646013584
 10
143.7032198296017
 20
1286.301101506554
 10
143.7075533645609
 20
1286.316542892333
 10
143.7119361955345
 20
1286.331969917259
 10
143.7163682290554
 20
1286.347382327667
 10
143.720849371655
 20
1286.362779869895
 10
143.7253795298654
 20
1286.37816229028
 10
143.7299586102187
 20
1286.393529335157
  0
LWPOLYLINE
  5
68D
330
24E4
100
AcDbEntity
  8
DETAIL
  6
Continuous
 62
     5
100
AcDbPolyline
 90
        8
 70
     0
 43
0.0
 10
143.670337955367
 20
1286.177095972544
 10
143.6742735601017
 20
1286.192638631868
 10
143.6782592645111
 20
1286.208170229962
 10
143.6822949658078
 20
1286.223690301442
 10
143.6863805612054
 20
1286.239198380927
 10
143.6905159479154
 20
1286.254694003034
 10
143.6947010231513
 20
1286.27017670238
 10
143.6989356841247
 20
1286.285646013584
  0
LWPOLYLINE
  5
697
330
24E4
100
AcDbEntity
  8
DETAIL
  6
Continuous
 62
     5
100
AcDbPolyline
 90
        8
 70
     0
 43
0.0
 10
143.6441809295225
 20
1286.06793424966
 10
143.6477700741004
 20
1286.083575550711
 10
143.6514080208378
 20
1286.0991993413
 10
143.6550950031194
 20
1286.11480677386
 10
143.6588312543288
 20
1286.130399000828
 10
143.6626170078505
 20
1286.145977174642
 10
143.6664524970689
 20
1286.161542447735
 10
143.670337955367
 20
1286.177095972544
  0
LWPOLYLINE
  5
6A1
330
24E4
100
AcDbEntity
  8
DETAIL
  6
Continuous
 62
     5
100
AcDbPolyline
 90
        8
 70
     0
 43
0.0
 10
143.6204368527856
 20
1285.958008811609
 10
143.6236786690594
 20
1285.973749130804
 10
143.6269711256598
 20
1285.989479696412
 10
143.6303138773289
 20
1286.005199023547
 10
143.6337065788073
 20
1286.020905627325
 10
143.6371488848379
 20
1286.03659802286
 10
143.6406404501629
 20
1286.052274725267
 10
143.6441809295225
 20
1286.06793424966
  0
LWPOLYLINE
  5
6AB
330
24E4
100
AcDbEntity
  8
DETAIL
  6
Continuous
 62
     5
100
AcDbPolyline
 90
        8
 70
     0
 43
0.0
 10
143.5991676292785
 20
1285.847577911994
 10
143.6020539751432
 20
1285.863382065046
 10
143.6049909179225
 20
1285.879176332098
 10
143.6079785223953
 20
1285.8949609827
 10
143.6110168533403
 20
1285.910736286402
 10
143.6141059755343
 20
1285.926502512754
 10
143.6172459537563
 20
1285.942259931306
 10
143.6204368527856
 20
1285.958008811609
  0
LWPOLYLINE
  5
6B5
330
24E4
100
AcDbEntity
  8
DETAIL
  6
Continuous
 62
     5
100
AcDbPolyline
 90
        8
 70
     0
 43
0.0
 10
143.5803826612989
 20
1285.736694828058
 10
143.5829136134987
 20
1285.752558906663
 10
143.5854955677948
 20
1285.768415981383
 10
143.5881284458617
 20
1285.784265526941
 10
143.5908121693699
 20
1285.800107018058
 10
143.5935466599946
 20
1285.815939929458
 10
143.5963318394056
 20
1285.831763735863
 10
143.5991676292785
 20
1285.847577911994
  0
LWPOLYLINE
  5
6BF
330
24E4
100
AcDbEntity
  8
DETAIL
  6
Continuous
 62
     5
100
AcDbPolyline
 90
        8
 70
     0
 43
0.0
 10
143.5640913511331
 20
1285.625412837024
 10
143.5662665326333
 20
1285.64134139489
 10
143.5684922902135
 20
1285.65725807657
 10
143.5707687079291
 20
1285.673163781661
 10
143.5730958698375
 20
1285.689059409757
 10
143.5754738599978
 20
1285.704945860458
 10
143.5779027624655
 20
1285.720824033361
 10
143.5803826612989
 20
1285.736694828058
  0
LWPOLYLINE
  5
6C9
330
24E4
100
AcDbEntity
  8
DETAIL
  6
Continuous
 62
     5
100
AcDbPolyline
 90
        8
 70
     0
 43
0.0
 10
143.5503031010173
 20
1285.51378521616
 10
143.5521158841063
 20
1285.529718280578
 10
143.5539816934595
 20
1285.545662599632
 10
143.5559001067038
 20
1285.561614168253
 10
143.5578707014672
 20
1285.577568981372
 10
143.5598930553749
 20
1285.59352303392
 10
143.5619667460548
 20
1285.609472320827
 10
143.5640913511331
 20
1285.625412837024
  0
LWPOLYLINE
  5
6D3
330
24E4
100
AcDbEntity
  8
DETAIL
  6
Continuous
 62
     5
100
AcDbPolyline
 90
        8
 70
     0
 43
0.0
 10
143.5390800183402
 20
1285.402468176357
 10
143.5405297171062
 20
1285.418372174559
 10
143.5420297504377
 20
1285.434269581822
 10
143.5435806373478
 20
1285.450164039919
 10
143.5451828968487
 20
1285.46605919063
 10
143.5468370479527
 20
1285.481958675723
 10
143.5485436096712
 20
1285.497866136975
 10
143.5503031010173
 20
1285.51378521616
  0
LWPOLYLINE
  5
6DD
330
24E4
100
AcDbEntity
  8
DETAIL
  6
Continuous
 62
     5
100
AcDbPolyline
 90
        8
 70
     0
 43
0.0
 10
143.5303456044655
 20
1285.290927768922
 10
143.5314398296365
 20
1285.306876927357
 10
143.5325857633977
 20
1285.322823183982
 10
143.5337830902424
 20
1285.338765316978
 10
143.5350314946651
 20
1285.354702104532
 10
143.5363306611605
 20
1285.370632324823
 10
143.5376802742199
 20
1285.386554756037
 10
143.5390800183402
 20
1285.402468176357
  0
LWPOLYLINE
  5
6E7
330
24E4
100
AcDbEntity
  8
DETAIL
  6
Continuous
 62
     5
100
AcDbPolyline
 90
        8
 70
     0
 43
0.0
 10
143.5241029325422
 20
1285.179229852572
 10
143.5248476308059
 20
1285.195192952548
 10
143.5256402176535
 20
1285.211153811853
 10
143.5264813823385
 20
1285.227112523933
 10
143.5273718141103
 20
1285.243069182233
 10
143.5283122022217
 20
1285.259023880201
 10
143.5293032359229
 20
1285.274976711282
 10
143.5303456044655
 20
1285.290927768922
  0
LWPOLYLINE
  5
6F1
330
24E4
100
AcDbEntity
  8
DETAIL
  6
Continuous
 62
     5
100
AcDbPolyline
 90
        8
 70
     0
 43
0.0
 10
143.5203550757301
 20
1285.067440286064
 10
143.5207164474994
 20
1285.083413274277
 10
143.5211399901461
 20
1285.099385752471
 10
143.5216232084127
 20
1285.115357416629
 10
143.5221636070435
 20
1285.131327962733
 10
143.5227586907801
 20
1285.14729708677
 10
143.523405964366
 20
1285.163264484722
 10
143.5241029325422
 20
1285.179229852572
  0
LWPOLYLINE
  5
6FB
330
24E4
100
AcDbEntity
  8
DETAIL
  6
Continuous
 62
     5
100
AcDbPolyline
 90
        8
 70
     0
 43
0.0
 10
143.5191051072058
 20
1284.955624928106
 10
143.5192097699853
 20
1284.971598786103
 10
143.5193236707844
 20
1284.987572614672
 10
143.5194560476209
 20
1285.003546384383
 10
143.5196161385145
 20
1285.019520065805
 10
143.5198131814848
 20
1285.035493629514
 10
143.5200564145505
 20
1285.051467046076
 10
143.5203550757301
 20
1285.067440286064
  0
LINE
  5
705
330
24E4
100
AcDbEntity
  8
DETAIL
  6
Continuous
 62
     5
100
AcDbLine
 10
361.1280486151733
 20
1549.964486597146
 30
0.0
 11
-361.1280486151764
 21
1549.964486597146
 31
0.0
  0
LINE
  5
707
330
24E4
100
AcDbEntity
  8
DETAIL
  6
Continuous
 62
     5
100
AcDbLine
 10
326.4778337867207
 20
1649.999957127666
 30
0.0
 11
-326.4778337867241
 21
1649.999957127666
 31
0.0
  0
LINE
  5
70C
330
24E4
100
AcDbEntity
  8
DETAIL
  6
Continuous
 62
     5
100
AcDbLine
 10
379.4999999999997
 20
1369.985768915468
 30
0.0
 11
-379.5000000000011
 21
1369.985768915468
 31
0.0
  0
LINE
  5
70D
330
24E4
100
AcDbEntity
  8
DETAIL
  6
Continuous
 62
     5
100
AcDbLine
 10
379.4999999999997
 20
1409.999957127665
 30
0.0
 11
-379.5000000000011
 21
1409.999957127665
 31
0.0
  0
LINE
  5
70E
330
24E4
100
AcDbEntity
  8
DETAIL
  6
Continuous
 62
     5
100
AcDbLine
 10
366.9502987802068
 20
1416.697960674072
 30
0.0
 11
361.1280486151733
 21
1549.964486597146
 31
0.0
  0
LINE
  5
70F
330
24E4
100
AcDbEntity
  8
DETAIL
  6
Continuous
 62
     5
100
AcDbLine
 10
379.4999999999997
 20
1409.999957127665
 30
0.0
 11
379.4999999999997
 21
1369.985768915468
 31
0.0
  0
LINE
  5
710
330
24E4
100
AcDbEntity
  8
DETAIL
  6
Continuous
 62
     5
100
AcDbLine
 10
373.1740055792723
 20
1410.042672273589
 30
0.0
 11
373.9461650855108
 21
1409.999957127665
 31
0.0
  0
LINE
  5
711
330
24E4
100
AcDbEntity
  8
DETAIL
  6
Continuous
 62
     5
100
AcDbLine
 10
372.4105491589577
 20
1410.17041756946
 30
0.0
 11
373.1740055792723
 21
1410.042672273589
 31
0.0
  0
LINE
  5
712
330
24E4
100
AcDbEntity
  8
DETAIL
  6
Continuous
 62
     5
100
AcDbLine
 10
371.6658565347705
 20
1410.381649610873
 30
0.0
 11
372.4105491589577
 21
1410.17041756946
 31
0.0
  0
LINE
  5
713
330
24E4
100
AcDbEntity
  8
DETAIL
  6
Continuous
 62
     5
100
AcDbLine
 10
370.9490166437261
 20
1410.67379605716
 30
0.0
 11
371.6658565347705
 21
1410.381649610873
 31
0.0
  0
LINE
  5
714
330
24E4
100
AcDbEntity
  8
DETAIL
  6
Continuous
 62
     5
100
AcDbLine
 10
370.2688183164572
 20
1411.04326992218
 30
0.0
 11
370.9490166437261
 21
1410.67379605716
 31
0.0
  0
LINE
  5
715
330
24E4
100
AcDbEntity
  8
DETAIL
  6
Continuous
 62
     5
100
AcDbLine
 10
369.6335359154652
 20
1411.485555318957
 30
0.0
 11
370.2688183164572
 21
1411.04326992218
 31
0.0
  0
LINE
  5
716
330
24E4
100
AcDbEntity
  8
DETAIL
  6
Continuous
 62
     5
100
AcDbLine
 10
369.0509722074446
 20
1411.995264622874
 30
0.0
 11
369.6335359154652
 21
1411.485555318957
 31
0.0
  0
LINE
  5
717
330
24E4
100
AcDbEntity
  8
DETAIL
  6
Continuous
 62
     5
100
AcDbLine
 10
368.5282154200129
 20
1412.566167053192
 30
0.0
 11
369.0509722074446
 21
1411.995264622874
 31
0.0
  0
LINE
  5
718
330
24E4
100
AcDbEntity
  8
DETAIL
  6
Continuous
 62
     5
100
AcDbLine
 10
368.0716678232891
 20
1413.191274417754
 30
0.0
 11
368.5282154200129
 21
1412.566167053192
 31
0.0
  0
LINE
  5
719
330
24E4
100
AcDbEntity
  8
DETAIL
  6
Continuous
 62
     5
100
AcDbLine
 10
367.686902822068
 20
1413.862941148452
 30
0.0
 11
368.0716678232891
 21
1413.191274417754
 31
0.0
  0
LINE
  5
71A
330
24E4
100
AcDbEntity
  8
DETAIL
  6
Continuous
 62
     5
100
AcDbLine
 10
367.3786363742471
 20
1414.572992918282
 30
0.0
 11
367.686902822068
 21
1413.862941148452
 31
0.0
  0
LINE
  5
71B
330
24E4
100
AcDbEntity
  8
DETAIL
  6
Continuous
 62
     5
100
AcDbLine
 10
367.1506126645607
 20
1415.312712350512
 30
0.0
 11
367.3786363742471
 21
1414.572992918282
 31
0.0
  0
LINE
  5
71C
330
24E4
100
AcDbEntity
  8
DETAIL
  6
Continuous
 62
     5
100
AcDbLine
 10
367.0056183954107
 20
1416.073096252799
 30
0.0
 11
367.1506126645607
 21
1415.312712350512
 31
0.0
  0
LINE
  5
71D
330
24E4
100
AcDbEntity
  8
DETAIL
  6
Continuous
 62
     5
100
AcDbLine
 10
366.9503416525538
 20
1416.697003191712
 30
0.0
 11
367.0056183954107
 21
1416.073096252799
 31
0.0
  0
ARC
  5
71E
330
24E4
100
AcDbEntity
  8
DETAIL
  6
Continuous
 62
     5
100
AcDbCircle
 10
174.488655820546
 20
1541.335284001368
 30
0.0
 40
186.8387634873954
100
AcDbArc
 50
2.64716500002036
 51
35.56287499999572
  0
LINE
  5
727
330
24E4
100
AcDbEntity
  8
DETAIL
  6
Continuous
 62
     5
100
AcDbLine
 10
143.5191032224536
 20
1284.35540614134
 30
0.0
 11
-292.6037513017657
 21
1284.35540614134
 31
0.0
  0
LINE
  5
728
330
24E4
100
AcDbEntity
  8
DETAIL
  6
Continuous
 62
     5
100
AcDbLine
 10
-135.2979738925325
 20
1123.648422734062
 30
0.0
 11
-263.8435535242471
 21
1123.648422734062
 31
0.0
  0
LINE
  5
729
330
24E4
100
AcDbEntity
  8
DETAIL
  6
Continuous
 62
     5
100
AcDbLine
 10
-308.8094975277128
 20
1289.957392491047
 30
0.0
 11
173.7616123115101
 21
1289.957392491047
 31
0.0
  0
LINE
  5
72A
330
24E4
100
AcDbEntity
  8
DETAIL
  6
Continuous
 62
     5
100
AcDbLine
 10
-263.8435535242471
 20
1269.950298384949
 30
0.0
 11
-135.2979738925325
 21
1269.950298384949
 31
0.0
  0
LINE
  5
72B
330
24E4
100
AcDbEntity
  8
DETAIL
  6
Continuous
 62
     5
100
AcDbLine
 10
-263.8435535242471
 20
1266.449056916382
 30
0.0
 11
-135.2979738925325
 21
1266.449056916382
 31
0.0
  0
LINE
  5
72C
330
24E4
100
AcDbEntity
  8
DETAIL
  6
Continuous
 62
     5
100
AcDbLine
 10
173.7616123115101
 20
1369.985768915468
 30
0.0
 11
173.7616123115101
 21
1289.957392491047
 31
0.0
  0
LINE
  5
72D
330
24E4
100
AcDbEntity
  8
DETAIL
  6
Continuous
 62
     5
100
AcDbLine
 10
128.7956683080481
 20
1123.648422734062
 30
0.0
 11
0.2500886763325525
 21
1123.648422734062
 31
0.0
  0
LINE
  5
72E
330
24E4
100
AcDbEntity
  8
DETAIL
  6
Continuous
 62
     5
100
AcDbLine
 10
0.2500886763325525
 20
1269.950298384949
 30
0.0
 11
128.7956683080481
 21
1269.950298384949
 31
0.0
  0
LINE
  5
72F
330
24E4
100
AcDbEntity
  8
DETAIL
  6
Continuous
 62
     5
100
AcDbLine
 10
0.2500886763325525
 20
1266.449056916382
 30
0.0
 11
128.7956683080481
 21
1266.449056916382
 31
0.0
  0
LINE
  5
731
330
24E4
100
AcDbEntity
  8
DETAIL
  6
Continuous
 62
     5
100
AcDbLine
 10
126.0965684053169
 20
1266.449056916382
 30
0.0
 11
126.0965684053169
 21
1123.648422734062
 31
0.0
  0
LINE
  5
732
330
24E4
100
AcDbEntity
  8
DETAIL
  6
Continuous
 62
     5
100
AcDbLine
 10
143.5191032224536
 20
1123.648422734062
 30
0.0
 11
143.5191032224536
 21
1266.449056916382
 31
0.0
  0
LINE
  5
733
330
24E4
100
AcDbEntity
  8
DETAIL
  6
Continuous
 62
     5
100
AcDbLine
 10
147.5523190325209
 20
1123.648422734062
 30
0.0
 11
132.2969097766133
 21
1123.648422734062
 31
0.0
  0
LINE
  5
736
330
24E4
100
AcDbEntity
  8
DETAIL
  6
Continuous
 62
     5
100
AcDbLine
 10
132.2969097766133
 20
1279.953845437998
 30
0.0
 11
128.7956683080481
 21
1279.953845437998
 31
0.0
  0
ARC
  5
737
330
24E4
100
AcDbEntity
  8
DETAIL
  6
Continuous
 62
     5
100
AcDbCircle
 10
163.5579943174005
 20
1262.947815447802
 30
0.0
 40
3.501241468568167
100
AcDbArc
 50
180.0
 51
90.0
  0
ARC
  5
738
330
24E4
100
AcDbEntity
  8
DETAIL
  6
Continuous
 62
     5
100
AcDbCircle
 10
163.5579943174005
 20
1262.947815447802
 30
0.0
 40
7.002482937136337
100
AcDbArc
 50
180.0
 51
90.0
  0
LINE
  5
73B
330
24E4
100
AcDbEntity
  8
DETAIL
  6
Continuous
 62
     5
100
AcDbLine
 10
132.2969097766133
 20
1269.950298384949
 30
0.0
 11
163.5579943174005
 21
1269.950298384949
 31
0.0
  0
LINE
  5
73C
330
24E4
100
AcDbEntity
  8
DETAIL
  6
Continuous
 62
     5
100
AcDbLine
 10
132.2969097766133
 20
1266.449056916382
 30
0.0
 11
163.5579943174005
 21
1266.449056916382
 31
0.0
  0
LINE
  5
73D
330
24E4
100
AcDbEntity
  8
DETAIL
  6
Continuous
 62
     5
100
AcDbLine
 10
160.0567528488342
 20
1264.448347505768
 30
0.0
 11
156.5555113802691
 21
1264.448347505768
 31
0.0
  0
LINE
  5
73E
330
24E4
100
AcDbEntity
  8
DETAIL
  6
Continuous
 62
     5
100
AcDbLine
 10
126.0965684053169
 20
1284.35540614134
 30
0.0
 11
126.0965684053169
 21
1269.950298384949
 31
0.0
  0
LINE
  5
73F
330
24E4
100
AcDbEntity
  8
DETAIL
  6
Continuous
 62
     5
100
AcDbLine
 10
143.5191032224536
 20
1269.950298384949
 30
0.0
 11
143.5191032224536
 21
1284.955618964517
 31
0.0
  0
LINE
  5
740
330
24E4
100
AcDbEntity
  8
DETAIL
  6
Continuous
 62
     5
100
AcDbLine
 10
156.5555113802691
 20
1262.947815447802
 30
0.0
 11
156.5555113802691
 21
1264.448347505768
 31
0.0
  0
LINE
  5
741
330
24E4
100
AcDbEntity
  8
DETAIL
  6
Continuous
 62
     5
100
AcDbLine
 10
157.5558660855711
 20
1266.449056916382
 30
0.0
 11
157.5558660855711
 21
1264.448347505768
 31
0.0
  0
LINE
  5
742
330
24E4
100
AcDbEntity
  8
DETAIL
  6
Continuous
 62
     5
100
AcDbLine
 10
157.5558660855711
 20
1289.957392491047
 30
0.0
 11
157.5558660855711
 21
1269.950298384949
 31
0.0
  0
LINE
  5
743
330
24E4
100
AcDbEntity
  8
DETAIL
  6
Continuous
 62
     5
100
AcDbLine
 10
160.0567528488342
 20
1262.947815447802
 30
0.0
 11
160.0567528488342
 21
1264.448347505768
 31
0.0
  0
LINE
  5
744
330
24E4
100
AcDbEntity
  8
DETAIL
  6
Continuous
 62
     5
100
AcDbLine
 10
-3.251152792248147
 20
1123.648422734062
 30
0.0
 11
-131.7967324239637
 21
1123.648422734062
 31
0.0
  0
LINE
  5
745
330
24E4
100
AcDbEntity
  8
DETAIL
  6
Continuous
 62
     5
100
AcDbLine
 10
-131.7967324239637
 20
1269.950298384949
 30
0.0
 11
-3.251152792248147
 21
1269.950298384949
 31
0.0
  0
LINE
  5
746
330
24E4
100
AcDbEntity
  8
DETAIL
  6
Continuous
 62
     5
100
AcDbLine
 10
-131.7967324239637
 20
1266.449056916382
 30
0.0
 11
-3.251152792248147
 21
1266.449056916382
 31
0.0
  0
LINE
  5
747
330
24E4
100
AcDbEntity
  8
DETAIL
  6
Continuous
 62
     5
100
AcDbLine
 10
0.2500886763325525
 20
1279.953845437998
 30
0.0
 11
-3.251152792248147
 21
1279.953845437998
 31
0.0
  0
LINE
  5
748
330
24E4
100
AcDbEntity
  8
DETAIL
  6
Continuous
 62
     5
100
AcDbLine
 10
-131.7967324239637
 20
1279.953845437998
 30
0.0
 11
-135.2979738925325
 21
1279.953845437998
 31
0.0
  0
LINE
  5
749
330
24E4
100
AcDbEntity
  8
DETAIL
  6
Continuous
 62
     5
100
AcDbLine
 10
-308.8094975277128
 20
1369.985768915468
 30
0.0
 11
-308.8094975277128
 21
1289.957392491047
 31
0.0
  0
LINE
  5
74A
330
24E4
100
AcDbEntity
  8
DETAIL
  6
Continuous
 62
     5
100
AcDbLine
 10
-267.3447949928134
 20
1123.648422734062
 30
0.0
 11
-282.6002042487173
 21
1123.648422734062
 31
0.0
  0
LINE
  5
74B
330
24E4
100
AcDbEntity
  8
DETAIL
  6
Continuous
 62
     5
100
AcDbLine
 10
-298.6058795336006
 20
1269.950298384949
 30
0.0
 11
-267.3447949928134
 21
1269.950298384949
 31
0.0
  0
LINE
  5
74C
330
24E4
100
AcDbEntity
  8
DETAIL
  6
Continuous
 62
     5
100
AcDbLine
 10
-298.6058795336006
 20
1266.449056916382
 30
0.0
 11
-267.3447949928134
 21
1266.449056916382
 31
0.0
  0
LINE
  5
74D
330
24E4
100
AcDbEntity
  8
DETAIL
  6
Continuous
 62
     5
100
AcDbLine
 10
-263.8435535242471
 20
1279.953845437998
 30
0.0
 11
-267.3447949928134
 21
1279.953845437998
 31
0.0
  0
ARC
  5
74E
330
24E4
100
AcDbEntity
  8
DETAIL
  6
Continuous
 62
     5
100
AcDbCircle
 10
-298.6058795336006
 20
1262.947815447802
 30
0.0
 40
3.501241468568167
100
AcDbArc
 50
90.0
 51
0.0
  0
ARC
  5
74F
330
24E4
100
AcDbEntity
  8
DETAIL
  6
Continuous
 62
     5
100
AcDbCircle
 10
-298.6058795336006
 20
1262.947815447802
 30
0.0
 40
7.002482937136337
100
AcDbArc
 50
90.0
 51
0.0
  0
LINE
  5
750
330
24E4
100
AcDbEntity
  8
DETAIL
  6
Continuous
 62
     5
100
AcDbLine
 10
-295.1046380650334
 20
1264.448347505768
 30
0.0
 11
-291.6033965964682
 21
1264.448347505768
 31
0.0
  0
LINE
  5
751
330
24E4
100
AcDbEntity
  8
DETAIL
  6
Continuous
 62
     5
100
AcDbLine
 10
-295.1046380650334
 20
1264.448347505768
 30
0.0
 11
-295.1046380650334
 21
1262.947815447802
 31
0.0
  0
LINE
  5
752
330
24E4
100
AcDbEntity
  8
DETAIL
  6
Continuous
 62
     5
100
AcDbLine
 10
-292.6037513017657
 20
1266.449056916382
 30
0.0
 11
-292.6037513017657
 21
1264.448347505768
 31
0.0
  0
LINE
  5
753
330
24E4
100
AcDbEntity
  8
DETAIL
  6
Continuous
 62
     5
100
AcDbLine
 10
-292.6037513017657
 20
1289.957392491047
 30
0.0
 11
-292.6037513017657
 21
1269.950298384949
 31
0.0
  0
LINE
  5
754
330
24E4
100
AcDbEntity
  8
DETAIL
  6
Continuous
 62
     5
100
AcDbLine
 10
-291.6033965964682
 20
1264.448347505768
 30
0.0
 11
-291.6033965964682
 21
1262.947815447802
 31
0.0
  0
LINE
  5
755
330
24E4
100
AcDbEntity
  8
DETAIL
  6
Continuous
 62
     5
100
AcDbLine
 10
-379.5000000000011
 20
1369.985768915468
 30
0.0
 11
-379.5000000000011
 21
1409.999957127665
 31
0.0
  0
ARC
  5
788
330
24E4
100
AcDbEntity
  8
DETAIL
  6
Continuous
 62
     5
100
AcDbCircle
 10
-174.4887455444915
 20
1541.335304398565
 30
0.0
 40
186.8386729171481
100
AcDbArc
 50
144.4371142317861
 51
177.3528399775155
  0
LINE
  5
79D
330
24E4
100
AcDbEntity
  8
NOTE
  6
Continuous
 62
     4
100
AcDbLine
 10
365.5000000000052
 20
116.7027811571827
 30
0.0
 11
365.5000000000052
 21
193.2972188428305
 31
0.0
  0
LINE
  5
79E
330
24E4
100
AcDbEntity
  8
NOTE
  6
Continuous
 62
     4
100
AcDbLine
 10
327.2027811571804
 20
155.0000000000148
 30
0.0
 11
403.7972188428291
 21
155.0000000000148
 31
0.0
  0
TEXT
  5
79F
330
24E4
100
AcDbEntity
  8
NOTE
  6
Continuous
 62
     4
100
AcDbText
 10
-541.4419147858207
 20
765.374800525784
 30
0.0
 40
50.0
  1
空気
100
AcDbText
  0
TEXT
  5
7A0
330
24E4
100
AcDbEntity
  8
NOTE
  6
Continuous
 62
     4
100
AcDbText
 10
-541.4419147858207
 20
691.0627367031156
 30
0.0
 40
50.0
  1
吸込
100
AcDbText
  0
LINE
  5
7A1
330
24E4
100
AcDbEntity
  8
NOTE
  6
Continuous
 62
     4
100
AcDbLine
 10
365.4999999999989
 20
582.7027811571825
 30
0.0
 11
365.4999999999989
 21
659.2972188428303
 31
0.0
  0
LINE
  5
7A2
330
24E4
100
AcDbEntity
  8
NOTE
  6
Continuous
 62
     4
100
AcDbLine
 10
327.2027811571732
 20
621.0000000000148
 30
0.0
 11
403.7972188428226
 21
621.0000000000148
 31
0.0
  0
ARC
  5
7A3
330
24E4
100
AcDbEntity
  8
DETAIL
  6
Continuous
 62
     5
100
AcDbCircle
 10
374.0326243136149
 20
54.91947332126475
 30
0.0
 40
1.400496587427267
100
AcDbArc
 50
270.0
 51
0.0
  0
LINE
  5
7A4
330
24E4
100
AcDbEntity
  8
BASIS
  6
DASHDOT
 62
     6
100
AcDbLine
 10
-0.0000000000011368
 20
1700.018384798466
 30
0.0
 11
-0.0000000000011368
 21
-72.42338100045845
 31
0.0
  0
LINE
  5
7A5
330
24E4
100
AcDbEntity
  8
ARRANGE
  6
Continuous
 62
     1
100
AcDbLine
 10
-37.89732108180874
 20
-37.89732108180807
 30
0.0
 11
37.89732108180738
 21
37.89732108180714
 31
0.0
  0
LINE
  5
7A6
330
24E4
100
AcDbEntity
  8
ARRANGE
  6
Continuous
 62
     1
100
AcDbLine
 10
-37.89732108180874
 20
37.89732108180714
 30
0.0
 11
37.89732108180738
 21
-37.89732108181171
 31
0.0
  0
CIRCLE
  5
7A7
330
24E4
100
AcDbEntity
  8
ARRANGE
  6
Continuous
 62
     1
100
AcDbCircle
 10
-0.0000000000002273
 20
-0.0000000000004547
 30
0.0
 40
34.44967411438486
  0
LINE
  5
7A8
330
24E4
100
AcDbEntity
  8
DETAIL
  6
Continuous
 62
     5
100
AcDbLine
 10
332.6179395139758
 20
50.31784167685915
 30
0.0
 11
332.6179395139758
 21
3.201135056977812
 31
0.0
  0
LINE
  5
7A9
330
24E4
100
AcDbEntity
  8
DETAIL
  6
Continuous
 62
     5
100
AcDbLine
 10
299.4999999999998
 20
8.202908583507896
 30
0.0
 11
299.4999999999998
 21
50.31784167685915
 31
0.0
  0
ARC
  5
7AA
330
24E4
100
AcDbEntity
  8
DETAIL
  6
Continuous
 62
     5
100
AcDbCircle
 10
332.7011350569772
 20
3.201135056977812
 30
0.0
 40
3.201135056976608
100
AcDbArc
 50
180.0
 51
270.0
  0
ARC
  5
7AB
330
24E4
100
AcDbEntity
  8
DETAIL
  6
Continuous
 62
     5
100
AcDbCircle
 10
304.5017735265282
 20
8.202908583507896
 30
0.0
 40
5.001773526525957
100
AcDbArc
 50
180.0
 51
270.0
  0
LINE
  5
7AC
330
24E4
100
AcDbEntity
  8
DETAIL
  6
Continuous
 62
     5
100
AcDbLine
 10
304.5017735265282
 20
3.201135056977812
 30
0.0
 11
379.4999999999997
 21
3.201135056977812
 31
0.0
  0
LINE
  5
7AD
330
24E4
100
AcDbEntity
  8
DETAIL
  6
Continuous
 62
     5
100
AcDbLine
 10
379.4999999999997
 20
-0.0000000000013642
 30
0.0
 11
332.7011350569772
 21
0.0000000000013713
 31
0.0
  0
LINE
  5
7AE
330
24E4
100
AcDbEntity
  8
DETAIL
  6
Continuous
 62
     5
100
AcDbLine
 10
379.4999999999997
 20
3.201135056977812
 30
0.0
 11
379.4999999999997
 21
-0.0000000000013642
 31
0.0
  0
LINE
  5
7AF
330
24E4
100
AcDbEntity
  8
DETAIL
  6
Continuous
 62
     5
100
AcDbLine
 10
299.4999999999998
 20
50.31784167685915
 30
0.0
 11
332.6179395139758
 21
50.31784167685915
 31
0.0
  0
LINE
  5
7B0
330
24E4
100
AcDbEntity
  8
DETAIL
  6
Continuous
 62
     5
100
AcDbLine
 10
299.4999999999998
 20
53.51897673383746
 30
0.0
 11
299.4999999999998
 21
50.31784167685915
 31
0.0
  0
ARC
  5
7B1
330
24E4
100
AcDbEntity
  8
DETAIL
  6
Continuous
 62
     5
100
AcDbCircle
 10
329.4168044569986
 20
50.31784167685915
 30
0.0
 40
3.201135056976608
100
AcDbArc
 50
0.0
 51
90.0
  0
LINE
  5
7B2
330
24E4
100
AcDbEntity
  8
NOTE
  6
Continuous
 62
     4
100
AcDbLine
 10
283.3581081024273
 20
1754.985250692684
 30
0.0
 11
233.3403728371702
 21
1804.89899194094
 31
0.0
  0
LINE
  5
7B3
330
24E4
100
AcDbEntity
  8
NOTE
  6
Continuous
 62
     4
100
AcDbLine
 10
283.3581081024273
 20
1754.985250692684
 30
0.0
 11
258.349240469797
 21
1754.985250692684
 31
0.0
  0
LINE
  5
7B4
330
24E4
100
AcDbEntity
  8
NOTE
  6
Continuous
 62
     4
100
AcDbLine
 10
233.3403728371702
 20
1804.89899194094
 30
0.0
 11
183.3226375719084
 21
1754.985250692684
 31
0.0
  0
LINE
  5
7B5
330
24E4
100
AcDbEntity
  8
NOTE
  6
Continuous
 62
     4
100
AcDbLine
 10
208.3315052045352
 20
1754.985250692684
 30
0.0
 11
183.3226375719084
 21
1754.985250692684
 31
0.0
  0
LINE
  5
7B6
330
24E4
100
AcDbEntity
  8
NOTE
  6
Continuous
 62
     4
100
AcDbLine
 10
208.3315052045352
 20
1754.985250692684
 30
0.0
 11
208.3315052045352
 21
1714.284733407954
 31
0.0
  0
LINE
  5
7B7
330
24E4
100
AcDbEntity
  8
NOTE
  6
Continuous
 62
     4
100
AcDbLine
 10
258.349240469797
 20
1754.985250692684
 30
0.0
 11
258.349240469797
 21
1714.284733407954
 31
0.0
  0
LINE
  5
7B8
330
24E4
100
AcDbEntity
  8
NOTE
  6
Continuous
 62
     4
100
AcDbLine
 10
208.3315052045352
 20
1714.284733407954
 30
0.0
 11
258.349240469797
 21
1714.284733407954
 31
0.0
  0
TEXT
  5
7B9
330
24E4
100
AcDbEntity
  8
NOTE
  6
Continuous
 62
     4
100
AcDbText
 10
-105.8674424459989
 20
1733.488185416158
 30
0.0
 40
50.0
  1
空気吹出
100
AcDbText
  0
LINE
  5
7BA
330
24E4
100
AcDbEntity
  8
NOTE
  6
Continuous
 62
     4
100
AcDbLine
 10
-283.3581081024297
 20
1754.985250692684
 30
0.0
 11
-233.3403728371725
 21
1804.89899194094
 31
0.0
  0
LINE
  5
7BB
330
24E4
100
AcDbEntity
  8
NOTE
  6
Continuous
 62
     4
100
AcDbLine
 10
-283.3581081024297
 20
1754.985250692684
 30
0.0
 11
-258.3492404697983
 21
1754.985250692684
 31
0.0
  0
LINE
  5
7BC
330
24E4
100
AcDbEntity
  8
NOTE
  6
Continuous
 62
     4
100
AcDbLine
 10
-233.3403728371725
 20
1804.89899194094
 30
0.0
 11
-183.3226375719098
 21
1754.985250692684
 31
0.0
  0
LINE
  5
7BD
330
24E4
100
AcDbEntity
  8
NOTE
  6
Continuous
 62
     4
100
AcDbLine
 10
-208.3315052045366
 20
1754.985250692684
 30
0.0
 11
-183.3226375719098
 21
1754.985250692684
 31
0.0
  0
LINE
  5
7BE
330
24E4
100
AcDbEntity
  8
NOTE
  6
Continuous
 62
     4
100
AcDbLine
 10
-208.3315052045366
 20
1754.985250692684
 30
0.0
 11
-208.3315052045366
 21
1714.284733407954
 31
0.0
  0
LINE
  5
7BF
330
24E4
100
AcDbEntity
  8
NOTE
  6
Continuous
 62
     4
100
AcDbLine
 10
-258.3492404697983
 20
1754.985250692684
 30
0.0
 11
-258.3492404697983
 21
1714.284733407954
 31
0.0
  0
LINE
  5
7C0
330
24E4
100
AcDbEntity
  8
NOTE
  6
Continuous
 62
     4
100
AcDbLine
 10
-208.3315052045366
 20
1714.284733407954
 30
0.0
 11
-258.3492404697983
 21
1714.284733407954
 31
0.0
  0
LINE
  5
7C2
330
24E4
100
AcDbEntity
  8
SIZE
  6
Continuous
 62
    30
100
AcDbLine
 10
379.4999999999989
 20
-20.00000000000137
 30
0.0
 11
379.4999999999989
 21
-207.3153053570526
 31
0.0
  0
POINT
  5
7CB
330
24E4
100
AcDbEntity
  8
DEFPOINTS
  6
Continuous
 62
     7
100
AcDbPoint
 10
365.5000000000052
 20
116.7027811571827
 30
0.0
 50
180.0
  0
POINT
  5
7CC
330
24E4
100
AcDbEntity
  8
DEFPOINTS
  6
Continuous
 62
     7
100
AcDbPoint
 10
379.4999999999989
 20
-0.0000000000013642
 30
0.0
 50
180.0
  0
LINE
  5
7CE
330
24E4
100
AcDbEntity
  8
DETAIL
  6
Continuous
 62
     5
100
AcDbLine
 10
-366.9502987802081
 20
1416.697960674072
 30
0.0
 11
-361.1280486151738
 21
1549.964486597146
 31
0.0
  0
LINE
  5
7CF
330
24E4
100
AcDbEntity
  8
DETAIL
  6
Continuous
 62
     5
100
AcDbLine
 10
-373.1740055792727
 20
1410.042672273589
 30
0.0
 11
-373.946165085513
 21
1409.999957127665
 31
0.0
  0
LINE
  5
7D0
330
24E4
100
AcDbEntity
  8
DETAIL
  6
Continuous
 62
     5
100
AcDbLine
 10
-372.4105491589581
 20
1410.17041756946
 30
0.0
 11
-373.1740055792727
 21
1410.042672273589
 31
0.0
  0
LINE
  5
7D1
330
24E4
100
AcDbEntity
  8
DETAIL
  6
Continuous
 62
     5
100
AcDbLine
 10
-371.6658565347718
 20
1410.381649610873
 30
0.0
 11
-372.4105491589581
 21
1410.17041756946
 31
0.0
  0
LINE
  5
7D2
330
24E4
100
AcDbEntity
  8
DETAIL
  6
Continuous
 62
     5
100
AcDbLine
 10
-370.9490166437283
 20
1410.67379605716
 30
0.0
 11
-371.6658565347718
 21
1410.381649610873
 31
0.0
  0
LINE
  5
7D3
330
24E4
100
AcDbEntity
  8
DETAIL
  6
Continuous
 62
     5
100
AcDbLine
 10
-370.2688183164585
 20
1411.04326992218
 30
0.0
 11
-370.9490166437283
 21
1410.67379605716
 31
0.0
  0
LINE
  5
7D4
330
24E4
100
AcDbEntity
  8
DETAIL
  6
Continuous
 62
     5
100
AcDbLine
 10
-369.6335359154657
 20
1411.485555318957
 30
0.0
 11
-370.2688183164585
 21
1411.04326992218
 31
0.0
  0
LINE
  5
7D5
330
24E4
100
AcDbEntity
  8
DETAIL
  6
Continuous
 62
     5
100
AcDbLine
 10
-369.0509722074477
 20
1411.995264622874
 30
0.0
 11
-369.6335359154657
 21
1411.485555318957
 31
0.0
  0
LINE
  5
7D6
330
24E4
100
AcDbEntity
  8
DETAIL
  6
Continuous
 62
     5
100
AcDbLine
 10
-368.5282154200151
 20
1412.566167053192
 30
0.0
 11
-369.0509722074477
 21
1411.995264622874
 31
0.0
  0
LINE
  5
7D7
330
24E4
100
AcDbEntity
  8
DETAIL
  6
Continuous
 62
     5
100
AcDbLine
 10
-368.0716678232905
 20
1413.191274417754
 30
0.0
 11
-368.5282154200151
 21
1412.566167053192
 31
0.0
  0
LINE
  5
7D8
330
24E4
100
AcDbEntity
  8
DETAIL
  6
Continuous
 62
     5
100
AcDbLine
 10
-367.6869028220682
 20
1413.862941148452
 30
0.0
 11
-368.0716678232905
 21
1413.191274417754
 31
0.0
  0
LINE
  5
7D9
330
24E4
100
AcDbEntity
  8
DETAIL
  6
Continuous
 62
     5
100
AcDbLine
 10
-367.3786363742487
 20
1414.572992918282
 30
0.0
 11
-367.6869028220682
 21
1413.862941148452
 31
0.0
  0
LINE
  5
7DA
330
24E4
100
AcDbEntity
  8
DETAIL
  6
Continuous
 62
     5
100
AcDbLine
 10
-367.150612664562
 20
1415.312712350512
 30
0.0
 11
-367.3786363742487
 21
1414.572992918282
 31
0.0
  0
LINE
  5
7DB
330
24E4
100
AcDbEntity
  8
DETAIL
  6
Continuous
 62
     5
100
AcDbLine
 10
-367.0056183954123
 20
1416.073096252799
 30
0.0
 11
-367.150612664562
 21
1415.312712350512
 31
0.0
  0
LINE
  5
7DC
330
24E4
100
AcDbEntity
  8
DETAIL
  6
Continuous
 62
     5
100
AcDbLine
 10
-366.9503416525562
 20
1416.697003191712
 30
0.0
 11
-367.0056183954123
 21
1416.073096252799
 31
0.0
  0
LINE
  5
7DD
330
24E4
100
AcDbEntity
  8
NOTE
  6
Continuous
 62
     4
100
AcDbLine
 10
-361.500000000002
 20
-0.0000000000013642
 30
0.0
 11
-517.9398579489161
 21
-112.3153053570516
 31
0.0
  0
LINE
  5
7DE
330
24E4
100
AcDbEntity
  8
NOTE
  6
Continuous
 62
     4
100
AcDbLine
 10
-517.9398579489161
 20
-112.3153053570516
 30
0.0
 11
-1510.30043185461
 21
-112.3153053570516
 31
0.0
  0
TEXT
  5
7E0
330
24E4
100
AcDbEntity
  8
NOTE
  6
Continuous
 62
     4
100
AcDbText
 10
-1474.215564441061
 20
-89.51422549495871
 30
0.0
 40
50.0
  1
2×2-14×20 長穴〈据付用穴〉
100
AcDbText
  0
LINE
  5
7E1
330
24E4
100
AcDbEntity
  8
NOTE
  6
Continuous
 62
     4
100
AcDbLine
 10
365.4999999999989
 20
154.9999999999987
 30
0.0
 11
681.0529238953189
 21
696.5002602288702
 31
0.0
  0
LINE
  5
7E5
330
24E4
100
AcDbEntity
  8
NOTE
  6
Continuous
 62
     4
100
AcDbLine
 10
365.4999999999989
 20
621.0000000000064
 30
0.0
 11
684.1475457470165
 21
997.6255614713631
 31
0.0
  0
LINE
  5
7E9
330
24E4
100
AcDbEntity
  8
SIZE
  6
Continuous
 62
    30
100
AcDbLine
 10
-406.800940264109
 20
1409.999957127665
 30
0.0
 11
-698.4299422122306
 21
1409.999957127665
 31
0.0
  0
LINE
  5
7EA
330
24E4
100
AcDbEntity
  8
SIZE
  6
Continuous
 62
    30
100
AcDbLine
 10
-414.8806233344311
 20
-0.0000000000013642
 30
0.0
 11
-698.4299422122306
 21
-0.0000000000013642
 31
0.0
  0
LINE
  5
7EB
330
24E4
100
AcDbEntity
  8
SIZE
  6
Continuous
 62
    30
100
AcDbLine
 10
-683.4299422122305
 20
1399.999957127665
 30
0.0
 11
-683.4299422122305
 21
9.999999999998626
 31
0.0
  0
CIRCLE
  5
7EC
330
24E4
100
AcDbEntity
  8
SIZE
  6
Continuous
 62
    30
100
AcDbCircle
 10
-683.4299422122305
 20
1409.999957127665
 30
0.0
 40
5.0
  0
LINE
  5
7ED
330
24E4
100
AcDbEntity
  8
SIZE
  6
Continuous
 62
    30
100
AcDbLine
 10
-683.4299422122305
 20
1404.999957127665
 30
0.0
 11
-683.4299422122305
 21
1399.999957127665
 31
0.0
  0
CIRCLE
  5
7EE
330
24E4
100
AcDbEntity
  8
SIZE
  6
Continuous
 62
    30
100
AcDbCircle
 10
-683.4299422122305
 20
-0.0000000000013642
 30
0.0
 40
5.0
  0
LINE
  5
7EF
330
24E4
100
AcDbEntity
  8
SIZE
  6
Continuous
 62
    30
100
AcDbLine
 10
-683.4299422122305
 20
4.999999999998628
 30
0.0
 11
-683.4299422122305
 21
9.999999999998626
 31
0.0
  0
TEXT
  5
7F0
330
24E4
100
AcDbEntity
  8
SIZE
  6
Continuous
 62
    30
100
AcDbText
 10
-705.1954388059341
 20
648.4285642831914
 30
0.0
 40
40.0
  1
1410
 50
90.0
 41
0.9
 72
     1
 11
-705.1954388059341
 21
704.99999285462
 31
0.0
100
AcDbText
  0
POINT
  5
7F1
330
24E4
100
AcDbEntity
  8
DEFPOINTS
  6
Continuous
 62
     7
100
AcDbPoint
 10
-386.8009402641093
 20
1409.999957127665
 30
0.0
 50
180.0
  0
POINT
  5
7F2
330
24E4
100
AcDbEntity
  8
DEFPOINTS
  6
Continuous
 62
     7
100
AcDbPoint
 10
-380.0985637385622
 20
-0.0000000000013642
 30
0.0
 50
180.0
  0
POINT
  5
7F3
330
24E4
100
AcDbEntity
  8
DEFPOINTS
  6
Continuous
 62
     7
100
AcDbPoint
 10
-683.4299422122305
 20
-0.0000000000013642
 30
0.0
 50
180.0
  0
LINE
  5
7F4
330
24E4
100
AcDbEntity
  8
SIZE
  6
Continuous
 62
    30
100
AcDbLine
 10
-414.8806233344311
 20
-0.0000000000013642
 30
0.0
 11
-618.4299422122323
 21
-0.0000000000013642
 31
0.0
  0
LINE
  5
7F5
330
24E4
100
AcDbEntity
  8
SIZE
  6
Continuous
 62
    30
100
AcDbLine
 10
-402.29934409023
 20
53.99999999999856
 30
0.0
 11
-618.4299422122323
 21
53.99999999999836
 31
0.0
  0
LINE
  5
7F6
330
24E4
100
AcDbEntity
  8
SIZE
  6
Continuous
 62
    30
100
AcDbLine
 10
-603.4299422122325
 20
9.999999999998626
 30
0.0
 11
-603.4299422122325
 21
43.99999999999855
 31
0.0
  0
LINE
  5
7F7
330
24E4
100
AcDbEntity
  8
SIZE
  6
Continuous
 62
    30
100
AcDbLine
 10
-603.4299422122325
 20
53.99999999999856
 30
0.0
 11
-603.4299422122325
 21
153.9999999999991
 31
0.0
  0
CIRCLE
  5
7F8
330
24E4
100
AcDbEntity
  8
SIZE
  6
Continuous
 62
    30
100
AcDbCircle
 10
-603.4299422122325
 20
-0.0000000000013642
 30
0.0
 40
5.0
  0
LINE
  5
7F9
330
24E4
100
AcDbEntity
  8
SIZE
  6
Continuous
 62
    30
100
AcDbLine
 10
-603.4299422122325
 20
4.999999999998628
 30
0.0
 11
-603.4299422122325
 21
9.999999999998626
 31
0.0
  0
CIRCLE
  5
7FA
330
24E4
100
AcDbEntity
  8
SIZE
  6
Continuous
 62
    30
100
AcDbCircle
 10
-603.4299422122325
 20
53.99999999999856
 30
0.0
 40
5.0
  0
LINE
  5
7FB
330
24E4
100
AcDbEntity
  8
SIZE
  6
Continuous
 62
    30
100
AcDbLine
 10
-603.4299422122325
 20
48.99999999999856
 30
0.0
 11
-603.4299422122325
 21
43.99999999999855
 31
0.0
  0
TEXT
  5
7FC
330
24E4
100
AcDbEntity
  8
SIZE
  6
Continuous
 62
    30
100
AcDbText
 10
-625.195438805936
 20
78.99999999999909
 30
0.0
 40
40.0
  1
54
 50
90.0
 41
0.9
 72
     1
 11
-625.195438805936
 21
108.9999999999991
 31
0.0
100
AcDbText
  0
POINT
  5
7FD
330
24E4
100
AcDbEntity
  8
DEFPOINTS
  6
Continuous
 62
     7
100
AcDbPoint
 10
-380.0985637385622
 20
-0.0000000000013642
 30
0.0
 50
180.0
  0
POINT
  5
7FE
330
24E4
100
AcDbEntity
  8
DEFPOINTS
  6
Continuous
 62
     7
100
AcDbPoint
 10
-382.2993440902302
 20
53.99999999999856
 30
0.0
 50
180.0
  0
POINT
  5
7FF
330
24E4
100
AcDbEntity
  8
DEFPOINTS
  6
Continuous
 62
     7
100
AcDbPoint
 10
-603.4299422122325
 20
53.99999999999856
 30
0.0
 50
180.0
  0
LINE
  5
800
330
24E4
100
AcDbEntity
  8
SIZE
  6
Continuous
 62
    30
100
AcDbLine
 10
-356.3304556394835
 20
1649.999962786839
 30
0.0
 11
-698.4299422122306
 21
1649.999962786839
 31
0.0
  0
LINE
  5
801
330
24E4
100
AcDbEntity
  8
SIZE
  6
Continuous
 62
    30
100
AcDbLine
 10
-406.800940264109
 20
1409.999957127665
 30
0.0
 11
-698.4299422122306
 21
1409.999957127665
 31
0.0
  0
LINE
  5
802
330
24E4
100
AcDbEntity
  8
SIZE
  6
Continuous
 62
    30
100
AcDbLine
 10
-683.4299422122305
 20
1639.999962786839
 30
0.0
 11
-683.4299422122305
 21
1419.999957127665
 31
0.0
  0
CIRCLE
  5
803
330
24E4
100
AcDbEntity
  8
SIZE
  6
Continuous
 62
    30
100
AcDbCircle
 10
-683.4299422122305
 20
1649.999962786839
 30
0.0
 40
5.0
  0
LINE
  5
804
330
24E4
100
AcDbEntity
  8
SIZE
  6
Continuous
 62
    30
100
AcDbLine
 10
-683.4299422122305
 20
1644.999962786839
 30
0.0
 11
-683.4299422122305
 21
1639.999962786839
 31
0.0
  0
CIRCLE
  5
805
330
24E4
100
AcDbEntity
  8
SIZE
  6
Continuous
 62
    30
100
AcDbCircle
 10
-683.4299422122305
 20
1409.999957127665
 30
0.0
 40
5.0
  0
LINE
  5
806
330
24E4
100
AcDbEntity
  8
SIZE
  6
Continuous
 62
    30
100
AcDbLine
 10
-683.4299422122305
 20
1414.999957127665
 30
0.0
 11
-683.4299422122305
 21
1419.999957127665
 31
0.0
  0
TEXT
  5
807
330
24E4
100
AcDbEntity
  8
SIZE
  6
Continuous
 62
    30
100
AcDbText
 10
-705.1954388059341
 20
1483.756821769361
 30
0.0
 40
40.0
  1
240
 50
90.0
 41
0.9
 72
     1
 11
-705.1954388059341
 21
1530.042536055076
 31
0.0
100
AcDbText
  0
POINT
  5
809
330
24E4
100
AcDbEntity
  8
DEFPOINTS
  6
Continuous
 62
     7
100
AcDbPoint
 10
-386.8009402641093
 20
1409.999957127665
 30
0.0
 50
180.0
  0
POINT
  5
80A
330
24E4
100
AcDbEntity
  8
DEFPOINTS
  6
Continuous
 62
     7
100
AcDbPoint
 10
-683.4299422122305
 20
1409.999957127665
 30
0.0
 50
180.0
  0
CIRCLE
  5
80B
330
24E4
100
AcDbEntity
  8
FIX
  6
Continuous
 62
    11
100
AcDbCircle
 10
-361.500000000002
 20
-0.0000000000013642
 30
0.0
 40
18.59856373856018
  0
LINE
  5
80C
330
24E4
100
AcDbEntity
  8
NOTE
  6
Continuous
 62
     4
100
AcDbLine
 10
-361.500000000002
 20
-38.29721884283345
 30
0.0
 11
-361.500000000002
 21
38.29721884281435
 31
0.0
  0
LINE
  5
80D
330
24E4
100
AcDbEntity
  8
NOTE
  6
Continuous
 62
     4
100
AcDbLine
 10
-323.2027811571781
 20
-0.0000000000013642
 30
0.0
 11
-399.7972188428268
 21
-0.0000000000013642
 31
0.0
  0
CIRCLE
  5
80E
330
24E4
100
AcDbEntity
  8
FIX
  6
Continuous
 62
    11
100
AcDbCircle
 10
361.499999999998
 20
-0.0000000000013642
 30
0.0
 40
18.59856373856018
  0
LINE
  5
80F
330
24E4
100
AcDbEntity
  8
NOTE
  6
Continuous
 62
     4
100
AcDbLine
 10
361.499999999998
 20
-38.29721884283345
 30
0.0
 11
361.499999999998
 21
38.29721884281435
 31
0.0
  0
LINE
  5
810
330
24E4
100
AcDbEntity
  8
NOTE
  6
Continuous
 62
     4
100
AcDbLine
 10
323.2027811571732
 20
-0.0000000000013642
 30
0.0
 11
399.7972188428218
 21
-0.0000000000013642
 31
0.0
  0
LINE
  5
811
330
24E4
100
AcDbEntity
  8
SIZE
  6
Continuous
 62
    30
100
AcDbLine
 10
-361.500000000002
 20
-58.29721884283253
 30
0.0
 11
-361.500000000002
 21
-367.3153053570518
 31
0.0
  0
LINE
  5
812
330
24E4
100
AcDbEntity
  8
SIZE
  6
Continuous
 62
    30
100
AcDbLine
 10
361.499999999998
 20
-58.29721884283253
 30
0.0
 11
361.499999999998
 21
-367.3153053570518
 31
0.0
  0
LINE
  5
813
330
24E4
100
AcDbEntity
  8
SIZE
  6
Continuous
 62
    30
100
AcDbLine
 10
-351.500000000002
 20
-352.3153053570518
 30
0.0
 11
351.4999999999978
 21
-352.3153053570518
 31
0.0
  0
CIRCLE
  5
814
330
24E4
100
AcDbEntity
  8
SIZE
  6
Continuous
 62
    30
100
AcDbCircle
 10
-361.500000000002
 20
-352.3153053570518
 30
0.0
 40
5.0
  0
LINE
  5
815
330
24E4
100
AcDbEntity
  8
SIZE
  6
Continuous
 62
    30
100
AcDbLine
 10
-356.5000000000022
 20
-352.3153053570518
 30
0.0
 11
-351.500000000002
 21
-352.3153053570518
 31
0.0
  0
CIRCLE
  5
816
330
24E4
100
AcDbEntity
  8
SIZE
  6
Continuous
 62
    30
100
AcDbCircle
 10
361.499999999998
 20
-352.3153053570518
 30
0.0
 40
5.0
  0
LINE
  5
817
330
24E4
100
AcDbEntity
  8
SIZE
  6
Continuous
 62
    30
100
AcDbLine
 10
356.4999999999971
 20
-352.3153053570518
 30
0.0
 11
351.4999999999971
 21
-352.3153053570518
 31
0.0
  0
TEXT
  5
818
330
24E4
100
AcDbEntity
  8
SIZE
  6
Continuous
 62
    30
100
AcDbText
 10
-177.4285714285734
 20
-337.3153053570517
 30
0.0
 40
40.0
  1
723(据付ピッチ)
 41
0.9
 72
     1
 11
-0.0000000000020463
 21
-337.3153053570517
 31
0.0
100
AcDbText
  0
POINT
  5
819
330
24E4
100
AcDbEntity
  8
DEFPOINTS
  6
Continuous
 62
     7
100
AcDbPoint
 10
-361.500000000002
 20
-38.29721884283254
 30
0.0
 50
180.0
  0
POINT
  5
81A
330
24E4
100
AcDbEntity
  8
DEFPOINTS
  6
Continuous
 62
     7
100
AcDbPoint
 10
361.499999999998
 20
-38.29721884283254
 30
0.0
 50
180.0
  0
POINT
  5
81B
330
24E4
100
AcDbEntity
  8
DEFPOINTS
  6
Continuous
 62
     7
100
AcDbPoint
 10
361.499999999998
 20
-352.3153053570518
 30
0.0
 50
180.0
  0
LINE
  5
81C
330
24E4
100
AcDbEntity
  8
SIZE
  6
Continuous
 62
    30
100
AcDbLine
 10
-379.500000000002
 20
-20.00000000000046
 30
0.0
 11
-379.500000000002
 21
-367.3153053570518
 31
0.0
  0
LINE
  5
81D
330
24E4
100
AcDbEntity
  8
SIZE
  6
Continuous
 62
    30
100
AcDbLine
 10
-361.500000000002
 20
-58.29721884283253
 30
0.0
 11
-361.500000000002
 21
-367.3153053570518
 31
0.0
  0
LINE
  5
81E
330
24E4
100
AcDbEntity
  8
SIZE
  6
Continuous
 62
    30
100
AcDbLine
 10
-351.500000000002
 20
-352.3153053570518
 30
0.0
 11
-341.5000000000019
 21
-352.3153053570518
 31
0.0
  0
LINE
  5
81F
330
24E4
100
AcDbEntity
  8
SIZE
  6
Continuous
 62
    30
100
AcDbLine
 10
-389.500000000002
 20
-352.3153053570518
 30
0.0
 11
-480.9285714285735
 21
-352.3153053570518
 31
0.0
  0
LINE
  5
820
330
24E4
100
AcDbEntity
  8
SIZE
  6
Continuous
 62
    30
100
AcDbLine
 10
-361.500000000002
 20
-352.3153053570518
 30
0.0
 11
-379.500000000002
 21
-352.3153053570518
 31
0.0
  0
CIRCLE
  5
821
330
24E4
100
AcDbEntity
  8
SIZE
  6
Continuous
 62
    30
100
AcDbCircle
 10
-361.500000000002
 20
-352.3153053570518
 30
0.0
 40
5.0
  0
LINE
  5
822
330
24E4
100
AcDbEntity
  8
SIZE
  6
Continuous
 62
    30
100
AcDbLine
 10
-356.5000000000022
 20
-352.3153053570518
 30
0.0
 11
-351.500000000002
 21
-352.3153053570518
 31
0.0
  0
CIRCLE
  5
823
330
24E4
100
AcDbEntity
  8
SIZE
  6
Continuous
 62
    30
100
AcDbCircle
 10
-379.500000000002
 20
-352.3153053570518
 30
0.0
 40
5.0
  0
LINE
  5
824
330
24E4
100
AcDbEntity
  8
SIZE
  6
Continuous
 62
    30
100
AcDbLine
 10
-384.500000000002
 20
-352.3153053570518
 30
0.0
 11
-389.500000000002
 21
-352.3153053570518
 31
0.0
  0
TEXT
  5
825
330
24E4
100
AcDbEntity
  8
SIZE
  6
Continuous
 62
    30
100
AcDbText
 10
-465.9285714285748
 20
-337.3153053570517
 30
0.0
 40
40.0
  1
18
 41
0.9
 72
     1
 11
-440.214285714289
 21
-337.3153053570517
 31
0.0
100
AcDbText
  0
POINT
  5
826
330
24E4
100
AcDbEntity
  8
DEFPOINTS
  6
Continuous
 62
     7
100
AcDbPoint
 10
-379.500000000002
 20
-0.0000000000004619
 30
0.0
 50
180.0
  0
POINT
  5
827
330
24E4
100
AcDbEntity
  8
DEFPOINTS
  6
Continuous
 62
     7
100
AcDbPoint
 10
-361.500000000002
 20
-38.29721884283254
 30
0.0
 50
180.0
  0
POINT
  5
828
330
24E4
100
AcDbEntity
  8
DEFPOINTS
  6
Continuous
 62
     7
100
AcDbPoint
 10
-361.500000000002
 20
-352.3153053570518
 30
0.0
 50
180.0
  0
LINE
  5
829
330
24E4
100
AcDbEntity
  8
SIZE
  6
Continuous
 62
    30
100
AcDbLine
 10
361.499999999998
 20
-58.29721884283253
 30
0.0
 11
361.499999999998
 21
-367.3153053570518
 31
0.0
  0
LINE
  5
82A
330
24E4
100
AcDbEntity
  8
SIZE
  6
Continuous
 62
    30
100
AcDbLine
 10
379.499999999998
 20
-20.00000000000046
 30
0.0
 11
379.499999999998
 21
-367.3153053570518
 31
0.0
  0
LINE
  5
82B
330
24E4
100
AcDbEntity
  8
SIZE
  6
Continuous
 62
    30
100
AcDbLine
 10
351.4999999999978
 20
-352.3153053570518
 30
0.0
 11
341.499999999998
 21
-352.3153053570518
 31
0.0
  0
LINE
  5
82C
330
24E4
100
AcDbEntity
  8
SIZE
  6
Continuous
 62
    30
100
AcDbLine
 10
389.499999999998
 20
-352.3153053570518
 30
0.0
 11
480.9285714285691
 21
-352.3153053570518
 31
0.0
  0
LINE
  5
82D
330
24E4
100
AcDbEntity
  8
SIZE
  6
Continuous
 62
    30
100
AcDbLine
 10
361.499999999998
 20
-352.3153053570518
 30
0.0
 11
379.499999999998
 21
-352.3153053570518
 31
0.0
  0
CIRCLE
  5
82E
330
24E4
100
AcDbEntity
  8
SIZE
  6
Continuous
 62
    30
100
AcDbCircle
 10
361.499999999998
 20
-352.3153053570518
 30
0.0
 40
5.0
  0
LINE
  5
82F
330
24E4
100
AcDbEntity
  8
SIZE
  6
Continuous
 62
    30
100
AcDbLine
 10
356.4999999999971
 20
-352.3153053570518
 30
0.0
 11
351.4999999999971
 21
-352.3153053570518
 31
0.0
  0
CIRCLE
  5
830
330
24E4
100
AcDbEntity
  8
SIZE
  6
Continuous
 62
    30
100
AcDbCircle
 10
379.499999999998
 20
-352.3153053570518
 30
0.0
 40
5.0
  0
LINE
  5
831
330
24E4
100
AcDbEntity
  8
SIZE
  6
Continuous
 62
    30
100
AcDbLine
 10
384.4999999999978
 20
-352.3153053570518
 30
0.0
 11
389.499999999998
 21
-352.3153053570518
 31
0.0
  0
TEXT
  5
832
330
24E4
100
AcDbEntity
  8
SIZE
  6
Continuous
 62
    30
100
AcDbText
 10
414.4999999999972
 20
-337.3153053570517
 30
0.0
 40
40.0
  1
18
 41
0.9
 72
     1
 11
440.214285714283
 21
-337.3153053570517
 31
0.0
100
AcDbText
  0
POINT
  5
833
330
24E4
100
AcDbEntity
  8
DEFPOINTS
  6
Continuous
 62
     7
100
AcDbPoint
 10
361.499999999998
 20
-38.29721884283254
 30
0.0
 50
180.0
  0
POINT
  5
834
330
24E4
100
AcDbEntity
  8
DEFPOINTS
  6
Continuous
 62
     7
100
AcDbPoint
 10
379.499999999998
 20
-0.0000000000004619
 30
0.0
 50
180.0
  0
POINT
  5
835
330
24E4
100
AcDbEntity
  8
DEFPOINTS
  6
Continuous
 62
     7
100
AcDbPoint
 10
379.499999999998
 20
-352.3153053570518
 30
0.0
 50
180.0
  0
LINE
  5
836
330
24E4
100
AcDbEntity
  8
OUTLINE
  6
Continuous
 62
     3
100
AcDbLine
 10
375.4999999999989
 20
1369.985768915468
 30
0.0
 11
375.4999999999989
 21
58.52075026035565
 31
0.0
  0
LINE
  5
837
330
24E4
100
AcDbEntity
  8
OUTLINE
  6
Continuous
 62
     3
100
AcDbLine
 10
-375.5000000000011
 20
1369.985768915468
 30
0.0
 11
-375.5000000000011
 21
58.52075026035565
 31
0.0
  0
ARC
  5
838
330
24E4
100
AcDbEntity
  8
OUTLINE
  6
Continuous
 62
     3
100
AcDbCircle
 10
-284.7086375703142
 20
50.51791261792136
 30
0.0
 40
5.001773526525957
100
AcDbArc
 50
210.0000000000219
 51
270.0
  0
LINE
  5
839
330
24E4
100
AcDbEntity
  8
OUTLINE
  6
Continuous
 62
     3
100
AcDbLine
 10
-289.0403020613113
 20
48.01702585465545
 30
0.0
 11
-290.7729735740288
 21
51.01808997057235
 31
0.0
  0
LINE
  5
83A
330
24E4
100
AcDbEntity
  8
OUTLINE
  6
Continuous
 62
     3
100
AcDbLine
 10
-375.5000000000011
 20
58.52075026035565
 30
0.0
 11
-375.4331209010437
 21
58.52075026035565
 31
0.0
  0
ARC
  5
83C
330
24E4
100
AcDbEntity
  8
OUTLINE
  6
Continuous
 62
     3
100
AcDbCircle
 10
-295.1046237742469
 20
48.51721749809295
 30
0.0
 40
5.001773526525957
100
AcDbArc
 50
29.99996899995195
 51
90.0
  0
LINE
  5
83D
330
24E4
100
AcDbEntity
  8
OUTLINE
  6
Continuous
 62
     3
100
AcDbLine
 10
-375.4331209010437
 20
54.91947332126475
 30
0.0
 11
-375.4331209010437
 21
58.52075026035565
 31
0.0
  0
LINE
  5
83E
330
24E4
100
AcDbEntity
  8
OUTLINE
  6
Continuous
 62
     3
100
AcDbLine
 10
-375.6331918421048
 20
85.03014995094998
 30
0.0
 11
-375.8332627831681
 21
85.03014995094998
 31
0.0
  0
LINE
  5
840
330
24E4
100
AcDbEntity
  8
OUTLINE
  6
Continuous
 62
     3
100
AcDbLine
 10
-295.1046380650353
 20
53.51897673383746
 30
0.0
 11
-374.032624313618
 21
53.51897673383657
 31
0.0
  0
LINE
  5
841
330
24E4
100
AcDbEntity
  8
OUTLINE
  6
Continuous
 62
     3
100
AcDbLine
 10
284.7086375703109
 20
45.51613909139036
 30
0.0
 11
-284.7086375703142
 21
45.51613909139535
 31
0.0
  0
LINE
  5
842
330
24E4
100
AcDbEntity
  8
OUTLINE
  6
Continuous
 62
     3
100
AcDbLine
 10
332.6179395139732
 20
50.31784167685915
 30
0.0
 11
332.6179395139732
 21
3.201135056977812
 31
0.0
  0
LINE
  5
843
330
24E4
100
AcDbEntity
  8
OUTLINE
  6
Continuous
 62
     3
100
AcDbLine
 10
299.499999999998
 20
8.202908583507896
 30
0.0
 11
299.499999999998
 21
50.31784167685915
 31
0.0
  0
ARC
  5
844
330
24E4
100
AcDbEntity
  8
OUTLINE
  6
Continuous
 62
     3
100
AcDbCircle
 10
332.7011350569744
 20
3.201135056977812
 30
0.0
 40
3.201135056976608
100
AcDbArc
 50
180.0
 51
270.0
  0
ARC
  5
845
330
24E4
100
AcDbEntity
  8
OUTLINE
  6
Continuous
 62
     3
100
AcDbCircle
 10
304.5017735265261
 20
8.202908583507896
 30
0.0
 40
5.001773526525957
100
AcDbArc
 50
180.0
 51
270.0
  0
LINE
  5
846
330
24E4
100
AcDbEntity
  8
OUTLINE
  6
Continuous
 62
     3
100
AcDbLine
 10
304.5017735265261
 20
3.201135056977812
 30
0.0
 11
329.499999999998
 21
3.201135056977812
 31
0.0
  0
LINE
  5
847
330
24E4
100
AcDbEntity
  8
OUTLINE
  6
Continuous
 62
     3
100
AcDbLine
 10
379.499999999998
 20
-0.0000000000013642
 30
0.0
 11
332.7011350569744
 21
0.0000000000013713
 31
0.0
  0
LINE
  5
848
330
24E4
100
AcDbEntity
  8
OUTLINE
  6
Continuous
 62
     3
100
AcDbLine
 10
379.499999999998
 20
3.201135056977812
 30
0.0
 11
379.499999999998
 21
-0.0000000000013642
 31
0.0
  0
LINE
  5
84C
330
24E4
100
AcDbEntity
  8
OUTLINE
  6
Continuous
 62
     3
100
AcDbLine
 10
299.499999999998
 20
53.51897673383746
 30
0.0
 11
299.499999999998
 21
50.31784167685915
 31
0.0
  0
ARC
  5
84D
330
24E4
100
AcDbEntity
  8
OUTLINE
  6
Continuous
 62
     3
100
AcDbCircle
 10
329.4168044569967
 20
50.31784167685915
 30
0.0
 40
3.201135056976608
100
AcDbArc
 50
0.0
 51
90.0
  0
LINE
  5
84E
330
24E4
100
AcDbEntity
  8
OUTLINE
  6
Continuous
 62
     3
100
AcDbLine
 10
295.1046246798703
 20
53.51899102461875
 30
0.0
 11
374.0326240600388
 21
53.51897673383746
 31
0.0
  0
ARC
  5
84F
330
24E4
100
AcDbEntity
  8
OUTLINE
  6
Continuous
 62
     3
100
AcDbCircle
 10
374.0326243136139
 20
54.91947332126386
 30
0.0
 40
1.400496587427267
100
AcDbArc
 50
270.0
 51
0.0
  0
LINE
  5
850
330
24E4
100
AcDbEntity
  8
OUTLINE
  6
Continuous
 62
     3
100
AcDbLine
 10
375.4331209010413
 20
54.91947332126386
 30
0.0
 11
375.4331209010413
 21
58.52075026035565
 31
0.0
  0
LINE
  5
853
330
24E4
100
AcDbEntity
  8
OUTLINE
  6
Continuous
 62
     3
100
AcDbLine
 10
-326.4778337867241
 20
1649.999957127666
 30
0.0
 11
326.4778337867207
 21
1649.999957127666
 31
0.0
  0
LINE
  5
854
330
24E4
100
AcDbEntity
  8
OUTLINE
  6
Continuous
 62
     3
100
AcDbLine
 10
-379.5000000000036
 20
1369.985768915468
 30
0.0
 11
-375.5000000000011
 21
1369.985768915468
 31
0.0
  0
LINE
  5
855
330
24E4
100
AcDbEntity
  8
OUTLINE
  6
Continuous
 62
     3
100
AcDbLine
 10
-366.9502987802118
 20
1416.697960674072
 30
0.0
 11
-361.1280486151764
 21
1549.964486597146
 31
0.0
  0
LINE
  5
856
330
24E4
100
AcDbEntity
  8
OUTLINE
  6
Continuous
 62
     3
100
AcDbLine
 10
-379.5000000000036
 20
1409.999957127665
 30
0.0
 11
-379.5000000000036
 21
1369.985768915468
 31
0.0
  0
LINE
  5
857
330
24E4
100
AcDbEntity
  8
OUTLINE
  6
Continuous
 62
     3
100
AcDbLine
 10
-373.1740055792754
 20
1410.042672273589
 30
0.0
 11
-373.946165085514
 21
1409.999957127665
 31
0.0
  0
LINE
  5
858
330
24E4
100
AcDbEntity
  8
OUTLINE
  6
Continuous
 62
     3
100
AcDbLine
 10
-372.4105491589611
 20
1410.17041756946
 30
0.0
 11
-373.1740055792754
 21
1410.042672273589
 31
0.0
  0
LINE
  5
859
330
24E4
100
AcDbEntity
  8
OUTLINE
  6
Continuous
 62
     3
100
AcDbLine
 10
-371.6658565347754
 20
1410.381649610873
 30
0.0
 11
-372.4105491589611
 21
1410.17041756946
 31
0.0
  0
LINE
  5
85A
330
24E4
100
AcDbEntity
  8
OUTLINE
  6
Continuous
 62
     3
100
AcDbLine
 10
-370.9490166437319
 20
1410.67379605716
 30
0.0
 11
-371.6658565347754
 21
1410.381649610873
 31
0.0
  0
LINE
  5
85B
330
24E4
100
AcDbEntity
  8
OUTLINE
  6
Continuous
 62
     3
100
AcDbLine
 10
-370.2688183164604
 20
1411.04326992218
 30
0.0
 11
-370.9490166437319
 21
1410.67379605716
 31
0.0
  0
LINE
  5
85C
330
24E4
100
AcDbEntity
  8
OUTLINE
  6
Continuous
 62
     3
100
AcDbLine
 10
-369.6335359154675
 20
1411.485555318957
 30
0.0
 11
-370.2688183164604
 21
1411.04326992218
 31
0.0
  0
LINE
  5
85D
330
24E4
100
AcDbEntity
  8
OUTLINE
  6
Continuous
 62
     3
100
AcDbLine
 10
-369.0509722074477
 20
1411.995264622874
 30
0.0
 11
-369.6335359154675
 21
1411.485555318957
 31
0.0
  0
LINE
  5
85E
330
24E4
100
AcDbEntity
  8
OUTLINE
  6
Continuous
 62
     3
100
AcDbLine
 10
-368.5282154200169
 20
1412.566167053192
 30
0.0
 11
-369.0509722074477
 21
1411.995264622874
 31
0.0
  0
LINE
  5
85F
330
24E4
100
AcDbEntity
  8
OUTLINE
  6
Continuous
 62
     3
100
AcDbLine
 10
-368.0716678232923
 20
1413.191274417754
 30
0.0
 11
-368.5282154200169
 21
1412.566167053192
 31
0.0
  0
LINE
  5
860
330
24E4
100
AcDbEntity
  8
OUTLINE
  6
Continuous
 62
     3
100
AcDbLine
 10
-367.686902822071
 20
1413.862941148452
 30
0.0
 11
-368.0716678232923
 21
1413.191274417754
 31
0.0
  0
LINE
  5
861
330
24E4
100
AcDbEntity
  8
OUTLINE
  6
Continuous
 62
     3
100
AcDbLine
 10
-367.3786363742503
 20
1414.572992918282
 30
0.0
 11
-367.686902822071
 21
1413.862941148452
 31
0.0
  0
LINE
  5
862
330
24E4
100
AcDbEntity
  8
OUTLINE
  6
Continuous
 62
     3
100
AcDbLine
 10
-367.1506126645638
 20
1415.312712350512
 30
0.0
 11
-367.3786363742503
 21
1414.572992918282
 31
0.0
  0
LINE
  5
863
330
24E4
100
AcDbEntity
  8
OUTLINE
  6
Continuous
 62
     3
100
AcDbLine
 10
-367.0056183954142
 20
1416.073096252799
 30
0.0
 11
-367.1506126645638
 21
1415.312712350512
 31
0.0
  0
LINE
  5
864
330
24E4
100
AcDbEntity
  8
OUTLINE
  6
Continuous
 62
     3
100
AcDbLine
 10
-366.9503416525568
 20
1416.697003191712
 30
0.0
 11
-367.0056183954142
 21
1416.073096252799
 31
0.0
  0
ARC
  5
865
330
24E4
100
AcDbEntity
  8
OUTLINE
  6
Continuous
 62
     3
100
AcDbCircle
 10
-174.48872507078
 20
1541.335297306896
 30
0.0
 40
186.8386936965421
100
AcDbArc
 50
144.4371161142041
 51
177.3528380950848
  0
LINE
  5
866
330
24E4
100
AcDbEntity
  8
OUTLINE
  6
Continuous
 62
     3
100
AcDbLine
 10
379.499999999998
 20
1369.985768915468
 30
0.0
 11
379.499999999998
 21
1409.999957127665
 31
0.0
  0
ARC
  5
868
330
24E4
100
AcDbEntity
  8
OUTLINE
  6
Continuous
 62
     3
100
AcDbCircle
 10
-374.032624313618
 20
54.91947332126475
 30
0.0
 40
1.400496587427267
100
AcDbArc
 50
180.0
 51
270.0
  0
LINE
  5
869
330
24E4
100
AcDbEntity
  8
OUTLINE
  6
Continuous
 62
     3
100
AcDbLine
 10
-332.6179395139799
 20
50.31784167685915
 30
0.0
 11
-332.6179395139799
 21
3.201135056977812
 31
0.0
  0
LINE
  5
86A
330
24E4
100
AcDbEntity
  8
OUTLINE
  6
Continuous
 62
     3
100
AcDbLine
 10
-299.5000000000019
 20
8.202908583507896
 30
0.0
 11
-299.5000000000019
 21
50.31784167685915
 31
0.0
  0
ARC
  5
86B
330
24E4
100
AcDbEntity
  8
OUTLINE
  6
Continuous
 62
     3
100
AcDbCircle
 10
-332.7011350569803
 20
3.201135056977812
 30
0.0
 40
3.201135056976608
100
AcDbArc
 50
270.0
 51
0.0
  0
ARC
  5
86C
330
24E4
100
AcDbEntity
  8
OUTLINE
  6
Continuous
 62
     3
100
AcDbCircle
 10
-304.5017735265312
 20
8.202908583507896
 30
0.0
 40
5.001773526525957
100
AcDbArc
 50
270.0
 51
0.0
  0
LINE
  5
86D
330
24E4
100
AcDbEntity
  8
OUTLINE
  6
Continuous
 62
     3
100
AcDbLine
 10
-304.5017735265312
 20
3.201135056977812
 30
0.0
 11
-329.5000000000039
 21
3.201135056977812
 31
0.0
  0
LINE
  5
86E
330
24E4
100
AcDbEntity
  8
OUTLINE
  6
Continuous
 62
     3
100
AcDbLine
 10
-379.5000000000036
 20
-0.0000000000013642
 30
0.0
 11
-332.7011350569803
 21
0.0000000000013713
 31
0.0
  0
LINE
  5
86F
330
24E4
100
AcDbEntity
  8
OUTLINE
  6
Continuous
 62
     3
100
AcDbLine
 10
-379.5000000000036
 20
3.201135056977812
 30
0.0
 11
-379.5000000000036
 21
-0.0000000000013642
 31
0.0
  0
LINE
  5
870
330
24E4
100
AcDbEntity
  8
OUTLINE
  6
Continuous
 62
     3
100
AcDbLine
 10
-299.5000000000019
 20
53.51897673383746
 30
0.0
 11
-299.5000000000019
 21
50.31784167685915
 31
0.0
  0
ARC
  5
871
330
24E4
100
AcDbEntity
  8
OUTLINE
  6
Continuous
 62
     3
100
AcDbCircle
 10
-329.4168044570026
 20
50.31784167685915
 30
0.0
 40
3.201135056976608
100
AcDbArc
 50
90.0
 51
180.0
  0
LINE
  5
872
330
24E4
100
AcDbEntity
  8
OUTLINE
  6
Continuous
 62
     3
100
AcDbLine
 10
366.950298780205
 20
1416.697960674072
 30
0.0
 11
361.1280486151717
 21
1549.964486597146
 31
0.0
  0
LINE
  5
873
330
24E4
100
AcDbEntity
  8
OUTLINE
  6
Continuous
 62
     3
100
AcDbLine
 10
373.1740055792706
 20
1410.042672273589
 30
0.0
 11
373.9461650855091
 21
1409.999957127665
 31
0.0
  0
LINE
  5
874
330
24E4
100
AcDbEntity
  8
OUTLINE
  6
Continuous
 62
     3
100
AcDbLine
 10
372.4105491589552
 20
1410.17041756946
 30
0.0
 11
373.1740055792706
 21
1410.042672273589
 31
0.0
  0
LINE
  5
875
330
24E4
100
AcDbEntity
  8
OUTLINE
  6
Continuous
 62
     3
100
AcDbLine
 10
371.6658565347686
 20
1410.381649610873
 30
0.0
 11
372.4105491589552
 21
1410.17041756946
 31
0.0
  0
LINE
  5
876
330
24E4
100
AcDbEntity
  8
OUTLINE
  6
Continuous
 62
     3
100
AcDbLine
 10
370.9490166437243
 20
1410.67379605716
 30
0.0
 11
371.6658565347686
 21
1410.381649610873
 31
0.0
  0
LINE
  5
877
330
24E4
100
AcDbEntity
  8
OUTLINE
  6
Continuous
 62
     3
100
AcDbLine
 10
370.2688183164553
 20
1411.04326992218
 30
0.0
 11
370.9490166437243
 21
1410.67379605716
 31
0.0
  0
LINE
  5
878
330
24E4
100
AcDbEntity
  8
OUTLINE
  6
Continuous
 62
     3
100
AcDbLine
 10
369.6335359154635
 20
1411.485555318957
 30
0.0
 11
370.2688183164553
 21
1411.04326992218
 31
0.0
  0
LINE
  5
879
330
24E4
100
AcDbEntity
  8
OUTLINE
  6
Continuous
 62
     3
100
AcDbLine
 10
369.0509722074428
 20
1411.995264622874
 30
0.0
 11
369.6335359154635
 21
1411.485555318957
 31
0.0
  0
LINE
  5
87A
330
24E4
100
AcDbEntity
  8
OUTLINE
  6
Continuous
 62
     3
100
AcDbLine
 10
368.5282154200111
 20
1412.566167053192
 30
0.0
 11
369.0509722074428
 21
1411.995264622874
 31
0.0
  0
LINE
  5
87B
330
24E4
100
AcDbEntity
  8
OUTLINE
  6
Continuous
 62
     3
100
AcDbLine
 10
368.0716678232863
 20
1413.191274417754
 30
0.0
 11
368.5282154200111
 21
1412.566167053192
 31
0.0
  0
LINE
  5
87C
330
24E4
100
AcDbEntity
  8
OUTLINE
  6
Continuous
 62
     3
100
AcDbLine
 10
367.6869028220661
 20
1413.862941148452
 30
0.0
 11
368.0716678232863
 21
1413.191274417754
 31
0.0
  0
LINE
  5
87D
330
24E4
100
AcDbEntity
  8
OUTLINE
  6
Continuous
 62
     3
100
AcDbLine
 10
367.3786363742454
 20
1414.572992918282
 30
0.0
 11
367.6869028220661
 21
1413.862941148452
 31
0.0
  0
LINE
  5
87E
330
24E4
100
AcDbEntity
  8
OUTLINE
  6
Continuous
 62
     3
100
AcDbLine
 10
367.1506126645588
 20
1415.312712350512
 30
0.0
 11
367.3786363742454
 21
1414.572992918282
 31
0.0
  0
LINE
  5
87F
330
24E4
100
AcDbEntity
  8
OUTLINE
  6
Continuous
 62
     3
100
AcDbLine
 10
367.0056183954091
 20
1416.073096252799
 30
0.0
 11
367.1506126645588
 21
1415.312712350512
 31
0.0
  0
LINE
  5
880
330
24E4
100
AcDbEntity
  8
OUTLINE
  6
Continuous
 62
     3
100
AcDbLine
 10
366.9503416525511
 20
1416.697003191712
 30
0.0
 11
367.0056183954091
 21
1416.073096252799
 31
0.0
  0
LINE
  5
882
330
24E4
100
AcDbEntity
  8
OUTLINE
  6
Continuous
 62
     3
100
AcDbLine
 10
379.499999999998
 20
1409.999957127665
 30
0.0
 11
-379.5000000000036
 21
1409.999957127665
 31
0.0
  0
LINE
  5
883
330
24E4
100
AcDbEntity
  8
OUTLINE
  6
Continuous
 62
     3
100
AcDbLine
 10
375.4999999999989
 20
1369.985768915468
 30
0.0
 11
379.499999999998
 21
1369.985768915468
 31
0.0
  0
LINE
  5
884
330
24E4
100
AcDbEntity
  8
OUTLINE
  6
Continuous
 62
     3
100
AcDbLine
 10
375.4331209010413
 20
58.52075026035565
 30
0.0
 11
375.4999999999989
 21
58.52075026035565
 31
0.0
  0
LINE
  5
885
330
24E4
100
AcDbEntity
  8
OUTLINE
  6
Continuous
 62
     3
100
AcDbLine
 10
332.6179395139732
 20
3.201135056977812
 30
0.0
 11
379.499999999998
 21
3.201135056977812
 31
0.0
  0
LINE
  5
886
330
24E4
100
AcDbEntity
  8
OUTLINE
  6
Continuous
 62
     3
100
AcDbLine
 10
-332.6179395139799
 20
3.201135056977812
 30
0.0
 11
-379.5000000000036
 21
3.201135056977812
 31
0.0
  0
ARC
  5
895
330
24E4
100
AcDbEntity
  8
OUTLINE
  6
Continuous
 62
     3
100
AcDbCircle
 10
174.4887250707713
 20
1541.335297306895
 30
0.0
 40
186.8386936965482
100
AcDbArc
 50
2.64716190491522
 51
35.56288388579587
  0
ARC
  5
8AA
330
24E4
100
AcDbEntity
  8
OUTLINE
  6
Continuous
 62
     3
100
AcDbCircle
 10
284.7086375703109
 20
50.51791261791615
 30
0.0
 40
5.001773526525957
100
AcDbArc
 50
270.0
 51
329.9999999999781
  0
LINE
  5
8AB
330
24E4
100
AcDbEntity
  8
OUTLINE
  6
Continuous
 62
     3
100
AcDbLine
 10
289.0403020613073
 20
48.01702585465015
 30
0.0
 11
290.7729735740239
 21
51.01808997056715
 31
0.0
  0
ARC
  5
8AC
330
24E4
100
AcDbEntity
  8
OUTLINE
  6
Continuous
 62
     3
100
AcDbCircle
 10
295.1046237742446
 20
48.51721749808764
 30
0.0
 40
5.001773526525957
100
AcDbArc
 50
90.0
 51
150.0000310000481
  0
ARC
  5
8CC
330
24E4
100
AcDbEntity
  8
DETAIL
  6
Continuous
 62
     5
100
AcDbCircle
 10
-284.7086375703142
 20
50.51791261792136
 30
0.0
 40
5.001773526525957
100
AcDbArc
 50
210.0000000000219
 51
270.0
  0
LINE
  5
8CD
330
24E4
100
AcDbEntity
  8
DETAIL
  6
Continuous
 62
     5
100
AcDbLine
 10
-289.0403020613113
 20
48.01702585465545
 30
0.0
 11
-290.7729735740288
 21
51.01808997057235
 31
0.0
  0
ARC
  5
8CE
330
24E4
100
AcDbEntity
  8
DETAIL
  6
Continuous
 62
     5
100
AcDbCircle
 10
-295.1046237742469
 20
48.51721749809295
 30
0.0
 40
5.001773526525957
100
AcDbArc
 50
29.99996899995195
 51
90.0
  0
LINE
  5
10E0
330
24E4
100
AcDbEntity
  8
DETAIL
  6
Continuous
 62
     5
100
AcDbLine
 10
117.3038560009615
 20
1600.912194468807
 30
0.0
 11
149.9382846443284
 21
1600.912194468807
 31
0.0
  0
LINE
  5
10E1
330
24E4
100
AcDbEntity
  8
DETAIL
  6
Continuous
 62
     5
100
AcDbLine
 10
116.1960346187468
 20
1609.828255921717
 30
0.0
 11
148.5626111443696
 21
1609.828255921717
 31
0.0
  0
ARC
  5
10E2
330
24E4
100
AcDbEntity
  8
DETAIL
  6
Continuous
 62
     5
100
AcDbCircle
 10
-39.88163590035516
 20
1546.288083019688
 30
0.0
 40
271.6611540568262
100
AcDbArc
 50
0.969175000022701
 51
22.44331899996983
  0
ARC
  5
10E3
330
24E4
100
AcDbEntity
  8
DETAIL
  6
Continuous
 62
     5
100
AcDbCircle
 10
-48.63382496176313
 20
1546.351834195971
 30
0.0
 40
275.9544335087106
100
AcDbArc
 50
0.9408559999944603
 51
22.06132100004149
  0
ARC
  5
10E4
330
24E4
100
AcDbEntity
  8
DETAIL
  6
Continuous
 62
     5
100
AcDbCircle
 10
-116.4818824943734
 20
1546.772011753765
 30
0.0
 40
312.0901750745425
100
AcDbArc
 50
0.7547629999910011
 51
19.31510599999857
  0
ARC
  5
10E5
330
24E4
100
AcDbEntity
  8
DETAIL
  6
Continuous
 62
     5
100
AcDbCircle
 10
-127.2934446244628
 20
1546.828088780383
 30
0.0
 40
318.3041212698312
100
AcDbArc
 50
0.7299329999893109
 51
18.91286599999211
  0
ARC
  5
10E6
330
24E4
100
AcDbEntity
  8
DETAIL
  6
Continuous
 62
     5
100
AcDbCircle
 10
-216.9395884552152
 20
1546.931153896598
 30
0.0
 40
375.3472190134157
100
AcDbArc
 50
0.603263999982018
 51
15.93793400001581
  0
ARC
  5
10E7
330
24E4
100
AcDbEntity
  8
DETAIL
  6
Continuous
 62
     5
100
AcDbCircle
 10
-223.2806082796426
 20
1547.89163732151
 30
0.0
 40
376.9662216500445
100
AcDbArc
 50
0.4546820000190733
 51
15.71596300000866
  0
ARC
  5
10E8
330
24E4
100
AcDbEntity
  8
DETAIL
  6
Continuous
 62
     5
100
AcDbCircle
 10
120.4975312699914
 20
1544.622463853786
 30
0.0
 40
207.9618675935192
100
AcDbArc
 50
1.471947999995506
 51
30.44529400002451
  0
ARC
  5
10E9
330
24E4
100
AcDbEntity
  8
DETAIL
  6
Continuous
 62
     5
100
AcDbCircle
 10
126.1655124486986
 20
1544.54359303066
 30
0.0
 40
206.2099606888997
100
AcDbArc
 50
1.50637699999311
 51
30.75731799996131
  0
ARC
  5
10EA
330
24E4
100
AcDbEntity
  8
DETAIL
  6
Continuous
 62
     5
100
AcDbCircle
 10
75.77543087133995
 20
1544.78133447177
 30
0.0
 40
224.5634398855711
100
AcDbArc
 50
1.55701299999712
 51
27.94005100002365
  0
ARC
  5
10EB
330
24E4
100
AcDbEntity
  8
DETAIL
  6
Continuous
 62
     5
100
AcDbCircle
 10
71.87611968396119
 20
1545.238182174904
 30
0.0
 40
224.3361878780887
100
AcDbArc
 50
1.441869000015376
 51
27.83880299996827
  0
ARC
  5
10EC
330
24E4
100
AcDbEntity
  8
DETAIL
  6
Continuous
 62
     5
100
AcDbCircle
 10
16.30787346397369
 20
1545.81840219476
 30
0.0
 40
246.1368036445528
100
AcDbArc
 50
1.179041000014627
 51
25.04101099999483
  0
ARC
  5
10ED
330
24E4
100
AcDbEntity
  8
DETAIL
  6
Continuous
 62
     5
100
AcDbCircle
 10
23.703552963422
 20
1545.748220166788
 30
0.0
 40
243.0396911861464
100
AcDbArc
 50
1.210620000008675
 51
25.40090999998601
  0
LINE
  5
10EE
330
24E4
100
AcDbEntity
  8
DETAIL
  6
Continuous
 62
     5
100
AcDbLine
 10
224.2441462678159
 20
1609.828255921717
 30
0.0
 11
253.9758456627885
 21
1609.828255921717
 31
0.0
  0
LINE
  5
10EF
330
24E4
100
AcDbEntity
  8
DETAIL
  6
Continuous
 62
     5
100
AcDbLine
 10
226.2311079466215
 20
1600.912194468807
 30
0.0
 11
256.1995198464408
 21
1600.912194468807
 31
0.0
  0
LINE
  5
10F0
330
24E4
100
AcDbEntity
  8
DETAIL
  6
Continuous
 62
     5
100
AcDbLine
 10
260.4000378355729
 20
1600.912194468807
 30
0.0
 11
289.1941619283951
 21
1600.912194468807
 31
0.0
  0
LINE
  5
10F1
330
24E4
100
AcDbEntity
  8
DETAIL
  6
Continuous
 62
     5
100
AcDbLine
 10
258.1433948190086
 20
1609.828255921717
 30
0.0
 11
286.7129249896951
 21
1609.828255921717
 31
0.0
  0
LINE
  5
10F2
330
24E4
100
AcDbEntity
  8
DETAIL
  6
Continuous
 62
     5
100
AcDbLine
 10
290.7117857610263
 20
1609.828255921717
 30
0.0
 11
317.972451835302
 21
1609.828255921717
 31
0.0
  0
LINE
  5
10F3
330
24E4
100
AcDbEntity
  8
DETAIL
  6
Continuous
 62
     5
100
AcDbLine
 10
293.2106146517497
 20
1600.912194468807
 30
0.0
 11
320.6964462794047
 21
1600.912194468807
 31
0.0
  0
LINE
  5
10F4
330
24E4
100
AcDbEntity
  8
DETAIL
  6
Continuous
 62
     5
100
AcDbLine
 10
321.7683263461502
 20
1609.828255921717
 30
0.0
 11
348.3202951248021
 21
1609.828255921717
 31
0.0
  0
LINE
  5
10F5
330
24E4
100
AcDbEntity
  8
DETAIL
  6
Continuous
 62
     5
100
AcDbLine
 10
324.5215883107729
 20
1600.912194468807
 30
0.0
 11
351.5742786456174
 21
1600.912194468807
 31
0.0
  0
LINE
  5
10F6
330
24E4
100
AcDbEntity
  8
DETAIL
  6
Continuous
 62
     5
100
AcDbLine
 10
154.5056755762395
 20
1600.912194468807
 30
0.0
 11
186.382221204082
 21
1600.912194468807
 31
0.0
  0
LINE
  5
10F7
330
24E4
100
AcDbEntity
  8
DETAIL
  6
Continuous
 62
     5
100
AcDbLine
 10
153.1002629599732
 20
1609.828255921717
 30
0.0
 11
184.7137438818851
 21
1609.828255921717
 31
0.0
  0
LINE
  5
10F8
330
24E4
100
AcDbEntity
  8
DETAIL
  6
Continuous
 62
     5
100
AcDbLine
 10
190.8764004623424
 20
1600.912194468807
 30
0.0
 11
221.873134126871
 21
1600.912194468807
 31
0.0
  0
LINE
  5
10F9
330
24E4
100
AcDbEntity
  8
DETAIL
  6
Continuous
 62
     5
100
AcDbLine
 10
189.1718246260777
 20
1609.828255921717
 30
0.0
 11
219.9208133024356
 21
1609.828255921717
 31
0.0
  0
ARC
  5
10FA
330
24E4
100
AcDbEntity
  8
DETAIL
  6
Continuous
 62
     5
100
AcDbCircle
 10
-109.4749265426228
 20
1544.78133447177
 30
0.0
 40
224.5634398855711
100
AcDbArc
 50
152.0599489999763
 51
178.4429870000024
  0
ARC
  5
10FB
330
24E4
100
AcDbEntity
  8
DETAIL
  6
Continuous
 62
     5
100
AcDbCircle
 10
-105.5756296460324
 20
1545.238182174904
 30
0.0
 40
224.3361878780887
100
AcDbArc
 50
152.1611970000317
 51
178.5581309999846
  0
LINE
  5
10FC
330
24E4
100
AcDbEntity
  8
DETAIL
  6
Continuous
 62
     5
100
AcDbLine
 10
-326.9101246138209
 20
1600.912194468807
 30
0.0
 11
-351.5742725279217
 21
1600.912194468807
 31
0.0
  0
LINE
  5
10FD
330
24E4
100
AcDbEntity
  8
DETAIL
  6
Continuous
 62
     5
100
AcDbLine
 10
-324.4112814323136
 20
1609.828255921717
 30
0.0
 11
-348.3202883929873
 21
1609.828255921717
 31
0.0
  0
LINE
  5
10FE
330
24E4
100
AcDbEntity
  8
DETAIL
  6
Continuous
 62
     5
100
AcDbLine
 10
-74.81512259978828
 20
1600.912194468807
 30
0.0
 11
-108.3749936718024
 21
1600.912194468807
 31
0.0
  0
LINE
  5
10FF
330
24E4
100
AcDbEntity
  8
DETAIL
  6
Continuous
 62
     5
100
AcDbLine
 10
-74.33465223482311
 20
1609.828255921717
 30
0.0
 11
-107.6173250180011
 21
1609.828255921717
 31
0.0
  0
ARC
  5
1100
330
24E4
100
AcDbEntity
  8
DETAIL
  6
Continuous
 62
     5
100
AcDbCircle
 10
990.4051684288402
 20
1547.98004009589
 30
0.0
 40
1066.534614203588
100
AcDbArc
 50
174.5109499999927
 51
179.8440439999897
  0
ARC
  5
1101
330
24E4
100
AcDbEntity
  8
DETAIL
  6
Continuous
 62
     5
100
AcDbCircle
 10
1091.186431973734
 20
1547.996274423677
 30
0.0
 40
1162.391731747081
100
AcDbArc
 50
174.9656319999993
 51
179.8577049999801
  0
ARC
  5
1102
330
24E4
100
AcDbEntity
  8
DETAIL
  6
Continuous
 62
     5
100
AcDbCircle
 10
-348.7209439982846
 20
1547.535682535794
 30
0.0
 40
469.0715946159794
100
AcDbArc
 50
0.4088809999997679
 51
12.61745900000935
  0
ARC
  5
1103
330
24E4
100
AcDbEntity
  8
DETAIL
  6
Continuous
 62
     5
100
AcDbCircle
 10
-369.8369170044327
 20
1547.573295872709
 30
0.0
 40
485.3800486885951
100
AcDbArc
 50
0.3907019999886263
 51
12.18234700000707
  0
ARC
  5
1104
330
24E4
100
AcDbEntity
  8
DETAIL
  6
Continuous
 62
     5
100
AcDbCircle
 10
-565.0177812871853
 20
1547.800547880193
 30
0.0
 40
646.6473450570974
100
AcDbArc
 50
0.2731279999769134
 51
9.093442999977369
  0
ARC
  5
1105
330
24E4
100
AcDbEntity
  8
DETAIL
  6
Continuous
 62
     5
100
AcDbCircle
 10
-602.8521823057537
 20
1547.8277432374
 30
0.0
 40
679.6040736957214
100
AcDbArc
 50
0.2575899999751675
 51
8.646677000010074
  0
ARC
  5
1106
330
24E4
100
AcDbEntity
  8
DETAIL
  6
Continuous
 62
     5
100
AcDbCircle
 10
-1024.104678390912
 20
1547.98004009589
 30
0.0
 40
1066.534614203588
100
AcDbArc
 50
0.1559560000103132
 51
5.489050000007288
  0
ARC
  5
1107
330
24E4
100
AcDbEntity
  8
DETAIL
  6
Continuous
 62
     5
100
AcDbCircle
 10
-1124.885927645018
 20
1547.996274423677
 30
0.0
 40
1162.391731747081
100
AcDbArc
 50
0.1422950000199107
 51
5.034368000000501
  0
LINE
  5
1108
330
24E4
100
AcDbEntity
  8
DETAIL
  6
Continuous
 62
     5
100
AcDbLine
 10
2.342939732669718
 20
1609.828255921717
 30
0.0
 11
35.86009199480282
 21
1609.828255921717
 31
0.0
  0
LINE
  5
1109
330
24E4
100
AcDbEntity
  8
DETAIL
  6
Continuous
 62
     5
100
AcDbLine
 10
2.342939732669718
 20
1600.912194468807
 30
0.0
 11
36.30071966092396
 21
1600.912194468807
 31
0.0
  0
LINE
  5
110A
330
24E4
100
AcDbEntity
  8
DETAIL
  6
Continuous
 62
     5
100
AcDbLine
 10
41.11561263771524
 20
1600.912194468807
 30
0.0
 11
74.67548370973121
 21
1600.912194468807
 31
0.0
  0
LINE
  5
110B
330
24E4
100
AcDbEntity
  8
DETAIL
  6
Continuous
 62
     5
100
AcDbLine
 10
40.63514227276278
 20
1609.828255921717
 30
0.0
 11
73.91782934671003
 21
1609.828255921717
 31
0.0
  0
LINE
  5
110C
330
24E4
100
AcDbEntity
  8
DETAIL
  6
Continuous
 62
     5
100
AcDbLine
 10
78.64777791824757
 20
1609.828255921717
 30
0.0
 11
111.5341673303026
 21
1609.828255921717
 31
0.0
  0
LINE
  5
110D
330
24E4
100
AcDbEntity
  8
DETAIL
  6
Continuous
 62
     5
100
AcDbLine
 10
79.44474622117446
 20
1600.912194468807
 30
0.0
 11
112.6035036379313
 21
1600.912194468807
 31
0.0
  0
LINE
  5
110E
330
24E4
100
AcDbEntity
  8
DETAIL
  6
Continuous
 62
     5
100
AcDbLine
 10
-2.455022332012275
 20
1609.828255921717
 30
0.0
 11
-31.11148932263518
 21
1609.828255921717
 31
0.0
  0
LINE
  5
110F
330
24E4
100
AcDbEntity
  8
DETAIL
  6
Continuous
 62
     5
100
AcDbLine
 10
-2.342939732670173
 20
1600.912194468807
 30
0.0
 11
-31.50883937801177
 21
1600.912194468807
 31
0.0
  0
LINE
  5
1110
330
24E4
100
AcDbEntity
  8
DETAIL
  6
Continuous
 62
     5
100
AcDbLine
 10
-36.04248890311395
 20
1609.828255921717
 30
0.0
 11
-69.55960195687407
 21
1609.828255921717
 31
0.0
  0
LINE
  5
1111
330
24E4
100
AcDbEntity
  8
DETAIL
  6
Continuous
 62
     5
100
AcDbLine
 10
-36.20303154253747
 20
1600.912194468807
 30
0.0
 11
-70.00022962299522
 21
1600.912194468807
 31
0.0
  0
ARC
  5
1112
330
24E4
100
AcDbEntity
  8
DETAIL
  6
Continuous
 62
     5
100
AcDbCircle
 10
6.182125938283888
 20
1546.288083019688
 30
0.0
 40
271.6611540568262
100
AcDbArc
 50
157.5566810000301
 51
179.0308249999773
  0
ARC
  5
1113
330
24E4
100
AcDbEntity
  8
DETAIL
  6
Continuous
 62
     5
100
AcDbCircle
 10
14.93432929046571
 20
1546.351834195971
 30
0.0
 40
275.9544335087106
100
AcDbArc
 50
157.9386789999585
 51
179.0591440000055
  0
ARC
  5
1114
330
24E4
100
AcDbEntity
  8
DETAIL
  6
Continuous
 62
     5
100
AcDbCircle
 10
82.78237253230122
 20
1546.772011753765
 30
0.0
 40
312.0901750745425
100
AcDbArc
 50
160.6848940000014
 51
179.245237000009
  0
ARC
  5
1115
330
24E4
100
AcDbEntity
  8
DETAIL
  6
Continuous
 62
     5
100
AcDbCircle
 10
93.59394895317269
 20
1546.828088780383
 30
0.0
 40
318.3041212698312
100
AcDbArc
 50
161.0871340000078
 51
179.2700670000102
  0
ARC
  5
1116
330
24E4
100
AcDbEntity
  8
DETAIL
  6
Continuous
 62
     5
100
AcDbCircle
 10
183.240078493144
 20
1546.931153896598
 30
0.0
 40
375.3472190134157
100
AcDbArc
 50
164.0620659999842
 51
179.396736000018
  0
ARC
  5
1117
330
24E4
100
AcDbEntity
  8
DETAIL
  6
Continuous
 62
     5
100
AcDbCircle
 10
189.5811126083559
 20
1547.89163732151
 30
0.0
 40
376.9662216500445
100
AcDbArc
 50
164.2840369999913
 51
179.5453179999809
  0
ARC
  5
1118
330
24E4
100
AcDbEntity
  8
DETAIL
  6
Continuous
 62
     5
100
AcDbCircle
 10
315.0214483269935
 20
1547.535682535794
 30
0.0
 40
469.0715946159794
100
AcDbArc
 50
167.3825409999906
 51
179.5911190000002
  0
ARC
  5
1119
330
24E4
100
AcDbEntity
  8
DETAIL
  6
Continuous
 62
     5
100
AcDbCircle
 10
336.1374070423615
 20
1547.573295872709
 30
0.0
 40
485.3800486885951
100
AcDbArc
 50
167.8176529999929
 51
179.6092980000114
  0
ARC
  5
111A
330
24E4
100
AcDbEntity
  8
DETAIL
  6
Continuous
 62
     5
100
AcDbCircle
 10
531.3182713251141
 20
1547.800547880193
 30
0.0
 40
646.6473450570974
100
AcDbArc
 50
170.9065570000225
 51
179.7268720000231
  0
ARC
  5
111B
330
24E4
100
AcDbEntity
  8
DETAIL
  6
Continuous
 62
     5
100
AcDbCircle
 10
569.1526723436814
 20
1547.8277432374
 30
0.0
 40
679.6040736957214
100
AcDbArc
 50
171.3533229999899
 51
179.7424100000248
  0
ARC
  5
111C
330
24E4
100
AcDbEntity
  8
DETAIL
  6
Continuous
 62
     5
100
AcDbCircle
 10
-50.00736913527203
 20
1545.81840219476
 30
0.0
 40
246.1368036445528
100
AcDbArc
 50
154.9589890000051
 51
178.8209589999854
  0
ARC
  5
111D
330
24E4
100
AcDbEntity
  8
DETAIL
  6
Continuous
 62
     5
100
AcDbCircle
 10
-57.40304863471942
 20
1545.748220166788
 30
0.0
 40
243.0396911861464
100
AcDbArc
 50
154.5990900000138
 51
178.7893799999913
  0
LINE
  5
111E
330
24E4
100
AcDbEntity
  8
DETAIL
  6
Continuous
 62
     5
100
AcDbLine
 10
-188.2051855383117
 20
1600.912194468807
 30
0.0
 11
-220.0817168753649
 21
1600.912194468807
 31
0.0
  0
LINE
  5
111F
330
24E4
100
AcDbEntity
  8
DETAIL
  6
Continuous
 62
     5
100
AcDbLine
 10
-186.7997729220453
 20
1609.828255921717
 30
0.0
 11
-218.4132538439565
 21
1609.828255921717
 31
0.0
  0
LINE
  5
1120
330
24E4
100
AcDbEntity
  8
DETAIL
  6
Continuous
 62
     5
100
AcDbLine
 10
-112.3472878803233
 20
1609.828255921717
 30
0.0
 11
-145.2336772923747
 21
1609.828255921717
 31
0.0
  0
LINE
  5
1121
330
24E4
100
AcDbEntity
  8
DETAIL
  6
Continuous
 62
     5
100
AcDbLine
 10
-113.1442418924718
 20
1600.912194468807
 30
0.0
 11
-146.3030136000027
 21
1600.912194468807
 31
0.0
  0
LINE
  5
1122
330
24E4
100
AcDbEntity
  8
DETAIL
  6
Continuous
 62
     5
100
AcDbLine
 10
-151.0033516722626
 20
1600.912194468807
 30
0.0
 11
-183.6377946063995
 21
1600.912194468807
 31
0.0
  0
LINE
  5
1123
330
24E4
100
AcDbEntity
  8
DETAIL
  6
Continuous
 62
     5
100
AcDbLine
 10
-149.895544580818
 20
1609.828255921717
 30
0.0
 11
-182.2621211064408
 21
1609.828255921717
 31
0.0
  0
LINE
  5
1124
330
24E4
100
AcDbEntity
  8
DETAIL
  6
Continuous
 62
     5
100
AcDbLine
 10
-224.5759104244146
 20
1600.912194468807
 30
0.0
 11
-255.5726297981575
 21
1600.912194468807
 31
0.0
  0
LINE
  5
1125
330
24E4
100
AcDbEntity
  8
DETAIL
  6
Continuous
 62
     5
100
AcDbLine
 10
-222.8713202973642
 20
1609.828255921717
 30
0.0
 11
-253.6203089737184
 21
1609.828255921717
 31
0.0
  0
LINE
  5
1126
330
24E4
100
AcDbEntity
  8
DETAIL
  6
Continuous
 62
     5
100
AcDbLine
 10
-257.943656229888
 20
1609.828255921717
 30
0.0
 11
-287.6753556248597
 21
1609.828255921717
 31
0.0
  0
LINE
  5
1127
330
24E4
100
AcDbEntity
  8
DETAIL
  6
Continuous
 62
     5
100
AcDbLine
 10
-259.9306036179089
 20
1600.912194468807
 30
0.0
 11
-289.8990155177246
 21
1600.912194468807
 31
0.0
  0
LINE
  5
1128
330
24E4
100
AcDbEntity
  8
DETAIL
  6
Continuous
 62
     5
100
AcDbLine
 10
-294.0995335068594
 20
1600.912194468807
 30
0.0
 11
-322.8936718904672
 21
1600.912194468807
 31
0.0
  0
LINE
  5
1129
330
24E4
100
AcDbEntity
  8
DETAIL
  6
Continuous
 62
     5
100
AcDbLine
 10
-291.8428904902914
 20
1609.828255921717
 30
0.0
 11
-320.4124349517673
 21
1609.828255921717
 31
0.0
  0
LINE
  5
112A
330
24E4
100
AcDbEntity
  8
DETAIL
  6
Continuous
 62
     5
100
AcDbLine
 10
-33.77935698839632
 20
1549.964486597146
 30
0.0
 11
-29.32121143109566
 21
1649.999957127664
 31
0.0
  0
LINE
  5
112B
330
24E4
100
AcDbEntity
  8
DETAIL
  6
Continuous
 62
     5
100
AcDbLine
 10
-38.71642781613923
 20
1549.828255047746
 30
0.0
 11
-34.25828225883856
 21
1649.863725578266
 31
0.0
  0
LINE
  5
112C
330
24E4
100
AcDbEntity
  8
DETAIL
  6
Continuous
 62
     5
100
AcDbLine
 10
2.342939732669718
 20
1649.999957127664
 30
0.0
 11
2.342939732669718
 21
1549.964486597146
 31
0.0
  0
LINE
  5
112D
330
24E4
100
AcDbEntity
  8
DETAIL
  6
Continuous
 62
     5
100
AcDbLine
 10
-2.342970979478421
 20
1649.999957127664
 30
0.0
 11
-2.342970979478421
 21
1549.964486597146
 31
0.0
  0
LINE
  5
1140
330
24E4
100
AcDbEntity
  8
NOTE
  6
Continuous
 62
     4
100
AcDbLine
 10
1374.014465564345
 20
997.6255614713631
 30
0.0
 11
684.1475457470165
 21
997.6255614713631
 31
0.0
  0
LINE
  5
1141
330
24E4
100
AcDbEntity
  8
NOTE
  6
Continuous
 62
     4
100
AcDbLine
 10
681.0529238953189
 20
696.5002602288702
 30
0.0
 11
1371.56415123707
 21
696.5002602288702
 31
0.0
  0
TEXT
  5
1142
330
24E4
100
AcDbEntity
  8
NOTE
  6
Continuous
 62
     4
100
AcDbText
 10
705.9785058876992
 20
1028.946551025316
 30
0.0
 40
50.0
  1
温水出口〈R1-1/4B〉
100
AcDbText
  0
TEXT
  5
1143
330
24E4
100
AcDbEntity
  8
NOTE
  6
Continuous
 62
     4
100
AcDbText
 10
703.526651680218
 20
725.1875526784689
 30
0.0
 40
50.0
  1
温水入口〈R1-1/4B〉
100
AcDbText
  0
LINE
  5
114C
330
24E4
100
AcDbEntity
  8
NOTE
  6
Continuous
 62
     4
100
AcDbLine
 10
-361.5000000000057
 20
-0.0000000000107008
 30
0.0
 11
-392.7171485314951
 21
-11.68763539480165
 31
0.0
  0
LINE
  5
114D
330
24E4
100
AcDbEntity
  8
NOTE
  6
Continuous
 62
     4
100
AcDbLine
 10
-361.5000000000057
 20
-0.0000000000107008
 30
0.0
 11
-382.6910259198541
 21
-25.73036377127574
 31
0.0
  0
LINE
  5
114E
330
24E4
100
AcDbEntity
  8
NOTE
  6
Continuous
 62
     4
100
AcDbLine
 10
365.5000000000107
 20
155.000000000016
 30
0.0
 11
389.3007269096998
 21
178.3374502062639
 31
0.0
  0
LINE
  5
114F
330
24E4
100
AcDbEntity
  8
NOTE
  6
Continuous
 62
     4
100
AcDbLine
 10
365.5000000000107
 20
155.000000000016
 30
0.0
 11
374.4433088491047
 21
187.1111884888759
 31
0.0
  0
LINE
  5
1156
330
24E4
100
AcDbEntity
  8
NOTE
  6
Continuous
 62
     4
100
AcDbLine
 10
365.4999999999989
 20
621.0000000000064
 30
0.0
 11
393.0553108219863
 21
639.7567595565588
 31
0.0
  0
LINE
  5
1157
330
24E4
100
AcDbEntity
  8
NOTE
  6
Continuous
 62
     4
100
AcDbLine
 10
365.4999999999989
 20
621.0000000000064
 30
0.0
 11
379.9852192778342
 21
651.0214860027072
 31
0.0
  0
LINE
  5
1195
330
24E4
100
AcDbEntity
  8
SIZE
  6
Continuous
 62
    30
100
AcDbLine
 10
365.5000000000052
 20
213.2972188428305
 30
0.0
 11
365.5000000000052
 21
828.7736659274358
 31
0.0
  0
LINE
  5
1196
330
24E4
100
AcDbEntity
  8
SIZE
  6
Continuous
 62
    30
100
AcDbLine
 10
375.5000000000007
 20
78.52075026035567
 30
0.0
 11
375.4999999999997
 21
828.7736659274358
 31
0.0
  0
LINE
  5
1197
330
24E4
100
AcDbEntity
  8
SIZE
  6
Continuous
 62
    30
100
AcDbLine
 10
355.5000000000052
 20
813.7736659274358
 30
0.0
 11
345.5000000000052
 21
813.7736659274358
 31
0.0
  0
LINE
  5
1198
330
24E4
100
AcDbEntity
  8
SIZE
  6
Continuous
 62
    30
100
AcDbLine
 10
385.5000000000007
 20
813.7736659274358
 30
0.0
 11
452.0354093524306
 21
813.7736659274358
 31
0.0
  0
LINE
  5
1199
330
24E4
100
AcDbEntity
  8
SIZE
  6
Continuous
 62
    30
100
AcDbLine
 10
365.5000000000052
 20
813.7736659274358
 30
0.0
 11
375.4999999999997
 21
813.7736659274358
 31
0.0
  0
TEXT
  5
119F
330
24E4
100
AcDbEntity
  8
SIZE
  6
Continuous
 62
    30
100
AcDbText
 10
396.4317912364706
 20
821.6762485168546
 30
0.0
 40
40.0
  1
10
 41
0.9
 72
     1
 11
422.1460769507563
 21
821.6762485168546
 31
0.0
100
AcDbText
  0
CIRCLE
  5
11A0
330
24E4
100
AcDbEntity
  8
SIZE
  6
ByBlock
 62
    30
100
AcDbCircle
 10
375.4999999999997
 20
813.7736659274358
 30
0.0
 40
5.0
  0
LINE
  5
11A1
330
24E4
100
AcDbEntity
  8
SIZE
  6
ByBlock
 62
    30
100
AcDbLine
 10
380.4999999999997
 20
813.7736659274358
 30
0.0
 11
385.5000000000007
 21
813.7736659274358
 31
0.0
  0
CIRCLE
  5
11A2
330
24E4
100
AcDbEntity
  8
SIZE
  6
ByBlock
 62
    30
100
AcDbCircle
 10
365.5000000000052
 20
813.7736659274358
 30
0.0
 40
5.0
  0
LINE
  5
11A3
330
24E4
100
AcDbEntity
  8
SIZE
  6
ByBlock
 62
    30
100
AcDbLine
 10
360.5000000000054
 20
813.7736659274358
 30
0.0
 11
355.5000000000052
 21
813.7736659274358
 31
0.0
  0
ENDSEC
  0
SECTION
  2
OBJECTS
  0
DICTIONARY
  5
2481
330
0
100
AcDbDictionary
281
     1
  3
ACAD_CIP_PREVIOUS_PRODUCT_INFO
350
250D
  3
ACAD_COLOR
350
24D7
  3
ACAD_DETAILVIEWSTYLE
350
24DE
  3
ACAD_GROUP
350
2482
  3
ACAD_LAYOUT
350
24D6
  3
ACAD_MATERIAL
350
2485
  3
ACAD_MLEADERSTYLE
350
24DA
  3
ACAD_MLINESTYLE
350
24D3
  3
ACAD_PLOTSETTINGS
350
24D5
  3
ACAD_PLOTSTYLENAME
350
2483
  3
ACAD_SCALELIST
350
24B7
  3
ACAD_SECTIONVIEWSTYLE
350
24DC
  3
ACAD_TABLESTYLE
350
24D8
  3
ACAD_VISUALSTYLE
350
249E
  3
ACDB_RECOMPOSE_DATA
350
2533
  3
AcDbVariableDictionary
350
2526
  3
DWGPROPS
350
2534
  0
DICTIONARY
  5
2510
330
24C9
100
AcDbDictionary
280
     1
281
     1
  3
ADSK_XREC_LAYER_RECONCILED
360
2511
  0
DICTIONARY
  5
2512
330
24E8
100
AcDbDictionary
280
     1
281
     1
  3
ADSK_XREC_LAYER_RECONCILED
360
2513
  0
DICTIONARY
  5
2514
330
24EB
100
AcDbDictionary
280
     1
281
     1
  3
ADSK_XREC_LAYER_RECONCILED
360
2515
  0
DICTIONARY
  5
2516
330
24EC
100
AcDbDictionary
280
     1
281
     1
  3
ADSK_XREC_LAYER_RECONCILED
360
2517
  0
DICTIONARY
  5
2518
330
24ED
100
AcDbDictionary
280
     1
281
     1
  3
ADSK_XREC_LAYER_RECONCILED
360
2519
  0
DICTIONARY
  5
251A
330
24EE
100
AcDbDictionary
280
     1
281
     1
  3
ADSK_XREC_LAYER_RECONCILED
360
251B
  0
DICTIONARY
  5
251C
330
24EF
100
AcDbDictionary
280
     1
281
     1
  3
ADSK_XREC_LAYER_RECONCILED
360
251D
  0
DICTIONARY
  5
251E
330
24F0
100
AcDbDictionary
280
     1
281
     1
  3
ADSK_XREC_LAYER_RECONCILED
360
251F
  0
DICTIONARY
  5
2520
330
24F1
100
AcDbDictionary
280
     1
281
     1
  3
ADSK_XREC_LAYER_RECONCILED
360
2521
  0
DICTIONARY
  5
2522
330
24F2
100
AcDbDictionary
280
     1
281
     1
  3
ADSK_XREC_LAYER_RECONCILED
360
2523
  0
DICTIONARY
  5
2524
330
24F3
100
AcDbDictionary
280
     1
281
     1
  3
ADSK_XREC_LAYER_RECONCILED
360
2525
  0
XRECORD
  5
250D
102
{ACAD_REACTORS
330
2481
102
}
330
2481
100
AcDbXrecord
280
     1
300
ACD
300
2022
300
87545ACD_2022_0F
  0
DICTIONARY
  5
24D7
102
{ACAD_REACTORS
330
2481
102
}
330
2481
100
AcDbDictionary
281
     1
  0
DICTIONARY
  5
24DE
102
{ACAD_REACTORS
330
2481
102
}
330
2481
100
AcDbDictionary
281
     1
  3
Imperial24
350
24DF
  0
DICTIONARY
  5
2482
102
{ACAD_REACTORS
330
2481
102
}
330
2481
100
AcDbDictionary
281
     1
  0
DICTIONARY
  5
24D6
102
{ACAD_REACTORS
330
2481
102
}
330
2481
100
AcDbDictionary
281
     1
  3
Model
350
24E7
  3
レイアウト1
350
24E3
  0
DICTIONARY
  5
2485
102
{ACAD_REACTORS
330
2481
102
}
330
2481
100
AcDbDictionary
281
     1
  3
ByBlock
350
248E
  3
ByLayer
350
2486
  3
Global
350
2496
  0
DICTIONARY
  5
24DA
102
{ACAD_REACTORS
330
2481
102
}
330
2481
100
AcDbDictionary
281
     1
  3
Standard
350
24DB
  0
DICTIONARY
  5
24D3
102
{ACAD_REACTORS
330
2481
102
}
330
2481
100
AcDbDictionary
281
     1
  3
Standard
350
24D4
  0
DICTIONARY
  5
24D5
102
{ACAD_REACTORS
330
2481
102
}
330
2481
100
AcDbDictionary
281
     1
  0
ACDBDICTIONARYWDFLT
  5
2483
102
{ACAD_REACTORS
330
2481
102
}
330
2481
100
AcDbDictionary
281
     1
  3
Normal
350
2484
100
AcDbDictionaryWithDefault
340
2484
  0
DICTIONARY
  5
24B7
102
{ACAD_REACTORS
330
2481
102
}
330
2481
100
AcDbDictionary
281
     1
  3
A0
350
24B8
  3
A1
350
24B9
  3
A2
350
24BA
  3
A3
350
24BB
  3
A4
350
24BC
  3
A5
350
24BD
  3
A6
350
24BE
  3
A7
350
24BF
  3
A8
350
24C0
  3
A9
350
24C1
  3
B0
350
24C2
  3
B1
350
24C3
  3
B2
350
24C4
  3
B3
350
24C5
  3
B4
350
24C6
  3
B5
350
24C7
  3
B6
350
24C8
  0
DICTIONARY
  5
24DC
102
{ACAD_REACTORS
330
2481
102
}
330
2481
100
AcDbDictionary
281
     1
  3
Imperial24
350
24DD
  0
DICTIONARY
  5
24D8
102
{ACAD_REACTORS
330
2481
102
}
330
2481
100
AcDbDictionary
281
     1
  3
Standard
350
24D9
  0
DICTIONARY
  5
249E
102
{ACAD_REACTORS
330
2481
102
}
330
2481
100
AcDbDictionary
281
     1
  3
2dWireframe
350
24A4
  3
Basic
350
24A3
  3
Brighten
350
24AA
  3
ColorChange
350
24AE
  3
Conceptual
350
24A7
  3
Dim
350
24A9
  3
EdgeColorOff
350
24B6
  3
Facepattern
350
24AD
  3
Flat
350
249F
  3
FlatWithEdges
350
24A0
  3
Gouraud
350
24A1
  3
GouraudWithEdges
350
24A2
  3
Hidden
350
24A6
  3
JitterOff
350
24B4
  3
Linepattern
350
24AC
  3
OverhangOff
350
24B5
  3
Realistic
350
24A8
  3
Shaded
350
24B3
  3
Shaded with edges
350
24B2
  3
Shades of Gray
350
24AF
  3
Sketchy
350
24B0
  3
Thicken
350
24AB
  3
Wireframe
350
24A5
  3
X-Ray
350
24B1
  0
XRECORD
  5
2533
102
{ACAD_REACTORS
330
2481
102
}
330
2481
100
AcDbXrecord
280
     1
 90
        1
330
24D9
  0
DICTIONARY
  5
2526
102
{ACAD_REACTORS
330
2481
102
}
330
2481
100
AcDbDictionary
281
     1
  3
CANNOSCALE
350
252B
  3
CMLEADERSTYLE
350
2528
  3
CTABLESTYLE
350
2527
  3
CVIEWDETAILSTYLE
350
2529
  3
CVIEWSECTIONSTYLE
350
252A
  3
DIMASSOC
350
252E
  3
INDEXCTL
350
252D
  3
SORTENTS
350
252C
  3
XCLIPFRAME
350
252F
  0
XRECORD
  5
2534
102
{ACAD_REACTORS
330
2481
102
}
330
2481
100
AcDbXrecord
280
     1
  1
DWGPROPS COOKIE
  2

  3

  4

  6

  7

  8
NU55418
  9

300
=
301
=
302
=
303
=
304
=
305
=
306
=
307
=
308
=
309
=
 40
9.845045405092593
 41
2449761.493611112
 42
2460108.411122686
  1

 90
        0
  0
XRECORD
  5
2511
102
{ACAD_REACTORS
330
2510
102
}
330
2510
100
AcDbXrecord
280
     1
290
     1
  0
XRECORD
  5
2513
102
{ACAD_REACTORS
330
2512
102
}
330
2512
100
AcDbXrecord
280
     1
290
     1
  0
XRECORD
  5
2515
102
{ACAD_REACTORS
330
2514
102
}
330
2514
100
AcDbXrecord
280
     1
290
     1
  0
XRECORD
  5
2517
102
{ACAD_REACTORS
330
2516
102
}
330
2516
100
AcDbXrecord
280
     1
290
     1
  0
XRECORD
  5
2519
102
{ACAD_REACTORS
330
2518
102
}
330
2518
100
AcDbXrecord
280
     1
290
     1
  0
XRECORD
  5
251B
102
{ACAD_REACTORS
330
251A
102
}
330
251A
100
AcDbXrecord
280
     1
290
     1
  0
XRECORD
  5
251D
102
{ACAD_REACTORS
330
251C
102
}
330
251C
100
AcDbXrecord
280
     1
290
     1
  0
XRECORD
  5
251F
102
{ACAD_REACTORS
330
251E
102
}
330
251E
100
AcDbXrecord
280
     1
290
     1
  0
XRECORD
  5
2521
102
{ACAD_REACTORS
330
2520
102
}
330
2520
100
AcDbXrecord
280
     1
290
     1
  0
XRECORD
  5
2523
102
{ACAD_REACTORS
330
2522
102
}
330
2522
100
AcDbXrecord
280
     1
290
     1
  0
XRECORD
  5
2525
102
{ACAD_REACTORS
330
2524
102
}
330
2524
100
AcDbXrecord
280
     1
290
     1
  0
ACDBDETAILVIEWSTYLE
  5
24DF
102
{ACAD_XDICTIONARY
360
256B
102
}
102
{ACAD_REACTORS
330
24DE
102
}
330
24DE
100
AcDbModelDocViewStyle
 70
     0
  3
Imperial24
290
     0
100
AcDbDetailViewStyle
 70
     0
 71
     0
 90
        3
 71
     1
340
24CA
 40
0.24
340
0
 40
0.24
300

 40
0.36
280
     3
 71
     2
340
24D1
 90
       25
 71
     3
340
24CA
 40
0.24
 90
        1
 40
0.75
 90
        1
300
%<\AcVar ViewType \f "%tc1">% %<\AcVar ViewDetailId>%\PSCALE %<\AcVar ViewScale \f "%sn">%
 71
     4
340
24D1
 90
       25
340
24D1
 90
       25
280
     0
  0
LAYOUT
  5
24E7
102
{ACAD_XDICTIONARY
360
256F
102
}
102
{ACAD_REACTORS
330
24D6
102
}
330
24D6
100
AcDbPlotSettings
  1

  2
FX C3376(5-6西内側 X032)64bit
  4

  6

 40
0.0
 41
0.0
 42
0.0
 43
0.0
 44
0.0
 45
0.0
 46
0.0
 47
0.0
 48
0.0
 49
0.0
140
0.0
141
0.0
142
1.0
143
1.0
 70
  1712
 72
     0
 73
     0
 74
     0
  7

 75
     0
147
1.0
148
0.0
149
0.0
100
AcDbLayout
  1
Model
 70
     1
 71
     0
 10
0.0
 20
0.0
 11
12.0
 21
9.0
 12
0.0
 22
0.0
 32
0.0
 14
0.0
 24
0.0
 34
0.0
 15
0.0
 25
0.0
 35
0.0
146
0.0
 13
0.0
 23
0.0
 33
0.0
 16
1.0
 26
0.0
 36
0.0
 17
0.0
 27
1.0
 37
0.0
 76
     0
330
24E4
331
24E9
  0
LAYOUT
  5
24E3
102
{ACAD_XDICTIONARY
360
256D
102
}
102
{ACAD_REACTORS
330
24D6
102
}
330
24D6
100
AcDbPlotSettings
  1

  2
FX C3376(5-6西内側 X032)64bit
  4

  6

 40
0.0
 41
0.0
 42
0.0
 43
0.0
 44
0.0
 45
0.0
 46
0.0
 47
0.0
 48
0.0
 49
0.0
140
0.0
141
0.0
142
1.0
143
1.0
 70
   688
 72
     0
 73
     0
 74
     5
  7

 75
    16
147
1.0
148
0.0
149
0.0
100
AcDbLayout
  1
レイアウト1
 70
     1
 71
     1
 10
0.0
 20
0.0
 11
12.0
 21
9.0
 12
0.0
 22
0.0
 32
0.0
 14
1.000000000000000E+20
 24
1.000000000000000E+20
 34
1.000000000000000E+20
 15
-1.000000000000000E+20
 25
-1.000000000000000E+20
 35
-1.000000000000000E+20
146
0.0
 13
0.0
 23
0.0
 33
0.0
 16
1.0
 26
0.0
 36
0.0
 17
0.0
 27
1.0
 37
0.0
 76
     0
330
24E0
  0
MATERIAL
  5
248E
102
{ACAD_XDICTIONARY
360
248F
102
}
102
{ACAD_REACTORS
330
2485
102
}
330
2485
100
AcDbMaterial
  1
ByBlock
 72
     0
 43
0.0208333333333333
 43
0.0
 43
0.0
 43
0.0
 43
0.0
 43
0.0208333333333333
 43
0.0
 43
0.0
 43
0.0
 43
0.0
 43
1.0
 43
0.0
 43
0.0
 43
0.0
 43
0.0
 43
1.0
 77
     0
 47
0.0208333333333333
 47
0.0
 47
0.0
 47
0.0
 47
0.0
 47
0.0208333333333333
 47
0.0
 47
0.0
 47
0.0
 47
0.0
 47
1.0
 47
0.0
 47
0.0
 47
0.0
 47
0.0
 47
1.0
171
     0
 49
0.0208333333333333
 49
0.0
 49
0.0
 49
0.0
 49
0.0
 49
0.0208333333333333
 49
0.0
 49
0.0
 49
0.0
 49
0.0
 49
1.0
 49
0.0
 49
0.0
 49
0.0
 49
0.0
 49
1.0
175
     0
142
0.0208333333333333
142
0.0
142
0.0
142
0.0
142
0.0
142
0.0208333333333333
142
0.0
142
0.0
142
0.0
142
0.0
142
1.0
142
0.0
142
0.0
142
0.0
142
0.0
142
1.0
179
     0
144
0.0208333333333333
144
0.0
144
0.0
144
0.0
144
0.0
144
0.0208333333333333
144
0.0
144
0.0
144
0.0
144
0.0
144
1.0
144
0.0
144
0.0
144
0.0
144
0.0
144
1.0
147
0.0208333333333333
147
0.0
147
0.0
147
0.0
147
0.0
147
0.0208333333333333
147
0.0
147
0.0
147
0.0
147
0.0
147
1.0
147
0.0
147
0.0
147
0.0
147
0.0
147
1.0
  0
MATERIAL
  5
2486
102
{ACAD_XDICTIONARY
360
2487
102
}
102
{ACAD_REACTORS
330
2485
102
}
330
2485
100
AcDbMaterial
  1
ByLayer
 72
     0
 43
0.0208333333333333
 43
0.0
 43
0.0
 43
0.0
 43
0.0
 43
0.0208333333333333
 43
0.0
 43
0.0
 43
0.0
 43
0.0
 43
1.0
 43
0.0
 43
0.0
 43
0.0
 43
0.0
 43
1.0
 77
     0
 47
0.0208333333333333
 47
0.0
 47
0.0
 47
0.0
 47
0.0
 47
0.0208333333333333
 47
0.0
 47
0.0
 47
0.0
 47
0.0
 47
1.0
 47
0.0
 47
0.0
 47
0.0
 47
0.0
 47
1.0
171
     0
 49
0.0208333333333333
 49
0.0
 49
0.0
 49
0.0
 49
0.0
 49
0.0208333333333333
 49
0.0
 49
0.0
 49
0.0
 49
0.0
 49
1.0
 49
0.0
 49
0.0
 49
0.0
 49
0.0
 49
1.0
175
     0
142
0.0208333333333333
142
0.0
142
0.0
142
0.0
142
0.0
142
0.0208333333333333
142
0.0
142
0.0
142
0.0
142
0.0
142
1.0
142
0.0
142
0.0
142
0.0
142
0.0
142
1.0
179
     0
144
0.0208333333333333
144
0.0
144
0.0
144
0.0
144
0.0
144
0.0208333333333333
144
0.0
144
0.0
144
0.0
144
0.0
144
1.0
144
0.0
144
0.0
144
0.0
144
0.0
144
1.0
147
0.0208333333333333
147
0.0
147
0.0
147
0.0
147
0.0
147
0.0208333333333333
147
0.0
147
0.0
147
0.0
147
0.0
147
1.0
147
0.0
147
0.0
147
0.0
147
0.0
147
1.0
  0
MATERIAL
  5
2496
102
{ACAD_XDICTIONARY
360
2497
102
}
102
{ACAD_REACTORS
330
2485
102
}
330
2485
100
AcDbMaterial
  1
Global
 72
     0
 43
0.0208333333333333
 43
0.0
 43
0.0
 43
0.0
 43
0.0
 43
0.0208333333333333
 43
0.0
 43
0.0
 43
0.0
 43
0.0
 43
1.0
 43
0.0
 43
0.0
 43
0.0
 43
0.0
 43
1.0
 77
     0
 47
0.0208333333333333
 47
0.0
 47
0.0
 47
0.0
 47
0.0
 47
0.0208333333333333
 47
0.0
 47
0.0
 47
0.0
 47
0.0
 47
1.0
 47
0.0
 47
0.0
 47
0.0
 47
0.0
 47
1.0
171
     0
 49
0.0208333333333333
 49
0.0
 49
0.0
 49
0.0
 49
0.0
 49
0.0208333333333333
 49
0.0
 49
0.0
 49
0.0
 49
0.0
 49
1.0
 49
0.0
 49
0.0
 49
0.0
 49
0.0
 49
1.0
175
     0
142
0.0208333333333333
142
0.0
142
0.0
142
0.0
142
0.0
142
0.0208333333333333
142
0.0
142
0.0
142
0.0
142
0.0
142
1.0
142
0.0
142
0.0
142
0.0
142
0.0
142
1.0
179
     0
144
0.0208333333333333
144
0.0
144
0.0
144
0.0
144
0.0
144
0.0208333333333333
144
0.0
144
0.0
144
0.0
144
0.0
144
1.0
144
0.0
144
0.0
144
0.0
144
0.0
144
1.0
147
0.0208333333333333
147
0.0
147
0.0
147
0.0
147
0.0
147
0.0208333333333333
147
0.0
147
0.0
147
0.0
147
0.0
147
1.0
147
0.0
147
0.0
147
0.0
147
0.0
147
1.0
  0
MLEADERSTYLE
  5
24DB
102
{ACAD_REACTORS
330
24DA
102
}
330
24DA
100
AcDbMLeaderStyle
170
     2
171
     1
172
     0
 90
        2
 40
0.0
 41
0.0
173
     1
 91
-1056964608
340
24CF
 92
       -2
290
     1
 42
0.09
291
     1
 43
0.36
  3
Standard
 44
0.18
300

342
24CA
174
     1
178
     6
175
     1
176
     0
 93
-1056964608
 45
0.18
292
     0
297
     0
 46
0.18
 94
-1056964608
 47
1.0
 49
1.0
140
1.0
293
     1
141
0.0
294
     1
177
     0
142
1.0
295
     0
296
     0
143
0.125
1001
ACAD_MLEADERVER
1070
     2
  0
MLINESTYLE
  5
24D4
102
{ACAD_REACTORS
330
24D3
102
}
330
24D3
100
AcDbMlineStyle
  2
STANDARD
 70
     0
  3

 62
   256
 51
90.0
 52
90.0
 71
     2
 49
0.5
 62
   256
  6
BYLAYER
 49
-0.5
 62
   256
  6
BYLAYER
  0
ACDBPLACEHOLDER
  5
2484
102
{ACAD_REACTORS
330
2483
102
}
330
2483
  0
SCALE
  5
24B8
102
{ACAD_REACTORS
330
24B7
102
}
330
24B7
100
AcDbScale
 70
     0
300
1:1
140
1.0
141
1.0
290
     1
  0
SCALE
  5
24B9
102
{ACAD_REACTORS
330
24B7
102
}
330
24B7
100
AcDbScale
 70
     0
300
1/128" = 1'-0"
140
0.0078125
141
12.0
290
     0
  0
SCALE
  5
24BA
102
{ACAD_REACTORS
330
24B7
102
}
330
24B7
100
AcDbScale
 70
     0
300
1/64" = 1'-0"
140
0.015625
141
12.0
290
     0
  0
SCALE
  5
24BB
102
{ACAD_REACTORS
330
24B7
102
}
330
24B7
100
AcDbScale
 70
     0
300
1/32" = 1'-0"
140
0.03125
141
12.0
290
     0
  0
SCALE
  5
24BC
102
{ACAD_REACTORS
330
24B7
102
}
330
24B7
100
AcDbScale
 70
     0
300
1/16" = 1'-0"
140
0.0625
141
12.0
290
     0
  0
SCALE
  5
24BD
102
{ACAD_REACTORS
330
24B7
102
}
330
24B7
100
AcDbScale
 70
     0
300
3/32" = 1'-0"
140
0.09375
141
12.0
290
     0
  0
SCALE
  5
24BE
102
{ACAD_REACTORS
330
24B7
102
}
330
24B7
100
AcDbScale
 70
     0
300
1/8" = 1'-0"
140
0.125
141
12.0
290
     0
  0
SCALE
  5
24BF
102
{ACAD_REACTORS
330
24B7
102
}
330
24B7
100
AcDbScale
 70
     0
300
3/16" = 1'-0"
140
0.1875
141
12.0
290
     0
  0
SCALE
  5
24C0
102
{ACAD_REACTORS
330
24B7
102
}
330
24B7
100
AcDbScale
 70
     0
300
1/4" = 1'-0"
140
0.25
141
12.0
290
     0
  0
SCALE
  5
24C1
102
{ACAD_REACTORS
330
24B7
102
}
330
24B7
100
AcDbScale
 70
     0
300
3/8" = 1'-0"
140
0.375
141
12.0
290
     0
  0
SCALE
  5
24C2
102
{ACAD_REACTORS
330
24B7
102
}
330
24B7
100
AcDbScale
 70
     0
300
1/2" = 1'-0"
140
0.5
141
12.0
290
     0
  0
SCALE
  5
24C3
102
{ACAD_REACTORS
330
24B7
102
}
330
24B7
100
AcDbScale
 70
     0
300
3/4" = 1'-0"
140
0.75
141
12.0
290
     0
  0
SCALE
  5
24C4
102
{ACAD_REACTORS
330
24B7
102
}
330
24B7
100
AcDbScale
 70
     0
300
1" = 1'-0"
140
1.0
141
12.0
290
     0
  0
SCALE
  5
24C5
102
{ACAD_REACTORS
330
24B7
102
}
330
24B7
100
AcDbScale
 70
     0
300
1-1/2" = 1'-0"
140
1.5
141
12.0
290
     0
  0
SCALE
  5
24C6
102
{ACAD_REACTORS
330
24B7
102
}
330
24B7
100
AcDbScale
 70
     0
300
3" = 1'-0"
140
3.0
141
12.0
290
     0
  0
SCALE
  5
24C7
102
{ACAD_REACTORS
330
24B7
102
}
330
24B7
100
AcDbScale
 70
     0
300
6" = 1'-0"
140
6.0
141
12.0
290
     0
  0
SCALE
  5
24C8
102
{ACAD_REACTORS
330
24B7
102
}
330
24B7
100
AcDbScale
 70
     0
300
1'-0" = 1'-0"
140
12.0
141
12.0
290
     0
  0
ACDBSECTIONVIEWSTYLE
  5
24DD
102
{ACAD_XDICTIONARY
360
2569
102
}
102
{ACAD_REACTORS
330
24DC
102
}
330
24DC
100
AcDbModelDocViewStyle
 70
     0
  3
Imperial24
290
     0
100
AcDbSectionViewStyle
 70
     0
 71
     0
 90
       78
 71
     1
340
24CA
 40
0.24
340
0
340
0
 40
0.24
300
I, O, Q, S, X, Z
 40
0.48
 90
        3
 40
0.18
 90
        1
 71
     2
340
24D1
 90
       25
340
24D1
 90
       50
 40
0.24
 40
0.0
 40
0.24
 71
     3
340
24CA
 40
0.24
 90
        1
 40
0.75
 90
        1
300
%<\AcVar ViewType \f "%tc1">% %<\AcVar ViewSectionStartId>%-%<\AcVar ViewSectionEndId>%\PSCALE %<\AcVar ViewScale \f "%sn">%
 71
     4
300
ANSI31
 40
1.0
 90
        0
290
     0
290
     0
 90
        6
 40
0.0
 40
1.570796326794896
 40
0.2617993877991494
 40
1.308996938995747
 40
-0.2617993877991494
 40
1.832595714594046
  0
TABLESTYLE
  5
24D9
102
{ACAD_XDICTIONARY
360
2531
102
}
102
{ACAD_REACTORS
330
24D8
102
}
330
24D8
100
AcDbTableStyle
  3
Standard
 70
     0
 71
     0
 40
0.06
 41
0.06
280
     0
281
     0
  7
STANDARD
140
0.18
170
     2
 62
     0
 63
     7
283
     0
274
    -2
284
     1
 64
     0
275
    -2
285
     1
 65
     0
276
    -2
286
     1
 66
     0
277
    -2
287
     1
 67
     0
278
    -2
288
     1
 68
     0
279
    -2
289
     1
 69
     0
  7
STANDARD
140
0.25
170
     5
 62
     0
 63
     7
283
     0
274
    -2
284
     1
 64
     0
275
    -2
285
     1
 65
     0
276
    -2
286
     1
 66
     0
277
    -2
287
     1
 67
     0
278
    -2
288
     1
 68
     0
279
    -2
289
     1
 69
     0
  7
STANDARD
140
0.18
170
     5
 62
     0
 63
     7
283
     0
274
    -2
284
     1
 64
     0
275
    -2
285
     1
 65
     0
276
    -2
286
     1
 66
     0
277
    -2
287
     1
 67
     0
278
    -2
288
     1
 68
     0
279
    -2
289
     1
 69
     0
  0
VISUALSTYLE
  5
24A4
102
{ACAD_XDICTIONARY
360
2542
102
}
102
{ACAD_REACTORS
330
249E
102
}
330
249E
100
AcDbVisualStyle
  2
2dWireframe
 70
     4
 71
     0
 72
     2
 73
     0
 90
        0
 40
-0.6
 41
-30.0
 62
     5
 63
     7
 74
     1
 91
        4
 64
     7
 65
   257
 75
     1
175
     1
 42
1.0
 92
        0
 66
   257
 43
1.0
 76
     1
 77
     6
 78
     2
 67
     7
 79
     5
170
     0
171
     0
290
     0
174
     0
 93
        1
 44
0.0
173
     0
291
     0
 45
0.0
1001
ACAD
1000
AcDbSavedByObjectVersion
1070
     0
  0
VISUALSTYLE
  5
24A3
102
{ACAD_XDICTIONARY
360
2540
102
}
102
{ACAD_REACTORS
330
249E
102
}
330
249E
100
AcDbVisualStyle
  2
Basic
 70
     7
 71
     1
 72
     0
 73
     1
 90
        0
 40
-0.6
 41
-30.0
 62
     5
 63
     7
 74
     0
 91
        4
 64
     7
 65
   257
 75
     1
175
     1
 42
1.0
 92
        8
 66
     7
 43
1.0
 76
     1
 77
     6
 78
     2
 67
     7
 79
     5
170
     0
171
     0
290
     0
174
     0
 93
        1
 44
0.0
173
     0
291
     1
 45
0.0
1001
ACAD
1000
AcDbSavedByObjectVersion
1070
     0
  0
VISUALSTYLE
  5
24AA
102
{ACAD_XDICTIONARY
360
254E
102
}
102
{ACAD_REACTORS
330
249E
102
}
330
249E
100
AcDbVisualStyle
  2
Brighten
 70
    12
 71
     2
 72
     2
 73
     0
 90
        0
 40
-0.6
 41
-30.0
 62
     5
 63
     7
 74
     1
 91
        4
 64
     7
 65
   257
 75
     1
175
     1
 42
1.0
 92
        8
 66
     7
 43
1.0
 76
     1
 77
     6
 78
     2
 67
     7
 79
     5
170
     0
171
     0
290
     0
174
     0
 93
        1
 44
50.0
173
     0
291
     1
 45
0.0
1001
ACAD
1000
AcDbSavedByObjectVersion
1070
     0
  0
VISUALSTYLE
  5
24AE
102
{ACAD_XDICTIONARY
360
2556
102
}
102
{ACAD_REACTORS
330
249E
102
}
330
249E
100
AcDbVisualStyle
  2
ColorChange
 70
    16
 71
     2
 72
     2
 73
     3
 90
        0
 40
-0.6
 41
-30.0
 62
     5
 63
     8
 74
     1
 91
        4
 64
     7
 65
   257
 75
     1
175
     1
 42
1.0
 92
        8
 66
     8
 43
1.0
 76
     1
 77
     6
 78
     2
 67
     7
 79
     5
170
     0
171
     0
290
     0
174
     0
 93
        1
 44
0.0
173
     0
291
     1
 45
0.0
1001
ACAD
1000
AcDbSavedByObjectVersion
1070
     0
  0
VISUALSTYLE
  5
24A7
102
{ACAD_XDICTIONARY
360
2548
102
}
102
{ACAD_REACTORS
330
249E
102
}
330
249E
100
AcDbVisualStyle
  2
Conceptual
 70
     9
 71
     3
 72
     2
 73
     0
 90
        0
 40
-0.6
 41
-30.0
 62
     5
 63
     7
 74
     2
 91
        2
 64
     7
 65
   257
 75
     1
175
     1
 42
179.0
 92
        8
 66
     7
 43
1.0
 76
     1
 77
     6
 78
     2
 67
     7
 79
     3
170
     0
171
     0
290
     0
174
     0
 93
        1
 44
0.0
173
     0
291
     0
 45
0.0
1001
ACAD
1000
AcDbSavedByObjectVersion
1070
     0
  0
VISUALSTYLE
  5
24A9
102
{ACAD_XDICTIONARY
360
254C
102
}
102
{ACAD_REACTORS
330
249E
102
}
330
249E
100
AcDbVisualStyle
  2
Dim
 70
    11
 71
     2
 72
     2
 73
     0
 90
        0
 40
-0.6
 41
-30.0
 62
     5
 63
     7
 74
     1
 91
        4
 64
     7
 65
   257
 75
     1
175
     1
 42
1.0
 92
        8
 66
     7
 43
1.0
 76
     1
 77
     6
 78
     2
 67
     7
 79
     5
170
     0
171
     0
290
     0
174
     0
 93
        1
 44
-50.0
173
     0
291
     1
 45
0.0
1001
ACAD
1000
AcDbSavedByObjectVersion
1070
     0
  0
VISUALSTYLE
  5
24B6
102
{ACAD_XDICTIONARY
360
2566
102
}
102
{ACAD_REACTORS
330
249E
102
}
330
249E
100
AcDbVisualStyle
  2
EdgeColorOff
 70
    22
 71
     2
 72
     2
 73
     0
 90
        0
 40
-0.6
 41
-30.0
 62
     5
 63
     7
 74
     1
 91
        4
 64
     7
 65
   257
 75
     1
175
     1
 42
1.0
 92
        8
 66
     7
 43
1.0
 76
     1
 77
     6
 78
     2
 67
     7
 79
     5
170
     0
171
     0
290
     0
174
     0
 93
        1
 44
0.0
173
     0
291
     1
 45
0.0
1001
ACAD
1000
AcDbSavedByObjectVersion
1070
     0
  0
VISUALSTYLE
  5
24AD
102
{ACAD_XDICTIONARY
360
2554
102
}
102
{ACAD_REACTORS
330
249E
102
}
330
249E
100
AcDbVisualStyle
  2
Facepattern
 70
    15
 71
     2
 72
     2
 73
     0
 90
        0
 40
-0.6
 41
-30.0
 62
     5
 63
     7
 74
     1
 91
        4
 64
     7
 65
   257
 75
     1
175
     1
 42
1.0
 92
        8
 66
     7
 43
1.0
 76
     1
 77
     6
 78
     2
 67
     7
 79
     5
170
     0
171
     0
290
     0
174
     0
 93
        1
 44
0.0
173
     0
291
     1
 45
0.0
1001
ACAD
1000
AcDbSavedByObjectVersion
1070
     0
  0
VISUALSTYLE
  5
249F
102
{ACAD_XDICTIONARY
360
2538
102
}
102
{ACAD_REACTORS
330
249E
102
}
330
249E
100
AcDbVisualStyle
  2
Flat
 70
     0
 71
     2
 72
     1
 73
     1
 90
        2
 40
-0.6
 41
30.0
 62
     5
 63
     7
 74
     0
 91
        0
 64
     7
 65
   257
 75
     1
175
     1
 42
1.0
 92
        8
 66
     7
 43
1.0
 76
     1
 77
     6
 78
     2
 67
     7
 79
     5
170
     0
171
     0
290
     0
174
     0
 93
       13
 44
0.0
173
     0
291
     1
 45
0.0
1001
ACAD
1000
AcDbSavedByObjectVersion
1070
     0
  0
VISUALSTYLE
  5
24A0
102
{ACAD_XDICTIONARY
360
253A
102
}
102
{ACAD_REACTORS
330
249E
102
}
330
249E
100
AcDbVisualStyle
  2
FlatWithEdges
 70
     1
 71
     2
 72
     1
 73
     1
 90
        2
 40
-0.6
 41
30.0
 62
     5
 63
     7
 74
     1
 91
        0
 64
     7
 65
   257
 75
     1
175
     1
 42
1.0
 92
        0
 66
   257
 43
1.0
 76
     1
 77
     6
 78
     2
 67
     7
 79
     5
170
     0
171
     0
290
     0
174
     0
 93
       13
 44
0.0
173
     0
291
     1
 45
0.0
1001
ACAD
1000
AcDbSavedByObjectVersion
1070
     0
  0
VISUALSTYLE
  5
24A1
102
{ACAD_XDICTIONARY
360
253C
102
}
102
{ACAD_REACTORS
330
249E
102
}
330
249E
100
AcDbVisualStyle
  2
Gouraud
 70
     2
 71
     2
 72
     2
 73
     1
 90
        2
 40
-0.6
 41
30.0
 62
     5
 63
     7
 74
     0
 91
        0
 64
     7
 65
   257
 75
     1
175
     1
 42
1.0
 92
        0
 66
     7
 43
1.0
 76
     1
 77
     6
 78
     2
 67
     7
 79
     5
170
     0
171
     0
290
     0
174
     0
 93
       13
 44
0.0
173
     0
291
     1
 45
0.0
1001
ACAD
1000
AcDbSavedByObjectVersion
1070
     0
  0
VISUALSTYLE
  5
24A2
102
{ACAD_XDICTIONARY
360
253E
102
}
102
{ACAD_REACTORS
330
249E
102
}
330
249E
100
AcDbVisualStyle
  2
GouraudWithEdges
 70
     3
 71
     2
 72
     2
 73
     1
 90
        2
 40
-0.6
 41
30.0
 62
     5
 63
     7
 74
     1
 91
        0
 64
     7
 65
   257
 75
     1
175
     1
 42
1.0
 92
        0
 66
   257
 43
1.0
 76
     1
 77
     6
 78
     2
 67
     7
 79
     5
170
     0
171
     0
290
     0
174
     0
 93
       13
 44
0.0
173
     0
291
     1
 45
0.0
1001
ACAD
1000
AcDbSavedByObjectVersion
1070
     0
  0
VISUALSTYLE
  5
24A6
102
{ACAD_XDICTIONARY
360
2546
102
}
102
{ACAD_REACTORS
330
249E
102
}
330
249E
100
AcDbVisualStyle
  2
Hidden
 70
     6
 71
     1
 72
     2
 73
     2
 90
        0
 40
-0.6
 41
-30.0
 62
     5
 63
     7
 74
     2
 91
        2
 64
     7
 65
   257
 75
     2
175
     1
 42
40.0
 92
        0
 66
   257
 43
1.0
 76
     1
 77
     6
 78
     2
 67
     7
 79
     3
170
     0
171
     0
290
     0
174
     0
 93
        1
 44
0.0
173
     0
291
     0
 45
0.0
1001
ACAD
1000
AcDbSavedByObjectVersion
1070
     0
  0
VISUALSTYLE
  5
24B4
102
{ACAD_XDICTIONARY
360
2562
102
}
102
{ACAD_REACTORS
330
249E
102
}
330
249E
100
AcDbVisualStyle
  2
JitterOff
 70
    20
 71
     2
 72
     2
 73
     0
 90
        0
 40
-0.6
 41
-30.0
 62
     5
 63
     7
 74
     1
 91
        4
 64
     7
 65
   257
 75
     1
175
     1
 42
1.0
 92
       10
 66
     7
 43
1.0
 76
     1
 77
     6
 78
     2
 67
     7
 79
     5
170
     0
171
     0
290
     0
174
     0
 93
        1
 44
0.0
173
     0
291
     1
 45
0.0
1001
ACAD
1000
AcDbSavedByObjectVersion
1070
     0
  0
VISUALSTYLE
  5
24AC
102
{ACAD_XDICTIONARY
360
2552
102
}
102
{ACAD_REACTORS
330
249E
102
}
330
249E
100
AcDbVisualStyle
  2
Linepattern
 70
    14
 71
     2
 72
     2
 73
     0
 90
        0
 40
-0.6
 41
-30.0
 62
     5
 63
     7
 74
     1
 91
        4
 64
     7
 65
   257
 75
     7
175
     7
 42
1.0
 92
        8
 66
     7
 43
1.0
 76
     1
 77
     6
 78
     2
 67
     7
 79
     5
170
     0
171
     0
290
     0
174
     0
 93
        1
 44
0.0
173
     0
291
     1
 45
0.0
1001
ACAD
1000
AcDbSavedByObjectVersion
1070
     0
  0
VISUALSTYLE
  5
24B5
102
{ACAD_XDICTIONARY
360
2564
102
}
102
{ACAD_REACTORS
330
249E
102
}
330
249E
100
AcDbVisualStyle
  2
OverhangOff
 70
    21
 71
     2
 72
     2
 73
     0
 90
        0
 40
-0.6
 41
-30.0
 62
     5
 63
     7
 74
     1
 91
        4
 64
     7
 65
   257
 75
     1
175
     1
 42
1.0
 92
        9
 66
     7
 43
1.0
 76
     1
 77
     6
 78
     2
 67
     7
 79
     5
170
     0
171
     0
290
     0
174
     0
 93
        1
 44
0.0
173
     0
291
     1
 45
0.0
1001
ACAD
1000
AcDbSavedByObjectVersion
1070
     0
  0
VISUALSTYLE
  5
24A8
102
{ACAD_XDICTIONARY
360
254A
102
}
102
{ACAD_REACTORS
330
249E
102
}
330
249E
100
AcDbVisualStyle
  2
Realistic
 70
     8
 71
     2
 72
     3
 73
     0
 90
        2
 40
-0.6
 41
30.0
 62
     5
 63
     7
 74
     0
 91
        0
 64
     7
 65
   257
 75
     1
175
     1
 42
1.0
 92
        8
 66
   257
 43
1.0
 76
     1
 77
     6
 78
     2
 67
     7
 79
     3
170
     0
171
     0
290
     0
174
     0
 93
       13
 44
0.0
173
     0
291
     0
 45
0.0
1001
ACAD
1000
AcDbSavedByObjectVersion
1070
     0
  0
VISUALSTYLE
  5
24B3
102
{ACAD_XDICTIONARY
360
2560
102
}
102
{ACAD_REACTORS
330
249E
102
}
330
249E
100
AcDbVisualStyle
  2
Shaded
 70
    27
 71
     2
 72
     2
 73
     1
 90
        2
 40
-0.6
 41
30.0
 62
     5
 63
     7
 74
     0
 91
        4
 64
     7
 65
   257
 75
     1
175
     1
 42
1.0
 92
        8
 66
   257
 43
1.0
 76
     1
 77
     6
 78
     2
 67
     8
 79
     3
170
     0
171
     0
290
     0
174
     0
 93
        5
 44
0.0
173
     0
291
     0
 45
0.0
1001
ACAD
1000
AcDbSavedByObjectVersion
1070
     0
  0
VISUALSTYLE
  5
24B2
102
{ACAD_XDICTIONARY
360
255E
102
}
102
{ACAD_REACTORS
330
249E
102
}
330
249E
100
AcDbVisualStyle
  2
Shaded with edges
 70
    26
 71
     2
 72
     2
 73
     1
 90
        2
 40
-0.6
 41
30.0
 62
     5
 63
     7
 74
     1
 91
        2
 64
     7
 65
   257
 75
     2
175
     1
 42
1.0
 92
        8
 66
   257
 43
1.0
 76
     1
 77
     6
 78
     2
 67
     7
 79
     3
170
     0
171
     0
290
     0
174
     0
 93
        5
 44
0.0
173
     0
291
     0
 45
0.0
1001
ACAD
1000
AcDbSavedByObjectVersion
1070
     0
  0
VISUALSTYLE
  5
24AF
102
{ACAD_XDICTIONARY
360
2558
102
}
102
{ACAD_REACTORS
330
249E
102
}
330
249E
100
AcDbVisualStyle
  2
Shades of Gray
 70
    23
 71
     2
 72
     2
 73
     3
 90
        0
 40
-0.6
 41
-30.0
 62
     5
 63
     7
 74
     2
 91
        2
 64
     7
 65
     7
 75
     1
175
     1
 42
40.0
 92
        8
 66
     7
 43
1.0
 76
     1
 77
     6
 78
     2
 67
     7
 79
     3
170
     0
171
     0
290
     0
174
     0
 93
        1
 44
0.0
173
     0
291
     0
 45
0.0
1001
ACAD
1000
AcDbSavedByObjectVersion
1070
     0
  0
VISUALSTYLE
  5
24B0
102
{ACAD_XDICTIONARY
360
255A
102
}
102
{ACAD_REACTORS
330
249E
102
}
330
249E
100
AcDbVisualStyle
  2
Sketchy
 70
    24
 71
     1
 72
     2
 73
     2
 90
        0
 40
-0.6
 41
-30.0
 62
     5
 63
     7
 74
     2
 91
        2
 64
     7
 65
     7
 75
     1
175
     1
 42
40.0
 92
       11
 66
     7
 43
1.0
 76
     1
 77
     6
 78
     2
 67
     7
 79
     6
170
     0
171
     0
290
     0
174
     0
 93
        1
 44
0.0
173
     0
291
     0
 45
0.0
1001
ACAD
1000
AcDbSavedByObjectVersion
1070
     0
  0
VISUALSTYLE
  5
24AB
102
{ACAD_XDICTIONARY
360
2550
102
}
102
{ACAD_REACTORS
330
249E
102
}
330
249E
100
AcDbVisualStyle
  2
Thicken
 70
    13
 71
     2
 72
     2
 73
     0
 90
        0
 40
-0.6
 41
-30.0
 62
     5
 63
     7
 74
     1
 91
        4
 64
     7
 65
   257
 75
     1
175
     1
 42
1.0
 92
       12
 66
     7
 43
1.0
 76
     1
 77
     6
 78
     2
 67
     7
 79
     5
170
     0
171
     0
290
     0
174
     0
 93
        1
 44
0.0
173
     0
291
     1
 45
0.0
1001
ACAD
1000
AcDbSavedByObjectVersion
1070
     0
  0
VISUALSTYLE
  5
24A5
102
{ACAD_XDICTIONARY
360
2544
102
}
102
{ACAD_REACTORS
330
249E
102
}
330
249E
100
AcDbVisualStyle
  2
Wireframe
 70
     5
 71
     0
 72
     2
 73
     0
 90
        0
 40
-0.6
 41
-30.0
 62
     5
 63
     7
 74
     1
 91
        4
 64
     7
 65
   257
 75
     1
175
     1
 42
1.0
 92
        0
 66
   257
 43
1.0
 76
     1
 77
     6
 78
     2
 67
     7
 79
     3
170
     0
171
     0
290
     0
174
     0
 93
        1
 44
0.0
173
     0
291
     0
 45
0.0
1001
ACAD
1000
AcDbSavedByObjectVersion
1070
     0
  0
VISUALSTYLE
  5
24B1
102
{ACAD_XDICTIONARY
360
255C
102
}
102
{ACAD_REACTORS
330
249E
102
}
330
249E
100
AcDbVisualStyle
  2
X-Ray
 70
    25
 71
     2
 72
     2
 73
     1
 90
        1
 40
0.5
 41
-30.0
 62
     5
 63
     7
 74
     1
 91
        0
 64
     7
 65
   257
 75
     1
175
     1
 42
1.0
 92
        8
 66
     7
 43
1.0
 76
     1
 77
     6
 78
     2
 67
     7
 79
     3
170
     0
171
     0
290
     0
174
     0
 93
       13
 44
0.0
173
     0
291
     0
 45
0.0
1001
ACAD
1000
AcDbSavedByObjectVersion
1070
     0
  0
DICTIONARYVAR
  5
252B
102
{ACAD_REACTORS
330
2526
102
}
330
2526
100
DictionaryVariables
280
     0
  1
1:1
  0
DICTIONARYVAR
  5
2528
102
{ACAD_REACTORS
330
2526
102
}
330
2526
100
DictionaryVariables
280
     0
  1
STANDARD
  0
DICTIONARYVAR
  5
2527
102
{ACAD_REACTORS
330
2526
102
}
330
2526
100
DictionaryVariables
280
     0
  1
STANDARD
  0
DICTIONARYVAR
  5
2529
102
{ACAD_REACTORS
330
2526
102
}
330
2526
100
DictionaryVariables
280
     0
  1
Imperial24
  0
DICTIONARYVAR
  5
252A
102
{ACAD_REACTORS
330
2526
102
}
330
2526
100
DictionaryVariables
280
     0
  1
Imperial24
  0
DICTIONARYVAR
  5
252E
102
{ACAD_REACTORS
330
2526
102
}
330
2526
100
DictionaryVariables
280
     0
  1
1
  0
DICTIONARYVAR
  5
252D
102
{ACAD_REACTORS
330
2526
102
}
330
2526
100
DictionaryVariables
280
     0
  1
0
  0
DICTIONARYVAR
  5
252C
102
{ACAD_REACTORS
330
2526
102
}
330
2526
100
DictionaryVariables
280
     0
  1
127
  0
DICTIONARYVAR
  5
252F
102
{ACAD_REACTORS
330
2526
102
}
330
2526
100
DictionaryVariables
280
     0
  1
2
  0
DICTIONARY
  5
256B
330
24DF
100
AcDbDictionary
280
     1
281
     1
  3
ACAD_XREC_ROUNDTRIP
360
256C
  0
DICTIONARY
  5
256F
330
24E7
100
AcDbDictionary
280
     1
281
     1
  3
ACAD_XREC_ROUNDTRIP
360
2570
  0
DICTIONARY
  5
256D
330
24E3
100
AcDbDictionary
280
     1
281
     1
  3
ACAD_XREC_ROUNDTRIP
360
256E
  0
DICTIONARY
  5
248F
330
248E
100
AcDbDictionary
280
     1
281
     1
  3
ACAD_XREC_ROUNDTRIP
360
2536
  3
BUMPTILE
360
2491
  3
DIFFUSETILE
360
2490
  3
OPACITYTILE
360
2494
  3
REFLECTIONTILE
360
2493
  3
REFRACTIONTILE
360
2495
  3
SPECULARTILE
360
2492
  0
DICTIONARY
  5
2487
330
2486
100
AcDbDictionary
280
     1
281
     1
  3
ACAD_XREC_ROUNDTRIP
360
2535
  3
BUMPTILE
360
2489
  3
DIFFUSETILE
360
2488
  3
OPACITYTILE
360
248C
  3
REFLECTIONTILE
360
248B
  3
REFRACTIONTILE
360
248D
  3
SPECULARTILE
360
248A
  0
DICTIONARY
  5
2497
330
2496
100
AcDbDictionary
280
     1
281
     1
  3
ACAD_XREC_ROUNDTRIP
360
2537
  3
BUMPTILE
360
2499
  3
DIFFUSETILE
360
2498
  3
OPACITYTILE
360
249C
  3
REFLECTIONTILE
360
249B
  3
REFRACTIONTILE
360
249D
  3
SPECULARTILE
360
249A
  0
DICTIONARY
  5
2569
330
24DD
100
AcDbDictionary
280
     1
281
     1
  3
ACAD_XREC_ROUNDTRIP
360
256A
  0
DICTIONARY
  5
2531
330
24D9
100
AcDbDictionary
280
     1
281
     1
  3
ACAD_ROUNDTRIP_2008_TABLESTYLE_CELLSTYLEMAP
360
2532
  3
ACAD_XREC_ROUNDTRIP
360
2568
  0
DICTIONARY
  5
2542
330
24A4
100
AcDbDictionary
280
     1
281
     1
  3
ACAD_XREC_ROUNDTRIP
360
2543
  0
DICTIONARY
  5
2540
330
24A3
100
AcDbDictionary
280
     1
281
     1
  3
ACAD_XREC_ROUNDTRIP
360
2541
  0
DICTIONARY
  5
254E
330
24AA
100
AcDbDictionary
280
     1
281
     1
  3
ACAD_XREC_ROUNDTRIP
360
254F
  0
DICTIONARY
  5
2556
330
24AE
100
AcDbDictionary
280
     1
281
     1
  3
ACAD_XREC_ROUNDTRIP
360
2557
  0
DICTIONARY
  5
2548
330
24A7
100
AcDbDictionary
280
     1
281
     1
  3
ACAD_XREC_ROUNDTRIP
360
2549
  0
DICTIONARY
  5
254C
330
24A9
100
AcDbDictionary
280
     1
281
     1
  3
ACAD_XREC_ROUNDTRIP
360
254D
  0
DICTIONARY
  5
2566
330
24B6
100
AcDbDictionary
280
     1
281
     1
  3
ACAD_XREC_ROUNDTRIP
360
2567
  0
DICTIONARY
  5
2554
330
24AD
100
AcDbDictionary
280
     1
281
     1
  3
ACAD_XREC_ROUNDTRIP
360
2555
  0
DICTIONARY
  5
2538
330
249F
100
AcDbDictionary
280
     1
281
     1
  3
ACAD_XREC_ROUNDTRIP
360
2539
  0
DICTIONARY
  5
253A
330
24A0
100
AcDbDictionary
280
     1
281
     1
  3
ACAD_XREC_ROUNDTRIP
360
253B
  0
DICTIONARY
  5
253C
330
24A1
100
AcDbDictionary
280
     1
281
     1
  3
ACAD_XREC_ROUNDTRIP
360
253D
  0
DICTIONARY
  5
253E
330
24A2
100
AcDbDictionary
280
     1
281
     1
  3
ACAD_XREC_ROUNDTRIP
360
253F
  0
DICTIONARY
  5
2546
330
24A6
100
AcDbDictionary
280
     1
281
     1
  3
ACAD_XREC_ROUNDTRIP
360
2547
  0
DICTIONARY
  5
2562
330
24B4
100
AcDbDictionary
280
     1
281
     1
  3
ACAD_XREC_ROUNDTRIP
360
2563
  0
DICTIONARY
  5
2552
330
24AC
100
AcDbDictionary
280
     1
281
     1
  3
ACAD_XREC_ROUNDTRIP
360
2553
  0
DICTIONARY
  5
2564
330
24B5
100
AcDbDictionary
280
     1
281
     1
  3
ACAD_XREC_ROUNDTRIP
360
2565
  0
DICTIONARY
  5
254A
330
24A8
100
AcDbDictionary
280
     1
281
     1
  3
ACAD_XREC_ROUNDTRIP
360
254B
  0
DICTIONARY
  5
2560
330
24B3
100
AcDbDictionary
280
     1
281
     1
  3
ACAD_XREC_ROUNDTRIP
360
2561
  0
DICTIONARY
  5
255E
330
24B2
100
AcDbDictionary
280
     1
281
     1
  3
ACAD_XREC_ROUNDTRIP
360
255F
  0
DICTIONARY
  5
2558
330
24AF
100
AcDbDictionary
280
     1
281
     1
  3
ACAD_XREC_ROUNDTRIP
360
2559
  0
DICTIONARY
  5
255A
330
24B0
100
AcDbDictionary
280
     1
281
     1
  3
ACAD_XREC_ROUNDTRIP
360
255B
  0
DICTIONARY
  5
2550
330
24AB
100
AcDbDictionary
280
     1
281
     1
  3
ACAD_XREC_ROUNDTRIP
360
2551
  0
DICTIONARY
  5
2544
330
24A5
100
AcDbDictionary
280
     1
281
     1
  3
ACAD_XREC_ROUNDTRIP
360
2545
  0
DICTIONARY
  5
255C
330
24B1
100
AcDbDictionary
280
     1
281
     1
  3
ACAD_XREC_ROUNDTRIP
360
255D
  0
XRECORD
  5
256C
102
{ACAD_REACTORS
330
256B
102
}
330
256B
100
AcDbXrecord
280
     1
102
DISPLAYNAME
  1
Imperial24
102
FLAGS
 90
        0
  0
XRECORD
  5
2570
102
{ACAD_REACTORS
330
256F
102
}
330
256F
100
AcDbXrecord
280
     1
102
SHADEPLOT
 70
     0
102
SHADEPLOTRESLEVEL
 70
     2
102
SHADEPLOTCUSTOMDPI
 70
   300
  0
XRECORD
  5
256E
102
{ACAD_REACTORS
330
256D
102
}
330
256D
100
AcDbXrecord
280
     1
102
SHADEPLOT
 70
     0
102
SHADEPLOTRESLEVEL
 70
     2
102
SHADEPLOTCUSTOMDPI
 70
   300
  0
XRECORD
  5
2536
102
{ACAD_REACTORS
330
248F
102
}
330
248F
100
AcDbXrecord
280
     1
102
MATERIAL
148
0.0
149
0.0
149
0.0
 93
        0
 94
      127
282
     0
 72
     0
 77
     0
171
     0
175
     0
179
     0
273
     0
  0
XRECORD
  5
2491
102
{ACAD_REACTORS
330
248F
102
}
330
248F
100
AcDbXrecord
280
     1
270
     1
271
     1
  0
XRECORD
  5
2490
102
{ACAD_REACTORS
330
248F
102
}
330
248F
100
AcDbXrecord
280
     1
270
     1
271
     1
  0
XRECORD
  5
2494
102
{ACAD_REACTORS
330
248F
102
}
330
248F
100
AcDbXrecord
280
     1
270
     1
271
     1
  0
XRECORD
  5
2493
102
{ACAD_REACTORS
330
248F
102
}
330
248F
100
AcDbXrecord
280
     1
270
     1
271
     1
  0
XRECORD
  5
2495
102
{ACAD_REACTORS
330
248F
102
}
330
248F
100
AcDbXrecord
280
     1
270
     1
271
     1
  0
XRECORD
  5
2492
102
{ACAD_REACTORS
330
248F
102
}
330
248F
100
AcDbXrecord
280
     1
270
     1
271
     1
  0
XRECORD
  5
2535
102
{ACAD_REACTORS
330
2487
102
}
330
2487
100
AcDbXrecord
280
     1
102
MATERIAL
148
0.0
149
0.0
149
0.0
 93
        0
 94
      127
282
     0
 72
     0
 77
     0
171
     0
175
     0
179
     0
273
     0
  0
XRECORD
  5
2489
102
{ACAD_REACTORS
330
2487
102
}
330
2487
100
AcDbXrecord
280
     1
270
     1
271
     1
  0
XRECORD
  5
2488
102
{ACAD_REACTORS
330
2487
102
}
330
2487
100
AcDbXrecord
280
     1
270
     1
271
     1
  0
XRECORD
  5
248C
102
{ACAD_REACTORS
330
2487
102
}
330
2487
100
AcDbXrecord
280
     1
270
     1
271
     1
  0
XRECORD
  5
248B
102
{ACAD_REACTORS
330
2487
102
}
330
2487
100
AcDbXrecord
280
     1
270
     1
271
     1
  0
XRECORD
  5
248D
102
{ACAD_REACTORS
330
2487
102
}
330
2487
100
AcDbXrecord
280
     1
270
     1
271
     1
  0
XRECORD
  5
248A
102
{ACAD_REACTORS
330
2487
102
}
330
2487
100
AcDbXrecord
280
     1
270
     1
271
     1
  0
XRECORD
  5
2537
102
{ACAD_REACTORS
330
2497
102
}
330
2497
100
AcDbXrecord
280
     1
102
MATERIAL
148
0.0
149
0.0
149
0.0
 93
        0
 94
      127
282
     0
 72
     0
 77
     0
171
     0
175
     0
179
     0
273
     0
  0
XRECORD
  5
2499
102
{ACAD_REACTORS
330
2497
102
}
330
2497
100
AcDbXrecord
280
     1
270
     1
271
     1
  0
XRECORD
  5
2498
102
{ACAD_REACTORS
330
2497
102
}
330
2497
100
AcDbXrecord
280
     1
270
     1
271
     1
  0
XRECORD
  5
249C
102
{ACAD_REACTORS
330
2497
102
}
330
2497
100
AcDbXrecord
280
     1
270
     1
271
     1
  0
XRECORD
  5
249B
102
{ACAD_REACTORS
330
2497
102
}
330
2497
100
AcDbXrecord
280
     1
270
     1
271
     1
  0
XRECORD
  5
249D
102
{ACAD_REACTORS
330
2497
102
}
330
2497
100
AcDbXrecord
280
     1
270
     1
271
     1
  0
XRECORD
  5
249A
102
{ACAD_REACTORS
330
2497
102
}
330
2497
100
AcDbXrecord
280
     1
270
     1
271
     1
  0
XRECORD
  5
256A
102
{ACAD_REACTORS
330
2569
102
}
330
2569
100
AcDbXrecord
280
     1
102
DISPLAYNAME
  1
Imperial24
102
FLAGS
 90
        0
  0
CELLSTYLEMAP
  5
2532
102
{ACAD_REACTORS
330
2531
102
}
330
2531
100
AcDbCellStyleMap
 90
        3
300
CELLSTYLE
  1
TABLEFORMAT_BEGIN
 90
        5
170
     1
 91
        0
 92
    32768
 62
   257
 93
        1
300
CONTENTFORMAT
  1
CONTENTFORMAT_BEGIN
 90
        0
 91
        0
 92
      512
 93
        0
300

 40
0.0
140
1.0
 94
        5
 62
     0
340
24CA
144
0.25
309
CONTENTFORMAT_END
171
     0
 94
        0
309
TABLEFORMAT_END
  1
CELLSTYLE_BEGIN
 90
        1
 91
        1
300
_TITLE
309
CELLSTYLE_END
300
CELLSTYLE
  1
TABLEFORMAT_BEGIN
 90
        5
170
     1
 91
        0
 92
        0
 62
   257
 93
        1
300
CONTENTFORMAT
  1
CONTENTFORMAT_BEGIN
 90
        0
 91
        0
 92
      512
 93
        0
300

 40
0.0
140
1.0
 94
        5
 62
     0
340
24CA
144
0.18
309
CONTENTFORMAT_END
171
     0
 94
        0
309
TABLEFORMAT_END
  1
CELLSTYLE_BEGIN
 90
        2
 91
        1
300
_HEADER
309
CELLSTYLE_END
300
CELLSTYLE
  1
TABLEFORMAT_BEGIN
 90
        5
170
     1
 91
        0
 92
        0
 62
   257
 93
        1
300
CONTENTFORMAT
  1
CONTENTFORMAT_BEGIN
 90
        0
 91
        0
 92
      512
 93
        0
300

 40
0.0
140
1.0
 94
        2
 62
     0
340
24CA
144
0.18
309
CONTENTFORMAT_END
171
     0
 94
        0
309
TABLEFORMAT_END
  1
CELLSTYLE_BEGIN
 90
        3
 91
        2
300
_DATA
309
CELLSTYLE_END
  0
XRECORD
  5
2568
102
{ACAD_REACTORS
330
2531
102
}
330
2531
100
AcDbXrecord
280
     1
102
ACAD_ROUNDTRIP_PRE2007_TABLESTYLE
 90
      512
 91
        0
  1

 92
      512
 93
        0
  2

 94
      512
 95
        0
  3

  0
XRECORD
  5
2543
102
{ACAD_REACTORS
330
2542
102
}
330
2542
100
AcDbXrecord
280
     1
102
RTVSPost2010Prop28
280
     1
102
RTVSPost2010PropOp28
 70
     1
102
RTVSPost2010Prop29
280
     1
102
RTVSPost2010PropOp29
 70
     1
102
RTVSPost2010Prop30
280
     0
102
RTVSPost2010PropOp30
 70
     1
102
RTVSPost2010Prop31
280
     0
102
RTVSPost2010PropOp31
 70
     1
102
RTVSPost2010Prop32
280
     0
102
RTVSPost2010PropOp32
 70
     1
102
RTVSPost2010Prop33
280
     0
102
RTVSPost2010PropOp33
 70
     1
102
RTVSPost2010Prop34
280
     0
102
RTVSPost2010PropOp34
 70
     1
102
RTVSPost2010Prop35
280
     0
102
RTVSPost2010PropOp35
 70
     1
102
RTVSPost2010Prop36
280
     0
102
RTVSPost2010PropOp36
 70
     1
102
RTVSPost2010Prop37
 90
       50
102
RTVSPost2010PropOp37
 70
     1
102
RTVSPost2010Prop38
140
0.0
102
RTVSPost2010PropOp38
 70
     1
102
RTVSPost2010Prop39
140
1.0
102
RTVSPost2010PropOp39
 70
     1
102
RTVSPost2010Prop40
 90
        0
102
RTVSPost2010PropOp40
 70
     1
102
RTVSPost2010Prop41ColorIndex
 90
       18
102
RTVSPost2010Prop41ColorRGB
 90
        0
102
RTVSPost2010PropOp41
 70
     1
102
RTVSPost2010Prop42
 90
       50
102
RTVSPost2010PropOp42
 70
     1
102
RTVSPost2010Prop43
 90
        3
102
RTVSPost2010PropOp43
 70
     1
102
RTVSPost2010Prop44ColorIndex
 90
        5
102
RTVSPost2010Prop44ColorRGB
 90
      255
102
RTVSPost2010PropOp44
 70
     1
102
RTVSPost2010Prop45
280
     0
102
RTVSPost2010PropOp45
 70
     1
102
RTVSPost2010Prop46
 90
       50
102
RTVSPost2010PropOp46
 70
     1
102
RTVSPost2010Prop47
 90
       50
102
RTVSPost2010PropOp47
 70
     1
102
RTVSPost2010Prop48
 90
       50
102
RTVSPost2010PropOp48
 70
     1
102
RTVSPost2010Prop49
280
     0
102
RTVSPost2010PropOp49
 70
     1
102
RTVSPost2010Prop50
 90
       50
102
RTVSPost2010PropOp50
 70
     1
102
RTVSPost2010Prop51ColorIndex
 90
      256
102
RTVSPost2010Prop51ColorRGB
 90
-16777216
102
RTVSPost2010PropOp51
 70
     0
102
RTVSPost2010Prop52
140
1.0
102
RTVSPost2010PropOp52
 70
     0
102
RTVSPost2010Prop53
 90
        2
102
RTVSPost2010PropOp53
 70
     1
102
RTVSPost2010Prop54
  1
strokes_ogs.tif
102
RTVSPost2010PropOp54
 70
     1
102
RTVSPost2010Prop55
280
     0
102
RTVSPost2010PropOp55
 70
     1
102
RTVSPost2010Prop56
140
1.0
102
RTVSPost2010PropOp56
 70
     1
102
RTVSPost2010Prop57
140
1.0
102
RTVSPost2010PropOp57
 70
     1
102
RTVSPropertyOp0
 70
     1
102
RTVSPropertyOp1
 70
     1
102
RTVSPropertyOp2
 70
     1
102
RTVSPropertyOp3
 70
     1
102
RTVSPropertyOp4
 70
     1
102
RTVSPropertyOp5
 70
     1
102
RTVSPropertyOp6
 70
     1
102
RTVSPropertyOp7
 70
     1
102
RTVSPropertyOp8
 70
     1
102
RTVSPropertyOp9
 70
     1
102
RTVSPropertyOp10
 70
     1
102
RTVSPropertyOp11
 70
     1
102
RTVSPropertyOp12
 70
     1
102
RTVSPropertyOp13
 70
     1
102
RTVSPropertyOp14
 70
     1
102
RTVSPropertyOp15
 70
     1
102
RTVSPropertyOp16
 70
     1
102
RTVSPropertyOp17
 70
     1
102
RTVSPropertyOp18
 70
     1
102
RTVSPropertyOp19
 70
     1
102
RTVSPropertyOp20
 70
     1
102
RTVSPropertyOp21
 70
     1
102
RTVSPropertyOp22
 70
     1
102
RTVSPropertyOp23
 70
     1
102
RTVSPropertyOp24
 70
     1
102
RTVSPropertyOp25
 70
     1
102
RTVSPropertyOp26
 70
     1
102
RTVSPropertyOp27
 70
     1
102
RTVSPropertyOp28
 70
     1
102
RTVSPropertyOp29
 70
     1
102
RTVSPropertyOp30
 70
     1
102
RTVSPropertyOp31
 70
     1
102
RTVSPropertyOp32
 70
     1
102
RTVSPropertyOp33
 70
     1
102
RTVSPropertyOp34
 70
     1
102
RTVSPropertyOp35
 70
     1
102
RTVSPropertyOp36
 70
     1
102
RTVSPropertyOp37
 70
     1
102
RTVSPropertyOp38
 70
     1
102
RTVSPropertyOp39
 70
     1
102
RTVSPropertyOp40
 70
     1
102
RTVSPropertyOp41
 70
     1
102
RTVSPropertyOp42
 70
     1
102
RTVSPropertyOp43
 70
     1
102
RTVSPropertyOp44
 70
     1
102
RTVSPropertyOp45
 70
     1
102
RTVSPropertyOp46
 70
     1
102
RTVSPropertyOp47
 70
     1
102
RTVSPropertyOp48
 70
     1
102
RTVSPropertyOp49
 70
     1
102
RTVSPropertyOp50
 70
     1
102
RTVSPropertyOp51
 70
     0
102
RTVSPropertyOp52
 70
     0
102
RTVSPropertyOp53
 70
     1
102
RTVSPropertyOp54
 70
     1
102
RTVSPropertyOp55
 70
     1
102
RTVSPropertyOp56
 70
     1
102
RTVSPropertyOp57
 70
     1
102
RTVSPropertyOp58
 70
     1
102
RTVSPropertyOp59
 70
     1
102
RTVSPropertyOp60
 70
     1
102
RTVSPropertyOp61
 70
     1
102
RTVSPropertyOp62
 70
     1
  0
XRECORD
  5
2541
102
{ACAD_REACTORS
330
2540
102
}
330
2540
100
AcDbXrecord
280
     1
102
RTVSPost2010Prop28
280
     0
102
RTVSPost2010PropOp28
 70
     1
102
RTVSPost2010Prop29
280
     1
102
RTVSPost2010PropOp29
 70
     1
102
RTVSPost2010Prop30
280
     1
102
RTVSPost2010PropOp30
 70
     1
102
RTVSPost2010Prop31
280
     0
102
RTVSPost2010PropOp31
 70
     1
102
RTVSPost2010Prop32
280
     0
102
RTVSPost2010PropOp32
 70
     1
102
RTVSPost2010Prop33
280
     0
102
RTVSPost2010PropOp33
 70
     1
102
RTVSPost2010Prop34
280
     0
102
RTVSPost2010PropOp34
 70
     1
102
RTVSPost2010Prop35
280
     0
102
RTVSPost2010PropOp35
 70
     1
102
RTVSPost2010Prop36
280
     0
102
RTVSPost2010PropOp36
 70
     1
102
RTVSPost2010Prop37
 90
       50
102
RTVSPost2010PropOp37
 70
     1
102
RTVSPost2010Prop38
140
0.0
102
RTVSPost2010PropOp38
 70
     1
102
RTVSPost2010Prop39
140
1.0
102
RTVSPost2010PropOp39
 70
     1
102
RTVSPost2010Prop40
 90
        0
102
RTVSPost2010PropOp40
 70
     1
102
RTVSPost2010Prop41ColorIndex
 90
       18
102
RTVSPost2010Prop41ColorRGB
 90
        0
102
RTVSPost2010PropOp41
 70
     1
102
RTVSPost2010Prop42
 90
       50
102
RTVSPost2010PropOp42
 70
     1
102
RTVSPost2010Prop43
 90
        3
102
RTVSPost2010PropOp43
 70
     1
102
RTVSPost2010Prop44ColorIndex
 90
        5
102
RTVSPost2010Prop44ColorRGB
 90
      255
102
RTVSPost2010PropOp44
 70
     1
102
RTVSPost2010Prop45
280
     0
102
RTVSPost2010PropOp45
 70
     1
102
RTVSPost2010Prop46
 90
       50
102
RTVSPost2010PropOp46
 70
     1
102
RTVSPost2010Prop47
 90
       50
102
RTVSPost2010PropOp47
 70
     1
102
RTVSPost2010Prop48
 90
       50
102
RTVSPost2010PropOp48
 70
     1
102
RTVSPost2010Prop49
280
     0
102
RTVSPost2010PropOp49
 70
     1
102
RTVSPost2010Prop50
 90
       50
102
RTVSPost2010PropOp50
 70
     1
102
RTVSPost2010Prop51ColorIndex
 90
      256
102
RTVSPost2010Prop51ColorRGB
 90
-16777216
102
RTVSPost2010PropOp51
 70
     0
102
RTVSPost2010Prop52
140
1.0
102
RTVSPost2010PropOp52
 70
     0
102
RTVSPost2010Prop53
 90
        2
102
RTVSPost2010PropOp53
 70
     1
102
RTVSPost2010Prop54
  1
strokes_ogs.tif
102
RTVSPost2010PropOp54
 70
     1
102
RTVSPost2010Prop55
280
     0
102
RTVSPost2010PropOp55
 70
     1
102
RTVSPost2010Prop56
140
1.0
102
RTVSPost2010PropOp56
 70
     1
102
RTVSPost2010Prop57
140
1.0
102
RTVSPost2010PropOp57
 70
     1
102
RTVSPropertyOp0
 70
     1
102
RTVSPropertyOp1
 70
     1
102
RTVSPropertyOp2
 70
     1
102
RTVSPropertyOp3
 70
     1
102
RTVSPropertyOp4
 70
     1
102
RTVSPropertyOp5
 70
     1
102
RTVSPropertyOp6
 70
     1
102
RTVSPropertyOp7
 70
     1
102
RTVSPropertyOp8
 70
     1
102
RTVSPropertyOp9
 70
     1
102
RTVSPropertyOp10
 70
     1
102
RTVSPropertyOp11
 70
     1
102
RTVSPropertyOp12
 70
     1
102
RTVSPropertyOp13
 70
     1
102
RTVSPropertyOp14
 70
     1
102
RTVSPropertyOp15
 70
     1
102
RTVSPropertyOp16
 70
     1
102
RTVSPropertyOp17
 70
     1
102
RTVSPropertyOp18
 70
     1
102
RTVSPropertyOp19
 70
     1
102
RTVSPropertyOp20
 70
     1
102
RTVSPropertyOp21
 70
     1
102
RTVSPropertyOp22
 70
     1
102
RTVSPropertyOp23
 70
     1
102
RTVSPropertyOp24
 70
     1
102
RTVSPropertyOp25
 70
     1
102
RTVSPropertyOp26
 70
     1
102
RTVSPropertyOp27
 70
     1
102
RTVSPropertyOp28
 70
     1
102
RTVSPropertyOp29
 70
     1
102
RTVSPropertyOp30
 70
     1
102
RTVSPropertyOp31
 70
     1
102
RTVSPropertyOp32
 70
     1
102
RTVSPropertyOp33
 70
     1
102
RTVSPropertyOp34
 70
     1
102
RTVSPropertyOp35
 70
     1
102
RTVSPropertyOp36
 70
     1
102
RTVSPropertyOp37
 70
     1
102
RTVSPropertyOp38
 70
     1
102
RTVSPropertyOp39
 70
     1
102
RTVSPropertyOp40
 70
     1
102
RTVSPropertyOp41
 70
     1
102
RTVSPropertyOp42
 70
     1
102
RTVSPropertyOp43
 70
     1
102
RTVSPropertyOp44
 70
     1
102
RTVSPropertyOp45
 70
     1
102
RTVSPropertyOp46
 70
     1
102
RTVSPropertyOp47
 70
     1
102
RTVSPropertyOp48
 70
     1
102
RTVSPropertyOp49
 70
     1
102
RTVSPropertyOp50
 70
     1
102
RTVSPropertyOp51
 70
     0
102
RTVSPropertyOp52
 70
     0
102
RTVSPropertyOp53
 70
     1
102
RTVSPropertyOp54
 70
     1
102
RTVSPropertyOp55
 70
     1
102
RTVSPropertyOp56
 70
     1
102
RTVSPropertyOp57
 70
     1
102
RTVSPropertyOp58
 70
     1
102
RTVSPropertyOp59
 70
     1
102
RTVSPropertyOp60
 70
     1
102
RTVSPropertyOp61
 70
     1
102
RTVSPropertyOp62
 70
     1
  0
XRECORD
  5
254F
102
{ACAD_REACTORS
330
254E
102
}
330
254E
100
AcDbXrecord
280
     1
102
RTVSPost2010Prop28
280
     0
102
RTVSPost2010PropOp28
 70
     1
102
RTVSPost2010Prop29
280
     1
102
RTVSPost2010PropOp29
 70
     1
102
RTVSPost2010Prop30
280
     1
102
RTVSPost2010PropOp30
 70
     1
102
RTVSPost2010Prop31
280
     0
102
RTVSPost2010PropOp31
 70
     1
102
RTVSPost2010Prop32
280
     0
102
RTVSPost2010PropOp32
 70
     1
102
RTVSPost2010Prop33
280
     0
102
RTVSPost2010PropOp33
 70
     1
102
RTVSPost2010Prop34
280
     0
102
RTVSPost2010PropOp34
 70
     1
102
RTVSPost2010Prop35
280
     0
102
RTVSPost2010PropOp35
 70
     1
102
RTVSPost2010Prop36
280
     0
102
RTVSPost2010PropOp36
 70
     1
102
RTVSPost2010Prop37
 90
       50
102
RTVSPost2010PropOp37
 70
     1
102
RTVSPost2010Prop38
140
0.0
102
RTVSPost2010PropOp38
 70
     1
102
RTVSPost2010Prop39
140
1.0
102
RTVSPost2010PropOp39
 70
     1
102
RTVSPost2010Prop40
 90
        0
102
RTVSPost2010PropOp40
 70
     1
102
RTVSPost2010Prop41ColorIndex
 90
       18
102
RTVSPost2010Prop41ColorRGB
 90
        0
102
RTVSPost2010PropOp41
 70
     1
102
RTVSPost2010Prop42
 90
       50
102
RTVSPost2010PropOp42
 70
     1
102
RTVSPost2010Prop43
 90
        3
102
RTVSPost2010PropOp43
 70
     1
102
RTVSPost2010Prop44ColorIndex
 90
        5
102
RTVSPost2010Prop44ColorRGB
 90
      255
102
RTVSPost2010PropOp44
 70
     1
102
RTVSPost2010Prop45
280
     0
102
RTVSPost2010PropOp45
 70
     1
102
RTVSPost2010Prop46
 90
       50
102
RTVSPost2010PropOp46
 70
     1
102
RTVSPost2010Prop47
 90
       50
102
RTVSPost2010PropOp47
 70
     1
102
RTVSPost2010Prop48
 90
       50
102
RTVSPost2010PropOp48
 70
     1
102
RTVSPost2010Prop49
280
     0
102
RTVSPost2010PropOp49
 70
     1
102
RTVSPost2010Prop50
 90
       50
102
RTVSPost2010PropOp50
 70
     1
102
RTVSPost2010Prop51ColorIndex
 90
      256
102
RTVSPost2010Prop51ColorRGB
 90
-16777216
102
RTVSPost2010PropOp51
 70
     0
102
RTVSPost2010Prop52
140
1.0
102
RTVSPost2010PropOp52
 70
     0
102
RTVSPost2010Prop53
 90
        2
102
RTVSPost2010PropOp53
 70
     1
102
RTVSPost2010Prop54
  1
strokes_ogs.tif
102
RTVSPost2010PropOp54
 70
     1
102
RTVSPost2010Prop55
280
     0
102
RTVSPost2010PropOp55
 70
     1
102
RTVSPost2010Prop56
140
1.0
102
RTVSPost2010PropOp56
 70
     1
102
RTVSPost2010Prop57
140
1.0
102
RTVSPost2010PropOp57
 70
     1
102
RTVSPropertyOp0
 70
     1
102
RTVSPropertyOp1
 70
     1
102
RTVSPropertyOp2
 70
     1
102
RTVSPropertyOp3
 70
     1
102
RTVSPropertyOp4
 70
     1
102
RTVSPropertyOp5
 70
     1
102
RTVSPropertyOp6
 70
     1
102
RTVSPropertyOp7
 70
     1
102
RTVSPropertyOp8
 70
     1
102
RTVSPropertyOp9
 70
     1
102
RTVSPropertyOp10
 70
     1
102
RTVSPropertyOp11
 70
     1
102
RTVSPropertyOp12
 70
     1
102
RTVSPropertyOp13
 70
     1
102
RTVSPropertyOp14
 70
     1
102
RTVSPropertyOp15
 70
     1
102
RTVSPropertyOp16
 70
     1
102
RTVSPropertyOp17
 70
     1
102
RTVSPropertyOp18
 70
     1
102
RTVSPropertyOp19
 70
     1
102
RTVSPropertyOp20
 70
     1
102
RTVSPropertyOp21
 70
     1
102
RTVSPropertyOp22
 70
     1
102
RTVSPropertyOp23
 70
     1
102
RTVSPropertyOp24
 70
     1
102
RTVSPropertyOp25
 70
     1
102
RTVSPropertyOp26
 70
     1
102
RTVSPropertyOp27
 70
     1
102
RTVSPropertyOp28
 70
     1
102
RTVSPropertyOp29
 70
     1
102
RTVSPropertyOp30
 70
     1
102
RTVSPropertyOp31
 70
     1
102
RTVSPropertyOp32
 70
     1
102
RTVSPropertyOp33
 70
     1
102
RTVSPropertyOp34
 70
     1
102
RTVSPropertyOp35
 70
     1
102
RTVSPropertyOp36
 70
     1
102
RTVSPropertyOp37
 70
     1
102
RTVSPropertyOp38
 70
     1
102
RTVSPropertyOp39
 70
     1
102
RTVSPropertyOp40
 70
     1
102
RTVSPropertyOp41
 70
     1
102
RTVSPropertyOp42
 70
     1
102
RTVSPropertyOp43
 70
     1
102
RTVSPropertyOp44
 70
     1
102
RTVSPropertyOp45
 70
     1
102
RTVSPropertyOp46
 70
     1
102
RTVSPropertyOp47
 70
     1
102
RTVSPropertyOp48
 70
     1
102
RTVSPropertyOp49
 70
     1
102
RTVSPropertyOp50
 70
     1
102
RTVSPropertyOp51
 70
     0
102
RTVSPropertyOp52
 70
     0
102
RTVSPropertyOp53
 70
     1
102
RTVSPropertyOp54
 70
     1
102
RTVSPropertyOp55
 70
     1
102
RTVSPropertyOp56
 70
     1
102
RTVSPropertyOp57
 70
     1
102
RTVSPropertyOp58
 70
     1
102
RTVSPropertyOp59
 70
     1
102
RTVSPropertyOp60
 70
     1
102
RTVSPropertyOp61
 70
     1
102
RTVSPropertyOp62
 70
     1
  0
XRECORD
  5
2557
102
{ACAD_REACTORS
330
2556
102
}
330
2556
100
AcDbXrecord
280
     1
102
RTVSPost2010Prop28
280
     0
102
RTVSPost2010PropOp28
 70
     1
102
RTVSPost2010Prop29
280
     1
102
RTVSPost2010PropOp29
 70
     1
102
RTVSPost2010Prop30
280
     1
102
RTVSPost2010PropOp30
 70
     1
102
RTVSPost2010Prop31
280
     0
102
RTVSPost2010PropOp31
 70
     1
102
RTVSPost2010Prop32
280
     0
102
RTVSPost2010PropOp32
 70
     1
102
RTVSPost2010Prop33
280
     0
102
RTVSPost2010PropOp33
 70
     1
102
RTVSPost2010Prop34
280
     0
102
RTVSPost2010PropOp34
 70
     1
102
RTVSPost2010Prop35
280
     0
102
RTVSPost2010PropOp35
 70
     1
102
RTVSPost2010Prop36
280
     0
102
RTVSPost2010PropOp36
 70
     1
102
RTVSPost2010Prop37
 90
       50
102
RTVSPost2010PropOp37
 70
     1
102
RTVSPost2010Prop38
140
0.0
102
RTVSPost2010PropOp38
 70
     1
102
RTVSPost2010Prop39
140
1.0
102
RTVSPost2010PropOp39
 70
     1
102
RTVSPost2010Prop40
 90
        0
102
RTVSPost2010PropOp40
 70
     1
102
RTVSPost2010Prop41ColorIndex
 90
       18
102
RTVSPost2010Prop41ColorRGB
 90
        0
102
RTVSPost2010PropOp41
 70
     1
102
RTVSPost2010Prop42
 90
       50
102
RTVSPost2010PropOp42
 70
     1
102
RTVSPost2010Prop43
 90
        3
102
RTVSPost2010PropOp43
 70
     1
102
RTVSPost2010Prop44ColorIndex
 90
        5
102
RTVSPost2010Prop44ColorRGB
 90
      255
102
RTVSPost2010PropOp44
 70
     1
102
RTVSPost2010Prop45
280
     0
102
RTVSPost2010PropOp45
 70
     1
102
RTVSPost2010Prop46
 90
       50
102
RTVSPost2010PropOp46
 70
     1
102
RTVSPost2010Prop47
 90
       50
102
RTVSPost2010PropOp47
 70
     1
102
RTVSPost2010Prop48
 90
       50
102
RTVSPost2010PropOp48
 70
     1
102
RTVSPost2010Prop49
280
     0
102
RTVSPost2010PropOp49
 70
     1
102
RTVSPost2010Prop50
 90
       50
102
RTVSPost2010PropOp50
 70
     1
102
RTVSPost2010Prop51ColorIndex
 90
      256
102
RTVSPost2010Prop51ColorRGB
 90
-16777216
102
RTVSPost2010PropOp51
 70
     0
102
RTVSPost2010Prop52
140
1.0
102
RTVSPost2010PropOp52
 70
     0
102
RTVSPost2010Prop53
 90
        2
102
RTVSPost2010PropOp53
 70
     1
102
RTVSPost2010Prop54
  1
strokes_ogs.tif
102
RTVSPost2010PropOp54
 70
     1
102
RTVSPost2010Prop55
280
     0
102
RTVSPost2010PropOp55
 70
     1
102
RTVSPost2010Prop56
140
1.0
102
RTVSPost2010PropOp56
 70
     1
102
RTVSPost2010Prop57
140
1.0
102
RTVSPost2010PropOp57
 70
     1
102
RTVSPropertyOp0
 70
     1
102
RTVSPropertyOp1
 70
     1
102
RTVSPropertyOp2
 70
     1
102
RTVSPropertyOp3
 70
     1
102
RTVSPropertyOp4
 70
     1
102
RTVSPropertyOp5
 70
     1
102
RTVSPropertyOp6
 70
     1
102
RTVSPropertyOp7
 70
     1
102
RTVSPropertyOp8
 70
     1
102
RTVSPropertyOp9
 70
     1
102
RTVSPropertyOp10
 70
     1
102
RTVSPropertyOp11
 70
     1
102
RTVSPropertyOp12
 70
     1
102
RTVSPropertyOp13
 70
     1
102
RTVSPropertyOp14
 70
     1
102
RTVSPropertyOp15
 70
     1
102
RTVSPropertyOp16
 70
     1
102
RTVSPropertyOp17
 70
     1
102
RTVSPropertyOp18
 70
     1
102
RTVSPropertyOp19
 70
     1
102
RTVSPropertyOp20
 70
     1
102
RTVSPropertyOp21
 70
     1
102
RTVSPropertyOp22
 70
     1
102
RTVSPropertyOp23
 70
     1
102
RTVSPropertyOp24
 70
     1
102
RTVSPropertyOp25
 70
     1
102
RTVSPropertyOp26
 70
     1
102
RTVSPropertyOp27
 70
     1
102
RTVSPropertyOp28
 70
     1
102
RTVSPropertyOp29
 70
     1
102
RTVSPropertyOp30
 70
     1
102
RTVSPropertyOp31
 70
     1
102
RTVSPropertyOp32
 70
     1
102
RTVSPropertyOp33
 70
     1
102
RTVSPropertyOp34
 70
     1
102
RTVSPropertyOp35
 70
     1
102
RTVSPropertyOp36
 70
     1
102
RTVSPropertyOp37
 70
     1
102
RTVSPropertyOp38
 70
     1
102
RTVSPropertyOp39
 70
     1
102
RTVSPropertyOp40
 70
     1
102
RTVSPropertyOp41
 70
     1
102
RTVSPropertyOp42
 70
     1
102
RTVSPropertyOp43
 70
     1
102
RTVSPropertyOp44
 70
     1
102
RTVSPropertyOp45
 70
     1
102
RTVSPropertyOp46
 70
     1
102
RTVSPropertyOp47
 70
     1
102
RTVSPropertyOp48
 70
     1
102
RTVSPropertyOp49
 70
     1
102
RTVSPropertyOp50
 70
     1
102
RTVSPropertyOp51
 70
     0
102
RTVSPropertyOp52
 70
     0
102
RTVSPropertyOp53
 70
     1
102
RTVSPropertyOp54
 70
     1
102
RTVSPropertyOp55
 70
     1
102
RTVSPropertyOp56
 70
     1
102
RTVSPropertyOp57
 70
     1
102
RTVSPropertyOp58
 70
     1
102
RTVSPropertyOp59
 70
     1
102
RTVSPropertyOp60
 70
     1
102
RTVSPropertyOp61
 70
     1
102
RTVSPropertyOp62
 70
     1
  0
XRECORD
  5
2549
102
{ACAD_REACTORS
330
2548
102
}
330
2548
100
AcDbXrecord
280
     1
102
RTVSPost2010Prop28
280
     0
102
RTVSPost2010PropOp28
 70
     1
102
RTVSPost2010Prop29
280
     1
102
RTVSPost2010PropOp29
 70
     1
102
RTVSPost2010Prop30
280
     1
102
RTVSPost2010PropOp30
 70
     1
102
RTVSPost2010Prop31
280
     0
102
RTVSPost2010PropOp31
 70
     1
102
RTVSPost2010Prop32
280
     0
102
RTVSPost2010PropOp32
 70
     1
102
RTVSPost2010Prop33
280
     0
102
RTVSPost2010PropOp33
 70
     1
102
RTVSPost2010Prop34
280
     0
102
RTVSPost2010PropOp34
 70
     1
102
RTVSPost2010Prop35
280
     0
102
RTVSPost2010PropOp35
 70
     1
102
RTVSPost2010Prop36
280
     0
102
RTVSPost2010PropOp36
 70
     1
102
RTVSPost2010Prop37
 90
       50
102
RTVSPost2010PropOp37
 70
     1
102
RTVSPost2010Prop38
140
0.0
102
RTVSPost2010PropOp38
 70
     1
102
RTVSPost2010Prop39
140
1.0
102
RTVSPost2010PropOp39
 70
     1
102
RTVSPost2010Prop40
 90
        0
102
RTVSPost2010PropOp40
 70
     1
102
RTVSPost2010Prop41ColorIndex
 90
       18
102
RTVSPost2010Prop41ColorRGB
 90
        0
102
RTVSPost2010PropOp41
 70
     1
102
RTVSPost2010Prop42
 90
       50
102
RTVSPost2010PropOp42
 70
     1
102
RTVSPost2010Prop43
 90
        3
102
RTVSPost2010PropOp43
 70
     1
102
RTVSPost2010Prop44ColorIndex
 90
        5
102
RTVSPost2010Prop44ColorRGB
 90
      255
102
RTVSPost2010PropOp44
 70
     1
102
RTVSPost2010Prop45
280
     0
102
RTVSPost2010PropOp45
 70
     1
102
RTVSPost2010Prop46
 90
       50
102
RTVSPost2010PropOp46
 70
     1
102
RTVSPost2010Prop47
 90
       50
102
RTVSPost2010PropOp47
 70
     1
102
RTVSPost2010Prop48
 90
       50
102
RTVSPost2010PropOp48
 70
     1
102
RTVSPost2010Prop49
280
     0
102
RTVSPost2010PropOp49
 70
     1
102
RTVSPost2010Prop50
 90
       50
102
RTVSPost2010PropOp50
 70
     1
102
RTVSPost2010Prop51ColorIndex
 90
      256
102
RTVSPost2010Prop51ColorRGB
 90
-16777216
102
RTVSPost2010PropOp51
 70
     0
102
RTVSPost2010Prop52
140
1.0
102
RTVSPost2010PropOp52
 70
     0
102
RTVSPost2010Prop53
 90
        2
102
RTVSPost2010PropOp53
 70
     1
102
RTVSPost2010Prop54
  1
strokes_ogs.tif
102
RTVSPost2010PropOp54
 70
     1
102
RTVSPost2010Prop55
280
     0
102
RTVSPost2010PropOp55
 70
     1
102
RTVSPost2010Prop56
140
1.0
102
RTVSPost2010PropOp56
 70
     1
102
RTVSPost2010Prop57
140
1.0
102
RTVSPost2010PropOp57
 70
     1
102
RTVSPropertyOp0
 70
     1
102
RTVSPropertyOp1
 70
     1
102
RTVSPropertyOp2
 70
     1
102
RTVSPropertyOp3
 70
     1
102
RTVSPropertyOp4
 70
     1
102
RTVSPropertyOp5
 70
     1
102
RTVSPropertyOp6
 70
     1
102
RTVSPropertyOp7
 70
     1
102
RTVSPropertyOp8
 70
     1
102
RTVSPropertyOp9
 70
     1
102
RTVSPropertyOp10
 70
     1
102
RTVSPropertyOp11
 70
     1
102
RTVSPropertyOp12
 70
     1
102
RTVSPropertyOp13
 70
     1
102
RTVSPropertyOp14
 70
     1
102
RTVSPropertyOp15
 70
     1
102
RTVSPropertyOp16
 70
     1
102
RTVSPropertyOp17
 70
     1
102
RTVSPropertyOp18
 70
     1
102
RTVSPropertyOp19
 70
     1
102
RTVSPropertyOp20
 70
     1
102
RTVSPropertyOp21
 70
     1
102
RTVSPropertyOp22
 70
     1
102
RTVSPropertyOp23
 70
     1
102
RTVSPropertyOp24
 70
     1
102
RTVSPropertyOp25
 70
     1
102
RTVSPropertyOp26
 70
     1
102
RTVSPropertyOp27
 70
     1
102
RTVSPropertyOp28
 70
     1
102
RTVSPropertyOp29
 70
     1
102
RTVSPropertyOp30
 70
     1
102
RTVSPropertyOp31
 70
     1
102
RTVSPropertyOp32
 70
     1
102
RTVSPropertyOp33
 70
     1
102
RTVSPropertyOp34
 70
     1
102
RTVSPropertyOp35
 70
     1
102
RTVSPropertyOp36
 70
     1
102
RTVSPropertyOp37
 70
     1
102
RTVSPropertyOp38
 70
     1
102
RTVSPropertyOp39
 70
     1
102
RTVSPropertyOp40
 70
     1
102
RTVSPropertyOp41
 70
     1
102
RTVSPropertyOp42
 70
     1
102
RTVSPropertyOp43
 70
     1
102
RTVSPropertyOp44
 70
     1
102
RTVSPropertyOp45
 70
     1
102
RTVSPropertyOp46
 70
     1
102
RTVSPropertyOp47
 70
     1
102
RTVSPropertyOp48
 70
     1
102
RTVSPropertyOp49
 70
     1
102
RTVSPropertyOp50
 70
     1
102
RTVSPropertyOp51
 70
     0
102
RTVSPropertyOp52
 70
     0
102
RTVSPropertyOp53
 70
     1
102
RTVSPropertyOp54
 70
     1
102
RTVSPropertyOp55
 70
     1
102
RTVSPropertyOp56
 70
     1
102
RTVSPropertyOp57
 70
     1
102
RTVSPropertyOp58
 70
     1
102
RTVSPropertyOp59
 70
     1
102
RTVSPropertyOp60
 70
     1
102
RTVSPropertyOp61
 70
     1
102
RTVSPropertyOp62
 70
     1
  0
XRECORD
  5
254D
102
{ACAD_REACTORS
330
254C
102
}
330
254C
100
AcDbXrecord
280
     1
102
RTVSPost2010Prop28
280
     0
102
RTVSPost2010PropOp28
 70
     1
102
RTVSPost2010Prop29
280
     1
102
RTVSPost2010PropOp29
 70
     1
102
RTVSPost2010Prop30
280
     1
102
RTVSPost2010PropOp30
 70
     1
102
RTVSPost2010Prop31
280
     0
102
RTVSPost2010PropOp31
 70
     1
102
RTVSPost2010Prop32
280
     0
102
RTVSPost2010PropOp32
 70
     1
102
RTVSPost2010Prop33
280
     0
102
RTVSPost2010PropOp33
 70
     1
102
RTVSPost2010Prop34
280
     0
102
RTVSPost2010PropOp34
 70
     1
102
RTVSPost2010Prop35
280
     0
102
RTVSPost2010PropOp35
 70
     1
102
RTVSPost2010Prop36
280
     0
102
RTVSPost2010PropOp36
 70
     1
102
RTVSPost2010Prop37
 90
       50
102
RTVSPost2010PropOp37
 70
     1
102
RTVSPost2010Prop38
140
0.0
102
RTVSPost2010PropOp38
 70
     1
102
RTVSPost2010Prop39
140
1.0
102
RTVSPost2010PropOp39
 70
     1
102
RTVSPost2010Prop40
 90
        0
102
RTVSPost2010PropOp40
 70
     1
102
RTVSPost2010Prop41ColorIndex
 90
       18
102
RTVSPost2010Prop41ColorRGB
 90
        0
102
RTVSPost2010PropOp41
 70
     1
102
RTVSPost2010Prop42
 90
       50
102
RTVSPost2010PropOp42
 70
     1
102
RTVSPost2010Prop43
 90
        3
102
RTVSPost2010PropOp43
 70
     1
102
RTVSPost2010Prop44ColorIndex
 90
        5
102
RTVSPost2010Prop44ColorRGB
 90
      255
102
RTVSPost2010PropOp44
 70
     1
102
RTVSPost2010Prop45
280
     0
102
RTVSPost2010PropOp45
 70
     1
102
RTVSPost2010Prop46
 90
       50
102
RTVSPost2010PropOp46
 70
     1
102
RTVSPost2010Prop47
 90
       50
102
RTVSPost2010PropOp47
 70
     1
102
RTVSPost2010Prop48
 90
       50
102
RTVSPost2010PropOp48
 70
     1
102
RTVSPost2010Prop49
280
     0
102
RTVSPost2010PropOp49
 70
     1
102
RTVSPost2010Prop50
 90
       50
102
RTVSPost2010PropOp50
 70
     1
102
RTVSPost2010Prop51ColorIndex
 90
      256
102
RTVSPost2010Prop51ColorRGB
 90
-16777216
102
RTVSPost2010PropOp51
 70
     0
102
RTVSPost2010Prop52
140
1.0
102
RTVSPost2010PropOp52
 70
     0
102
RTVSPost2010Prop53
 90
        2
102
RTVSPost2010PropOp53
 70
     1
102
RTVSPost2010Prop54
  1
strokes_ogs.tif
102
RTVSPost2010PropOp54
 70
     1
102
RTVSPost2010Prop55
280
     0
102
RTVSPost2010PropOp55
 70
     1
102
RTVSPost2010Prop56
140
1.0
102
RTVSPost2010PropOp56
 70
     1
102
RTVSPost2010Prop57
140
1.0
102
RTVSPost2010PropOp57
 70
     1
102
RTVSPropertyOp0
 70
     1
102
RTVSPropertyOp1
 70
     1
102
RTVSPropertyOp2
 70
     1
102
RTVSPropertyOp3
 70
     1
102
RTVSPropertyOp4
 70
     1
102
RTVSPropertyOp5
 70
     1
102
RTVSPropertyOp6
 70
     1
102
RTVSPropertyOp7
 70
     1
102
RTVSPropertyOp8
 70
     1
102
RTVSPropertyOp9
 70
     1
102
RTVSPropertyOp10
 70
     1
102
RTVSPropertyOp11
 70
     1
102
RTVSPropertyOp12
 70
     1
102
RTVSPropertyOp13
 70
     1
102
RTVSPropertyOp14
 70
     1
102
RTVSPropertyOp15
 70
     1
102
RTVSPropertyOp16
 70
     1
102
RTVSPropertyOp17
 70
     1
102
RTVSPropertyOp18
 70
     1
102
RTVSPropertyOp19
 70
     1
102
RTVSPropertyOp20
 70
     1
102
RTVSPropertyOp21
 70
     1
102
RTVSPropertyOp22
 70
     1
102
RTVSPropertyOp23
 70
     1
102
RTVSPropertyOp24
 70
     1
102
RTVSPropertyOp25
 70
     1
102
RTVSPropertyOp26
 70
     1
102
RTVSPropertyOp27
 70
     1
102
RTVSPropertyOp28
 70
     1
102
RTVSPropertyOp29
 70
     1
102
RTVSPropertyOp30
 70
     1
102
RTVSPropertyOp31
 70
     1
102
RTVSPropertyOp32
 70
     1
102
RTVSPropertyOp33
 70
     1
102
RTVSPropertyOp34
 70
     1
102
RTVSPropertyOp35
 70
     1
102
RTVSPropertyOp36
 70
     1
102
RTVSPropertyOp37
 70
     1
102
RTVSPropertyOp38
 70
     1
102
RTVSPropertyOp39
 70
     1
102
RTVSPropertyOp40
 70
     1
102
RTVSPropertyOp41
 70
     1
102
RTVSPropertyOp42
 70
     1
102
RTVSPropertyOp43
 70
     1
102
RTVSPropertyOp44
 70
     1
102
RTVSPropertyOp45
 70
     1
102
RTVSPropertyOp46
 70
     1
102
RTVSPropertyOp47
 70
     1
102
RTVSPropertyOp48
 70
     1
102
RTVSPropertyOp49
 70
     1
102
RTVSPropertyOp50
 70
     1
102
RTVSPropertyOp51
 70
     0
102
RTVSPropertyOp52
 70
     0
102
RTVSPropertyOp53
 70
     1
102
RTVSPropertyOp54
 70
     1
102
RTVSPropertyOp55
 70
     1
102
RTVSPropertyOp56
 70
     1
102
RTVSPropertyOp57
 70
     1
102
RTVSPropertyOp58
 70
     1
102
RTVSPropertyOp59
 70
     1
102
RTVSPropertyOp60
 70
     1
102
RTVSPropertyOp61
 70
     1
102
RTVSPropertyOp62
 70
     1
  0
XRECORD
  5
2567
102
{ACAD_REACTORS
330
2566
102
}
330
2566
100
AcDbXrecord
280
     1
102
RTVSPost2010Prop28
280
     0
102
RTVSPost2010PropOp28
 70
     1
102
RTVSPost2010Prop29
280
     1
102
RTVSPost2010PropOp29
 70
     1
102
RTVSPost2010Prop30
280
     1
102
RTVSPost2010PropOp30
 70
     1
102
RTVSPost2010Prop31
280
     0
102
RTVSPost2010PropOp31
 70
     1
102
RTVSPost2010Prop32
280
     0
102
RTVSPost2010PropOp32
 70
     1
102
RTVSPost2010Prop33
280
     0
102
RTVSPost2010PropOp33
 70
     1
102
RTVSPost2010Prop34
280
     0
102
RTVSPost2010PropOp34
 70
     1
102
RTVSPost2010Prop35
280
     0
102
RTVSPost2010PropOp35
 70
     1
102
RTVSPost2010Prop36
280
     0
102
RTVSPost2010PropOp36
 70
     1
102
RTVSPost2010Prop37
 90
       50
102
RTVSPost2010PropOp37
 70
     0
102
RTVSPost2010Prop38
140
0.0
102
RTVSPost2010PropOp38
 70
     0
102
RTVSPost2010Prop39
140
1.0
102
RTVSPost2010PropOp39
 70
     0
102
RTVSPost2010Prop40
 90
        0
102
RTVSPost2010PropOp40
 70
     0
102
RTVSPost2010Prop41ColorIndex
 90
       18
102
RTVSPost2010Prop41ColorRGB
 90
        0
102
RTVSPost2010PropOp41
 70
     0
102
RTVSPost2010Prop42
 90
       50
102
RTVSPost2010PropOp42
 70
     0
102
RTVSPost2010Prop43
 90
        3
102
RTVSPost2010PropOp43
 70
     0
102
RTVSPost2010Prop44ColorIndex
 90
        5
102
RTVSPost2010Prop44ColorRGB
 90
      255
102
RTVSPost2010PropOp44
 70
     0
102
RTVSPost2010Prop45
280
     0
102
RTVSPost2010PropOp45
 70
     1
102
RTVSPost2010Prop46
 90
       50
102
RTVSPost2010PropOp46
 70
     0
102
RTVSPost2010Prop47
 90
       50
102
RTVSPost2010PropOp47
 70
     0
102
RTVSPost2010Prop48
 90
       50
102
RTVSPost2010PropOp48
 70
     0
102
RTVSPost2010Prop49
280
     0
102
RTVSPost2010PropOp49
 70
     1
102
RTVSPost2010Prop50
 90
       50
102
RTVSPost2010PropOp50
 70
     0
102
RTVSPost2010Prop51ColorIndex
 90
      256
102
RTVSPost2010Prop51ColorRGB
 90
-16777216
102
RTVSPost2010PropOp51
 70
     0
102
RTVSPost2010Prop52
140
1.0
102
RTVSPost2010PropOp52
 70
     0
102
RTVSPost2010Prop53
 90
        2
102
RTVSPost2010PropOp53
 70
     0
102
RTVSPost2010Prop54
  1
strokes_ogs.tif
102
RTVSPost2010PropOp54
 70
     0
102
RTVSPost2010Prop55
280
     0
102
RTVSPost2010PropOp55
 70
     1
102
RTVSPost2010Prop56
140
1.0
102
RTVSPost2010PropOp56
 70
     0
102
RTVSPost2010Prop57
140
1.0
102
RTVSPost2010PropOp57
 70
     0
102
RTVSPropertyOp0
 70
     0
102
RTVSPropertyOp1
 70
     0
102
RTVSPropertyOp2
 70
     0
102
RTVSPropertyOp3
 70
     0
102
RTVSPropertyOp4
 70
     0
102
RTVSPropertyOp5
 70
     0
102
RTVSPropertyOp6
 70
     0
102
RTVSPropertyOp7
 70
     0
102
RTVSPropertyOp8
 70
     0
102
RTVSPropertyOp9
 70
     0
102
RTVSPropertyOp10
 70
     0
102
RTVSPropertyOp11
 70
     0
102
RTVSPropertyOp12
 70
     0
102
RTVSPropertyOp13
 70
     0
102
RTVSPropertyOp14
 70
     2
102
RTVSPropertyOp15
 70
     0
102
RTVSPropertyOp16
 70
     0
102
RTVSPropertyOp17
 70
     0
102
RTVSPropertyOp18
 70
     0
102
RTVSPropertyOp19
 70
     0
102
RTVSPropertyOp20
 70
     0
102
RTVSPropertyOp21
 70
     0
102
RTVSPropertyOp22
 70
     0
102
RTVSPropertyOp23
 70
     0
102
RTVSPropertyOp24
 70
     0
102
RTVSPropertyOp25
 70
     0
102
RTVSPropertyOp26
 70
     0
102
RTVSPropertyOp27
 70
     0
102
RTVSPropertyOp28
 70
     1
102
RTVSPropertyOp29
 70
     1
102
RTVSPropertyOp30
 70
     1
102
RTVSPropertyOp31
 70
     1
102
RTVSPropertyOp32
 70
     1
102
RTVSPropertyOp33
 70
     1
102
RTVSPropertyOp34
 70
     1
102
RTVSPropertyOp35
 70
     1
102
RTVSPropertyOp36
 70
     1
102
RTVSPropertyOp37
 70
     0
102
RTVSPropertyOp38
 70
     0
102
RTVSPropertyOp39
 70
     0
102
RTVSPropertyOp40
 70
     0
102
RTVSPropertyOp41
 70
     0
102
RTVSPropertyOp42
 70
     0
102
RTVSPropertyOp43
 70
     0
102
RTVSPropertyOp44
 70
     0
102
RTVSPropertyOp45
 70
     1
102
RTVSPropertyOp46
 70
     0
102
RTVSPropertyOp47
 70
     0
102
RTVSPropertyOp48
 70
     0
102
RTVSPropertyOp49
 70
     1
102
RTVSPropertyOp50
 70
     0
102
RTVSPropertyOp51
 70
     0
102
RTVSPropertyOp52
 70
     0
102
RTVSPropertyOp53
 70
     0
102
RTVSPropertyOp54
 70
     0
102
RTVSPropertyOp55
 70
     1
102
RTVSPropertyOp56
 70
     0
102
RTVSPropertyOp57
 70
     0
102
RTVSPropertyOp58
 70
     0
102
RTVSPropertyOp59
 70
     0
102
RTVSPropertyOp60
 70
     0
102
RTVSPropertyOp61
 70
     0
102
RTVSPropertyOp62
 70
     0
  0
XRECORD
  5
2555
102
{ACAD_REACTORS
330
2554
102
}
330
2554
100
AcDbXrecord
280
     1
102
RTVSPost2010Prop28
280
     0
102
RTVSPost2010PropOp28
 70
     1
102
RTVSPost2010Prop29
280
     1
102
RTVSPost2010PropOp29
 70
     1
102
RTVSPost2010Prop30
280
     1
102
RTVSPost2010PropOp30
 70
     1
102
RTVSPost2010Prop31
280
     0
102
RTVSPost2010PropOp31
 70
     1
102
RTVSPost2010Prop32
280
     0
102
RTVSPost2010PropOp32
 70
     1
102
RTVSPost2010Prop33
280
     0
102
RTVSPost2010PropOp33
 70
     1
102
RTVSPost2010Prop34
280
     0
102
RTVSPost2010PropOp34
 70
     1
102
RTVSPost2010Prop35
280
     0
102
RTVSPost2010PropOp35
 70
     1
102
RTVSPost2010Prop36
280
     0
102
RTVSPost2010PropOp36
 70
     1
102
RTVSPost2010Prop37
 90
       50
102
RTVSPost2010PropOp37
 70
     1
102
RTVSPost2010Prop38
140
0.0
102
RTVSPost2010PropOp38
 70
     1
102
RTVSPost2010Prop39
140
1.0
102
RTVSPost2010PropOp39
 70
     1
102
RTVSPost2010Prop40
 90
        0
102
RTVSPost2010PropOp40
 70
     1
102
RTVSPost2010Prop41ColorIndex
 90
       18
102
RTVSPost2010Prop41ColorRGB
 90
        0
102
RTVSPost2010PropOp41
 70
     1
102
RTVSPost2010Prop42
 90
       50
102
RTVSPost2010PropOp42
 70
     1
102
RTVSPost2010Prop43
 90
        3
102
RTVSPost2010PropOp43
 70
     1
102
RTVSPost2010Prop44ColorIndex
 90
        5
102
RTVSPost2010Prop44ColorRGB
 90
      255
102
RTVSPost2010PropOp44
 70
     1
102
RTVSPost2010Prop45
280
     0
102
RTVSPost2010PropOp45
 70
     1
102
RTVSPost2010Prop46
 90
       50
102
RTVSPost2010PropOp46
 70
     1
102
RTVSPost2010Prop47
 90
       50
102
RTVSPost2010PropOp47
 70
     1
102
RTVSPost2010Prop48
 90
       50
102
RTVSPost2010PropOp48
 70
     1
102
RTVSPost2010Prop49
280
     0
102
RTVSPost2010PropOp49
 70
     1
102
RTVSPost2010Prop50
 90
       50
102
RTVSPost2010PropOp50
 70
     1
102
RTVSPost2010Prop51ColorIndex
 90
      256
102
RTVSPost2010Prop51ColorRGB
 90
-16777216
102
RTVSPost2010PropOp51
 70
     0
102
RTVSPost2010Prop52
140
1.0
102
RTVSPost2010PropOp52
 70
     0
102
RTVSPost2010Prop53
 90
        2
102
RTVSPost2010PropOp53
 70
     1
102
RTVSPost2010Prop54
  1
strokes_ogs.tif
102
RTVSPost2010PropOp54
 70
     1
102
RTVSPost2010Prop55
280
     0
102
RTVSPost2010PropOp55
 70
     1
102
RTVSPost2010Prop56
140
1.0
102
RTVSPost2010PropOp56
 70
     1
102
RTVSPost2010Prop57
140
1.0
102
RTVSPost2010PropOp57
 70
     1
102
RTVSPropertyOp0
 70
     1
102
RTVSPropertyOp1
 70
     1
102
RTVSPropertyOp2
 70
     1
102
RTVSPropertyOp3
 70
     1
102
RTVSPropertyOp4
 70
     1
102
RTVSPropertyOp5
 70
     1
102
RTVSPropertyOp6
 70
     1
102
RTVSPropertyOp7
 70
     1
102
RTVSPropertyOp8
 70
     1
102
RTVSPropertyOp9
 70
     1
102
RTVSPropertyOp10
 70
     1
102
RTVSPropertyOp11
 70
     1
102
RTVSPropertyOp12
 70
     1
102
RTVSPropertyOp13
 70
     1
102
RTVSPropertyOp14
 70
     1
102
RTVSPropertyOp15
 70
     1
102
RTVSPropertyOp16
 70
     1
102
RTVSPropertyOp17
 70
     1
102
RTVSPropertyOp18
 70
     1
102
RTVSPropertyOp19
 70
     1
102
RTVSPropertyOp20
 70
     1
102
RTVSPropertyOp21
 70
     1
102
RTVSPropertyOp22
 70
     1
102
RTVSPropertyOp23
 70
     1
102
RTVSPropertyOp24
 70
     1
102
RTVSPropertyOp25
 70
     1
102
RTVSPropertyOp26
 70
     1
102
RTVSPropertyOp27
 70
     1
102
RTVSPropertyOp28
 70
     1
102
RTVSPropertyOp29
 70
     1
102
RTVSPropertyOp30
 70
     1
102
RTVSPropertyOp31
 70
     1
102
RTVSPropertyOp32
 70
     1
102
RTVSPropertyOp33
 70
     1
102
RTVSPropertyOp34
 70
     1
102
RTVSPropertyOp35
 70
     1
102
RTVSPropertyOp36
 70
     1
102
RTVSPropertyOp37
 70
     1
102
RTVSPropertyOp38
 70
     1
102
RTVSPropertyOp39
 70
     1
102
RTVSPropertyOp40
 70
     1
102
RTVSPropertyOp41
 70
     1
102
RTVSPropertyOp42
 70
     1
102
RTVSPropertyOp43
 70
     1
102
RTVSPropertyOp44
 70
     1
102
RTVSPropertyOp45
 70
     1
102
RTVSPropertyOp46
 70
     1
102
RTVSPropertyOp47
 70
     1
102
RTVSPropertyOp48
 70
     1
102
RTVSPropertyOp49
 70
     1
102
RTVSPropertyOp50
 70
     1
102
RTVSPropertyOp51
 70
     0
102
RTVSPropertyOp52
 70
     0
102
RTVSPropertyOp53
 70
     1
102
RTVSPropertyOp54
 70
     1
102
RTVSPropertyOp55
 70
     1
102
RTVSPropertyOp56
 70
     1
102
RTVSPropertyOp57
 70
     1
102
RTVSPropertyOp58
 70
     1
102
RTVSPropertyOp59
 70
     1
102
RTVSPropertyOp60
 70
     1
102
RTVSPropertyOp61
 70
     1
102
RTVSPropertyOp62
 70
     1
  0
XRECORD
  5
2539
102
{ACAD_REACTORS
330
2538
102
}
330
2538
100
AcDbXrecord
280
     1
102
RTVSPost2010Prop28
280
     0
102
RTVSPost2010PropOp28
 70
     1
102
RTVSPost2010Prop29
280
     1
102
RTVSPost2010PropOp29
 70
     1
102
RTVSPost2010Prop30
280
     1
102
RTVSPost2010PropOp30
 70
     1
102
RTVSPost2010Prop31
280
     0
102
RTVSPost2010PropOp31
 70
     1
102
RTVSPost2010Prop32
280
     0
102
RTVSPost2010PropOp32
 70
     1
102
RTVSPost2010Prop33
280
     0
102
RTVSPost2010PropOp33
 70
     1
102
RTVSPost2010Prop34
280
     0
102
RTVSPost2010PropOp34
 70
     1
102
RTVSPost2010Prop35
280
     0
102
RTVSPost2010PropOp35
 70
     1
102
RTVSPost2010Prop36
280
     0
102
RTVSPost2010PropOp36
 70
     1
102
RTVSPost2010Prop37
 90
       50
102
RTVSPost2010PropOp37
 70
     1
102
RTVSPost2010Prop38
140
0.0
102
RTVSPost2010PropOp38
 70
     1
102
RTVSPost2010Prop39
140
1.0
102
RTVSPost2010PropOp39
 70
     1
102
RTVSPost2010Prop40
 90
        0
102
RTVSPost2010PropOp40
 70
     1
102
RTVSPost2010Prop41ColorIndex
 90
       18
102
RTVSPost2010Prop41ColorRGB
 90
        0
102
RTVSPost2010PropOp41
 70
     1
102
RTVSPost2010Prop42
 90
       50
102
RTVSPost2010PropOp42
 70
     1
102
RTVSPost2010Prop43
 90
        3
102
RTVSPost2010PropOp43
 70
     1
102
RTVSPost2010Prop44ColorIndex
 90
        5
102
RTVSPost2010Prop44ColorRGB
 90
      255
102
RTVSPost2010PropOp44
 70
     1
102
RTVSPost2010Prop45
280
     0
102
RTVSPost2010PropOp45
 70
     1
102
RTVSPost2010Prop46
 90
       50
102
RTVSPost2010PropOp46
 70
     1
102
RTVSPost2010Prop47
 90
       50
102
RTVSPost2010PropOp47
 70
     1
102
RTVSPost2010Prop48
 90
       50
102
RTVSPost2010PropOp48
 70
     1
102
RTVSPost2010Prop49
280
     0
102
RTVSPost2010PropOp49
 70
     1
102
RTVSPost2010Prop50
 90
       50
102
RTVSPost2010PropOp50
 70
     1
102
RTVSPost2010Prop51ColorIndex
 90
      256
102
RTVSPost2010Prop51ColorRGB
 90
-16777216
102
RTVSPost2010PropOp51
 70
     0
102
RTVSPost2010Prop52
140
1.0
102
RTVSPost2010PropOp52
 70
     0
102
RTVSPost2010Prop53
 90
        2
102
RTVSPost2010PropOp53
 70
     1
102
RTVSPost2010Prop54
  1
strokes_ogs.tif
102
RTVSPost2010PropOp54
 70
     1
102
RTVSPost2010Prop55
280
     0
102
RTVSPost2010PropOp55
 70
     1
102
RTVSPost2010Prop56
140
1.0
102
RTVSPost2010PropOp56
 70
     1
102
RTVSPost2010Prop57
140
1.0
102
RTVSPost2010PropOp57
 70
     1
102
RTVSPropertyOp0
 70
     1
102
RTVSPropertyOp1
 70
     1
102
RTVSPropertyOp2
 70
     1
102
RTVSPropertyOp3
 70
     1
102
RTVSPropertyOp4
 70
     1
102
RTVSPropertyOp5
 70
     1
102
RTVSPropertyOp6
 70
     1
102
RTVSPropertyOp7
 70
     1
102
RTVSPropertyOp8
 70
     1
102
RTVSPropertyOp9
 70
     1
102
RTVSPropertyOp10
 70
     1
102
RTVSPropertyOp11
 70
     1
102
RTVSPropertyOp12
 70
     1
102
RTVSPropertyOp13
 70
     1
102
RTVSPropertyOp14
 70
     1
102
RTVSPropertyOp15
 70
     1
102
RTVSPropertyOp16
 70
     1
102
RTVSPropertyOp17
 70
     1
102
RTVSPropertyOp18
 70
     1
102
RTVSPropertyOp19
 70
     1
102
RTVSPropertyOp20
 70
     1
102
RTVSPropertyOp21
 70
     1
102
RTVSPropertyOp22
 70
     1
102
RTVSPropertyOp23
 70
     1
102
RTVSPropertyOp24
 70
     1
102
RTVSPropertyOp25
 70
     1
102
RTVSPropertyOp26
 70
     1
102
RTVSPropertyOp27
 70
     1
102
RTVSPropertyOp28
 70
     1
102
RTVSPropertyOp29
 70
     1
102
RTVSPropertyOp30
 70
     1
102
RTVSPropertyOp31
 70
     1
102
RTVSPropertyOp32
 70
     1
102
RTVSPropertyOp33
 70
     1
102
RTVSPropertyOp34
 70
     1
102
RTVSPropertyOp35
 70
     1
102
RTVSPropertyOp36
 70
     1
102
RTVSPropertyOp37
 70
     1
102
RTVSPropertyOp38
 70
     1
102
RTVSPropertyOp39
 70
     1
102
RTVSPropertyOp40
 70
     1
102
RTVSPropertyOp41
 70
     1
102
RTVSPropertyOp42
 70
     1
102
RTVSPropertyOp43
 70
     1
102
RTVSPropertyOp44
 70
     1
102
RTVSPropertyOp45
 70
     1
102
RTVSPropertyOp46
 70
     1
102
RTVSPropertyOp47
 70
     1
102
RTVSPropertyOp48
 70
     1
102
RTVSPropertyOp49
 70
     1
102
RTVSPropertyOp50
 70
     1
102
RTVSPropertyOp51
 70
     0
102
RTVSPropertyOp52
 70
     0
102
RTVSPropertyOp53
 70
     1
102
RTVSPropertyOp54
 70
     1
102
RTVSPropertyOp55
 70
     1
102
RTVSPropertyOp56
 70
     1
102
RTVSPropertyOp57
 70
     1
102
RTVSPropertyOp58
 70
     1
102
RTVSPropertyOp59
 70
     1
102
RTVSPropertyOp60
 70
     1
102
RTVSPropertyOp61
 70
     1
102
RTVSPropertyOp62
 70
     1
  0
XRECORD
  5
253B
102
{ACAD_REACTORS
330
253A
102
}
330
253A
100
AcDbXrecord
280
     1
102
RTVSPost2010Prop28
280
     0
102
RTVSPost2010PropOp28
 70
     1
102
RTVSPost2010Prop29
280
     1
102
RTVSPost2010PropOp29
 70
     1
102
RTVSPost2010Prop30
280
     1
102
RTVSPost2010PropOp30
 70
     1
102
RTVSPost2010Prop31
280
     0
102
RTVSPost2010PropOp31
 70
     1
102
RTVSPost2010Prop32
280
     0
102
RTVSPost2010PropOp32
 70
     1
102
RTVSPost2010Prop33
280
     0
102
RTVSPost2010PropOp33
 70
     1
102
RTVSPost2010Prop34
280
     0
102
RTVSPost2010PropOp34
 70
     1
102
RTVSPost2010Prop35
280
     0
102
RTVSPost2010PropOp35
 70
     1
102
RTVSPost2010Prop36
280
     0
102
RTVSPost2010PropOp36
 70
     1
102
RTVSPost2010Prop37
 90
       50
102
RTVSPost2010PropOp37
 70
     1
102
RTVSPost2010Prop38
140
0.0
102
RTVSPost2010PropOp38
 70
     1
102
RTVSPost2010Prop39
140
1.0
102
RTVSPost2010PropOp39
 70
     1
102
RTVSPost2010Prop40
 90
        0
102
RTVSPost2010PropOp40
 70
     1
102
RTVSPost2010Prop41ColorIndex
 90
       18
102
RTVSPost2010Prop41ColorRGB
 90
        0
102
RTVSPost2010PropOp41
 70
     1
102
RTVSPost2010Prop42
 90
       50
102
RTVSPost2010PropOp42
 70
     1
102
RTVSPost2010Prop43
 90
        3
102
RTVSPost2010PropOp43
 70
     1
102
RTVSPost2010Prop44ColorIndex
 90
        5
102
RTVSPost2010Prop44ColorRGB
 90
      255
102
RTVSPost2010PropOp44
 70
     1
102
RTVSPost2010Prop45
280
     0
102
RTVSPost2010PropOp45
 70
     1
102
RTVSPost2010Prop46
 90
       50
102
RTVSPost2010PropOp46
 70
     1
102
RTVSPost2010Prop47
 90
       50
102
RTVSPost2010PropOp47
 70
     1
102
RTVSPost2010Prop48
 90
       50
102
RTVSPost2010PropOp48
 70
     1
102
RTVSPost2010Prop49
280
     0
102
RTVSPost2010PropOp49
 70
     1
102
RTVSPost2010Prop50
 90
       50
102
RTVSPost2010PropOp50
 70
     1
102
RTVSPost2010Prop51ColorIndex
 90
      256
102
RTVSPost2010Prop51ColorRGB
 90
-16777216
102
RTVSPost2010PropOp51
 70
     0
102
RTVSPost2010Prop52
140
1.0
102
RTVSPost2010PropOp52
 70
     0
102
RTVSPost2010Prop53
 90
        2
102
RTVSPost2010PropOp53
 70
     1
102
RTVSPost2010Prop54
  1
strokes_ogs.tif
102
RTVSPost2010PropOp54
 70
     1
102
RTVSPost2010Prop55
280
     0
102
RTVSPost2010PropOp55
 70
     1
102
RTVSPost2010Prop56
140
1.0
102
RTVSPost2010PropOp56
 70
     1
102
RTVSPost2010Prop57
140
1.0
102
RTVSPost2010PropOp57
 70
     1
102
RTVSPropertyOp0
 70
     1
102
RTVSPropertyOp1
 70
     1
102
RTVSPropertyOp2
 70
     1
102
RTVSPropertyOp3
 70
     1
102
RTVSPropertyOp4
 70
     1
102
RTVSPropertyOp5
 70
     1
102
RTVSPropertyOp6
 70
     1
102
RTVSPropertyOp7
 70
     1
102
RTVSPropertyOp8
 70
     1
102
RTVSPropertyOp9
 70
     1
102
RTVSPropertyOp10
 70
     1
102
RTVSPropertyOp11
 70
     1
102
RTVSPropertyOp12
 70
     1
102
RTVSPropertyOp13
 70
     1
102
RTVSPropertyOp14
 70
     1
102
RTVSPropertyOp15
 70
     1
102
RTVSPropertyOp16
 70
     1
102
RTVSPropertyOp17
 70
     1
102
RTVSPropertyOp18
 70
     1
102
RTVSPropertyOp19
 70
     1
102
RTVSPropertyOp20
 70
     1
102
RTVSPropertyOp21
 70
     1
102
RTVSPropertyOp22
 70
     1
102
RTVSPropertyOp23
 70
     1
102
RTVSPropertyOp24
 70
     1
102
RTVSPropertyOp25
 70
     1
102
RTVSPropertyOp26
 70
     1
102
RTVSPropertyOp27
 70
     1
102
RTVSPropertyOp28
 70
     1
102
RTVSPropertyOp29
 70
     1
102
RTVSPropertyOp30
 70
     1
102
RTVSPropertyOp31
 70
     1
102
RTVSPropertyOp32
 70
     1
102
RTVSPropertyOp33
 70
     1
102
RTVSPropertyOp34
 70
     1
102
RTVSPropertyOp35
 70
     1
102
RTVSPropertyOp36
 70
     1
102
RTVSPropertyOp37
 70
     1
102
RTVSPropertyOp38
 70
     1
102
RTVSPropertyOp39
 70
     1
102
RTVSPropertyOp40
 70
     1
102
RTVSPropertyOp41
 70
     1
102
RTVSPropertyOp42
 70
     1
102
RTVSPropertyOp43
 70
     1
102
RTVSPropertyOp44
 70
     1
102
RTVSPropertyOp45
 70
     1
102
RTVSPropertyOp46
 70
     1
102
RTVSPropertyOp47
 70
     1
102
RTVSPropertyOp48
 70
     1
102
RTVSPropertyOp49
 70
     1
102
RTVSPropertyOp50
 70
     1
102
RTVSPropertyOp51
 70
     0
102
RTVSPropertyOp52
 70
     0
102
RTVSPropertyOp53
 70
     1
102
RTVSPropertyOp54
 70
     1
102
RTVSPropertyOp55
 70
     1
102
RTVSPropertyOp56
 70
     1
102
RTVSPropertyOp57
 70
     1
102
RTVSPropertyOp58
 70
     1
102
RTVSPropertyOp59
 70
     1
102
RTVSPropertyOp60
 70
     1
102
RTVSPropertyOp61
 70
     1
102
RTVSPropertyOp62
 70
     1
  0
XRECORD
  5
253D
102
{ACAD_REACTORS
330
253C
102
}
330
253C
100
AcDbXrecord
280
     1
102
RTVSPost2010Prop28
280
     0
102
RTVSPost2010PropOp28
 70
     1
102
RTVSPost2010Prop29
280
     1
102
RTVSPost2010PropOp29
 70
     1
102
RTVSPost2010Prop30
280
     1
102
RTVSPost2010PropOp30
 70
     1
102
RTVSPost2010Prop31
280
     0
102
RTVSPost2010PropOp31
 70
     1
102
RTVSPost2010Prop32
280
     0
102
RTVSPost2010PropOp32
 70
     1
102
RTVSPost2010Prop33
280
     0
102
RTVSPost2010PropOp33
 70
     1
102
RTVSPost2010Prop34
280
     0
102
RTVSPost2010PropOp34
 70
     1
102
RTVSPost2010Prop35
280
     0
102
RTVSPost2010PropOp35
 70
     1
102
RTVSPost2010Prop36
280
     0
102
RTVSPost2010PropOp36
 70
     1
102
RTVSPost2010Prop37
 90
       50
102
RTVSPost2010PropOp37
 70
     1
102
RTVSPost2010Prop38
140
0.0
102
RTVSPost2010PropOp38
 70
     1
102
RTVSPost2010Prop39
140
1.0
102
RTVSPost2010PropOp39
 70
     1
102
RTVSPost2010Prop40
 90
        0
102
RTVSPost2010PropOp40
 70
     1
102
RTVSPost2010Prop41ColorIndex
 90
       18
102
RTVSPost2010Prop41ColorRGB
 90
        0
102
RTVSPost2010PropOp41
 70
     1
102
RTVSPost2010Prop42
 90
       50
102
RTVSPost2010PropOp42
 70
     1
102
RTVSPost2010Prop43
 90
        3
102
RTVSPost2010PropOp43
 70
     1
102
RTVSPost2010Prop44ColorIndex
 90
        5
102
RTVSPost2010Prop44ColorRGB
 90
      255
102
RTVSPost2010PropOp44
 70
     1
102
RTVSPost2010Prop45
280
     0
102
RTVSPost2010PropOp45
 70
     1
102
RTVSPost2010Prop46
 90
       50
102
RTVSPost2010PropOp46
 70
     1
102
RTVSPost2010Prop47
 90
       50
102
RTVSPost2010PropOp47
 70
     1
102
RTVSPost2010Prop48
 90
       50
102
RTVSPost2010PropOp48
 70
     1
102
RTVSPost2010Prop49
280
     0
102
RTVSPost2010PropOp49
 70
     1
102
RTVSPost2010Prop50
 90
       50
102
RTVSPost2010PropOp50
 70
     1
102
RTVSPost2010Prop51ColorIndex
 90
      256
102
RTVSPost2010Prop51ColorRGB
 90
-16777216
102
RTVSPost2010PropOp51
 70
     0
102
RTVSPost2010Prop52
140
1.0
102
RTVSPost2010PropOp52
 70
     0
102
RTVSPost2010Prop53
 90
        2
102
RTVSPost2010PropOp53
 70
     1
102
RTVSPost2010Prop54
  1
strokes_ogs.tif
102
RTVSPost2010PropOp54
 70
     1
102
RTVSPost2010Prop55
280
     0
102
RTVSPost2010PropOp55
 70
     1
102
RTVSPost2010Prop56
140
1.0
102
RTVSPost2010PropOp56
 70
     1
102
RTVSPost2010Prop57
140
1.0
102
RTVSPost2010PropOp57
 70
     1
102
RTVSPropertyOp0
 70
     1
102
RTVSPropertyOp1
 70
     1
102
RTVSPropertyOp2
 70
     1
102
RTVSPropertyOp3
 70
     1
102
RTVSPropertyOp4
 70
     1
102
RTVSPropertyOp5
 70
     1
102
RTVSPropertyOp6
 70
     1
102
RTVSPropertyOp7
 70
     1
102
RTVSPropertyOp8
 70
     1
102
RTVSPropertyOp9
 70
     1
102
RTVSPropertyOp10
 70
     1
102
RTVSPropertyOp11
 70
     1
102
RTVSPropertyOp12
 70
     1
102
RTVSPropertyOp13
 70
     1
102
RTVSPropertyOp14
 70
     1
102
RTVSPropertyOp15
 70
     1
102
RTVSPropertyOp16
 70
     1
102
RTVSPropertyOp17
 70
     1
102
RTVSPropertyOp18
 70
     1
102
RTVSPropertyOp19
 70
     1
102
RTVSPropertyOp20
 70
     1
102
RTVSPropertyOp21
 70
     1
102
RTVSPropertyOp22
 70
     1
102
RTVSPropertyOp23
 70
     1
102
RTVSPropertyOp24
 70
     1
102
RTVSPropertyOp25
 70
     1
102
RTVSPropertyOp26
 70
     1
102
RTVSPropertyOp27
 70
     1
102
RTVSPropertyOp28
 70
     1
102
RTVSPropertyOp29
 70
     1
102
RTVSPropertyOp30
 70
     1
102
RTVSPropertyOp31
 70
     1
102
RTVSPropertyOp32
 70
     1
102
RTVSPropertyOp33
 70
     1
102
RTVSPropertyOp34
 70
     1
102
RTVSPropertyOp35
 70
     1
102
RTVSPropertyOp36
 70
     1
102
RTVSPropertyOp37
 70
     1
102
RTVSPropertyOp38
 70
     1
102
RTVSPropertyOp39
 70
     1
102
RTVSPropertyOp40
 70
     1
102
RTVSPropertyOp41
 70
     1
102
RTVSPropertyOp42
 70
     1
102
RTVSPropertyOp43
 70
     1
102
RTVSPropertyOp44
 70
     1
102
RTVSPropertyOp45
 70
     1
102
RTVSPropertyOp46
 70
     1
102
RTVSPropertyOp47
 70
     1
102
RTVSPropertyOp48
 70
     1
102
RTVSPropertyOp49
 70
     1
102
RTVSPropertyOp50
 70
     1
102
RTVSPropertyOp51
 70
     0
102
RTVSPropertyOp52
 70
     0
102
RTVSPropertyOp53
 70
     1
102
RTVSPropertyOp54
 70
     1
102
RTVSPropertyOp55
 70
     1
102
RTVSPropertyOp56
 70
     1
102
RTVSPropertyOp57
 70
     1
102
RTVSPropertyOp58
 70
     1
102
RTVSPropertyOp59
 70
     1
102
RTVSPropertyOp60
 70
     1
102
RTVSPropertyOp61
 70
     1
102
RTVSPropertyOp62
 70
     1
  0
XRECORD
  5
253F
102
{ACAD_REACTORS
330
253E
102
}
330
253E
100
AcDbXrecord
280
     1
102
RTVSPost2010Prop28
280
     0
102
RTVSPost2010PropOp28
 70
     1
102
RTVSPost2010Prop29
280
     1
102
RTVSPost2010PropOp29
 70
     1
102
RTVSPost2010Prop30
280
     1
102
RTVSPost2010PropOp30
 70
     1
102
RTVSPost2010Prop31
280
     0
102
RTVSPost2010PropOp31
 70
     1
102
RTVSPost2010Prop32
280
     0
102
RTVSPost2010PropOp32
 70
     1
102
RTVSPost2010Prop33
280
     0
102
RTVSPost2010PropOp33
 70
     1
102
RTVSPost2010Prop34
280
     0
102
RTVSPost2010PropOp34
 70
     1
102
RTVSPost2010Prop35
280
     0
102
RTVSPost2010PropOp35
 70
     1
102
RTVSPost2010Prop36
280
     0
102
RTVSPost2010PropOp36
 70
     1
102
RTVSPost2010Prop37
 90
       50
102
RTVSPost2010PropOp37
 70
     1
102
RTVSPost2010Prop38
140
0.0
102
RTVSPost2010PropOp38
 70
     1
102
RTVSPost2010Prop39
140
1.0
102
RTVSPost2010PropOp39
 70
     1
102
RTVSPost2010Prop40
 90
        0
102
RTVSPost2010PropOp40
 70
     1
102
RTVSPost2010Prop41ColorIndex
 90
       18
102
RTVSPost2010Prop41ColorRGB
 90
        0
102
RTVSPost2010PropOp41
 70
     1
102
RTVSPost2010Prop42
 90
       50
102
RTVSPost2010PropOp42
 70
     1
102
RTVSPost2010Prop43
 90
        3
102
RTVSPost2010PropOp43
 70
     1
102
RTVSPost2010Prop44ColorIndex
 90
        5
102
RTVSPost2010Prop44ColorRGB
 90
      255
102
RTVSPost2010PropOp44
 70
     1
102
RTVSPost2010Prop45
280
     0
102
RTVSPost2010PropOp45
 70
     1
102
RTVSPost2010Prop46
 90
       50
102
RTVSPost2010PropOp46
 70
     1
102
RTVSPost2010Prop47
 90
       50
102
RTVSPost2010PropOp47
 70
     1
102
RTVSPost2010Prop48
 90
       50
102
RTVSPost2010PropOp48
 70
     1
102
RTVSPost2010Prop49
280
     0
102
RTVSPost2010PropOp49
 70
     1
102
RTVSPost2010Prop50
 90
       50
102
RTVSPost2010PropOp50
 70
     1
102
RTVSPost2010Prop51ColorIndex
 90
      256
102
RTVSPost2010Prop51ColorRGB
 90
-16777216
102
RTVSPost2010PropOp51
 70
     0
102
RTVSPost2010Prop52
140
1.0
102
RTVSPost2010PropOp52
 70
     0
102
RTVSPost2010Prop53
 90
        2
102
RTVSPost2010PropOp53
 70
     1
102
RTVSPost2010Prop54
  1
strokes_ogs.tif
102
RTVSPost2010PropOp54
 70
     1
102
RTVSPost2010Prop55
280
     0
102
RTVSPost2010PropOp55
 70
     1
102
RTVSPost2010Prop56
140
1.0
102
RTVSPost2010PropOp56
 70
     1
102
RTVSPost2010Prop57
140
1.0
102
RTVSPost2010PropOp57
 70
     1
102
RTVSPropertyOp0
 70
     1
102
RTVSPropertyOp1
 70
     1
102
RTVSPropertyOp2
 70
     1
102
RTVSPropertyOp3
 70
     1
102
RTVSPropertyOp4
 70
     1
102
RTVSPropertyOp5
 70
     1
102
RTVSPropertyOp6
 70
     1
102
RTVSPropertyOp7
 70
     1
102
RTVSPropertyOp8
 70
     1
102
RTVSPropertyOp9
 70
     1
102
RTVSPropertyOp10
 70
     1
102
RTVSPropertyOp11
 70
     1
102
RTVSPropertyOp12
 70
     1
102
RTVSPropertyOp13
 70
     1
102
RTVSPropertyOp14
 70
     1
102
RTVSPropertyOp15
 70
     1
102
RTVSPropertyOp16
 70
     1
102
RTVSPropertyOp17
 70
     1
102
RTVSPropertyOp18
 70
     1
102
RTVSPropertyOp19
 70
     1
102
RTVSPropertyOp20
 70
     1
102
RTVSPropertyOp21
 70
     1
102
RTVSPropertyOp22
 70
     1
102
RTVSPropertyOp23
 70
     1
102
RTVSPropertyOp24
 70
     1
102
RTVSPropertyOp25
 70
     1
102
RTVSPropertyOp26
 70
     1
102
RTVSPropertyOp27
 70
     1
102
RTVSPropertyOp28
 70
     1
102
RTVSPropertyOp29
 70
     1
102
RTVSPropertyOp30
 70
     1
102
RTVSPropertyOp31
 70
     1
102
RTVSPropertyOp32
 70
     1
102
RTVSPropertyOp33
 70
     1
102
RTVSPropertyOp34
 70
     1
102
RTVSPropertyOp35
 70
     1
102
RTVSPropertyOp36
 70
     1
102
RTVSPropertyOp37
 70
     1
102
RTVSPropertyOp38
 70
     1
102
RTVSPropertyOp39
 70
     1
102
RTVSPropertyOp40
 70
     1
102
RTVSPropertyOp41
 70
     1
102
RTVSPropertyOp42
 70
     1
102
RTVSPropertyOp43
 70
     1
102
RTVSPropertyOp44
 70
     1
102
RTVSPropertyOp45
 70
     1
102
RTVSPropertyOp46
 70
     1
102
RTVSPropertyOp47
 70
     1
102
RTVSPropertyOp48
 70
     1
102
RTVSPropertyOp49
 70
     1
102
RTVSPropertyOp50
 70
     1
102
RTVSPropertyOp51
 70
     0
102
RTVSPropertyOp52
 70
     0
102
RTVSPropertyOp53
 70
     1
102
RTVSPropertyOp54
 70
     1
102
RTVSPropertyOp55
 70
     1
102
RTVSPropertyOp56
 70
     1
102
RTVSPropertyOp57
 70
     1
102
RTVSPropertyOp58
 70
     1
102
RTVSPropertyOp59
 70
     1
102
RTVSPropertyOp60
 70
     1
102
RTVSPropertyOp61
 70
     1
102
RTVSPropertyOp62
 70
     1
  0
XRECORD
  5
2547
102
{ACAD_REACTORS
330
2546
102
}
330
2546
100
AcDbXrecord
280
     1
102
RTVSPost2010Prop28
280
     0
102
RTVSPost2010PropOp28
 70
     1
102
RTVSPost2010Prop29
280
     1
102
RTVSPost2010PropOp29
 70
     1
102
RTVSPost2010Prop30
280
     1
102
RTVSPost2010PropOp30
 70
     1
102
RTVSPost2010Prop31
280
     0
102
RTVSPost2010PropOp31
 70
     1
102
RTVSPost2010Prop32
280
     0
102
RTVSPost2010PropOp32
 70
     1
102
RTVSPost2010Prop33
280
     0
102
RTVSPost2010PropOp33
 70
     1
102
RTVSPost2010Prop34
280
     0
102
RTVSPost2010PropOp34
 70
     1
102
RTVSPost2010Prop35
280
     0
102
RTVSPost2010PropOp35
 70
     1
102
RTVSPost2010Prop36
280
     0
102
RTVSPost2010PropOp36
 70
     1
102
RTVSPost2010Prop37
 90
       50
102
RTVSPost2010PropOp37
 70
     1
102
RTVSPost2010Prop38
140
0.0
102
RTVSPost2010PropOp38
 70
     1
102
RTVSPost2010Prop39
140
1.0
102
RTVSPost2010PropOp39
 70
     1
102
RTVSPost2010Prop40
 90
        0
102
RTVSPost2010PropOp40
 70
     1
102
RTVSPost2010Prop41ColorIndex
 90
       18
102
RTVSPost2010Prop41ColorRGB
 90
        0
102
RTVSPost2010PropOp41
 70
     1
102
RTVSPost2010Prop42
 90
       50
102
RTVSPost2010PropOp42
 70
     1
102
RTVSPost2010Prop43
 90
        3
102
RTVSPost2010PropOp43
 70
     1
102
RTVSPost2010Prop44ColorIndex
 90
        5
102
RTVSPost2010Prop44ColorRGB
 90
      255
102
RTVSPost2010PropOp44
 70
     1
102
RTVSPost2010Prop45
280
     0
102
RTVSPost2010PropOp45
 70
     1
102
RTVSPost2010Prop46
 90
       50
102
RTVSPost2010PropOp46
 70
     1
102
RTVSPost2010Prop47
 90
       50
102
RTVSPost2010PropOp47
 70
     1
102
RTVSPost2010Prop48
 90
       50
102
RTVSPost2010PropOp48
 70
     1
102
RTVSPost2010Prop49
280
     0
102
RTVSPost2010PropOp49
 70
     1
102
RTVSPost2010Prop50
 90
       50
102
RTVSPost2010PropOp50
 70
     1
102
RTVSPost2010Prop51ColorIndex
 90
      256
102
RTVSPost2010Prop51ColorRGB
 90
-16777216
102
RTVSPost2010PropOp51
 70
     0
102
RTVSPost2010Prop52
140
1.0
102
RTVSPost2010PropOp52
 70
     0
102
RTVSPost2010Prop53
 90
        2
102
RTVSPost2010PropOp53
 70
     1
102
RTVSPost2010Prop54
  1
strokes_ogs.tif
102
RTVSPost2010PropOp54
 70
     1
102
RTVSPost2010Prop55
280
     0
102
RTVSPost2010PropOp55
 70
     1
102
RTVSPost2010Prop56
140
1.0
102
RTVSPost2010PropOp56
 70
     1
102
RTVSPost2010Prop57
140
1.0
102
RTVSPost2010PropOp57
 70
     1
102
RTVSPropertyOp0
 70
     1
102
RTVSPropertyOp1
 70
     1
102
RTVSPropertyOp2
 70
     1
102
RTVSPropertyOp3
 70
     1
102
RTVSPropertyOp4
 70
     1
102
RTVSPropertyOp5
 70
     1
102
RTVSPropertyOp6
 70
     1
102
RTVSPropertyOp7
 70
     1
102
RTVSPropertyOp8
 70
     1
102
RTVSPropertyOp9
 70
     1
102
RTVSPropertyOp10
 70
     1
102
RTVSPropertyOp11
 70
     1
102
RTVSPropertyOp12
 70
     1
102
RTVSPropertyOp13
 70
     1
102
RTVSPropertyOp14
 70
     1
102
RTVSPropertyOp15
 70
     1
102
RTVSPropertyOp16
 70
     1
102
RTVSPropertyOp17
 70
     1
102
RTVSPropertyOp18
 70
     1
102
RTVSPropertyOp19
 70
     1
102
RTVSPropertyOp20
 70
     1
102
RTVSPropertyOp21
 70
     1
102
RTVSPropertyOp22
 70
     1
102
RTVSPropertyOp23
 70
     1
102
RTVSPropertyOp24
 70
     1
102
RTVSPropertyOp25
 70
     1
102
RTVSPropertyOp26
 70
     1
102
RTVSPropertyOp27
 70
     1
102
RTVSPropertyOp28
 70
     1
102
RTVSPropertyOp29
 70
     1
102
RTVSPropertyOp30
 70
     1
102
RTVSPropertyOp31
 70
     1
102
RTVSPropertyOp32
 70
     1
102
RTVSPropertyOp33
 70
     1
102
RTVSPropertyOp34
 70
     1
102
RTVSPropertyOp35
 70
     1
102
RTVSPropertyOp36
 70
     1
102
RTVSPropertyOp37
 70
     1
102
RTVSPropertyOp38
 70
     1
102
RTVSPropertyOp39
 70
     1
102
RTVSPropertyOp40
 70
     1
102
RTVSPropertyOp41
 70
     1
102
RTVSPropertyOp42
 70
     1
102
RTVSPropertyOp43
 70
     1
102
RTVSPropertyOp44
 70
     1
102
RTVSPropertyOp45
 70
     1
102
RTVSPropertyOp46
 70
     1
102
RTVSPropertyOp47
 70
     1
102
RTVSPropertyOp48
 70
     1
102
RTVSPropertyOp49
 70
     1
102
RTVSPropertyOp50
 70
     1
102
RTVSPropertyOp51
 70
     0
102
RTVSPropertyOp52
 70
     0
102
RTVSPropertyOp53
 70
     1
102
RTVSPropertyOp54
 70
     1
102
RTVSPropertyOp55
 70
     1
102
RTVSPropertyOp56
 70
     1
102
RTVSPropertyOp57
 70
     1
102
RTVSPropertyOp58
 70
     1
102
RTVSPropertyOp59
 70
     1
102
RTVSPropertyOp60
 70
     1
102
RTVSPropertyOp61
 70
     1
102
RTVSPropertyOp62
 70
     1
  0
XRECORD
  5
2563
102
{ACAD_REACTORS
330
2562
102
}
330
2562
100
AcDbXrecord
280
     1
102
RTVSPost2010Prop28
280
     0
102
RTVSPost2010PropOp28
 70
     1
102
RTVSPost2010Prop29
280
     1
102
RTVSPost2010PropOp29
 70
     1
102
RTVSPost2010Prop30
280
     1
102
RTVSPost2010PropOp30
 70
     1
102
RTVSPost2010Prop31
280
     0
102
RTVSPost2010PropOp31
 70
     1
102
RTVSPost2010Prop32
280
     0
102
RTVSPost2010PropOp32
 70
     1
102
RTVSPost2010Prop33
280
     0
102
RTVSPost2010PropOp33
 70
     1
102
RTVSPost2010Prop34
280
     0
102
RTVSPost2010PropOp34
 70
     1
102
RTVSPost2010Prop35
280
     0
102
RTVSPost2010PropOp35
 70
     1
102
RTVSPost2010Prop36
280
     0
102
RTVSPost2010PropOp36
 70
     1
102
RTVSPost2010Prop37
 90
       50
102
RTVSPost2010PropOp37
 70
     0
102
RTVSPost2010Prop38
140
0.0
102
RTVSPost2010PropOp38
 70
     0
102
RTVSPost2010Prop39
140
1.0
102
RTVSPost2010PropOp39
 70
     0
102
RTVSPost2010Prop40
 90
        0
102
RTVSPost2010PropOp40
 70
     0
102
RTVSPost2010Prop41ColorIndex
 90
       18
102
RTVSPost2010Prop41ColorRGB
 90
        0
102
RTVSPost2010PropOp41
 70
     0
102
RTVSPost2010Prop42
 90
       50
102
RTVSPost2010PropOp42
 70
     0
102
RTVSPost2010Prop43
 90
        3
102
RTVSPost2010PropOp43
 70
     0
102
RTVSPost2010Prop44ColorIndex
 90
        5
102
RTVSPost2010Prop44ColorRGB
 90
      255
102
RTVSPost2010PropOp44
 70
     0
102
RTVSPost2010Prop45
280
     0
102
RTVSPost2010PropOp45
 70
     1
102
RTVSPost2010Prop46
 90
       50
102
RTVSPost2010PropOp46
 70
     0
102
RTVSPost2010Prop47
 90
       50
102
RTVSPost2010PropOp47
 70
     0
102
RTVSPost2010Prop48
 90
       50
102
RTVSPost2010PropOp48
 70
     0
102
RTVSPost2010Prop49
280
     0
102
RTVSPost2010PropOp49
 70
     1
102
RTVSPost2010Prop50
 90
       50
102
RTVSPost2010PropOp50
 70
     0
102
RTVSPost2010Prop51ColorIndex
 90
      256
102
RTVSPost2010Prop51ColorRGB
 90
-16777216
102
RTVSPost2010PropOp51
 70
     0
102
RTVSPost2010Prop52
140
1.0
102
RTVSPost2010PropOp52
 70
     0
102
RTVSPost2010Prop53
 90
        2
102
RTVSPost2010PropOp53
 70
     0
102
RTVSPost2010Prop54
  1
strokes_ogs.tif
102
RTVSPost2010PropOp54
 70
     0
102
RTVSPost2010Prop55
280
     0
102
RTVSPost2010PropOp55
 70
     1
102
RTVSPost2010Prop56
140
1.0
102
RTVSPost2010PropOp56
 70
     0
102
RTVSPost2010Prop57
140
1.0
102
RTVSPost2010PropOp57
 70
     0
102
RTVSPropertyOp0
 70
     0
102
RTVSPropertyOp1
 70
     0
102
RTVSPropertyOp2
 70
     0
102
RTVSPropertyOp3
 70
     0
102
RTVSPropertyOp4
 70
     0
102
RTVSPropertyOp5
 70
     0
102
RTVSPropertyOp6
 70
     0
102
RTVSPropertyOp7
 70
     0
102
RTVSPropertyOp8
 70
     0
102
RTVSPropertyOp9
 70
     0
102
RTVSPropertyOp10
 70
     0
102
RTVSPropertyOp11
 70
     0
102
RTVSPropertyOp12
 70
     0
102
RTVSPropertyOp13
 70
     0
102
RTVSPropertyOp14
 70
     2
102
RTVSPropertyOp15
 70
     0
102
RTVSPropertyOp16
 70
     0
102
RTVSPropertyOp17
 70
     0
102
RTVSPropertyOp18
 70
     0
102
RTVSPropertyOp19
 70
     0
102
RTVSPropertyOp20
 70
     0
102
RTVSPropertyOp21
 70
     0
102
RTVSPropertyOp22
 70
     0
102
RTVSPropertyOp23
 70
     0
102
RTVSPropertyOp24
 70
     0
102
RTVSPropertyOp25
 70
     0
102
RTVSPropertyOp26
 70
     0
102
RTVSPropertyOp27
 70
     0
102
RTVSPropertyOp28
 70
     1
102
RTVSPropertyOp29
 70
     1
102
RTVSPropertyOp30
 70
     1
102
RTVSPropertyOp31
 70
     1
102
RTVSPropertyOp32
 70
     1
102
RTVSPropertyOp33
 70
     1
102
RTVSPropertyOp34
 70
     1
102
RTVSPropertyOp35
 70
     1
102
RTVSPropertyOp36
 70
     1
102
RTVSPropertyOp37
 70
     0
102
RTVSPropertyOp38
 70
     0
102
RTVSPropertyOp39
 70
     0
102
RTVSPropertyOp40
 70
     0
102
RTVSPropertyOp41
 70
     0
102
RTVSPropertyOp42
 70
     0
102
RTVSPropertyOp43
 70
     0
102
RTVSPropertyOp44
 70
     0
102
RTVSPropertyOp45
 70
     1
102
RTVSPropertyOp46
 70
     0
102
RTVSPropertyOp47
 70
     0
102
RTVSPropertyOp48
 70
     0
102
RTVSPropertyOp49
 70
     1
102
RTVSPropertyOp50
 70
     0
102
RTVSPropertyOp51
 70
     0
102
RTVSPropertyOp52
 70
     0
102
RTVSPropertyOp53
 70
     0
102
RTVSPropertyOp54
 70
     0
102
RTVSPropertyOp55
 70
     1
102
RTVSPropertyOp56
 70
     0
102
RTVSPropertyOp57
 70
     0
102
RTVSPropertyOp58
 70
     0
102
RTVSPropertyOp59
 70
     0
102
RTVSPropertyOp60
 70
     0
102
RTVSPropertyOp61
 70
     0
102
RTVSPropertyOp62
 70
     0
  0
XRECORD
  5
2553
102
{ACAD_REACTORS
330
2552
102
}
330
2552
100
AcDbXrecord
280
     1
102
RTVSPost2010Prop28
280
     0
102
RTVSPost2010PropOp28
 70
     1
102
RTVSPost2010Prop29
280
     1
102
RTVSPost2010PropOp29
 70
     1
102
RTVSPost2010Prop30
280
     1
102
RTVSPost2010PropOp30
 70
     1
102
RTVSPost2010Prop31
280
     0
102
RTVSPost2010PropOp31
 70
     1
102
RTVSPost2010Prop32
280
     0
102
RTVSPost2010PropOp32
 70
     1
102
RTVSPost2010Prop33
280
     0
102
RTVSPost2010PropOp33
 70
     1
102
RTVSPost2010Prop34
280
     0
102
RTVSPost2010PropOp34
 70
     1
102
RTVSPost2010Prop35
280
     0
102
RTVSPost2010PropOp35
 70
     1
102
RTVSPost2010Prop36
280
     0
102
RTVSPost2010PropOp36
 70
     1
102
RTVSPost2010Prop37
 90
       50
102
RTVSPost2010PropOp37
 70
     1
102
RTVSPost2010Prop38
140
0.0
102
RTVSPost2010PropOp38
 70
     1
102
RTVSPost2010Prop39
140
1.0
102
RTVSPost2010PropOp39
 70
     1
102
RTVSPost2010Prop40
 90
        0
102
RTVSPost2010PropOp40
 70
     1
102
RTVSPost2010Prop41ColorIndex
 90
       18
102
RTVSPost2010Prop41ColorRGB
 90
        0
102
RTVSPost2010PropOp41
 70
     1
102
RTVSPost2010Prop42
 90
       50
102
RTVSPost2010PropOp42
 70
     1
102
RTVSPost2010Prop43
 90
        3
102
RTVSPost2010PropOp43
 70
     1
102
RTVSPost2010Prop44ColorIndex
 90
        5
102
RTVSPost2010Prop44ColorRGB
 90
      255
102
RTVSPost2010PropOp44
 70
     1
102
RTVSPost2010Prop45
280
     0
102
RTVSPost2010PropOp45
 70
     1
102
RTVSPost2010Prop46
 90
       50
102
RTVSPost2010PropOp46
 70
     1
102
RTVSPost2010Prop47
 90
       50
102
RTVSPost2010PropOp47
 70
     1
102
RTVSPost2010Prop48
 90
       50
102
RTVSPost2010PropOp48
 70
     1
102
RTVSPost2010Prop49
280
     0
102
RTVSPost2010PropOp49
 70
     1
102
RTVSPost2010Prop50
 90
       50
102
RTVSPost2010PropOp50
 70
     1
102
RTVSPost2010Prop51ColorIndex
 90
      256
102
RTVSPost2010Prop51ColorRGB
 90
-16777216
102
RTVSPost2010PropOp51
 70
     0
102
RTVSPost2010Prop52
140
1.0
102
RTVSPost2010PropOp52
 70
     0
102
RTVSPost2010Prop53
 90
        2
102
RTVSPost2010PropOp53
 70
     1
102
RTVSPost2010Prop54
  1
strokes_ogs.tif
102
RTVSPost2010PropOp54
 70
     1
102
RTVSPost2010Prop55
280
     0
102
RTVSPost2010PropOp55
 70
     1
102
RTVSPost2010Prop56
140
1.0
102
RTVSPost2010PropOp56
 70
     1
102
RTVSPost2010Prop57
140
1.0
102
RTVSPost2010PropOp57
 70
     1
102
RTVSPropertyOp0
 70
     1
102
RTVSPropertyOp1
 70
     1
102
RTVSPropertyOp2
 70
     1
102
RTVSPropertyOp3
 70
     1
102
RTVSPropertyOp4
 70
     1
102
RTVSPropertyOp5
 70
     1
102
RTVSPropertyOp6
 70
     1
102
RTVSPropertyOp7
 70
     1
102
RTVSPropertyOp8
 70
     1
102
RTVSPropertyOp9
 70
     1
102
RTVSPropertyOp10
 70
     1
102
RTVSPropertyOp11
 70
     1
102
RTVSPropertyOp12
 70
     1
102
RTVSPropertyOp13
 70
     1
102
RTVSPropertyOp14
 70
     1
102
RTVSPropertyOp15
 70
     1
102
RTVSPropertyOp16
 70
     1
102
RTVSPropertyOp17
 70
     1
102
RTVSPropertyOp18
 70
     1
102
RTVSPropertyOp19
 70
     1
102
RTVSPropertyOp20
 70
     1
102
RTVSPropertyOp21
 70
     1
102
RTVSPropertyOp22
 70
     1
102
RTVSPropertyOp23
 70
     1
102
RTVSPropertyOp24
 70
     1
102
RTVSPropertyOp25
 70
     1
102
RTVSPropertyOp26
 70
     1
102
RTVSPropertyOp27
 70
     1
102
RTVSPropertyOp28
 70
     1
102
RTVSPropertyOp29
 70
     1
102
RTVSPropertyOp30
 70
     1
102
RTVSPropertyOp31
 70
     1
102
RTVSPropertyOp32
 70
     1
102
RTVSPropertyOp33
 70
     1
102
RTVSPropertyOp34
 70
     1
102
RTVSPropertyOp35
 70
     1
102
RTVSPropertyOp36
 70
     1
102
RTVSPropertyOp37
 70
     1
102
RTVSPropertyOp38
 70
     1
102
RTVSPropertyOp39
 70
     1
102
RTVSPropertyOp40
 70
     1
102
RTVSPropertyOp41
 70
     1
102
RTVSPropertyOp42
 70
     1
102
RTVSPropertyOp43
 70
     1
102
RTVSPropertyOp44
 70
     1
102
RTVSPropertyOp45
 70
     1
102
RTVSPropertyOp46
 70
     1
102
RTVSPropertyOp47
 70
     1
102
RTVSPropertyOp48
 70
     1
102
RTVSPropertyOp49
 70
     1
102
RTVSPropertyOp50
 70
     1
102
RTVSPropertyOp51
 70
     0
102
RTVSPropertyOp52
 70
     0
102
RTVSPropertyOp53
 70
     1
102
RTVSPropertyOp54
 70
     1
102
RTVSPropertyOp55
 70
     1
102
RTVSPropertyOp56
 70
     1
102
RTVSPropertyOp57
 70
     1
102
RTVSPropertyOp58
 70
     1
102
RTVSPropertyOp59
 70
     1
102
RTVSPropertyOp60
 70
     1
102
RTVSPropertyOp61
 70
     1
102
RTVSPropertyOp62
 70
     1
  0
XRECORD
  5
2565
102
{ACAD_REACTORS
330
2564
102
}
330
2564
100
AcDbXrecord
280
     1
102
RTVSPost2010Prop28
280
     0
102
RTVSPost2010PropOp28
 70
     1
102
RTVSPost2010Prop29
280
     1
102
RTVSPost2010PropOp29
 70
     1
102
RTVSPost2010Prop30
280
     1
102
RTVSPost2010PropOp30
 70
     1
102
RTVSPost2010Prop31
280
     0
102
RTVSPost2010PropOp31
 70
     1
102
RTVSPost2010Prop32
280
     0
102
RTVSPost2010PropOp32
 70
     1
102
RTVSPost2010Prop33
280
     0
102
RTVSPost2010PropOp33
 70
     1
102
RTVSPost2010Prop34
280
     0
102
RTVSPost2010PropOp34
 70
     1
102
RTVSPost2010Prop35
280
     0
102
RTVSPost2010PropOp35
 70
     1
102
RTVSPost2010Prop36
280
     0
102
RTVSPost2010PropOp36
 70
     1
102
RTVSPost2010Prop37
 90
       50
102
RTVSPost2010PropOp37
 70
     0
102
RTVSPost2010Prop38
140
0.0
102
RTVSPost2010PropOp38
 70
     0
102
RTVSPost2010Prop39
140
1.0
102
RTVSPost2010PropOp39
 70
     0
102
RTVSPost2010Prop40
 90
        0
102
RTVSPost2010PropOp40
 70
     0
102
RTVSPost2010Prop41ColorIndex
 90
       18
102
RTVSPost2010Prop41ColorRGB
 90
        0
102
RTVSPost2010PropOp41
 70
     0
102
RTVSPost2010Prop42
 90
       50
102
RTVSPost2010PropOp42
 70
     0
102
RTVSPost2010Prop43
 90
        3
102
RTVSPost2010PropOp43
 70
     0
102
RTVSPost2010Prop44ColorIndex
 90
        5
102
RTVSPost2010Prop44ColorRGB
 90
      255
102
RTVSPost2010PropOp44
 70
     0
102
RTVSPost2010Prop45
280
     0
102
RTVSPost2010PropOp45
 70
     1
102
RTVSPost2010Prop46
 90
       50
102
RTVSPost2010PropOp46
 70
     0
102
RTVSPost2010Prop47
 90
       50
102
RTVSPost2010PropOp47
 70
     0
102
RTVSPost2010Prop48
 90
       50
102
RTVSPost2010PropOp48
 70
     0
102
RTVSPost2010Prop49
280
     0
102
RTVSPost2010PropOp49
 70
     1
102
RTVSPost2010Prop50
 90
       50
102
RTVSPost2010PropOp50
 70
     0
102
RTVSPost2010Prop51ColorIndex
 90
      256
102
RTVSPost2010Prop51ColorRGB
 90
-16777216
102
RTVSPost2010PropOp51
 70
     0
102
RTVSPost2010Prop52
140
1.0
102
RTVSPost2010PropOp52
 70
     0
102
RTVSPost2010Prop53
 90
        2
102
RTVSPost2010PropOp53
 70
     0
102
RTVSPost2010Prop54
  1
strokes_ogs.tif
102
RTVSPost2010PropOp54
 70
     0
102
RTVSPost2010Prop55
280
     0
102
RTVSPost2010PropOp55
 70
     1
102
RTVSPost2010Prop56
140
1.0
102
RTVSPost2010PropOp56
 70
     0
102
RTVSPost2010Prop57
140
1.0
102
RTVSPost2010PropOp57
 70
     0
102
RTVSPropertyOp0
 70
     0
102
RTVSPropertyOp1
 70
     0
102
RTVSPropertyOp2
 70
     0
102
RTVSPropertyOp3
 70
     0
102
RTVSPropertyOp4
 70
     0
102
RTVSPropertyOp5
 70
     0
102
RTVSPropertyOp6
 70
     0
102
RTVSPropertyOp7
 70
     0
102
RTVSPropertyOp8
 70
     0
102
RTVSPropertyOp9
 70
     0
102
RTVSPropertyOp10
 70
     0
102
RTVSPropertyOp11
 70
     0
102
RTVSPropertyOp12
 70
     0
102
RTVSPropertyOp13
 70
     0
102
RTVSPropertyOp14
 70
     2
102
RTVSPropertyOp15
 70
     0
102
RTVSPropertyOp16
 70
     0
102
RTVSPropertyOp17
 70
     0
102
RTVSPropertyOp18
 70
     0
102
RTVSPropertyOp19
 70
     0
102
RTVSPropertyOp20
 70
     0
102
RTVSPropertyOp21
 70
     0
102
RTVSPropertyOp22
 70
     0
102
RTVSPropertyOp23
 70
     0
102
RTVSPropertyOp24
 70
     0
102
RTVSPropertyOp25
 70
     0
102
RTVSPropertyOp26
 70
     0
102
RTVSPropertyOp27
 70
     0
102
RTVSPropertyOp28
 70
     1
102
RTVSPropertyOp29
 70
     1
102
RTVSPropertyOp30
 70
     1
102
RTVSPropertyOp31
 70
     1
102
RTVSPropertyOp32
 70
     1
102
RTVSPropertyOp33
 70
     1
102
RTVSPropertyOp34
 70
     1
102
RTVSPropertyOp35
 70
     1
102
RTVSPropertyOp36
 70
     1
102
RTVSPropertyOp37
 70
     0
102
RTVSPropertyOp38
 70
     0
102
RTVSPropertyOp39
 70
     0
102
RTVSPropertyOp40
 70
     0
102
RTVSPropertyOp41
 70
     0
102
RTVSPropertyOp42
 70
     0
102
RTVSPropertyOp43
 70
     0
102
RTVSPropertyOp44
 70
     0
102
RTVSPropertyOp45
 70
     1
102
RTVSPropertyOp46
 70
     0
102
RTVSPropertyOp47
 70
     0
102
RTVSPropertyOp48
 70
     0
102
RTVSPropertyOp49
 70
     1
102
RTVSPropertyOp50
 70
     0
102
RTVSPropertyOp51
 70
     0
102
RTVSPropertyOp52
 70
     0
102
RTVSPropertyOp53
 70
     0
102
RTVSPropertyOp54
 70
     0
102
RTVSPropertyOp55
 70
     1
102
RTVSPropertyOp56
 70
     0
102
RTVSPropertyOp57
 70
     0
102
RTVSPropertyOp58
 70
     0
102
RTVSPropertyOp59
 70
     0
102
RTVSPropertyOp60
 70
     0
102
RTVSPropertyOp61
 70
     0
102
RTVSPropertyOp62
 70
     0
  0
XRECORD
  5
254B
102
{ACAD_REACTORS
330
254A
102
}
330
254A
100
AcDbXrecord
280
     1
102
RTVSPost2010Prop28
280
     0
102
RTVSPost2010PropOp28
 70
     1
102
RTVSPost2010Prop29
280
     1
102
RTVSPost2010PropOp29
 70
     1
102
RTVSPost2010Prop30
280
     1
102
RTVSPost2010PropOp30
 70
     1
102
RTVSPost2010Prop31
280
     0
102
RTVSPost2010PropOp31
 70
     1
102
RTVSPost2010Prop32
280
     0
102
RTVSPost2010PropOp32
 70
     1
102
RTVSPost2010Prop33
280
     0
102
RTVSPost2010PropOp33
 70
     1
102
RTVSPost2010Prop34
280
     0
102
RTVSPost2010PropOp34
 70
     1
102
RTVSPost2010Prop35
280
     0
102
RTVSPost2010PropOp35
 70
     1
102
RTVSPost2010Prop36
280
     0
102
RTVSPost2010PropOp36
 70
     1
102
RTVSPost2010Prop37
 90
       50
102
RTVSPost2010PropOp37
 70
     1
102
RTVSPost2010Prop38
140
0.0
102
RTVSPost2010PropOp38
 70
     1
102
RTVSPost2010Prop39
140
1.0
102
RTVSPost2010PropOp39
 70
     1
102
RTVSPost2010Prop40
 90
        0
102
RTVSPost2010PropOp40
 70
     1
102
RTVSPost2010Prop41ColorIndex
 90
       18
102
RTVSPost2010Prop41ColorRGB
 90
        0
102
RTVSPost2010PropOp41
 70
     1
102
RTVSPost2010Prop42
 90
       50
102
RTVSPost2010PropOp42
 70
     1
102
RTVSPost2010Prop43
 90
        3
102
RTVSPost2010PropOp43
 70
     1
102
RTVSPost2010Prop44ColorIndex
 90
        5
102
RTVSPost2010Prop44ColorRGB
 90
      255
102
RTVSPost2010PropOp44
 70
     1
102
RTVSPost2010Prop45
280
     0
102
RTVSPost2010PropOp45
 70
     1
102
RTVSPost2010Prop46
 90
       50
102
RTVSPost2010PropOp46
 70
     1
102
RTVSPost2010Prop47
 90
       50
102
RTVSPost2010PropOp47
 70
     1
102
RTVSPost2010Prop48
 90
       50
102
RTVSPost2010PropOp48
 70
     1
102
RTVSPost2010Prop49
280
     0
102
RTVSPost2010PropOp49
 70
     1
102
RTVSPost2010Prop50
 90
       50
102
RTVSPost2010PropOp50
 70
     1
102
RTVSPost2010Prop51ColorIndex
 90
      256
102
RTVSPost2010Prop51ColorRGB
 90
-16777216
102
RTVSPost2010PropOp51
 70
     0
102
RTVSPost2010Prop52
140
1.0
102
RTVSPost2010PropOp52
 70
     0
102
RTVSPost2010Prop53
 90
        2
102
RTVSPost2010PropOp53
 70
     1
102
RTVSPost2010Prop54
  1
strokes_ogs.tif
102
RTVSPost2010PropOp54
 70
     1
102
RTVSPost2010Prop55
280
     0
102
RTVSPost2010PropOp55
 70
     1
102
RTVSPost2010Prop56
140
1.0
102
RTVSPost2010PropOp56
 70
     1
102
RTVSPost2010Prop57
140
1.0
102
RTVSPost2010PropOp57
 70
     1
102
RTVSPropertyOp0
 70
     1
102
RTVSPropertyOp1
 70
     1
102
RTVSPropertyOp2
 70
     1
102
RTVSPropertyOp3
 70
     1
102
RTVSPropertyOp4
 70
     1
102
RTVSPropertyOp5
 70
     1
102
RTVSPropertyOp6
 70
     1
102
RTVSPropertyOp7
 70
     1
102
RTVSPropertyOp8
 70
     1
102
RTVSPropertyOp9
 70
     1
102
RTVSPropertyOp10
 70
     1
102
RTVSPropertyOp11
 70
     1
102
RTVSPropertyOp12
 70
     1
102
RTVSPropertyOp13
 70
     1
102
RTVSPropertyOp14
 70
     1
102
RTVSPropertyOp15
 70
     1
102
RTVSPropertyOp16
 70
     1
102
RTVSPropertyOp17
 70
     1
102
RTVSPropertyOp18
 70
     1
102
RTVSPropertyOp19
 70
     1
102
RTVSPropertyOp20
 70
     1
102
RTVSPropertyOp21
 70
     1
102
RTVSPropertyOp22
 70
     1
102
RTVSPropertyOp23
 70
     1
102
RTVSPropertyOp24
 70
     1
102
RTVSPropertyOp25
 70
     1
102
RTVSPropertyOp26
 70
     1
102
RTVSPropertyOp27
 70
     1
102
RTVSPropertyOp28
 70
     1
102
RTVSPropertyOp29
 70
     1
102
RTVSPropertyOp30
 70
     1
102
RTVSPropertyOp31
 70
     1
102
RTVSPropertyOp32
 70
     1
102
RTVSPropertyOp33
 70
     1
102
RTVSPropertyOp34
 70
     1
102
RTVSPropertyOp35
 70
     1
102
RTVSPropertyOp36
 70
     1
102
RTVSPropertyOp37
 70
     1
102
RTVSPropertyOp38
 70
     1
102
RTVSPropertyOp39
 70
     1
102
RTVSPropertyOp40
 70
     1
102
RTVSPropertyOp41
 70
     1
102
RTVSPropertyOp42
 70
     1
102
RTVSPropertyOp43
 70
     1
102
RTVSPropertyOp44
 70
     1
102
RTVSPropertyOp45
 70
     1
102
RTVSPropertyOp46
 70
     1
102
RTVSPropertyOp47
 70
     1
102
RTVSPropertyOp48
 70
     1
102
RTVSPropertyOp49
 70
     1
102
RTVSPropertyOp50
 70
     1
102
RTVSPropertyOp51
 70
     0
102
RTVSPropertyOp52
 70
     0
102
RTVSPropertyOp53
 70
     1
102
RTVSPropertyOp54
 70
     1
102
RTVSPropertyOp55
 70
     1
102
RTVSPropertyOp56
 70
     1
102
RTVSPropertyOp57
 70
     1
102
RTVSPropertyOp58
 70
     1
102
RTVSPropertyOp59
 70
     1
102
RTVSPropertyOp60
 70
     1
102
RTVSPropertyOp61
 70
     1
102
RTVSPropertyOp62
 70
     1
  0
XRECORD
  5
2561
102
{ACAD_REACTORS
330
2560
102
}
330
2560
100
AcDbXrecord
280
     1
102
RTVSPost2010Prop28
280
     0
102
RTVSPost2010PropOp28
 70
     1
102
RTVSPost2010Prop29
280
     1
102
RTVSPost2010PropOp29
 70
     1
102
RTVSPost2010Prop30
280
     1
102
RTVSPost2010PropOp30
 70
     1
102
RTVSPost2010Prop31
280
     0
102
RTVSPost2010PropOp31
 70
     1
102
RTVSPost2010Prop32
280
     0
102
RTVSPost2010PropOp32
 70
     1
102
RTVSPost2010Prop33
280
     0
102
RTVSPost2010PropOp33
 70
     1
102
RTVSPost2010Prop34
280
     0
102
RTVSPost2010PropOp34
 70
     1
102
RTVSPost2010Prop35
280
     0
102
RTVSPost2010PropOp35
 70
     1
102
RTVSPost2010Prop36
280
     0
102
RTVSPost2010PropOp36
 70
     1
102
RTVSPost2010Prop37
 90
       50
102
RTVSPost2010PropOp37
 70
     1
102
RTVSPost2010Prop38
140
0.0
102
RTVSPost2010PropOp38
 70
     1
102
RTVSPost2010Prop39
140
1.0
102
RTVSPost2010PropOp39
 70
     1
102
RTVSPost2010Prop40
 90
        0
102
RTVSPost2010PropOp40
 70
     1
102
RTVSPost2010Prop41ColorIndex
 90
       18
102
RTVSPost2010Prop41ColorRGB
 90
        0
102
RTVSPost2010PropOp41
 70
     1
102
RTVSPost2010Prop42
 90
       50
102
RTVSPost2010PropOp42
 70
     1
102
RTVSPost2010Prop43
 90
        3
102
RTVSPost2010PropOp43
 70
     1
102
RTVSPost2010Prop44ColorIndex
 90
        5
102
RTVSPost2010Prop44ColorRGB
 90
      255
102
RTVSPost2010PropOp44
 70
     1
102
RTVSPost2010Prop45
280
     0
102
RTVSPost2010PropOp45
 70
     1
102
RTVSPost2010Prop46
 90
       50
102
RTVSPost2010PropOp46
 70
     1
102
RTVSPost2010Prop47
 90
       50
102
RTVSPost2010PropOp47
 70
     1
102
RTVSPost2010Prop48
 90
       50
102
RTVSPost2010PropOp48
 70
     1
102
RTVSPost2010Prop49
280
     0
102
RTVSPost2010PropOp49
 70
     1
102
RTVSPost2010Prop50
 90
       50
102
RTVSPost2010PropOp50
 70
     1
102
RTVSPost2010Prop51ColorIndex
 90
      256
102
RTVSPost2010Prop51ColorRGB
 90
-16777216
102
RTVSPost2010PropOp51
 70
     0
102
RTVSPost2010Prop52
140
1.0
102
RTVSPost2010PropOp52
 70
     0
102
RTVSPost2010Prop53
 90
        2
102
RTVSPost2010PropOp53
 70
     1
102
RTVSPost2010Prop54
  1
strokes_ogs.tif
102
RTVSPost2010PropOp54
 70
     1
102
RTVSPost2010Prop55
280
     0
102
RTVSPost2010PropOp55
 70
     1
102
RTVSPost2010Prop56
140
1.0
102
RTVSPost2010PropOp56
 70
     1
102
RTVSPost2010Prop57
140
1.0
102
RTVSPost2010PropOp57
 70
     1
102
RTVSPropertyOp0
 70
     1
102
RTVSPropertyOp1
 70
     1
102
RTVSPropertyOp2
 70
     1
102
RTVSPropertyOp3
 70
     1
102
RTVSPropertyOp4
 70
     1
102
RTVSPropertyOp5
 70
     1
102
RTVSPropertyOp6
 70
     1
102
RTVSPropertyOp7
 70
     1
102
RTVSPropertyOp8
 70
     1
102
RTVSPropertyOp9
 70
     1
102
RTVSPropertyOp10
 70
     1
102
RTVSPropertyOp11
 70
     1
102
RTVSPropertyOp12
 70
     1
102
RTVSPropertyOp13
 70
     1
102
RTVSPropertyOp14
 70
     1
102
RTVSPropertyOp15
 70
     1
102
RTVSPropertyOp16
 70
     1
102
RTVSPropertyOp17
 70
     1
102
RTVSPropertyOp18
 70
     1
102
RTVSPropertyOp19
 70
     1
102
RTVSPropertyOp20
 70
     1
102
RTVSPropertyOp21
 70
     1
102
RTVSPropertyOp22
 70
     1
102
RTVSPropertyOp23
 70
     1
102
RTVSPropertyOp24
 70
     1
102
RTVSPropertyOp25
 70
     1
102
RTVSPropertyOp26
 70
     1
102
RTVSPropertyOp27
 70
     1
102
RTVSPropertyOp28
 70
     1
102
RTVSPropertyOp29
 70
     1
102
RTVSPropertyOp30
 70
     1
102
RTVSPropertyOp31
 70
     1
102
RTVSPropertyOp32
 70
     1
102
RTVSPropertyOp33
 70
     1
102
RTVSPropertyOp34
 70
     1
102
RTVSPropertyOp35
 70
     1
102
RTVSPropertyOp36
 70
     1
102
RTVSPropertyOp37
 70
     1
102
RTVSPropertyOp38
 70
     1
102
RTVSPropertyOp39
 70
     1
102
RTVSPropertyOp40
 70
     1
102
RTVSPropertyOp41
 70
     1
102
RTVSPropertyOp42
 70
     1
102
RTVSPropertyOp43
 70
     1
102
RTVSPropertyOp44
 70
     1
102
RTVSPropertyOp45
 70
     1
102
RTVSPropertyOp46
 70
     1
102
RTVSPropertyOp47
 70
     1
102
RTVSPropertyOp48
 70
     1
102
RTVSPropertyOp49
 70
     1
102
RTVSPropertyOp50
 70
     1
102
RTVSPropertyOp51
 70
     0
102
RTVSPropertyOp52
 70
     0
102
RTVSPropertyOp53
 70
     1
102
RTVSPropertyOp54
 70
     1
102
RTVSPropertyOp55
 70
     1
102
RTVSPropertyOp56
 70
     1
102
RTVSPropertyOp57
 70
     1
102
RTVSPropertyOp58
 70
     1
102
RTVSPropertyOp59
 70
     1
102
RTVSPropertyOp60
 70
     1
102
RTVSPropertyOp61
 70
     1
102
RTVSPropertyOp62
 70
     1
  0
XRECORD
  5
255F
102
{ACAD_REACTORS
330
255E
102
}
330
255E
100
AcDbXrecord
280
     1
102
RTVSPost2010Prop28
280
     0
102
RTVSPost2010PropOp28
 70
     1
102
RTVSPost2010Prop29
280
     1
102
RTVSPost2010PropOp29
 70
     1
102
RTVSPost2010Prop30
280
     1
102
RTVSPost2010PropOp30
 70
     1
102
RTVSPost2010Prop31
280
     0
102
RTVSPost2010PropOp31
 70
     1
102
RTVSPost2010Prop32
280
     0
102
RTVSPost2010PropOp32
 70
     1
102
RTVSPost2010Prop33
280
     0
102
RTVSPost2010PropOp33
 70
     1
102
RTVSPost2010Prop34
280
     0
102
RTVSPost2010PropOp34
 70
     1
102
RTVSPost2010Prop35
280
     0
102
RTVSPost2010PropOp35
 70
     1
102
RTVSPost2010Prop36
280
     0
102
RTVSPost2010PropOp36
 70
     1
102
RTVSPost2010Prop37
 90
       50
102
RTVSPost2010PropOp37
 70
     1
102
RTVSPost2010Prop38
140
0.0
102
RTVSPost2010PropOp38
 70
     1
102
RTVSPost2010Prop39
140
1.0
102
RTVSPost2010PropOp39
 70
     1
102
RTVSPost2010Prop40
 90
        0
102
RTVSPost2010PropOp40
 70
     1
102
RTVSPost2010Prop41ColorIndex
 90
       18
102
RTVSPost2010Prop41ColorRGB
 90
        0
102
RTVSPost2010PropOp41
 70
     1
102
RTVSPost2010Prop42
 90
       50
102
RTVSPost2010PropOp42
 70
     1
102
RTVSPost2010Prop43
 90
        3
102
RTVSPost2010PropOp43
 70
     1
102
RTVSPost2010Prop44ColorIndex
 90
        5
102
RTVSPost2010Prop44ColorRGB
 90
      255
102
RTVSPost2010PropOp44
 70
     1
102
RTVSPost2010Prop45
280
     0
102
RTVSPost2010PropOp45
 70
     1
102
RTVSPost2010Prop46
 90
       50
102
RTVSPost2010PropOp46
 70
     1
102
RTVSPost2010Prop47
 90
       50
102
RTVSPost2010PropOp47
 70
     1
102
RTVSPost2010Prop48
 90
       50
102
RTVSPost2010PropOp48
 70
     1
102
RTVSPost2010Prop49
280
     0
102
RTVSPost2010PropOp49
 70
     1
102
RTVSPost2010Prop50
 90
       50
102
RTVSPost2010PropOp50
 70
     1
102
RTVSPost2010Prop51ColorIndex
 90
      256
102
RTVSPost2010Prop51ColorRGB
 90
-16777216
102
RTVSPost2010PropOp51
 70
     0
102
RTVSPost2010Prop52
140
1.0
102
RTVSPost2010PropOp52
 70
     0
102
RTVSPost2010Prop53
 90
        2
102
RTVSPost2010PropOp53
 70
     1
102
RTVSPost2010Prop54
  1
strokes_ogs.tif
102
RTVSPost2010PropOp54
 70
     1
102
RTVSPost2010Prop55
280
     0
102
RTVSPost2010PropOp55
 70
     1
102
RTVSPost2010Prop56
140
1.0
102
RTVSPost2010PropOp56
 70
     1
102
RTVSPost2010Prop57
140
1.0
102
RTVSPost2010PropOp57
 70
     1
102
RTVSPropertyOp0
 70
     1
102
RTVSPropertyOp1
 70
     1
102
RTVSPropertyOp2
 70
     1
102
RTVSPropertyOp3
 70
     1
102
RTVSPropertyOp4
 70
     1
102
RTVSPropertyOp5
 70
     1
102
RTVSPropertyOp6
 70
     1
102
RTVSPropertyOp7
 70
     1
102
RTVSPropertyOp8
 70
     1
102
RTVSPropertyOp9
 70
     1
102
RTVSPropertyOp10
 70
     1
102
RTVSPropertyOp11
 70
     1
102
RTVSPropertyOp12
 70
     1
102
RTVSPropertyOp13
 70
     1
102
RTVSPropertyOp14
 70
     1
102
RTVSPropertyOp15
 70
     1
102
RTVSPropertyOp16
 70
     1
102
RTVSPropertyOp17
 70
     1
102
RTVSPropertyOp18
 70
     1
102
RTVSPropertyOp19
 70
     1
102
RTVSPropertyOp20
 70
     1
102
RTVSPropertyOp21
 70
     1
102
RTVSPropertyOp22
 70
     1
102
RTVSPropertyOp23
 70
     1
102
RTVSPropertyOp24
 70
     1
102
RTVSPropertyOp25
 70
     1
102
RTVSPropertyOp26
 70
     1
102
RTVSPropertyOp27
 70
     1
102
RTVSPropertyOp28
 70
     1
102
RTVSPropertyOp29
 70
     1
102
RTVSPropertyOp30
 70
     1
102
RTVSPropertyOp31
 70
     1
102
RTVSPropertyOp32
 70
     1
102
RTVSPropertyOp33
 70
     1
102
RTVSPropertyOp34
 70
     1
102
RTVSPropertyOp35
 70
     1
102
RTVSPropertyOp36
 70
     1
102
RTVSPropertyOp37
 70
     1
102
RTVSPropertyOp38
 70
     1
102
RTVSPropertyOp39
 70
     1
102
RTVSPropertyOp40
 70
     1
102
RTVSPropertyOp41
 70
     1
102
RTVSPropertyOp42
 70
     1
102
RTVSPropertyOp43
 70
     1
102
RTVSPropertyOp44
 70
     1
102
RTVSPropertyOp45
 70
     1
102
RTVSPropertyOp46
 70
     1
102
RTVSPropertyOp47
 70
     1
102
RTVSPropertyOp48
 70
     1
102
RTVSPropertyOp49
 70
     1
102
RTVSPropertyOp50
 70
     1
102
RTVSPropertyOp51
 70
     0
102
RTVSPropertyOp52
 70
     0
102
RTVSPropertyOp53
 70
     1
102
RTVSPropertyOp54
 70
     1
102
RTVSPropertyOp55
 70
     1
102
RTVSPropertyOp56
 70
     1
102
RTVSPropertyOp57
 70
     1
102
RTVSPropertyOp58
 70
     1
102
RTVSPropertyOp59
 70
     1
102
RTVSPropertyOp60
 70
     1
102
RTVSPropertyOp61
 70
     1
102
RTVSPropertyOp62
 70
     1
  0
XRECORD
  5
2559
102
{ACAD_REACTORS
330
2558
102
}
330
2558
100
AcDbXrecord
280
     1
102
RTVSPost2010Prop28
280
     0
102
RTVSPost2010PropOp28
 70
     1
102
RTVSPost2010Prop29
280
     1
102
RTVSPost2010PropOp29
 70
     1
102
RTVSPost2010Prop30
280
     1
102
RTVSPost2010PropOp30
 70
     1
102
RTVSPost2010Prop31
280
     0
102
RTVSPost2010PropOp31
 70
     1
102
RTVSPost2010Prop32
280
     0
102
RTVSPost2010PropOp32
 70
     1
102
RTVSPost2010Prop33
280
     0
102
RTVSPost2010PropOp33
 70
     1
102
RTVSPost2010Prop34
280
     0
102
RTVSPost2010PropOp34
 70
     1
102
RTVSPost2010Prop35
280
     0
102
RTVSPost2010PropOp35
 70
     1
102
RTVSPost2010Prop36
280
     0
102
RTVSPost2010PropOp36
 70
     1
102
RTVSPost2010Prop37
 90
       50
102
RTVSPost2010PropOp37
 70
     1
102
RTVSPost2010Prop38
140
0.0
102
RTVSPost2010PropOp38
 70
     1
102
RTVSPost2010Prop39
140
1.0
102
RTVSPost2010PropOp39
 70
     1
102
RTVSPost2010Prop40
 90
        0
102
RTVSPost2010PropOp40
 70
     1
102
RTVSPost2010Prop41ColorIndex
 90
       18
102
RTVSPost2010Prop41ColorRGB
 90
        0
102
RTVSPost2010PropOp41
 70
     1
102
RTVSPost2010Prop42
 90
       50
102
RTVSPost2010PropOp42
 70
     1
102
RTVSPost2010Prop43
 90
        3
102
RTVSPost2010PropOp43
 70
     1
102
RTVSPost2010Prop44ColorIndex
 90
        5
102
RTVSPost2010Prop44ColorRGB
 90
      255
102
RTVSPost2010PropOp44
 70
     1
102
RTVSPost2010Prop45
280
     0
102
RTVSPost2010PropOp45
 70
     1
102
RTVSPost2010Prop46
 90
       50
102
RTVSPost2010PropOp46
 70
     1
102
RTVSPost2010Prop47
 90
       50
102
RTVSPost2010PropOp47
 70
     1
102
RTVSPost2010Prop48
 90
       50
102
RTVSPost2010PropOp48
 70
     1
102
RTVSPost2010Prop49
280
     0
102
RTVSPost2010PropOp49
 70
     1
102
RTVSPost2010Prop50
 90
       50
102
RTVSPost2010PropOp50
 70
     1
102
RTVSPost2010Prop51ColorIndex
 90
      256
102
RTVSPost2010Prop51ColorRGB
 90
-16777216
102
RTVSPost2010PropOp51
 70
     0
102
RTVSPost2010Prop52
140
1.0
102
RTVSPost2010PropOp52
 70
     0
102
RTVSPost2010Prop53
 90
        2
102
RTVSPost2010PropOp53
 70
     1
102
RTVSPost2010Prop54
  1
strokes_ogs.tif
102
RTVSPost2010PropOp54
 70
     1
102
RTVSPost2010Prop55
280
     0
102
RTVSPost2010PropOp55
 70
     1
102
RTVSPost2010Prop56
140
1.0
102
RTVSPost2010PropOp56
 70
     1
102
RTVSPost2010Prop57
140
1.0
102
RTVSPost2010PropOp57
 70
     1
102
RTVSPropertyOp0
 70
     1
102
RTVSPropertyOp1
 70
     1
102
RTVSPropertyOp2
 70
     1
102
RTVSPropertyOp3
 70
     1
102
RTVSPropertyOp4
 70
     1
102
RTVSPropertyOp5
 70
     1
102
RTVSPropertyOp6
 70
     1
102
RTVSPropertyOp7
 70
     1
102
RTVSPropertyOp8
 70
     1
102
RTVSPropertyOp9
 70
     1
102
RTVSPropertyOp10
 70
     1
102
RTVSPropertyOp11
 70
     1
102
RTVSPropertyOp12
 70
     1
102
RTVSPropertyOp13
 70
     1
102
RTVSPropertyOp14
 70
     1
102
RTVSPropertyOp15
 70
     1
102
RTVSPropertyOp16
 70
     1
102
RTVSPropertyOp17
 70
     1
102
RTVSPropertyOp18
 70
     1
102
RTVSPropertyOp19
 70
     1
102
RTVSPropertyOp20
 70
     1
102
RTVSPropertyOp21
 70
     1
102
RTVSPropertyOp22
 70
     1
102
RTVSPropertyOp23
 70
     1
102
RTVSPropertyOp24
 70
     1
102
RTVSPropertyOp25
 70
     1
102
RTVSPropertyOp26
 70
     1
102
RTVSPropertyOp27
 70
     1
102
RTVSPropertyOp28
 70
     1
102
RTVSPropertyOp29
 70
     1
102
RTVSPropertyOp30
 70
     1
102
RTVSPropertyOp31
 70
     1
102
RTVSPropertyOp32
 70
     1
102
RTVSPropertyOp33
 70
     1
102
RTVSPropertyOp34
 70
     1
102
RTVSPropertyOp35
 70
     1
102
RTVSPropertyOp36
 70
     1
102
RTVSPropertyOp37
 70
     1
102
RTVSPropertyOp38
 70
     1
102
RTVSPropertyOp39
 70
     1
102
RTVSPropertyOp40
 70
     1
102
RTVSPropertyOp41
 70
     1
102
RTVSPropertyOp42
 70
     1
102
RTVSPropertyOp43
 70
     1
102
RTVSPropertyOp44
 70
     1
102
RTVSPropertyOp45
 70
     1
102
RTVSPropertyOp46
 70
     1
102
RTVSPropertyOp47
 70
     1
102
RTVSPropertyOp48
 70
     1
102
RTVSPropertyOp49
 70
     1
102
RTVSPropertyOp50
 70
     1
102
RTVSPropertyOp51
 70
     0
102
RTVSPropertyOp52
 70
     0
102
RTVSPropertyOp53
 70
     1
102
RTVSPropertyOp54
 70
     1
102
RTVSPropertyOp55
 70
     1
102
RTVSPropertyOp56
 70
     1
102
RTVSPropertyOp57
 70
     1
102
RTVSPropertyOp58
 70
     1
102
RTVSPropertyOp59
 70
     1
102
RTVSPropertyOp60
 70
     1
102
RTVSPropertyOp61
 70
     1
102
RTVSPropertyOp62
 70
     1
  0
XRECORD
  5
255B
102
{ACAD_REACTORS
330
255A
102
}
330
255A
100
AcDbXrecord
280
     1
102
RTVSPost2010Prop28
280
     0
102
RTVSPost2010PropOp28
 70
     1
102
RTVSPost2010Prop29
280
     1
102
RTVSPost2010PropOp29
 70
     1
102
RTVSPost2010Prop30
280
     1
102
RTVSPost2010PropOp30
 70
     1
102
RTVSPost2010Prop31
280
     0
102
RTVSPost2010PropOp31
 70
     1
102
RTVSPost2010Prop32
280
     0
102
RTVSPost2010PropOp32
 70
     1
102
RTVSPost2010Prop33
280
     0
102
RTVSPost2010PropOp33
 70
     1
102
RTVSPost2010Prop34
280
     0
102
RTVSPost2010PropOp34
 70
     1
102
RTVSPost2010Prop35
280
     0
102
RTVSPost2010PropOp35
 70
     1
102
RTVSPost2010Prop36
280
     0
102
RTVSPost2010PropOp36
 70
     1
102
RTVSPost2010Prop37
 90
       50
102
RTVSPost2010PropOp37
 70
     1
102
RTVSPost2010Prop38
140
0.0
102
RTVSPost2010PropOp38
 70
     1
102
RTVSPost2010Prop39
140
1.0
102
RTVSPost2010PropOp39
 70
     1
102
RTVSPost2010Prop40
 90
        0
102
RTVSPost2010PropOp40
 70
     1
102
RTVSPost2010Prop41ColorIndex
 90
       18
102
RTVSPost2010Prop41ColorRGB
 90
        0
102
RTVSPost2010PropOp41
 70
     1
102
RTVSPost2010Prop42
 90
       50
102
RTVSPost2010PropOp42
 70
     1
102
RTVSPost2010Prop43
 90
        3
102
RTVSPost2010PropOp43
 70
     1
102
RTVSPost2010Prop44ColorIndex
 90
        5
102
RTVSPost2010Prop44ColorRGB
 90
      255
102
RTVSPost2010PropOp44
 70
     1
102
RTVSPost2010Prop45
280
     0
102
RTVSPost2010PropOp45
 70
     1
102
RTVSPost2010Prop46
 90
       50
102
RTVSPost2010PropOp46
 70
     1
102
RTVSPost2010Prop47
 90
       50
102
RTVSPost2010PropOp47
 70
     1
102
RTVSPost2010Prop48
 90
       50
102
RTVSPost2010PropOp48
 70
     1
102
RTVSPost2010Prop49
280
     0
102
RTVSPost2010PropOp49
 70
     1
102
RTVSPost2010Prop50
 90
       50
102
RTVSPost2010PropOp50
 70
     1
102
RTVSPost2010Prop51ColorIndex
 90
      256
102
RTVSPost2010Prop51ColorRGB
 90
-16777216
102
RTVSPost2010PropOp51
 70
     0
102
RTVSPost2010Prop52
140
1.0
102
RTVSPost2010PropOp52
 70
     0
102
RTVSPost2010Prop53
 90
        2
102
RTVSPost2010PropOp53
 70
     1
102
RTVSPost2010Prop54
  1
strokes_ogs.tif
102
RTVSPost2010PropOp54
 70
     1
102
RTVSPost2010Prop55
280
     0
102
RTVSPost2010PropOp55
 70
     1
102
RTVSPost2010Prop56
140
1.0
102
RTVSPost2010PropOp56
 70
     1
102
RTVSPost2010Prop57
140
1.0
102
RTVSPost2010PropOp57
 70
     1
102
RTVSPropertyOp0
 70
     1
102
RTVSPropertyOp1
 70
     1
102
RTVSPropertyOp2
 70
     1
102
RTVSPropertyOp3
 70
     1
102
RTVSPropertyOp4
 70
     1
102
RTVSPropertyOp5
 70
     1
102
RTVSPropertyOp6
 70
     1
102
RTVSPropertyOp7
 70
     1
102
RTVSPropertyOp8
 70
     1
102
RTVSPropertyOp9
 70
     1
102
RTVSPropertyOp10
 70
     1
102
RTVSPropertyOp11
 70
     1
102
RTVSPropertyOp12
 70
     1
102
RTVSPropertyOp13
 70
     1
102
RTVSPropertyOp14
 70
     1
102
RTVSPropertyOp15
 70
     1
102
RTVSPropertyOp16
 70
     1
102
RTVSPropertyOp17
 70
     1
102
RTVSPropertyOp18
 70
     1
102
RTVSPropertyOp19
 70
     1
102
RTVSPropertyOp20
 70
     1
102
RTVSPropertyOp21
 70
     1
102
RTVSPropertyOp22
 70
     1
102
RTVSPropertyOp23
 70
     1
102
RTVSPropertyOp24
 70
     1
102
RTVSPropertyOp25
 70
     1
102
RTVSPropertyOp26
 70
     1
102
RTVSPropertyOp27
 70
     1
102
RTVSPropertyOp28
 70
     1
102
RTVSPropertyOp29
 70
     1
102
RTVSPropertyOp30
 70
     1
102
RTVSPropertyOp31
 70
     1
102
RTVSPropertyOp32
 70
     1
102
RTVSPropertyOp33
 70
     1
102
RTVSPropertyOp34
 70
     1
102
RTVSPropertyOp35
 70
     1
102
RTVSPropertyOp36
 70
     1
102
RTVSPropertyOp37
 70
     1
102
RTVSPropertyOp38
 70
     1
102
RTVSPropertyOp39
 70
     1
102
RTVSPropertyOp40
 70
     1
102
RTVSPropertyOp41
 70
     1
102
RTVSPropertyOp42
 70
     1
102
RTVSPropertyOp43
 70
     1
102
RTVSPropertyOp44
 70
     1
102
RTVSPropertyOp45
 70
     1
102
RTVSPropertyOp46
 70
     1
102
RTVSPropertyOp47
 70
     1
102
RTVSPropertyOp48
 70
     1
102
RTVSPropertyOp49
 70
     1
102
RTVSPropertyOp50
 70
     1
102
RTVSPropertyOp51
 70
     0
102
RTVSPropertyOp52
 70
     0
102
RTVSPropertyOp53
 70
     1
102
RTVSPropertyOp54
 70
     1
102
RTVSPropertyOp55
 70
     1
102
RTVSPropertyOp56
 70
     1
102
RTVSPropertyOp57
 70
     1
102
RTVSPropertyOp58
 70
     1
102
RTVSPropertyOp59
 70
     1
102
RTVSPropertyOp60
 70
     1
102
RTVSPropertyOp61
 70
     1
102
RTVSPropertyOp62
 70
     1
  0
XRECORD
  5
2551
102
{ACAD_REACTORS
330
2550
102
}
330
2550
100
AcDbXrecord
280
     1
102
RTVSPost2010Prop28
280
     0
102
RTVSPost2010PropOp28
 70
     1
102
RTVSPost2010Prop29
280
     1
102
RTVSPost2010PropOp29
 70
     1
102
RTVSPost2010Prop30
280
     1
102
RTVSPost2010PropOp30
 70
     1
102
RTVSPost2010Prop31
280
     0
102
RTVSPost2010PropOp31
 70
     1
102
RTVSPost2010Prop32
280
     0
102
RTVSPost2010PropOp32
 70
     1
102
RTVSPost2010Prop33
280
     0
102
RTVSPost2010PropOp33
 70
     1
102
RTVSPost2010Prop34
280
     0
102
RTVSPost2010PropOp34
 70
     1
102
RTVSPost2010Prop35
280
     0
102
RTVSPost2010PropOp35
 70
     1
102
RTVSPost2010Prop36
280
     0
102
RTVSPost2010PropOp36
 70
     1
102
RTVSPost2010Prop37
 90
       50
102
RTVSPost2010PropOp37
 70
     1
102
RTVSPost2010Prop38
140
0.0
102
RTVSPost2010PropOp38
 70
     1
102
RTVSPost2010Prop39
140
1.0
102
RTVSPost2010PropOp39
 70
     1
102
RTVSPost2010Prop40
 90
        0
102
RTVSPost2010PropOp40
 70
     1
102
RTVSPost2010Prop41ColorIndex
 90
       18
102
RTVSPost2010Prop41ColorRGB
 90
        0
102
RTVSPost2010PropOp41
 70
     1
102
RTVSPost2010Prop42
 90
       50
102
RTVSPost2010PropOp42
 70
     1
102
RTVSPost2010Prop43
 90
        3
102
RTVSPost2010PropOp43
 70
     1
102
RTVSPost2010Prop44ColorIndex
 90
        5
102
RTVSPost2010Prop44ColorRGB
 90
      255
102
RTVSPost2010PropOp44
 70
     1
102
RTVSPost2010Prop45
280
     0
102
RTVSPost2010PropOp45
 70
     1
102
RTVSPost2010Prop46
 90
       50
102
RTVSPost2010PropOp46
 70
     1
102
RTVSPost2010Prop47
 90
       50
102
RTVSPost2010PropOp47
 70
     1
102
RTVSPost2010Prop48
 90
       50
102
RTVSPost2010PropOp48
 70
     1
102
RTVSPost2010Prop49
280
     0
102
RTVSPost2010PropOp49
 70
     1
102
RTVSPost2010Prop50
 90
       50
102
RTVSPost2010PropOp50
 70
     1
102
RTVSPost2010Prop51ColorIndex
 90
      256
102
RTVSPost2010Prop51ColorRGB
 90
-16777216
102
RTVSPost2010PropOp51
 70
     0
102
RTVSPost2010Prop52
140
1.0
102
RTVSPost2010PropOp52
 70
     0
102
RTVSPost2010Prop53
 90
        2
102
RTVSPost2010PropOp53
 70
     1
102
RTVSPost2010Prop54
  1
strokes_ogs.tif
102
RTVSPost2010PropOp54
 70
     1
102
RTVSPost2010Prop55
280
     0
102
RTVSPost2010PropOp55
 70
     1
102
RTVSPost2010Prop56
140
1.0
102
RTVSPost2010PropOp56
 70
     1
102
RTVSPost2010Prop57
140
1.0
102
RTVSPost2010PropOp57
 70
     1
102
RTVSPropertyOp0
 70
     1
102
RTVSPropertyOp1
 70
     1
102
RTVSPropertyOp2
 70
     1
102
RTVSPropertyOp3
 70
     1
102
RTVSPropertyOp4
 70
     1
102
RTVSPropertyOp5
 70
     1
102
RTVSPropertyOp6
 70
     1
102
RTVSPropertyOp7
 70
     1
102
RTVSPropertyOp8
 70
     1
102
RTVSPropertyOp9
 70
     1
102
RTVSPropertyOp10
 70
     1
102
RTVSPropertyOp11
 70
     1
102
RTVSPropertyOp12
 70
     1
102
RTVSPropertyOp13
 70
     1
102
RTVSPropertyOp14
 70
     1
102
RTVSPropertyOp15
 70
     1
102
RTVSPropertyOp16
 70
     1
102
RTVSPropertyOp17
 70
     1
102
RTVSPropertyOp18
 70
     1
102
RTVSPropertyOp19
 70
     1
102
RTVSPropertyOp20
 70
     1
102
RTVSPropertyOp21
 70
     1
102
RTVSPropertyOp22
 70
     1
102
RTVSPropertyOp23
 70
     1
102
RTVSPropertyOp24
 70
     1
102
RTVSPropertyOp25
 70
     1
102
RTVSPropertyOp26
 70
     1
102
RTVSPropertyOp27
 70
     1
102
RTVSPropertyOp28
 70
     1
102
RTVSPropertyOp29
 70
     1
102
RTVSPropertyOp30
 70
     1
102
RTVSPropertyOp31
 70
     1
102
RTVSPropertyOp32
 70
     1
102
RTVSPropertyOp33
 70
     1
102
RTVSPropertyOp34
 70
     1
102
RTVSPropertyOp35
 70
     1
102
RTVSPropertyOp36
 70
     1
102
RTVSPropertyOp37
 70
     1
102
RTVSPropertyOp38
 70
     1
102
RTVSPropertyOp39
 70
     1
102
RTVSPropertyOp40
 70
     1
102
RTVSPropertyOp41
 70
     1
102
RTVSPropertyOp42
 70
     1
102
RTVSPropertyOp43
 70
     1
102
RTVSPropertyOp44
 70
     1
102
RTVSPropertyOp45
 70
     1
102
RTVSPropertyOp46
 70
     1
102
RTVSPropertyOp47
 70
     1
102
RTVSPropertyOp48
 70
     1
102
RTVSPropertyOp49
 70
     1
102
RTVSPropertyOp50
 70
     1
102
RTVSPropertyOp51
 70
     0
102
RTVSPropertyOp52
 70
     0
102
RTVSPropertyOp53
 70
     1
102
RTVSPropertyOp54
 70
     1
102
RTVSPropertyOp55
 70
     1
102
RTVSPropertyOp56
 70
     1
102
RTVSPropertyOp57
 70
     1
102
RTVSPropertyOp58
 70
     1
102
RTVSPropertyOp59
 70
     1
102
RTVSPropertyOp60
 70
     1
102
RTVSPropertyOp61
 70
     1
102
RTVSPropertyOp62
 70
     1
  0
XRECORD
  5
2545
102
{ACAD_REACTORS
330
2544
102
}
330
2544
100
AcDbXrecord
280
     1
102
RTVSPost2010Prop28
280
     0
102
RTVSPost2010PropOp28
 70
     1
102
RTVSPost2010Prop29
280
     1
102
RTVSPost2010PropOp29
 70
     1
102
RTVSPost2010Prop30
280
     1
102
RTVSPost2010PropOp30
 70
     1
102
RTVSPost2010Prop31
280
     0
102
RTVSPost2010PropOp31
 70
     1
102
RTVSPost2010Prop32
280
     0
102
RTVSPost2010PropOp32
 70
     1
102
RTVSPost2010Prop33
280
     0
102
RTVSPost2010PropOp33
 70
     1
102
RTVSPost2010Prop34
280
     0
102
RTVSPost2010PropOp34
 70
     1
102
RTVSPost2010Prop35
280
     0
102
RTVSPost2010PropOp35
 70
     1
102
RTVSPost2010Prop36
280
     0
102
RTVSPost2010PropOp36
 70
     1
102
RTVSPost2010Prop37
 90
       50
102
RTVSPost2010PropOp37
 70
     1
102
RTVSPost2010Prop38
140
0.0
102
RTVSPost2010PropOp38
 70
     1
102
RTVSPost2010Prop39
140
1.0
102
RTVSPost2010PropOp39
 70
     1
102
RTVSPost2010Prop40
 90
        0
102
RTVSPost2010PropOp40
 70
     1
102
RTVSPost2010Prop41ColorIndex
 90
       18
102
RTVSPost2010Prop41ColorRGB
 90
        0
102
RTVSPost2010PropOp41
 70
     1
102
RTVSPost2010Prop42
 90
       50
102
RTVSPost2010PropOp42
 70
     1
102
RTVSPost2010Prop43
 90
        3
102
RTVSPost2010PropOp43
 70
     1
102
RTVSPost2010Prop44ColorIndex
 90
        5
102
RTVSPost2010Prop44ColorRGB
 90
      255
102
RTVSPost2010PropOp44
 70
     1
102
RTVSPost2010Prop45
280
     0
102
RTVSPost2010PropOp45
 70
     1
102
RTVSPost2010Prop46
 90
       50
102
RTVSPost2010PropOp46
 70
     1
102
RTVSPost2010Prop47
 90
       50
102
RTVSPost2010PropOp47
 70
     1
102
RTVSPost2010Prop48
 90
       50
102
RTVSPost2010PropOp48
 70
     1
102
RTVSPost2010Prop49
280
     0
102
RTVSPost2010PropOp49
 70
     1
102
RTVSPost2010Prop50
 90
       50
102
RTVSPost2010PropOp50
 70
     1
102
RTVSPost2010Prop51ColorIndex
 90
      256
102
RTVSPost2010Prop51ColorRGB
 90
-16777216
102
RTVSPost2010PropOp51
 70
     0
102
RTVSPost2010Prop52
140
1.0
102
RTVSPost2010PropOp52
 70
     0
102
RTVSPost2010Prop53
 90
        2
102
RTVSPost2010PropOp53
 70
     1
102
RTVSPost2010Prop54
  1
strokes_ogs.tif
102
RTVSPost2010PropOp54
 70
     1
102
RTVSPost2010Prop55
280
     0
102
RTVSPost2010PropOp55
 70
     1
102
RTVSPost2010Prop56
140
1.0
102
RTVSPost2010PropOp56
 70
     1
102
RTVSPost2010Prop57
140
1.0
102
RTVSPost2010PropOp57
 70
     1
102
RTVSPropertyOp0
 70
     1
102
RTVSPropertyOp1
 70
     1
102
RTVSPropertyOp2
 70
     1
102
RTVSPropertyOp3
 70
     1
102
RTVSPropertyOp4
 70
     1
102
RTVSPropertyOp5
 70
     1
102
RTVSPropertyOp6
 70
     1
102
RTVSPropertyOp7
 70
     1
102
RTVSPropertyOp8
 70
     1
102
RTVSPropertyOp9
 70
     1
102
RTVSPropertyOp10
 70
     1
102
RTVSPropertyOp11
 70
     1
102
RTVSPropertyOp12
 70
     1
102
RTVSPropertyOp13
 70
     1
102
RTVSPropertyOp14
 70
     1
102
RTVSPropertyOp15
 70
     1
102
RTVSPropertyOp16
 70
     1
102
RTVSPropertyOp17
 70
     1
102
RTVSPropertyOp18
 70
     1
102
RTVSPropertyOp19
 70
     1
102
RTVSPropertyOp20
 70
     1
102
RTVSPropertyOp21
 70
     1
102
RTVSPropertyOp22
 70
     1
102
RTVSPropertyOp23
 70
     1
102
RTVSPropertyOp24
 70
     1
102
RTVSPropertyOp25
 70
     1
102
RTVSPropertyOp26
 70
     1
102
RTVSPropertyOp27
 70
     1
102
RTVSPropertyOp28
 70
     1
102
RTVSPropertyOp29
 70
     1
102
RTVSPropertyOp30
 70
     1
102
RTVSPropertyOp31
 70
     1
102
RTVSPropertyOp32
 70
     1
102
RTVSPropertyOp33
 70
     1
102
RTVSPropertyOp34
 70
     1
102
RTVSPropertyOp35
 70
     1
102
RTVSPropertyOp36
 70
     1
102
RTVSPropertyOp37
 70
     1
102
RTVSPropertyOp38
 70
     1
102
RTVSPropertyOp39
 70
     1
102
RTVSPropertyOp40
 70
     1
102
RTVSPropertyOp41
 70
     1
102
RTVSPropertyOp42
 70
     1
102
RTVSPropertyOp43
 70
     1
102
RTVSPropertyOp44
 70
     1
102
RTVSPropertyOp45
 70
     1
102
RTVSPropertyOp46
 70
     1
102
RTVSPropertyOp47
 70
     1
102
RTVSPropertyOp48
 70
     1
102
RTVSPropertyOp49
 70
     1
102
RTVSPropertyOp50
 70
     1
102
RTVSPropertyOp51
 70
     0
102
RTVSPropertyOp52
 70
     0
102
RTVSPropertyOp53
 70
     1
102
RTVSPropertyOp54
 70
     1
102
RTVSPropertyOp55
 70
     1
102
RTVSPropertyOp56
 70
     1
102
RTVSPropertyOp57
 70
     1
102
RTVSPropertyOp58
 70
     1
102
RTVSPropertyOp59
 70
     1
102
RTVSPropertyOp60
 70
     1
102
RTVSPropertyOp61
 70
     1
102
RTVSPropertyOp62
 70
     1
  0
XRECORD
  5
255D
102
{ACAD_REACTORS
330
255C
102
}
330
255C
100
AcDbXrecord
280
     1
102
RTVSPost2010Prop28
280
     0
102
RTVSPost2010PropOp28
 70
     1
102
RTVSPost2010Prop29
280
     1
102
RTVSPost2010PropOp29
 70
     1
102
RTVSPost2010Prop30
280
     1
102
RTVSPost2010PropOp30
 70
     1
102
RTVSPost2010Prop31
280
     0
102
RTVSPost2010PropOp31
 70
     1
102
RTVSPost2010Prop32
280
     0
102
RTVSPost2010PropOp32
 70
     1
102
RTVSPost2010Prop33
280
     0
102
RTVSPost2010PropOp33
 70
     1
102
RTVSPost2010Prop34
280
     0
102
RTVSPost2010PropOp34
 70
     1
102
RTVSPost2010Prop35
280
     0
102
RTVSPost2010PropOp35
 70
     1
102
RTVSPost2010Prop36
280
     0
102
RTVSPost2010PropOp36
 70
     1
102
RTVSPost2010Prop37
 90
       50
102
RTVSPost2010PropOp37
 70
     1
102
RTVSPost2010Prop38
140
0.0
102
RTVSPost2010PropOp38
 70
     1
102
RTVSPost2010Prop39
140
1.0
102
RTVSPost2010PropOp39
 70
     1
102
RTVSPost2010Prop40
 90
        0
102
RTVSPost2010PropOp40
 70
     1
102
RTVSPost2010Prop41ColorIndex
 90
       18
102
RTVSPost2010Prop41ColorRGB
 90
        0
102
RTVSPost2010PropOp41
 70
     1
102
RTVSPost2010Prop42
 90
       50
102
RTVSPost2010PropOp42
 70
     1
102
RTVSPost2010Prop43
 90
        3
102
RTVSPost2010PropOp43
 70
     1
102
RTVSPost2010Prop44ColorIndex
 90
        5
102
RTVSPost2010Prop44ColorRGB
 90
      255
102
RTVSPost2010PropOp44
 70
     1
102
RTVSPost2010Prop45
280
     0
102
RTVSPost2010PropOp45
 70
     1
102
RTVSPost2010Prop46
 90
       50
102
RTVSPost2010PropOp46
 70
     1
102
RTVSPost2010Prop47
 90
       50
102
RTVSPost2010PropOp47
 70
     1
102
RTVSPost2010Prop48
 90
       50
102
RTVSPost2010PropOp48
 70
     1
102
RTVSPost2010Prop49
280
     0
102
RTVSPost2010PropOp49
 70
     1
102
RTVSPost2010Prop50
 90
       50
102
RTVSPost2010PropOp50
 70
     1
102
RTVSPost2010Prop51ColorIndex
 90
      256
102
RTVSPost2010Prop51ColorRGB
 90
-16777216
102
RTVSPost2010PropOp51
 70
     0
102
RTVSPost2010Prop52
140
1.0
102
RTVSPost2010PropOp52
 70
     0
102
RTVSPost2010Prop53
 90
        2
102
RTVSPost2010PropOp53
 70
     1
102
RTVSPost2010Prop54
  1
strokes_ogs.tif
102
RTVSPost2010PropOp54
 70
     1
102
RTVSPost2010Prop55
280
     0
102
RTVSPost2010PropOp55
 70
     1
102
RTVSPost2010Prop56
140
1.0
102
RTVSPost2010PropOp56
 70
     1
102
RTVSPost2010Prop57
140
1.0
102
RTVSPost2010PropOp57
 70
     1
102
RTVSPropertyOp0
 70
     1
102
RTVSPropertyOp1
 70
     1
102
RTVSPropertyOp2
 70
     1
102
RTVSPropertyOp3
 70
     1
102
RTVSPropertyOp4
 70
     1
102
RTVSPropertyOp5
 70
     1
102
RTVSPropertyOp6
 70
     1
102
RTVSPropertyOp7
 70
     1
102
RTVSPropertyOp8
 70
     1
102
RTVSPropertyOp9
 70
     1
102
RTVSPropertyOp10
 70
     1
102
RTVSPropertyOp11
 70
     1
102
RTVSPropertyOp12
 70
     1
102
RTVSPropertyOp13
 70
     1
102
RTVSPropertyOp14
 70
     1
102
RTVSPropertyOp15
 70
     1
102
RTVSPropertyOp16
 70
     1
102
RTVSPropertyOp17
 70
     1
102
RTVSPropertyOp18
 70
     1
102
RTVSPropertyOp19
 70
     1
102
RTVSPropertyOp20
 70
     1
102
RTVSPropertyOp21
 70
     1
102
RTVSPropertyOp22
 70
     1
102
RTVSPropertyOp23
 70
     1
102
RTVSPropertyOp24
 70
     1
102
RTVSPropertyOp25
 70
     1
102
RTVSPropertyOp26
 70
     1
102
RTVSPropertyOp27
 70
     1
102
RTVSPropertyOp28
 70
     1
102
RTVSPropertyOp29
 70
     1
102
RTVSPropertyOp30
 70
     1
102
RTVSPropertyOp31
 70
     1
102
RTVSPropertyOp32
 70
     1
102
RTVSPropertyOp33
 70
     1
102
RTVSPropertyOp34
 70
     1
102
RTVSPropertyOp35
 70
     1
102
RTVSPropertyOp36
 70
     1
102
RTVSPropertyOp37
 70
     1
102
RTVSPropertyOp38
 70
     1
102
RTVSPropertyOp39
 70
     1
102
RTVSPropertyOp40
 70
     1
102
RTVSPropertyOp41
 70
     1
102
RTVSPropertyOp42
 70
     1
102
RTVSPropertyOp43
 70
     1
102
RTVSPropertyOp44
 70
     1
102
RTVSPropertyOp45
 70
     1
102
RTVSPropertyOp46
 70
     1
102
RTVSPropertyOp47
 70
     1
102
RTVSPropertyOp48
 70
     1
102
RTVSPropertyOp49
 70
     1
102
RTVSPropertyOp50
 70
     1
102
RTVSPropertyOp51
 70
     0
102
RTVSPropertyOp52
 70
     0
102
RTVSPropertyOp53
 70
     1
102
RTVSPropertyOp54
 70
     1
102
RTVSPropertyOp55
 70
     1
102
RTVSPropertyOp56
 70
     1
102
RTVSPropertyOp57
 70
     1
102
RTVSPropertyOp58
 70
     1
102
RTVSPropertyOp59
 70
     1
102
RTVSPropertyOp60
 70
     1
102
RTVSPropertyOp61
 70
     1
102
RTVSPropertyOp62
 70
     1
  0
ENDSEC
  0
EOF
