  0
SECTION
  2
HEADER
  9
$ACADVER
  1
AC1009
  9
$DWGCODEPAGE
  3
ansi_932
  9
$INSBASE
 10
0.0
 20
0.0
 30
0.0
  9
$EXTMIN
 10
-1833.55709728035
 20
-560.6918161044505
 30
-0.0000000000112498
  9
$EXTMAX
 10
2061.096213596284
 20
2053.253186695805
 30
0.0000000000002956
  9
$LIMMIN
 10
-5000.0
 20
-2500.0
  9
$LIMMAX
 10
7000.0
 20
4000.0
  9
$ORTHOMODE
 70
     0
  9
$REGENMODE
 70
     1
  9
$FILLMODE
 70
     1
  9
$QTEXTMODE
 70
     0
  9
$MIRRTEXT
 70
     0
  9
$DRAGMODE
 70
     2
  9
$LTSCALE
 40
20.0
  9
$OSMODE
 70
    37
  9
$ATTMODE
 70
     0
  9
$TEXTSIZE
 40
64.0
  9
$TRACEWID
 40
0.05
  9
$TEXTSTYLE
  7
STANDARD
  9
$CLAYER
  8
SYMBOLLINE
  9
$CELTYPE
  6
CONTINUOUS
  9
$CECOLOR
 62
     7
  9
$DIMSCALE
 40
1.0
  9
$DIMASZ
 40
10.0
  9
$DIMEXO
 40
20.0
  9
$DIMDLI
 40
200.0
  9
$DIMRND
 40
0.0
  9
$DIMDLE
 40
0.0
  9
$DIMEXE
 40
15.0
  9
$DIMTP
 40
0.0
  9
$DIMTM
 40
0.0
  9
$DIMTXT
 40
40.0
  9
$DIMCEN
 40
0.0
  9
$DIMTSZ
 40
0.0
  9
$DIMTOL
 70
     0
  9
$DIMLIM
 70
     0
  9
$DIMTIH
 70
     0
  9
$DIMTOH
 70
     0
  9
$DIMSE1
 70
     0
  9
$DIMSE2
 70
     0
  9
$DIMTAD
 70
     1
  9
$DIMZIN
 70
     8
  9
$DIMBLK
  1

  9
$DIMASO
 70
     1
  9
$DIMSHO
 70
     0
  9
$DIMPOST
  1

  9
$DIMAPOST
  1

  9
$DIMALT
 70
     0
  9
$DIMALTD
 70
     2
  9
$DIMALTF
 40
25.4
  9
$DIMLFAC
 40
1.0
  9
$DIMTOFL
 70
     1
  9
$DIMTVP
 40
0.0
  9
$DIMTIX
 70
     1
  9
$DIMSOXD
 70
     0
  9
$DIMSAH
 70
     0
  9
$DIMBLK1
  1

  9
$DIMBLK2
  1

  9
$DIMSTYLE
  2
STANDARD
  9
$DIMCLRD
 70
     0
  9
$DIMCLRE
 70
     0
  9
$DIMCLRT
 70
     0
  9
$DIMTFAC
 40
1.0
  9
$DIMGAP
 40
0.09
  9
$LUNITS
 70
     2
  9
$LUPREC
 70
     4
  9
$SKETCHINC
 40
0.1
  9
$FILLETRAD
 40
15.0
  9
$AUNITS
 70
     1
  9
$AUPREC
 70
     3
  9
$MENU
  1
ACAD
  9
$ELEVATION
 40
0.0
  9
$PELEVATION
 40
0.0
  9
$THICKNESS
 40
0.0
  9
$LIMCHECK
 70
     0
  9
$CHAMFERA
 40
0.0
  9
$CHAMFERB
 40
0.0
  9
$SKPOLY
 70
     0
  9
$TDCREATE
 40
2449761.493622674
  9
$TDUPDATE
 40
2457465.430583715
  9
$TDINDWG
 40
9.7953993056
  9
$TDUSRTIMER
 40
9.7953929745
  9
$USRTIMER
 70
     1
  9
$ANGBASE
 50
0.0
  9
$ANGDIR
 70
     0
  9
$PDMODE
 70
    35
  9
$PDSIZE
 40
100.0
  9
$PLINEWID
 40
0.0
  9
$COORDS
 70
     1
  9
$SPLFRAME
 70
     0
  9
$SPLINETYPE
 70
     6
  9
$SPLINESEGS
 70
     8
  9
$ATTDIA
 70
     0
  9
$ATTREQ
 70
     1
  9
$HANDLING
 70
     1
  9
$HANDSEED
  5
2BB4
  9
$SURFTAB1
 70
     6
  9
$SURFTAB2
 70
     6
  9
$SURFTYPE
 70
     6
  9
$SURFU
 70
     6
  9
$SURFV
 70
     6
  9
$UCSNAME
  2
W_UCS
  9
$UCSORG
 10
-0.000033373001088
 20
60.00000107079814
 30
0.0
  9
$UCSXDIR
 10
1.0
 20
0.0
 30
0.0
  9
$UCSYDIR
 10
0.0
 20
1.0
 30
0.0
  9
$PUCSNAME
  2

  9
$PUCSORG
 10
0.0
 20
0.0
 30
0.0
  9
$PUCSXDIR
 10
1.0
 20
0.0
 30
0.0
  9
$PUCSYDIR
 10
0.0
 20
1.0
 30
0.0
  9
$USERI1
 70
     0
  9
$USERI2
 70
     0
  9
$USERI3
 70
     0
  9
$USERI4
 70
     0
  9
$USERI5
 70
     0
  9
$USERR1
 40
20.0
  9
$USERR2
 40
0.0
  9
$USERR3
 40
0.0
  9
$USERR4
 40
0.0
  9
$USERR5
 40
0.0
  9
$WORLDVIEW
 70
     1
  9
$SHADEDGE
 70
     3
  9
$SHADEDIF
 70
    70
  9
$TILEMODE
 70
     1
  9
$MAXACTVP
 70
    64
  9
$PLIMCHECK
 70
     0
  9
$PEXTMIN
 10
1.000000000000000E+20
 20
1.000000000000000E+20
 30
1.000000000000000E+20
  9
$PEXTMAX
 10
-1.000000000000000E+20
 20
-1.000000000000000E+20
 30
-1.000000000000000E+20
  9
$PLIMMIN
 10
0.0
 20
0.0
  9
$PLIMMAX
 10
12.0
 20
9.0
  9
$UNITMODE
 70
     0
  9
$VISRETAIN
 70
     1
  9
$PLINEGEN
 70
     0
  9
$PSLTSCALE
 70
     1
  0
ENDSEC
  0
SECTION
  2
TABLES
  0
TABLE
  2
VPORT
 70
     1
  0
VPORT
  2
*ACTIVE
 70
     0
 10
0.0
 20
0.0
 11
1.0
 21
1.0
 12
113.7695581579663
 22
746.2806852956772
 13
0.0
 23
0.0
 14
50.0
 24
50.0
 15
100.0
 25
100.0
 16
0.0
 26
0.0
 36
1.0
 17
0.0
 27
0.0
 37
0.0
 40
2633.822911566797
 41
1.552030456852791
 42
50.0
 43
0.0
 44
0.0
 50
0.0
 51
0.0
 71
     0
 72
  1000
 73
     1
 74
     0
 75
     0
 76
     0
 77
     0
 78
     0
  0
ENDTAB
  0
TABLE
  2
LTYPE
 70
     2
  0
LTYPE
  2
CONTINUOUS
 70
     0
  3
実線
 72
    65
 73
     0
 40
0.0
  0
LTYPE
  2
DASHDOT
 70
     0
  3
____ _ ____ _ ____ _ ____ _ ____ _ ____ _ ____
 72
    65
 73
     4
 40
5.5
 49
4.0
 49
-0.6
 49
0.3
 49
-0.6
  0
ENDTAB
  0
TABLE
  2
LAYER
 70
    12
  0
LAYER
  2
0
 70
     0
 62
     7
  6
CONTINUOUS
  0
LAYER
  2
SYMBOLLINE
 70
     0
 62
    15
  6
CONTINUOUS
  0
LAYER
  2
OUTLINE
 70
     0
 62
     3
  6
CONTINUOUS
  0
LAYER
  2
DETAIL
 70
     0
 62
     5
  6
CONTINUOUS
  0
LAYER
  2
BASIS
 70
     0
 62
     6
  6
DASHDOT
  0
LAYER
  2
SIZE
 70
     0
 62
    30
  6
CONTINUOUS
  0
LAYER
  2
NOTE
 70
     0
 62
     4
  6
CONTINUOUS
  0
LAYER
  2
ARRANGE
 70
     0
 62
     1
  6
CONTINUOUS
  0
LAYER
  2
FIX
 70
     0
 62
    11
  6
CONTINUOUS
  0
LAYER
  2
SERVICESPACE
 70
     0
 62
     2
  6
DASHDOT
  0
LAYER
  2
ETC
 70
     0
 62
    61
  6
CONTINUOUS
  0
LAYER
  2
DEFPOINTS
 70
     0
 62
     7
  6
CONTINUOUS
  0
ENDTAB
  0
TABLE
  2
STYLE
 70
     3
  0
STYLE
  2
STANDARD
 70
     0
 40
0.0
 41
0.9
 50
0.0
 71
     0
 42
64.0
  3
SIMPLEX
  4
BIGFONT
  0
STYLE
  2
ANNOTATIVE
 70
     0
 40
0.0
 41
1.0
 50
0.0
 71
     0
 42
0.2
  3
txt
  4

  0
STYLE
  2
STANDARD1
 70
     0
 40
0.0
 41
1.0
 50
0.0
 71
     0
 42
3.5
  3
MONOTXT
  4
BIGFONT
  0
ENDTAB
  0
TABLE
  2
VIEW
 70
     1
  0
VIEW
  2
ALL
 70
     0
 40
6056.230032000001
 10
0.0
 20
58.11501599999999
 41
8400.0
 11
0.0
 21
0.0
 31
1.0
 12
0.0
 22
0.0
 32
0.0
 42
50.0
 43
0.0
 44
0.0
 50
0.0
 71
     0
  0
ENDTAB
  0
TABLE
  2
UCS
 70
     1
  0
UCS
  2
W_UCS
 70
     0
 10
0.0
 20
0.0
 30
0.0
 11
1.0
 21
0.0
 31
0.0
 12
0.0
 22
1.0
 32
0.0
  0
ENDTAB
  0
TABLE
  2
APPID
 70
     4
  0
APPID
  2
ACAD
 70
     0
  0
APPID
  2
ACADANNOTATIVE
 70
     0
  0
APPID
  2
ACAD_MLEADERVER
 70
     0
  0
APPID
  2
ACAD_EXEMPT_FROM_CAD_STAND
 70
     0
  0
ENDTAB
  0
TABLE
  2
DIMSTYLE
 70
     2
  0
DIMSTYLE
  2
STANDARD
 70
     0
  3

  4

  5

  6

  7

 40
1.0
 41
0.18
 42
0.0625
 43
0.38
 44
0.18
 45
0.0
 46
0.0
 47
0.0
 48
0.0
140
0.18
141
0.09
142
0.0
143
25.4
144
1.0
145
0.0
146
1.0
147
0.09
 71
     0
 72
     0
 73
     1
 74
     1
 75
     0
 76
     0
 77
     0
 78
     0
170
     0
171
     2
172
     0
173
     0
174
     0
175
     0
176
     0
177
     0
178
     0
  0
DIMSTYLE
  2
ANNOTATIVE
 70
     0
  3

  4

  5

  6

  7

 40
1.0
 41
0.18
 42
0.0625
 43
0.38
 44
0.18
 45
0.0
 46
0.0
 47
0.0
 48
0.0
140
0.18
141
0.09
142
0.0
143
25.4
144
1.0
145
0.0
146
1.0
147
0.09
 71
     0
 72
     0
 73
     1
 74
     1
 75
     0
 76
     0
 77
     0
 78
     0
170
     0
171
     2
172
     0
173
     0
174
     0
175
     0
176
     0
177
     0
178
     0
  0
ENDTAB
  0
ENDSEC
  0
SECTION
  2
BLOCKS
  0
BLOCK
  8
0
  2
$MODEL_SPACE
 70
     0
 10
0.0
 20
0.0
 30
0.0
  3
$MODEL_SPACE
  1

  0
ENDBLK
  5
2AE4
  8
0
  0
BLOCK
 67
     1
  8
0
  2
$PAPER_SPACE
 70
     0
 10
0.0
 20
0.0
 30
0.0
  3
$PAPER_SPACE
  1

  0
ENDBLK
  5
2AE0
 67
     1
  8
0
  0
BLOCK
  8
0
  2
_DOTBLANK
 70
     0
 10
0.0
 20
0.0
 30
0.0
  3
_DOTBLANK
  1

  0
CIRCLE
  5
2876
  8
0
  6
BYBLOCK
 62
     0
 10
0.0
 20
0.0
 30
0.0
 40
0.5
  0
LINE
  5
2877
  8
0
  6
BYBLOCK
 62
     0
 10
-0.5
 20
0.0
 30
0.0
 11
-1.0
 21
0.0
 31
0.0
  0
ENDBLK
  5
2878
  8
0
 62
     7
  0
ENDSEC
  0
SECTION
  2
ENTITIES
  0
TEXT
  5
8A
  8
ETC
  6
CONTINUOUS
 62
    61
 10
829.4970790669214
 20
1917.940365155389
 30
0.0
 40
75.0
  1
CAHV-P500VAK1-H_2
 50
0.0000025613209388
 41
0.7999999999999999
  7
STANDARD1
  0
LINE
  5
8B
  8
SIZE
  6
CONTINUOUS
 62
    30
 10
1012.501241468566
 20
1409.999957127667
 30
0.0
 11
1304.130243416689
 21
1409.999957127667
 31
0.0
  0
LINE
  5
8C
  8
SIZE
  6
CONTINUOUS
 62
    30
 10
1005.798864943019
 20
0.0
 30
0.0
 11
1304.130243416689
 21
-0.0000000000001208
 31
0.0
  0
LINE
  5
8D
  8
SIZE
  6
CONTINUOUS
 62
    30
 10
1289.130243416689
 20
1399.999957127667
 30
0.0
 11
1289.130243416689
 21
9.999999999999908
 31
0.0
  0
CIRCLE
  5
8E
  8
SIZE
  6
CONTINUOUS
 62
    30
 10
1289.130243416689
 20
1409.999957127667
 30
0.0
 40
5.0
  0
LINE
  5
8F
  8
SIZE
  6
CONTINUOUS
 62
    30
 10
1289.130243416689
 20
1404.999957127667
 30
0.0
 11
1289.130243416689
 21
1399.999957127667
 31
0.0
  0
CIRCLE
  5
90
  8
SIZE
  6
CONTINUOUS
 62
    30
 10
1289.130243416689
 20
-0.0000000000000782
 30
0.0
 40
5.0
  0
LINE
  5
91
  8
SIZE
  6
CONTINUOUS
 62
    30
 10
1289.130243416689
 20
4.999999999999922
 30
0.0
 11
1289.130243416689
 21
9.999999999999922
 31
0.0
  0
TEXT
  5
92
  8
SIZE
  6
CONTINUOUS
 62
    30
 10
1274.130243416689
 20
633.8571357117646
 30
0.0
 40
40.0
  1
1410
 50
90.0
 41
0.9
 72
     1
 11
1274.130243416689
 21
704.9999928546217
 31
0.0
  0
POINT
  5
93
  8
DEFPOINTS
  6
CONTINUOUS
 62
     7
 10
992.5012414685661
 20
1409.999957127667
 30
0.0
  0
POINT
  5
94
  8
DEFPOINTS
  6
CONTINUOUS
 62
     7
 10
985.7988649430188
 20
0.0
 30
0.0
  0
POINT
  5
95
  8
DEFPOINTS
  6
CONTINUOUS
 62
     7
 10
1289.130243416689
 20
-0.0000000000000782
 30
0.0
  0
LINE
  5
96
  8
DETAIL
  6
CONTINUOUS
 62
     5
 10
-51.51827446860442
 20
1050.872617923114
 30
0.0
 11
-51.51827446860442
 21
1200.925823718893
 31
0.0
  0
LINE
  5
97
  8
DETAIL
  6
CONTINUOUS
 62
     5
 10
-11.50408625639283
 20
1200.925823718893
 30
0.0
 11
-11.50408625639283
 21
1050.872617923114
 31
0.0
  0
LINE
  5
98
  8
DETAIL
  6
CONTINUOUS
 62
     5
 10
16.50584549215091
 20
1050.872617923114
 30
0.0
 11
16.50584549215091
 21
1200.925823718893
 31
0.0
  0
LINE
  5
99
  8
DETAIL
  6
CONTINUOUS
 62
     5
 10
56.52003370434796
 20
1200.925823718893
 30
0.0
 11
56.52003370434796
 21
1050.872617923114
 31
0.0
  0
LINE
  5
9A
  8
DETAIL
  6
CONTINUOUS
 62
     5
 10
-143.20009666447
 20
1327.970871292644
 30
0.0
 11
-143.20009666447
 21
78.52784436646837
 31
0.0
  0
LINE
  5
9B
  8
DETAIL
  6
CONTINUOUS
 62
     5
 10
-61.41971388780985
 20
1316.966969534293
 30
0.0
 11
-61.41971388780985
 21
750.7662063315563
 31
0.0
  0
LINE
  5
9C
  8
DETAIL
  6
CONTINUOUS
 62
     5
 10
-144.7006287224212
 20
1317.467146886945
 30
0.0
 11
-144.7006287224212
 21
755.0677315643615
 31
0.0
  0
LINE
  5
9D
  8
DETAIL
  6
CONTINUOUS
 62
     5
 10
61.41971388780985
 20
1316.966969534293
 30
0.0
 11
61.41971388780985
 21
750.7662063315563
 31
0.0
  0
LINE
  5
9E
  8
DETAIL
  6
CONTINUOUS
 62
     5
 10
144.7006287224175
 20
755.0677315643615
 30
0.0
 11
144.7006287224175
 21
1317.467146886945
 31
0.0
  0
LINE
  5
9F
  8
DETAIL
  6
CONTINUOUS
 62
     5
 10
988.9999999999999
 20
1369.98576891547
 30
0.0
 11
988.9999999999999
 21
58.52075026035705
 31
0.0
  0
LINE
  5
A0
  8
DETAIL
  6
CONTINUOUS
 62
     5
 10
920.9758800392444
 20
78.52784436646837
 30
0.0
 11
920.9758800392444
 21
1327.970871292644
 31
0.0
  0
LINE
  5
A1
  8
DETAIL
  6
CONTINUOUS
 62
     5
 10
919.4753479812787
 20
1317.467146886945
 30
0.0
 11
919.4753479812787
 21
755.0677315643615
 31
0.0
  0
LINE
  5
A2
  8
DETAIL
  6
CONTINUOUS
 62
     5
 10
144.7006287224175
 20
755.0677315643615
 30
0.0
 11
144.7006287224175
 21
1317.467146886945
 31
0.0
  0
LINE
  5
A3
  8
DETAIL
  6
CONTINUOUS
 62
     5
 10
-143.20009666447
 20
78.52784436646837
 30
0.0
 11
-143.20009666447
 21
1327.970871292644
 31
0.0
  0
LINE
  5
A4
  8
DETAIL
  6
CONTINUOUS
 62
     5
 10
-144.7006287224212
 20
1317.467146886945
 30
0.0
 11
-144.7006287224212
 21
755.0677315643615
 31
0.0
  0
LINE
  5
A5
  8
DETAIL
  6
CONTINUOUS
 62
     5
 10
-919.4753479812932
 20
755.0677315643615
 30
0.0
 11
-919.4753479812932
 21
1317.467146886945
 31
0.0
  0
LINE
  5
A6
  8
DETAIL
  6
CONTINUOUS
 62
     5
 10
-920.9758800392447
 20
83.52961789298658
 30
0.0
 11
-920.9758800392447
 21
1327.970871292644
 31
0.0
  0
LINE
  5
A7
  8
DETAIL
  6
CONTINUOUS
 62
     5
 10
-989.0000000000002
 20
58.52075026035705
 30
0.0
 11
-989.0000000000002
 21
1369.98576891547
 31
0.0
  0
LINE
  5
A8
  8
DETAIL
  6
CONTINUOUS
 62
     5
 10
-121.1922931477529
 20
1369.98576891547
 30
0.0
 11
-121.1922931477529
 21
730.7591122254452
 31
0.0
  0
LINE
  5
A9
  8
DETAIL
  6
CONTINUOUS
 62
     5
 10
-77.07752238147079
 20
1355.480625688539
 30
0.0
 11
-77.07752238147079
 21
747.8643059484974
 31
0.0
  0
LINE
  5
AA
  8
DETAIL
  6
CONTINUOUS
 62
     5
 10
121.192293147742
 20
730.7591122254452
 30
0.0
 11
121.192293147742
 21
1369.98576891547
 31
0.0
  0
LINE
  5
AB
  8
DETAIL
  6
CONTINUOUS
 62
     5
 10
77.07753667224098
 20
1355.480625688539
 30
0.0
 11
77.07753667224098
 21
747.8643059484974
 31
0.0
  0
LINE
  5
1E5C
  8
SIZE
  6
CONTINUOUS
 62
    30
 10
1005.798864943019
 20
0.0
 30
0.0
 11
1144.13024341669
 21
-0.0000000000000497
 31
0.0
  0
LINE
  5
1E5D
  8
SIZE
  6
CONTINUOUS
 62
    30
 10
1007.999645294687
 20
53.99999999999996
 30
0.0
 11
1144.13024341669
 21
53.99999999999996
 31
0.0
  0
LINE
  5
1E5E
  8
SIZE
  6
CONTINUOUS
 62
    30
 10
1129.13024341669
 20
43.99999999999986
 30
0.0
 11
1129.13024341669
 21
9.999999999999964
 31
0.0
  0
LINE
  5
1E5F
  8
SIZE
  6
CONTINUOUS
 62
    30
 10
1129.13024341669
 20
-0.0000000000000497
 30
0.0
 11
1129.13024341669
 21
-100.0000000000002
 31
0.0
  0
CIRCLE
  5
1E60
  8
SIZE
  6
CONTINUOUS
 62
    30
 10
1129.13024341669
 20
53.99999999999996
 30
0.0
 40
5.0
  0
LINE
  5
1E61
  8
SIZE
  6
CONTINUOUS
 62
    30
 10
1129.13024341669
 20
48.99999999999996
 30
0.0
 11
1129.13024341669
 21
43.99999999999996
 31
0.0
  0
CIRCLE
  5
1E62
  8
SIZE
  6
CONTINUOUS
 62
    30
 10
1129.13024341669
 20
-0.0000000000000497
 30
0.0
 40
5.0
  0
LINE
  5
1E63
  8
SIZE
  6
CONTINUOUS
 62
    30
 10
1129.13024341669
 20
4.99999999999995
 30
0.0
 11
1129.13024341669
 21
9.99999999999995
 31
0.0
  0
TEXT
  5
1E64
  8
SIZE
  6
CONTINUOUS
 62
    30
 10
1114.13024341669
 20
-90.14285714285714
 30
0.0
 40
40.0
  1
54
 50
90.0
 41
0.9
 72
     1
 11
1114.13024341669
 21
-55.0
 31
0.0
  0
POINT
  5
1E65
  8
DEFPOINTS
  6
CONTINUOUS
 62
     7
 10
985.7988649430188
 20
0.0
 30
0.0
  0
POINT
  5
1E66
  8
DEFPOINTS
  6
CONTINUOUS
 62
     7
 10
987.9996452946871
 20
53.99999999999996
 30
0.0
  0
POINT
  5
1E67
  8
DEFPOINTS
  6
CONTINUOUS
 62
     7
 10
1129.13024341669
 20
53.99999999999996
 30
0.0
  0
LINE
  5
1E68
  8
NOTE
  6
CONTINUOUS
 62
     4
 10
0.0
 20
621.0
 30
0.0
 11
-230.7434380837121
 21
-620.3020172526121
 31
0.0
  0
LINE
  5
1E69
  8
NOTE
  6
CONTINUOUS
 62
     4
 10
-230.7434380837121
 20
-620.3020172526121
 30
0.0
 11
-916.8184377942423
 21
-620.3020172526121
 31
0.0
  0
LINE
  5
1E6B
  8
SIZE
  6
CONTINUOUS
 62
    30
 10
-989.0000000000002
 20
-16.79886494302084
 30
0.0
 11
-989.0000000000002
 21
-508.5109829831597
 31
0.0
  0
LINE
  5
1E6C
  8
SIZE
  6
CONTINUOUS
 62
    30
 10
988.9999999999999
 20
-16.79886494302084
 30
0.0
 11
988.9999999999999
 21
-508.5109829831597
 31
0.0
  0
LINE
  5
1E6D
  8
SIZE
  6
CONTINUOUS
 62
    30
 10
-979.0
 20
-493.5109829831598
 30
0.0
 11
979.0000000000001
 21
-493.5109829831598
 31
0.0
  0
CIRCLE
  5
1E6E
  8
SIZE
  6
CONTINUOUS
 62
    30
 10
-989.0000000000002
 20
-493.5109829831598
 30
0.0
 40
5.0
  0
LINE
  5
1E6F
  8
SIZE
  6
CONTINUOUS
 62
    30
 10
-984.0000000000001
 20
-493.5109829831598
 30
0.0
 11
-979.0
 21
-493.5109829831598
 31
0.0
  0
CIRCLE
  5
1E70
  8
SIZE
  6
CONTINUOUS
 62
    30
 10
988.9999999999999
 20
-493.5109829831598
 30
0.0
 40
5.0
  0
LINE
  5
1E71
  8
SIZE
  6
CONTINUOUS
 62
    30
 10
983.9999999999998
 20
-493.5109829831598
 30
0.0
 11
978.9999999999999
 21
-493.5109829831598
 31
0.0
  0
TEXT
  5
1E72
  8
SIZE
  6
CONTINUOUS
 62
    30
 10
-71.14285714285714
 20
-478.51098298316
 30
0.0
 40
40.0
  1
1978
 41
0.9
 72
     1
 11
0.0
 21
-478.51098298316
 31
0.0
  0
POINT
  5
1E73
  8
DEFPOINTS
  6
CONTINUOUS
 62
     7
 10
-989.0000000000002
 20
3.201135056979169
 30
0.0
  0
POINT
  5
1E74
  8
DEFPOINTS
  6
CONTINUOUS
 62
     7
 10
988.9999999999999
 20
3.201135056979169
 30
0.0
  0
POINT
  5
1E75
  8
DEFPOINTS
  6
CONTINUOUS
 62
     7
 10
988.9999999999999
 20
-493.5109829831598
 30
0.0
  0
LINE
  5
1E76
  8
NOTE
  6
CONTINUOUS
 62
     4
 10
-448.0
 20
216.9999999999918
 30
0.0
 11
-1046.259636796723
 21
-272.3153053570513
 31
0.0
  0
LINE
  5
1E77
  8
NOTE
  6
CONTINUOUS
 62
     4
 10
-1046.259636796723
 20
-272.3153053570513
 30
0.0
 11
-1833.401845144666
 21
-272.3153053570513
 31
0.0
  0
LINE
  5
1E79
  8
NOTE
  6
CONTINUOUS
 62
     4
 10
-315.0
 20
216.9999999999918
 30
0.0
 11
-1031.500652537251
 21
701.47182801334
 31
0.0
  0
LINE
  5
1E7A
  8
NOTE
  6
CONTINUOUS
 62
     4
 10
-1031.500652537251
 20
701.47182801334
 30
0.0
 11
-1610.56672795282
 21
701.47182801334
 31
0.0
  0
LINE
  5
1E7C
  8
NOTE
  6
CONTINUOUS
 62
     4
 10
-373.0
 20
216.9999999999999
 30
0.0
 11
-1031.500652537251
 21
529.4551964379624
 31
0.0
  0
LINE
  5
1E7D
  8
NOTE
  6
CONTINUOUS
 62
     4
 10
-1031.500652537251
 20
529.4551964379624
 30
0.0
 11
-1824.967511718599
 21
529.4551964379624
 31
0.0
  0
LINE
  5
1E7F
  8
DETAIL
  6
CONTINUOUS
 62
     5
 10
-987.9996452946978
 20
53.99999999999996
 30
0.0
 11
987.9996452946871
 21
53.99999999999996
 31
0.0
  0
LINE
  5
1E80
  8
DETAIL
  6
CONTINUOUS
 62
     5
 10
-985.7988649430227
 20
0.0
 30
0.0
 11
985.7988649430188
 21
0.0
 31
0.0
  0
LINE
  5
1E81
  8
DETAIL
  6
CONTINUOUS
 62
     5
 10
988.9999999999999
 20
3.201135056979169
 30
0.0
 11
-989.0000000000002
 21
3.201135056979169
 31
0.0
  0
LINE
  5
1E82
  8
SIZE
  6
CONTINUOUS
 62
    30
 10
-1005.798864943022
 20
0.0
 30
0.0
 11
-1159.772455740975
 21
0.0000000000000284
 31
0.0
  0
LINE
  5
1E83
  8
SIZE
  6
CONTINUOUS
 62
    30
 10
-506.2972188428245
 20
216.9999999999999
 30
0.0
 11
-1159.772455740975
 21
217.0000000000003
 31
0.0
  0
LINE
  5
1E84
  8
SIZE
  6
CONTINUOUS
 62
    30
 10
-1144.772455740975
 20
10.00000000000005
 30
0.0
 11
-1144.772455740975
 21
207.0000000000002
 31
0.0
  0
CIRCLE
  5
1E85
  8
SIZE
  6
CONTINUOUS
 62
    30
 10
-1144.772455740975
 20
0.0000000000000284
 30
0.0
 40
5.0
  0
LINE
  5
1E86
  8
SIZE
  6
CONTINUOUS
 62
    30
 10
-1144.772455740975
 20
5.000000000000021
 30
0.0
 11
-1144.772455740975
 21
10.00000000000002
 31
0.0
  0
CIRCLE
  5
1E87
  8
SIZE
  6
CONTINUOUS
 62
    30
 10
-1144.772455740975
 20
217.0000000000002
 30
0.0
 40
5.0
  0
LINE
  5
1E88
  8
SIZE
  6
CONTINUOUS
 62
    30
 10
-1144.772455740975
 20
212.0000000000002
 30
0.0
 11
-1144.772455740975
 21
207.0000000000002
 31
0.0
  0
TEXT
  5
1E89
  8
SIZE
  6
CONTINUOUS
 62
    30
 10
-1159.772455740975
 20
56.85978254837314
 30
0.0
 40
40.0
  1
217
 50
90.0
 41
0.9
 72
     1
 11
-1159.772455740975
 21
108.2883539769446
 31
0.0
  0
POINT
  5
1E8A
  8
DEFPOINTS
  6
CONTINUOUS
 62
     7
 10
-985.7988649430227
 20
0.0
 30
0.0
  0
POINT
  5
1E8B
  8
DEFPOINTS
  6
CONTINUOUS
 62
     7
 10
-486.2972188428246
 20
216.9999999999999
 30
0.0
  0
POINT
  5
1E8C
  8
DEFPOINTS
  6
CONTINUOUS
 62
     7
 10
-1144.772455740975
 20
217.0000000000002
 30
0.0
  0
LINE
  5
1E8D
  8
SIZE
  6
CONTINUOUS
 62
    30
 10
-989.0000000000002
 20
-16.79886494302084
 30
0.0
 11
-989.0000000000002
 21
-287.3153053570513
 31
0.0
  0
LINE
  5
1E8E
  8
SIZE
  6
CONTINUOUS
 62
    30
 10
-448.0
 20
158.7027811571679
 30
0.0
 11
-448.0
 21
-287.3153053570513
 31
0.0
  0
LINE
  5
1E8F
  8
SIZE
  6
CONTINUOUS
 62
    30
 10
-979.0
 20
-272.3153053570513
 30
0.0
 11
-457.9999999999998
 21
-272.3153053570513
 31
0.0
  0
CIRCLE
  5
1E90
  8
SIZE
  6
CONTINUOUS
 62
    30
 10
-989.0000000000002
 20
-272.3153053570513
 30
0.0
 40
5.0
  0
LINE
  5
1E91
  8
SIZE
  6
CONTINUOUS
 62
    30
 10
-984.0000000000001
 20
-272.3153053570513
 30
0.0
 11
-979.0
 21
-272.3153053570513
 31
0.0
  0
CIRCLE
  5
1E92
  8
SIZE
  6
CONTINUOUS
 62
    30
 10
-448.0
 20
-272.3153053570513
 30
0.0
 40
5.0
  0
LINE
  5
1E93
  8
SIZE
  6
CONTINUOUS
 62
    30
 10
-452.9999999999999
 20
-272.3153053570513
 30
0.0
 11
-457.9999999999998
 21
-272.3153053570513
 31
0.0
  0
TEXT
  5
1E94
  8
SIZE
  6
CONTINUOUS
 62
    30
 10
-800.785714285714
 20
-257.3153053570513
 30
0.0
 40
40.0
  1
（541）
 41
0.9
 72
     1
 11
-718.4999999999998
 21
-257.3153053570513
 31
0.0
  0
POINT
  5
1E95
  8
DEFPOINTS
  6
CONTINUOUS
 62
     7
 10
-989.0000000000002
 20
3.201135056979169
 30
0.0
  0
POINT
  5
1E96
  8
DEFPOINTS
  6
CONTINUOUS
 62
     7
 10
-448.0
 20
178.702781157168
 30
0.0
  0
POINT
  5
1E97
  8
DEFPOINTS
  6
CONTINUOUS
 62
     7
 10
-448.0
 20
-272.3153053570513
 30
0.0
  0
LINE
  5
1E98
  8
DETAIL
  6
CONTINUOUS
 62
     5
 10
-145.5009124866701
 20
754.2674478001235
 30
0.0
 11
-918.6750642170553
 21
754.2674478001235
 31
0.0
  0
LINE
  5
1E99
  8
DETAIL
  6
CONTINUOUS
 62
     5
 10
-846.8495963761304
 20
732.4049958220894
 30
0.0
 11
-214.6254226232558
 21
732.4049958220894
 31
0.0
  0
LINE
  5
1E9A
  8
DETAIL
  6
CONTINUOUS
 62
     5
 10
-918.6250464817786
 20
732.2596442834099
 30
0.0
 11
-145.5509302219361
 21
732.2596442834099
 31
0.0
  0
LINE
  5
1E9B
  8
DETAIL
  6
CONTINUOUS
 62
     5
 10
-919.4753479812932
 20
731.259289578096
 30
0.0
 11
-919.4753479812932
 21
83.52961789298658
 31
0.0
  0
ARC
  5
1E9C
  8
DETAIL
  6
CONTINUOUS
 62
     5
 10
-895.9670124066142
 20
15.90563981435661
 30
0.0
 40
6.002128231831147
 50
270.0
 51
0.0
  0
ARC
  5
1E9D
  8
DETAIL
  6
CONTINUOUS
 62
     5
 10
-895.9670124066142
 20
38.51365615425856
 30
0.0
 40
6.002128231831147
 50
0.0
 51
90.0
  0
LINE
  5
1E9E
  8
DETAIL
  6
CONTINUOUS
 62
     5
 10
-989.0000000000002
 20
50.31784167686056
 30
0.0
 11
-989.0000000000002
 21
3.201135056979169
 31
0.0
  0
LINE
  5
1E9F
  8
DETAIL
  6
CONTINUOUS
 62
     5
 10
-969.9932605992033
 20
15.90563981435661
 30
0.0
 11
-969.9932605992033
 21
38.51365615425856
 31
0.0
  0
ARC
  5
1EA0
  8
DETAIL
  6
CONTINUOUS
 62
     5
 10
-963.9911323673691
 20
15.90563981435661
 30
0.0
 40
6.002128231831147
 50
180.0
 51
270.0
  0
LINE
  5
1EA1
  8
DETAIL
  6
CONTINUOUS
 62
     5
 10
-895.9670124066142
 20
9.903511582524509
 30
0.0
 11
-963.9911323673691
 21
9.903511582524509
 31
0.0
  0
LINE
  5
1EA2
  8
DETAIL
  6
CONTINUOUS
 62
     5
 10
-985.7988649430227
 20
3.201135056979169
 30
0.0
 11
-985.7988649430227
 21
0.0
 31
0.0
  0
LINE
  5
1EA3
  8
DETAIL
  6
CONTINUOUS
 62
     5
 10
-989.0000000000002
 20
50.31784167686056
 30
0.0
 11
-985.7988649430227
 21
50.31784167686056
 31
0.0
  0
LINE
  5
1EA4
  8
DETAIL
  6
CONTINUOUS
 62
     5
 10
-985.7988649430227
 20
53.99999999999996
 30
0.0
 11
-985.7988649430227
 21
50.31784167686056
 31
0.0
  0
ARC
  5
1EA5
  8
DETAIL
  6
CONTINUOUS
 62
     5
 10
-963.9911323673691
 20
38.51365615425856
 30
0.0
 40
6.002128231831147
 50
90.0
 51
180.0
  0
LINE
  5
1EA6
  8
DETAIL
  6
CONTINUOUS
 62
     5
 10
-963.9911323673691
 20
44.51578438609067
 30
0.0
 11
-895.9670124066142
 21
44.51578438609067
 31
0.0
  0
ARC
  5
1EA7
  8
DETAIL
  6
CONTINUOUS
 62
     5
 10
-925.1773698015348
 20
61.52181437627316
 30
0.0
 40
3.001064115915572
 50
270.0
 51
0.0
  0
LINE
  5
1EA8
  8
DETAIL
  6
CONTINUOUS
 62
     5
 10
-919.4753479812932
 20
83.52961789298658
 30
0.0
 11
-922.1763056856216
 21
83.52961789298658
 31
0.0
  0
LINE
  5
1EA9
  8
DETAIL
  6
CONTINUOUS
 62
     5
 10
-925.1773698015348
 20
58.52075026035705
 30
0.0
 11
-989.0000000000002
 21
58.52075026035705
 31
0.0
  0
LINE
  5
1EAA
  8
DETAIL
  6
CONTINUOUS
 62
     5
 10
-922.1763056856216
 20
61.52181437627316
 30
0.0
 11
-922.1763056856216
 21
83.52961789298658
 31
0.0
  0
LINE
  5
1EAB
  8
DETAIL
  6
CONTINUOUS
 62
     5
 10
-987.999645294699
 20
53.99999999999996
 30
0.0
 11
-987.9996452946978
 21
58.52075026035705
 31
0.0
  0
LINE
  5
1EAC
  8
DETAIL
  6
CONTINUOUS
 62
     5
 10
-889.9648841747949
 20
38.51365615425856
 30
0.0
 11
-889.9648841747949
 21
15.90563981435661
 31
0.0
  0
LINE
  5
1EAD
  8
NOTE
  6
CONTINUOUS
 62
     4
 10
-1092.600204916779
 20
830.9636855735121
 30
0.0
 11
-1133.300722201529
 21
830.9636855735121
 31
0.0
  0
LINE
  5
1EAE
  8
NOTE
  6
CONTINUOUS
 62
     4
 10
-1092.600204916779
 20
880.9814208387713
 30
0.0
 11
-1133.300722201529
 21
880.9814208387713
 31
0.0
  0
LINE
  5
1EAF
  8
NOTE
  6
CONTINUOUS
 62
     4
 10
-1133.300722201529
 20
830.9636855735121
 30
0.0
 11
-1133.300722201529
 21
880.9814208387713
 31
0.0
  0
LINE
  5
1EB0
  8
DETAIL
  6
CONTINUOUS
 62
     5
 10
-851.7105485417189
 20
736.2610631046272
 30
0.0
 11
-913.6732906905233
 21
736.2610631046272
 31
0.0
  0
LINE
  5
1EB1
  8
DETAIL
  6
CONTINUOUS
 62
     5
 10
-851.8513699026626
 20
750.2660289788938
 30
0.0
 11
-913.6232729552611
 21
750.2660289788938
 31
0.0
  0
LINE
  5
1EB2
  8
NOTE
  6
CONTINUOUS
 62
     4
 10
-1092.600204916779
 20
830.9636855735121
 30
0.0
 11
-1092.600204916779
 21
805.9548179408831
 31
0.0
  0
LINE
  5
1EB3
  8
NOTE
  6
CONTINUOUS
 62
     4
 10
-1042.686449377754
 20
855.9725532061418
 30
0.0
 11
-1092.600204916779
 21
805.9548179408831
 31
0.0
  0
LINE
  5
1EB4
  8
DETAIL
  6
CONTINUOUS
 62
     5
 10
-913.6732906905233
 20
736.2610631046272
 30
0.0
 11
-918.6750642170553
 21
741.2628366311579
 31
0.0
  0
ARC
  5
1EBC
  8
DETAIL
  6
CONTINUOUS
 62
     5
 10
-913.6232729552611
 20
745.2642554523753
 30
0.0
 40
5.001773526525957
 50
90.0
 51
180.0
  0
LINE
  5
1EBD
  8
DETAIL
  6
CONTINUOUS
 62
     5
 10
-919.4753479812932
 20
755.0677315643615
 30
0.0
 11
-918.6750642170553
 21
755.0677315643615
 31
0.0
  0
LINE
  5
1EBE
  8
DETAIL
  6
CONTINUOUS
 62
     5
 10
-918.6250464817786
 20
731.259289578096
 30
0.0
 11
-919.4753479812932
 21
731.259289578096
 31
0.0
  0
LINE
  5
1EBF
  8
DETAIL
  6
CONTINUOUS
 62
     5
 10
-918.6250464817786
 20
731.259289578096
 30
0.0
 11
-918.6750642170553
 21
755.0677315643615
 31
0.0
  0
LINE
  5
1EC2
  8
NOTE
  6
CONTINUOUS
 62
     4
 10
-1092.600204916779
 20
905.9902884714022
 30
0.0
 11
-1042.686449377754
 21
855.9725532061418
 31
0.0
  0
LINE
  5
1EC3
  8
NOTE
  6
CONTINUOUS
 62
     4
 10
-1092.600204916779
 20
905.9902884714022
 30
0.0
 11
-1092.600204916779
 21
880.9814208387713
 31
0.0
  0
ARC
  5
1EC4
  8
DETAIL
  6
CONTINUOUS
 62
     5
 10
-846.8495963761304
 20
737.4067693486077
 30
0.0
 40
5.001773526525957
 50
180.0
 51
270.0
  0
LINE
  5
1EC5
  8
DETAIL
  6
CONTINUOUS
 62
     5
 10
-851.8513699026626
 20
754.2674478001235
 30
0.0
 11
-851.8513699026626
 21
737.4067693486077
 31
0.0
  0
LINE
  5
1EC6
  8
DETAIL
  6
CONTINUOUS
 62
     5
 10
-144.7006287224212
 20
78.52784436646837
 30
0.0
 11
-144.7006287224212
 21
731.259289578096
 31
0.0
  0
LINE
  5
1EC7
  8
DETAIL
  6
CONTINUOUS
 62
     5
 10
143.2000966644555
 20
1327.970871292644
 30
0.0
 11
143.2000966644555
 21
78.52784436646837
 31
0.0
  0
LINE
  5
1EC8
  8
DETAIL
  6
CONTINUOUS
 62
     5
 10
144.7006287224175
 20
731.259289578096
 30
0.0
 11
144.7006287224175
 21
55.01950879179096
 31
0.0
  0
LINE
  5
1EC9
  8
DETAIL
  6
CONTINUOUS
 62
     5
 10
919.4753479812787
 20
78.52784436646837
 30
0.0
 11
919.4753479812787
 21
731.259289578096
 31
0.0
  0
LINE
  5
1ECA
  8
DETAIL
  6
CONTINUOUS
 62
     5
 10
-144.7006287224212
 20
78.52784436646837
 30
0.0
 11
-144.7006287224212
 21
731.259289578096
 31
0.0
  0
LINE
  5
1ECB
  8
SIZE
  6
CONTINUOUS
 62
    30
 10
-0.0000000000000012
 20
67.37383811766355
 30
0.0
 11
-0.000000000000018
 21
-207.3153053570513
 31
0.0
  0
LINE
  5
1ECC
  8
SIZE
  6
CONTINUOUS
 62
    30
 10
988.9999999999999
 20
-16.79886494302084
 30
0.0
 11
988.9999999999999
 21
-207.3153053570513
 31
0.0
  0
LINE
  5
1ECD
  8
SIZE
  6
CONTINUOUS
 62
    30
 10
9.999999999999982
 20
-192.3153053570513
 30
0.0
 11
979.0000000000001
 21
-192.3153053570513
 31
0.0
  0
CIRCLE
  5
1ECE
  8
SIZE
  6
CONTINUOUS
 62
    30
 10
-0.0000000000000171
 20
-192.3153053570513
 30
0.0
 40
5.0
  0
LINE
  5
1ECF
  8
SIZE
  6
CONTINUOUS
 62
    30
 10
4.999999999999983
 20
-192.3153053570513
 30
0.0
 11
9.999999999999982
 21
-192.3153053570513
 31
0.0
  0
CIRCLE
  5
1ED0
  8
SIZE
  6
CONTINUOUS
 62
    30
 10
988.9999999999999
 20
-192.3153053570513
 30
0.0
 40
5.0
  0
LINE
  5
1ED1
  8
SIZE
  6
CONTINUOUS
 62
    30
 10
983.9999999999998
 20
-192.3153053570513
 30
0.0
 11
978.9999999999999
 21
-192.3153053570513
 31
0.0
  0
TEXT
  5
1ED2
  8
SIZE
  6
CONTINUOUS
 62
    30
 10
444.0639590137714
 20
-177.3153053570513
 30
0.0
 40
40.0
  1
989
 41
0.9
 72
     1
 11
494.6353875852
 21
-177.3153053570513
 31
0.0
  0
POINT
  5
1ED3
  8
DEFPOINTS
  6
CONTINUOUS
 62
     7
 10
0.0
 20
87.37383811766355
 30
0.0
  0
POINT
  5
1ED4
  8
DEFPOINTS
  6
CONTINUOUS
 62
     7
 10
988.9999999999999
 20
3.201135056979169
 30
0.0
  0
POINT
  5
1ED5
  8
DEFPOINTS
  6
CONTINUOUS
 62
     7
 10
988.9999999999999
 20
-192.3153053570513
 30
0.0
  0
LINE
  5
1ED6
  8
SIZE
  6
CONTINUOUS
 62
    30
 10
-315.0
 20
158.7027811571679
 30
0.0
 11
-315.0
 21
-287.3153053570513
 31
0.0
  0
LINE
  5
1ED7
  8
SIZE
  6
CONTINUOUS
 62
    30
 10
988.9999999999999
 20
-16.79886494302084
 30
0.0
 11
988.9999999999999
 21
-287.3153053570513
 31
0.0
  0
LINE
  5
1ED8
  8
SIZE
  6
CONTINUOUS
 62
    30
 10
-305.0
 20
-272.3153053570513
 30
0.0
 11
979.0000000000001
 21
-272.3153053570513
 31
0.0
  0
CIRCLE
  5
1ED9
  8
SIZE
  6
CONTINUOUS
 62
    30
 10
-315.0
 20
-272.3153053570513
 30
0.0
 40
5.0
  0
LINE
  5
1EDA
  8
SIZE
  6
CONTINUOUS
 62
    30
 10
-310.0
 20
-272.3153053570513
 30
0.0
 11
-305.0
 21
-272.3153053570513
 31
0.0
  0
CIRCLE
  5
1EDB
  8
SIZE
  6
CONTINUOUS
 62
    30
 10
988.9999999999999
 20
-272.3153053570513
 30
0.0
 40
5.0
  0
LINE
  5
1EDC
  8
SIZE
  6
CONTINUOUS
 62
    30
 10
983.9999999999998
 20
-272.3153053570513
 30
0.0
 11
978.9999999999999
 21
-272.3153053570513
 31
0.0
  0
TEXT
  5
1EDD
  8
SIZE
  6
CONTINUOUS
 62
    30
 10
264.9999999999999
 20
-257.3153053570513
 30
0.0
 40
40.0
  1
1304
 41
0.9
 72
     1
 11
336.9999999999999
 21
-257.3153053570513
 31
0.0
  0
POINT
  5
1EDE
  8
DEFPOINTS
  6
CONTINUOUS
 62
     7
 10
-315.0
 20
178.702781157168
 30
0.0
  0
POINT
  5
1EDF
  8
DEFPOINTS
  6
CONTINUOUS
 62
     7
 10
988.9999999999999
 20
3.201135056979169
 30
0.0
  0
POINT
  5
1EE0
  8
DEFPOINTS
  6
CONTINUOUS
 62
     7
 10
988.9999999999999
 20
-272.3153053570513
 30
0.0
  0
LINE
  5
1EE1
  8
NOTE
  6
CONTINUOUS
 62
     4
 10
0.0
 20
155.0
 30
0.0
 11
306.6981411763372
 21
-620.3020172526121
 31
0.0
  0
LINE
  5
1EE2
  8
NOTE
  6
CONTINUOUS
 62
     4
 10
306.6981411763372
 20
-620.3020172526121
 30
0.0
 11
936.798684903805
 21
-620.3020172526121
 31
0.0
  0
LINE
  5
1EE4
  8
DETAIL
  6
CONTINUOUS
 62
     5
 10
-280.9879400196223
 20
53.99999999999996
 30
0.0
 11
-280.9879400196223
 21
240.5853066258987
 31
0.0
  0
LINE
  5
1EE5
  8
DETAIL
  6
CONTINUOUS
 62
     5
 10
-427.2397979352316
 20
156.0553340276111
 30
0.0
 11
-427.2397979352354
 21
99.03511582521787
 31
0.0
  0
LINE
  5
1EE6
  8
DETAIL
  6
CONTINUOUS
 62
     5
 10
-493.0631375443226
 20
240.5853066258987
 30
0.0
 11
-493.0631375443226
 21
53.99999999999996
 31
0.0
  0
LINE
  5
1EE7
  8
DETAIL
  6
CONTINUOUS
 62
     5
 10
-454.549481390066
 20
76.02695760320327
 30
0.0
 11
-319.5015961738681
 21
76.02695760320327
 31
0.0
  0
LINE
  5
1EE8
  8
DETAIL
  6
CONTINUOUS
 62
     5
 10
-319.5015961738681
 20
61.02163702362306
 30
0.0
 11
-454.549481390066
 21
61.02163702362306
 31
0.0
  0
LINE
  5
1EE9
  8
DETAIL
  6
CONTINUOUS
 62
     5
 10
-486.8609383714279
 20
54.01915408648886
 30
0.0
 11
-287.190139192513
 21
54.01915408648886
 31
0.0
  0
ARC
  5
1EEA
  8
DETAIL
  6
CONTINUOUS
 62
     5
 10
-454.549481390066
 20
68.52429731340638
 30
0.0
 40
7.502660289788934
 50
90.0
 51
270.0
  0
ARC
  5
1EED
  8
DETAIL
  6
CONTINUOUS
 62
     5
 10
-319.5015961738681
 20
68.52429731340638
 30
0.0
 40
7.502660289788934
 50
270.0
 51
90.0
  0
LINE
  5
1EEE
  8
DETAIL
  6
CONTINUOUS
 62
     5
 10
-417.2362508821823
 20
89.03156877216855
 30
0.0
 11
-297.1936862455622
 21
89.03156877216585
 31
0.0
  0
ARC
  5
1EEF
  8
DETAIL
  6
CONTINUOUS
 62
     5
 10
-417.2362508821823
 20
99.03511582521787
 30
0.0
 40
10.00354705305191
 50
180.0
 51
270.0
  0
LINE
  5
1EF0
  8
DETAIL
  6
CONTINUOUS
 62
     5
 10
-417.2362508821823
 20
89.03156877216855
 30
0.0
 11
-418.2366055874954
 21
89.03156877216855
 31
0.0
  0
ARC
  5
1EF1
  8
DETAIL
  6
CONTINUOUS
 62
     5
 10
-297.1936862455622
 20
99.03511582521787
 30
0.0
 40
10.00354705305191
 50
270.0
 51
0.0
  0
LINE
  5
1EF4
  8
DETAIL
  6
CONTINUOUS
 62
     5
 10
-287.190139192513
 20
99.03511582521787
 30
0.0
 11
-287.1901391925094
 21
156.0553340276111
 31
0.0
  0
LINE
  5
1EF5
  8
DETAIL
  6
CONTINUOUS
 62
     5
 10
-300.9950341257208
 20
260.59240073201
 30
0.0
 11
-473.0560434382131
 21
260.59240073201
 31
0.0
  0
ARC
  5
1EF6
  8
DETAIL
  6
CONTINUOUS
 62
     5
 10
-473.0560434382131
 20
240.5853066258987
 30
0.0
 40
20.00709410610383
 50
90.0
 51
180.0
  0
LINE
  5
1EF7
  8
DETAIL
  6
CONTINUOUS
 62
     5
 10
-297.1936862455622
 20
166.0588810806731
 30
0.0
 11
-417.2362508821823
 21
166.0588810806631
 31
0.0
  0
LINE
  5
1EF8
  8
DETAIL
  6
CONTINUOUS
 62
     5
 10
-418.2366055874954
 20
166.0588810806731
 30
0.0
 11
-417.2362508821823
 21
166.0588810806731
 31
0.0
  0
ARC
  5
1EF9
  8
DETAIL
  6
CONTINUOUS
 62
     5
 10
-417.2362508821823
 20
156.0553340276111
 30
0.0
 40
10.00354705305191
 50
90.0
 51
180.0
  0
ARC
  5
1EFA
  8
DETAIL
  6
CONTINUOUS
 62
     5
 10
-297.1936862455622
 20
156.0553340276111
 30
0.0
 40
10.00354705305191
 50
0.0
 51
90.0
  0
ARC
  5
1EFB
  8
DETAIL
  6
CONTINUOUS
 62
     5
 10
-300.9950341257208
 20
240.5853066258987
 30
0.0
 40
20.00709410610383
 50
0.0
 51
90.0
  0
ARC
  5
1F00
  8
DETAIL
  6
CONTINUOUS
 62
     5
 10
0.2200780351595313
 20
154.7999290589378
 30
0.0
 40
45.01596173873362
 50
180.0
 51
0.0
  0
CIRCLE
  5
1F01
  8
DETAIL
  6
CONTINUOUS
 62
     5
 10
0.0
 20
155.0
 30
0.0
 40
25.00886763262979
  0
LINE
  5
1F03
  8
DETAIL
  6
CONTINUOUS
 62
     5
 10
-138.9986069021906
 20
58.52075026035705
 30
0.0
 11
-76.17633140901307
 21
58.52075026035705
 31
0.0
  0
ARC
  5
1F04
  8
DETAIL
  6
CONTINUOUS
 62
     5
 10
-138.9986069021906
 20
61.52181437627316
 30
0.0
 40
3.001064115915572
 50
180.0
 51
270.0
  0
LINE
  5
1F05
  8
DETAIL
  6
CONTINUOUS
 62
     5
 10
-141.999671018104
 20
61.52181437627316
 30
0.0
 11
-141.999671018104
 21
83.52961789298658
 31
0.0
  0
LINE
  5
1F06
  8
DETAIL
  6
CONTINUOUS
 62
     5
 10
-141.999671018104
 20
83.52961789298658
 30
0.0
 11
-143.20009666447
 21
83.52961789298658
 31
0.0
  0
LINE
  5
1F07
  8
DETAIL
  6
CONTINUOUS
 62
     5
 10
-141.999671018104
 20
78.52784436646837
 30
0.0
 11
-144.7006287224212
 21
78.52784436646837
 31
0.0
  0
LINE
  5
1F13
  8
DETAIL
  6
CONTINUOUS
 62
     5
 10
-76.17633140901307
 20
53.99999999999996
 30
0.0
 11
-76.17633140901307
 21
58.52075026035705
 31
0.0
  0
LINE
  5
1F14
  8
DETAIL
  6
CONTINUOUS
 62
     5
 10
144.7006287224175
 20
78.52784436646837
 30
0.0
 11
141.9996710180894
 21
78.52784436646837
 31
0.0
  0
ARC
  5
1F17
  8
DETAIL
  6
CONTINUOUS
 62
     5
 10
138.9986069021724
 20
61.52181437627316
 30
0.0
 40
3.001064115915572
 50
270.0
 51
0.0
  0
LINE
  5
1F18
  8
DETAIL
  6
CONTINUOUS
 62
     5
 10
141.9996710180894
 20
61.52181437627316
 30
0.0
 11
141.9996710180894
 21
83.52961789298658
 31
0.0
  0
LINE
  5
1F19
  8
DETAIL
  6
CONTINUOUS
 62
     5
 10
76.17633140901307
 20
53.99999999999996
 30
0.0
 11
76.17633140901307
 21
58.52075026035705
 31
0.0
  0
LINE
  5
1F1A
  8
DETAIL
  6
CONTINUOUS
 62
     5
 10
143.2000966644555
 20
83.52961789298658
 30
0.0
 11
141.9996710180894
 21
83.52961789298658
 31
0.0
  0
LINE
  5
1F1B
  8
DETAIL
  6
CONTINUOUS
 62
     5
 10
76.17633140901307
 20
58.52075026035705
 30
0.0
 11
138.9986069021724
 21
58.52075026035705
 31
0.0
  0
LINE
  5
1F1C
  8
DETAIL
  6
CONTINUOUS
 62
     5
 10
152.7034663648555
 20
53.99999999999996
 30
0.0
 11
152.7034663648555
 21
55.01950879179096
 31
0.0
  0
LINE
  5
1F1D
  8
DETAIL
  6
CONTINUOUS
 62
     5
 10
144.7006287224175
 20
55.01950879179096
 30
0.0
 11
152.7034663648555
 21
55.01950879179096
 31
0.0
  0
LINE
  5
1F1F
  8
DETAIL
  6
CONTINUOUS
 62
     5
 10
-44.7958837035694
 20
201.3164228556307
 30
0.0
 11
45.23603977390302
 21
201.3164228556307
 31
0.0
  0
LINE
  5
1F20
  8
DETAIL
  6
CONTINUOUS
 62
     5
 10
-44.7958837035694
 20
199.8158907976659
 30
0.0
 11
-143.20009666447
 21
199.8158907976659
 31
0.0
  0
LINE
  5
1F21
  8
DETAIL
  6
CONTINUOUS
 62
     5
 10
-138.6985004905873
 20
219.8229849037771
 30
0.0
 11
-44.7958837035694
 21
219.8229849037771
 31
0.0
  0
LINE
  5
1F22
  8
DETAIL
  6
CONTINUOUS
 62
     5
 10
-138.6985004905873
 20
219.8229849037771
 30
0.0
 11
-141.6995646065042
 21
216.821920787862
 31
0.0
  0
LINE
  5
1F23
  8
DETAIL
  6
CONTINUOUS
 62
     5
 10
-141.6995646065042
 20
199.8158907976659
 30
0.0
 11
-141.6995646065042
 21
216.821920787862
 31
0.0
  0
LINE
  5
1F2E
  8
DETAIL
  6
CONTINUOUS
 62
     5
 10
-44.7958837035694
 20
154.7999290589378
 30
0.0
 11
-44.7958837035694
 21
219.8229849037771
 31
0.0
  0
LINE
  5
1F45
  8
DETAIL
  6
CONTINUOUS
 62
     5
 10
143.2000966644555
 20
199.8158907976659
 30
0.0
 11
45.23603977390302
 21
199.8158907976659
 31
0.0
  0
LINE
  5
1F46
  8
DETAIL
  6
CONTINUOUS
 62
     5
 10
45.23603977390302
 20
154.7999290589378
 30
0.0
 11
45.23603977390302
 21
219.8229849037771
 31
0.0
  0
LINE
  5
1F47
  8
DETAIL
  6
CONTINUOUS
 62
     5
 10
45.23603977390302
 20
219.8229849037771
 30
0.0
 11
139.6988551958893
 21
219.8229849037771
 31
0.0
  0
LINE
  5
1F48
  8
DETAIL
  6
CONTINUOUS
 62
     5
 10
143.2000966644555
 20
216.3217434352136
 30
0.0
 11
139.6988551958893
 21
219.8229849037771
 31
0.0
  0
LINE
  5
1F49
  8
DETAIL
  6
CONTINUOUS
 62
     5
 10
895.9670124066143
 20
44.51578438609067
 30
0.0
 11
963.9911323673695
 21
44.51578438609067
 31
0.0
  0
LINE
  5
1F4A
  8
DETAIL
  6
CONTINUOUS
 62
     5
 10
963.9911323673695
 20
9.903511582524509
 30
0.0
 11
895.9670124066143
 21
9.903511582524509
 31
0.0
  0
LINE
  5
1F4B
  8
DETAIL
  6
CONTINUOUS
 62
     5
 10
925.177369801524
 20
58.52075026035705
 30
0.0
 11
988.9999999999999
 21
58.52075026035705
 31
0.0
  0
LINE
  5
1F4C
  8
DETAIL
  6
CONTINUOUS
 62
     5
 10
889.9648841747803
 20
15.90563981435661
 30
0.0
 11
889.9648841747803
 21
38.51365615425856
 31
0.0
  0
ARC
  5
1F4D
  8
DETAIL
  6
CONTINUOUS
 62
     5
 10
895.9670124066143
 20
15.90563981435661
 30
0.0
 40
6.002128231831147
 50
180.0
 51
270.0
  0
ARC
  5
1F4E
  8
DETAIL
  6
CONTINUOUS
 62
     5
 10
895.9670124066143
 20
38.51365615425856
 30
0.0
 40
6.002128231831147
 50
90.0
 51
180.0
  0
ARC
  5
1F4F
  8
DETAIL
  6
CONTINUOUS
 62
     5
 10
925.177369801524
 20
61.52181437627316
 30
0.0
 40
3.001064115915572
 50
180.0
 51
270.0
  0
LINE
  5
1F50
  8
DETAIL
  6
CONTINUOUS
 62
     5
 10
922.1763056856073
 20
61.52181437627316
 30
0.0
 11
922.1763056856073
 21
83.52961789298658
 31
0.0
  0
LINE
  5
1F51
  8
DETAIL
  6
CONTINUOUS
 62
     5
 10
922.1763056856073
 20
83.52961789298658
 30
0.0
 11
920.9758800392444
 21
83.52961789298658
 31
0.0
  0
LINE
  5
1F52
  8
DETAIL
  6
CONTINUOUS
 62
     5
 10
922.1763056856073
 20
78.52784436646837
 30
0.0
 11
919.4753479812787
 21
78.52784436646837
 31
0.0
  0
LINE
  5
1F53
  8
DETAIL
  6
CONTINUOUS
 62
     5
 10
969.9932605991995
 20
38.51365615425856
 30
0.0
 11
969.9932605991995
 21
15.90563981435661
 31
0.0
  0
LINE
  5
1F54
  8
DETAIL
  6
CONTINUOUS
 62
     5
 10
988.9999999999999
 20
50.31784167686056
 30
0.0
 11
988.9999999999999
 21
3.201135056979169
 31
0.0
  0
ARC
  5
1F55
  8
DETAIL
  6
CONTINUOUS
 62
     5
 10
963.9911323673695
 20
15.90563981435661
 30
0.0
 40
6.002128231831147
 50
270.0
 51
0.0
  0
LINE
  5
1F56
  8
DETAIL
  6
CONTINUOUS
 62
     5
 10
985.7988649430188
 20
3.201135056979169
 30
0.0
 11
985.7988649430188
 21
0.0
 31
0.0
  0
ARC
  5
1F57
  8
DETAIL
  6
CONTINUOUS
 62
     5
 10
963.9911323673695
 20
38.51365615425856
 30
0.0
 40
6.002128231831147
 50
0.0
 51
90.0
  0
LINE
  5
1F58
  8
DETAIL
  6
CONTINUOUS
 62
     5
 10
988.9999999999999
 20
50.31784167686056
 30
0.0
 11
985.7988649430188
 21
50.31784167686056
 31
0.0
  0
LINE
  5
1F59
  8
DETAIL
  6
CONTINUOUS
 62
     5
 10
985.7988649430188
 20
53.99999999999996
 30
0.0
 11
985.7988649430188
 21
50.31784167686056
 31
0.0
  0
LINE
  5
1F5A
  8
DETAIL
  6
CONTINUOUS
 62
     5
 10
987.9996452946871
 20
53.99999999999996
 30
0.0
 11
987.9996452946871
 21
58.52075026035705
 31
0.0
  0
LINE
  5
1F5B
  8
DETAIL
  6
CONTINUOUS
 62
     5
 10
918.6750642170407
 20
754.2674478001235
 30
0.0
 11
145.5009124866591
 21
754.2674478001235
 31
0.0
  0
LINE
  5
1F5C
  8
DETAIL
  6
CONTINUOUS
 62
     5
 10
217.3263803275659
 20
732.4049958220894
 30
0.0
 11
849.550554080444
 21
732.4049958220894
 31
0.0
  0
LINE
  5
1F5D
  8
DETAIL
  6
CONTINUOUS
 62
     5
 10
918.6250464817783
 20
732.2596442834099
 30
0.0
 11
145.5509302219179
 21
732.2596442834099
 31
0.0
  0
LINE
  5
1F5E
  8
DETAIL
  6
CONTINUOUS
 62
     5
 10
143.2000966644555
 20
727.7580481095291
 30
0.0
 11
140.1990325485385
 21
730.7591122254452
 31
0.0
  0
LINE
  5
1F5F
  8
DETAIL
  6
CONTINUOUS
 62
     5
 10
-138.9986069021906
 20
730.7591122254452
 30
0.0
 11
-143.20009666447
 21
726.5576224631649
 31
0.0
  0
ARC
  5
1F60
  8
DETAIL
  6
CONTINUOUS
 62
     5
 10
-0.2800993174896575
 20
621.50017735265
 30
0.0
 40
45.01596173873362
 50
0.0
 51
180.0
  0
LINE
  5
1F63
  8
DETAIL
  6
CONTINUOUS
 62
     5
 10
44.7358624212502
 20
574.283435262244
 30
0.0
 11
-45.29606105622224
 21
574.283435262244
 31
0.0
  0
CIRCLE
  5
1F69
  8
DETAIL
  6
CONTINUOUS
 62
     5
 10
0.0
 20
621.0
 30
0.0
 40
25.00886763262979
  0
LINE
  5
1F6A
  8
DETAIL
  6
CONTINUOUS
 62
     5
 10
-45.29606105622224
 20
576.4842156139221
 30
0.0
 11
-143.20009666447
 21
576.4842156139221
 31
0.0
  0
LINE
  5
1F6B
  8
DETAIL
  6
CONTINUOUS
 62
     5
 10
-48.29712517213556
 20
556.4771215078099
 30
0.0
 11
-139.198677843251
 21
556.4771215078099
 31
0.0
  0
LINE
  5
1F6C
  8
DETAIL
  6
CONTINUOUS
 62
     5
 10
-143.20009666447
 20
560.4785403290433
 30
0.0
 11
-139.198677843251
 21
556.4771215078099
 31
0.0
  0
LINE
  5
1F73
  8
DETAIL
  6
CONTINUOUS
 62
     5
 10
-45.29606105622224
 20
559.4781856237265
 30
0.0
 11
-45.29606105622224
 21
621.50017735265
 31
0.0
  0
LINE
  5
1F88
  8
DETAIL
  6
CONTINUOUS
 62
     5
 10
-48.29712517213556
 20
556.4771215078099
 30
0.0
 11
-45.29606105622224
 21
559.4781856237265
 31
0.0
  0
LINE
  5
1F9A
  8
DETAIL
  6
CONTINUOUS
 62
     5
 10
143.2000966644555
 20
576.4842156139221
 30
0.0
 11
44.7358624212502
 21
576.4842156139221
 31
0.0
  0
LINE
  5
1F9C
  8
DETAIL
  6
CONTINUOUS
 62
     5
 10
44.7358624212502
 20
559.4781856237265
 30
0.0
 11
44.7358624212502
 21
621.50017735265
 31
0.0
  0
LINE
  5
1F9D
  8
DETAIL
  6
CONTINUOUS
 62
     5
 10
139.1986778432365
 20
556.4771215078099
 30
0.0
 11
47.73692653716715
 21
556.4771215078099
 31
0.0
  0
LINE
  5
1F9E
  8
DETAIL
  6
CONTINUOUS
 62
     5
 10
44.7358624212502
 20
559.4781856237265
 30
0.0
 11
47.73692653716715
 21
556.4771215078099
 31
0.0
  0
LINE
  5
1FA0
  8
DETAIL
  6
CONTINUOUS
 62
     5
 10
139.1986778432365
 20
556.4771215078099
 30
0.0
 11
143.2000966644555
 21
560.4785403290298
 31
0.0
  0
LINE
  5
1FA1
  8
DETAIL
  6
CONTINUOUS
 62
     5
 10
39.15771309509001
 20
643.1218582438959
 30
0.0
 11
39.01383350689867
 21
643.1218582438959
 31
0.0
  0
LINE
  5
1FA2
  8
DETAIL
  6
CONTINUOUS
 62
     5
 10
-150.5026860131911
 20
736.2610631046272
 30
0.0
 11
-209.7644704576778
 21
736.2610631046272
 31
0.0
  0
LINE
  5
1FA3
  8
DETAIL
  6
CONTINUOUS
 62
     5
 10
-150.5527037484644
 20
750.2660289788938
 30
0.0
 11
-209.6236490967348
 21
750.2660289788938
 31
0.0
  0
ARC
  5
1FA4
  8
DETAIL
  6
CONTINUOUS
 62
     5
 10
-214.6254226232558
 20
737.4067693486077
 30
0.0
 40
5.001773526525957
 50
270.0
 51
0.0
  0
LINE
  5
1FA5
  8
DETAIL
  6
CONTINUOUS
 62
     5
 10
-209.6236490967348
 20
754.2674478001235
 30
0.0
 11
-209.6236490967348
 21
737.4067693486077
 31
0.0
  0
LINE
  5
1FA6
  8
DETAIL
  6
CONTINUOUS
 62
     5
 10
-51.51827446860442
 20
800.7839415968166
 30
0.0
 11
-51.51827446860442
 21
950.8371473925948
 31
0.0
  0
LINE
  5
1FA7
  8
DETAIL
  6
CONTINUOUS
 62
     5
 10
-11.50408625639283
 20
950.8371473925948
 30
0.0
 11
-11.50408625639283
 21
800.7839415968166
 31
0.0
  0
LINE
  5
1FA8
  8
DETAIL
  6
CONTINUOUS
 62
     5
 10
16.50584549215091
 20
800.7839415968166
 30
0.0
 11
16.50584549215091
 21
950.8371473925948
 31
0.0
  0
LINE
  5
1FA9
  8
DETAIL
  6
CONTINUOUS
 62
     5
 10
56.52003370434796
 20
950.8371473925948
 30
0.0
 11
56.52003370434796
 21
800.7839415968166
 31
0.0
  0
LINE
  5
1FAA
  8
DETAIL
  6
CONTINUOUS
 62
     5
 10
74.17562199839813
 20
750.7662063315563
 30
0.0
 11
-74.17562199840903
 21
750.7662063315563
 31
0.0
  0
LINE
  5
1FAB
  8
DETAIL
  6
CONTINUOUS
 62
     5
 10
121.192293147742
 20
731.759466930759
 30
0.0
 11
-121.1922931477529
 21
731.759466930759
 31
0.0
  0
ARC
  5
1FAC
  8
DETAIL
  6
CONTINUOUS
 62
     5
 10
36.51293959824944
 20
800.7839415968166
 30
0.0
 40
20.00709410610383
 50
180.0
 51
0.0
  0
LINE
  5
1FAE
  8
DETAIL
  6
CONTINUOUS
 62
     5
 10
-145.5009124866701
 20
741.2628366311579
 30
0.0
 11
-150.5026860131911
 21
736.2610631046272
 31
0.0
  0
LINE
  5
1FB0
  8
DETAIL
  6
CONTINUOUS
 62
     5
 10
-121.1922931477529
 20
730.7591122254452
 30
0.0
 11
-138.9986069021906
 21
730.7591122254452
 31
0.0
  0
ARC
  5
1FB5
  8
DETAIL
  6
CONTINUOUS
 62
     5
 10
-150.5527037484644
 20
745.2642554523753
 30
0.0
 40
5.001773526525957
 50
0.0
 51
90.0
  0
LINE
  5
1FB6
  8
DETAIL
  6
CONTINUOUS
 62
     5
 10
-144.7006287224212
 20
755.0677315643615
 30
0.0
 11
-145.5009124866701
 21
755.0677315643615
 31
0.0
  0
LINE
  5
1FB7
  8
DETAIL
  6
CONTINUOUS
 62
     5
 10
-145.5509302219361
 20
731.259289578096
 30
0.0
 11
-144.7006287224212
 21
731.259289578096
 31
0.0
  0
LINE
  5
1FB8
  8
DETAIL
  6
CONTINUOUS
 62
     5
 10
-145.5509302219361
 20
731.259289578096
 30
0.0
 11
-145.5009124866701
 21
755.0677315643615
 31
0.0
  0
LINE
  5
1FBB
  8
DETAIL
  6
CONTINUOUS
 62
     5
 10
-74.17562199840903
 20
750.7662063315563
 30
0.0
 11
-77.176686114326
 21
747.7651422156404
 31
0.0
  0
LINE
  5
1FBC
  8
DETAIL
  6
CONTINUOUS
 62
     5
 10
-77.176686114326
 20
747.7651422156404
 30
0.0
 11
-77.176686114326
 21
731.759466930759
 31
0.0
  0
ARC
  5
1FBD
  8
DETAIL
  6
CONTINUOUS
 62
     5
 10
-31.51118036250591
 20
800.7839415968166
 30
0.0
 40
20.00709410610383
 50
180.0
 51
0.0
  0
LINE
  5
1FBE
  8
DETAIL
  6
CONTINUOUS
 62
     5
 10
140.1990325485385
 20
730.7591122254452
 30
0.0
 11
121.192293147742
 21
730.7591122254452
 31
0.0
  0
LINE
  5
1FBF
  8
DETAIL
  6
CONTINUOUS
 62
     5
 10
77.17668611431509
 20
732.1596088128716
 30
0.0
 11
77.17668611431509
 21
747.7651422156404
 31
0.0
  0
LINE
  5
1FC0
  8
DETAIL
  6
CONTINUOUS
 62
     5
 10
77.17668611431509
 20
747.7651422156404
 30
0.0
 11
74.17562199839813
 21
750.7662063315563
 31
0.0
  0
LINE
  5
1FC1
  8
DETAIL
  6
CONTINUOUS
 62
     5
 10
77.17668611431509
 20
732.1596088128716
 30
0.0
 11
77.17668611431418
 21
731.7594669307597
 31
0.0
  0
LINE
  5
1FC2
  8
DETAIL
  6
CONTINUOUS
 62
     5
 10
150.5026860131875
 20
736.2610631046272
 30
0.0
 11
145.5009124866591
 21
741.2628366311579
 31
0.0
  0
LINE
  5
1FC4
  8
DETAIL
  6
CONTINUOUS
 62
     5
 10
212.4654281619914
 20
736.2610631046272
 30
0.0
 11
150.5026860131875
 21
736.2610631046272
 31
0.0
  0
ARC
  5
1FCB
  8
DETAIL
  6
CONTINUOUS
 62
     5
 10
150.5527037484535
 20
745.2642554523753
 30
0.0
 40
5.001773526525957
 50
90.0
 51
180.0
  0
ARC
  5
1FCC
  8
DETAIL
  6
CONTINUOUS
 62
     5
 10
217.3263803275659
 20
737.4067693486077
 30
0.0
 40
5.001773526525957
 50
180.0
 51
270.0
  0
LINE
  5
1FCD
  8
DETAIL
  6
CONTINUOUS
 62
     5
 10
212.3246068010521
 20
754.2674478001235
 30
0.0
 11
212.3246068010521
 21
737.4067693486077
 31
0.0
  0
LINE
  5
1FCF
  8
DETAIL
  6
CONTINUOUS
 62
     5
 10
145.5509302219179
 20
731.259289578096
 30
0.0
 11
145.5009124866591
 21
755.0677315643615
 31
0.0
  0
LINE
  5
1FD1
  8
DETAIL
  6
CONTINUOUS
 62
     5
 10
144.7006287224175
 20
755.0677315643615
 30
0.0
 11
145.5009124866591
 21
755.0677315643615
 31
0.0
  0
LINE
  5
1FD2
  8
DETAIL
  6
CONTINUOUS
 62
     5
 10
212.3246068010521
 20
750.2660289788938
 30
0.0
 11
150.5527037484535
 21
750.2660289788938
 31
0.0
  0
LINE
  5
1FD3
  8
DETAIL
  6
CONTINUOUS
 62
     5
 10
145.5509302219179
 20
731.259289578096
 30
0.0
 11
144.7006287224175
 21
731.259289578096
 31
0.0
  0
ARC
  5
1FD4
  8
DETAIL
  6
CONTINUOUS
 62
     5
 10
36.51293959824944
 20
1050.872617923114
 30
0.0
 40
20.00709410610383
 50
180.0
 51
0.0
  0
ARC
  5
1FD5
  8
DETAIL
  6
CONTINUOUS
 62
     5
 10
36.51293959824944
 20
950.8371473925948
 30
0.0
 40
20.00709410610383
 50
0.0
 51
180.0
  0
ARC
  5
1FD6
  8
DETAIL
  6
CONTINUOUS
 62
     5
 10
-31.51118036250591
 20
950.8371473925948
 30
0.0
 40
20.00709410610383
 50
0.0
 51
180.0
  0
ARC
  5
1FD7
  8
DETAIL
  6
CONTINUOUS
 62
     5
 10
-31.51118036250591
 20
1050.872617923114
 30
0.0
 40
20.00709410610383
 50
180.0
 51
0.0
  0
LINE
  5
1FD9
  8
DETAIL
  6
CONTINUOUS
 62
     5
 10
918.6750642170407
 20
741.2628366311579
 30
0.0
 11
913.673290690509
 21
736.2610631046272
 31
0.0
  0
LINE
  5
1FDA
  8
DETAIL
  6
CONTINUOUS
 62
     5
 10
913.673290690509
 20
736.2610631046272
 30
0.0
 11
854.4115062460331
 21
736.2610631046272
 31
0.0
  0
ARC
  5
1FDD
  8
DETAIL
  6
CONTINUOUS
 62
     5
 10
913.6232729552468
 20
745.2642554523753
 30
0.0
 40
5.001773526525957
 50
0.0
 51
90.0
  0
ARC
  5
1FDE
  8
DETAIL
  6
CONTINUOUS
 62
     5
 10
849.550554080444
 20
737.4067693486077
 30
0.0
 40
5.001773526525957
 50
270.0
 51
0.0
  0
LINE
  5
1FE3
  8
DETAIL
  6
CONTINUOUS
 62
     5
 10
918.6250464817783
 20
731.259289578096
 30
0.0
 11
918.6750642170407
 21
755.0677315643615
 31
0.0
  0
LINE
  5
1FE4
  8
DETAIL
  6
CONTINUOUS
 62
     5
 10
854.5523276069763
 20
754.2674478001235
 30
0.0
 11
854.5523276069763
 21
737.4067693486077
 31
0.0
  0
LINE
  5
1FE5
  8
DETAIL
  6
CONTINUOUS
 62
     5
 10
919.4753479812787
 20
755.0677315643615
 30
0.0
 11
918.6750642170407
 21
755.0677315643615
 31
0.0
  0
LINE
  5
1FE6
  8
DETAIL
  6
CONTINUOUS
 62
     5
 10
913.6232729552468
 20
750.2660289788938
 30
0.0
 11
854.5523276069763
 21
750.2660289788938
 31
0.0
  0
LINE
  5
1FE7
  8
DETAIL
  6
CONTINUOUS
 62
     5
 10
918.6250464817783
 20
731.259289578096
 30
0.0
 11
919.4753479812787
 21
731.259289578096
 31
0.0
  0
LINE
  5
2498
  8
SIZE
  6
CONTINUOUS
 62
    30
 10
869.1872240592692
 20
1649.999962786841
 30
0.0
 11
1304.130243416689
 21
1649.999962786841
 31
0.0
  0
LINE
  5
2499
  8
SIZE
  6
CONTINUOUS
 62
    30
 10
1012.501241468566
 20
1409.999957127667
 30
0.0
 11
1304.130243416689
 21
1409.999957127667
 31
0.0
  0
LINE
  5
249A
  8
SIZE
  6
CONTINUOUS
 62
    30
 10
1289.130243416689
 20
1639.999962786842
 30
0.0
 11
1289.130243416689
 21
1419.999957127667
 31
0.0
  0
CIRCLE
  5
249B
  8
SIZE
  6
CONTINUOUS
 62
    30
 10
1289.130243416689
 20
1649.999962786841
 30
0.0
 40
5.0
  0
LINE
  5
249C
  8
SIZE
  6
CONTINUOUS
 62
    30
 10
1289.130243416689
 20
1644.999962786841
 30
0.0
 11
1289.130243416689
 21
1639.999962786841
 31
0.0
  0
CIRCLE
  5
249D
  8
SIZE
  6
CONTINUOUS
 62
    30
 10
1289.130243416689
 20
1409.999957127667
 30
0.0
 40
5.0
  0
LINE
  5
249E
  8
SIZE
  6
CONTINUOUS
 62
    30
 10
1289.130243416689
 20
1414.999957127667
 30
0.0
 11
1289.130243416689
 21
1419.999957127667
 31
0.0
  0
TEXT
  5
249F
  8
SIZE
  6
CONTINUOUS
 62
    30
 10
1274.130243416689
 20
1478.613964626506
 30
0.0
 40
40.0
  1
240
 50
90.0
 41
0.9
 72
     1
 11
1274.130243416689
 21
1530.042536055078
 31
0.0
  0
POINT
  5
24A1
  8
DEFPOINTS
  6
CONTINUOUS
 62
     7
 10
992.5012414685661
 20
1409.999957127667
 30
0.0
  0
POINT
  5
24A2
  8
DEFPOINTS
  6
CONTINUOUS
 62
     7
 10
1289.130243416689
 20
1409.999957127667
 30
0.0
  0
LINE
  5
24A8
  8
DETAIL
  6
CONTINUOUS
 62
     5
 10
-71.6747352351449
 20
1369.98576891547
 30
0.0
 11
-992.5012414685663
 21
1369.98576891547
 31
0.0
  0
LINE
  5
24A9
  8
DETAIL
  6
CONTINUOUS
 62
     5
 10
-71.6747352351449
 20
1409.999957127667
 30
0.0
 11
-992.5012414685663
 21
1409.999957127667
 31
0.0
  0
LINE
  5
24AA
  8
DETAIL
  6
CONTINUOUS
 62
     5
 10
-897.9896081389662
 20
1438.701562701032
 30
0.0
 11
-893.0966160412526
 21
1549.964486597148
 31
0.0
  0
LINE
  5
24AB
  8
NOTE
  6
CONTINUOUS
 62
     4
 10
-1092.600204916779
 20
1281.123302960848
 30
0.0
 11
-1133.300722201529
 21
1281.123302960848
 31
0.0
  0
LINE
  5
24AC
  8
NOTE
  6
CONTINUOUS
 62
     4
 10
-1092.600204916779
 20
1231.105567695589
 30
0.0
 11
-1133.300722201529
 21
1231.105567695589
 31
0.0
  0
LINE
  5
24AD
  8
NOTE
  6
CONTINUOUS
 62
     4
 10
-1133.300722201529
 20
1231.105567695589
 30
0.0
 11
-1133.300722201529
 21
1281.123302960848
 31
0.0
  0
LINE
  5
24AE
  8
DETAIL
  6
CONTINUOUS
 62
     5
 10
-918.4749932759916
 20
1369.285520621756
 30
0.0
 11
-918.4749932759916
 21
1317.467146886945
 31
0.0
  0
LINE
  5
24AF
  8
NOTE
  6
CONTINUOUS
 62
     4
 10
-1092.600204916779
 20
1231.105567695589
 30
0.0
 11
-1092.600204916779
 21
1206.096700062959
 31
0.0
  0
LINE
  5
24B0
  8
NOTE
  6
CONTINUOUS
 62
     4
 10
-1042.686449377754
 20
1256.114435328219
 30
0.0
 11
-1092.600204916779
 21
1206.096700062959
 31
0.0
  0
LINE
  5
24B1
  8
NOTE
  6
CONTINUOUS
 62
     4
 10
-1092.600204916779
 20
1306.132170593478
 30
0.0
 11
-1092.600204916779
 21
1281.123302960848
 31
0.0
  0
LINE
  5
24B2
  8
NOTE
  6
CONTINUOUS
 62
     4
 10
-1092.600204916779
 20
1306.132170593478
 30
0.0
 11
-1042.686449377754
 21
1256.114435328219
 31
0.0
  0
LINE
  5
24B3
  8
DETAIL
  6
CONTINUOUS
 62
     5
 10
-918.4749932759916
 20
1317.467146886945
 30
0.0
 11
-919.4753479812932
 21
1317.467146886945
 31
0.0
  0
LINE
  5
24B4
  8
DETAIL
  6
CONTINUOUS
 62
     5
 10
-904.7796443182662
 20
1420.964230548916
 30
0.0
 11
-906.2430489258687
 21
1419.31032982385
 31
0.0
  0
LINE
  5
24B5
  8
DETAIL
  6
CONTINUOUS
 62
     5
 10
-917.7747449822783
 20
1369.98576891547
 30
0.0
 11
-918.4749932759916
 21
1369.285520621756
 31
0.0
  0
LINE
  5
24B6
  8
DETAIL
  6
CONTINUOUS
 62
     5
 10
-918.4749932759916
 20
1327.970871292644
 30
0.0
 11
-922.1763056856216
 21
1327.970871292644
 31
0.0
  0
LINE
  5
24B7
  8
DETAIL
  6
CONTINUOUS
 62
     5
 10
-922.1763056856216
 20
1369.98576891547
 30
0.0
 11
-922.1763056856216
 21
1327.970871292644
 31
0.0
  0
LINE
  5
24B8
  8
DETAIL
  6
CONTINUOUS
 62
     5
 10
-925.7650996169315
 20
1410.081214511307
 30
0.0
 11
-927.9719249691763
 21
1409.999957127667
 31
0.0
  0
LINE
  5
24B9
  8
DETAIL
  6
CONTINUOUS
 62
     5
 10
-923.5701499041157
 20
1410.324529357206
 30
0.0
 11
-925.7650996169315
 21
1410.081214511307
 31
0.0
  0
LINE
  5
24BA
  8
DETAIL
  6
CONTINUOUS
 62
     5
 10
-921.3990372148536
 20
1410.728586913451
 30
0.0
 11
-923.5701499041157
 21
1410.324529357206
 31
0.0
  0
LINE
  5
24BB
  8
DETAIL
  6
CONTINUOUS
 62
     5
 10
-919.2635085715289
 20
1411.291214981284
 30
0.0
 11
-921.3990372148536
 21
1410.728586913451
 31
0.0
  0
LINE
  5
24BC
  8
DETAIL
  6
CONTINUOUS
 62
     5
 10
-917.1751395071652
 20
1412.00935533344
 30
0.0
 11
-919.2635085715289
 21
1411.291214981284
 31
0.0
  0
LINE
  5
24BD
  8
DETAIL
  6
CONTINUOUS
 62
     5
 10
-915.145234029943
 20
1412.879120877362
 30
0.0
 11
-917.1751395071652
 21
1412.00935533344
 31
0.0
  0
LINE
  5
24BE
  8
DETAIL
  6
CONTINUOUS
 62
     5
 10
-913.1847817508342
 20
1413.895809945916
 30
0.0
 11
-915.145234029943
 21
1412.879120877362
 31
0.0
  0
LINE
  5
24BF
  8
DETAIL
  6
CONTINUOUS
 62
     5
 10
-911.3044150112756
 20
1415.05390629747
 30
0.0
 11
-913.1847817508342
 21
1413.895809945916
 31
0.0
  0
LINE
  5
24C0
  8
DETAIL
  6
CONTINUOUS
 62
     5
 10
-909.5142945569086
 20
1416.347150569712
 30
0.0
 11
-911.3044150112756
 21
1415.05390629747
 31
0.0
  0
LINE
  5
24C1
  8
DETAIL
  6
CONTINUOUS
 62
     5
 10
-907.8241238283872
 20
1417.768511698128
 30
0.0
 11
-909.5142945569086
 21
1416.347150569712
 31
0.0
  0
LINE
  5
24C2
  8
DETAIL
  6
CONTINUOUS
 62
     5
 10
-906.2430489258687
 20
1419.31032982385
 30
0.0
 11
-907.8241238283872
 21
1417.768511698128
 31
0.0
  0
LINE
  5
24C3
  8
DETAIL
  6
CONTINUOUS
 62
     5
 10
-992.5012414685663
 20
1409.999957127667
 30
0.0
 11
-992.5012414685663
 21
1369.98576891547
 31
0.0
  0
LINE
  5
24C4
  8
DETAIL
  6
CONTINUOUS
 62
     5
 10
-903.4418128077367
 20
1422.721267844103
 30
0.0
 11
-904.7796443182662
 21
1420.964230548916
 31
0.0
  0
LINE
  5
24C5
  8
DETAIL
  6
CONTINUOUS
 62
     5
 10
-902.2368284020622
 20
1424.571909758131
 30
0.0
 11
-903.4418128077367
 21
1422.721267844103
 31
0.0
  0
LINE
  5
24C6
  8
DETAIL
  6
CONTINUOUS
 62
     5
 10
-901.1711934068433
 20
1426.506152743966
 30
0.0
 11
-902.2368284020622
 21
1424.571909758131
 31
0.0
  0
LINE
  5
24C7
  8
DETAIL
  6
CONTINUOUS
 62
     5
 10
-900.2506812978054
 20
1428.513521658756
 30
0.0
 11
-901.1711934068433
 21
1426.506152743966
 31
0.0
  0
LINE
  5
24C8
  8
DETAIL
  6
CONTINUOUS
 62
     5
 10
-899.4802795576824
 20
1430.583112636224
 30
0.0
 11
-900.2506812978054
 21
1428.513521658756
 31
0.0
  0
LINE
  5
24C9
  8
DETAIL
  6
CONTINUOUS
 62
     5
 10
-898.8641610946895
 20
1432.703735994433
 30
0.0
 11
-899.4802795576824
 21
1430.583112636224
 31
0.0
  0
LINE
  5
24CA
  8
DETAIL
  6
CONTINUOUS
 62
     5
 10
-898.4056699516867
 20
1434.863901945065
 30
0.0
 11
-898.8641610946895
 21
1432.703735994433
 31
0.0
  0
LINE
  5
24CB
  8
DETAIL
  6
CONTINUOUS
 62
     5
 10
-898.1072498523125
 20
1437.051892047294
 30
0.0
 11
-898.4056699516867
 21
1434.863901945065
 31
0.0
  0
LINE
  5
24CC
  8
DETAIL
  6
CONTINUOUS
 62
     5
 10
-897.9896081389662
 20
1438.701562701032
 30
0.0
 11
-898.1072498523125
 21
1437.051892047294
 31
0.0
  0
LINE
  5
24CD
  8
NOTE
  6
CONTINUOUS
 62
     4
 10
-819.7369333683744
 20
1756.385747280113
 30
0.0
 11
-769.7191981031137
 21
1806.29948852837
 31
0.0
  0
LINE
  5
24CE
  8
NOTE
  6
CONTINUOUS
 62
     4
 10
-769.7191981031137
 20
1806.29948852837
 30
0.0
 11
-719.7014628378566
 21
1756.385747280113
 31
0.0
  0
LINE
  5
24EC
  8
NOTE
  6
CONTINUOUS
 62
     4
 10
-744.710330470487
 20
1715.685229995382
 30
0.0
 11
-794.7280657357478
 21
1715.685229995382
 31
0.0
  0
LINE
  5
24ED
  8
NOTE
  6
CONTINUOUS
 62
     4
 10
-794.7280657357478
 20
1756.385747280113
 30
0.0
 11
-794.7280657357478
 21
1715.685229995382
 31
0.0
  0
LINE
  5
24EE
  8
NOTE
  6
CONTINUOUS
 62
     4
 10
-819.7369333683744
 20
1756.385747280113
 30
0.0
 11
-794.7280657357478
 21
1756.385747280113
 31
0.0
  0
LINE
  5
24EF
  8
NOTE
  6
CONTINUOUS
 62
     4
 10
-744.710330470487
 20
1756.385747280113
 30
0.0
 11
-744.710330470487
 21
1715.685229995382
 31
0.0
  0
LINE
  5
24F0
  8
NOTE
  6
CONTINUOUS
 62
     4
 10
-744.710330470487
 20
1756.385747280113
 30
0.0
 11
-719.7014628378566
 21
1756.385747280113
 31
0.0
  0
LINE
  5
24F8
  8
DETAIL
  6
CONTINUOUS
 62
     5
 10
71.674735235134
 20
1369.98576891547
 30
0.0
 11
992.5012414685661
 21
1369.98576891547
 31
0.0
  0
LINE
  5
24F9
  8
DETAIL
  6
CONTINUOUS
 62
     5
 10
71.674735235134
 20
1409.999957127667
 30
0.0
 11
992.5012414685661
 21
1409.999957127667
 31
0.0
  0
LINE
  5
24FA
  8
NOTE
  6
CONTINUOUS
 62
     4
 10
248.6418918975724
 20
1754.985250692686
 30
0.0
 11
298.6596271628296
 21
1804.898991940942
 31
0.0
  0
LINE
  5
24FB
  8
NOTE
  6
CONTINUOUS
 62
     4
 10
248.6418918975724
 20
1754.985250692686
 30
0.0
 11
273.6507595302028
 21
1754.985250692686
 31
0.0
  0
LINE
  5
24FC
  8
DETAIL
  6
CONTINUOUS
 62
     5
 10
-166.0103918610321
 20
1438.701562701032
 30
0.0
 11
-170.9033839587489
 21
1549.964486597148
 31
0.0
  0
LINE
  5
24FD
  8
DETAIL
  6
CONTINUOUS
 62
     5
 10
166.0103918610302
 20
1438.701562701032
 30
0.0
 11
170.9033839587475
 21
1549.964486597148
 31
0.0
  0
LINE
  5
24FE
  8
DETAIL
  6
CONTINUOUS
 62
     5
 10
145.7009834277196
 20
1369.285520621756
 30
0.0
 11
145.7009834277196
 21
1317.467146886945
 31
0.0
  0
LINE
  5
24FF
  8
DETAIL
  6
CONTINUOUS
 62
     5
 10
-145.700983427734
 20
1369.285520621756
 30
0.0
 11
-145.700983427734
 21
1317.467146886945
 31
0.0
  0
LINE
  5
2500
  8
DETAIL
  6
CONTINUOUS
 62
     5
 10
-145.700983427734
 20
1369.285520621756
 30
0.0
 11
-145.700983427734
 21
1317.467146886945
 31
0.0
  0
LINE
  5
2501
  8
DETAIL
  6
CONTINUOUS
 62
     5
 10
145.7009834277196
 20
1369.285520621756
 30
0.0
 11
145.7009834277196
 21
1317.467146886945
 31
0.0
  0
ARC
  5
2504
  8
DETAIL
  6
CONTINUOUS
 62
     5
 10
36.51293959824944
 20
1200.925823718893
 30
0.0
 40
20.00709410610383
 50
0.0
 51
180.0
  0
LINE
  5
2505
  8
DETAIL
  6
CONTINUOUS
 62
     5
 10
77.07753667224098
 20
1316.966969534293
 30
0.0
 11
-77.07752238147079
 21
1316.966969534293
 31
0.0
  0
ARC
  5
250C
  8
DETAIL
  6
CONTINUOUS
 62
     5
 10
-31.51118036250591
 20
1200.925823718893
 30
0.0
 40
20.00709410610383
 50
0.0
 51
180.0
  0
LINE
  5
250D
  8
DETAIL
  6
CONTINUOUS
 62
     5
 10
-145.700983427734
 20
1317.467146886945
 30
0.0
 11
-144.7006287224212
 21
1317.467146886945
 31
0.0
  0
LINE
  5
250E
  8
DETAIL
  6
CONTINUOUS
 62
     5
 10
-145.700983427734
 20
1317.467146886945
 30
0.0
 11
-144.7006287224212
 21
1317.467146886945
 31
0.0
  0
LINE
  5
250F
  8
DETAIL
  6
CONTINUOUS
 62
     5
 10
145.7009834277196
 20
1317.467146886945
 30
0.0
 11
144.7006287224175
 21
1317.467146886945
 31
0.0
  0
LINE
  5
2510
  8
DETAIL
  6
CONTINUOUS
 62
     5
 10
145.7009834277196
 20
1317.467146886945
 30
0.0
 11
144.7006287224175
 21
1317.467146886945
 31
0.0
  0
LINE
  5
2511
  8
DETAIL
  6
CONTINUOUS
 62
     5
 10
-76.86740502100292
 20
1356.981157746504
 30
0.0
 11
76.86740502099927
 21
1356.981157746504
 31
0.0
  0
LINE
  5
2512
  8
DETAIL
  6
CONTINUOUS
 62
     5
 10
-157.756965364907
 20
1419.31032982385
 30
0.0
 11
-159.2203699725205
 21
1420.964230548916
 31
0.0
  0
LINE
  5
2514
  8
DETAIL
  6
CONTINUOUS
 62
     5
 10
-145.700983427734
 20
1369.285520621756
 30
0.0
 11
-146.4012317214473
 21
1369.98576891547
 31
0.0
  0
LINE
  5
2515
  8
DETAIL
  6
CONTINUOUS
 62
     5
 10
-141.1993872538514
 20
1369.98576891547
 30
0.0
 11
-141.1993872538514
 21
1327.970871292644
 31
0.0
  0
LINE
  5
2516
  8
DETAIL
  6
CONTINUOUS
 62
     5
 10
-141.1993872538514
 20
1327.970871292644
 30
0.0
 11
-145.700983427734
 21
1327.970871292644
 31
0.0
  0
LINE
  5
2518
  8
DETAIL
  6
CONTINUOUS
 62
     5
 10
-156.1758904623848
 20
1417.768525988915
 30
0.0
 11
-157.756965364907
 21
1419.31032982385
 31
0.0
  0
LINE
  5
2519
  8
DETAIL
  6
CONTINUOUS
 62
     5
 10
-154.4857197338669
 20
1416.347150569712
 30
0.0
 11
-156.1758904623848
 21
1417.768525988915
 31
0.0
  0
LINE
  5
251A
  8
DETAIL
  6
CONTINUOUS
 62
     5
 10
-152.695599279511
 20
1415.053920588256
 30
0.0
 11
-154.4857197338669
 21
1416.347150569712
 31
0.0
  0
LINE
  5
251B
  8
DETAIL
  6
CONTINUOUS
 62
     5
 10
-150.8152325399413
 20
1413.895824236703
 30
0.0
 11
-152.695599279511
 21
1415.053920588256
 31
0.0
  0
LINE
  5
251C
  8
DETAIL
  6
CONTINUOUS
 62
     5
 10
-148.8547802608291
 20
1412.879135168136
 30
0.0
 11
-150.8152325399413
 21
1413.895824236703
 31
0.0
  0
LINE
  5
251D
  8
DETAIL
  6
CONTINUOUS
 62
     5
 10
-146.8248747836105
 20
1412.00935533344
 30
0.0
 11
-148.8547802608291
 21
1412.879135168136
 31
0.0
  0
LINE
  5
251E
  8
DETAIL
  6
CONTINUOUS
 62
     5
 10
-144.7365057192573
 20
1411.291214981284
 30
0.0
 11
-146.8248747836105
 21
1412.00935533344
 31
0.0
  0
LINE
  5
251F
  8
DETAIL
  6
CONTINUOUS
 62
     5
 10
-142.6009770759327
 20
1410.728586913451
 30
0.0
 11
-144.7365057192573
 21
1411.291214981284
 31
0.0
  0
LINE
  5
2520
  8
DETAIL
  6
CONTINUOUS
 62
     5
 10
-140.4298643866559
 20
1410.324529357206
 30
0.0
 11
-142.6009770759327
 21
1410.728586913451
 31
0.0
  0
LINE
  5
2521
  8
DETAIL
  6
CONTINUOUS
 62
     5
 10
-138.234928964629
 20
1410.081214511307
 30
0.0
 11
-140.4298643866559
 21
1410.324529357206
 31
0.0
  0
LINE
  5
2522
  8
DETAIL
  6
CONTINUOUS
 62
     5
 10
-136.0280750308074
 20
1409.999957127667
 30
0.0
 11
-138.234928964629
 21
1410.081214511307
 31
0.0
  0
LINE
  5
2524
  8
DETAIL
  6
CONTINUOUS
 62
     5
 10
-76.86740502100292
 20
1355.480625688539
 30
0.0
 11
-76.86740502100292
 21
1369.98576891547
 31
0.0
  0
LINE
  5
2525
  8
DETAIL
  6
CONTINUOUS
 62
     5
 10
-76.86740502100292
 20
1355.480625688539
 30
0.0
 11
-77.07752238147079
 21
1355.480625688539
 31
0.0
  0
LINE
  5
2527
  8
DETAIL
  6
CONTINUOUS
 62
     5
 10
-71.6747352351449
 20
1369.98576891547
 30
0.0
 11
-71.6747352351449
 21
1409.999957127667
 31
0.0
  0
LINE
  5
2528
  8
DETAIL
  6
CONTINUOUS
 62
     5
 10
-75.91055145460268
 20
1369.98576891547
 30
0.0
 11
-75.34466508858895
 21
1369.98576891547
 31
0.0
  0
LINE
  5
2529
  8
DETAIL
  6
CONTINUOUS
 62
     5
 10
-165.8927501476853
 20
1437.051892047294
 30
0.0
 11
-166.0103918610321
 21
1438.701562701032
 31
0.0
  0
LINE
  5
252A
  8
DETAIL
  6
CONTINUOUS
 62
     5
 10
-165.5943443390888
 20
1434.863901945065
 30
0.0
 11
-165.8927501476853
 21
1437.051892047294
 31
0.0
  0
LINE
  5
252B
  8
DETAIL
  6
CONTINUOUS
 62
     5
 10
-165.135838905312
 20
1432.703750285206
 30
0.0
 11
-165.5943443390888
 21
1434.863901945065
 31
0.0
  0
LINE
  5
252C
  8
DETAIL
  6
CONTINUOUS
 62
     5
 10
-164.5197204423048
 20
1430.583126926997
 30
0.0
 11
-165.135838905312
 21
1432.703750285206
 31
0.0
  0
LINE
  5
252D
  8
DETAIL
  6
CONTINUOUS
 62
     5
 10
-163.7493187021963
 20
1428.513521658756
 30
0.0
 11
-164.5197204423048
 21
1430.583126926997
 31
0.0
  0
LINE
  5
252E
  8
DETAIL
  6
CONTINUOUS
 62
     5
 10
-162.8288208839285
 20
1426.50616703474
 30
0.0
 11
-163.7493187021963
 21
1428.513521658756
 31
0.0
  0
LINE
  5
252F
  8
DETAIL
  6
CONTINUOUS
 62
     5
 10
-161.7631858887098
 20
1424.571924048917
 30
0.0
 11
-162.8288208839285
 21
1426.50616703474
 31
0.0
  0
LINE
  5
2530
  8
DETAIL
  6
CONTINUOUS
 62
     5
 10
-160.5581871922613
 20
1422.721267844103
 30
0.0
 11
-161.7631858887098
 21
1424.571924048917
 31
0.0
  0
LINE
  5
2531
  8
DETAIL
  6
CONTINUOUS
 62
     5
 10
-159.2203699725205
 20
1420.964230548916
 30
0.0
 11
-160.5581871922613
 21
1422.721267844103
 31
0.0
  0
LINE
  5
2532
  8
DETAIL
  6
CONTINUOUS
 62
     5
 10
159.2203556817376
 20
1420.964230548916
 30
0.0
 11
157.7569510741205
 21
1419.31032982385
 31
0.0
  0
LINE
  5
2533
  8
DETAIL
  6
CONTINUOUS
 62
     5
 10
141.1993872538551
 20
1327.970871292644
 30
0.0
 11
145.7009834277196
 21
1327.970871292644
 31
0.0
  0
LINE
  5
2534
  8
DETAIL
  6
CONTINUOUS
 62
     5
 10
145.7009834277196
 20
1327.970871292644
 30
0.0
 11
141.9996710180894
 21
1327.970871292644
 31
0.0
  0
LINE
  5
2535
  8
DETAIL
  6
CONTINUOUS
 62
     5
 10
146.8248604928349
 20
1412.00935533344
 30
0.0
 11
144.7364914284708
 21
1411.291214981284
 31
0.0
  0
LINE
  5
2536
  8
DETAIL
  6
CONTINUOUS
 62
     5
 10
76.86740502099927
 20
1355.480625688539
 30
0.0
 11
76.86740502099927
 21
1369.98576891547
 31
0.0
  0
LINE
  5
2537
  8
DETAIL
  6
CONTINUOUS
 62
     5
 10
141.1993872538551
 20
1369.98576891547
 30
0.0
 11
141.1993872538551
 21
1327.970871292644
 31
0.0
  0
LINE
  5
2538
  8
DETAIL
  6
CONTINUOUS
 62
     5
 10
77.07753667224098
 20
1355.480625688539
 30
0.0
 11
76.86740502099927
 21
1355.480625688539
 31
0.0
  0
LINE
  5
253A
  8
DETAIL
  6
CONTINUOUS
 62
     5
 10
138.2349003830577
 20
1410.081214511307
 30
0.0
 11
136.0280750308129
 21
1409.999957127667
 31
0.0
  0
LINE
  5
253B
  8
DETAIL
  6
CONTINUOUS
 62
     5
 10
140.4298500958839
 20
1410.324529357206
 30
0.0
 11
138.2349003830577
 21
1410.081214511307
 31
0.0
  0
LINE
  5
253C
  8
DETAIL
  6
CONTINUOUS
 62
     5
 10
142.6009627851499
 20
1410.728586913451
 30
0.0
 11
140.4298500958839
 21
1410.324529357206
 31
0.0
  0
LINE
  5
253D
  8
DETAIL
  6
CONTINUOUS
 62
     5
 10
144.7364914284708
 20
1411.291214981284
 30
0.0
 11
142.6009627851499
 21
1410.728586913451
 31
0.0
  0
LINE
  5
253E
  8
DETAIL
  6
CONTINUOUS
 62
     5
 10
71.674735235134
 20
1409.999957127667
 30
0.0
 11
71.674735235134
 21
1369.98576891547
 31
0.0
  0
LINE
  5
2540
  8
DETAIL
  6
CONTINUOUS
 62
     5
 10
146.4012317214328
 20
1369.98576891547
 30
0.0
 11
145.7009834277196
 21
1369.285520621756
 31
0.0
  0
LINE
  5
2541
  8
DETAIL
  6
CONTINUOUS
 62
     5
 10
148.8547659700571
 20
1412.879120877362
 30
0.0
 11
146.8248604928349
 21
1412.00935533344
 31
0.0
  0
LINE
  5
2542
  8
DETAIL
  6
CONTINUOUS
 62
     5
 10
150.8152182491658
 20
1413.895809945916
 30
0.0
 11
148.8547659700571
 21
1412.879120877362
 31
0.0
  0
LINE
  5
2543
  8
DETAIL
  6
CONTINUOUS
 62
     5
 10
152.6955849887281
 20
1415.05390629747
 30
0.0
 11
150.8152182491658
 21
1413.895809945916
 31
0.0
  0
LINE
  5
2544
  8
DETAIL
  6
CONTINUOUS
 62
     5
 10
154.4857054430949
 20
1416.347150569712
 30
0.0
 11
152.6955849887281
 21
1415.05390629747
 31
0.0
  0
LINE
  5
2545
  8
DETAIL
  6
CONTINUOUS
 62
     5
 10
156.1758761716128
 20
1417.768511698128
 30
0.0
 11
154.4857054430949
 21
1416.347150569712
 31
0.0
  0
LINE
  5
2546
  8
DETAIL
  6
CONTINUOUS
 62
     5
 10
157.7569510741205
 20
1419.31032982385
 30
0.0
 11
156.1758761716128
 21
1417.768511698128
 31
0.0
  0
LINE
  5
2547
  8
DETAIL
  6
CONTINUOUS
 62
     5
 10
160.5581871922668
 20
1422.721267844103
 30
0.0
 11
159.2203556817376
 21
1420.964230548916
 31
0.0
  0
LINE
  5
2548
  8
DETAIL
  6
CONTINUOUS
 62
     5
 10
161.7631715979378
 20
1424.571909758131
 30
0.0
 11
160.5581871922668
 21
1422.721267844103
 31
0.0
  0
LINE
  5
2549
  8
DETAIL
  6
CONTINUOUS
 62
     5
 10
162.8288065931529
 20
1426.506152743966
 30
0.0
 11
161.7631715979378
 21
1424.571909758131
 31
0.0
  0
LINE
  5
254A
  8
DETAIL
  6
CONTINUOUS
 62
     5
 10
163.7493187021946
 20
1428.513521658756
 30
0.0
 11
162.8288065931529
 21
1426.506152743966
 31
0.0
  0
LINE
  5
254B
  8
DETAIL
  6
CONTINUOUS
 62
     5
 10
164.5197204423066
 20
1430.583112636224
 30
0.0
 11
163.7493187021946
 21
1428.513521658756
 31
0.0
  0
LINE
  5
254C
  8
DETAIL
  6
CONTINUOUS
 62
     5
 10
165.1358389053102
 20
1432.703735994433
 30
0.0
 11
164.5197204423066
 21
1430.583112636224
 31
0.0
  0
LINE
  5
254D
  8
DETAIL
  6
CONTINUOUS
 62
     5
 10
165.5943300483168
 20
1434.863901945065
 30
0.0
 11
165.1358389053102
 21
1432.703735994433
 31
0.0
  0
LINE
  5
254E
  8
DETAIL
  6
CONTINUOUS
 62
     5
 10
165.8927501476874
 20
1437.051892047294
 30
0.0
 11
165.5943300483168
 21
1434.863901945065
 31
0.0
  0
LINE
  5
254F
  8
DETAIL
  6
CONTINUOUS
 62
     5
 10
166.0103918610302
 20
1438.701562701032
 30
0.0
 11
165.8927501476874
 21
1437.051892047294
 31
0.0
  0
LINE
  5
2590
  8
DETAIL
  6
CONTINUOUS
 62
     5
 10
897.9896081389679
 20
1438.701562701032
 30
0.0
 11
893.0966160412543
 21
1549.964486597148
 31
0.0
  0
LINE
  5
2591
  8
DETAIL
  6
CONTINUOUS
 62
     5
 10
918.4749932759764
 20
1369.285520621756
 30
0.0
 11
918.4749932759764
 21
1317.467146886945
 31
0.0
  0
LINE
  5
2592
  8
DETAIL
  6
CONTINUOUS
 62
     5
 10
918.4749932759764
 20
1317.467146886945
 30
0.0
 11
919.4753479812787
 21
1317.467146886945
 31
0.0
  0
LINE
  5
2593
  8
DETAIL
  6
CONTINUOUS
 62
     5
 10
906.2430346350925
 20
1419.31032982385
 30
0.0
 11
904.7796300274761
 21
1420.964230548916
 31
0.0
  0
LINE
  5
2594
  8
DETAIL
  6
CONTINUOUS
 62
     5
 10
918.4749932759764
 20
1369.285520621756
 30
0.0
 11
917.7747449822634
 21
1369.98576891547
 31
0.0
  0
LINE
  5
2595
  8
DETAIL
  6
CONTINUOUS
 62
     5
 10
922.1763056856073
 20
1327.970871292644
 30
0.0
 11
922.1763056856073
 21
1369.98576891547
 31
0.0
  0
LINE
  5
2596
  8
DETAIL
  6
CONTINUOUS
 62
     5
 10
922.1763056856073
 20
1327.970871292644
 30
0.0
 11
918.4749932759764
 21
1327.970871292644
 31
0.0
  0
LINE
  5
2597
  8
DETAIL
  6
CONTINUOUS
 62
     5
 10
907.8241095376043
 20
1417.768525988915
 30
0.0
 11
906.2430346350925
 21
1419.31032982385
 31
0.0
  0
LINE
  5
2598
  8
DETAIL
  6
CONTINUOUS
 62
     5
 10
909.5142802661222
 20
1416.347150569712
 30
0.0
 11
907.8241095376043
 21
1417.768525988915
 31
0.0
  0
LINE
  5
2599
  8
DETAIL
  6
CONTINUOUS
 62
     5
 10
911.3044007204855
 20
1415.053920588256
 30
0.0
 11
909.5142802661222
 21
1416.347150569712
 31
0.0
  0
LINE
  5
259A
  8
DETAIL
  6
CONTINUOUS
 62
     5
 10
913.1847674600474
 20
1413.895824236703
 30
0.0
 11
911.3044007204855
 21
1415.053920588256
 31
0.0
  0
LINE
  5
259B
  8
DETAIL
  6
CONTINUOUS
 62
     5
 10
915.1452197391601
 20
1412.879135168136
 30
0.0
 11
913.1847674600474
 21
1413.895824236703
 31
0.0
  0
LINE
  5
259C
  8
DETAIL
  6
CONTINUOUS
 62
     5
 10
917.1751252163931
 20
1412.00935533344
 30
0.0
 11
915.1452197391601
 21
1412.879135168136
 31
0.0
  0
LINE
  5
259D
  8
DETAIL
  6
CONTINUOUS
 62
     5
 10
919.2634942807462
 20
1411.291214981284
 30
0.0
 11
917.1751252163931
 21
1412.00935533344
 31
0.0
  0
LINE
  5
259E
  8
DETAIL
  6
CONTINUOUS
 62
     5
 10
921.3990229240634
 20
1410.728586913451
 30
0.0
 11
919.2634942807462
 21
1411.291214981284
 31
0.0
  0
LINE
  5
259F
  8
DETAIL
  6
CONTINUOUS
 62
     5
 10
923.570135613333
 20
1410.324529357206
 30
0.0
 11
921.3990229240634
 21
1410.728586913451
 31
0.0
  0
LINE
  5
25A0
  8
DETAIL
  6
CONTINUOUS
 62
     5
 10
925.765071035371
 20
1410.081214511307
 30
0.0
 11
923.570135613333
 21
1410.324529357206
 31
0.0
  0
LINE
  5
25A1
  8
DETAIL
  6
CONTINUOUS
 62
     5
 10
927.9719249691775
 20
1409.999957127667
 30
0.0
 11
925.765071035371
 21
1410.081214511307
 31
0.0
  0
LINE
  5
25A2
  8
DETAIL
  6
CONTINUOUS
 62
     5
 10
898.1072498523143
 20
1437.051892047294
 30
0.0
 11
897.9896081389679
 21
1438.701562701032
 31
0.0
  0
LINE
  5
25A3
  8
DETAIL
  6
CONTINUOUS
 62
     5
 10
898.4056556609113
 20
1434.863901945065
 30
0.0
 11
898.1072498523143
 21
1437.051892047294
 31
0.0
  0
LINE
  5
25A4
  8
DETAIL
  6
CONTINUOUS
 62
     5
 10
898.8641610946914
 20
1432.703750285206
 30
0.0
 11
898.4056556609113
 21
1434.863901945065
 31
0.0
  0
LINE
  5
25A5
  8
DETAIL
  6
CONTINUOUS
 62
     5
 10
899.4802795576843
 20
1430.583126926997
 30
0.0
 11
898.8641610946914
 21
1432.703750285206
 31
0.0
  0
LINE
  5
25A6
  8
DETAIL
  6
CONTINUOUS
 62
     5
 10
900.2506812978073
 20
1428.513521658756
 30
0.0
 11
899.4802795576843
 21
1430.583126926997
 31
0.0
  0
LINE
  5
25A7
  8
DETAIL
  6
CONTINUOUS
 62
     5
 10
901.1711791160745
 20
1426.50616703474
 30
0.0
 11
900.2506812978073
 21
1428.513521658756
 31
0.0
  0
LINE
  5
25A8
  8
DETAIL
  6
CONTINUOUS
 62
     5
 10
902.2368141112901
 20
1424.571924048917
 30
0.0
 11
901.1711791160745
 21
1426.50616703474
 31
0.0
  0
LINE
  5
25A9
  8
DETAIL
  6
CONTINUOUS
 62
     5
 10
903.4418128077352
 20
1422.721267844103
 30
0.0
 11
902.2368141112901
 21
1424.571924048917
 31
0.0
  0
LINE
  5
25AA
  8
DETAIL
  6
CONTINUOUS
 62
     5
 10
904.7796300274761
 20
1420.964230548916
 30
0.0
 11
903.4418128077352
 21
1422.721267844103
 31
0.0
  0
LINE
  5
25AB
  8
DETAIL
  6
CONTINUOUS
 62
     5
 10
992.5012414685661
 20
1369.98576891547
 30
0.0
 11
992.5012414685661
 21
1409.999957127667
 31
0.0
  0
LINE
  5
25AE
  8
NOTE
  6
CONTINUOUS
 62
     4
 10
298.6596271628296
 20
1804.898991940942
 30
0.0
 11
348.6773624280904
 21
1754.985250692686
 31
0.0
  0
LINE
  5
25C7
  8
NOTE
  6
CONTINUOUS
 62
     4
 10
323.6684947954636
 20
1754.985250692686
 30
0.0
 11
348.6773624280904
 21
1754.985250692686
 31
0.0
  0
LINE
  5
25C8
  8
NOTE
  6
CONTINUOUS
 62
     4
 10
323.6684947954636
 20
1754.985250692686
 30
0.0
 11
323.6684947954636
 21
1714.284733407955
 31
0.0
  0
LINE
  5
25C9
  8
NOTE
  6
CONTINUOUS
 62
     4
 10
273.6507595302028
 20
1754.985250692686
 30
0.0
 11
273.6507595302028
 21
1714.284733407955
 31
0.0
  0
LINE
  5
25CA
  8
NOTE
  6
CONTINUOUS
 62
     4
 10
323.6684947954636
 20
1714.284733407955
 30
0.0
 11
273.6507595302028
 21
1714.284733407955
 31
0.0
  0
LINE
  5
25F6
  8
NOTE
  6
CONTINUOUS
 62
     4
 10
-315.0
 20
178.702781157168
 30
0.0
 11
-315.0
 21
255.2972188428155
 31
0.0
  0
LINE
  5
25F7
  8
NOTE
  6
CONTINUOUS
 62
     4
 10
-276.7027811571752
 20
216.9999999999999
 30
0.0
 11
-353.2972188428248
 21
216.9999999999999
 31
0.0
  0
LINE
  5
25F8
  8
NOTE
  6
CONTINUOUS
 62
     4
 10
-373.0
 20
178.702781157168
 30
0.0
 11
-373.0
 21
255.2972188428155
 31
0.0
  0
LINE
  5
25F9
  8
NOTE
  6
CONTINUOUS
 62
     4
 10
-334.7027811571751
 20
216.9999999999999
 30
0.0
 11
-411.2972188428246
 21
216.9999999999999
 31
0.0
  0
LINE
  5
25FA
  8
NOTE
  6
CONTINUOUS
 62
     4
 10
-448.0
 20
178.702781157168
 30
0.0
 11
-448.0
 21
255.2972188428155
 31
0.0
  0
LINE
  5
25FB
  8
NOTE
  6
CONTINUOUS
 62
     4
 10
-409.702781157175
 20
216.9999999999999
 30
0.0
 11
-486.2972188428246
 21
216.9999999999999
 31
0.0
  0
LINE
  5
25FC
  8
NOTE
  6
CONTINUOUS
 62
     4
 10
-463.0524963851637
 20
106.7542134264277
 30
0.0
 11
-463.0524963851637
 21
183.3486511120755
 31
0.0
  0
LINE
  5
25FD
  8
NOTE
  6
CONTINUOUS
 62
     4
 10
-424.7552775423389
 20
145.0514322692598
 30
0.0
 11
-501.3497152279886
 21
145.0514322692598
 31
0.0
  0
CIRCLE
  5
25FE
  8
DETAIL
  6
CONTINUOUS
 62
     5
 10
-315.0
 20
216.9999999999999
 30
0.0
 40
17.0
  0
CIRCLE
  5
25FF
  8
DETAIL
  6
CONTINUOUS
 62
     5
 10
-373.0
 20
216.9999999999999
 30
0.0
 40
13.5
  0
CIRCLE
  5
2600
  8
DETAIL
  6
CONTINUOUS
 62
     5
 10
-373.0
 20
216.9999999999999
 30
0.0
 40
26.0
  0
CIRCLE
  5
2601
  8
DETAIL
  6
CONTINUOUS
 62
     5
 10
-448.0
 20
216.9999999999999
 30
0.0
 40
20.0
  0
CIRCLE
  5
2602
  8
DETAIL
  6
CONTINUOUS
 62
     5
 10
-448.0
 20
216.9999999999999
 30
0.0
 40
32.5
  0
CIRCLE
  5
2603
  8
DETAIL
  6
CONTINUOUS
 62
     5
 10
-463.0524963851637
 20
145.0514322692598
 30
0.0
 40
22.5
  0
LINE
  5
2604
  8
NOTE
  6
CONTINUOUS
 62
     4
 10
0.0
 20
87.37383811766355
 30
0.0
 11
0.0
 21
222.8812121457086
 31
0.0
  0
LINE
  5
2605
  8
NOTE
  6
CONTINUOUS
 62
     4
 10
67.88121214570856
 20
155.0
 30
0.0
 11
-67.88121214570855
 21
155.0
 31
0.0
  0
LINE
  5
2606
  8
NOTE
  6
CONTINUOUS
 62
     4
 10
0.0
 20
553.1187878542912
 30
0.0
 11
0.0
 21
688.8812121457081
 31
0.0
  0
LINE
  5
2607
  8
NOTE
  6
CONTINUOUS
 62
     4
 10
67.88121214570856
 20
621.0
 30
0.0
 11
-67.88121214570855
 21
621.0
 31
0.0
  0
TEXT
  5
2608
  8
NOTE
  6
CONTINUOUS
 62
     4
 10
-898.3402801187993
 20
-594.0293050378714
 30
0.0
 40
50.0
  1
CHR〈Rc1-1/2B〉
  0
TEXT
  5
2609
  8
NOTE
  6
CONTINUOUS
 62
     4
 10
329.9388557952516
 20
-598.2399914908638
 30
0.0
 40
50.0
  1
CH〈Rc1-1/2B〉
  0
TEXT
  5
260A
  8
NOTE
  6
CONTINUOUS
 62
     4
 10
-1804.940856133178
 20
-255.3693497291077
 30
0.0
 40
50.0
  1
φ65or40ノックアウト穴
  0
TEXT
  5
260B
  8
NOTE
  6
CONTINUOUS
 62
     4
 10
-1790.181871873706
 20
548.7243684637085
 30
0.0
 40
50.0
  1
φ52or27ノックアウト穴
  0
TEXT
  5
260C
  8
NOTE
  6
CONTINUOUS
 62
     4
 10
-1605.577878279007
 20
720.2515164681989
 30
0.0
 40
50.0
  1
φ34ノックアウト穴
  0
TEXT
  5
260D
  8
NOTE
  6
CONTINUOUS
 62
     4
 10
-1549.84483889848
 20
642.4269061781978
 30
0.0
 40
50.0
  1
〈CL用通し穴〉
  0
TEXT
  5
260E
  8
NOTE
  6
CONTINUOUS
 62
     4
 10
-1739.584604945301
 20
459.1035551494076
 30
0.0
 40
50.0
  1
〈EL or CL用通し穴〉
  0
TEXT
  5
260F
  8
NOTE
  6
CONTINUOUS
 62
     4
 10
-1757.505914621475
 20
-344.0645798762108
 30
0.0
 40
50.0
  1
〈EL or CL用通し穴〉
  0
TEXT
  5
2610
  8
NOTE
  6
CONTINUOUS
 62
     4
 10
414.5341091126663
 20
1733.48818541616
 30
0.0
 40
50.0
  1
空気吹出
  0
TEXT
  5
2611
  8
NOTE
  6
CONTINUOUS
 62
     4
 10
-644.5658245750836
 20
1734.888710585155
 30
0.0
 40
50.0
  1
空気吹出
  0
TEXT
  5
2612
  8
NOTE
  6
CONTINUOUS
 62
     4
 10
-1134.813001281873
 20
1067.32315094544
 30
0.0
 40
50.0
  1
空気
  0
TEXT
  5
2613
  8
NOTE
  6
CONTINUOUS
 62
     4
 10
-1134.813001281873
 20
993.011101413553
 30
0.0
 40
50.0
  1
吸込
  0
CIRCLE
  5
2614
  8
FIX
  6
CONTINUOUS
 62
    11
 10
-912.0
 20
0.0
 30
0.0
 40
18.59856373856018
  0
LINE
  5
2615
  8
NOTE
  6
CONTINUOUS
 62
     4
 10
-912.0000000000009
 20
-38.29721884283208
 30
0.0
 11
-912.0000000000009
 21
38.29721884281569
 31
0.0
  0
LINE
  5
2616
  8
NOTE
  6
CONTINUOUS
 62
     4
 10
-873.7027811571761
 20
0.0
 30
0.0
 11
-950.2972188428253
 21
0.0
 31
0.0
  0
CIRCLE
  5
2617
  8
FIX
  6
CONTINUOUS
 62
    11
 10
-152.0
 20
0.0
 30
0.0
 40
18.59856373856018
  0
LINE
  5
2618
  8
NOTE
  6
CONTINUOUS
 62
     4
 10
-152.0
 20
-38.29721884283208
 30
0.0
 11
-152.0
 21
38.29721884281569
 31
0.0
  0
LINE
  5
2619
  8
NOTE
  6
CONTINUOUS
 62
     4
 10
-113.7027811571751
 20
0.0
 30
0.0
 11
-190.2972188428248
 21
0.0
 31
0.0
  0
CIRCLE
  5
261A
  8
FIX
  6
CONTINUOUS
 62
    11
 10
152.0
 20
0.0
 30
0.0
 40
18.59856373856018
  0
LINE
  5
261B
  8
NOTE
  6
CONTINUOUS
 62
     4
 10
152.0
 20
-38.29721884283208
 30
0.0
 11
152.0
 21
38.29721884281569
 31
0.0
  0
LINE
  5
261C
  8
NOTE
  6
CONTINUOUS
 62
     4
 10
190.2972188428247
 20
0.0
 30
0.0
 11
113.7027811571752
 21
0.0
 31
0.0
  0
CIRCLE
  5
261D
  8
FIX
  6
CONTINUOUS
 62
    11
 10
911.9999999999999
 20
-0.0000263606243607
 30
0.0
 40
18.59856373856018
  0
LINE
  5
261E
  8
NOTE
  6
CONTINUOUS
 62
     4
 10
912.000000000001
 20
-38.29724520345644
 30
0.0
 11
912.000000000001
 21
38.29719248219134
 31
0.0
  0
LINE
  5
261F
  8
NOTE
  6
CONTINUOUS
 62
     4
 10
950.2972188428257
 20
-0.0000263606243607
 30
0.0
 11
873.7027811571758
 21
-0.0000263606243607
 31
0.0
  0
LINE
  5
2622
  8
BASIS
  6
DASHDOT
 62
     6
 10
532.0000000000009
 20
1700.0
 30
0.0
 11
532.0000000000009
 21
-70.0
 31
0.0
  0
LINE
  5
2623
  8
BASIS
  6
DASHDOT
 62
     6
 10
-532.0000000000007
 20
1700.0
 30
0.0
 11
-532.0000000000007
 21
-70.0
 31
0.0
  0
LINE
  5
2624
  8
NOTE
  6
CONTINUOUS
 62
     4
 10
-244.2630666316272
 20
1756.385747280113
 30
0.0
 11
-294.2808018968881
 21
1806.29948852837
 31
0.0
  0
LINE
  5
2625
  8
NOTE
  6
CONTINUOUS
 62
     4
 10
-294.2808018968881
 20
1806.29948852837
 30
0.0
 11
-344.2985371621453
 21
1756.385747280113
 31
0.0
  0
LINE
  5
2626
  8
NOTE
  6
CONTINUOUS
 62
     4
 10
-319.2896695295148
 20
1715.685229995382
 30
0.0
 11
-269.271934264254
 21
1715.685229995382
 31
0.0
  0
LINE
  5
2627
  8
NOTE
  6
CONTINUOUS
 62
     4
 10
-269.271934264254
 20
1756.385747280113
 30
0.0
 11
-269.271934264254
 21
1715.685229995382
 31
0.0
  0
LINE
  5
2628
  8
NOTE
  6
CONTINUOUS
 62
     4
 10
-244.2630666316272
 20
1756.385747280113
 30
0.0
 11
-269.271934264254
 21
1756.385747280113
 31
0.0
  0
LINE
  5
2629
  8
NOTE
  6
CONTINUOUS
 62
     4
 10
-319.2896695295148
 20
1756.385747280113
 30
0.0
 11
-319.2896695295148
 21
1715.685229995382
 31
0.0
  0
LINE
  5
262A
  8
NOTE
  6
CONTINUOUS
 62
     4
 10
-319.2896695295148
 20
1756.385747280113
 30
0.0
 11
-344.2985371621453
 21
1756.385747280113
 31
0.0
  0
LINE
  5
262B
  8
NOTE
  6
CONTINUOUS
 62
     4
 10
815.3581081024292
 20
1754.985250692686
 30
0.0
 11
765.3403728371724
 21
1804.898991940942
 31
0.0
  0
LINE
  5
262C
  8
NOTE
  6
CONTINUOUS
 62
     4
 10
815.3581081024292
 20
1754.985250692686
 30
0.0
 11
790.349240469799
 21
1754.985250692686
 31
0.0
  0
LINE
  5
262D
  8
NOTE
  6
CONTINUOUS
 62
     4
 10
765.3403728371724
 20
1804.898991940942
 30
0.0
 11
715.3226375719113
 21
1754.985250692686
 31
0.0
  0
LINE
  5
262E
  8
NOTE
  6
CONTINUOUS
 62
     4
 10
740.3315052045384
 20
1754.985250692686
 30
0.0
 11
715.3226375719113
 21
1754.985250692686
 31
0.0
  0
LINE
  5
262F
  8
NOTE
  6
CONTINUOUS
 62
     4
 10
740.3315052045384
 20
1754.985250692686
 30
0.0
 11
740.3315052045384
 21
1714.284733407955
 31
0.0
  0
LINE
  5
2630
  8
NOTE
  6
CONTINUOUS
 62
     4
 10
790.349240469799
 20
1754.985250692686
 30
0.0
 11
790.349240469799
 21
1714.284733407955
 31
0.0
  0
LINE
  5
2631
  8
NOTE
  6
CONTINUOUS
 62
     4
 10
740.3315052045384
 20
1714.284733407955
 30
0.0
 11
790.349240469799
 21
1714.284733407955
 31
0.0
  0
LINE
  5
2632
  8
BASIS
  6
DASHDOT
 62
     6
 10
0.0
 20
1700.0
 30
0.0
 11
0.0
 21
-70.0
 31
0.0
  0
LINE
  5
2633
  8
ARRANGE
  6
CONTINUOUS
 62
     1
 10
37.89732108180669
 20
-37.89732108180669
 30
0.0
 11
-37.89732108180851
 21
37.89732108180849
 31
0.0
  0
LINE
  5
2634
  8
ARRANGE
  6
CONTINUOUS
 62
     1
 10
37.89732108180669
 20
37.89732108180849
 30
0.0
 11
-37.89732108180851
 21
-37.89732108181033
 31
0.0
  0
CIRCLE
  5
2635
  8
ARRANGE
  6
CONTINUOUS
 62
     1
 10
0.0000000000009095
 20
0.0
 30
0.0
 40
34.44967411438486
  0
LINE
  5
2636
  8
NOTE
  6
CONTINUOUS
 62
     4
 10
1092.60020491678
 20
830.9636855735121
 30
0.0
 11
1133.300722201529
 21
830.9636855735121
 31
0.0
  0
LINE
  5
2637
  8
NOTE
  6
CONTINUOUS
 62
     4
 10
1092.60020491678
 20
880.9814208387713
 30
0.0
 11
1133.300722201529
 21
880.9814208387713
 31
0.0
  0
LINE
  5
2638
  8
NOTE
  6
CONTINUOUS
 62
     4
 10
1133.300722201529
 20
830.9636855735121
 30
0.0
 11
1133.300722201529
 21
880.9814208387713
 31
0.0
  0
LINE
  5
2639
  8
NOTE
  6
CONTINUOUS
 62
     4
 10
1092.60020491678
 20
830.9636855735121
 30
0.0
 11
1092.60020491678
 21
805.9548179408831
 31
0.0
  0
LINE
  5
263A
  8
NOTE
  6
CONTINUOUS
 62
     4
 10
1042.686449377754
 20
855.9725532061418
 30
0.0
 11
1092.60020491678
 21
805.9548179408831
 31
0.0
  0
LINE
  5
263B
  8
NOTE
  6
CONTINUOUS
 62
     4
 10
1092.60020491678
 20
905.9902884714022
 30
0.0
 11
1042.686449377754
 21
855.9725532061418
 31
0.0
  0
LINE
  5
263C
  8
NOTE
  6
CONTINUOUS
 62
     4
 10
1092.60020491678
 20
905.9902884714022
 30
0.0
 11
1092.60020491678
 21
880.9814208387713
 31
0.0
  0
LINE
  5
263D
  8
NOTE
  6
CONTINUOUS
 62
     4
 10
1092.60020491678
 20
1281.123302960848
 30
0.0
 11
1133.300722201529
 21
1281.123302960848
 31
0.0
  0
LINE
  5
263E
  8
NOTE
  6
CONTINUOUS
 62
     4
 10
1092.60020491678
 20
1231.105567695589
 30
0.0
 11
1133.300722201529
 21
1231.105567695589
 31
0.0
  0
LINE
  5
263F
  8
NOTE
  6
CONTINUOUS
 62
     4
 10
1133.300722201529
 20
1231.105567695589
 30
0.0
 11
1133.300722201529
 21
1281.123302960848
 31
0.0
  0
LINE
  5
2640
  8
NOTE
  6
CONTINUOUS
 62
     4
 10
1092.60020491678
 20
1231.105567695589
 30
0.0
 11
1092.60020491678
 21
1206.096700062959
 31
0.0
  0
LINE
  5
2641
  8
NOTE
  6
CONTINUOUS
 62
     4
 10
1042.686449377754
 20
1256.114435328219
 30
0.0
 11
1092.60020491678
 21
1206.096700062959
 31
0.0
  0
LINE
  5
2642
  8
NOTE
  6
CONTINUOUS
 62
     4
 10
1092.60020491678
 20
1306.132170593478
 30
0.0
 11
1092.60020491678
 21
1281.123302960848
 31
0.0
  0
LINE
  5
2643
  8
NOTE
  6
CONTINUOUS
 62
     4
 10
1092.60020491678
 20
1306.132170593478
 30
0.0
 11
1042.686449377754
 21
1256.114435328219
 31
0.0
  0
TEXT
  5
2644
  8
NOTE
  6
CONTINUOUS
 62
     4
 10
1045.951266361417
 20
1067.32315094544
 30
0.0
 40
50.0
  1
空気
  0
TEXT
  5
2645
  8
NOTE
  6
CONTINUOUS
 62
     4
 10
1045.951266361417
 20
993.011101413553
 30
0.0
 40
50.0
  1
吸込
  0
LINE
  5
2646
  8
SIZE
  6
CONTINUOUS
 62
    30
 10
-315.0
 20
163.702781157168
 30
0.0
 11
-315.0
 21
-277.3153053570513
 31
0.0
  0
LINE
  5
2647
  8
SIZE
  6
CONTINUOUS
 62
    30
 10
-373.0
 20
163.702781157168
 30
0.0
 11
-373.0
 21
-277.3153053570513
 31
0.0
  0
LINE
  5
2648
  8
SIZE
  6
CONTINUOUS
 62
    30
 10
-315.0
 20
-272.3153053570513
 30
0.0
 11
-373.0
 21
-272.3153053570513
 31
0.0
  0
LINE
  5
2649
  8
SIZE
  6
CONTINUOUS
 62
    30
 10
-344.0
 20
-272.3153053570513
 30
0.0
 11
-283.1978446602897
 21
-192.3153053570513
 31
0.0
  0
LINE
  5
264A
  8
SIZE
  6
CONTINUOUS
 62
    30
 10
-283.1978446602897
 20
-192.3153053570513
 30
0.0
 11
-194.9121303745753
 21
-192.3153053570513
 31
0.0
  0
TEXT
  5
264B
  8
SIZE
  6
CONTINUOUS
 62
    30
 10
-273.3407018031469
 20
-177.3153053570513
 30
0.0
 40
40.0
  1
58
 41
0.9
 72
     1
 11
-239.0549875174326
 21
-177.3153053570513
 31
0.0
  0
CIRCLE
  5
264C
  8
SIZE
  6
CONTINUOUS
 62
    30
 10
-315.0
 20
-272.3153053570513
 30
0.0
 40
5.0
  0
CIRCLE
  5
264D
  8
SIZE
  6
CONTINUOUS
 62
    30
 10
-373.0
 20
-272.3153053570513
 30
0.0
 40
5.0
  0
POINT
  5
264E
  8
DEFPOINTS
  6
CONTINUOUS
 62
     7
 10
-315.0
 20
178.702781157168
 30
0.0
  0
POINT
  5
264F
  8
DEFPOINTS
  6
CONTINUOUS
 62
     7
 10
-373.0
 20
178.702781157168
 30
0.0
  0
POINT
  5
2650
  8
DEFPOINTS
  6
CONTINUOUS
 62
     7
 10
-373.0
 20
-272.3153053570513
 30
0.0
  0
LINE
  5
2651
  8
SIZE
  6
CONTINUOUS
 62
    30
 10
-373.0
 20
163.702781157168
 30
0.0
 11
-373.0
 21
-277.3153053570513
 31
0.0
  0
LINE
  5
2652
  8
SIZE
  6
CONTINUOUS
 62
    30
 10
-448.0
 20
163.702781157168
 30
0.0
 11
-448.0
 21
-277.3153053570513
 31
0.0
  0
LINE
  5
2653
  8
SIZE
  6
CONTINUOUS
 62
    30
 10
-373.0
 20
-272.3153053570513
 30
0.0
 11
-448.0
 21
-272.3153053570513
 31
0.0
  0
LINE
  5
2654
  8
SIZE
  6
CONTINUOUS
 62
    30
 10
-410.5
 20
-272.3153053570513
 30
0.0
 11
-470.5550179431645
 21
-192.3153053570513
 31
0.0
  0
LINE
  5
2655
  8
SIZE
  6
CONTINUOUS
 62
    30
 10
-470.5550179431645
 20
-192.3153053570513
 30
0.0
 11
-558.8407322288789
 21
-192.3153053570513
 31
0.0
  0
TEXT
  5
2656
  8
SIZE
  6
CONTINUOUS
 62
    30
 10
-548.9835893717361
 20
-177.3153053570513
 30
0.0
 40
40.0
  1
75
 41
0.9
 72
     1
 11
-514.6978750860218
 21
-177.3153053570513
 31
0.0
  0
CIRCLE
  5
2657
  8
SIZE
  6
CONTINUOUS
 62
    30
 10
-373.0
 20
-272.3153053570513
 30
0.0
 40
5.0
  0
CIRCLE
  5
2658
  8
SIZE
  6
CONTINUOUS
 62
    30
 10
-448.0
 20
-272.3153053570513
 30
0.0
 40
5.0
  0
POINT
  5
2659
  8
DEFPOINTS
  6
CONTINUOUS
 62
     7
 10
-373.0
 20
178.702781157168
 30
0.0
  0
POINT
  5
265A
  8
DEFPOINTS
  6
CONTINUOUS
 62
     7
 10
-448.0
 20
178.702781157168
 30
0.0
  0
POINT
  5
265B
  8
DEFPOINTS
  6
CONTINUOUS
 62
     7
 10
-448.0
 20
-272.3153053570513
 30
0.0
  0
LINE
  5
265C
  8
SIZE
  6
CONTINUOUS
 62
    30
 10
1005.798864943019
 20
0.0
 30
0.0
 11
1224.130243416688
 21
-0.0000000000000497
 31
0.0
  0
LINE
  5
265D
  8
SIZE
  6
CONTINUOUS
 62
    30
 10
87.88121214570857
 20
155.0
 30
0.0
 11
1224.130243416688
 21
154.9999999999996
 31
0.0
  0
LINE
  5
265E
  8
SIZE
  6
CONTINUOUS
 62
    30
 10
1209.130243416687
 20
9.999999999999936
 30
0.0
 11
1209.130243416687
 21
144.9999999999997
 31
0.0
  0
CIRCLE
  5
265F
  8
SIZE
  6
CONTINUOUS
 62
    30
 10
1209.130243416687
 20
-0.0000000000000497
 30
0.0
 40
5.0
  0
LINE
  5
2660
  8
SIZE
  6
CONTINUOUS
 62
    30
 10
1209.130243416687
 20
4.99999999999995
 30
0.0
 11
1209.130243416687
 21
9.99999999999995
 31
0.0
  0
CIRCLE
  5
2661
  8
SIZE
  6
CONTINUOUS
 62
    30
 10
1209.130243416687
 20
154.9999999999996
 30
0.0
 40
5.0
  0
LINE
  5
2662
  8
SIZE
  6
CONTINUOUS
 62
    30
 10
1209.130243416687
 20
149.9999999999997
 30
0.0
 11
1209.130243416687
 21
144.9999999999997
 31
0.0
  0
TEXT
  5
2663
  8
SIZE
  6
CONTINUOUS
 62
    30
 10
1194.130243416688
 20
23.49999999999986
 30
0.0
 40
40.0
  1
155
 50
90.0
 41
0.9
 72
     1
 11
1194.130243416688
 21
77.49999999999986
 31
0.0
  0
POINT
  5
2664
  8
DEFPOINTS
  6
CONTINUOUS
 62
     7
 10
985.7988649430188
 20
0.0
 30
0.0
  0
POINT
  5
2666
  8
DEFPOINTS
  6
CONTINUOUS
 62
     7
 10
1209.130243416687
 20
154.9999999999996
 30
0.0
  0
LINE
  5
2667
  8
SIZE
  6
CONTINUOUS
 62
    30
 10
87.88121214570857
 20
155.0
 30
0.0
 11
1224.130243416688
 21
154.9999999999996
 31
0.0
  0
LINE
  5
2668
  8
SIZE
  6
CONTINUOUS
 62
    30
 10
87.88121214570857
 20
621.0
 30
0.0
 11
1224.130243416688
 21
620.9999999999995
 31
0.0
  0
LINE
  5
2669
  8
SIZE
  6
CONTINUOUS
 62
    30
 10
1209.130243416687
 20
164.9999999999997
 30
0.0
 11
1209.130243416687
 21
610.9999999999994
 31
0.0
  0
CIRCLE
  5
266A
  8
SIZE
  6
CONTINUOUS
 62
    30
 10
1209.130243416687
 20
154.9999999999996
 30
0.0
 40
5.0
  0
LINE
  5
266B
  8
SIZE
  6
CONTINUOUS
 62
    30
 10
1209.130243416687
 20
159.9999999999997
 30
0.0
 11
1209.130243416687
 21
164.9999999999997
 31
0.0
  0
CIRCLE
  5
266C
  8
SIZE
  6
CONTINUOUS
 62
    30
 10
1209.130243416687
 20
620.9999999999995
 30
0.0
 40
5.0
  0
LINE
  5
266D
  8
SIZE
  6
CONTINUOUS
 62
    30
 10
1209.130243416687
 20
615.9999999999994
 30
0.0
 11
1209.130243416687
 21
610.9999999999994
 31
0.0
  0
TEXT
  5
266E
  8
SIZE
  6
CONTINUOUS
 62
    30
 10
1194.130243416688
 20
336.5714285714284
 30
0.0
 40
40.0
  1
466
 50
90.0
 41
0.9
 72
     1
 11
1194.130243416688
 21
387.9999999999999
 31
0.0
  0
POINT
  5
2670
  8
DEFPOINTS
  6
CONTINUOUS
 62
     7
 10
67.88121214570856
 20
621.0
 30
0.0
  0
POINT
  5
2671
  8
DEFPOINTS
  6
CONTINUOUS
 62
     7
 10
1209.130243416687
 20
620.9999999999995
 30
0.0
  0
LINE
  5
2672
  8
NOTE
  6
CONTINUOUS
 62
     4
 10
912.000000000001
 20
-0.0000263606325532
 30
0.0
 11
1068.439857948916
 21
-272.3153053570513
 31
0.0
  0
LINE
  5
2673
  8
NOTE
  6
CONTINUOUS
 62
     4
 10
1068.439857948916
 20
-272.3153053570513
 30
0.0
 11
2060.800431854611
 21
-272.3153053570513
 31
0.0
  0
TEXT
  5
2675
  8
NOTE
  6
CONTINUOUS
 62
     4
 10
1093.286993012489
 20
-249.5142254949587
 30
0.0
 40
50.0
  1
2×4-14×20 長穴〈据付用穴〉
  0
LINE
  5
2676
  8
SIZE
  6
CONTINUOUS
 62
    30
 10
-152.0
 20
-58.29721884283208
 30
0.0
 11
-152.0
 21
-367.3153053570513
 31
0.0
  0
LINE
  5
2677
  8
SIZE
  6
CONTINUOUS
 62
    30
 10
-912.0000000000009
 20
-58.29721884283208
 30
0.0
 11
-912.0000000000009
 21
-367.3153053570513
 31
0.0
  0
LINE
  5
2678
  8
SIZE
  6
CONTINUOUS
 62
    30
 10
-162.0
 20
-352.3153053570513
 30
0.0
 11
-902.0000000000009
 21
-352.3153053570513
 31
0.0
  0
CIRCLE
  5
2679
  8
SIZE
  6
CONTINUOUS
 62
    30
 10
-152.0
 20
-352.3153053570513
 30
0.0
 40
5.0
  0
LINE
  5
267A
  8
SIZE
  6
CONTINUOUS
 62
    30
 10
-157.0
 20
-352.3153053570513
 30
0.0
 11
-162.0
 21
-352.3153053570513
 31
0.0
  0
CIRCLE
  5
267B
  8
SIZE
  6
CONTINUOUS
 62
    30
 10
-912.0000000000009
 20
-352.3153053570513
 30
0.0
 40
5.0
  0
LINE
  5
267C
  8
SIZE
  6
CONTINUOUS
 62
    30
 10
-907.0000000000008
 20
-352.3153053570513
 30
0.0
 11
-902.0000000000009
 21
-352.3153053570513
 31
0.0
  0
TEXT
  5
267D
  8
SIZE
  6
CONTINUOUS
 62
    30
 10
-583.4285714285721
 20
-337.3153053570513
 30
0.0
 40
40.0
  1
760
 41
0.9
 72
     1
 11
-532.0000000000007
 21
-337.3153053570513
 31
0.0
  0
POINT
  5
267E
  8
DEFPOINTS
  6
CONTINUOUS
 62
     7
 10
-152.0
 20
-38.29721884283208
 30
0.0
  0
POINT
  5
267F
  8
DEFPOINTS
  6
CONTINUOUS
 62
     7
 10
-912.0000000000009
 20
-38.29721884283208
 30
0.0
  0
POINT
  5
2680
  8
DEFPOINTS
  6
CONTINUOUS
 62
     7
 10
-912.0000000000009
 20
-352.3153053570513
 30
0.0
  0
LINE
  5
2681
  8
SIZE
  6
CONTINUOUS
 62
    30
 10
-989.0000000000002
 20
-16.79886494302084
 30
0.0
 11
-989.0000000000002
 21
-367.3153053570513
 31
0.0
  0
LINE
  5
2682
  8
SIZE
  6
CONTINUOUS
 62
    30
 10
-912.0000000000009
 20
-58.29721884283208
 30
0.0
 11
-912.0000000000009
 21
-367.3153053570513
 31
0.0
  0
LINE
  5
2683
  8
SIZE
  6
CONTINUOUS
 62
    30
 10
-979.0
 20
-352.3153053570513
 30
0.0
 11
-922.0000000000009
 21
-352.3153053570513
 31
0.0
  0
CIRCLE
  5
2684
  8
SIZE
  6
CONTINUOUS
 62
    30
 10
-989.0000000000002
 20
-352.3153053570513
 30
0.0
 40
5.0
  0
LINE
  5
2685
  8
SIZE
  6
CONTINUOUS
 62
    30
 10
-984.0000000000001
 20
-352.3153053570513
 30
0.0
 11
-979.0
 21
-352.3153053570513
 31
0.0
  0
CIRCLE
  5
2686
  8
SIZE
  6
CONTINUOUS
 62
    30
 10
-912.0000000000009
 20
-352.3153053570513
 30
0.0
 40
5.0
  0
LINE
  5
2687
  8
SIZE
  6
CONTINUOUS
 62
    30
 10
-917.0000000000008
 20
-352.3153053570513
 30
0.0
 11
-922.0000000000009
 21
-352.3153053570513
 31
0.0
  0
TEXT
  5
2688
  8
SIZE
  6
CONTINUOUS
 62
    30
 10
-984.7857142857148
 20
-337.3153053570513
 30
0.0
 40
40.0
  1
77
 41
0.9
 72
     1
 11
-950.5000000000005
 21
-337.3153053570513
 31
0.0
  0
POINT
  5
2689
  8
DEFPOINTS
  6
CONTINUOUS
 62
     7
 10
-989.0000000000002
 20
3.201135056979169
 30
0.0
  0
POINT
  5
268A
  8
DEFPOINTS
  6
CONTINUOUS
 62
     7
 10
-912.0000000000009
 20
-38.29721884283208
 30
0.0
  0
POINT
  5
268B
  8
DEFPOINTS
  6
CONTINUOUS
 62
     7
 10
-912.0000000000009
 20
-352.3153053570513
 30
0.0
  0
LINE
  5
268C
  8
SIZE
  6
CONTINUOUS
 62
    30
 10
152.0
 20
-58.29721884283208
 30
0.0
 11
152.0
 21
-367.3153053570513
 31
0.0
  0
LINE
  5
268D
  8
SIZE
  6
CONTINUOUS
 62
    30
 10
912.000000000001
 20
-58.29724520345645
 30
0.0
 11
912.000000000001
 21
-367.3153053570513
 31
0.0
  0
LINE
  5
268E
  8
SIZE
  6
CONTINUOUS
 62
    30
 10
162.0
 20
-352.3153053570513
 30
0.0
 11
902.0000000000008
 21
-352.3153053570513
 31
0.0
  0
CIRCLE
  5
268F
  8
SIZE
  6
CONTINUOUS
 62
    30
 10
152.0
 20
-352.3153053570513
 30
0.0
 40
5.0
  0
LINE
  5
2690
  8
SIZE
  6
CONTINUOUS
 62
    30
 10
157.0
 20
-352.3153053570513
 30
0.0
 11
162.0
 21
-352.3153053570513
 31
0.0
  0
CIRCLE
  5
2691
  8
SIZE
  6
CONTINUOUS
 62
    30
 10
912.000000000001
 20
-352.3153053570513
 30
0.0
 40
5.0
  0
LINE
  5
2692
  8
SIZE
  6
CONTINUOUS
 62
    30
 10
907.0000000000011
 20
-352.3153053570513
 30
0.0
 11
902.000000000001
 21
-352.3153053570513
 31
0.0
  0
TEXT
  5
2693
  8
SIZE
  6
CONTINUOUS
 62
    30
 10
519.0714285714304
 20
-337.3153053570513
 30
0.0
 40
40.0
  1
760
 41
0.9
 72
     1
 11
570.5000000000018
 21
-337.3153053570513
 31
0.0
  0
POINT
  5
2694
  8
DEFPOINTS
  6
CONTINUOUS
 62
     7
 10
152.0
 20
-38.29721884283208
 30
0.0
  0
POINT
  5
2695
  8
DEFPOINTS
  6
CONTINUOUS
 62
     7
 10
912.000000000001
 20
-38.29724520345644
 30
0.0
  0
POINT
  5
2696
  8
DEFPOINTS
  6
CONTINUOUS
 62
     7
 10
912.000000000001
 20
-352.3153053570513
 30
0.0
  0
LINE
  5
2697
  8
SIZE
  6
CONTINUOUS
 62
    30
 10
-152.0
 20
-58.29721884283208
 30
0.0
 11
-152.0
 21
-367.3153053570513
 31
0.0
  0
LINE
  5
2698
  8
SIZE
  6
CONTINUOUS
 62
    30
 10
152.0
 20
-58.29721884283208
 30
0.0
 11
152.0
 21
-367.3153053570513
 31
0.0
  0
LINE
  5
2699
  8
SIZE
  6
CONTINUOUS
 62
    30
 10
-142.0
 20
-352.3153053570513
 30
0.0
 11
142.0
 21
-352.3153053570513
 31
0.0
  0
CIRCLE
  5
269A
  8
SIZE
  6
CONTINUOUS
 62
    30
 10
-152.0
 20
-352.3153053570513
 30
0.0
 40
5.0
  0
LINE
  5
269B
  8
SIZE
  6
CONTINUOUS
 62
    30
 10
-147.0
 20
-352.3153053570513
 30
0.0
 11
-142.0
 21
-352.3153053570513
 31
0.0
  0
CIRCLE
  5
269C
  8
SIZE
  6
CONTINUOUS
 62
    30
 10
152.0
 20
-352.3153053570513
 30
0.0
 40
5.0
  0
LINE
  5
269D
  8
SIZE
  6
CONTINUOUS
 62
    30
 10
147.0
 20
-352.3153053570513
 30
0.0
 11
142.0
 21
-352.3153053570513
 31
0.0
  0
TEXT
  5
269E
  8
SIZE
  6
CONTINUOUS
 62
    30
 10
-52.28571428571428
 20
-337.3153053570513
 30
0.0
 40
40.0
  1
304
 41
0.9
 72
     1
 11
0.0
 21
-337.3153053570513
 31
0.0
  0
POINT
  5
269F
  8
DEFPOINTS
  6
CONTINUOUS
 62
     7
 10
-152.0
 20
-38.29721884283208
 30
0.0
  0
POINT
  5
26A0
  8
DEFPOINTS
  6
CONTINUOUS
 62
     7
 10
152.0
 20
-38.29721884283208
 30
0.0
  0
POINT
  5
26A1
  8
DEFPOINTS
  6
CONTINUOUS
 62
     7
 10
152.0
 20
-352.3153053570513
 30
0.0
  0
LINE
  5
26A2
  8
SIZE
  6
CONTINUOUS
 62
    30
 10
912.000000000001
 20
-58.29724520345645
 30
0.0
 11
912.000000000001
 21
-367.3153053570513
 31
0.0
  0
LINE
  5
26A3
  8
SIZE
  6
CONTINUOUS
 62
    30
 10
988.9999999999999
 20
-16.79886494302084
 30
0.0
 11
988.9999999999999
 21
-367.3153053570513
 31
0.0
  0
LINE
  5
26A4
  8
SIZE
  6
CONTINUOUS
 62
    30
 10
922.0000000000009
 20
-352.3153053570513
 30
0.0
 11
979.0000000000001
 21
-352.3153053570513
 31
0.0
  0
CIRCLE
  5
26A5
  8
SIZE
  6
CONTINUOUS
 62
    30
 10
912.000000000001
 20
-352.3153053570513
 30
0.0
 40
5.0
  0
LINE
  5
26A6
  8
SIZE
  6
CONTINUOUS
 62
    30
 10
917.000000000001
 20
-352.3153053570513
 30
0.0
 11
922.0000000000009
 21
-352.3153053570513
 31
0.0
  0
CIRCLE
  5
26A7
  8
SIZE
  6
CONTINUOUS
 62
    30
 10
988.9999999999999
 20
-352.3153053570513
 30
0.0
 40
5.0
  0
LINE
  5
26A8
  8
SIZE
  6
CONTINUOUS
 62
    30
 10
983.9999999999998
 20
-352.3153053570513
 30
0.0
 11
978.9999999999999
 21
-352.3153053570513
 31
0.0
  0
TEXT
  5
26A9
  8
SIZE
  6
CONTINUOUS
 62
    30
 10
916.214285714286
 20
-337.3153053570513
 30
0.0
 40
40.0
  1
77
 41
0.9
 72
     1
 11
950.5000000000003
 21
-337.3153053570513
 31
0.0
  0
POINT
  5
26AA
  8
DEFPOINTS
  6
CONTINUOUS
 62
     7
 10
912.000000000001
 20
-38.29724520345644
 30
0.0
  0
POINT
  5
26AB
  8
DEFPOINTS
  6
CONTINUOUS
 62
     7
 10
988.9999999999999
 20
3.201135056979169
 30
0.0
  0
POINT
  5
26AC
  8
DEFPOINTS
  6
CONTINUOUS
 62
     7
 10
988.9999999999999
 20
-352.3153053570513
 30
0.0
  0
TEXT
  5
26AD
  8
SIZE
  6
CONTINUOUS
 62
    30
 10
-690.4703795136281
 20
-404.4254368582933
 30
0.0
 40
39.99999999999999
  1
（据付ピッチ）
 50
0.0000024148365395
  7
STANDARD1
  0
TEXT
  5
26AE
  8
SIZE
  6
CONTINUOUS
 62
    30
 10
-160.431749678135
 20
-404.4254368582933
 30
0.0
 40
39.99999999999999
  1
（据付ピッチ）
 50
0.0000024148365395
  7
STANDARD1
  0
TEXT
  5
26AF
  8
SIZE
  6
CONTINUOUS
 62
    30
 10
410.8015492438476
 20
-404.4254368582933
 30
0.0
 40
39.99999999999999
  1
（据付ピッチ）
 50
0.0000024148365395
  7
STANDARD1
  0
LINE
  5
26B0
  8
OUTLINE
  6
CONTINUOUS
 62
     3
 10
988.9999999999994
 20
1369.98576891547
 30
0.0
 11
988.9999999999994
 21
58.52075026035705
 31
0.0
  0
LINE
  5
26B1
  8
OUTLINE
  6
CONTINUOUS
 62
     3
 10
-989.0000000000002
 20
58.52075026035705
 30
0.0
 11
-989.0000000000002
 21
1369.98576891547
 31
0.0
  0
LINE
  5
26B3
  8
OUTLINE
  6
CONTINUOUS
 62
     3
 10
-985.7988649430229
 20
0.0
 30
0.0
 11
985.7988649430188
 21
0.0
 31
0.0
  0
LINE
  5
26B4
  8
OUTLINE
  6
CONTINUOUS
 62
     3
 10
988.9999999999994
 20
3.201135056979169
 30
0.0
 11
985.7988649430188
 21
3.201135056979169
 31
0.0
  0
LINE
  5
26B5
  8
OUTLINE
  6
CONTINUOUS
 62
     3
 10
-989.0000000000002
 20
50.31784167686056
 30
0.0
 11
-989.0000000000002
 21
3.201135056979169
 31
0.0
  0
LINE
  5
26B6
  8
OUTLINE
  6
CONTINUOUS
 62
     3
 10
-985.7988649430229
 20
3.201135056979169
 30
0.0
 11
-985.7988649430229
 21
0.0
 31
0.0
  0
LINE
  5
26B7
  8
OUTLINE
  6
CONTINUOUS
 62
     3
 10
-989.0000000000002
 20
50.31784167686056
 30
0.0
 11
-985.7988649430229
 21
50.31784167686056
 31
0.0
  0
LINE
  5
26B8
  8
OUTLINE
  6
CONTINUOUS
 62
     3
 10
-985.7988649430229
 20
53.99999999999996
 30
0.0
 11
-985.7988649430229
 21
50.31784167686056
 31
0.0
  0
LINE
  5
26B9
  8
OUTLINE
  6
CONTINUOUS
 62
     3
 10
-987.9996452946991
 20
53.99999999999996
 30
0.0
 11
-987.9996452946982
 21
58.52075026035705
 31
0.0
  0
LINE
  5
26BA
  8
OUTLINE
  6
CONTINUOUS
 62
     3
 10
988.9999999999994
 20
50.31784167686056
 30
0.0
 11
988.9999999999994
 21
3.201135056979169
 31
0.0
  0
LINE
  5
26BB
  8
OUTLINE
  6
CONTINUOUS
 62
     3
 10
985.7988649430188
 20
3.201135056979169
 30
0.0
 11
985.7988649430188
 21
0.0
 31
0.0
  0
LINE
  5
26BC
  8
OUTLINE
  6
CONTINUOUS
 62
     3
 10
988.9999999999994
 20
50.31784167686056
 30
0.0
 11
985.7988649430188
 21
50.31784167686056
 31
0.0
  0
LINE
  5
26BD
  8
OUTLINE
  6
CONTINUOUS
 62
     3
 10
985.7988649430188
 20
53.99999999999996
 30
0.0
 11
985.7988649430188
 21
50.31784167686056
 31
0.0
  0
LINE
  5
26BE
  8
OUTLINE
  6
CONTINUOUS
 62
     3
 10
987.9996452946868
 20
53.99999999999996
 30
0.0
 11
987.9996452946868
 21
58.52075026035705
 31
0.0
  0
LINE
  5
26C0
  8
OUTLINE
  6
CONTINUOUS
 62
     3
 10
-71.67473523514514
 20
1409.999957127667
 30
0.0
 11
-992.5012414685663
 21
1409.999957127667
 31
0.0
  0
LINE
  5
26C1
  8
OUTLINE
  6
CONTINUOUS
 62
     3
 10
-897.9896081389662
 20
1438.701562701032
 30
0.0
 11
-893.0966160412526
 21
1549.964486597148
 31
0.0
  0
LINE
  5
26C2
  8
OUTLINE
  6
CONTINUOUS
 62
     3
 10
-904.7796443182662
 20
1420.964230548916
 30
0.0
 11
-906.243048925869
 21
1419.31032982385
 31
0.0
  0
LINE
  5
26C3
  8
OUTLINE
  6
CONTINUOUS
 62
     3
 10
-925.7650996169315
 20
1410.081214511307
 30
0.0
 11
-927.9719249691763
 21
1409.999957127667
 31
0.0
  0
LINE
  5
26C4
  8
OUTLINE
  6
CONTINUOUS
 62
     3
 10
-923.5701499041157
 20
1410.324529357206
 30
0.0
 11
-925.7650996169315
 21
1410.081214511307
 31
0.0
  0
LINE
  5
26C5
  8
OUTLINE
  6
CONTINUOUS
 62
     3
 10
-921.3990372148542
 20
1410.728586913451
 30
0.0
 11
-923.5701499041157
 21
1410.324529357206
 31
0.0
  0
LINE
  5
26C6
  8
OUTLINE
  6
CONTINUOUS
 62
     3
 10
-919.2635085715295
 20
1411.291214981284
 30
0.0
 11
-921.3990372148542
 21
1410.728586913451
 31
0.0
  0
LINE
  5
26C7
  8
OUTLINE
  6
CONTINUOUS
 62
     3
 10
-917.1751395071652
 20
1412.00935533344
 30
0.0
 11
-919.2635085715295
 21
1411.291214981284
 31
0.0
  0
LINE
  5
26C8
  8
OUTLINE
  6
CONTINUOUS
 62
     3
 10
-915.1452340299431
 20
1412.879120877362
 30
0.0
 11
-917.1751395071652
 21
1412.00935533344
 31
0.0
  0
LINE
  5
26C9
  8
OUTLINE
  6
CONTINUOUS
 62
     3
 10
-913.1847817508343
 20
1413.895809945916
 30
0.0
 11
-915.1452340299431
 21
1412.879120877362
 31
0.0
  0
LINE
  5
26CA
  8
OUTLINE
  6
CONTINUOUS
 62
     3
 10
-911.3044150112756
 20
1415.05390629747
 30
0.0
 11
-913.1847817508343
 21
1413.895809945916
 31
0.0
  0
LINE
  5
26CB
  8
OUTLINE
  6
CONTINUOUS
 62
     3
 10
-909.5142945569086
 20
1416.347150569712
 30
0.0
 11
-911.3044150112756
 21
1415.05390629747
 31
0.0
  0
LINE
  5
26CC
  8
OUTLINE
  6
CONTINUOUS
 62
     3
 10
-907.8241238283872
 20
1417.768511698128
 30
0.0
 11
-909.5142945569086
 21
1416.347150569712
 31
0.0
  0
LINE
  5
26CD
  8
OUTLINE
  6
CONTINUOUS
 62
     3
 10
-906.243048925869
 20
1419.31032982385
 30
0.0
 11
-907.8241238283872
 21
1417.768511698128
 31
0.0
  0
LINE
  5
26CE
  8
OUTLINE
  6
CONTINUOUS
 62
     3
 10
-992.5012414685663
 20
1409.999957127667
 30
0.0
 11
-992.5012414685663
 21
1369.98576891547
 31
0.0
  0
LINE
  5
26CF
  8
OUTLINE
  6
CONTINUOUS
 62
     3
 10
-903.4418128077372
 20
1422.721267844103
 30
0.0
 11
-904.7796443182662
 21
1420.964230548916
 31
0.0
  0
LINE
  5
26D0
  8
OUTLINE
  6
CONTINUOUS
 62
     3
 10
-902.2368284020622
 20
1424.571909758131
 30
0.0
 11
-903.4418128077372
 21
1422.721267844103
 31
0.0
  0
LINE
  5
26D1
  8
OUTLINE
  6
CONTINUOUS
 62
     3
 10
-901.1711934068436
 20
1426.506152743966
 30
0.0
 11
-902.2368284020622
 21
1424.571909758131
 31
0.0
  0
LINE
  5
26D2
  8
OUTLINE
  6
CONTINUOUS
 62
     3
 10
-900.2506812978056
 20
1428.513521658756
 30
0.0
 11
-901.1711934068436
 21
1426.506152743966
 31
0.0
  0
LINE
  5
26D3
  8
OUTLINE
  6
CONTINUOUS
 62
     3
 10
-899.4802795576829
 20
1430.583112636224
 30
0.0
 11
-900.2506812978056
 21
1428.513521658756
 31
0.0
  0
LINE
  5
26D4
  8
OUTLINE
  6
CONTINUOUS
 62
     3
 10
-898.86416109469
 20
1432.703735994433
 30
0.0
 11
-899.4802795576829
 21
1430.583112636224
 31
0.0
  0
LINE
  5
26D5
  8
OUTLINE
  6
CONTINUOUS
 62
     3
 10
-898.4056699516871
 20
1434.863901945065
 30
0.0
 11
-898.86416109469
 21
1432.703735994433
 31
0.0
  0
LINE
  5
26D6
  8
OUTLINE
  6
CONTINUOUS
 62
     3
 10
-898.1072498523125
 20
1437.051892047294
 30
0.0
 11
-898.4056699516871
 21
1434.863901945065
 31
0.0
  0
LINE
  5
26D7
  8
OUTLINE
  6
CONTINUOUS
 62
     3
 10
-897.9896081389662
 20
1438.701562701032
 30
0.0
 11
-898.1072498523125
 21
1437.051892047294
 31
0.0
  0
LINE
  5
26DB
  8
OUTLINE
  6
CONTINUOUS
 62
     3
 10
-166.0103918610323
 20
1438.701562701032
 30
0.0
 11
-170.9033839587491
 21
1549.964486597148
 31
0.0
  0
LINE
  5
26DC
  8
OUTLINE
  6
CONTINUOUS
 62
     3
 10
166.01039186103
 20
1438.701562701032
 30
0.0
 11
170.9033839587473
 21
1549.964486597148
 31
0.0
  0
LINE
  5
26DD
  8
OUTLINE
  6
CONTINUOUS
 62
     3
 10
-76.86740502100314
 20
1356.981157746504
 30
0.0
 11
76.86740502099906
 21
1356.981157746504
 31
0.0
  0
LINE
  5
26DE
  8
OUTLINE
  6
CONTINUOUS
 62
     3
 10
-157.7569653649072
 20
1419.31032982385
 30
0.0
 11
-159.2203699725207
 21
1420.964230548916
 31
0.0
  0
LINE
  5
26DF
  8
OUTLINE
  6
CONTINUOUS
 62
     3
 10
-156.1758904623849
 20
1417.768525988915
 30
0.0
 11
-157.7569653649072
 21
1419.31032982385
 31
0.0
  0
LINE
  5
26E0
  8
OUTLINE
  6
CONTINUOUS
 62
     3
 10
-154.4857197338672
 20
1416.347150569712
 30
0.0
 11
-156.1758904623849
 21
1417.768525988915
 31
0.0
  0
LINE
  5
26E1
  8
OUTLINE
  6
CONTINUOUS
 62
     3
 10
-152.6955992795112
 20
1415.053920588256
 30
0.0
 11
-154.4857197338672
 21
1416.347150569712
 31
0.0
  0
LINE
  5
26E2
  8
OUTLINE
  6
CONTINUOUS
 62
     3
 10
-150.8152325399417
 20
1413.895824236703
 30
0.0
 11
-152.6955992795112
 21
1415.053920588256
 31
0.0
  0
LINE
  5
26E3
  8
OUTLINE
  6
CONTINUOUS
 62
     3
 10
-148.8547802608293
 20
1412.879135168136
 30
0.0
 11
-150.8152325399417
 21
1413.895824236703
 31
0.0
  0
LINE
  5
26E4
  8
OUTLINE
  6
CONTINUOUS
 62
     3
 10
-146.8248747836107
 20
1412.00935533344
 30
0.0
 11
-148.8547802608293
 21
1412.879135168136
 31
0.0
  0
LINE
  5
26E5
  8
OUTLINE
  6
CONTINUOUS
 62
     3
 10
-144.7365057192576
 20
1411.291214981284
 30
0.0
 11
-146.8248747836107
 21
1412.00935533344
 31
0.0
  0
LINE
  5
26E6
  8
OUTLINE
  6
CONTINUOUS
 62
     3
 10
-142.6009770759331
 20
1410.728586913451
 30
0.0
 11
-144.7365057192576
 21
1411.291214981284
 31
0.0
  0
LINE
  5
26E7
  8
OUTLINE
  6
CONTINUOUS
 62
     3
 10
-140.4298643866561
 20
1410.324529357206
 30
0.0
 11
-142.6009770759331
 21
1410.728586913451
 31
0.0
  0
LINE
  5
26E8
  8
OUTLINE
  6
CONTINUOUS
 62
     3
 10
-138.2349289646291
 20
1410.081214511307
 30
0.0
 11
-140.4298643866561
 21
1410.324529357206
 31
0.0
  0
LINE
  5
26E9
  8
OUTLINE
  6
CONTINUOUS
 62
     3
 10
-136.0280750308077
 20
1409.999957127667
 30
0.0
 11
-138.2349289646291
 21
1410.081214511307
 31
0.0
  0
LINE
  5
26EA
  8
OUTLINE
  6
CONTINUOUS
 62
     3
 10
-76.86740502100314
 20
1356.981157746504
 30
0.0
 11
-76.86740502100314
 21
1369.98576891547
 31
0.0
  0
LINE
  5
26EB
  8
OUTLINE
  6
CONTINUOUS
 62
     3
 10
-71.67473523514514
 20
1369.98576891547
 30
0.0
 11
-71.67473523514514
 21
1409.999957127667
 31
0.0
  0
LINE
  5
26EC
  8
OUTLINE
  6
CONTINUOUS
 62
     3
 10
-75.9105514546029
 20
1369.98576891547
 30
0.0
 11
-75.34466508858917
 21
1369.98576891547
 31
0.0
  0
LINE
  5
26ED
  8
OUTLINE
  6
CONTINUOUS
 62
     3
 10
-165.8927501476857
 20
1437.051892047294
 30
0.0
 11
-166.0103918610323
 21
1438.701562701032
 31
0.0
  0
LINE
  5
26EE
  8
OUTLINE
  6
CONTINUOUS
 62
     3
 10
-165.594344339089
 20
1434.863901945065
 30
0.0
 11
-165.8927501476857
 21
1437.051892047294
 31
0.0
  0
LINE
  5
26EF
  8
OUTLINE
  6
CONTINUOUS
 62
     3
 10
-165.1358389053123
 20
1432.703750285206
 30
0.0
 11
-165.594344339089
 21
1434.863901945065
 31
0.0
  0
LINE
  5
26F0
  8
OUTLINE
  6
CONTINUOUS
 62
     3
 10
-164.519720442305
 20
1430.583126926997
 30
0.0
 11
-165.1358389053123
 21
1432.703750285206
 31
0.0
  0
LINE
  5
26F1
  8
OUTLINE
  6
CONTINUOUS
 62
     3
 10
-163.7493187021966
 20
1428.513521658756
 30
0.0
 11
-164.519720442305
 21
1430.583126926997
 31
0.0
  0
LINE
  5
26F2
  8
OUTLINE
  6
CONTINUOUS
 62
     3
 10
-162.8288208839287
 20
1426.50616703474
 30
0.0
 11
-163.7493187021966
 21
1428.513521658756
 31
0.0
  0
LINE
  5
26F3
  8
OUTLINE
  6
CONTINUOUS
 62
     3
 10
-161.76318588871
 20
1424.571924048917
 30
0.0
 11
-162.8288208839287
 21
1426.50616703474
 31
0.0
  0
LINE
  5
26F4
  8
OUTLINE
  6
CONTINUOUS
 62
     3
 10
-160.5581871922615
 20
1422.721267844103
 30
0.0
 11
-161.76318588871
 21
1424.571924048917
 31
0.0
  0
LINE
  5
26F5
  8
OUTLINE
  6
CONTINUOUS
 62
     3
 10
-159.2203699725207
 20
1420.964230548916
 30
0.0
 11
-160.5581871922615
 21
1422.721267844103
 31
0.0
  0
LINE
  5
26F6
  8
OUTLINE
  6
CONTINUOUS
 62
     3
 10
159.2203556817374
 20
1420.964230548916
 30
0.0
 11
157.7569510741202
 21
1419.31032982385
 31
0.0
  0
LINE
  5
26F7
  8
OUTLINE
  6
CONTINUOUS
 62
     3
 10
146.8248604928345
 20
1412.00935533344
 30
0.0
 11
144.7364914284706
 21
1411.291214981284
 31
0.0
  0
LINE
  5
26F8
  8
OUTLINE
  6
CONTINUOUS
 62
     3
 10
76.86740502099906
 20
1356.981157746504
 30
0.0
 11
76.86740502099906
 21
1369.98576891547
 31
0.0
  0
LINE
  5
26F9
  8
OUTLINE
  6
CONTINUOUS
 62
     3
 10
138.2349003830575
 20
1410.081214511307
 30
0.0
 11
136.0280750308126
 21
1409.999957127667
 31
0.0
  0
LINE
  5
26FA
  8
OUTLINE
  6
CONTINUOUS
 62
     3
 10
140.4298500958837
 20
1410.324529357206
 30
0.0
 11
138.2349003830575
 21
1410.081214511307
 31
0.0
  0
LINE
  5
26FB
  8
OUTLINE
  6
CONTINUOUS
 62
     3
 10
142.6009627851497
 20
1410.728586913451
 30
0.0
 11
140.4298500958837
 21
1410.324529357206
 31
0.0
  0
LINE
  5
26FC
  8
OUTLINE
  6
CONTINUOUS
 62
     3
 10
144.7364914284706
 20
1411.291214981284
 30
0.0
 11
142.6009627851497
 21
1410.728586913451
 31
0.0
  0
LINE
  5
26FD
  8
OUTLINE
  6
CONTINUOUS
 62
     3
 10
71.67473523513377
 20
1409.999957127667
 30
0.0
 11
71.67473523513377
 21
1369.98576891547
 31
0.0
  0
LINE
  5
26FE
  8
OUTLINE
  6
CONTINUOUS
 62
     3
 10
148.8547659700568
 20
1412.879120877362
 30
0.0
 11
146.8248604928345
 21
1412.00935533344
 31
0.0
  0
LINE
  5
26FF
  8
OUTLINE
  6
CONTINUOUS
 62
     3
 10
150.8152182491655
 20
1413.895809945916
 30
0.0
 11
148.8547659700568
 21
1412.879120877362
 31
0.0
  0
LINE
  5
2700
  8
OUTLINE
  6
CONTINUOUS
 62
     3
 10
152.6955849887279
 20
1415.05390629747
 30
0.0
 11
150.8152182491655
 21
1413.895809945916
 31
0.0
  0
LINE
  5
2701
  8
OUTLINE
  6
CONTINUOUS
 62
     3
 10
154.4857054430947
 20
1416.347150569712
 30
0.0
 11
152.6955849887279
 21
1415.05390629747
 31
0.0
  0
LINE
  5
2702
  8
OUTLINE
  6
CONTINUOUS
 62
     3
 10
156.1758761716126
 20
1417.768511698128
 30
0.0
 11
154.4857054430947
 21
1416.347150569712
 31
0.0
  0
LINE
  5
2703
  8
OUTLINE
  6
CONTINUOUS
 62
     3
 10
157.7569510741202
 20
1419.31032982385
 30
0.0
 11
156.1758761716126
 21
1417.768511698128
 31
0.0
  0
LINE
  5
2704
  8
OUTLINE
  6
CONTINUOUS
 62
     3
 10
160.5581871922666
 20
1422.721267844103
 30
0.0
 11
159.2203556817374
 21
1420.964230548916
 31
0.0
  0
LINE
  5
2705
  8
OUTLINE
  6
CONTINUOUS
 62
     3
 10
161.7631715979376
 20
1424.571909758131
 30
0.0
 11
160.5581871922666
 21
1422.721267844103
 31
0.0
  0
LINE
  5
2706
  8
OUTLINE
  6
CONTINUOUS
 62
     3
 10
162.8288065931526
 20
1426.506152743966
 30
0.0
 11
161.7631715979376
 21
1424.571909758131
 31
0.0
  0
LINE
  5
2707
  8
OUTLINE
  6
CONTINUOUS
 62
     3
 10
163.7493187021944
 20
1428.513521658756
 30
0.0
 11
162.8288065931526
 21
1426.506152743966
 31
0.0
  0
LINE
  5
2708
  8
OUTLINE
  6
CONTINUOUS
 62
     3
 10
164.5197204423064
 20
1430.583112636224
 30
0.0
 11
163.7493187021944
 21
1428.513521658756
 31
0.0
  0
LINE
  5
2709
  8
OUTLINE
  6
CONTINUOUS
 62
     3
 10
165.13583890531
 20
1432.703735994433
 30
0.0
 11
164.5197204423064
 21
1430.583112636224
 31
0.0
  0
LINE
  5
270A
  8
OUTLINE
  6
CONTINUOUS
 62
     3
 10
165.5943300483165
 20
1434.863901945065
 30
0.0
 11
165.13583890531
 21
1432.703735994433
 31
0.0
  0
LINE
  5
270B
  8
OUTLINE
  6
CONTINUOUS
 62
     3
 10
165.8927501476871
 20
1437.051892047294
 30
0.0
 11
165.5943300483165
 21
1434.863901945065
 31
0.0
  0
LINE
  5
270C
  8
OUTLINE
  6
CONTINUOUS
 62
     3
 10
166.01039186103
 20
1438.701562701032
 30
0.0
 11
165.8927501476871
 21
1437.051892047294
 31
0.0
  0
LINE
  5
270F
  8
OUTLINE
  6
CONTINUOUS
 62
     3
 10
897.9896081389675
 20
1438.701562701032
 30
0.0
 11
893.0966160412543
 21
1549.964486597148
 31
0.0
  0
LINE
  5
2710
  8
OUTLINE
  6
CONTINUOUS
 62
     3
 10
906.2430346350925
 20
1419.31032982385
 30
0.0
 11
904.7796300274754
 21
1420.964230548916
 31
0.0
  0
LINE
  5
2711
  8
OUTLINE
  6
CONTINUOUS
 62
     3
 10
907.8241095376039
 20
1417.768525988915
 30
0.0
 11
906.2430346350925
 21
1419.31032982385
 31
0.0
  0
LINE
  5
2712
  8
OUTLINE
  6
CONTINUOUS
 62
     3
 10
909.5142802661214
 20
1416.347150569712
 30
0.0
 11
907.8241095376039
 21
1417.768525988915
 31
0.0
  0
LINE
  5
2713
  8
OUTLINE
  6
CONTINUOUS
 62
     3
 10
911.304400720485
 20
1415.053920588256
 30
0.0
 11
909.5142802661214
 21
1416.347150569712
 31
0.0
  0
LINE
  5
2714
  8
OUTLINE
  6
CONTINUOUS
 62
     3
 10
913.1847674600474
 20
1413.895824236703
 30
0.0
 11
911.304400720485
 21
1415.053920588256
 31
0.0
  0
LINE
  5
2715
  8
OUTLINE
  6
CONTINUOUS
 62
     3
 10
915.1452197391595
 20
1412.879135168136
 30
0.0
 11
913.1847674600474
 21
1413.895824236703
 31
0.0
  0
LINE
  5
2716
  8
OUTLINE
  6
CONTINUOUS
 62
     3
 10
917.1751252163925
 20
1412.00935533344
 30
0.0
 11
915.1452197391595
 21
1412.879135168136
 31
0.0
  0
LINE
  5
2717
  8
OUTLINE
  6
CONTINUOUS
 62
     3
 10
919.2634942807459
 20
1411.291214981284
 30
0.0
 11
917.1751252163925
 21
1412.00935533344
 31
0.0
  0
LINE
  5
2718
  8
OUTLINE
  6
CONTINUOUS
 62
     3
 10
921.3990229240632
 20
1410.728586913451
 30
0.0
 11
919.2634942807459
 21
1411.291214981284
 31
0.0
  0
LINE
  5
2719
  8
OUTLINE
  6
CONTINUOUS
 62
     3
 10
923.5701356133328
 20
1410.324529357206
 30
0.0
 11
921.3990229240632
 21
1410.728586913451
 31
0.0
  0
LINE
  5
271A
  8
OUTLINE
  6
CONTINUOUS
 62
     3
 10
925.7650710353707
 20
1410.081214511307
 30
0.0
 11
923.5701356133328
 21
1410.324529357206
 31
0.0
  0
LINE
  5
271B
  8
OUTLINE
  6
CONTINUOUS
 62
     3
 10
927.9719249691775
 20
1409.999957127667
 30
0.0
 11
925.7650710353707
 21
1410.081214511307
 31
0.0
  0
LINE
  5
271C
  8
OUTLINE
  6
CONTINUOUS
 62
     3
 10
898.1072498523142
 20
1437.051892047294
 30
0.0
 11
897.9896081389675
 21
1438.701562701032
 31
0.0
  0
LINE
  5
271D
  8
OUTLINE
  6
CONTINUOUS
 62
     3
 10
898.4056556609108
 20
1434.863901945065
 30
0.0
 11
898.1072498523142
 21
1437.051892047294
 31
0.0
  0
LINE
  5
271E
  8
OUTLINE
  6
CONTINUOUS
 62
     3
 10
898.8641610946914
 20
1432.703750285206
 30
0.0
 11
898.4056556609108
 21
1434.863901945065
 31
0.0
  0
LINE
  5
271F
  8
OUTLINE
  6
CONTINUOUS
 62
     3
 10
899.480279557684
 20
1430.583126926997
 30
0.0
 11
898.8641610946914
 21
1432.703750285206
 31
0.0
  0
LINE
  5
2720
  8
OUTLINE
  6
CONTINUOUS
 62
     3
 10
900.2506812978069
 20
1428.513521658756
 30
0.0
 11
899.480279557684
 21
1430.583126926997
 31
0.0
  0
LINE
  5
2721
  8
OUTLINE
  6
CONTINUOUS
 62
     3
 10
901.1711791160745
 20
1426.50616703474
 30
0.0
 11
900.2506812978069
 21
1428.513521658756
 31
0.0
  0
LINE
  5
2722
  8
OUTLINE
  6
CONTINUOUS
 62
     3
 10
902.2368141112898
 20
1424.571924048917
 30
0.0
 11
901.1711791160745
 21
1426.50616703474
 31
0.0
  0
LINE
  5
2723
  8
OUTLINE
  6
CONTINUOUS
 62
     3
 10
903.4418128077343
 20
1422.721267844103
 30
0.0
 11
902.2368141112898
 21
1424.571924048917
 31
0.0
  0
LINE
  5
2724
  8
OUTLINE
  6
CONTINUOUS
 62
     3
 10
904.7796300274754
 20
1420.964230548916
 30
0.0
 11
903.4418128077343
 21
1422.721267844103
 31
0.0
  0
LINE
  5
2725
  8
OUTLINE
  6
CONTINUOUS
 62
     3
 10
992.5012414685659
 20
1369.98576891547
 30
0.0
 11
992.5012414685659
 21
1409.999957127667
 31
0.0
  0
LINE
  5
2727
  8
OUTLINE
  6
CONTINUOUS
 62
     3
 10
71.674735235134
 20
1409.999957127667
 30
0.0
 11
992.5012414685659
 21
1409.999957127667
 31
0.0
  0
LINE
  5
2729
  8
OUTLINE
  6
CONTINUOUS
 62
     3
 10
-987.9996452946982
 20
58.52075026035705
 30
0.0
 11
-989.0000000000002
 21
58.52075026035705
 31
0.0
  0
LINE
  5
272A
  8
OUTLINE
  6
CONTINUOUS
 62
     3
 10
-985.7988649430229
 20
3.201135056979169
 30
0.0
 11
-989.0000000000002
 21
3.201135056979169
 31
0.0
  0
LINE
  5
272B
  8
OUTLINE
  6
CONTINUOUS
 62
     3
 10
987.9996452946868
 20
58.52075026035705
 30
0.0
 11
988.9999999999994
 21
58.52075026035705
 31
0.0
  0
LINE
  5
272C
  8
OUTLINE
  6
CONTINUOUS
 62
     3
 10
-987.9996452946978
 20
53.99999999999996
 30
0.0
 11
987.9996452946868
 21
53.99999999999996
 31
0.0
  0
LINE
  5
272D
  8
OUTLINE
  6
CONTINUOUS
 62
     3
 10
-76.86740502100314
 20
1369.98576891547
 30
0.0
 11
-71.67473523514514
 21
1369.98576891547
 31
0.0
  0
LINE
  5
272E
  8
OUTLINE
  6
CONTINUOUS
 62
     3
 10
76.86740502099906
 20
1369.98576891547
 30
0.0
 11
71.67473523513377
 21
1369.98576891547
 31
0.0
  0
LINE
  5
272F
  8
OUTLINE
  6
CONTINUOUS
 62
     3
 10
988.9999999999994
 20
1369.98576891547
 30
0.0
 11
992.5012414685659
 21
1369.98576891547
 31
0.0
  0
LINE
  5
2730
  8
OUTLINE
  6
CONTINUOUS
 62
     3
 10
-992.5012414685663
 20
1369.98576891547
 30
0.0
 11
-989.0000000000002
 21
1369.98576891547
 31
0.0
  0
CIRCLE
  5
2745
  8
DETAIL
  6
CONTINUOUS
 62
     5
 10
0.0
 20
155.0
 30
0.0
 40
30.26072983548599
  0
CIRCLE
  5
274B
  8
DETAIL
  6
CONTINUOUS
 62
     5
 10
0.0
 20
621.0
 30
0.0
 40
30.26072983548599
  0
LINE
  5
28D2
  8
DETAIL
  6
CONTINUOUS
 62
     5
 10
-170.9033839587492
 20
1549.964486597148
 30
0.0
 11
-893.0966160412526
 21
1549.964486597148
 31
0.0
  0
LINE
  5
28D3
  8
DETAIL
  6
CONTINUOUS
 62
     5
 10
-858.4778409321104
 20
1649.999957127667
 30
0.0
 11
-214.8127676132418
 21
1649.999957127667
 31
0.0
  0
LINE
  5
28D4
  8
DETAIL
  6
CONTINUOUS
 62
     5
 10
-649.3038560009636
 20
1600.91219446881
 30
0.0
 11
-681.9382846443306
 21
1600.91219446881
 31
0.0
  0
LINE
  5
28D5
  8
DETAIL
  6
CONTINUOUS
 62
     5
 10
-648.196034618749
 20
1609.828255921719
 30
0.0
 11
-680.5626111443718
 21
1609.828255921719
 31
0.0
  0
ARC
  5
28D6
  8
DETAIL
  6
CONTINUOUS
 62
     5
 10
-706.8319427486567
 20
1541.512721563189
 30
0.0
 40
186.4563242397176
 50
144.4201293237526
 51
177.401984352339
  0
ARC
  5
28D7
  8
DETAIL
  6
CONTINUOUS
 62
     5
 10
-492.1183640996469
 20
1546.28808301969
 30
0.0
 40
271.6611540568262
 50
157.5566810000181
 51
179.0308249999781
  0
ARC
  5
28D8
  8
DETAIL
  6
CONTINUOUS
 62
     5
 10
-483.3661750382389
 20
1546.351834195974
 30
0.0
 40
275.9544335087106
 50
157.9386789999809
 51
179.0591440000055
  0
ARC
  5
28D9
  8
DETAIL
  6
CONTINUOUS
 62
     5
 10
-415.5181175056286
 20
1546.772011753767
 30
0.0
 40
312.0901750745425
 50
160.6848940000181
 51
179.245237000009
  0
ARC
  5
28DA
  8
DETAIL
  6
CONTINUOUS
 62
     5
 10
-404.7065553755392
 20
1546.828088780386
 30
0.0
 40
318.3041212698312
 50
161.0871340000131
 51
179.2700670000102
  0
ARC
  5
28DB
  8
DETAIL
  6
CONTINUOUS
 62
     5
 10
-315.0604115447869
 20
1546.9311538966
 30
0.0
 40
375.3472190134157
 50
164.0620659999766
 51
179.396736000018
  0
ARC
  5
28DC
  8
DETAIL
  6
CONTINUOUS
 62
     5
 10
-308.7193917203595
 20
1547.891637321512
 30
0.0
 40
376.9662216500445
 50
164.2840369999753
 51
179.5453179999817
  0
ARC
  5
28DD
  8
DETAIL
  6
CONTINUOUS
 62
     5
 10
-652.497531269994
 20
1544.622463853788
 30
0.0
 40
207.9618675935192
 50
149.5547059999879
 51
178.5280520000047
  0
ARC
  5
28DE
  8
DETAIL
  6
CONTINUOUS
 62
     5
 10
-658.1655124487012
 20
1544.543593030662
 30
0.0
 40
206.2099606888997
 50
149.2426820000208
 51
178.4936230000062
  0
ARC
  5
28DF
  8
DETAIL
  6
CONTINUOUS
 62
     5
 10
-607.7754308713422
 20
1544.781334471771
 30
0.0
 40
224.5634398855711
 50
152.0599489999831
 51
178.4429870000022
  0
ARC
  5
28E0
  8
DETAIL
  6
CONTINUOUS
 62
     5
 10
-603.8761196839632
 20
1545.238182174906
 30
0.0
 40
224.3361878780887
 50
152.1611970000068
 51
178.5581309999841
  0
ARC
  5
28E1
  8
DETAIL
  6
CONTINUOUS
 62
     5
 10
-548.3078734639759
 20
1545.818402194762
 30
0.0
 40
246.1368036445528
 50
154.9589890000049
 51
178.8209589999854
  0
ARC
  5
28E2
  8
DETAIL
  6
CONTINUOUS
 62
     5
 10
-555.7035529634242
 20
1545.748220166793
 30
0.0
 40
243.0396911861464
 50
154.5990900000243
 51
178.7893799999917
  0
LINE
  5
28E3
  8
DETAIL
  6
CONTINUOUS
 62
     5
 10
-756.244146267819
 20
1609.828255921719
 30
0.0
 11
-785.9758456627903
 21
1609.828255921719
 31
0.0
  0
LINE
  5
28E4
  8
DETAIL
  6
CONTINUOUS
 62
     5
 10
-758.2311079466242
 20
1600.91219446881
 30
0.0
 11
-788.1995198464435
 21
1600.91219446881
 31
0.0
  0
LINE
  5
28E5
  8
DETAIL
  6
CONTINUOUS
 62
     5
 10
-792.400037835575
 20
1600.91219446881
 30
0.0
 11
-821.1941619283976
 21
1600.91219446881
 31
0.0
  0
LINE
  5
28E6
  8
DETAIL
  6
CONTINUOUS
 62
     5
 10
-790.1433948190108
 20
1609.828255921719
 30
0.0
 11
-818.7129249896979
 21
1609.828255921719
 31
0.0
  0
LINE
  5
28E7
  8
DETAIL
  6
CONTINUOUS
 62
     5
 10
-822.7117857610289
 20
1609.828255921719
 30
0.0
 11
-849.972451835304
 21
1609.828255921719
 31
0.0
  0
LINE
  5
28E8
  8
DETAIL
  6
CONTINUOUS
 62
     5
 10
-825.2106146517513
 20
1600.91219446881
 30
0.0
 11
-852.6964462794069
 21
1600.91219446881
 31
0.0
  0
LINE
  5
28E9
  8
DETAIL
  6
CONTINUOUS
 62
     5
 10
-853.7683263461523
 20
1609.828255921719
 30
0.0
 11
-880.3202951248047
 21
1609.828255921719
 31
0.0
  0
LINE
  5
28EA
  8
DETAIL
  6
CONTINUOUS
 62
     5
 10
-856.5215883107749
 20
1600.91219446881
 30
0.0
 11
-883.5742786456195
 21
1600.91219446881
 31
0.0
  0
LINE
  5
28EB
  8
DETAIL
  6
CONTINUOUS
 62
     5
 10
-686.5056755762423
 20
1600.91219446881
 30
0.0
 11
-718.3822212040841
 21
1600.91219446881
 31
0.0
  0
LINE
  5
28EC
  8
DETAIL
  6
CONTINUOUS
 62
     5
 10
-685.1002629599758
 20
1609.828255921719
 30
0.0
 11
-716.7137438818874
 21
1609.828255921719
 31
0.0
  0
LINE
  5
28ED
  8
DETAIL
  6
CONTINUOUS
 62
     5
 10
-722.8764004623451
 20
1600.91219446881
 30
0.0
 11
-753.8731341268732
 21
1600.91219446881
 31
0.0
  0
LINE
  5
28EE
  8
DETAIL
  6
CONTINUOUS
 62
     5
 10
-721.1718246260799
 20
1609.828255921719
 30
0.0
 11
-751.9208133024376
 21
1609.828255921719
 31
0.0
  0
ARC
  5
28EF
  8
DETAIL
  6
CONTINUOUS
 62
     5
 10
-325.2366359427387
 20
1541.876232953651
 30
0.0
 40
154.5450413658846
 50
3.000000000005635
 51
44.39700599998174
  0
ARC
  5
28F0
  8
DETAIL
  6
CONTINUOUS
 62
     5
 10
-422.5250734573792
 20
1544.781334471771
 30
0.0
 40
224.5634398855711
 50
1.557012999997822
 51
27.94005100001689
  0
ARC
  5
28F1
  8
DETAIL
  6
CONTINUOUS
 62
     5
 10
-426.4243703539696
 20
1545.238182174906
 30
0.0
 40
224.3361878780887
 50
1.441869000015883
 51
27.83880299999317
  0
LINE
  5
28F2
  8
DETAIL
  6
CONTINUOUS
 62
     5
 10
-205.0898753861811
 20
1600.91219446881
 30
0.0
 11
-182.4118304684667
 21
1600.91219446881
 31
0.0
  0
LINE
  5
28F3
  8
DETAIL
  6
CONTINUOUS
 62
     5
 10
-207.5887185676885
 20
1609.828255921719
 30
0.0
 11
-186.4321245415233
 21
1609.828255921719
 31
0.0
  0
LINE
  5
28F4
  8
DETAIL
  6
CONTINUOUS
 62
     5
 10
-457.1848774002144
 20
1600.91219446881
 30
0.0
 11
-423.6250063281996
 21
1600.91219446881
 31
0.0
  0
LINE
  5
28F5
  8
DETAIL
  6
CONTINUOUS
 62
     5
 10
-457.665347765179
 20
1609.828255921719
 30
0.0
 11
-424.3826749820007
 21
1609.828255921719
 31
0.0
  0
ARC
  5
28F6
  8
DETAIL
  6
CONTINUOUS
 62
     5
 10
-1522.405168428843
 20
1547.980040095892
 30
0.0
 40
1066.534614203588
 50
0.1559560000103132
 51
5.489050000005359
  0
ARC
  5
28F7
  8
DETAIL
  6
CONTINUOUS
 62
     5
 10
-1623.186431973735
 20
1547.996274423679
 30
0.0
 40
1162.391731747081
 50
0.1422950000199107
 51
5.034367999999632
  0
ARC
  5
28F8
  8
DETAIL
  6
CONTINUOUS
 62
     5
 10
-183.2790560017174
 20
1547.535682535797
 30
0.0
 40
469.0715946159794
 50
167.3825409999884
 51
179.5911190000002
  0
ARC
  5
28F9
  8
DETAIL
  6
CONTINUOUS
 62
     5
 10
-162.1630829955694
 20
1547.573295872712
 30
0.0
 40
485.3800486885951
 50
167.8176529999816
 51
179.6092980000114
  0
ARC
  5
28FA
  8
DETAIL
  6
CONTINUOUS
 62
     5
 10
33.01778128718331
 20
1547.800547880195
 30
0.0
 40
646.6473450570974
 50
170.9065570000231
 51
179.7268720000231
  0
ARC
  5
28FB
  8
DETAIL
  6
CONTINUOUS
 62
     5
 10
70.85218230575151
 20
1547.827743237403
 30
0.0
 40
679.6040736957214
 50
171.3533229999909
 51
179.7424100000248
  0
ARC
  5
28FC
  8
DETAIL
  6
CONTINUOUS
 62
     5
 10
492.10467839091
 20
1547.980040095892
 30
0.0
 40
1066.534614203588
 50
174.5109499999947
 51
179.8440439999897
  0
ARC
  5
28FD
  8
DETAIL
  6
CONTINUOUS
 62
     5
 10
592.8859276450152
 20
1547.996274423679
 30
0.0
 40
1162.391731747081
 50
174.9656320000003
 51
179.8577049999801
  0
LINE
  5
28FE
  8
DETAIL
  6
CONTINUOUS
 62
     5
 10
-534.3429397326718
 20
1609.828255921719
 30
0.0
 11
-567.8600919948049
 21
1609.828255921719
 31
0.0
  0
LINE
  5
28FF
  8
DETAIL
  6
CONTINUOUS
 62
     5
 10
-534.3429397326718
 20
1600.91219446881
 30
0.0
 11
-568.300719660926
 21
1600.91219446881
 31
0.0
  0
LINE
  5
2900
  8
DETAIL
  6
CONTINUOUS
 62
     5
 10
-573.115612637718
 20
1600.91219446881
 30
0.0
 11
-606.6754837097332
 21
1600.91219446881
 31
0.0
  0
LINE
  5
2901
  8
DETAIL
  6
CONTINUOUS
 62
     5
 10
-572.6351422727649
 20
1609.828255921719
 30
0.0
 11
-605.9178293467127
 21
1609.828255921719
 31
0.0
  0
LINE
  5
2902
  8
DETAIL
  6
CONTINUOUS
 62
     5
 10
-610.6477779182503
 20
1609.828255921719
 30
0.0
 11
-643.5341673303054
 21
1609.828255921719
 31
0.0
  0
LINE
  5
2903
  8
DETAIL
  6
CONTINUOUS
 62
     5
 10
-611.4447462211767
 20
1600.91219446881
 30
0.0
 11
-644.6035036379334
 21
1600.91219446881
 31
0.0
  0
LINE
  5
2904
  8
DETAIL
  6
CONTINUOUS
 62
     5
 10
-529.5449776679897
 20
1609.828255921719
 30
0.0
 11
-500.8885106773674
 21
1609.828255921719
 31
0.0
  0
LINE
  5
2905
  8
DETAIL
  6
CONTINUOUS
 62
     5
 10
-529.6570602673318
 20
1600.91219446881
 30
0.0
 11
-500.491160621991
 21
1600.91219446881
 31
0.0
  0
LINE
  5
2906
  8
DETAIL
  6
CONTINUOUS
 62
     5
 10
-495.957511096888
 20
1609.828255921719
 30
0.0
 11
-462.4403980431279
 21
1609.828255921719
 31
0.0
  0
LINE
  5
2907
  8
DETAIL
  6
CONTINUOUS
 62
     5
 10
-495.7969684574645
 20
1600.91219446881
 30
0.0
 11
-461.9997703770069
 21
1600.91219446881
 31
0.0
  0
ARC
  5
2908
  8
DETAIL
  6
CONTINUOUS
 62
     5
 10
-538.182125938286
 20
1546.28808301969
 30
0.0
 40
271.6611540568262
 50
0.969175000021949
 51
22.44331899998186
  0
ARC
  5
2909
  8
DETAIL
  6
CONTINUOUS
 62
     5
 10
-546.9343292904678
 20
1546.351834195974
 30
0.0
 40
275.9544335087106
 50
0.9408559999944603
 51
22.06132100001906
  0
ARC
  5
290A
  8
DETAIL
  6
CONTINUOUS
 62
     5
 10
-614.7823725323042
 20
1546.772011753767
 30
0.0
 40
312.0901750745425
 50
0.754762999991001
 51
19.31510599998182
  0
ARC
  5
290B
  8
DETAIL
  6
CONTINUOUS
 62
     5
 10
-625.5939489531747
 20
1546.828088780386
 30
0.0
 40
318.3041212698312
 50
0.7299329999898102
 51
18.91286599998686
  0
ARC
  5
290C
  8
DETAIL
  6
CONTINUOUS
 62
     5
 10
-715.2400784931463
 20
1546.9311538966
 30
0.0
 40
375.3472190134157
 50
0.603263999982018
 51
15.93793400002338
  0
ARC
  5
290D
  8
DETAIL
  6
CONTINUOUS
 62
     5
 10
-721.5811126083584
 20
1547.891637321512
 30
0.0
 40
376.9662216500445
 50
0.4546820000182718
 51
15.7159630000247
  0
ARC
  5
290E
  8
DETAIL
  6
CONTINUOUS
 62
     5
 10
-847.0214483269962
 20
1547.535682535797
 30
0.0
 40
469.0715946159794
 50
0.408880999999768
 51
12.61745900001148
  0
ARC
  5
290F
  8
DETAIL
  6
CONTINUOUS
 62
     5
 10
-868.1374070423636
 20
1547.573295872712
 30
0.0
 40
485.3800486885951
 50
0.3907019999886263
 51
12.18234700001843
  0
ARC
  5
2910
  8
DETAIL
  6
CONTINUOUS
 62
     5
 10
-1063.318271325115
 20
1547.800547880195
 30
0.0
 40
646.6473450570974
 50
0.2731279999769134
 51
9.093442999976848
  0
ARC
  5
2911
  8
DETAIL
  6
CONTINUOUS
 62
     5
 10
-1101.152672343684
 20
1547.827743237403
 30
0.0
 40
679.6040736957214
 50
0.2575899999751675
 51
8.646677000009058
  0
ARC
  5
2912
  8
DETAIL
  6
CONTINUOUS
 62
     5
 10
-481.9926308647307
 20
1545.818402194762
 30
0.0
 40
246.1368036445528
 50
1.179041000014628
 51
25.04101099999499
  0
ARC
  5
2913
  8
DETAIL
  6
CONTINUOUS
 62
     5
 10
-474.5969513652827
 20
1545.748220166793
 30
0.0
 40
243.0396911861464
 50
1.210620000008374
 51
25.40090999997563
  0
LINE
  5
2914
  8
DETAIL
  6
CONTINUOUS
 62
     5
 10
-343.7948144616904
 20
1600.91219446881
 30
0.0
 11
-311.9182831246372
 21
1600.91219446881
 31
0.0
  0
LINE
  5
2915
  8
DETAIL
  6
CONTINUOUS
 62
     5
 10
-345.2002270779568
 20
1609.828255921719
 30
0.0
 11
-313.5867461560457
 21
1609.828255921719
 31
0.0
  0
LINE
  5
2916
  8
DETAIL
  6
CONTINUOUS
 62
     5
 10
-419.6527121196788
 20
1609.828255921719
 30
0.0
 11
-386.7663227076274
 21
1609.828255921719
 31
0.0
  0
LINE
  5
2917
  8
DETAIL
  6
CONTINUOUS
 62
     5
 10
-418.8557581075301
 20
1600.91219446881
 30
0.0
 11
-385.6969863999993
 21
1600.91219446881
 31
0.0
  0
LINE
  5
2918
  8
DETAIL
  6
CONTINUOUS
 62
     5
 10
-380.9966483277396
 20
1600.91219446881
 30
0.0
 11
-348.3622053936026
 21
1600.91219446881
 31
0.0
  0
LINE
  5
2919
  8
DETAIL
  6
CONTINUOUS
 62
     5
 10
-382.1044554191842
 20
1609.828255921719
 30
0.0
 11
-349.7378788935613
 21
1609.828255921719
 31
0.0
  0
LINE
  5
291A
  8
DETAIL
  6
CONTINUOUS
 62
     5
 10
-307.4240895755875
 20
1600.91219446881
 30
0.0
 11
-276.4273702018446
 21
1600.91219446881
 31
0.0
  0
LINE
  5
291B
  8
DETAIL
  6
CONTINUOUS
 62
     5
 10
-309.128679702638
 20
1609.828255921719
 30
0.0
 11
-278.3796910262837
 21
1609.828255921719
 31
0.0
  0
LINE
  5
291C
  8
DETAIL
  6
CONTINUOUS
 62
     5
 10
-274.0563437701141
 20
1609.828255921719
 30
0.0
 11
-244.3246443751424
 21
1609.828255921719
 31
0.0
  0
LINE
  5
291D
  8
DETAIL
  6
CONTINUOUS
 62
     5
 10
-272.0693963820932
 20
1600.91219446881
 30
0.0
 11
-242.1009844822776
 21
1600.91219446881
 31
0.0
  0
LINE
  5
291E
  8
DETAIL
  6
CONTINUOUS
 62
     5
 10
-237.9004664931427
 20
1600.91219446881
 30
0.0
 11
-209.1063281095352
 21
1600.91219446881
 31
0.0
  0
LINE
  5
291F
  8
DETAIL
  6
CONTINUOUS
 62
     5
 10
-240.1571095097107
 20
1609.828255921719
 30
0.0
 11
-211.587565048235
 21
1609.828255921719
 31
0.0
  0
LINE
  5
2920
  8
OUTLINE
  6
CONTINUOUS
 62
     3
 10
-858.4778409321108
 20
1649.999957127667
 30
0.0
 11
-214.8127676132421
 21
1649.999957127667
 31
0.0
  0
ARC
  5
2921
  8
OUTLINE
  6
CONTINUOUS
 62
     3
 10
-706.8319427486567
 20
1541.512721563189
 30
0.0
 40
186.4563242397176
 50
144.4201293237526
 51
177.401984352339
  0
ARC
  5
2922
  8
OUTLINE
  6
CONTINUOUS
 62
     3
 10
-325.2366359427393
 20
1541.876232953651
 30
0.0
 40
154.5450413658846
 50
3.000000000005635
 51
44.39700599998174
  0
LINE
  5
2923
  8
DETAIL
  6
CONTINUOUS
 62
     5
 10
-498.2206430116063
 20
1549.964486597148
 30
0.0
 11
-502.6787885689062
 21
1649.999957127667
 31
0.0
  0
LINE
  5
2924
  8
DETAIL
  6
CONTINUOUS
 62
     5
 10
-493.2835721838632
 20
1549.828255047749
 30
0.0
 11
-497.7417177411636
 21
1649.863725578268
 31
0.0
  0
LINE
  5
2925
  8
DETAIL
  6
CONTINUOUS
 62
     5
 10
-534.3429397326718
 20
1649.999957127667
 30
0.0
 11
-534.3429397326718
 21
1549.964486597148
 31
0.0
  0
LINE
  5
2926
  8
DETAIL
  6
CONTINUOUS
 62
     5
 10
-529.6570290205237
 20
1649.999957127667
 30
0.0
 11
-529.6570290205237
 21
1549.964486597148
 31
0.0
  0
LINE
  5
292D
  8
NOTE
  6
CONTINUOUS
 62
     4
 10
-448.000000000012
 20
217.0000000000215
 30
0.0
 11
-468.2901724030336
 21
190.5534484778608
 31
0.0
  0
LINE
  5
292E
  8
NOTE
  6
CONTINUOUS
 62
     4
 10
-448.000000000012
 20
217.0000000000215
 30
0.0
 11
-478.7950808247231
 21
204.2417008838835
 31
0.0
  0
LINE
  5
2935
  8
NOTE
  6
CONTINUOUS
 62
     4
 10
0.0
 20
621.0
 30
0.0
 11
1.852156013090904
 21
587.7181625858514
 31
0.0
  0
LINE
  5
2936
  8
NOTE
  6
CONTINUOUS
 62
     4
 10
0.0
 20
621.0
 30
0.0
 11
-15.0369048804232
 21
591.2510052110251
 31
0.0
  0
LINE
  5
293D
  8
NOTE
  6
CONTINUOUS
 62
     4
 10
0.0
 20
155.1275251316861
 30
0.0
 11
21.15133197765448
 21
129.3645218298638
 31
0.0
  0
LINE
  5
293E
  8
NOTE
  6
CONTINUOUS
 62
     4
 10
0.0
 20
155.1275251316861
 30
0.0
 11
5.436088954717774
 21
122.240443530946
 31
0.0
  0
LINE
  5
2998
  8
DETAIL
  6
CONTINUOUS
 62
     5
 10
893.096616041249
 20
1549.964486597104
 30
0.0
 11
170.9033839587457
 21
1549.964486597104
 31
0.0
  0
LINE
  5
2999
  8
DETAIL
  6
CONTINUOUS
 62
     5
 10
205.5221590678878
 20
1649.999957127623
 30
0.0
 11
849.1872323867562
 21
1649.999957127623
 31
0.0
  0
LINE
  5
299A
  8
DETAIL
  6
CONTINUOUS
 62
     5
 10
414.6961439990344
 20
1600.912194468766
 30
0.0
 11
382.0617153556676
 21
1600.912194468766
 31
0.0
  0
LINE
  5
299B
  8
DETAIL
  6
CONTINUOUS
 62
     5
 10
415.8039653812493
 20
1609.828255921675
 30
0.0
 11
383.4373888556266
 21
1609.828255921675
 31
0.0
  0
ARC
  5
299C
  8
DETAIL
  6
CONTINUOUS
 62
     5
 10
357.1680572513415
 20
1541.512721563146
 30
0.0
 40
186.4563242397176
 50
144.4201293237499
 51
177.401984352339
  0
ARC
  5
299D
  8
DETAIL
  6
CONTINUOUS
 62
     5
 10
571.8816359003512
 20
1546.288083019646
 30
0.0
 40
271.6611540568262
 50
157.5566810000181
 51
179.0308249999781
  0
ARC
  5
299E
  8
DETAIL
  6
CONTINUOUS
 62
     5
 10
580.633824961759
 20
1546.35183419593
 30
0.0
 40
275.9544335087106
 50
157.9386789999779
 51
179.0591440000055
  0
ARC
  5
299F
  8
DETAIL
  6
CONTINUOUS
 62
     5
 10
648.4818824943695
 20
1546.772011753723
 30
0.0
 40
312.0901750745425
 50
160.6848940000214
 51
179.245237000009
  0
ARC
  5
29A0
  8
DETAIL
  6
CONTINUOUS
 62
     5
 10
659.2934446244587
 20
1546.828088780342
 30
0.0
 40
318.3041212698312
 50
161.0871340000131
 51
179.2700670000102
  0
ARC
  5
29A1
  8
DETAIL
  6
CONTINUOUS
 62
     5
 10
748.9395884552113
 20
1546.931153896557
 30
0.0
 40
375.3472190134157
 50
164.0620659999734
 51
179.396736000018
  0
ARC
  5
29A2
  8
DETAIL
  6
CONTINUOUS
 62
     5
 10
755.2806082796386
 20
1547.891637321468
 30
0.0
 40
376.9662216500445
 50
164.2840369999753
 51
179.5453179999817
  0
ARC
  5
29A3
  8
DETAIL
  6
CONTINUOUS
 62
     5
 10
411.5024687300039
 20
1544.622463853744
 30
0.0
 40
207.9618675935192
 50
149.5547059999851
 51
178.5280520000047
  0
ARC
  5
29A4
  8
DETAIL
  6
CONTINUOUS
 62
     5
 10
405.8344875512969
 20
1544.543593030618
 30
0.0
 40
206.2099606888997
 50
149.2426820000208
 51
178.4936230000059
  0
ARC
  5
29A5
  8
DETAIL
  6
CONTINUOUS
 62
     5
 10
456.2245691286562
 20
1544.781334471728
 30
0.0
 40
224.5634398855711
 50
152.0599489999787
 51
178.4429870000022
  0
ARC
  5
29A6
  8
DETAIL
  6
CONTINUOUS
 62
     5
 10
460.1238803160348
 20
1545.238182174862
 30
0.0
 40
224.3361878780887
 50
152.1611970000141
 51
178.5581309999841
  0
ARC
  5
29A7
  8
DETAIL
  6
CONTINUOUS
 62
     5
 10
515.6921265360224
 20
1545.818402194718
 30
0.0
 40
246.1368036445528
 50
154.9589890000079
 51
178.8209589999851
  0
ARC
  5
29A8
  8
DETAIL
  6
CONTINUOUS
 62
     5
 10
508.296447036574
 20
1545.748220166749
 30
0.0
 40
243.0396911861464
 50
154.5990900000243
 51
178.7893799999917
  0
LINE
  5
29A9
  8
DETAIL
  6
CONTINUOUS
 62
     5
 10
307.7558537321793
 20
1609.828255921675
 30
0.0
 11
278.0241543372078
 21
1609.828255921675
 31
0.0
  0
LINE
  5
29AA
  8
DETAIL
  6
CONTINUOUS
 62
     5
 10
305.7688920533742
 20
1600.912194468766
 30
0.0
 11
275.8004801535547
 21
1600.912194468766
 31
0.0
  0
LINE
  5
29AB
  8
DETAIL
  6
CONTINUOUS
 62
     5
 10
271.5999621644232
 20
1600.912194468766
 30
0.0
 11
242.8058380716007
 21
1600.912194468766
 31
0.0
  0
LINE
  5
29AC
  8
DETAIL
  6
CONTINUOUS
 62
     5
 10
273.8566051809875
 20
1609.828255921675
 30
0.0
 11
245.2870750103005
 21
1609.828255921675
 31
0.0
  0
LINE
  5
29AD
  8
DETAIL
  6
CONTINUOUS
 62
     5
 10
241.2882142389694
 20
1609.828255921675
 30
0.0
 11
214.0275481646941
 21
1609.828255921675
 31
0.0
  0
LINE
  5
29AE
  8
DETAIL
  6
CONTINUOUS
 62
     5
 10
238.7893853482467
 20
1600.912194468766
 30
0.0
 11
211.3035537205915
 21
1600.912194468766
 31
0.0
  0
LINE
  5
29AF
  8
DETAIL
  6
CONTINUOUS
 62
     5
 10
210.231673653846
 20
1609.828255921675
 30
0.0
 11
183.6797048751933
 21
1609.828255921675
 31
0.0
  0
LINE
  5
29B0
  8
DETAIL
  6
CONTINUOUS
 62
     5
 10
207.4784116892233
 20
1600.912194468766
 30
0.0
 11
180.4257213543788
 21
1600.912194468766
 31
0.0
  0
LINE
  5
29B1
  8
DETAIL
  6
CONTINUOUS
 62
     5
 10
377.4943244237559
 20
1600.912194468766
 30
0.0
 11
345.6177787959141
 21
1600.912194468766
 31
0.0
  0
LINE
  5
29B2
  8
DETAIL
  6
CONTINUOUS
 62
     5
 10
378.8997370400223
 20
1609.828255921675
 30
0.0
 11
347.2862561181109
 21
1609.828255921675
 31
0.0
  0
LINE
  5
29B3
  8
DETAIL
  6
CONTINUOUS
 62
     5
 10
341.123599537653
 20
1600.912194468766
 30
0.0
 11
310.1268658731251
 21
1600.912194468766
 31
0.0
  0
LINE
  5
29B4
  8
DETAIL
  6
CONTINUOUS
 62
     5
 10
342.8281753739184
 20
1609.828255921675
 30
0.0
 11
312.0791866975604
 21
1609.828255921675
 31
0.0
  0
ARC
  5
29B5
  8
DETAIL
  6
CONTINUOUS
 62
     5
 10
738.7633640572595
 20
1541.876232953607
 30
0.0
 40
154.5450413658846
 50
3.000000000005635
 51
44.3970059999841
  0
ARC
  5
29B6
  8
DETAIL
  6
CONTINUOUS
 62
     5
 10
641.4749265426191
 20
1544.781334471728
 30
0.0
 40
224.5634398855711
 50
1.557012999997822
 51
27.94005100002129
  0
ARC
  5
29B7
  8
DETAIL
  6
CONTINUOUS
 62
     5
 10
637.5756296460285
 20
1545.238182174862
 30
0.0
 40
224.3361878780887
 50
1.441869000015883
 51
27.83880299998585
  0
LINE
  5
29B8
  8
DETAIL
  6
CONTINUOUS
 62
     5
 10
858.9101246138172
 20
1600.912194468766
 30
0.0
 11
881.5881695315314
 21
1600.912194468766
 31
0.0
  0
LINE
  5
29B9
  8
DETAIL
  6
CONTINUOUS
 62
     5
 10
856.4112814323097
 20
1609.828255921675
 30
0.0
 11
877.5678754584749
 21
1609.828255921675
 31
0.0
  0
LINE
  5
29BA
  8
DETAIL
  6
CONTINUOUS
 62
     5
 10
606.8151225997836
 20
1600.912194468766
 30
0.0
 11
640.3749936717986
 21
1600.912194468766
 31
0.0
  0
LINE
  5
29BB
  8
DETAIL
  6
CONTINUOUS
 62
     5
 10
606.3346522348191
 20
1609.828255921675
 30
0.0
 11
639.6173250179972
 21
1609.828255921675
 31
0.0
  0
ARC
  5
29BC
  8
DETAIL
  6
CONTINUOUS
 62
     5
 10
-458.4051684288448
 20
1547.980040095848
 30
0.0
 40
1066.534614203588
 50
0.1559560000103132
 51
5.489050000005359
  0
ARC
  5
29BD
  8
DETAIL
  6
CONTINUOUS
 62
     5
 10
-559.186431973738
 20
1547.996274423634
 30
0.0
 40
1162.391731747081
 50
0.1422950000199107
 51
5.034367999999632
  0
ARC
  5
29BE
  8
DETAIL
  6
CONTINUOUS
 62
     5
 10
880.7209439982807
 20
1547.535682535752
 30
0.0
 40
469.0715946159794
 50
167.3825409999884
 51
179.5911190000002
  0
ARC
  5
29BF
  8
DETAIL
  6
CONTINUOUS
 62
     5
 10
901.8369170044286
 20
1547.573295872669
 30
0.0
 40
485.3800486885951
 50
167.8176529999816
 51
179.6092980000114
  0
ARC
  5
29C0
  8
DETAIL
  6
CONTINUOUS
 62
     5
 10
1097.017781287181
 20
1547.800547880151
 30
0.0
 40
646.6473450570974
 50
170.9065570000231
 51
179.7268720000231
  0
ARC
  5
29C1
  8
DETAIL
  6
CONTINUOUS
 62
     5
 10
1134.852182305749
 20
1547.82774323736
 30
0.0
 40
679.6040736957214
 50
171.3533229999909
 51
179.7424100000248
  0
ARC
  5
29C2
  8
DETAIL
  6
CONTINUOUS
 62
     5
 10
1556.104678390908
 20
1547.980040095848
 30
0.0
 40
1066.534614203588
 50
174.5109499999947
 51
179.8440439999897
  0
ARC
  5
29C3
  8
DETAIL
  6
CONTINUOUS
 62
     5
 10
1656.885927645014
 20
1547.996274423634
 30
0.0
 40
1162.391731747081
 50
174.9656320000003
 51
179.8577049999801
  0
LINE
  5
29C4
  8
DETAIL
  6
CONTINUOUS
 62
     5
 10
529.6570602673263
 20
1609.828255921675
 30
0.0
 11
496.1399080051932
 21
1609.828255921675
 31
0.0
  0
LINE
  5
29C5
  8
DETAIL
  6
CONTINUOUS
 62
     5
 10
529.6570602673263
 20
1600.912194468766
 30
0.0
 11
495.6992803390721
 21
1600.912194468766
 31
0.0
  0
LINE
  5
29C6
  8
DETAIL
  6
CONTINUOUS
 62
     5
 10
490.8843873622802
 20
1600.912194468766
 30
0.0
 11
457.3245162902648
 21
1600.912194468766
 31
0.0
  0
LINE
  5
29C7
  8
DETAIL
  6
CONTINUOUS
 62
     5
 10
491.3648577272332
 20
1609.828255921675
 30
0.0
 11
458.0821706532854
 21
1609.828255921675
 31
0.0
  0
LINE
  5
29C8
  8
DETAIL
  6
CONTINUOUS
 62
     5
 10
453.3522220817477
 20
1609.828255921675
 30
0.0
 11
420.4658326696926
 21
1609.828255921675
 31
0.0
  0
LINE
  5
29C9
  8
DETAIL
  6
CONTINUOUS
 62
     5
 10
452.5552537788216
 20
1600.912194468766
 30
0.0
 11
419.3964963620645
 21
1600.912194468766
 31
0.0
  0
LINE
  5
29CA
  8
DETAIL
  6
CONTINUOUS
 62
     5
 10
534.4550223320084
 20
1609.828255921675
 30
0.0
 11
563.1114893226306
 21
1609.828255921675
 31
0.0
  0
LINE
  5
29CB
  8
DETAIL
  6
CONTINUOUS
 62
     5
 10
534.3429397326662
 20
1600.912194468766
 30
0.0
 11
563.5088393780072
 21
1600.912194468766
 31
0.0
  0
LINE
  5
29CC
  8
DETAIL
  6
CONTINUOUS
 62
     5
 10
568.04248890311
 20
1609.828255921675
 30
0.0
 11
601.5596019568703
 21
1609.828255921675
 31
0.0
  0
LINE
  5
29CD
  8
DETAIL
  6
CONTINUOUS
 62
     5
 10
568.2030315425336
 20
1600.912194468766
 30
0.0
 11
602.0002296229912
 21
1600.912194468766
 31
0.0
  0
ARC
  5
29CE
  8
DETAIL
  6
CONTINUOUS
 62
     5
 10
525.8178740617121
 20
1546.288083019646
 30
0.0
 40
271.6611540568262
 50
0.969175000021949
 51
22.44331899998186
  0
ARC
  5
29CF
  8
DETAIL
  6
CONTINUOUS
 62
     5
 10
517.0656707095303
 20
1546.35183419593
 30
0.0
 40
275.9544335087106
 50
0.9408559999944603
 51
22.06132100002208
  0
ARC
  5
29D0
  8
DETAIL
  6
CONTINUOUS
 62
     5
 10
449.2176274676941
 20
1546.772011753723
 30
0.0
 40
312.0901750745425
 50
0.754762999991001
 51
19.31510599997876
  0
ARC
  5
29D1
  8
DETAIL
  6
CONTINUOUS
 62
     5
 10
438.4060510468234
 20
1546.828088780342
 30
0.0
 40
318.3041212698312
 50
0.7299329999898102
 51
18.91286599998683
  0
ARC
  5
29D2
  8
DETAIL
  6
CONTINUOUS
 62
     5
 10
348.7599215068522
 20
1546.931153896557
 30
0.0
 40
375.3472190134157
 50
0.603263999982018
 51
15.93793400002656
  0
ARC
  5
29D3
  8
DETAIL
  6
CONTINUOUS
 62
     5
 10
342.4188873916402
 20
1547.891637321468
 30
0.0
 40
376.9662216500445
 50
0.4546820000182718
 51
15.7159630000247
  0
ARC
  5
29D4
  8
DETAIL
  6
CONTINUOUS
 62
     5
 10
216.9785516730021
 20
1547.535682535752
 30
0.0
 40
469.0715946159794
 50
0.408880999999768
 51
12.61745900001148
  0
ARC
  5
29D5
  8
DETAIL
  6
CONTINUOUS
 62
     5
 10
195.8625929576349
 20
1547.573295872669
 30
0.0
 40
485.3800486885951
 50
0.3907019999886263
 51
12.18234700001843
  0
ARC
  5
29D6
  8
DETAIL
  6
CONTINUOUS
 62
     5
 10
0.6817286748818105
 20
1547.800547880151
 30
0.0
 40
646.6473450570974
 50
0.2731279999769134
 51
9.093442999976848
  0
ARC
  5
29D7
  8
DETAIL
  6
CONTINUOUS
 62
     5
 10
-37.15267234368604
 20
1547.82774323736
 30
0.0
 40
679.6040736957214
 50
0.2575899999751675
 51
8.646677000009058
  0
ARC
  5
29D8
  8
DETAIL
  6
CONTINUOUS
 62
     5
 10
582.0073691352674
 20
1545.818402194718
 30
0.0
 40
246.1368036445528
 50
1.179041000014628
 51
25.04101099999208
  0
ARC
  5
29D9
  8
DETAIL
  6
CONTINUOUS
 62
     5
 10
589.4030486347153
 20
1545.748220166749
 30
0.0
 40
243.0396911861464
 50
1.210620000008374
 51
25.40090999997565
  0
LINE
  5
29DA
  8
DETAIL
  6
CONTINUOUS
 62
     5
 10
720.2051855383078
 20
1600.912194468766
 30
0.0
 11
752.0817168753609
 21
1600.912194468766
 31
0.0
  0
LINE
  5
29DB
  8
DETAIL
  6
CONTINUOUS
 62
     5
 10
718.7997729220415
 20
1609.828255921675
 30
0.0
 11
750.4132538439526
 21
1609.828255921675
 31
0.0
  0
LINE
  5
29DC
  8
DETAIL
  6
CONTINUOUS
 62
     5
 10
644.3472878803194
 20
1609.828255921675
 30
0.0
 11
677.2336772923707
 21
1609.828255921675
 31
0.0
  0
LINE
  5
29DD
  8
DETAIL
  6
CONTINUOUS
 62
     5
 10
645.1442418924679
 20
1600.912194468766
 30
0.0
 11
678.303013599999
 21
1600.912194468766
 31
0.0
  0
LINE
  5
29DE
  8
DETAIL
  6
CONTINUOUS
 62
     5
 10
683.0033516722586
 20
1600.912194468766
 30
0.0
 11
715.6377946063958
 21
1600.912194468766
 31
0.0
  0
LINE
  5
29DF
  8
DETAIL
  6
CONTINUOUS
 62
     5
 10
681.8955445808142
 20
1609.828255921675
 30
0.0
 11
714.2621211064369
 21
1609.828255921675
 31
0.0
  0
LINE
  5
29E0
  8
DETAIL
  6
CONTINUOUS
 62
     5
 10
756.5759104244107
 20
1600.912194468766
 30
0.0
 11
787.5726297981535
 21
1600.912194468766
 31
0.0
  0
LINE
  5
29E1
  8
DETAIL
  6
CONTINUOUS
 62
     5
 10
754.8713202973601
 20
1609.828255921675
 30
0.0
 11
785.6203089737146
 21
1609.828255921675
 31
0.0
  0
LINE
  5
29E2
  8
DETAIL
  6
CONTINUOUS
 62
     5
 10
789.943656229884
 20
1609.828255921675
 30
0.0
 11
819.6753556248557
 21
1609.828255921675
 31
0.0
  0
LINE
  5
29E3
  8
DETAIL
  6
CONTINUOUS
 62
     5
 10
791.9306036179049
 20
1600.912194468766
 30
0.0
 11
821.8990155177208
 21
1600.912194468766
 31
0.0
  0
LINE
  5
29E4
  8
DETAIL
  6
CONTINUOUS
 62
     5
 10
826.0995335068553
 20
1600.912194468766
 30
0.0
 11
854.8936718904633
 21
1600.912194468766
 31
0.0
  0
LINE
  5
29E5
  8
DETAIL
  6
CONTINUOUS
 62
     5
 10
823.8428904902872
 20
1609.828255921675
 30
0.0
 11
852.4124349517633
 21
1609.828255921675
 31
0.0
  0
LINE
  5
29E6
  8
OUTLINE
  6
CONTINUOUS
 62
     3
 10
205.5221590678875
 20
1649.999957127623
 30
0.0
 11
849.1872323867561
 21
1649.999957127623
 31
0.0
  0
ARC
  5
29E7
  8
OUTLINE
  6
CONTINUOUS
 62
     3
 10
357.1680572513415
 20
1541.512721563146
 30
0.0
 40
186.4563242397176
 50
144.4201293237499
 51
177.401984352339
  0
ARC
  5
29E8
  8
OUTLINE
  6
CONTINUOUS
 62
     3
 10
738.7633640572589
 20
1541.876232953607
 30
0.0
 40
154.5450413658846
 50
3.000000000005635
 51
44.3970059999841
  0
LINE
  5
29E9
  8
DETAIL
  6
CONTINUOUS
 62
     5
 10
565.7793569883918
 20
1549.964486597104
 30
0.0
 11
561.3212114310919
 21
1649.999957127623
 31
0.0
  0
LINE
  5
29EA
  8
DETAIL
  6
CONTINUOUS
 62
     5
 10
570.7164278161349
 20
1549.828255047705
 30
0.0
 11
566.2582822588347
 21
1649.863725578224
 31
0.0
  0
LINE
  5
29EB
  8
DETAIL
  6
CONTINUOUS
 62
     5
 10
529.6570602673263
 20
1649.999957127623
 30
0.0
 11
529.6570602673263
 21
1549.964486597104
 31
0.0
  0
LINE
  5
29EC
  8
DETAIL
  6
CONTINUOUS
 62
     5
 10
534.3429709794744
 20
1649.999957127623
 30
0.0
 11
534.3429709794744
 21
1549.964486597104
 31
0.0
  0
LINE
  5
29F3
  8
NOTE
  6
CONTINUOUS
 62
     4
 10
912.000000000001
 20
-0.0000263606325532
 30
0.0
 11
933.1513319776554
 21
-25.76302966245482
 31
0.0
  0
LINE
  5
29F4
  8
NOTE
  6
CONTINUOUS
 62
     4
 10
912.000000000001
 20
-0.0000263606325532
 30
0.0
 11
917.4360889547188
 21
-32.88710796137264
 31
0.0
  0
LINE
  5
2A04
  8
NOTE
  6
CONTINUOUS
 62
     4
 10
-372.9999999999034
 20
217.0000000001459
 30
0.0
 11
-405.8842548972116
 21
222.4531608640394
 31
0.0
  0
LINE
  5
2A05
  8
NOTE
  6
CONTINUOUS
 62
     4
 10
-372.9999999999034
 20
217.0000000001459
 30
0.0
 11
-398.7520197158333
 21
238.1647036334998
 31
0.0
  0
LINE
  5
2A0C
  8
NOTE
  6
CONTINUOUS
 62
     4
 10
-315.0000000000227
 20
216.9999999999966
 30
0.0
 11
-346.4537095376592
 21
228.0351864452113
 31
0.0
  0
LINE
  5
2A0D
  8
NOTE
  6
CONTINUOUS
 62
     4
 10
-315.0000000000227
 20
216.9999999999966
 30
0.0
 11
-336.7221182426884
 21
242.2836069101864
 31
0.0
  0
ENDSEC
  0
EOF
