  0
SECTION
  2
HEADER
  9
$ACADVER
  1
AC1015
  9
$ACADMAINTVER
 70
    20
  9
$DWGCODEPAGE
  3
ANSI_932
  9
$INSBASE
 10
0.0
 20
0.0
 30
0.0
  9
$EXTMIN
 10
-1605.666144146649
 20
-907.3042806932571
 30
-0.0015258207003583
  9
$EXTMAX
 10
1230.128609303996
 20
2193.580665986658
 30
0.0000000349246037
  9
$LIMMIN
 10
-4267.152221060482
 20
-2696.083210198413
  9
$LIMMAX
 10
7190.717422586465
 20
5141.155363923066
  9
$ORTHOMODE
 70
     0
  9
$REGENMODE
 70
     1
  9
$FILLMODE
 70
     1
  9
$QTEXTMODE
 70
     0
  9
$MIRRTEXT
 70
     0
  9
$LTSCALE
 40
20.0
  9
$ATTMODE
 70
     1
  9
$TEXTSIZE
 40
60.0
  9
$TRACEWID
 40
0.05
  9
$TEXTSTYLE
  7
STANDARD1
  9
$CLAYER
  8
NOTE
  9
$CELTYPE
  6
CONTINUOUS
  9
$CECOLOR
 62
     7
  9
$CELTSCALE
 40
1.0
  9
$DISPSILH
 70
     0
  9
$DIMSCALE
 40
1.0
  9
$DIMASZ
 40
30.0
  9
$DIMEXO
 40
20.0
  9
$DIMDLI
 40
80.0
  9
$DIMRND
 40
0.0
  9
$DIMDLE
 40
0.0
  9
$DIMEXE
 40
20.0
  9
$DIMTP
 40
0.0
  9
$DIMTM
 40
0.0
  9
$DIMTXT
 40
40.0
  9
$DIMCEN
 40
0.09
  9
$DIMTSZ
 40
0.0
  9
$DIMTOL
 70
     0
  9
$DIMLIM
 70
     0
  9
$DIMTIH
 70
     0
  9
$DIMTOH
 70
     0
  9
$DIMSE1
 70
     0
  9
$DIMSE2
 70
     0
  9
$DIMTAD
 70
     1
  9
$DIMZIN
 70
     8
  9
$DIMBLK
  1
SMALL
  9
$DIMASO
 70
     1
  9
$DIMSHO
 70
     0
  9
$DIMPOST
  1

  9
$DIMAPOST
  1

  9
$DIMALT
 70
     0
  9
$DIMALTD
 70
     2
  9
$DIMALTF
 40
25.4
  9
$DIMLFAC
 40
1.0
  9
$DIMTOFL
 70
     1
  9
$DIMTVP
 40
0.0
  9
$DIMTIX
 70
     0
  9
$DIMSOXD
 70
     0
  9
$DIMSAH
 70
     0
  9
$DIMBLK1
  1

  9
$DIMBLK2
  1

  9
$DIMSTYLE
  2
Standard
  9
$DIMCLRD
 70
     0
  9
$DIMCLRE
 70
     0
  9
$DIMCLRT
 70
     0
  9
$DIMTFAC
 40
1.0
  9
$DIMGAP
 40
0.09
  9
$DIMJUST
 70
     0
  9
$DIMSD1
 70
     0
  9
$DIMSD2
 70
     0
  9
$DIMTOLJ
 70
     1
  9
$DIMTZIN
 70
     0
  9
$DIMALTZ
 70
     0
  9
$DIMALTTZ
 70
     0
  9
$DIMUPT
 70
     0
  9
$DIMDEC
 70
     4
  9
$DIMTDEC
 70
     4
  9
$DIMALTU
 70
     2
  9
$DIMALTTD
 70
     2
  9
$DIMTXSTY
  7
STANDARD
  9
$DIMAUNIT
 70
     0
  9
$DIMADEC
 70
     0
  9
$DIMALTRND
 40
0.0
  9
$DIMAZIN
 70
     0
  9
$DIMDSEP
 70
    46
  9
$DIMATFIT
 70
     3
  9
$DIMFRAC
 70
     0
  9
$DIMLDRBLK
  1
SMALL
  9
$DIMLUNIT
 70
     2
  9
$DIMLWD
 70
    -2
  9
$DIMLWE
 70
    -2
  9
$DIMTMOVE
 70
     0
  9
$LUNITS
 70
     2
  9
$LUPREC
 70
     4
  9
$SKETCHINC
 40
0.1
  9
$FILLETRAD
 40
0.0
  9
$AUNITS
 70
     1
  9
$AUPREC
 70
     3
  9
$MENU
  1
ACAD
  9
$ELEVATION
 40
0.0
  9
$PELEVATION
 40
0.0
  9
$THICKNESS
 40
0.0
  9
$LIMCHECK
 70
     0
  9
$CHAMFERA
 40
0.0
  9
$CHAMFERB
 40
0.0
  9
$CHAMFERC
 40
0.0
  9
$CHAMFERD
 40
0.0
  9
$SKPOLY
 70
     0
  9
$TDCREATE
 40
2455902.607164352
  9
$TDUCREATE
 40
2455902.232164352
  9
$TDUPDATE
 40
2460084.391747686
  9
$TDUUPDATE
 40
2460084.016747685
  9
$TDINDWG
 40
1.7025348264
  9
$TDUSRTIMER
 40
1.7025312153
  9
$USRTIMER
 70
     1
  9
$ANGBASE
 50
0.0
  9
$ANGDIR
 70
     0
  9
$PDMODE
 70
     3
  9
$PDSIZE
 40
-2.0
  9
$PLINEWID
 40
0.0
  9
$SPLFRAME
 70
     0
  9
$SPLINETYPE
 70
     6
  9
$SPLINESEGS
 70
     8
  9
$HANDSEED
  5
936
  9
$SURFTAB1
 70
     6
  9
$SURFTAB2
 70
     6
  9
$SURFTYPE
 70
     6
  9
$SURFU
 70
     6
  9
$SURFV
 70
     6
  9
$UCSBASE
  2

  9
$UCSNAME
  2

  9
$UCSORG
 10
0.0
 20
0.0
 30
0.0
  9
$UCSXDIR
 10
1.0
 20
0.0
 30
0.0
  9
$UCSYDIR
 10
0.0
 20
1.0
 30
0.0
  9
$UCSORTHOREF
  2

  9
$UCSORTHOVIEW
 70
     0
  9
$UCSORGTOP
 10
0.0
 20
0.0
 30
0.0
  9
$UCSORGBOTTOM
 10
0.0
 20
0.0
 30
0.0
  9
$UCSORGLEFT
 10
0.0
 20
0.0
 30
0.0
  9
$UCSORGRIGHT
 10
0.0
 20
0.0
 30
0.0
  9
$UCSORGFRONT
 10
0.0
 20
0.0
 30
0.0
  9
$UCSORGBACK
 10
0.0
 20
0.0
 30
0.0
  9
$PUCSBASE
  2

  9
$PUCSNAME
  2

  9
$PUCSORG
 10
0.0
 20
0.0
 30
0.0
  9
$PUCSXDIR
 10
1.0
 20
0.0
 30
0.0
  9
$PUCSYDIR
 10
0.0
 20
1.0
 30
0.0
  9
$PUCSORTHOREF
  2

  9
$PUCSORTHOVIEW
 70
     0
  9
$PUCSORGTOP
 10
0.0
 20
0.0
 30
0.0
  9
$PUCSORGBOTTOM
 10
0.0
 20
0.0
 30
0.0
  9
$PUCSORGLEFT
 10
0.0
 20
0.0
 30
0.0
  9
$PUCSORGRIGHT
 10
0.0
 20
0.0
 30
0.0
  9
$PUCSORGFRONT
 10
0.0
 20
0.0
 30
0.0
  9
$PUCSORGBACK
 10
0.0
 20
0.0
 30
0.0
  9
$USERI1
 70
     0
  9
$USERI2
 70
     0
  9
$USERI3
 70
     0
  9
$USERI4
 70
     0
  9
$USERI5
 70
     0
  9
$USERR1
 40
20.0
  9
$USERR2
 40
0.0
  9
$USERR3
 40
0.0
  9
$USERR4
 40
0.0
  9
$USERR5
 40
0.0
  9
$WORLDVIEW
 70
     1
  9
$SHADEDGE
 70
     3
  9
$SHADEDIF
 70
    70
  9
$TILEMODE
 70
     1
  9
$MAXACTVP
 70
    64
  9
$PINSBASE
 10
0.0
 20
0.0
 30
0.0
  9
$PLIMCHECK
 70
     0
  9
$PEXTMIN
 10
1.000000000000000E+20
 20
1.000000000000000E+20
 30
1.000000000000000E+20
  9
$PEXTMAX
 10
-1.000000000000000E+20
 20
-1.000000000000000E+20
 30
-1.000000000000000E+20
  9
$PLIMMIN
 10
0.0
 20
0.0
  9
$PLIMMAX
 10
12.0
 20
9.0
  9
$UNITMODE
 70
     0
  9
$VISRETAIN
 70
     1
  9
$PLINEGEN
 70
     0
  9
$PSLTSCALE
 70
     1
  9
$TREEDEPTH
 70
  3020
  9
$CMLSTYLE
  2
Standard
  9
$CMLJUST
 70
     0
  9
$CMLSCALE
 40
1.0
  9
$PROXYGRAPHICS
 70
     1
  9
$MEASUREMENT
 70
     0
  9
$CELWEIGHT
370
    -1
  9
$ENDCAPS
280
     0
  9
$JOINSTYLE
280
     0
  9
$LWDISPLAY
290
     0
  9
$INSUNITS
 70
     0
  9
$HYPERLINKBASE
  1

  9
$STYLESHEET
  1

  9
$XEDIT
290
     1
  9
$CEPSNTYPE
380
     0
  9
$PSTYLEMODE
290
     1
  9
$FINGERPRINTGUID
  2
{0CA1AFE0-02B2-0248-83DB-678B56AEDD8A}
  9
$VERSIONGUID
  2
{686D8AB7-EEB4-104D-8F77-AE81452B6033}
  9
$EXTNAMES
290
     1
  9
$PSVPSCALE
 40
0.0
  9
$OLESTARTUP
290
     0
  0
ENDSEC
  0
SECTION
  2
CLASSES
  0
CLASS
  1
ACDBDICTIONARYWDFLT
  2
AcDbDictionaryWithDefault
  3
ObjectDBX Classes
 90
        0
280
     0
281
     0
  0
CLASS
  1
MATERIAL
  2
AcDbMaterial
  3
ObjectDBX Classes
 90
     1153
280
     0
281
     0
  0
CLASS
  1
VISUALSTYLE
  2
AcDbVisualStyle
  3
ObjectDBX Classes
 90
     4095
280
     0
281
     0
  0
CLASS
  1
SCALE
  2
AcDbScale
  3
ObjectDBX Classes
 90
     1153
280
     0
281
     0
  0
CLASS
  1
TABLESTYLE
  2
AcDbTableStyle
  3
ObjectDBX Classes
 90
     4095
280
     0
281
     0
  0
CLASS
  1
MLEADERSTYLE
  2
AcDbMLeaderStyle
  3
ACDB_MLEADERSTYLE_CLASS
 90
     4095
280
     0
281
     0
  0
CLASS
  1
ACDBSECTIONVIEWSTYLE
  2
AcDbSectionViewStyle
  3
ObjectDBX Classes
 90
     1025
280
     0
281
     0
  0
CLASS
  1
ACDBDETAILVIEWSTYLE
  2
AcDbDetailViewStyle
  3
ObjectDBX Classes
 90
     1025
280
     0
281
     0
  0
CLASS
  1
DICTIONARYVAR
  2
AcDbDictionaryVar
  3
ObjectDBX Classes
 90
        0
280
     0
281
     0
  0
CLASS
  1
CELLSTYLEMAP
  2
AcDbCellStyleMap
  3
ObjectDBX Classes
 90
     1152
280
     0
281
     0
  0
CLASS
  1
ACDBPLACEHOLDER
  2
AcDbPlaceHolder
  3
ObjectDBX Classes
 90
        0
280
     0
281
     0
  0
CLASS
  1
LAYOUT
  2
AcDbLayout
  3
ObjectDBX Classes
 90
        0
280
     0
281
     0
  0
ENDSEC
  0
SECTION
  2
TABLES
  0
TABLE
  2
VPORT
  5
8
330
0
100
AcDbSymbolTable
 70
     1
  0
VPORT
  5
82
330
8
100
AcDbSymbolTableRecord
100
AcDbViewportTableRecord
  2
*ACTIVE
 70
     0
 10
0.0
 20
0.0
 11
1.0
 21
1.0
 12
-187.7687674213268
 22
643.1381926467
 13
0.0
 23
0.0
 14
50.0
 24
50.0
 15
100.0
 25
100.0
 16
0.0
 26
0.0
 36
1.0
 17
0.0
 27
0.0
 37
0.0
 40
3123.113512605935
 41
2.180622009569377
 42
50.0
 43
0.0
 44
0.0
 50
0.0
 51
0.0
 71
     0
 72
  1000
 73
     1
 74
     0
 75
     0
 76
     0
 77
     0
 78
     0
281
     0
 65
     1
110
0.0
120
0.0
130
0.0
111
1.0
121
0.0
131
0.0
112
0.0
122
1.0
132
0.0
 79
     0
146
0.0
1001
ACAD_NAV_VCDISPLAY
1070
     3
  0
ENDTAB
  0
TABLE
  2
LTYPE
  5
5
330
0
100
AcDbSymbolTable
 70
     3
  0
LTYPE
  5
5A
330
5
100
AcDbSymbolTableRecord
100
AcDbLinetypeTableRecord
  2
ByBlock
 70
     0
  3

 72
    65
 73
     0
 40
0.0
  0
LTYPE
  5
5B
330
5
100
AcDbSymbolTableRecord
100
AcDbLinetypeTableRecord
  2
ByLayer
 70
     0
  3

 72
    65
 73
     0
 40
0.0
  0
LTYPE
  5
5C
330
5
100
AcDbSymbolTableRecord
100
AcDbLinetypeTableRecord
  2
CONTINUOUS
 70
     0
  3
実線
 72
    65
 73
     0
 40
0.0
  0
LTYPE
  5
75
330
5
100
AcDbSymbolTableRecord
100
AcDbLinetypeTableRecord
  2
DASHDOT
 70
     0
  3
____ _ ____ _ ____ _ ____ _ ____ _ ____ _ ____
 72
    65
 73
     4
 40
5.5
 49
4.0
 74
     0
 49
-0.6
 74
     0
 49
0.3
 74
     0
 49
-0.6
 74
     0
  0
ENDTAB
  0
TABLE
  2
LAYER
  5
2
330
0
100
AcDbSymbolTable
 70
    12
  0
LAYER
  5
54
102
{ACAD_XDICTIONARY
360
8D5
102
}
330
2
100
AcDbSymbolTableRecord
100
AcDbLayerTableRecord
  2
0
 70
     0
 62
     7
  6
CONTINUOUS
370
    -3
390
F
  0
LAYER
  5
73
102
{ACAD_XDICTIONARY
360
8D7
102
}
330
2
100
AcDbSymbolTableRecord
100
AcDbLayerTableRecord
  2
NOTE
 70
     0
 62
     4
  6
CONTINUOUS
370
    -3
390
F
  0
LAYER
  5
76
102
{ACAD_XDICTIONARY
360
8D9
102
}
330
2
100
AcDbSymbolTableRecord
100
AcDbLayerTableRecord
  2
OUTLINE
 70
     0
 62
     3
  6
CONTINUOUS
370
    -3
390
F
  0
LAYER
  5
77
102
{ACAD_XDICTIONARY
360
8DB
102
}
330
2
100
AcDbSymbolTableRecord
100
AcDbLayerTableRecord
  2
DETAIL
 70
     0
 62
     5
  6
CONTINUOUS
370
    -3
390
F
  0
LAYER
  5
78
102
{ACAD_XDICTIONARY
360
8DD
102
}
330
2
100
AcDbSymbolTableRecord
100
AcDbLayerTableRecord
  2
BASIS
 70
     0
 62
     6
  6
DASHDOT
370
    -3
390
F
  0
LAYER
  5
79
102
{ACAD_XDICTIONARY
360
8DF
102
}
330
2
100
AcDbSymbolTableRecord
100
AcDbLayerTableRecord
  2
SIZE
 70
     0
 62
    30
  6
CONTINUOUS
370
    -3
390
F
  0
LAYER
  5
7A
102
{ACAD_XDICTIONARY
360
8E1
102
}
330
2
100
AcDbSymbolTableRecord
100
AcDbLayerTableRecord
  2
ARRANGE
 70
     0
 62
     1
  6
CONTINUOUS
370
    -3
390
F
  0
LAYER
  5
7B
102
{ACAD_XDICTIONARY
360
8E3
102
}
330
2
100
AcDbSymbolTableRecord
100
AcDbLayerTableRecord
  2
FIX
 70
     0
 62
    11
  6
CONTINUOUS
370
    -3
390
F
  0
LAYER
  5
7C
102
{ACAD_XDICTIONARY
360
8E5
102
}
330
2
100
AcDbSymbolTableRecord
100
AcDbLayerTableRecord
  2
SERVICESPACE
 70
     0
 62
     2
  6
DASHDOT
370
    -3
390
F
  0
LAYER
  5
7D
102
{ACAD_XDICTIONARY
360
8E7
102
}
330
2
100
AcDbSymbolTableRecord
100
AcDbLayerTableRecord
  2
ETC
 70
     0
 62
    61
  6
CONTINUOUS
370
    -3
390
F
  0
LAYER
  5
7E
102
{ACAD_XDICTIONARY
360
8E9
102
}
330
2
100
AcDbSymbolTableRecord
100
AcDbLayerTableRecord
  2
SYMBOLLINE
 70
     0
 62
    15
  6
CONTINUOUS
370
    -3
390
F
  0
LAYER
  5
7F
330
2
100
AcDbSymbolTableRecord
100
AcDbLayerTableRecord
  2
DEFPOINTS
 70
     0
 62
     7
  6
CONTINUOUS
290
     0
370
    -3
390
F
  0
ENDTAB
  0
TABLE
  2
STYLE
  5
3
330
0
100
AcDbSymbolTable
 70
     4
  0
STYLE
  5
55
330
3
100
AcDbSymbolTableRecord
100
AcDbTextStyleTableRecord
  2
STANDARD
 70
     0
 40
0.0
 41
0.9
 50
0.0
 71
     0
 42
64.0
  3
SIMPLEX
  4
BIGFONT
  0
STYLE
  5
59
330
3
100
AcDbSymbolTableRecord
100
AcDbTextStyleTableRecord
  2
Annotative
 70
     0
 40
0.0
 41
1.0
 50
0.0
 71
     0
 42
0.2
  3
txt
  4

1001
AcadAnnotative
1000
AnnotativeData
1002
{
1070
     1
1070
     1
1002
}
  0
STYLE
  5
74
330
3
100
AcDbSymbolTableRecord
100
AcDbTextStyleTableRecord
  2
STANDARD1
 70
     0
 40
60.0
 41
0.7
 50
0.0
 71
     0
 42
60.0
  3
MONOTXT.shx
  4
BIGFONT.shx
  0
STYLE
  5
80
330
3
100
AcDbSymbolTableRecord
100
AcDbTextStyleTableRecord
  2
STANDARD_MODELNAME
 70
     0
 40
80.0
 41
0.8
 50
0.0
 71
     0
 42
64.0
  3
MONOTXT.shx
  4
BIGFONT.shx
  0
ENDTAB
  0
TABLE
  2
VIEW
  5
6
330
0
100
AcDbSymbolTable
 70
     1
  0
VIEW
  5
81
330
6
100
AcDbSymbolTableRecord
100
AcDbViewTableRecord
  2
ALL
 70
     0
 40
9000.0
 10
241.506647
 20
0.0
 41
12483.01
 11
0.0
 21
0.0
 31
1.0
 12
0.0
 22
0.0
 32
0.0
 42
50.0
 43
0.0
 44
0.0
 50
0.0
 71
     0
281
     0
 72
     0
  0
ENDTAB
  0
TABLE
  2
UCS
  5
7
330
0
100
AcDbSymbolTable
 70
     0
  0
ENDTAB
  0
TABLE
  2
APPID
  5
9
330
0
100
AcDbSymbolTable
 70
     5
  0
APPID
  5
56
330
9
100
AcDbSymbolTableRecord
100
AcDbRegAppTableRecord
  2
ACAD
 70
     0
  0
APPID
  5
5D
330
9
100
AcDbSymbolTableRecord
100
AcDbRegAppTableRecord
  2
AcadAnnotative
 70
     0
  0
APPID
  5
8C6
330
9
100
AcDbSymbolTableRecord
100
AcDbRegAppTableRecord
  2
ACAD_NAV_VCDISPLAY
 70
     0
  0
APPID
  5
8D3
330
9
100
AcDbSymbolTableRecord
100
AcDbRegAppTableRecord
  2
ACAD_EXEMPT_FROM_CAD_STANDARDS
 70
     0
  0
APPID
  5
92D
330
9
100
AcDbSymbolTableRecord
100
AcDbRegAppTableRecord
  2
ACAD_MLEADERVER
 70
     0
  0
ENDTAB
  0
TABLE
  2
DIMSTYLE
  5
A
330
0
100
AcDbSymbolTable
 70
     2
100
AcDbDimStyleTable
 71
     0
  0
DIMSTYLE
105
57
330
A
100
AcDbSymbolTableRecord
100
AcDbDimStyleTableRecord
  2
Standard
 70
     0
340
55
  0
DIMSTYLE
105
58
330
A
100
AcDbSymbolTableRecord
100
AcDbDimStyleTableRecord
  2
Annotative
 70
     0
340
55
1001
AcadAnnotative
1000
AnnotativeData
1002
{
1070
     1
1070
     1
1002
}
  0
ENDTAB
  0
TABLE
  2
BLOCK_RECORD
  5
1
330
0
100
AcDbSymbolTable
 70
     2
  0
BLOCK_RECORD
  5
6F
330
1
100
AcDbSymbolTableRecord
100
AcDbBlockTableRecord
  2
*Model_Space
340
72
  0
BLOCK_RECORD
  5
6B
330
1
100
AcDbSymbolTableRecord
100
AcDbBlockTableRecord
  2
*Paper_Space
340
6E
  0
BLOCK_RECORD
  5
87
330
1
100
AcDbSymbolTableRecord
100
AcDbBlockTableRecord
  2
_SMALL
340
0
  0
ENDTAB
  0
ENDSEC
  0
SECTION
  2
BLOCKS
  0
BLOCK
  5
70
330
6F
100
AcDbEntity
  8
0
100
AcDbBlockBegin
  2
*Model_Space
 70
     0
 10
0.0
 20
0.0
 30
0.0
  3
*Model_Space
  1

  0
ENDBLK
  5
71
330
6F
100
AcDbEntity
  8
0
100
AcDbBlockEnd
  0
BLOCK
  5
6C
330
6B
100
AcDbEntity
 67
     1
  8
0
100
AcDbBlockBegin
  2
*Paper_Space
 70
     0
 10
0.0
 20
0.0
 30
0.0
  3
*Paper_Space
  1

  0
ENDBLK
  5
6D
330
6B
100
AcDbEntity
 67
     1
  8
0
100
AcDbBlockEnd
  0
BLOCK
  5
88
330
87
100
AcDbEntity
  8
0
100
AcDbBlockBegin
  2
_SMALL
 70
     0
 10
0.0
 20
0.0
 30
0.0
  3
_SMALL
  1

  0
CIRCLE
  5
89
330
87
100
AcDbEntity
  8
0
  6
Continuous
 62
     7
100
AcDbCircle
 10
0.0
 20
0.0
 30
0.0
 40
0.25
  0
ENDBLK
  5
8A
330
87
100
AcDbEntity
  8
0
100
AcDbBlockEnd
  0
ENDSEC
  0
SECTION
  2
ENTITIES
  0
LINE
  5
8B
330
6F
100
AcDbEntity
  8
DETAIL
  6
Continuous
 62
     5
100
AcDbLine
 10
604.7649870000022
 20
55.95860999999967
 30
0.0
 11
603.9915470000015
 21
55.93166699999892
 31
0.0
  0
LINE
  5
8C
330
6F
100
AcDbEntity
  8
DETAIL
  6
Continuous
 62
     5
100
AcDbLine
 10
600.5915469999998
 20
0.0
 30
0.0
 11
-600.6084530000007
 21
0.0
 31
0.0
  0
LINE
  5
8D
330
6F
100
AcDbEntity
  8
DETAIL
  6
Continuous
 62
     5
100
AcDbLine
 10
-600.6084530000007
 20
3.399999999999636
 30
0.0
 11
-604.0084529999984
 21
3.399999999999636
 31
0.0
  0
LINE
  5
8E
330
6F
100
AcDbEntity
  8
DETAIL
  6
Continuous
 62
     5
100
AcDbLine
 10
600.5915469999998
 20
3.399999999999636
 30
0.0
 11
603.9915470000015
 21
3.399999999999636
 31
0.0
  0
LINE
  5
8F
330
6F
100
AcDbEntity
  8
DETAIL
  6
Continuous
 62
     5
100
AcDbLine
 10
447.9915470000014
 20
13.0
 30
0.0
 11
393.9915470000014
 21
13.0
 31
0.0
  0
LINE
  5
90
330
6F
100
AcDbEntity
  8
DETAIL
  6
Continuous
 62
     5
100
AcDbLine
 10
-394.0084529999986
 20
13.0
 30
0.0
 11
-448.0084529999984
 21
13.0
 31
0.0
  0
LINE
  5
91
330
6F
100
AcDbEntity
  8
DETAIL
  6
Continuous
 62
     5
100
AcDbLine
 10
-448.0084529999984
 20
43.0
 30
0.0
 11
-394.0084529999986
 21
43.0
 31
0.0
  0
LINE
  5
92
330
6F
100
AcDbEntity
  8
DETAIL
  6
Continuous
 62
     5
100
AcDbLine
 10
393.9915470000014
 20
43.0
 30
0.0
 11
447.9915470000014
 21
43.0
 31
0.0
  0
LINE
  5
93
330
6F
100
AcDbEntity
  8
DETAIL
  6
Continuous
 62
     5
100
AcDbLine
 10
-106.5084529999985
 20
81.69999999999891
 30
0.0
 11
-121.5084529999985
 21
81.69999999999891
 31
0.0
  0
LINE
  5
94
330
6F
100
AcDbEntity
  8
DETAIL
  6
Continuous
 62
     5
100
AcDbLine
 10
-604.0084529999984
 20
55.92923499999961
 30
0.0
 11
-605.8516909999998
 21
55.99344599999859
 31
0.0
  0
LINE
  5
95
330
6F
100
AcDbEntity
  8
DETAIL
  6
Continuous
 62
     5
100
AcDbLine
 10
-103.0084529999985
 20
99.69999999999892
 30
0.0
 11
-125.0084529999985
 21
99.69999999999892
 31
0.0
  0
LINE
  5
96
330
6F
100
AcDbEntity
  8
DETAIL
  6
Continuous
 62
     5
100
AcDbLine
 10
-123.2584529999985
 20
103.1999999999989
 30
0.0
 11
-104.7584529999985
 21
103.1999999999989
 31
0.0
  0
LINE
  5
97
330
6F
100
AcDbEntity
  8
DETAIL
  6
Continuous
 62
     5
100
AcDbLine
 10
603.9915470000015
 20
114.5999999999985
 30
0.0
 11
600.5915469999998
 21
114.5999999999985
 31
0.0
  0
LINE
  5
98
330
6F
100
AcDbEntity
  8
DETAIL
  6
Continuous
 62
     5
100
AcDbLine
 10
-604.0084529999984
 20
114.5999999999985
 30
0.0
 11
-600.6084530000007
 21
114.5999999999985
 31
0.0
  0
LINE
  5
99
330
6F
100
AcDbEntity
  8
DETAIL
  6
Continuous
 62
     5
100
AcDbLine
 10
-105.158453
 20
115.1999999999989
 30
0.0
 11
-122.8584530000007
 21
115.1999999999989
 31
0.0
  0
LINE
  5
9A
330
6F
100
AcDbEntity
  8
DETAIL
  6
Continuous
 62
     5
100
AcDbLine
 10
-600.6084530000007
 20
117.9999999999981
 30
0.0
 11
600.5915469999998
 21
118.0
 31
0.0
  0
LINE
  5
9B
330
6F
100
AcDbEntity
  8
DETAIL
  6
Continuous
 62
     5
100
AcDbLine
 10
-541.0084529999985
 20
123.0
 30
0.0
 11
-604.0084529999984
 21
123.0
 31
0.0
  0
LINE
  5
9C
330
6F
100
AcDbEntity
  8
DETAIL
  6
Continuous
 62
     5
100
AcDbLine
 10
540.9915470000015
 20
123.0
 30
0.0
 11
605.9217480000008
 21
123.0000000000018
 31
0.0
  0
LINE
  5
9D
330
6F
100
AcDbEntity
  8
DETAIL
  6
Continuous
 62
     5
100
AcDbLine
 10
-535.5084529999985
 20
143.5
 30
0.0
 11
-534.1084530000008
 21
143.5
 31
0.0
  0
LINE
  5
9E
330
6F
100
AcDbEntity
  8
DETAIL
  6
Continuous
 62
     5
100
AcDbLine
 10
-537.0084529999985
 20
148.0
 30
0.0
 11
-538.0084529999985
 21
148.0
 31
0.0
  0
LINE
  5
9F
330
6F
100
AcDbEntity
  8
DETAIL
  6
Continuous
 62
     5
100
AcDbLine
 10
536.9915470000015
 20
148.0
 30
0.0
 11
537.9915470000015
 21
148.0
 31
0.0
  0
LINE
  5
A0
330
6F
100
AcDbEntity
  8
DETAIL
  6
Continuous
 62
     5
100
AcDbLine
 10
535.4915470000015
 20
149.5
 30
0.0
 11
534.6915470000022
 21
149.5
 31
0.0
  0
LINE
  5
A1
330
6F
100
AcDbEntity
  8
DETAIL
  6
Continuous
 62
     5
100
AcDbLine
 10
-475.5084529999987
 20
188.6794919999993
 30
0.0
 11
-488.5084529999985
 21
188.6794919999993
 31
0.0
  0
LINE
  5
A2
330
6F
100
AcDbEntity
  8
DETAIL
  6
Continuous
 62
     5
100
AcDbLine
 10
-488.5084529999985
 20
223.3205080000007
 30
0.0
 11
-475.5084529999987
 21
223.3205080000007
 31
0.0
  0
LINE
  5
A3
330
6F
100
AcDbEntity
  8
DETAIL
  6
Continuous
 62
     5
100
AcDbLine
 10
-475.5084529999985
 20
462.6794919999992
 30
0.0
 11
-488.5084529999985
 21
462.6794919999992
 31
0.0
  0
LINE
  5
A4
330
6F
100
AcDbEntity
  8
DETAIL
  6
Continuous
 62
     5
100
AcDbLine
 10
-488.5084529999985
 20
497.3205080000005
 30
0.0
 11
-475.5084529999985
 21
497.3205080000005
 31
0.0
  0
LINE
  5
A5
330
6F
100
AcDbEntity
  8
DETAIL
  6
Continuous
 62
     5
100
AcDbLine
 10
-500.2584529999985
 20
202.9689109999999
 30
0.0
 11
-493.7584529999988
 21
191.7105809999993
 31
0.0
  0
LINE
  5
A6
330
6F
100
AcDbEntity
  8
DETAIL
  6
Continuous
 62
     5
100
AcDbLine
 10
-535.5084529999985
 20
597.5
 30
0.0
 11
-532.5084529999985
 21
597.5
 31
0.0
  0
LINE
  5
A7
330
6F
100
AcDbEntity
  8
DETAIL
  6
Continuous
 62
     5
100
AcDbLine
 10
-535.5084529999985
 20
598.5
 30
0.0
 11
-397.5084529999985
 21
598.5
 31
0.0
  0
LINE
  5
A8
330
6F
100
AcDbEntity
  8
DETAIL
  6
Continuous
 62
     5
100
AcDbLine
 10
-463.7584529999985
 20
209.031089
 30
0.0
 11
-470.2584529999985
 21
220.2894199999992
 31
0.0
  0
LINE
  5
A9
330
6F
100
AcDbEntity
  8
DETAIL
  6
Continuous
 62
     5
100
AcDbLine
 10
-500.2584529999984
 20
476.9689109999999
 30
0.0
 11
-493.7584529999985
 21
465.7105809999992
 31
0.0
  0
LINE
  5
AA
330
6F
100
AcDbEntity
  8
DETAIL
  6
Continuous
 62
     5
100
AcDbLine
 10
-463.7584529999984
 20
483.0310889999999
 30
0.0
 11
-470.2584529999985
 21
494.2894200000009
 31
0.0
  0
LINE
  5
AB
330
6F
100
AcDbEntity
  8
DETAIL
  6
Continuous
 62
     5
100
AcDbLine
 10
535.4915470000015
 20
795.5
 30
0.0
 11
534.6915470000022
 21
795.5
 31
0.0
  0
LINE
  5
AC
330
6F
100
AcDbEntity
  8
DETAIL
  6
Continuous
 62
     5
100
AcDbLine
 10
-535.5084529999985
 20
795.5
 30
0.0
 11
-534.7084529999992
 21
795.5
 31
0.0
  0
LINE
  5
AD
330
6F
100
AcDbEntity
  8
DETAIL
  6
Continuous
 62
     5
100
AcDbLine
 10
534.6915470000022
 20
796.4999999999999
 30
0.0
 11
-534.7084529999992
 21
796.4999999999999
 31
0.0
  0
LINE
  5
AE
330
6F
100
AcDbEntity
  8
DETAIL
  6
Continuous
 62
     5
100
AcDbLine
 10
-534.7084529999992
 20
818.5
 30
0.0
 11
534.6915470000022
 21
818.5
 31
0.0
  0
LINE
  5
AF
330
6F
100
AcDbEntity
  8
DETAIL
  6
Continuous
 62
     5
100
AcDbLine
 10
535.4915470000015
 20
819.5
 30
0.0
 11
534.6915470000022
 21
819.5
 31
0.0
  0
LINE
  5
B0
330
6F
100
AcDbEntity
  8
DETAIL
  6
Continuous
 62
     5
100
AcDbLine
 10
-535.5084529999985
 20
819.5
 30
0.0
 11
-534.7084529999992
 21
819.5
 31
0.0
  0
LINE
  5
B1
330
6F
100
AcDbEntity
  8
DETAIL
  6
Continuous
 62
     5
100
AcDbLine
 10
-610.0
 20
1470.0
 30
0.0
 11
-610.0
 21
1434.0
 31
0.0
  0
LINE
  5
B2
330
6F
100
AcDbEntity
  8
DETAIL
  6
Continuous
 62
     5
100
AcDbLine
 10
-605.2084529999993
 20
130.0000000000018
 30
0.0
 11
-605.2084529999993
 21
1434.0
 31
0.0
  0
LINE
  5
B3
330
6F
100
AcDbEntity
  8
DETAIL
  6
Continuous
 62
     5
100
AcDbLine
 10
-604.0084529999984
 20
3.399999999999636
 30
0.0
 11
-604.0084529999984
 21
123.0
 31
0.0
  0
LINE
  5
B4
330
6F
100
AcDbEntity
  8
DETAIL
  6
Continuous
 62
     5
100
AcDbLine
 10
-600.6084530000007
 20
118.0
 30
0.0
 11
-600.6084530000007
 21
114.5999999999985
 31
0.0
  0
LINE
  5
B5
330
6F
100
AcDbEntity
  8
DETAIL
  6
Continuous
 62
     5
100
AcDbLine
 10
-600.6084530000007
 20
0.0
 30
0.0
 11
-600.6084530000007
 21
3.199999999998908
 31
0.0
  0
LINE
  5
B6
330
6F
100
AcDbEntity
  8
DETAIL
  6
Continuous
 62
     5
100
AcDbLine
 10
-558.4226659999984
 20
123.0
 30
0.0
 11
-558.4226659999984
 21
1434.0
 31
0.0
  0
LINE
  5
B7
330
6F
100
AcDbEntity
  8
DETAIL
  6
Continuous
 62
     5
100
AcDbLine
 10
-538.0084529999985
 20
1434.0
 30
0.0
 11
-538.0084529999985
 21
1392.0
 31
0.0
  0
LINE
  5
B8
330
6F
100
AcDbEntity
  8
DETAIL
  6
Continuous
 62
     5
100
AcDbLine
 10
-538.0084529999985
 20
126.0
 30
0.0
 11
-538.0084529999985
 21
148.0
 31
0.0
  0
LINE
  5
B9
330
6F
100
AcDbEntity
  8
DETAIL
  6
Continuous
 62
     5
100
AcDbLine
 10
-537.0084529999985
 20
148.0
 30
0.0
 11
-537.0084529999985
 21
1392.0
 31
0.0
  0
LINE
  5
BA
330
6F
100
AcDbEntity
  8
DETAIL
  6
Continuous
 62
     5
100
AcDbLine
 10
-535.5084529999985
 20
795.5
 30
0.0
 11
-535.5084529999985
 21
598.5
 31
0.0
  0
LINE
  5
BB
330
6F
100
AcDbEntity
  8
DETAIL
  6
Continuous
 62
     5
100
AcDbLine
 10
-535.5084529999985
 20
143.5
 30
0.0
 11
-535.5084529999985
 21
597.5
 31
0.0
  0
LINE
  5
BC
330
6F
100
AcDbEntity
  8
DETAIL
  6
Continuous
 62
     5
100
AcDbLine
 10
-535.5084529999985
 20
819.5
 30
0.0
 11
-535.5084529999985
 21
1386.5
 31
0.0
  0
LINE
  5
BD
330
6F
100
AcDbEntity
  8
DETAIL
  6
Continuous
 62
     5
100
AcDbLine
 10
-534.7084529999992
 20
795.5
 30
0.0
 11
-534.7084529999992
 21
796.6999999999988
 31
0.0
  0
LINE
  5
BE
330
6F
100
AcDbEntity
  8
DETAIL
  6
Continuous
 62
     5
100
AcDbLine
 10
-534.7084529999992
 20
818.2999999999989
 30
0.0
 11
-534.7084529999992
 21
819.5
 31
0.0
  0
LINE
  5
BF
330
6F
100
AcDbEntity
  8
DETAIL
  6
Continuous
 62
     5
100
AcDbLine
 10
-532.5084529999985
 20
598.5
 30
0.0
 11
-532.5084529999985
 21
597.5
 31
0.0
  0
LINE
  5
C0
330
6F
100
AcDbEntity
  8
DETAIL
  6
Continuous
 62
     5
100
AcDbLine
 10
91.99154700000143
 20
1156.609999999997
 30
0.0
 11
156.9915470000014
 21
1156.609999999997
 31
0.0
  0
LINE
  5
C1
330
6F
100
AcDbEntity
  8
DETAIL
  6
Continuous
 62
     5
100
AcDbLine
 10
-448.0084529999984
 20
13.0
 30
0.0
 11
-448.0084529999984
 21
43.0
 31
0.0
  0
LINE
  5
C2
330
6F
100
AcDbEntity
  8
DETAIL
  6
Continuous
 62
     5
100
AcDbLine
 10
-420.115053999998
 20
1434.0
 30
0.0
 11
-420.115053999998
 21
1470.0
 31
0.0
  0
LINE
  5
C3
330
6F
100
AcDbEntity
  8
DETAIL
  6
Continuous
 62
     5
100
AcDbLine
 10
-394.0084529999986
 20
43.0
 30
0.0
 11
-394.0084529999986
 21
13.0
 31
0.0
  0
LINE
  5
C4
330
6F
100
AcDbEntity
  8
DETAIL
  6
Continuous
 62
     5
100
AcDbLine
 10
-375.5084529999986
 20
119.2999999999992
 30
0.0
 11
-375.5084529999986
 21
576.4999999999998
 31
0.0
  0
LINE
  5
C5
330
6F
100
AcDbEntity
  8
DETAIL
  6
Continuous
 62
     5
100
AcDbLine
 10
156.9915470000014
 20
1216.609999999997
 30
0.0
 11
91.99154700000143
 21
1216.609999999997
 31
0.0
  0
LINE
  5
C6
330
6F
100
AcDbEntity
  8
DETAIL
  6
Continuous
 62
     5
100
AcDbLine
 10
535.4915470000015
 20
1386.5
 30
0.0
 11
534.6915470000022
 21
1386.5
 31
0.0
  0
LINE
  5
C7
330
6F
100
AcDbEntity
  8
DETAIL
  6
Continuous
 62
     5
100
AcDbLine
 10
-535.5084529999985
 20
1386.5
 30
0.0
 11
-534.7084529999992
 21
1386.5
 31
0.0
  0
LINE
  5
C8
330
6F
100
AcDbEntity
  8
DETAIL
  6
Continuous
 62
     5
100
AcDbLine
 10
-534.7084529999992
 20
1392.0
 30
0.0
 11
-538.0084529999985
 21
1392.0
 31
0.0
  0
LINE
  5
C9
330
6F
100
AcDbEntity
  8
DETAIL
  6
Continuous
 62
     5
100
AcDbLine
 10
534.6915470000022
 20
1392.0
 30
0.0
 11
537.9915470000015
 21
1392.0
 31
0.0
  0
LINE
  5
CA
330
6F
100
AcDbEntity
  8
DETAIL
  6
Continuous
 62
     5
100
AcDbLine
 10
-610.0
 20
1434.0
 30
0.0
 11
610.0
 21
1434.0
 31
0.0
  0
LINE
  5
CB
330
6F
100
AcDbEntity
  8
DETAIL
  6
Continuous
 62
     5
100
AcDbLine
 10
-127.2875089999979
 20
97.42094399999952
 30
0.0
 11
-127.2875089999979
 21
89.47905699999862
 31
0.0
  0
LINE
  5
CC
330
6F
100
AcDbEntity
  8
DETAIL
  6
Continuous
 62
     5
100
AcDbLine
 10
-124.9781079999993
 20
111.4803449999999
 30
0.0
 11
-124.9781079999993
 21
104.9196549999997
 31
0.0
  0
LINE
  5
CD
330
6F
100
AcDbEntity
  8
DETAIL
  6
Continuous
 62
     5
100
AcDbLine
 10
-122.8584530000007
 20
115.1999999999989
 30
0.0
 11
-122.8584529999971
 21
118.0
 31
0.0
  0
LINE
  5
CE
330
6F
100
AcDbEntity
  8
DETAIL
  6
Continuous
 62
     5
100
AcDbLine
 10
-120.6479809999982
 20
97.42094399999952
 30
0.0
 11
-120.6479809999982
 21
89.47905699999862
 31
0.0
  0
LINE
  5
CF
330
6F
100
AcDbEntity
  8
DETAIL
  6
Continuous
 62
     5
100
AcDbLine
 10
-119.4932799999987
 20
111.4803449999999
 30
0.0
 11
-119.4932799999987
 21
104.9196549999997
 31
0.0
  0
LINE
  5
D0
330
6F
100
AcDbEntity
  8
DETAIL
  6
Continuous
 62
     5
100
AcDbLine
 10
-108.523624999998
 20
111.4803449999999
 30
0.0
 11
-108.523624999998
 21
104.9196549999997
 31
0.0
  0
LINE
  5
D1
330
6F
100
AcDbEntity
  8
DETAIL
  6
Continuous
 62
     5
100
AcDbLine
 10
-107.3689249999988
 20
97.42094399999952
 30
0.0
 11
-107.3689249999988
 21
89.47905699999862
 31
0.0
  0
LINE
  5
D2
330
6F
100
AcDbEntity
  8
DETAIL
  6
Continuous
 62
     5
100
AcDbLine
 10
-105.158453
 20
115.1999999999989
 30
0.0
 11
-105.1584529999963
 21
118.0
 31
0.0
  0
LINE
  5
D3
330
6F
100
AcDbEntity
  8
DETAIL
  6
Continuous
 62
     5
100
AcDbLine
 10
-103.038797000001
 20
111.4803449999999
 30
0.0
 11
-103.038797000001
 21
104.9196549999997
 31
0.0
  0
LINE
  5
D4
330
6F
100
AcDbEntity
  8
DETAIL
  6
Continuous
 62
     5
100
AcDbLine
 10
-100.7293959999988
 20
97.42094399999952
 30
0.0
 11
-100.7293959999988
 21
89.47905699999862
 31
0.0
  0
LINE
  5
D5
330
6F
100
AcDbEntity
  8
DETAIL
  6
Continuous
 62
     5
100
AcDbLine
 10
606.0
 20
1474.0
 30
0.0
 11
-606.0084529999984
 21
1474.0
 31
0.0
  0
LINE
  5
D6
330
6F
100
AcDbEntity
  8
DETAIL
  6
Continuous
 62
     5
100
AcDbLine
 10
604.7649840000012
 20
55.95860999999967
 30
0.0
 11
604.7636280000006
 21
55.96148399999947
 31
0.0
  0
LINE
  5
D7
330
6F
100
AcDbEntity
  8
DETAIL
  6
Continuous
 62
     5
100
AcDbLine
 10
91.99154700000143
 20
1216.609999999997
 30
0.0
 11
91.99154700000143
 21
1156.609999999997
 31
0.0
  0
LINE
  5
D8
330
6F
100
AcDbEntity
  8
DETAIL
  6
Continuous
 62
     5
100
AcDbLine
 10
156.9915470000014
 20
1156.609999999997
 30
0.0
 11
156.9915470000014
 21
1216.609999999997
 31
0.0
  0
LINE
  5
D9
330
6F
100
AcDbEntity
  8
DETAIL
  6
Continuous
 62
     5
100
AcDbLine
 10
-605.8516879999988
 20
55.99344599999859
 30
0.0
 11
-605.850331999998
 21
55.99631999999838
 31
0.0
  0
LINE
  5
DA
330
6F
100
AcDbEntity
  8
DETAIL
  6
Continuous
 62
     5
100
AcDbLine
 10
-500.2584529999984
 20
483.0310889999999
 30
0.0
 11
-493.7584529999985
 21
494.2894200000009
 31
0.0
  0
LINE
  5
DB
330
6F
100
AcDbEntity
  8
DETAIL
  6
Continuous
 62
     5
100
AcDbLine
 10
-463.7584529999984
 20
476.9689109999999
 30
0.0
 11
-470.2584529999985
 21
465.7105809999992
 31
0.0
  0
LINE
  5
DC
330
6F
100
AcDbEntity
  8
DETAIL
  6
Continuous
 62
     5
100
AcDbLine
 10
-500.2584529999985
 20
209.031089
 30
0.0
 11
-493.7584529999988
 21
220.2894199999992
 31
0.0
  0
LINE
  5
DD
330
6F
100
AcDbEntity
  8
DETAIL
  6
Continuous
 62
     5
100
AcDbLine
 10
393.9915470000014
 20
13.0
 30
0.0
 11
393.9915470000014
 21
43.0
 31
0.0
  0
LINE
  5
DE
330
6F
100
AcDbEntity
  8
DETAIL
  6
Continuous
 62
     5
100
AcDbLine
 10
420.0981490000012
 20
1434.0
 30
0.0
 11
420.0981490000012
 21
1470.0
 31
0.0
  0
LINE
  5
DF
330
6F
100
AcDbEntity
  8
DETAIL
  6
Continuous
 62
     5
100
AcDbLine
 10
447.9915470000014
 20
43.0
 30
0.0
 11
447.9915470000014
 21
13.0
 31
0.0
  0
LINE
  5
E0
330
6F
100
AcDbEntity
  8
DETAIL
  6
Continuous
 62
     5
100
AcDbLine
 10
-463.7584529999985
 20
202.9689109999999
 30
0.0
 11
-470.2584529999985
 21
191.7105809999993
 31
0.0
  0
LINE
  5
E1
330
6F
100
AcDbEntity
  8
DETAIL
  6
Continuous
 62
     5
100
AcDbLine
 10
534.6915470000022
 20
118.0
 30
0.0
 11
534.6915470000022
 21
149.5
 31
0.0
  0
LINE
  5
E2
330
6F
100
AcDbEntity
  8
DETAIL
  6
Continuous
 62
     5
100
AcDbLine
 10
534.6915470000022
 20
795.5
 30
0.0
 11
534.6915470000022
 21
796.6999999999988
 31
0.0
  0
LINE
  5
E3
330
6F
100
AcDbEntity
  8
DETAIL
  6
Continuous
 62
     5
100
AcDbLine
 10
534.6915470000022
 20
818.2999999999989
 30
0.0
 11
534.6915470000022
 21
819.5
 31
0.0
  0
LINE
  5
E4
330
6F
100
AcDbEntity
  8
DETAIL
  6
Continuous
 62
     5
100
AcDbLine
 10
535.4915470000015
 20
1386.5
 30
0.0
 11
535.4915470000015
 21
819.5
 31
0.0
  0
LINE
  5
E5
330
6F
100
AcDbEntity
  8
DETAIL
  6
Continuous
 62
     5
100
AcDbLine
 10
535.4915470000015
 20
795.5
 30
0.0
 11
535.4915470000015
 21
149.5
 31
0.0
  0
LINE
  5
E6
330
6F
100
AcDbEntity
  8
DETAIL
  6
Continuous
 62
     5
100
AcDbLine
 10
536.9915470000015
 20
148.0
 30
0.0
 11
536.9915470000015
 21
1392.0
 31
0.0
  0
LINE
  5
E7
330
6F
100
AcDbEntity
  8
DETAIL
  6
Continuous
 62
     5
100
AcDbLine
 10
537.9915470000015
 20
1434.0
 30
0.0
 11
537.9915470000015
 21
1392.0
 31
0.0
  0
LINE
  5
E8
330
6F
100
AcDbEntity
  8
DETAIL
  6
Continuous
 62
     5
100
AcDbLine
 10
537.9915470000015
 20
126.0
 30
0.0
 11
537.9915470000015
 21
148.0
 31
0.0
  0
LINE
  5
E9
330
6F
100
AcDbEntity
  8
DETAIL
  6
Continuous
 62
     5
100
AcDbLine
 10
558.4057610000018
 20
123.0
 30
0.0
 11
558.4057610000018
 21
1434.0
 31
0.0
  0
LINE
  5
EA
330
6F
100
AcDbEntity
  8
DETAIL
  6
Continuous
 62
     5
100
AcDbLine
 10
600.5915469999998
 20
118.0
 30
0.0
 11
600.5915469999998
 21
114.5999999999985
 31
0.0
  0
LINE
  5
EB
330
6F
100
AcDbEntity
  8
DETAIL
  6
Continuous
 62
     5
100
AcDbLine
 10
600.5915469999998
 20
3.199999999998908
 30
0.0
 11
600.5915469999998
 21
0.0
 31
0.0
  0
LINE
  5
EC
330
6F
100
AcDbEntity
  8
DETAIL
  6
Continuous
 62
     5
100
AcDbLine
 10
600.5915469999998
 20
3.199999999998908
 30
0.0
 11
600.5915469999998
 21
3.399999999999636
 31
0.0
  0
LINE
  5
ED
330
6F
100
AcDbEntity
  8
DETAIL
  6
Continuous
 62
     5
100
AcDbLine
 10
603.9915470000015
 20
114.5999999999985
 30
0.0
 11
603.9915470000015
 21
3.399999999999636
 31
0.0
  0
LINE
  5
EE
330
6F
100
AcDbEntity
  8
DETAIL
  6
Continuous
 62
     5
100
AcDbLine
 10
605.1915470000022
 20
130.0
 30
0.0
 11
605.1915470000022
 21
1434.0
 31
0.0
  0
LINE
  5
EF
330
6F
100
AcDbEntity
  8
DETAIL
  6
Continuous
 62
     5
100
AcDbLine
 10
610.0
 20
1434.0
 30
0.0
 11
610.0
 21
1470.0
 31
0.0
  0
LINE
  5
F0
330
6F
100
AcDbEntity
  8
BASIS
  6
DASHDOT
 62
     6
100
AcDbLine
 10
0.0
 20
-88.1309013109112
 30
0.0
 11
0.0
 21
1829.227234415946
 31
0.0
  0
ARC
  5
F1
330
6F
100
AcDbEntity
  8
DETAIL
  6
Continuous
 62
     5
100
AcDbCircle
 10
-541.0084529999985
 20
126.0
 30
0.0
 40
3.0
100
AcDbArc
 50
270.0
 51
0.0
  0
ARC
  5
F2
330
6F
100
AcDbEntity
  8
DETAIL
  6
Continuous
 62
     5
100
AcDbCircle
 10
-605.8083960000001
 20
57.19824399999925
 30
0.0
 40
1.202655999999999
100
AcDbArc
 50
249.6008090000144
 51
268.0016999999736
  0
ARC
  5
F3
330
6F
100
AcDbEntity
  8
DETAIL
  6
Continuous
 62
     5
100
AcDbCircle
 10
-605.8092079999986
 20
57.19598299999962
 30
0.0
 40
1.200252
100
AcDbArc
 50
248.5919500000182
 51
249.599516000026
  0
ARC
  5
F4
330
6F
100
AcDbEntity
  8
DETAIL
  6
Continuous
 62
     5
100
AcDbCircle
 10
-605.810132999999
 20
57.19439299999976
 30
0.0
 40
1.198382999999999
100
AcDbArc
 50
180.0374289999205
 51
248.6055939999767
  0
ARC
  5
F5
330
6F
100
AcDbEntity
  8
DETAIL
  6
Continuous
 62
     5
100
AcDbCircle
 10
-482.0084529999985
 20
206.0
 30
0.0
 40
18.5
100
AcDbArc
 50
230.569991999966
 51
249.4300080000485
  0
ARC
  5
F6
330
6F
100
AcDbEntity
  8
DETAIL
  6
Continuous
 62
     5
100
AcDbCircle
 10
-482.0084529999985
 20
206.0
 30
0.0
 40
18.5
100
AcDbArc
 50
290.5699919999515
 51
309.4300080000341
  0
ARC
  5
F7
330
6F
100
AcDbEntity
  8
DETAIL
  6
Continuous
 62
     5
100
AcDbCircle
 10
-482.0084529999985
 20
206.0
 30
0.0
 40
18.5
100
AcDbArc
 50
110.5699919999514
 51
129.430008000034
  0
ARC
  5
F8
330
6F
100
AcDbEntity
  8
DETAIL
  6
Continuous
 62
     5
100
AcDbCircle
 10
-482.0084529999985
 20
206.0
 30
0.0
 40
18.5
100
AcDbArc
 50
170.5699920000145
 51
189.4300079999853
  0
ARC
  5
F9
330
6F
100
AcDbEntity
  8
DETAIL
  6
Continuous
 62
     5
100
AcDbCircle
 10
-482.0084529999985
 20
206.0
 30
0.0
 40
18.5
100
AcDbArc
 50
50.56999199996599
 51
69.43000800004853
  0
ARC
  5
FA
330
6F
100
AcDbEntity
  8
DETAIL
  6
Continuous
 62
     5
100
AcDbCircle
 10
-482.0084529999985
 20
206.0
 30
0.0
 40
18.5
100
AcDbArc
 50
350.5699920000146
 51
9.430007999985459
  0
ARC
  5
FB
330
6F
100
AcDbEntity
  8
DETAIL
  6
Continuous
 62
     5
100
AcDbCircle
 10
-482.0084529999985
 20
206.0
 30
0.0
 40
17.5
100
AcDbArc
 50
22.22844399996505
 51
37.62578499994547
  0
ARC
  5
FC
330
6F
100
AcDbEntity
  8
DETAIL
  6
Continuous
 62
     5
100
AcDbCircle
 10
-482.0084529999985
 20
206.0
 30
0.0
 40
17.5
100
AcDbArc
 50
322.3742150000546
 51
337.7715560000349
  0
CIRCLE
  5
FD
330
6F
100
AcDbEntity
  8
DETAIL
  6
Continuous
 62
     5
100
AcDbCircle
 10
-482.0084529999985
 20
206.0
 30
0.0
 40
8.75
  0
CIRCLE
  5
FE
330
6F
100
AcDbEntity
  8
DETAIL
  6
Continuous
 62
     5
100
AcDbCircle
 10
-482.0084529999985
 20
206.0
 30
0.0
 40
6.5
  0
ARC
  5
FF
330
6F
100
AcDbEntity
  8
DETAIL
  6
Continuous
 62
     5
100
AcDbCircle
 10
-397.5084529999985
 20
576.4999999999998
 30
0.0
 40
22.0
100
AcDbArc
 50
0.0
 51
90.0
  0
ARC
  5
100
330
6F
100
AcDbEntity
  8
DETAIL
  6
Continuous
 62
     5
100
AcDbCircle
 10
-482.0084529999984
 20
480.0
 30
0.0
 40
18.5
100
AcDbArc
 50
230.569991999966
 51
249.4300080000485
  0
ARC
  5
101
330
6F
100
AcDbEntity
  8
DETAIL
  6
Continuous
 62
     5
100
AcDbCircle
 10
-482.0084529999984
 20
480.0
 30
0.0
 40
18.5
100
AcDbArc
 50
290.5699919999515
 51
309.4300080000341
  0
ARC
  5
102
330
6F
100
AcDbEntity
  8
DETAIL
  6
Continuous
 62
     5
100
AcDbCircle
 10
-482.0084529999984
 20
480.0
 30
0.0
 40
18.5
100
AcDbArc
 50
110.5699919999514
 51
129.430008000034
  0
ARC
  5
103
330
6F
100
AcDbEntity
  8
DETAIL
  6
Continuous
 62
     5
100
AcDbCircle
 10
-482.0084529999984
 20
480.0
 30
0.0
 40
18.5
100
AcDbArc
 50
170.5699920000145
 51
189.4300079999853
  0
ARC
  5
104
330
6F
100
AcDbEntity
  8
DETAIL
  6
Continuous
 62
     5
100
AcDbCircle
 10
-482.0084529999984
 20
480.0
 30
0.0
 40
18.5
100
AcDbArc
 50
50.56999199996597
 51
69.43000800004853
  0
ARC
  5
105
330
6F
100
AcDbEntity
  8
DETAIL
  6
Continuous
 62
     5
100
AcDbCircle
 10
-482.0084529999984
 20
480.0
 30
0.0
 40
18.5
100
AcDbArc
 50
350.5699920000146
 51
9.430007999985463
  0
CIRCLE
  5
106
330
6F
100
AcDbEntity
  8
DETAIL
  6
Continuous
 62
     5
100
AcDbCircle
 10
-482.0084529999984
 20
480.0
 30
0.0
 40
8.75
  0
CIRCLE
  5
107
330
6F
100
AcDbEntity
  8
DETAIL
  6
Continuous
 62
     5
100
AcDbCircle
 10
-482.0084529999984
 20
480.0
 30
0.0
 40
6.5
  0
ARC
  5
108
330
6F
100
AcDbEntity
  8
DETAIL
  6
Continuous
 62
     5
100
AcDbCircle
 10
-606.0
 20
1470.0
 30
0.0
 40
4.0
100
AcDbArc
 50
90.0
 51
180.0
  0
ARC
  5
109
330
6F
100
AcDbEntity
  8
DETAIL
  6
Continuous
 62
     5
100
AcDbCircle
 10
-424.115053999998
 20
1470.0
 30
0.0
 40
4.0
100
AcDbArc
 50
0.0
 51
90.0
  0
ARC
  5
10A
330
6F
100
AcDbEntity
  8
DETAIL
  6
Continuous
 62
     5
100
AcDbCircle
 10
540.9915470000015
 20
126.0
 30
0.0
 40
3.0
100
AcDbArc
 50
180.0
 51
270.0
  0
ARC
  5
10B
330
6F
100
AcDbEntity
  8
DETAIL
  6
Continuous
 62
     5
100
AcDbCircle
 10
606.0
 20
1470.0
 30
0.0
 40
4.0
100
AcDbArc
 50
0.0
 51
90.0
  0
ARC
  5
10C
330
6F
100
AcDbEntity
  8
DETAIL
  6
Continuous
 62
     5
100
AcDbCircle
 10
424.0981490000012
 20
1470.0
 30
0.0
 40
4.0
100
AcDbArc
 50
90.0
 51
180.0
  0
LWPOLYLINE
  5
10D
330
6F
100
AcDbEntity
  8
DETAIL
  6
Continuous
 62
     5
100
AcDbPolyline
 90
      105
 70
     0
 43
0.0
 10
-107.3689249999988
 20
97.42094399999952
 10
-107.5669639999978
 20
97.51845599999979
 10
-107.7655479999994
 20
97.6147739999997
 10
-107.7655479999994
 20
97.6147739999997
 10
-107.9651459999986
 20
97.70895000000018
 10
-108.165907999999
 20
97.80102199999966
 10
-108.165907999999
 20
97.80102199999966
 10
-108.367764999999
 20
97.89114799999879
 10
-108.5700619999989
 20
97.97898499999972
 10
-108.5700619999989
 20
97.97898499999972
 10
-108.772664
 20
98.06431999999952
 10
-108.978068999997
 20
98.14796199999912
 10
-108.978068999997
 20
98.14796199999912
 10
-109.1869450000013
 20
98.23007700000015
 10
-109.3899859999983
 20
98.30725099999837
 10
-109.3899859999983
 20
98.30725099999837
 10
-109.5792999999976
 20
98.37663499999873
 10
-109.7626249999994
 20
98.44122699999935
 10
-109.7626249999994
 20
98.44122699999935
 10
-109.9491679999992
 20
98.50453500000003
 10
-110.1383639999985
 20
98.56624799999917
 10
-110.1383639999985
 20
98.56624799999917
 10
-110.3277589999998
 20
98.62533599999917
 10
-110.5171139999984
 20
98.68170699999971
 10
-110.5171139999984
 20
98.68170699999971
 10
-110.7069709999996
 20
98.73551799999953
 10
-110.8987839999972
 20
98.78699799999958
 10
-110.8987839999972
 20
98.78699799999958
 10
-111.0927689999989
 20
98.83608999999887
 10
-111.283285999998
 20
98.88151799999832
 10
-111.283285999998
 20
98.88151799999832
 10
-111.4655849999981
 20
98.92225199999849
 10
-111.644347999998
 20
98.95945199999914
 10
-111.644347999998
 20
98.95945199999914
 10
-111.825123999999
 20
98.99445399999969
 10
-112.0075099999994
 20
99.0271130000001
 10
-112.0075099999994
 20
99.0271130000001
 10
-112.1899830000002
 20
99.05701299999964
 10
-112.3724880000009
 20
99.0841249999994
 10
-112.3724880000009
 20
99.0841249999994
 10
-112.5553559999971
 20
99.1085009999988
 10
-112.738996
 20
99.13011399999959
 10
-112.738996
 20
99.13011399999959
 10
-112.9233929999973
 20
99.14889799999949
 10
-113.1067509999993
 20
99.16470399999887
 10
-113.1067509999993
 20
99.16470399999887
 10
-113.2875679999997
 20
99.17742299999918
 10
-113.4672939999982
 20
99.18720399999982
 10
-113.4672939999982
 20
99.18720399999982
 10
-113.6476350000011
 20
99.19421399999919
 10
-113.8283879999981
 20
99.19844499999815
 10
-113.8283879999981
 20
99.19844499999815
 10
-114.0090290000006
 20
99.1998519999997
 10
-114.1896659999984
 20
99.19842699999936
 10
-114.1896659999984
 20
99.19842699999936
 10
-114.3704120000002
 20
99.19417899999823
 10
-114.5507589999979
 20
99.18714999999973
 10
-114.5507589999979
 20
99.18714999999973
 10
-114.7305049999995
 20
99.1773489999996
 10
-114.9112999999997
 20
99.16461399999935
 10
-114.9112999999997
 20
99.16461399999935
 10
-115.0945429999992
 20
99.1488019999997
 10
-115.2787820000012
 20
99.13001799999985
 10
-115.2787820000012
 20
99.13001799999985
 10
-115.4622799999997
 20
99.10840899999858
 10
-115.6450179999992
 20
99.08404099999827
 10
-115.6450179999992
 20
99.08404099999827
 10
-115.8273889999982
 20
99.05693999999858
 10
-116.0097249999999
 20
99.02705699999934
 10
-116.0097249999999
 20
99.02705699999934
 10
-116.1919769999986
 20
98.99441699999988
 10
-116.3726199999983
 20
98.95943999999872
 10
-116.3726199999983
 20
98.95943999999872
 10
-116.5512479999997
 20
98.92226799999844
 10
-116.7334169999994
 20
98.88156399999935
 10
-116.7334169999994
 20
98.88156399999935
 10
-116.9238120000009
 20
98.83616899999832
 10
-117.117682
 20
98.78711299999849
 10
-117.117682
 20
98.78711299999849
 10
-117.3093799999987
 20
98.73567099999855
 10
-117.4991200000004
 20
98.68190099999992
 10
-117.4991200000004
 20
98.68190099999992
 10
-117.6883579999994
 20
98.62557699999888
 10
-117.8776419999994
 20
98.56653399999961
 10
-117.8776419999994
 20
98.56653399999961
 10
-118.0667350000003
 20
98.50486799999996
 10
-118.2531559999988
 20
98.44161699999858
 10
-118.2531559999988
 20
98.44161699999858
 10
-118.4363319999975
 20
98.37709399999949
 10
-118.6255749999982
 20
98.3077519999988
 10
-118.6255749999982
 20
98.3077519999988
 10
-118.828716
 20
98.23055699999896
 10
-119.0377709999993
 20
98.14838899999813
 10
-119.0377709999993
 20
98.14838899999813
 10
-119.2433249999994
 20
98.06470099999934
 10
-119.446050999999
 20
97.97932299999956
 10
-119.446050999999
 20
97.97932299999956
 10
-119.6484810000002
 20
97.89143799999875
 10
-119.8504749999993
 20
97.80125899999985
 10
-119.8504749999993
 20
97.80125899999985
 10
-120.051370000001
 20
97.70913199999997
 10
-120.2510980000006
 20
97.61489799999978
 10
-120.2510980000006
 20
97.61489799999978
 10
-120.4498119999989
 20
97.51851899999927
 10
-120.6479809999982
 20
97.42094399999952
  0
LWPOLYLINE
  5
178
330
6F
100
AcDbEntity
  8
DETAIL
  6
Continuous
 62
     5
100
AcDbPolyline
 90
       90
 70
     0
 43
0.0
 10
-100.7293959999988
 20
97.42094399999952
 10
-100.82517
 20
97.51534799999902
 10
-100.9216049999995
 20
97.60902599999827
 10
-100.9216049999995
 20
97.60902599999827
 10
-101.0192689999967
 20
97.70140699999863
 10
-101.1183359999995
 20
97.79253400000014
 10
-101.1183359999995
 20
97.79253400000014
 10
-101.2187639999974
 20
97.88245599999935
 10
-101.3200149999975
 20
97.97063199999866
 10
-101.3200149999975
 20
97.97063199999866
 10
-101.4220209999985
 20
98.05680699999902
 10
-101.52707
 20
98.14248299999965
 10
-101.52707
 20
98.14248299999965
 10
-101.6358059999984
 20
98.22799200000007
 10
-101.7399269999987
 20
98.30725099999837
 10
-101.7399269999987
 20
98.30725099999837
 10
-101.832363999998
 20
98.37515899999925
 10
-101.9199220000009
 20
98.43697199999953
 10
-101.9199220000009
 20
98.43697199999953
 10
-102.0107349999997
 20
98.49885899999936
 10
-102.1043639999989
 20
98.56028899999913
 10
-102.1043639999989
 20
98.56028899999913
 10
-102.1986949999991
 20
98.6194579999992
 10
-102.2934729999979
 20
98.67617199999948
 10
-102.2934729999979
 20
98.67617199999948
 10
-102.3891919999987
 20
98.73070499999812
 10
-102.4874710000003
 20
98.78359199999977
 10
-102.4874710000003
 20
98.78359199999977
 10
-102.5886189999983
 20
98.83476899999914
 10
-102.6865770000004
 20
98.88151799999832
 10
-102.6865770000004
 20
98.88151799999832
 10
-102.7762089999996
 20
98.92161599999964
 10
-102.862442999998
 20
98.9574990000001
 10
-102.862442999998
 20
98.9574990000001
 10
-102.9511529999981
 20
98.9919769999997
 10
-103.0419110000002
 20
99.02473199999802
 10
-103.0419110000002
 20
99.02473199999802
 10
-103.1330969999981
 20
99.05486299999937
 10
-103.2246190000005
 20
99.08229199999915
 10
-103.2246190000005
 20
99.08229199999915
 10
-103.3168099999965
 20
99.10711099999936
 10
-103.4102050000001
 20
99.12925799999904
 10
-103.4102050000001
 20
99.12925799999904
 10
-103.5048059999972
 20
99.14858099999946
 10
-103.5983090000009
 20
99.16470399999887
 10
-103.5983090000009
 20
99.16470399999887
 10
-103.688771000001
 20
99.17735499999979
 10
-103.7779959999971
 20
99.18691199999919
 10
-103.7779959999971
 20
99.18691199999919
 10
-103.868116999998
 20
99.19380399999866
 10
-103.9588369999983
 20
99.19800699999905
 10
-103.9588369999983
 20
99.19800699999905
 10
-104.0494499999986
 20
99.19940999999926
 10
-104.1400629999989
 20
99.1979889999984
 10
-104.1400629999989
 20
99.1979889999984
 10
-104.2307809999984
 20
99.19376699999885
 10
-104.3209019999995
 20
99.18685799999913
 10
-104.3209019999995
 20
99.18685799999913
 10
-104.4101289999998
 20
99.17728399999941
 10
-104.5005840000012
 20
99.16461399999935
 10
-104.5005840000012
 20
99.16461399999935
 10
-104.5940520000004
 20
99.14847299999927
 10
-104.6885479999982
 20
99.12916299999963
 10
-104.6885479999982
 20
99.12916299999963
 10
-104.7817779999968
 20
99.10706500000015
 10
-104.8739959999984
 20
99.08220999999867
 10
-104.8739959999984
 20
99.08220999999867
 10
-104.9657909999987
 20
99.05462499999885
 10
-105.0565669999996
 20
99.02467899999829
 10
-105.0565669999996
 20
99.02467899999829
 10
-105.1459819999982
 20
98.99257199999921
 10
-105.2359030000007
 20
98.95748899999851
 10
-105.2359030000007
 20
98.95748899999851
 10
-105.3268380000008
 20
98.91928999999985
 10
-105.4116419999991
 20
98.88156399999935
 10
-105.4116419999991
 20
98.88156399999935
 10
-105.4843039999978
 20
98.84742299999924
 10
-105.5510059999978
 20
98.81434499999885
 10
-105.5510059999978
 20
98.81434499999885
 10
-105.6190290000013
 20
98.77923699999881
 10
-105.6878550000001
 20
98.74235899999987
 10
-105.6878550000001
 20
98.74235899999987
 10
-105.7555429999993
 20
98.70459399999891
 10
-105.8222619999978
 20
98.66595599999891
 10
-105.8222619999978
 20
98.66595599999891
 10
-105.8885489999993
 20
98.62627099999919
 10
-105.9543039999989
 20
98.58548399999927
 10
-105.9543039999989
 20
98.58548399999927
 10
-106.0193769999968
 20
98.54366999999912
 10
-106.0840549999993
 20
98.50129399999969
  0
LWPOLYLINE
  5
1D4
330
6F
100
AcDbEntity
  8
DETAIL
  6
Continuous
 62
     5
100
AcDbPolyline
 90
       30
 70
     0
 43
0.0
 10
-106.0840549999993
 20
98.50129399999969
 10
-106.1117749999975
 20
98.48262799999979
 10
-106.1395960000009
 20
98.46373799999858
 10
-106.1395960000009
 20
98.46373799999858
 10
-106.1674679999996
 20
98.44454799999949
 10
-106.1947279999986
 20
98.42557699999815
 10
-106.1947279999986
 20
98.42557699999815
 10
-106.2212250000011
 20
98.40697799999908
 10
-106.2494549999974
 20
98.38683999999922
 10
-106.2494549999974
 20
98.38683999999922
 10
-106.2800809999971
 20
98.36465099999987
 10
-106.303785
 20
98.3475559999988
 10
-106.303785
 20
98.3475559999988
 10
-106.3180729999985
 20
98.33747399999992
 10
-106.3577220000006
 20
98.3077519999988
 10
-106.3577220000006
 20
98.3077519999988
 10
-106.451979999998
 20
98.23568199999865
 10
-106.5707279999988
 20
98.14290299999992
 10
-106.5707279999988
 20
98.14290299999992
 10
-106.6785119999986
 20
98.05524599999992
 10
-106.7779239999981
 20
97.97095999999875
 10
-106.7779239999981
 20
97.97095999999875
 10
-106.8785290000014
 20
97.88325399999848
 10
-106.9797369999978
 20
97.79275999999846
 10
-106.9797369999978
 20
97.79275999999846
 10
-107.0790639999977
 20
97.70143699999971
 10
-107.1765949999972
 20
97.6091419999993
 10
-107.1765949999972
 20
97.6091419999993
 10
-107.2730259999989
 20
97.5154539999985
 10
-107.3689249999988
 20
97.42094399999952
  0
LWPOLYLINE
  5
1F4
330
6F
100
AcDbEntity
  8
DETAIL
  6
Continuous
 62
     5
100
AcDbPolyline
 90
       30
 70
     0
 43
0.0
 10
-120.6479809999982
 20
97.42094399999952
 10
-120.7438189999993
 20
97.5153949999985
 10
-120.840189999999
 20
97.60902599999827
 10
-120.840189999999
 20
97.60902599999827
 10
-120.9376579999989
 20
97.70126499999969
 10
-121.0369199999986
 20
97.79253400000014
 10
-121.0369199999986
 20
97.79253400000014
 10
-121.1380609999978
 20
97.88297499999863
 10
-121.2385999999969
 20
97.97063199999866
 10
-121.2385999999969
 20
97.97063199999866
 10
-121.3379480000003
 20
98.05487399999949
 10
-121.4456549999995
 20
98.14248299999965
 10
-121.4456549999995
 20
98.14248299999965
 10
-121.5643060000002
 20
98.23520599999936
 10
-121.6585119999981
 20
98.30725099999837
 10
-121.6585119999981
 20
98.30725099999837
 10
-121.6982009999992
 20
98.33700999999928
 10
-121.7125739999974
 20
98.34715700000016
 10
-121.7125739999974
 20
98.34715700000016
 10
-121.7363459999978
 20
98.36430499999917
 10
-121.767029999999
 20
98.38653999999953
 10
-121.767029999999
 20
98.38653999999953
 10
-121.795321999998
 20
98.40672599999924
 10
-121.8218849999975
 20
98.42537399999857
 10
-121.8218849999975
 20
98.42537399999857
 10
-121.8492110000006
 20
98.44439199999943
 10
-121.8771469999992
 20
98.46362899999984
 10
-121.8771469999992
 20
98.46362899999984
 10
-121.9050349999998
 20
98.48256499999843
 10
-121.9328219999988
 20
98.50127599999908
  0
LWPOLYLINE
  5
214
330
6F
100
AcDbEntity
  8
DETAIL
  6
Continuous
 62
     5
100
AcDbPolyline
 90
       90
 70
     0
 43
0.0
 10
-121.9328219999988
 20
98.50127599999908
 10
-121.9974919999986
 20
98.54364899999929
 10
-122.0625579999978
 20
98.58545899999807
 10
-122.0625579999978
 20
98.58545899999807
 10
-122.1283059999987
 20
98.62624199999844
 10
-122.1945859999978
 20
98.66592399999902
 10
-122.1945859999978
 20
98.66592399999902
 10
-122.2612969999973
 20
98.7045589999998
 10
-122.3289789999981
 20
98.7423209999997
 10
-122.3289789999981
 20
98.7423209999997
 10
-122.3977999999988
 20
98.7791980000002
 10
-122.4658129999989
 20
98.81430199999886
 10
-122.4658129999989
 20
98.81430199999886
 10
-122.5324959999998
 20
98.84737399999906
 10
-122.6051609999995
 20
98.88151799999832
 10
-122.6051609999995
 20
98.88151799999832
 10
-122.6900170000008
 20
98.91926799999964
 10
-122.7810279999976
 20
98.9574990000001
 10
-122.7810279999976
 20
98.9574990000001
 10
-122.8710169999976
 20
98.99260700000013
 10
-122.9604949999993
 20
99.02473199999802
 10
-122.9604949999993
 20
99.02473199999802
 10
-123.0513389999978
 20
99.05469399999857
 10
-123.1432029999996
 20
99.08229199999915
 10
-123.1432029999996
 20
99.08229199999915
 10
-123.2354869999981
 20
99.10715599999821
 10
-123.3287889999992
 20
99.12925799999904
 10
-123.3287889999992
 20
99.12925799999904
 10
-123.4233659999991
 20
99.14856899999904
 10
-123.5168940000003
 20
99.16470399999887
 10
-123.5168940000003
 20
99.16470399999887
 10
-123.6073619999988
 20
99.17735799999901
 10
-123.6965799999998
 20
99.18691199999919
 10
-123.6965799999998
 20
99.18691199999919
 10
-123.7866999999969
 20
99.19380299999829
 10
-123.8774209999974
 20
99.19800699999905
 10
-123.8774209999974
 20
99.19800699999905
 10
-123.9680359999984
 20
99.19940999999926
 10
-124.058646999998
 20
99.1979889999984
 10
-124.058646999998
 20
99.1979889999984
 10
-124.1493629999968
 20
99.19376799999918
 10
-124.2394869999989
 20
99.18685799999913
 10
-124.2394869999989
 20
99.18685799999913
 10
-124.3287199999977
 20
99.17728099999841
 10
-124.4191690000007
 20
99.16461399999935
 10
-124.4191690000007
 20
99.16461399999935
 10
-124.5126119999986
 20
99.14848499999971
 10
-124.6071319999973
 20
99.12916299999963
 10
-124.6071319999973
 20
99.12916299999963
 10
-124.700453999998
 20
99.10701999999945
 10
-124.7925800000011
 20
99.08220999999867
 10
-124.7925800000011
 20
99.08220999999867
 10
-124.8840329999984
 20
99.05479299999932
 10
-124.9751509999987
 20
99.02467899999829
 10
-124.9751509999987
 20
99.02467899999829
 10
-125.0658419999999
 20
98.99194499999978
 10
-125.1544869999998
 20
98.95748899999851
 10
-125.1544869999998
 20
98.95748899999851
 10
-125.2406579999988
 20
98.92163299999813
 10
-125.3302269999985
 20
98.88156399999935
 10
-125.3302269999985
 20
98.88156399999935
 10
-125.4281209999972
 20
98.83484999999929
 10
-125.5292059999992
 20
98.78371100000004
 10
-125.5292059999992
 20
98.78371100000004
 10
-125.6274239999984
 20
98.7308639999992
 10
-125.7230829999971
 20
98.67637399999876
 10
-125.7230829999971
 20
98.67637399999876
 10
-125.817802999998
 20
98.61970599999949
 10
-125.9120789999979
 20
98.56058299999858
 10
-125.9120789999979
 20
98.56058299999858
 10
-126.0056589999985
 20
98.49919899999806
 10
-126.0964139999996
 20
98.43736699999865
 10
-126.0964139999996
 20
98.43736699999865
 10
-126.1839
 20
98.37562099999924
 10
-126.2763059999997
 20
98.3077519999988
 10
-126.2763059999997
 20
98.3077519999988
 10
-126.3804820000005
 20
98.22846899999969
 10
-126.4893119999979
 20
98.14290299999992
 10
-126.4893119999979
 20
98.14290299999992
 10
-126.5944390000004
 20
98.05717899999946
 10
-126.6965080000009
 20
97.97095999999875
 10
-126.6965080000009
 20
97.97095999999875
 10
-126.7978259999981
 20
97.88273599999957
 10
-126.8983210000006
 20
97.79275999999846
 10
-126.8983210000006
 20
97.79275999999846
 10
-126.9974540000003
 20
97.70157899999869
 10
-127.0951789999999
 20
97.6091419999993
 10
-127.0951789999999
 20
97.6091419999993
 10
-127.1916749999982
 20
97.51540599999865
 10
-127.2875089999979
 20
97.42094399999952
  0
LWPOLYLINE
  5
270
330
6F
100
AcDbEntity
  8
DETAIL
  6
Continuous
 62
     5
100
AcDbPolyline
 90
      105
 70
     0
 43
0.0
 10
-100.7293959999988
 20
89.47905699999862
 10
-100.82517
 20
89.38465299999917
 10
-100.9216049999995
 20
89.29097499999986
 10
-100.9216049999995
 20
89.29097499999986
 10
-101.0192689999967
 20
89.1985939999995
 10
-101.1183359999995
 20
89.10746699999981
 10
-101.1183359999995
 20
89.10746699999981
 10
-101.2187639999974
 20
89.01754399999845
 10
-101.3200149999975
 20
88.92936899999948
 10
-101.3200149999975
 20
88.92936899999948
 10
-101.4220209999985
 20
88.84319399999911
 10
-101.52707
 20
88.75751799999852
 10
-101.52707
 20
88.75751799999852
 10
-101.6358059999984
 20
88.67200799999954
 10
-101.7399269999987
 20
88.5927499999998
 10
-101.7399269999987
 20
88.5927499999998
 10
-101.832363999998
 20
88.5248419999989
 10
-101.9199220000009
 20
88.46302899999864
 10
-101.9199220000009
 20
88.46302899999864
 10
-102.0107349999997
 20
88.40114199999879
 10
-102.1043639999989
 20
88.33971199999906
 10
-102.1043639999989
 20
88.33971199999906
 10
-102.1986949999991
 20
88.28054299999893
 10
-102.2934729999979
 20
88.22382799999832
 10
-102.2934729999979
 20
88.22382799999832
 10
-102.3891919999987
 20
88.1692949999997
 10
-102.4874710000003
 20
88.11640899999838
 10
-102.4874710000003
 20
88.11640899999838
 10
-102.5886189999983
 20
88.06523099999866
 10
-102.6865770000004
 20
88.0184829999998
 10
-102.6865770000004
 20
88.0184829999998
 10
-102.7762089999996
 20
87.97838399999818
 10
-102.862442999998
 20
87.94250199999806
 10
-102.862442999998
 20
87.94250199999806
 10
-102.9511529999981
 20
87.90802299999993
 10
-103.0419110000002
 20
87.87526900000012
 10
-103.0419110000002
 20
87.87526900000012
 10
-103.1330969999981
 20
87.84513799999874
 10
-103.2246190000005
 20
87.81770799999867
 10
-103.2246190000005
 20
87.81770799999867
 10
-103.3168099999965
 20
87.79288999999879
 10
-103.4102050000001
 20
87.77074299999915
 10
-103.4102050000001
 20
87.77074299999915
 10
-103.5048059999972
 20
87.7514199999987
 10
-103.5983090000009
 20
87.73529699999924
 10
-103.5983090000009
 20
87.73529699999924
 10
-103.688771000001
 20
87.72264599999834
 10
-103.7779959999971
 20
87.71308899999892
 10
-103.7779959999971
 20
87.71308899999892
 10
-103.868116999998
 20
87.70619699999954
 10
-103.9588369999983
 20
87.70199399999908
 10
-103.9588369999983
 20
87.70199399999908
 10
-104.0494509999989
 20
87.7005909999989
 10
-104.1400629999989
 20
87.70201199999972
 10
-104.1400629999989
 20
87.70201199999972
 10
-104.2307789999977
 20
87.70623299999899
 10
-104.3209019999995
 20
87.713142999999
 10
-104.3209019999995
 20
87.713142999999
 10
-104.4101359999986
 20
87.72271999999974
 10
-104.5005840000012
 20
87.73538699999878
 10
-104.5005840000012
 20
87.73538699999878
 10
-104.5940279999995
 20
87.75151499999992
 10
-104.6885479999982
 20
87.77083799999855
 10
-104.6885479999982
 20
87.77083799999855
 10
-104.7818699999989
 20
87.79298099999866
 10
-104.8739959999984
 20
87.81778999999913
 10
-104.8739959999984
 20
87.81778999999913
 10
-104.9654489999993
 20
87.84520799999882
 10
-105.0565669999996
 20
87.87532199999986
 10
-105.0565669999996
 20
87.87532199999986
 10
-105.1472579999972
 20
87.90805599999838
 10
-105.2359030000007
 20
87.94251099999927
 10
-105.2359030000007
 20
87.94251099999927
 10
-105.3220739999997
 20
87.97836699999969
 10
-105.4116419999991
 20
88.01843599999847
 10
-105.4116419999991
 20
88.01843599999847
 10
-105.5095359999977
 20
88.06514999999853
 10
-105.6106220000001
 20
88.11628999999811
 10
-105.6106220000001
 20
88.11628999999811
 10
-105.7088399999993
 20
88.16913699999892
 10
-105.804498999998
 20
88.22362599999904
 10
-105.804498999998
 20
88.22362599999904
 10
-105.899218999999
 20
88.28029400000014
 10
-105.9934949999988
 20
88.33941699999924
 10
-105.9934949999988
 20
88.33941699999924
 10
-106.0870749999994
 20
88.40080200000011
 10
-106.1778290000002
 20
88.46263399999953
 10
-106.1778290000002
 20
88.46263399999953
 10
-106.2653159999972
 20
88.52437999999891
 10
-106.3577220000006
 20
88.59224899999935
 10
-106.3577220000006
 20
88.59224899999935
 10
-106.4618980000014
 20
88.67153199999846
 10
-106.5707279999988
 20
88.75709699999969
 10
-106.5707279999988
 20
88.75709699999969
 10
-106.675854000001
 20
88.84282199999871
 10
-106.7779239999981
 20
88.92904099999942
 10
-106.7779239999981
 20
88.92904099999942
 10
-106.879241999999
 20
89.01726499999858
 10
-106.9797369999978
 20
89.10724099999969
 10
-106.9797369999978
 20
89.10724099999969
 10
-107.0788689999972
 20
89.19842199999948
 10
-107.1765949999972
 20
89.29085899999881
 10
-107.1765949999972
 20
89.29085899999881
 10
-107.2730909999991
 20
89.38459399999919
 10
-107.3689249999988
 20
89.47905699999862
  0
LWPOLYLINE
  5
2DB
330
6F
100
AcDbEntity
  8
DETAIL
  6
Continuous
 62
     5
100
AcDbPolyline
 90
      105
 70
     0
 43
0.0
 10
-107.3689249999988
 20
89.47905699999862
 10
-107.5669639999978
 20
89.38154399999985
 10
-107.7655479999994
 20
89.28522599999997
 10
-107.7655479999994
 20
89.28522599999997
 10
-107.9651459999986
 20
89.19105099999979
 10
-108.165907999999
 20
89.09897899999849
 10
-108.165907999999
 20
89.09897899999849
 10
-108.367764999999
 20
89.00885299999934
 10
-108.5700619999989
 20
88.92101600000021
 10
-108.5700619999989
 20
88.92101600000021
 10
-108.772664
 20
88.83568000000014
 10
-108.978068999997
 20
88.75203899999906
 10
-108.978068999997
 20
88.75203899999906
 10
-109.1869450000013
 20
88.66992399999981
 10
-109.3899859999983
 20
88.5927499999998
 10
-109.3899859999983
 20
88.5927499999998
 10
-109.5792999999976
 20
88.52336599999944
 10
-109.7626249999994
 20
88.45877299999846
 10
-109.7626249999994
 20
88.45877299999846
 10
-109.9491679999992
 20
88.39546599999811
 10
-110.1383639999985
 20
88.33375299999898
 10
-110.1383639999985
 20
88.33375299999898
 10
-110.3277589999998
 20
88.274664999999
 10
-110.5171139999984
 20
88.21829399999842
 10
-110.5171139999984
 20
88.21829399999842
 10
-110.7069709999996
 20
88.16448299999867
 10
-110.8987839999972
 20
88.11300199999823
 10
-110.8987839999972
 20
88.11300199999823
 10
-111.0927689999989
 20
88.06391099999926
 10
-111.283285999998
 20
88.0184829999998
 10
-111.283285999998
 20
88.0184829999998
 10
-111.4655849999981
 20
87.97774899999966
 10
-111.644347999998
 20
87.94054899999901
 10
-111.644347999998
 20
87.94054899999901
 10
-111.825123999999
 20
87.90554699999844
 10
-112.0075099999994
 20
87.87288799999986
 10
-112.0075099999994
 20
87.87288799999986
 10
-112.1899830000002
 20
87.8429879999985
 10
-112.3724880000009
 20
87.81587599999873
 10
-112.3724880000009
 20
87.81587599999873
 10
-112.5553559999971
 20
87.79149999999935
 10
-112.738996
 20
87.76988699999858
 10
-112.738996
 20
87.76988699999858
 10
-112.9233929999973
 20
87.75110199999835
 10
-113.1067509999993
 20
87.73529699999924
 10
-113.1067509999993
 20
87.73529699999924
 10
-113.2875679999997
 20
87.72257799999898
 10
-113.4672939999982
 20
87.71279700000013
 10
-113.4672939999982
 20
87.71279700000013
 10
-113.6476350000011
 20
87.70578599999863
 10
-113.8283879999981
 20
87.70155599999998
 10
-113.8283879999981
 20
87.70155599999998
 10
-114.0090290000006
 20
87.70014899999841
 10
-114.1896659999984
 20
87.70157399999879
 10
-114.1896659999984
 20
87.70157399999879
 10
-114.3704120000002
 20
87.7058219999999
 10
-114.5507589999979
 20
87.71285100000021
 10
-114.5507589999979
 20
87.71285100000021
 10
-114.7305049999995
 20
87.72265199999855
 10
-114.9112999999997
 20
87.73538699999878
 10
-114.9112999999997
 20
87.73538699999878
 10
-115.0945429999992
 20
87.75119799999812
 10
-115.2787820000012
 20
87.76998199999978
 10
-115.2787820000012
 20
87.76998199999978
 10
-115.4622799999997
 20
87.79159099999924
 10
-115.6450179999992
 20
87.81595999999991
 10
-115.6450179999992
 20
87.81595999999991
 10
-115.8273889999982
 20
87.84305999999924
 10
-116.0097249999999
 20
87.87294399999883
 10
-116.0097249999999
 20
87.87294399999883
 10
-116.1919769999986
 20
87.90558299999974
 10
-116.3726199999983
 20
87.94056099999943
 10
-116.3726199999983
 20
87.94056099999943
 10
-116.5512479999997
 20
87.97773299999969
 10
-116.7334169999994
 20
88.01843599999847
 10
-116.7334169999994
 20
88.01843599999847
 10
-116.9238120000009
 20
88.06383199999981
 10
-117.117682
 20
88.11288799999966
 10
-117.117682
 20
88.11288799999966
 10
-117.3093799999987
 20
88.16432999999959
 10
-117.4991200000004
 20
88.21809899999969
 10
-117.4991200000004
 20
88.21809899999969
 10
-117.6883579999994
 20
88.27442399999926
 10
-117.8776419999994
 20
88.33346600000004
 10
-117.8776419999994
 20
88.33346600000004
 10
-118.0667350000003
 20
88.39513299999818
 10
-118.2531559999988
 20
88.45838399999955
 10
-118.2531559999988
 20
88.45838399999955
 10
-118.4363319999975
 20
88.52290699999867
 10
-118.6255749999982
 20
88.59224899999935
 10
-118.6255749999982
 20
88.59224899999935
 10
-118.828716
 20
88.66944399999921
 10
-119.0377709999993
 20
88.75161200000002
 10
-119.0377709999993
 20
88.75161200000002
 10
-119.2433249999994
 20
88.83529999999883
 10
-119.446050999999
 20
88.92067699999826
 10
-119.446050999999
 20
88.92067699999826
 10
-119.6484810000002
 20
89.00856299999942
 10
-119.8504749999993
 20
89.09874199999832
 10
-119.8504749999993
 20
89.09874199999832
 10
-120.051370000001
 20
89.1908689999982
 10
-120.2510980000006
 20
89.28510299999834
 10
-120.2510980000006
 20
89.28510299999834
 10
-120.4498119999989
 20
89.38148199999885
 10
-120.6479809999982
 20
89.47905699999862
  0
LWPOLYLINE
  5
346
330
6F
100
AcDbEntity
  8
DETAIL
  6
Continuous
 62
     5
100
AcDbPolyline
 90
      105
 70
     0
 43
0.0
 10
-120.6479809999982
 20
89.47905699999862
 10
-120.7437539999991
 20
89.38465299999917
 10
-120.840189999999
 20
89.29097499999986
 10
-120.840189999999
 20
89.29097499999986
 10
-120.9378529999994
 20
89.1985939999995
 10
-121.0369199999986
 20
89.10746699999981
 10
-121.0369199999986
 20
89.10746699999981
 10
-121.1373480000002
 20
89.01754399999845
 10
-121.2385999999969
 20
88.92936899999948
 10
-121.2385999999969
 20
88.92936899999948
 10
-121.3406049999976
 20
88.84319399999911
 10
-121.4456549999995
 20
88.75751799999852
 10
-121.4456549999995
 20
88.75751799999852
 10
-121.5543909999978
 20
88.67200799999954
 10
-121.6585119999981
 20
88.5927499999998
 10
-121.6585119999981
 20
88.5927499999998
 10
-121.7509480000008
 20
88.5248419999989
 10
-121.838506
 20
88.46302899999864
 10
-121.838506
 20
88.46302899999864
 10
-121.9293189999989
 20
88.40114199999879
 10
-122.022947999998
 20
88.33971199999906
 10
-122.022947999998
 20
88.33971199999906
 10
-122.1172789999982
 20
88.28054299999893
 10
-122.2120579999973
 20
88.22382799999832
 10
-122.2120579999973
 20
88.22382799999832
 10
-122.3077759999978
 20
88.1692949999997
 10
-122.4060549999995
 20
88.11640899999838
 10
-122.4060549999995
 20
88.11640899999838
 10
-122.507203000001
 20
88.06523099999866
 10
-122.6051609999995
 20
88.0184829999998
 10
-122.6051609999995
 20
88.0184829999998
 10
-122.6947929999987
 20
87.97838399999818
 10
-122.7810279999976
 20
87.94250199999806
 10
-122.7810279999976
 20
87.94250199999806
 10
-122.8697370000009
 20
87.90802299999993
 10
-122.9604949999993
 20
87.87526900000012
 10
-122.9604949999993
 20
87.87526900000012
 10
-123.0516819999975
 20
87.84513799999874
 10
-123.1432029999996
 20
87.81770799999867
 10
-123.1432029999996
 20
87.81770799999867
 10
-123.2353949999997
 20
87.79288999999879
 10
-123.3287889999992
 20
87.77074299999915
 10
-123.3287889999992
 20
87.77074299999915
 10
-123.4233899999999
 20
87.7514199999987
 10
-123.5168940000003
 20
87.73529699999924
 10
-123.5168940000003
 20
87.73529699999924
 10
-123.6073550000001
 20
87.72264599999834
 10
-123.6965799999998
 20
87.71308899999892
 10
-123.6965799999998
 20
87.71308899999892
 10
-123.7867009999972
 20
87.70619699999954
 10
-123.8774209999974
 20
87.70199399999908
 10
-123.8774209999974
 20
87.70199399999908
 10
-123.968034999998
 20
87.7005909999989
 10
-124.058646999998
 20
87.70201199999972
 10
-124.058646999998
 20
87.70201199999972
 10
-124.1493629999968
 20
87.70623299999899
 10
-124.2394869999989
 20
87.713142999999
 10
-124.2394869999989
 20
87.713142999999
 10
-124.3287199999977
 20
87.72271999999974
 10
-124.4191690000007
 20
87.73538699999878
 10
-124.4191690000007
 20
87.73538699999878
 10
-124.5126119999986
 20
87.75151499999992
 10
-124.6071319999973
 20
87.77083799999855
 10
-124.6071319999973
 20
87.77083799999855
 10
-124.700453999998
 20
87.79298099999866
 10
-124.7925800000011
 20
87.81778999999913
 10
-124.7925800000011
 20
87.81778999999913
 10
-124.8840329999984
 20
87.84520799999882
 10
-124.9751509999987
 20
87.87532199999986
 10
-124.9751509999987
 20
87.87532199999986
 10
-125.0658419999999
 20
87.90805599999838
 10
-125.1544869999998
 20
87.94251099999927
 10
-125.1544869999998
 20
87.94251099999927
 10
-125.2406579999988
 20
87.97836699999969
 10
-125.3302269999985
 20
88.01843599999847
 10
-125.3302269999985
 20
88.01843599999847
 10
-125.4281209999972
 20
88.06514999999853
 10
-125.5292059999992
 20
88.11628999999811
 10
-125.5292059999992
 20
88.11628999999811
 10
-125.6274239999984
 20
88.16913699999892
 10
-125.7230829999971
 20
88.22362599999904
 10
-125.7230829999971
 20
88.22362599999904
 10
-125.817802999998
 20
88.28029400000014
 10
-125.9120789999979
 20
88.33941699999924
 10
-125.9120789999979
 20
88.33941699999924
 10
-126.0056589999985
 20
88.40080200000011
 10
-126.0964139999996
 20
88.46263399999953
 10
-126.0964139999996
 20
88.46263399999953
 10
-126.1839
 20
88.52437999999891
 10
-126.2763059999997
 20
88.59224899999935
 10
-126.2763059999997
 20
88.59224899999935
 10
-126.3804820000005
 20
88.67153199999846
 10
-126.4893119999979
 20
88.75709699999969
 10
-126.4893119999979
 20
88.75709699999969
 10
-126.5944390000004
 20
88.84282199999871
 10
-126.6965080000009
 20
88.92904099999942
 10
-126.6965080000009
 20
88.92904099999942
 10
-126.7978259999981
 20
89.01726499999858
 10
-126.8983210000006
 20
89.10724099999969
 10
-126.8983210000006
 20
89.10724099999969
 10
-126.9974540000003
 20
89.19842199999948
 10
-127.0951789999999
 20
89.29085899999881
 10
-127.0951789999999
 20
89.29085899999881
 10
-127.1916749999982
 20
89.38459399999919
 10
-127.2875089999979
 20
89.47905699999862
  0
LWPOLYLINE
  5
3B1
330
6F
100
AcDbEntity
  8
DETAIL
  6
Continuous
 62
     5
100
AcDbPolyline
 90
      105
 70
     0
 43
0.0
 10
-119.4932799999987
 20
104.9196549999997
 10
-119.3297529999981
 20
104.8391359999987
 10
-119.165775999998
 20
104.7596019999982
 10
-119.165775999998
 20
104.7596019999982
 10
-119.0009619999982
 20
104.6818359999997
 10
-118.8351869999969
 20
104.6058080000002
 10
-118.8351869999969
 20
104.6058080000002
 10
-118.6685099999995
 20
104.5313849999984
 10
-118.5014669999982
 20
104.4588499999991
 10
-118.5014669999982
 20
104.4588499999991
 10
-118.3341719999989
 20
104.388379
 10
-118.1645680000001
 20
104.3193079999982
 10
-118.1645680000001
 20
104.3193079999982
 10
-117.9921079999985
 20
104.2514999999985
 10
-117.8244399999966
 20
104.1877619999995
 10
-117.8244399999966
 20
104.1877619999995
 10
-117.6680530000012
 20
104.1304359999994
 10
-117.5165839999972
 20
104.0770579999989
 10
-117.5165839999972
 20
104.0770579999989
 10
-117.362466999999
 20
104.0247449999988
 10
-117.2061659999999
 20
103.9737529999984
 10
-117.2061659999999
 20
103.9737529999984
 10
-117.0496979999989
 20
103.9249279999985
 10
-116.8932599999971
 20
103.8783469999998
 10
-116.8932599999971
 20
103.8783469999998
 10
-116.7364069999967
 20
103.8338809999986
 10
-116.5779399999992
 20
103.7913410000001
 10
-116.5779399999992
 20
103.7913410000001
 10
-116.417680999999
 20
103.7507749999986
 10
-116.2602809999989
 20
103.7132339999989
 10
-116.2602809999989
 20
103.7132339999989
 10
-116.1096560000005
 20
103.6795689999999
 10
-115.9619459999994
 20
103.6488229999995
 10
-115.9619459999994
 20
103.6488229999995
 10
-115.8125759999966
 20
103.6198939999994
 10
-115.6618759999983
 20
103.592901
 10
-115.6618759999983
 20
103.592901
 10
-115.5111029999971
 20
103.5681889999996
 10
-115.360303999998
 20
103.5457799999985
 10
-115.360303999998
 20
103.5457799999985
 10
-115.2092049999992
 20
103.5256329999993
 10
-115.0574669999987
 20
103.5077689999998
 10
-115.0574669999987
 20
103.5077689999998
 10
-114.9051039999976
 20
103.4922429999987
 10
-114.7536
 20
103.4791789999981
 10
-114.7536
 20
103.4791789999981
 10
-114.6041990000012
 20
103.4686659999988
 10
-114.4557009999989
 20
103.4605809999993
 10
-114.4557009999989
 20
103.4605809999993
 10
-114.3066939999989
 20
103.4547859999984
 10
-114.1573459999999
 20
103.4512880000002
 10
-114.1573459999999
 20
103.4512880000002
 10
-114.008092
 20
103.4501229999987
 10
-113.8588400000008
 20
103.4512989999984
 10
-113.8588400000008
 20
103.4512989999984
 10
-113.7094980000001
 20
103.4548079999986
 10
-113.5604859999985
 20
103.4606149999999
 10
-113.5604859999985
 20
103.4606149999999
 10
-113.4119710000013
 20
103.4687119999998
 10
-113.2625879999977
 20
103.4792349999989
 10
-113.2625879999977
 20
103.4792349999989
 10
-113.1111789999995
 20
103.4923009999984
 10
-112.9589449999985
 20
103.5078229999999
 10
-112.9589449999985
 20
103.5078229999999
 10
-112.8073230000009
 20
103.5256799999988
 10
-112.6563299999979
 20
103.5458179999987
 10
-112.6563299999979
 20
103.5458179999987
 10
-112.5056409999997
 20
103.568213999999
 10
-112.3549789999997
 20
103.592908999999
 10
-112.3549789999997
 20
103.592908999999
 10
-112.2043889999986
 20
103.6198829999994
 10
-112.0551269999996
 20
103.6487879999986
 10
-112.0551269999996
 20
103.6487879999986
 10
-111.907529
 20
103.6795079999992
 10
-111.7570090000008
 20
103.7131449999997
 10
-111.7570090000008
 20
103.7131449999997
 10
-111.5996999999988
 20
103.750657999999
 10
-111.4395240000012
 20
103.7911949999998
 10
-111.4395240000012
 20
103.7911949999998
 10
-111.2811430000001
 20
103.8337029999984
 10
-111.1243770000001
 20
103.878134999999
 10
-111.1243770000001
 20
103.878134999999
 10
-110.9680259999986
 20
103.9246779999994
 10
-110.8116399999999
 20
103.9734659999994
 10
-110.8116399999999
 20
103.9734659999994
 10
-110.6554130000004
 20
104.0244219999986
 10
-110.5013870000002
 20
104.0766889999995
 10
-110.5013870000002
 20
104.0766889999995
 10
-110.3500329999988
 20
104.1300109999993
 10
-110.1936930000011
 20
104.1873039999991
 10
-110.1936930000011
 20
104.1873039999991
 10
-110.0259310000001
 20
104.2510629999997
 10
-109.8533109999989
 20
104.318917999999
 10
-109.8533109999989
 20
104.318917999999
 10
-109.683571999998
 20
104.3880309999986
 10
-109.5161609999995
 20
104.4585409999999
 10
-109.5161609999995
 20
104.4585409999999
 10
-109.3489970000009
 20
104.5311189999992
 10
-109.1821950000012
 20
104.6055909999995
 10
-109.1821950000012
 20
104.6055909999995
 10
-109.016298999999
 20
104.6816709999984
 10
-108.8513659999989
 20
104.759489
 10
-108.8513659999989
 20
104.759489
 10
-108.6872699999985
 20
104.8390789999994
 10
-108.523624999998
 20
104.9196549999997
  0
LWPOLYLINE
  5
41C
330
6F
100
AcDbEntity
  8
DETAIL
  6
Continuous
 62
     5
100
AcDbPolyline
 90
      105
 70
     0
 43
0.0
 10
-119.4932799999987
 20
111.4803449999999
 10
-119.3297529999981
 20
111.5608649999994
 10
-119.165775999998
 20
111.6403979999994
 10
-119.165775999998
 20
111.6403979999994
 10
-119.0009619999982
 20
111.718163999998
 10
-118.8351869999969
 20
111.7941929999997
 10
-118.8351869999969
 20
111.7941929999997
 10
-118.6685099999995
 20
111.8686159999997
 10
-118.5014669999982
 20
111.9411509999991
 10
-118.5014669999982
 20
111.9411509999991
 10
-118.3341719999989
 20
112.0116219999981
 10
-118.1645680000001
 20
112.0806919999995
 10
-118.1645680000001
 20
112.0806919999995
 10
-117.9921079999985
 20
112.1485009999996
 10
-117.8244399999966
 20
112.2122389999986
 10
-117.8244399999966
 20
112.2122389999986
 10
-117.6680530000012
 20
112.2695639999983
 10
-117.5165839999972
 20
112.3229429999992
 10
-117.5165839999972
 20
112.3229429999992
 10
-117.362466999999
 20
112.375254999999
 10
-117.2061659999999
 20
112.4262479999997
 10
-117.2061659999999
 20
112.4262479999997
 10
-117.0496979999989
 20
112.4750729999996
 10
-116.8932599999971
 20
112.5216540000001
 10
-116.8932599999971
 20
112.5216540000001
 10
-116.7364069999967
 20
112.5661199999995
 10
-116.5779399999992
 20
112.6086599999998
 10
-116.5779399999992
 20
112.6086599999998
 10
-116.417680999999
 20
112.6492259999995
 10
-116.2602809999989
 20
112.6867669999992
 10
-116.2602809999989
 20
112.6867669999992
 10
-116.1096560000005
 20
112.7204319999982
 10
-115.9619459999994
 20
112.7511779999986
 10
-115.9619459999994
 20
112.7511779999986
 10
-115.8125759999966
 20
112.7801069999986
 10
-115.6618759999983
 20
112.8070989999996
 10
-115.6618759999983
 20
112.8070989999996
 10
-115.5111029999971
 20
112.8318119999985
 10
-115.360303999998
 20
112.8542209999996
 10
-115.360303999998
 20
112.8542209999996
 10
-115.2092049999992
 20
112.8743679999988
 10
-115.0574669999987
 20
112.8922309999998
 10
-115.0574669999987
 20
112.8922309999998
 10
-114.9051039999976
 20
112.9077579999993
 10
-114.7536
 20
112.920822
 10
-114.7536
 20
112.920822
 10
-114.6041990000012
 20
112.9313349999992
 10
-114.4557009999989
 20
112.9394199999988
 10
-114.4557009999989
 20
112.9394199999988
 10
-114.3066939999989
 20
112.9452149999997
 10
-114.1573459999999
 20
112.9487129999998
 10
-114.1573459999999
 20
112.9487129999998
 10
-114.008092
 20
112.9498779999994
 10
-113.8588400000008
 20
112.9487019999997
 10
-113.8588400000008
 20
112.9487019999997
 10
-113.7094980000001
 20
112.9451929999995
 10
-113.5604859999985
 20
112.9393859999982
 10
-113.5604859999985
 20
112.9393859999982
 10
-113.4119710000013
 20
112.9312879999997
 10
-113.2625879999977
 20
112.9207659999992
 10
-113.2625879999977
 20
112.9207659999992
 10
-113.1111789999995
 20
112.9076999999997
 10
-112.9589449999985
 20
112.8921779999982
 10
-112.9589449999985
 20
112.8921779999982
 10
-112.8073230000009
 20
112.874319999999
 10
-112.6563299999979
 20
112.8541829999994
 10
-112.6563299999979
 20
112.8541829999994
 10
-112.5056409999997
 20
112.8317869999991
 10
-112.3549789999997
 20
112.8070909999987
 10
-112.3549789999997
 20
112.8070909999987
 10
-112.2043889999986
 20
112.7801179999986
 10
-112.0551269999996
 20
112.7512119999992
 10
-112.0551269999996
 20
112.7512119999992
 10
-111.907529
 20
112.7204929999989
 10
-111.7570090000008
 20
112.6868549999998
 10
-111.7570090000008
 20
112.6868549999998
 10
-111.5996999999988
 20
112.6493429999991
 10
-111.4395240000012
 20
112.6088060000002
 10
-111.4395240000012
 20
112.6088060000002
 10
-111.2811430000001
 20
112.5662979999997
 10
-111.1243770000001
 20
112.521865999999
 10
-111.1243770000001
 20
112.521865999999
 10
-110.9680259999986
 20
112.4753219999984
 10
-110.8116399999999
 20
112.4265349999987
 10
-110.8116399999999
 20
112.4265349999987
 10
-110.6554130000004
 20
112.3755789999995
 10
-110.5013870000002
 20
112.3233119999986
 10
-110.5013870000002
 20
112.3233119999986
 10
-110.3500329999988
 20
112.2699899999988
 10
-110.1936930000011
 20
112.212696999999
 10
-110.1936930000011
 20
112.212696999999
 10
-110.0259310000001
 20
112.1489379999984
 10
-109.8533109999989
 20
112.0810829999991
 10
-109.8533109999989
 20
112.0810829999991
 10
-109.683571999998
 20
112.0119699999994
 10
-109.5161609999995
 20
111.9414599999982
 10
-109.5161609999995
 20
111.9414599999982
 10
-109.3489970000009
 20
111.8688809999985
 10
-109.1821950000012
 20
111.7944099999986
 10
-109.1821950000012
 20
111.7944099999986
 10
-109.016298999999
 20
111.7183299999997
 10
-108.8513659999989
 20
111.6405109999996
 10
-108.8513659999989
 20
111.6405109999996
 10
-108.6872699999985
 20
111.5609219999987
 10
-108.523624999998
 20
111.4803449999999
  0
LWPOLYLINE
  5
487
330
6F
100
AcDbEntity
  8
DETAIL
  6
Continuous
 62
     5
100
AcDbPolyline
 90
      105
 70
     0
 43
0.0
 10
-108.523624999998
 20
104.9196549999997
 10
-108.4445409999971
 20
104.8417019999997
 10
-108.3649099999966
 20
104.7643469999984
 10
-108.3649099999966
 20
104.7643469999984
 10
-108.2842649999984
 20
104.6880619999992
 10
-108.2024620000011
 20
104.6128129999997
 10
-108.2024620000011
 20
104.6128129999997
 10
-108.1195369999987
 20
104.5385580000002
 10
-108.0359299999982
 20
104.4657449999995
 10
-108.0359299999982
 20
104.4657449999995
 10
-107.9517009999981
 20
104.3945809999986
 10
-107.8649619999996
 20
104.3238309999997
 10
-107.8649619999996
 20
104.3238309999997
 10
-107.7751839999982
 20
104.253220999999
 10
-107.6892049999986
 20
104.1877619999995
 10
-107.6892049999986
 20
104.1877619999995
 10
-107.612846
 20
104.1316559999995
 10
-107.5405030000001
 20
104.0805749999999
 10
-107.5405030000001
 20
104.0805749999999
 10
-107.4654759999976
 20
104.0294359999989
 10
-107.388125999998
 20
103.978676999999
 10
-107.388125999998
 20
103.978676999999
 10
-107.3101939999978
 20
103.9297849999984
 10
-107.2318919999998
 20
103.8829209999985
 10
-107.2318919999998
 20
103.8829209999985
 10
-107.1528130000006
 20
103.8378579999989
 10
-107.0716189999984
 20
103.7941559999999
 10
-107.0716189999984
 20
103.7941559999999
 10
-106.9880559999982
 20
103.7518659999987
 10
-106.9071259999982
 20
103.7132339999989
 10
-106.9071259999982
 20
103.7132339999989
 10
-106.8330679999999
 20
103.6800939999994
 10
-106.7618139999977
 20
103.6504379999987
 10
-106.7618139999977
 20
103.6504379999987
 10
-106.6885159999983
 20
103.6219409999994
 10
-106.613526000001
 20
103.594869999999
 10
-106.613526000001
 20
103.594869999999
 10
-106.5381809999998
 20
103.5699669999994
 10
-106.4625589999996
 20
103.5472949999985
 10
-106.4625589999996
 20
103.5472949999985
 10
-106.3863829999972
 20
103.5267829999993
 10
-106.3092130000004
 20
103.5084769999994
 10
-106.3092130000004
 20
103.5084769999994
 10
-106.2310450000004
 20
103.4925049999983
 10
-106.1537849999986
 20
103.4791789999981
 10
-106.1537849999986
 20
103.4791789999981
 10
-106.0790409999972
 20
103.4687219999996
 10
-106.0053200000002
 20
103.4608219999991
 10
-106.0053200000002
 20
103.4608219999991
 10
-105.9308569999994
 20
103.4551249999986
 10
-105.8558989999983
 20
103.451649999999
 10
-105.8558989999983
 20
103.451649999999
 10
-105.7810289999979
 20
103.4504889999989
 10
-105.7061609999982
 20
103.4516609999991
 10
-105.7061609999982
 20
103.4516609999991
 10
-105.6312059999982
 20
103.4551479999991
 10
-105.5567420000006
 20
103.4608559999997
 10
-105.5567420000006
 20
103.4608559999997
 10
-105.4830129999973
 20
103.4687689999991
 10
-105.4082789999993
 20
103.4792349999989
 10
-105.4082789999993
 20
103.4792349999989
 10
-105.3310679999995
 20
103.4925629999998
 10
-105.2529670000003
 20
103.5085299999991
 10
-105.2529670000003
 20
103.5085299999991
 10
-105.175855999998
 20
103.5268289999985
 10
-105.0997339999994
 20
103.5473309999997
 10
-105.0997339999994
 20
103.5473309999997
 10
-105.0241679999999
 20
103.5699889999996
 10
-104.9488789999996
 20
103.5948749999988
 10
-104.9488789999996
 20
103.5948749999988
 10
-104.8739429999987
 20
103.6219270000001
 10
-104.8006979999991
 20
103.6504009999988
 10
-104.8006979999991
 20
103.6504009999988
 10
-104.7294959999999
 20
103.6800329999987
 10
-104.655488999997
 20
103.7131449999997
 10
-104.655488999997
 20
103.7131449999997
 10
-104.5746069999986
 20
103.7517479999988
 10
-104.4910899999995
 20
103.7940060000001
 10
-104.4910899999995
 20
103.7940060000001
 10
-104.409940999998
 20
103.8376759999992
 10
-104.3309059999992
 20
103.8827029999993
 10
-104.3309059999992
 20
103.8827029999993
 10
-104.2526470000011
 20
103.9295299999994
 10
-104.1747560000003
 20
103.9783839999982
 10
-104.1747560000003
 20
103.9783839999982
 10
-104.0974419999984
 20
104.0291069999984
 10
-104.0224589999998
 20
104.0802009999988
 10
-104.0224589999998
 20
104.0802009999988
 10
-103.95017
 20
104.1312289999987
 10
-103.8738319999975
 20
104.1873039999991
 10
-103.8738319999975
 20
104.1873039999991
 10
-103.7877999999982
 20
104.2527859999991
 10
-103.6979379999975
 20
104.3234469999988
 10
-103.6979379999975
 20
104.3234469999988
 10
-103.6111289999971
 20
104.3942409999981
 10
-103.5268409999989
 20
104.4654449999998
 10
-103.5268409999989
 20
104.4654449999998
 10
-103.443174
 20
104.5383029999993
 10
-103.3601869999984
 20
104.6126069999991
 10
-103.3601869999984
 20
104.6126069999991
 10
-103.2783249999993
 20
104.6879059999992
 10
-103.197623
 20
104.7642409999989
 10
-103.197623
 20
104.7642409999989
 10
-103.117936999999
 20
104.8416479999996
 10
-103.038797000001
 20
104.9196549999997
  0
LWPOLYLINE
  5
4F2
330
6F
100
AcDbEntity
  8
DETAIL
  6
Continuous
 62
     5
100
AcDbPolyline
 90
      105
 70
     0
 43
0.0
 10
-108.523624999998
 20
111.4803449999999
 10
-108.4445409999971
 20
111.5582989999984
 10
-108.3649099999966
 20
111.6356539999997
 10
-108.3649099999966
 20
111.6356539999997
 10
-108.2842649999984
 20
111.7119379999985
 10
-108.2024620000011
 20
111.7871869999999
 10
-108.2024620000011
 20
111.7871869999999
 10
-108.1195369999987
 20
111.8614419999994
 10
-108.0359299999982
 20
111.9342559999985
 10
-108.0359299999982
 20
111.9342559999985
 10
-107.9517009999981
 20
112.0054199999995
 10
-107.8649619999996
 20
112.0761699999984
 10
-107.8649619999996
 20
112.0761699999984
 10
-107.7751839999982
 20
112.1467799999991
 10
-107.6892049999986
 20
112.2122389999986
 10
-107.6892049999986
 20
112.2122389999986
 10
-107.612846
 20
112.268344
 10
-107.5405030000001
 20
112.3194259999982
 10
-107.5405030000001
 20
112.3194259999982
 10
-107.4654759999976
 20
112.3705649999992
 10
-107.388125999998
 20
112.4213229999986
 10
-107.388125999998
 20
112.4213229999986
 10
-107.3101939999978
 20
112.4702149999993
 10
-107.2318919999998
 20
112.5170799999996
 10
-107.2318919999998
 20
112.5170799999996
 10
-107.1528130000006
 20
112.5621429999992
 10
-107.0716189999984
 20
112.6058449999982
 10
-107.0716189999984
 20
112.6058449999982
 10
-106.9880559999982
 20
112.6481349999994
 10
-106.9071259999982
 20
112.6867669999992
 10
-106.9071259999982
 20
112.6867669999992
 10
-106.8330679999999
 20
112.7199059999984
 10
-106.7618139999977
 20
112.7495629999994
 10
-106.7618139999977
 20
112.7495629999994
 10
-106.6885159999983
 20
112.7780599999987
 10
-106.613526000001
 20
112.8051309999991
 10
-106.613526000001
 20
112.8051309999991
 10
-106.5381809999998
 20
112.8300339999987
 10
-106.4625589999996
 20
112.8527049999993
 10
-106.4625589999996
 20
112.8527049999993
 10
-106.3863829999972
 20
112.8732179999988
 10
-106.3092130000004
 20
112.8915239999987
 10
-106.3092130000004
 20
112.8915239999987
 10
-106.2310450000004
 20
112.9074949999995
 10
-106.1537849999986
 20
112.920822
 10
-106.1537849999986
 20
112.920822
 10
-106.0790409999972
 20
112.9312789999985
 10
-106.0053200000002
 20
112.9391779999987
 10
-106.0053200000002
 20
112.9391779999987
 10
-105.9308569999994
 20
112.9448749999992
 10
-105.8558989999983
 20
112.9483509999991
 10
-105.8558989999983
 20
112.9483509999991
 10
-105.7810289999979
 20
112.9495119999992
 10
-105.7061609999982
 20
112.9483389999986
 10
-105.7061609999982
 20
112.9483389999986
 10
-105.6312059999982
 20
112.944852999999
 10
-105.5567420000006
 20
112.9391439999999
 10
-105.5567420000006
 20
112.9391439999999
 10
-105.4830129999973
 20
112.931231999999
 10
-105.4082789999993
 20
112.9207659999992
 10
-105.4082789999993
 20
112.9207659999992
 10
-105.3310679999995
 20
112.9074379999982
 10
-105.2529670000003
 20
112.8914699999986
 10
-105.2529670000003
 20
112.8914699999986
 10
-105.175855999998
 20
112.8731719999996
 10
-105.0997339999994
 20
112.8526700000002
 10
-105.0997339999994
 20
112.8526700000002
 10
-105.0241679999999
 20
112.8300119999985
 10
-104.9488789999996
 20
112.8051249999989
 10
-104.9488789999996
 20
112.8051249999989
 10
-104.8739429999987
 20
112.7780739999998
 10
-104.8006979999991
 20
112.7495999999992
 10
-104.8006979999991
 20
112.7495999999992
 10
-104.7294959999999
 20
112.7199679999994
 10
-104.655488999997
 20
112.6868549999998
 10
-104.655488999997
 20
112.6868549999998
 10
-104.5746069999986
 20
112.6482529999994
 10
-104.4910899999995
 20
112.6059939999995
 10
-104.4910899999995
 20
112.6059939999995
 10
-104.409940999998
 20
112.5623249999989
 10
-104.3309059999992
 20
112.5172979999988
 10
-104.3309059999992
 20
112.5172979999988
 10
-104.2526470000011
 20
112.4704709999987
 10
-104.1747560000003
 20
112.4216159999996
 10
-104.1747560000003
 20
112.4216159999996
 10
-104.0974419999984
 20
112.3708939999997
 10
-104.0224589999998
 20
112.3197989999989
 10
-104.0224589999998
 20
112.3197989999989
 10
-103.95017
 20
112.2687719999994
 10
-103.8738319999975
 20
112.212696999999
 10
-103.8738319999975
 20
112.212696999999
 10
-103.7877999999982
 20
112.1472139999987
 10
-103.6979379999975
 20
112.0765539999993
 10
-103.6979379999975
 20
112.0765539999993
 10
-103.6111289999971
 20
112.00576
 10
-103.5268409999989
 20
111.9345560000001
 10
-103.5268409999989
 20
111.9345560000001
 10
-103.443174
 20
111.8616979999988
 10
-103.3601869999984
 20
111.787393999999
 10
-103.3601869999984
 20
111.787393999999
 10
-103.2783249999993
 20
111.7120949999989
 10
-103.197623
 20
111.6357599999992
 10
-103.197623
 20
111.6357599999992
 10
-103.117936999999
 20
111.5583529999985
 10
-103.038797000001
 20
111.4803449999999
  0
LWPOLYLINE
  5
55D
330
6F
100
AcDbEntity
  8
DETAIL
  6
Continuous
 62
     5
100
AcDbPolyline
 90
      105
 70
     0
 43
0.0
 10
-124.9781079999993
 20
111.4803449999999
 10
-124.8990229999981
 20
111.5582989999984
 10
-124.8193919999976
 20
111.6356539999997
 10
-124.8193919999976
 20
111.6356539999997
 10
-124.7387479999997
 20
111.7119379999985
 10
-124.6569449999988
 20
111.7871869999999
 10
-124.6569449999988
 20
111.7871869999999
 10
-124.5740189999997
 20
111.8614419999994
 10
-124.4904129999995
 20
111.9342559999985
 10
-124.4904129999995
 20
111.9342559999985
 10
-124.4061829999991
 20
112.0054199999995
 10
-124.319445000001
 20
112.0761699999984
 10
-124.319445000001
 20
112.0761699999984
 10
-124.2296669999996
 20
112.1467799999991
 10
-124.1436880000001
 20
112.2122389999986
 10
-124.1436880000001
 20
112.2122389999986
 10
-124.0673289999977
 20
112.268344
 10
-123.9949849999975
 20
112.3194259999982
 10
-123.9949849999975
 20
112.3194259999982
 10
-123.9199579999986
 20
112.3705649999992
 10
-123.842607999999
 20
112.4213229999986
 10
-123.842607999999
 20
112.4213229999986
 10
-123.7646769999992
 20
112.4702149999993
 10
-123.6863749999975
 20
112.5170799999996
 10
-123.6863749999975
 20
112.5170799999996
 10
-123.6072959999983
 20
112.5621429999992
 10
-123.5261019999998
 20
112.6058449999982
 10
-123.5261019999998
 20
112.6058449999982
 10
-123.4425389999996
 20
112.6481349999994
 10
-123.3616079999992
 20
112.6867669999992
 10
-123.3616079999992
 20
112.6867669999992
 10
-123.2875510000012
 20
112.7199059999984
 10
-123.216296999999
 20
112.7495629999994
 10
-123.216296999999
 20
112.7495629999994
 10
-123.1429979999993
 20
112.7780599999987
 10
-123.0680079999983
 20
112.8051309999991
 10
-123.0680079999983
 20
112.8051309999991
 10
-122.9926639999976
 20
112.8300339999987
 10
-122.9170420000009
 20
112.8527049999993
 10
-122.9170420000009
 20
112.8527049999993
 10
-122.8408659999986
 20
112.8732179999988
 10
-122.7636959999981
 20
112.8915239999987
 10
-122.7636959999981
 20
112.8915239999987
 10
-122.6855279999981
 20
112.9074949999995
 10
-122.6082679999999
 20
112.920822
 10
-122.6082679999999
 20
112.920822
 10
-122.5335239999985
 20
112.9312789999985
 10
-122.4598019999975
 20
112.9391779999987
 10
-122.4598019999975
 20
112.9391779999987
 10
-122.3853400000007
 20
112.9448749999992
 10
-122.3103819999996
 20
112.9483509999991
 10
-122.3103819999996
 20
112.9483509999991
 10
-122.2355119999993
 20
112.9495119999992
 10
-122.1606439999996
 20
112.9483389999986
 10
-122.1606439999996
 20
112.9483389999986
 10
-122.0856889999995
 20
112.944852999999
 10
-122.011223999998
 20
112.9391439999999
 10
-122.011223999998
 20
112.9391439999999
 10
-121.9374959999986
 20
112.931231999999
 10
-121.862761999997
 20
112.9207659999992
 10
-121.862761999997
 20
112.9207659999992
 10
-121.7855510000008
 20
112.9074379999982
 10
-121.707449999998
 20
112.8914699999986
 10
-121.707449999998
 20
112.8914699999986
 10
-121.6303389999993
 20
112.8731719999996
 10
-121.5542169999971
 20
112.8526700000002
 10
-121.5542169999971
 20
112.8526700000002
 10
-121.4786509999976
 20
112.8300119999985
 10
-121.4033609999969
 20
112.8051249999989
 10
-121.4033609999969
 20
112.8051249999989
 10
-121.328426
 20
112.7780739999998
 10
-121.2551810000004
 20
112.7495999999992
 10
-121.2551810000004
 20
112.7495999999992
 10
-121.1839790000013
 20
112.7199679999994
 10
-121.1099719999984
 20
112.6868549999998
 10
-121.1099719999984
 20
112.6868549999998
 10
-121.02909
 20
112.6482529999994
 10
-120.9455719999969
 20
112.6059939999995
 10
-120.9455719999969
 20
112.6059939999995
 10
-120.8644229999991
 20
112.5623249999989
 10
-120.7853880000002
 20
112.5172979999988
 10
-120.7853880000002
 20
112.5172979999988
 10
-120.7071299999988
 20
112.4704709999987
 10
-120.629238999998
 20
112.4216159999996
 10
-120.629238999998
 20
112.4216159999996
 10
-120.5519249999997
 20
112.3708939999997
 10
-120.4769410000008
 20
112.3197989999989
 10
-120.4769410000008
 20
112.3197989999989
 10
-120.4046519999974
 20
112.2687719999994
 10
-120.3283139999985
 20
112.212696999999
 10
-120.3283139999985
 20
112.212696999999
 10
-120.2422829999996
 20
112.1472139999987
 10
-120.1524209999988
 20
112.0765539999993
 10
-120.1524209999988
 20
112.0765539999993
 10
-120.0656119999985
 20
112.00576
 10
-119.9813229999999
 20
111.9345560000001
 10
-119.9813229999999
 20
111.9345560000001
 10
-119.8976570000013
 20
111.8616979999988
 10
-119.8146689999994
 20
111.787393999999
 10
-119.8146689999994
 20
111.787393999999
 10
-119.7328070000003
 20
111.7120949999989
 10
-119.6521060000014
 20
111.6357599999992
 10
-119.6521060000014
 20
111.6357599999992
 10
-119.5724190000001
 20
111.5583529999985
 10
-119.4932799999987
 20
111.4803449999999
  0
LWPOLYLINE
  5
5C8
330
6F
100
AcDbEntity
  8
DETAIL
  6
Continuous
 62
     5
100
AcDbPolyline
 90
      105
 70
     0
 43
0.0
 10
-124.9781079999993
 20
104.9196549999997
 10
-124.8990229999981
 20
104.8417019999997
 10
-124.8193919999976
 20
104.7643469999984
 10
-124.8193919999976
 20
104.7643469999984
 10
-124.7387479999997
 20
104.6880619999992
 10
-124.6569449999988
 20
104.6128129999997
 10
-124.6569449999988
 20
104.6128129999997
 10
-124.5740189999997
 20
104.5385580000002
 10
-124.4904129999995
 20
104.4657449999995
 10
-124.4904129999995
 20
104.4657449999995
 10
-124.4061829999991
 20
104.3945809999986
 10
-124.319445000001
 20
104.3238309999997
 10
-124.319445000001
 20
104.3238309999997
 10
-124.2296669999996
 20
104.253220999999
 10
-124.1436880000001
 20
104.1877619999995
 10
-124.1436880000001
 20
104.1877619999995
 10
-124.0673289999977
 20
104.1316559999995
 10
-123.9949849999975
 20
104.0805749999999
 10
-123.9949849999975
 20
104.0805749999999
 10
-123.9199579999986
 20
104.0294359999989
 10
-123.842607999999
 20
103.978676999999
 10
-123.842607999999
 20
103.978676999999
 10
-123.7646769999992
 20
103.9297849999984
 10
-123.6863749999975
 20
103.8829209999985
 10
-123.6863749999975
 20
103.8829209999985
 10
-123.6072959999983
 20
103.8378579999989
 10
-123.5261019999998
 20
103.7941559999999
 10
-123.5261019999998
 20
103.7941559999999
 10
-123.4425389999996
 20
103.7518659999987
 10
-123.3616079999992
 20
103.7132339999989
 10
-123.3616079999992
 20
103.7132339999989
 10
-123.2875510000012
 20
103.6800939999994
 10
-123.216296999999
 20
103.6504379999987
 10
-123.216296999999
 20
103.6504379999987
 10
-123.1429979999993
 20
103.6219409999994
 10
-123.0680079999983
 20
103.594869999999
 10
-123.0680079999983
 20
103.594869999999
 10
-122.9926639999976
 20
103.5699669999994
 10
-122.9170420000009
 20
103.5472949999985
 10
-122.9170420000009
 20
103.5472949999985
 10
-122.8408659999986
 20
103.5267829999993
 10
-122.7636959999981
 20
103.5084769999994
 10
-122.7636959999981
 20
103.5084769999994
 10
-122.6855279999981
 20
103.4925049999983
 10
-122.6082679999999
 20
103.4791789999981
 10
-122.6082679999999
 20
103.4791789999981
 10
-122.5335239999985
 20
103.4687219999996
 10
-122.4598019999975
 20
103.4608219999991
 10
-122.4598019999975
 20
103.4608219999991
 10
-122.3853400000007
 20
103.4551249999986
 10
-122.3103819999996
 20
103.451649999999
 10
-122.3103819999996
 20
103.451649999999
 10
-122.2355119999993
 20
103.4504889999989
 10
-122.1606439999996
 20
103.4516609999991
 10
-122.1606439999996
 20
103.4516609999991
 10
-122.0856889999995
 20
103.4551479999991
 10
-122.011223999998
 20
103.4608559999997
 10
-122.011223999998
 20
103.4608559999997
 10
-121.9374959999986
 20
103.4687689999991
 10
-121.862761999997
 20
103.4792349999989
 10
-121.862761999997
 20
103.4792349999989
 10
-121.7855510000008
 20
103.4925629999998
 10
-121.707449999998
 20
103.5085299999991
 10
-121.707449999998
 20
103.5085299999991
 10
-121.6303389999993
 20
103.5268289999985
 10
-121.5542169999971
 20
103.5473309999997
 10
-121.5542169999971
 20
103.5473309999997
 10
-121.4786509999976
 20
103.5699889999996
 10
-121.4033609999969
 20
103.5948749999988
 10
-121.4033609999969
 20
103.5948749999988
 10
-121.328426
 20
103.6219270000001
 10
-121.2551810000004
 20
103.6504009999988
 10
-121.2551810000004
 20
103.6504009999988
 10
-121.1839790000013
 20
103.6800329999987
 10
-121.1099719999984
 20
103.7131449999997
 10
-121.1099719999984
 20
103.7131449999997
 10
-121.02909
 20
103.7517479999988
 10
-120.9455719999969
 20
103.7940060000001
 10
-120.9455719999969
 20
103.7940060000001
 10
-120.8644229999991
 20
103.8376759999992
 10
-120.7853880000002
 20
103.8827029999993
 10
-120.7853880000002
 20
103.8827029999993
 10
-120.7071299999988
 20
103.9295299999994
 10
-120.629238999998
 20
103.9783839999982
 10
-120.629238999998
 20
103.9783839999982
 10
-120.5519249999997
 20
104.0291069999984
 10
-120.4769410000008
 20
104.0802009999988
 10
-120.4769410000008
 20
104.0802009999988
 10
-120.4046519999974
 20
104.1312289999987
 10
-120.3283139999985
 20
104.1873039999991
 10
-120.3283139999985
 20
104.1873039999991
 10
-120.2422829999996
 20
104.2527859999991
 10
-120.1524209999988
 20
104.3234469999988
 10
-120.1524209999988
 20
104.3234469999988
 10
-120.0656119999985
 20
104.3942409999981
 10
-119.9813229999999
 20
104.4654449999998
 10
-119.9813229999999
 20
104.4654449999998
 10
-119.8976570000013
 20
104.5383029999993
 10
-119.8146689999994
 20
104.6126069999991
 10
-119.8146689999994
 20
104.6126069999991
 10
-119.7328070000003
 20
104.6879059999992
 10
-119.6521060000014
 20
104.7642409999989
 10
-119.6521060000014
 20
104.7642409999989
 10
-119.5724190000001
 20
104.8416479999996
 10
-119.4932799999987
 20
104.9196549999997
  0
LWPOLYLINE
  5
633
330
6F
100
AcDbEntity
  8
DETAIL
  6
Continuous
 62
     5
100
AcDbPolyline
 90
      135
 70
     0
 43
0.0
 10
605.9217480000008
 20
57.15860400000018
 10
605.9215089999996
 20
57.13818600000013
 10
605.9210480000001
 20
57.11776999999893
 10
605.9210480000001
 20
57.11776999999893
 10
605.9201910000009
 20
57.09735899999941
 10
605.9189509999996
 20
57.07695899999817
 10
605.9189509999996
 20
57.07695899999817
 10
605.9173750000008
 20
57.05657900000005
 10
605.9154610000005
 20
57.03622600000016
 10
605.9154610000005
 20
57.03622600000016
 10
605.9131960000012
 20
57.01590699999907
 10
605.9105810000001
 20
56.99562799999876
 10
605.9105810000001
 20
56.99562799999876
 10
605.9076219999988
 20
56.97539799999868
 10
605.9043170000006
 20
56.95522199999868
 10
605.9043170000006
 20
56.95522199999868
 10
605.9006670000017
 20
56.93510499999866
 10
605.8966720000024
 20
56.91505499999948
 10
605.8966720000024
 20
56.91505499999948
 10
605.8923360000008
 20
56.89507899999989
 10
605.8876589999998
 20
56.87518099999943
 10
605.8876589999998
 20
56.87518099999943
 10
605.8826430000006
 20
56.8553670000001
 10
605.877289
 20
56.83564199999818
 10
605.877289
 20
56.83564199999818
 10
605.8715990000019
 20
56.81601199999931
 10
605.8655750000035
 20
56.79648199999974
 10
605.8655750000035
 20
56.79648199999974
 10
605.8592180000012
 20
56.77705900000001
 10
605.8525289999996
 20
56.75774599999932
 10
605.8525289999996
 20
56.75774599999932
 10
605.8455089999988
 20
56.73854599999867
 10
605.838162
 20
56.71946799999933
 10
605.838162
 20
56.71946799999933
 10
605.8304889999999
 20
56.70051799999964
 10
605.822494
 20
56.68170099999952
 10
605.822494
 20
56.68170099999952
 10
605.8141790000007
 20
56.66302399999949
 10
605.8055460000032
 20
56.64448999999876
 10
605.8055460000032
 20
56.64448999999876
 10
605.7965980000008
 20
56.6261059999997
 10
605.7873380000017
 20
56.60787899999923
 10
605.7873380000017
 20
56.60787899999923
 10
605.7777679999998
 20
56.58981199999836
 10
605.7678900000027
 20
56.57191099999909
 10
605.7678900000027
 20
56.57191099999909
 10
605.7577040000032
 20
56.55417699999816
 10
605.7472160000034
 20
56.5366189999986
 10
605.7472160000034
 20
56.5366189999986
 10
605.7364300000007
 20
56.51924299999881
 10
605.7253490000001
 20
56.50205399999869
 10
605.7253490000001
 20
56.50205399999869
 10
605.7139759999992
 20
56.48505599999953
 10
605.7023150000024
 20
56.46825499999977
 10
605.7023150000024
 20
56.46825499999977
 10
605.6903689999998
 20
56.45165499999894
 10
605.6781420000008
 20
56.43526199999906
 10
605.6781420000008
 20
56.43526199999906
 10
605.6656379999984
 20
56.41907999999967
 10
605.6528570000009
 20
56.40311299999847
 10
605.6528570000009
 20
56.40311299999847
 10
605.6398020000015
 20
56.38736299999981
 10
605.6264789999986
 20
56.37183599999842
 10
605.6264789999986
 20
56.37183599999842
 10
605.612892000001
 20
56.35653999999886
 10
605.5990470000033
 20
56.34147799999847
 10
605.5990470000033
 20
56.34147799999847
 10
605.5849480000033
 20
56.3266539999986
 10
605.5705970000015
 20
56.31207199999881
 10
605.5705970000015
 20
56.31207199999881
 10
605.5560000000005
 20
56.29773699999896
 10
605.5411620000013
 20
56.2836529999986
 10
605.5411620000013
 20
56.2836529999986
 10
605.5260860000015
 20
56.2698249999994
 10
605.5107740000021
 20
56.25625399999989
 10
605.5107740000021
 20
56.25625399999989
 10
605.4952290000001
 20
56.24294399999961
 10
605.4794570000012
 20
56.22989999999845
 10
605.4794570000012
 20
56.22989999999845
 10
605.4634660000009
 20
56.21712799999841
 10
605.4472600000007
 20
56.20463000000018
 10
605.4472600000007
 20
56.20463000000018
 10
605.4308430000019
 20
56.19240999999965
 10
605.4142199999987
 20
56.18047099999968
 10
605.4142199999987
 20
56.18047099999968
 10
605.3973960000002
 20
56.16881699999976
 10
605.3803770000012
 20
56.15745099999911
 10
605.3803770000012
 20
56.15745099999911
 10
605.3631660000027
 20
56.14637799999946
 10
605.3457679999992
 20
56.13559799999894
 10
605.3457679999992
 20
56.13559799999894
 10
605.3281840000018
 20
56.12511499999889
 10
605.3104220000022
 20
56.11493299999892
 10
605.3104220000022
 20
56.11493299999892
 10
605.2924889999993
 20
56.10505499999999
 10
605.2743919999993
 20
56.09548399999948
 10
605.2743919999993
 20
56.09548399999948
 10
605.2561340000029
 20
56.08622299999843
 10
605.2377220000015
 20
56.07727299999897
 10
605.2377220000015
 20
56.07727299999897
 10
605.2191590000001
 20
56.06863799999882
 10
605.2004540000016
 20
56.06032099999903
 10
605.2004540000016
 20
56.06032099999903
 10
605.1816099999996
 20
56.0523229999999
 10
605.1626319999996
 20
56.04464799999914
 10
605.1626319999996
 20
56.04464799999914
 10
605.1435239999991
 20
56.03729699999894
 10
605.1242920000004
 20
56.03027099999962
 10
605.1242920000004
 20
56.03027099999962
 10
605.1049430000021
 20
56.02357499999925
 10
605.0854840000027
 20
56.01720899999964
 10
605.0854840000027
 20
56.01720899999964
 10
605.0659180000001
 20
56.01117499999964
 10
605.0462519999999
 20
56.0054749999981
 10
605.0462519999999
 20
56.0054749999981
 10
605.0264900000001
 20
56.00010999999904
 10
605.0066389999992
 20
55.99508199999945
 10
605.0066389999992
 20
55.99508199999945
 10
604.9867030000021
 20
55.9903919999997
 10
604.9666880000004
 20
55.98604299999897
 10
604.9666880000004
 20
55.98604299999897
 10
604.9465980000023
 20
55.98203599999941
 10
604.9264410000033
 20
55.97837099999924
 10
604.9264410000033
 20
55.97837099999924
 10
604.9062249999987
 20
55.97504899999876
 10
604.8859560000019
 20
55.972072999999
 10
604.8859560000019
 20
55.972072999999
 10
604.8656420000005
 20
55.96944599999915
 10
604.8452880000005
 20
55.96715499999845
 10
604.8452880000005
 20
55.96715499999845
 10
604.8249030000006
 20
55.96519899999838
 10
604.8044939999998
 20
55.96362399999998
 10
604.8044939999998
 20
55.96362399999998
 10
604.7840649999998
 20
55.96244399999886
 10
604.7636280000006
 20
55.96148399999947
  0
LINE
  5
6BC
330
6F
100
AcDbEntity
  8
DETAIL
  6
Continuous
 62
     5
100
AcDbLine
 10
604.7652730000009
 20
55.96220600000015
 30
0.0
 11
604.7641169999986
 21
55.96112199999879
 31
0.0
  0
LINE
  5
6BD
330
6F
100
AcDbEntity
  8
DETAIL
  6
Continuous
 62
     5
100
AcDbLine
 10
-605.8519469999992
 20
55.99700399999893
 30
0.0
 11
-605.850821
 21
55.99595799999953
 31
0.0
  0
LINE
  5
6BE
330
6F
100
AcDbEntity
  8
DETAIL
  6
Continuous
 62
     5
100
AcDbLine
 10
-121.9459529999985
 20
100.6999999999989
 30
0.0
 11
-106.0709529999985
 21
100.6999999999989
 31
0.0
  0
LINE
  5
6BF
330
6F
100
AcDbEntity
  8
DETAIL
  6
Continuous
 62
     5
100
AcDbLine
 10
-104.7584529999985
 20
113.1999999999989
 30
0.0
 11
-123.2584529999985
 21
113.1999999999989
 31
0.0
  0
LINE
  5
6C0
330
6F
100
AcDbEntity
  8
DETAIL
  6
Continuous
 62
     5
100
AcDbLine
 10
-123.2584529999985
 20
103.1999999999989
 30
0.0
 11
-124.9781079999993
 21
104.9196549999997
 31
0.0
  0
LINE
  5
6C1
330
6F
100
AcDbEntity
  8
DETAIL
  6
Continuous
 62
     5
100
AcDbLine
 10
-103.038797000001
 20
111.4803449999999
 30
0.0
 11
-104.7584529999985
 21
113.1999999999989
 31
0.0
  0
LINE
  5
6C2
330
6F
100
AcDbEntity
  8
DETAIL
  6
Continuous
 62
     5
100
AcDbLine
 10
-122.0084529999985
 20
113.1999999999989
 30
0.0
 11
-122.0084529999985
 21
115.1999999999989
 31
0.0
  0
LINE
  5
6C3
330
6F
100
AcDbEntity
  8
DETAIL
  6
Continuous
 62
     5
100
AcDbLine
 10
-121.9459529999985
 20
99.69999999999892
 30
0.0
 11
-121.9459529999985
 21
100.6999999999989
 31
0.0
  0
LINE
  5
6C4
330
6F
100
AcDbEntity
  8
DETAIL
  6
Continuous
 62
     5
100
AcDbLine
 10
-120.7584529999985
 20
100.6999999999989
 30
0.0
 11
-120.7584529999985
 21
103.1999999999989
 31
0.0
  0
LINE
  5
6C5
330
6F
100
AcDbEntity
  8
DETAIL
  6
Continuous
 62
     5
100
AcDbLine
 10
-107.2584529999985
 20
100.6999999999989
 30
0.0
 11
-107.2584529999985
 21
103.1999999999989
 31
0.0
  0
LINE
  5
6C6
330
6F
100
AcDbEntity
  8
DETAIL
  6
Continuous
 62
     5
100
AcDbLine
 10
-106.0709529999985
 20
99.69999999999892
 30
0.0
 11
-106.0709529999985
 21
100.6999999999989
 31
0.0
  0
LINE
  5
6C7
330
6F
100
AcDbEntity
  8
DETAIL
  6
Continuous
 62
     5
100
AcDbLine
 10
-106.0084529999985
 20
113.1999999999989
 30
0.0
 11
-106.0084529999985
 21
115.1999999999989
 31
0.0
  0
LINE
  5
6C8
330
6F
100
AcDbEntity
  8
DETAIL
  6
Continuous
 62
     5
100
AcDbLine
 10
-124.9781079999993
 20
111.4803449999999
 30
0.0
 11
-123.2584529999985
 21
113.1999999999989
 31
0.0
  0
LINE
  5
6C9
330
6F
100
AcDbEntity
  8
DETAIL
  6
Continuous
 62
     5
100
AcDbLine
 10
-104.7584529999985
 20
103.1999999999989
 30
0.0
 11
-103.038797000001
 21
104.9196549999997
 31
0.0
  0
CIRCLE
  5
6CA
330
6F
100
AcDbEntity
  8
DETAIL
  6
Continuous
 62
     5
100
AcDbCircle
 10
-482.0084529999985
 20
206.0
 30
0.0
 40
25.0
  0
CIRCLE
  5
6CB
330
6F
100
AcDbEntity
  8
DETAIL
  6
Continuous
 62
     5
100
AcDbCircle
 10
-405.0084529999991
 20
382.0
 30
0.0
 40
19.5
  0
CIRCLE
  5
6CC
330
6F
100
AcDbEntity
  8
DETAIL
  6
Continuous
 62
     5
100
AcDbCircle
 10
-405.0084529999991
 20
297.0
 30
0.0
 40
19.5
  0
CIRCLE
  5
6CD
330
6F
100
AcDbEntity
  8
DETAIL
  6
Continuous
 62
     5
100
AcDbCircle
 10
-416.5084529999991
 20
557.0
 30
0.0
 40
31.0
  0
CIRCLE
  5
6CE
330
6F
100
AcDbEntity
  8
DETAIL
  6
Continuous
 62
     5
100
AcDbCircle
 10
-482.0084529999985
 20
480.0
 30
0.0
 40
25.0
  0
CIRCLE
  5
6CF
330
6F
100
AcDbEntity
  8
DETAIL
  6
Continuous
 62
     5
100
AcDbCircle
 10
-405.0084529999991
 20
467.0
 30
0.0
 40
19.5
  0
LINE
  5
6D0
330
6F
100
AcDbEntity
  8
DETAIL
  6
Continuous
 62
     5
100
AcDbLine
 10
-125.0084529999985
 20
87.1999999999989
 30
0.0
 11
-103.0084529999985
 21
87.1999999999989
 31
0.0
  0
LINE
  5
6D1
330
6F
100
AcDbEntity
  8
DETAIL
  6
Continuous
 62
     5
100
AcDbLine
 10
-127.2875089999979
 20
89.47905699999862
 30
0.0
 11
-125.0084529999985
 21
87.1999999999989
 31
0.0
  0
LINE
  5
6D2
330
6F
100
AcDbEntity
  8
DETAIL
  6
Continuous
 62
     5
100
AcDbLine
 10
-103.0084529999985
 20
99.69999999999892
 30
0.0
 11
-100.7293959999988
 21
97.42094399999952
 31
0.0
  0
LINE
  5
6D3
330
6F
100
AcDbEntity
  8
DETAIL
  6
Continuous
 62
     5
100
AcDbLine
 10
-125.0084529999985
 20
87.1999999999989
 30
0.0
 11
-121.5084529999985
 21
81.69999999999891
 31
0.0
  0
LINE
  5
6D4
330
6F
100
AcDbEntity
  8
DETAIL
  6
Continuous
 62
     5
100
AcDbLine
 10
-103.0084529999985
 20
87.1999999999989
 30
0.0
 11
-106.5084529999985
 21
81.69999999999891
 31
0.0
  0
LINE
  5
6D5
330
6F
100
AcDbEntity
  8
DETAIL
  6
Continuous
 62
     5
100
AcDbLine
 10
-125.0084529999985
 20
99.69999999999892
 30
0.0
 11
-127.2875089999979
 21
97.42094399999952
 31
0.0
  0
LINE
  5
6D6
330
6F
100
AcDbEntity
  8
DETAIL
  6
Continuous
 62
     5
100
AcDbLine
 10
-100.7293959999988
 20
89.47905699999862
 30
0.0
 11
-103.0084529999985
 21
87.1999999999989
 31
0.0
  0
LINE
  5
6D7
330
6F
100
AcDbEntity
  8
DETAIL
  6
Continuous
 62
     5
100
AcDbLine
 10
-531.1084530000008
 20
119.2999999999992
 30
0.0
 11
-375.5084529999986
 21
119.2999999999992
 31
0.0
  0
LINE
  5
6D8
330
6F
100
AcDbEntity
  8
DETAIL
  6
Continuous
 62
     5
100
AcDbLine
 10
605.9217480000008
 20
130.0
 30
0.0
 11
605.1915469999983
 21
130.0
 31
0.0
  0
LINE
  5
6D9
330
6F
100
AcDbEntity
  8
DETAIL
  6
Continuous
 62
     5
100
AcDbLine
 10
-607.0084529999984
 20
130.0
 30
0.0
 11
-605.2084529999993
 21
130.0
 31
0.0
  0
LINE
  5
6DA
330
6F
100
AcDbEntity
  8
DETAIL
  6
Continuous
 62
     5
100
AcDbLine
 10
-534.1084530000008
 20
122.2999999999992
 30
0.0
 11
-531.1084530000008
 21
119.2999999999992
 31
0.0
  0
LINE
  5
6DB
330
6F
100
AcDbEntity
  8
DETAIL
  6
Continuous
 62
     5
100
AcDbLine
 10
-529.7084529999993
 20
814.4999999999999
 30
0.0
 11
529.6915470000022
 21
814.4999999999999
 31
0.0
  0
LINE
  5
6DC
330
6F
100
AcDbEntity
  8
DETAIL
  6
Continuous
 62
     5
100
AcDbLine
 10
-607.0084529999984
 20
57.18210510792413
 30
0.0
 11
-607.0084529999984
 21
130.0
 31
0.0
  0
LINE
  5
6DD
330
6F
100
AcDbEntity
  8
DETAIL
  6
Continuous
 62
     5
100
AcDbLine
 10
-534.7084529999992
 20
1434.0
 30
0.0
 11
-534.7084529999992
 21
1386.5
 31
0.0
  0
LINE
  5
6DE
330
6F
100
AcDbEntity
  8
DETAIL
  6
Continuous
 62
     5
100
AcDbLine
 10
-534.7084529999992
 20
796.6999999999988
 30
0.0
 11
-534.7084529999992
 21
818.2999999999989
 31
0.0
  0
LINE
  5
6DF
330
6F
100
AcDbEntity
  8
DETAIL
  6
Continuous
 62
     5
100
AcDbLine
 10
-534.1084530000008
 20
122.2999999999992
 30
0.0
 11
-534.1084530000008
 21
143.5
 31
0.0
  0
LINE
  5
6E0
330
6F
100
AcDbEntity
  8
DETAIL
  6
Continuous
 62
     5
100
AcDbLine
 10
534.6915470000022
 20
809.5
 30
0.0
 11
529.6915470000022
 21
814.4999999999999
 31
0.0
  0
LINE
  5
6E1
330
6F
100
AcDbEntity
  8
DETAIL
  6
Continuous
 62
     5
100
AcDbLine
 10
-529.7084529999993
 20
814.4999999999999
 30
0.0
 11
-534.7084529999992
 21
809.5
 31
0.0
  0
LINE
  5
6E2
330
6F
100
AcDbEntity
  8
DETAIL
  6
Continuous
 62
     5
100
AcDbLine
 10
534.6915470000022
 20
818.2999999999989
 30
0.0
 11
534.6915470000022
 21
796.6999999999988
 31
0.0
  0
LINE
  5
6E3
330
6F
100
AcDbEntity
  8
DETAIL
  6
Continuous
 62
     5
100
AcDbLine
 10
534.6915470000022
 20
1386.5
 30
0.0
 11
534.6915470000022
 21
1434.0
 31
0.0
  0
LINE
  5
6E4
330
6F
100
AcDbEntity
  8
DETAIL
  6
Continuous
 62
     5
100
AcDbLine
 10
605.9217480000008
 20
130.0
 30
0.0
 11
605.9217480000008
 21
57.15860400000018
 31
0.0
  0
LINE
  5
6E5
330
6F
100
AcDbEntity
  8
NOTE
  6
Continuous
 62
     4
100
AcDbLine
 10
770.2531159999997
 20
932.7570329999982
 30
0.0
 11
770.2531159999997
 21
982.7570329999982
 31
0.0
  0
LINE
  5
6E6
330
6F
100
AcDbEntity
  8
NOTE
  6
Continuous
 62
     4
100
AcDbLine
 10
729.5670280000011
 20
982.7570329999982
 30
0.0
 11
770.2531159999997
 21
982.7570329999982
 31
0.0
  0
LINE
  5
6E7
330
6F
100
AcDbEntity
  8
NOTE
  6
Continuous
 62
     4
100
AcDbLine
 10
729.5670280000011
 20
932.7570329999982
 30
0.0
 11
770.2531159999997
 21
932.7570329999982
 31
0.0
  0
LINE
  5
6E8
330
6F
100
AcDbEntity
  8
NOTE
  6
Continuous
 62
     4
100
AcDbLine
 10
729.5670280000011
 20
932.7570329999982
 30
0.0
 11
729.5670280000011
 21
907.7570329999982
 31
0.0
  0
LINE
  5
6E9
330
6F
100
AcDbEntity
  8
NOTE
  6
Continuous
 62
     4
100
AcDbLine
 10
729.5670280000011
 20
1007.757032999998
 30
0.0
 11
729.5670280000011
 21
982.7570329999982
 31
0.0
  0
LINE
  5
6EA
330
6F
100
AcDbEntity
  8
NOTE
  6
Continuous
 62
     4
100
AcDbLine
 10
729.5670280000011
 20
1007.757032999998
 30
0.0
 11
679.670983
 21
957.7570329999982
 31
0.0
  0
LINE
  5
6EB
330
6F
100
AcDbEntity
  8
NOTE
  6
Continuous
 62
     4
100
AcDbLine
 10
679.670983
 20
957.7570329999982
 30
0.0
 11
729.5670280000011
 21
907.7570329999982
 31
0.0
  0
LINE
  5
6EC
330
6F
100
AcDbEntity
  8
NOTE
  6
Continuous
 62
     4
100
AcDbLine
 10
766.0320550000033
 20
1233.092352
 30
0.0
 11
766.0320550000033
 21
1283.092351999999
 31
0.0
  0
LINE
  5
6ED
330
6F
100
AcDbEntity
  8
NOTE
  6
Continuous
 62
     4
100
AcDbLine
 10
725.3459680000015
 20
1283.092351999999
 30
0.0
 11
766.0320550000033
 21
1283.092351999999
 31
0.0
  0
LINE
  5
6EE
330
6F
100
AcDbEntity
  8
NOTE
  6
Continuous
 62
     4
100
AcDbLine
 10
725.3459680000015
 20
1233.092352
 30
0.0
 11
766.0320550000033
 21
1233.092352
 31
0.0
  0
LINE
  5
6EF
330
6F
100
AcDbEntity
  8
NOTE
  6
Continuous
 62
     4
100
AcDbLine
 10
725.3459680000015
 20
1233.092352
 30
0.0
 11
725.3459680000015
 21
1208.092351999999
 31
0.0
  0
LINE
  5
6F0
330
6F
100
AcDbEntity
  8
NOTE
  6
Continuous
 62
     4
100
AcDbLine
 10
725.3459680000015
 20
1308.092352
 30
0.0
 11
725.3459680000015
 21
1283.092351999999
 31
0.0
  0
LINE
  5
6F1
330
6F
100
AcDbEntity
  8
NOTE
  6
Continuous
 62
     4
100
AcDbLine
 10
725.3459680000015
 20
1308.092352
 30
0.0
 11
675.4499219999996
 21
1258.092352
 31
0.0
  0
LINE
  5
6F2
330
6F
100
AcDbEntity
  8
NOTE
  6
Continuous
 62
     4
100
AcDbLine
 10
675.4499219999996
 20
1258.092352
 30
0.0
 11
725.3459680000015
 21
1208.092351999999
 31
0.0
  0
LINE
  5
6F3
330
6F
100
AcDbEntity
  8
NOTE
  6
Continuous
 62
     4
100
AcDbLine
 10
-738.8522569999985
 20
998.0871179999992
 30
0.0
 11
-738.8522569999985
 21
973.0871179999992
 31
0.0
  0
LINE
  5
6F4
330
6F
100
AcDbEntity
  8
NOTE
  6
Continuous
 62
     4
100
AcDbLine
 10
-779.5383440000005
 20
923.0871179999992
 30
0.0
 11
-779.5383440000005
 21
973.0871179999992
 31
0.0
  0
LINE
  5
6F5
330
6F
100
AcDbEntity
  8
NOTE
  6
Continuous
 62
     4
100
AcDbLine
 10
-738.8522569999985
 20
973.0871179999992
 30
0.0
 11
-779.5383440000005
 21
973.0871179999992
 31
0.0
  0
LINE
  5
6F6
330
6F
100
AcDbEntity
  8
NOTE
  6
Continuous
 62
     4
100
AcDbLine
 10
-738.8522569999985
 20
923.0871179999992
 30
0.0
 11
-779.5383440000005
 21
923.0871179999992
 31
0.0
  0
LINE
  5
6F7
330
6F
100
AcDbEntity
  8
NOTE
  6
Continuous
 62
     4
100
AcDbLine
 10
-738.8522569999985
 20
998.0871179999992
 30
0.0
 11
-688.9562109999969
 21
948.0871179999992
 31
0.0
  0
LINE
  5
6F8
330
6F
100
AcDbEntity
  8
NOTE
  6
Continuous
 62
     4
100
AcDbLine
 10
-688.9562109999969
 20
948.0871179999992
 30
0.0
 11
-738.8522569999985
 21
898.0871179999994
 31
0.0
  0
LINE
  5
6F9
330
6F
100
AcDbEntity
  8
NOTE
  6
Continuous
 62
     4
100
AcDbLine
 10
-738.8522569999985
 20
923.0871179999992
 30
0.0
 11
-738.8522569999985
 21
898.0871179999994
 31
0.0
  0
LINE
  5
6FA
330
6F
100
AcDbEntity
  8
NOTE
  6
Continuous
 62
     4
100
AcDbLine
 10
-693.1984769999981
 20
1258.092352
 30
0.0
 11
-743.0945219999994
 21
1208.092351999999
 31
0.0
  0
LINE
  5
6FB
330
6F
100
AcDbEntity
  8
NOTE
  6
Continuous
 62
     4
100
AcDbLine
 10
-743.0945219999994
 20
1308.092352
 30
0.0
 11
-693.1984769999981
 21
1258.092352
 31
0.0
  0
LINE
  5
6FC
330
6F
100
AcDbEntity
  8
NOTE
  6
Continuous
 62
     4
100
AcDbLine
 10
-743.0945219999994
 20
1308.092352
 30
0.0
 11
-743.0945219999994
 21
1283.092351999999
 31
0.0
  0
LINE
  5
6FD
330
6F
100
AcDbEntity
  8
NOTE
  6
Continuous
 62
     4
100
AcDbLine
 10
-743.0945219999994
 20
1233.092352
 30
0.0
 11
-743.0945219999994
 21
1208.092351999999
 31
0.0
  0
LINE
  5
6FE
330
6F
100
AcDbEntity
  8
NOTE
  6
Continuous
 62
     4
100
AcDbLine
 10
-743.0945219999994
 20
1233.092352
 30
0.0
 11
-783.7806099999982
 21
1233.092352
 31
0.0
  0
LINE
  5
6FF
330
6F
100
AcDbEntity
  8
NOTE
  6
Continuous
 62
     4
100
AcDbLine
 10
-743.0945219999994
 20
1283.092351999999
 30
0.0
 11
-783.7806099999982
 21
1283.092351999999
 31
0.0
  0
LINE
  5
700
330
6F
100
AcDbEntity
  8
NOTE
  6
Continuous
 62
     4
100
AcDbLine
 10
-783.7806099999982
 20
1233.092352
 30
0.0
 11
-783.7806099999982
 21
1283.092351999999
 31
0.0
  0
LINE
  5
701
330
6F
100
AcDbEntity
  8
SIZE
  6
Continuous
 62
    30
100
AcDbLine
 10
625.9915470000016
 20
1474.0
 30
0.0
 11
1052.949911458978
 21
1474.0
 31
0.0
  0
LINE
  5
702
330
6F
100
AcDbEntity
  8
SIZE
  6
Continuous
 62
    30
100
AcDbLine
 10
620.5915469999998
 20
-0.0000000000000057
 30
0.0
 11
1052.949911458978
 21
-0.0000000000001281
 31
0.0
  0
LINE
  5
703
330
6F
100
AcDbEntity
  8
SIZE
  6
Continuous
 62
    30
100
AcDbLine
 10
1032.949911458978
 20
1474.0
 30
0.0
 11
1032.949911458978
 21
-0.0000000000001225
 31
0.0
  0
CIRCLE
  5
704
330
6F
100
AcDbEntity
  8
SIZE
  6
Continuous
 62
    30
100
AcDbCircle
 10
1032.949911458978
 20
1474.0
 30
0.0
 40
7.5
  0
CIRCLE
  5
705
330
6F
100
AcDbEntity
  8
SIZE
  6
Continuous
 62
    30
100
AcDbCircle
 10
1032.949911458978
 20
-0.0000000000001225
 30
0.0
 40
7.5
  0
TEXT
  5
706
330
6F
100
AcDbEntity
  8
SIZE
  6
Continuous
 62
    30
100
AcDbText
 10
1012.949911458978
 20
645.7142857142858
 30
0.0
 40
60.0
  1
1474
 50
90.0
 41
0.9
 72
     1
 11
1012.949911458978
 21
737.0
 31
0.0
100
AcDbText
  0
POINT
  5
707
330
6F
100
AcDbEntity
  8
DEFPOINTS
  6
Continuous
 62
     7
100
AcDbPoint
 10
605.9915470000015
 20
1474.0
 30
0.0
  0
POINT
  5
708
330
6F
100
AcDbEntity
  8
DEFPOINTS
  6
Continuous
 62
     7
100
AcDbPoint
 10
600.5915469999998
 20
0.0
 30
0.0
  0
POINT
  5
709
330
6F
100
AcDbEntity
  8
DEFPOINTS
  6
Continuous
 62
     7
100
AcDbPoint
 10
1032.949911458978
 20
-0.0000000000001225
 30
0.0
  0
LINE
  5
70A
330
6F
100
AcDbEntity
  8
SIZE
  6
Continuous
 62
    30
100
AcDbLine
 10
428.9615545000015
 20
1777.0
 30
0.0
 11
1052.949911458978
 21
1777.0
 31
0.0
  0
LINE
  5
70B
330
6F
100
AcDbEntity
  8
SIZE
  6
Continuous
 62
    30
100
AcDbLine
 10
625.9915470000016
 20
1474.0
 30
0.0
 11
1052.949911458978
 21
1474.0
 31
0.0
  0
LINE
  5
70C
330
6F
100
AcDbEntity
  8
SIZE
  6
Continuous
 62
    30
100
AcDbLine
 10
1032.949911458978
 20
1777.0
 30
0.0
 11
1032.949911458978
 21
1474.0
 31
0.0
  0
CIRCLE
  5
70D
330
6F
100
AcDbEntity
  8
SIZE
  6
Continuous
 62
    30
100
AcDbCircle
 10
1032.949911458978
 20
1777.0
 30
0.0
 40
7.5
  0
CIRCLE
  5
70E
330
6F
100
AcDbEntity
  8
SIZE
  6
Continuous
 62
    30
100
AcDbCircle
 10
1032.949911458978
 20
1474.0
 30
0.0
 40
7.5
  0
TEXT
  5
70F
330
6F
100
AcDbEntity
  8
SIZE
  6
Continuous
 62
    30
100
AcDbText
 10
1012.949911458978
 20
1556.071428571429
 30
0.0
 40
60.0
  1
303
 50
90.0
 41
0.9
 72
     1
 11
1012.949911458978
 21
1625.5
 31
0.0
100
AcDbText
  0
POINT
  5
710
330
6F
100
AcDbEntity
  8
DEFPOINTS
  6
Continuous
 62
     7
100
AcDbPoint
 10
408.9615545000015
 20
1777.0
 30
0.0
  0
POINT
  5
711
330
6F
100
AcDbEntity
  8
DEFPOINTS
  6
Continuous
 62
     7
100
AcDbPoint
 10
605.9915470000015
 20
1474.0
 30
0.0
  0
POINT
  5
712
330
6F
100
AcDbEntity
  8
DEFPOINTS
  6
Continuous
 62
     7
100
AcDbPoint
 10
1032.949911458978
 20
1474.0
 30
0.0
  0
LINE
  5
713
330
6F
100
AcDbEntity
  8
SIZE
  6
Continuous
 62
    30
100
AcDbLine
 10
428.9615545000033
 20
1777.0
 30
0.0
 11
1183.258096184269
 21
1777.0
 31
0.0
  0
LINE
  5
714
330
6F
100
AcDbEntity
  8
SIZE
  6
Continuous
 62
    30
100
AcDbLine
 10
620.5915469999998
 20
-0.0000000000000057
 30
0.0
 11
1183.258096184268
 21
-0.0000000000001651
 31
0.0
  0
LINE
  5
715
330
6F
100
AcDbEntity
  8
SIZE
  6
Continuous
 62
    30
100
AcDbLine
 10
1163.258096184269
 20
1777.0
 30
0.0
 11
1163.258096184268
 21
-0.0000000000001594
 31
0.0
  0
CIRCLE
  5
716
330
6F
100
AcDbEntity
  8
SIZE
  6
Continuous
 62
    30
100
AcDbCircle
 10
1163.258096184269
 20
1777.0
 30
0.0
 40
7.5
  0
CIRCLE
  5
717
330
6F
100
AcDbEntity
  8
SIZE
  6
Continuous
 62
    30
100
AcDbCircle
 10
1163.258096184268
 20
-0.0000000000001594
 30
0.0
 40
7.5
  0
TEXT
  5
718
330
6F
100
AcDbEntity
  8
SIZE
  6
Continuous
 62
    30
100
AcDbText
 10
1143.258096184268
 20
798.5
 30
0.0
 40
60.0
  1
1777
 50
90.0
 41
0.9
 72
     1
 11
1143.258096184268
 21
888.4999999999999
 31
0.0
100
AcDbText
  0
POINT
  5
719
330
6F
100
AcDbEntity
  8
DEFPOINTS
  6
Continuous
 62
     7
100
AcDbPoint
 10
408.9615545000032
 20
1777.0
 30
0.0
  0
POINT
  5
71A
330
6F
100
AcDbEntity
  8
DEFPOINTS
  6
Continuous
 62
     7
100
AcDbPoint
 10
600.5915469999998
 20
0.0
 30
0.0
  0
POINT
  5
71B
330
6F
100
AcDbEntity
  8
DEFPOINTS
  6
Continuous
 62
     7
100
AcDbPoint
 10
1163.258096184268
 20
-0.0000000000001594
 30
0.0
  0
ARC
  5
71C
330
6F
100
AcDbEntity
  8
OUTLINE
  6
Continuous
 62
     3
100
AcDbCircle
 10
606.0
 20
1470.0
 30
0.0
 40
4.0
100
AcDbArc
 50
0.0
 51
90.0
  0
LINE
  5
71D
330
6F
100
AcDbEntity
  8
OUTLINE
  6
Continuous
 62
     3
100
AcDbLine
 10
610.0
 20
1434.0
 30
0.0
 11
610.0
 21
1470.0
 31
0.0
  0
LINE
  5
71E
330
6F
100
AcDbEntity
  8
OUTLINE
  6
Continuous
 62
     3
100
AcDbLine
 10
606.0
 20
1474.000000000003
 30
0.0
 11
-606.0084529999984
 21
1474.0
 31
0.0
  0
ARC
  5
71F
330
6F
100
AcDbEntity
  8
OUTLINE
  6
Continuous
 62
     3
100
AcDbCircle
 10
-606.0
 20
1470.0
 30
0.0
 40
4.0
100
AcDbArc
 50
90.0
 51
180.0
  0
LINE
  5
720
330
6F
100
AcDbEntity
  8
OUTLINE
  6
Continuous
 62
     3
100
AcDbLine
 10
-610.0
 20
1470.0
 30
0.0
 11
-610.0
 21
1434.0
 31
0.0
  0
LINE
  5
721
330
6F
100
AcDbEntity
  8
OUTLINE
  6
Continuous
 62
     3
100
AcDbLine
 10
-610.0
 20
1434.0
 30
0.0
 11
610.0
 21
1434.0
 31
0.0
  0
LINE
  5
722
330
6F
100
AcDbEntity
  8
OUTLINE
  6
Continuous
 62
     3
100
AcDbLine
 10
-605.2084529999993
 20
130.0000000000018
 30
0.0
 11
-605.2084529999993
 21
1434.0
 31
0.0
  0
LINE
  5
723
330
6F
100
AcDbEntity
  8
OUTLINE
  6
Continuous
 62
     3
100
AcDbLine
 10
605.1915470000022
 20
130.0
 30
0.0
 11
605.1915470000022
 21
1434.0
 31
0.0
  0
LINE
  5
724
330
6F
100
AcDbEntity
  8
OUTLINE
  6
Continuous
 62
     3
100
AcDbLine
 10
-607.0084529999984
 20
57.18210510792413
 30
0.0
 11
-607.0084529999984
 21
130.0
 31
0.0
  0
LINE
  5
725
330
6F
100
AcDbEntity
  8
OUTLINE
  6
Continuous
 62
     3
100
AcDbLine
 10
-607.0084529999984
 20
130.0
 30
0.0
 11
-605.2084529999993
 21
130.0
 31
0.0
  0
LINE
  5
726
330
6F
100
AcDbEntity
  8
OUTLINE
  6
Continuous
 62
     3
100
AcDbLine
 10
-605.8519469999992
 20
55.99700399999893
 30
0.0
 11
-605.850821
 21
55.99595799999953
 31
0.0
  0
ARC
  5
727
330
6F
100
AcDbEntity
  8
OUTLINE
  6
Continuous
 62
     3
100
AcDbCircle
 10
-605.810132999999
 20
57.19439299999976
 30
0.0
 40
1.198382999999999
100
AcDbArc
 50
180.0374289999205
 51
248.6055939999767
  0
ARC
  5
728
330
6F
100
AcDbEntity
  8
OUTLINE
  6
Continuous
 62
     3
100
AcDbCircle
 10
-605.8092079999986
 20
57.19598299999962
 30
0.0
 40
1.200252
100
AcDbArc
 50
248.5919500000182
 51
249.599516000026
  0
ARC
  5
729
330
6F
100
AcDbEntity
  8
OUTLINE
  6
Continuous
 62
     3
100
AcDbCircle
 10
-605.8083960000001
 20
57.19824399999925
 30
0.0
 40
1.202655999999999
100
AcDbArc
 50
249.6008090000144
 51
268.0016999999736
  0
LINE
  5
72A
330
6F
100
AcDbEntity
  8
OUTLINE
  6
Continuous
 62
     3
100
AcDbLine
 10
-605.8516879999988
 20
55.99344599999859
 30
0.0
 11
-605.850331999998
 21
55.99631999999838
 31
0.0
  0
LINE
  5
72B
330
6F
100
AcDbEntity
  8
OUTLINE
  6
Continuous
 62
     3
100
AcDbLine
 10
-604.0084529999984
 20
55.92923499999961
 30
0.0
 11
-605.8516909999998
 21
55.99344599999859
 31
0.0
  0
LINE
  5
72C
330
6F
100
AcDbEntity
  8
OUTLINE
  6
Continuous
 62
     3
100
AcDbLine
 10
-604.0084529999984
 20
3.399999999999636
 30
0.0
 11
-604.0084529999984
 21
55.92923499999961
 31
0.0
  0
LINE
  5
72D
330
6F
100
AcDbEntity
  8
OUTLINE
  6
Continuous
 62
     3
100
AcDbLine
 10
-600.6084530000007
 20
3.199999999998908
 30
0.0
 11
-600.6084530000007
 21
3.399999999999636
 31
0.0
  0
LINE
  5
72E
330
6F
100
AcDbEntity
  8
OUTLINE
  6
Continuous
 62
     3
100
AcDbLine
 10
-600.6084530000007
 20
0.0
 30
0.0
 11
-600.6084530000007
 21
3.199999999998908
 31
0.0
  0
LINE
  5
72F
330
6F
100
AcDbEntity
  8
OUTLINE
  6
Continuous
 62
     3
100
AcDbLine
 10
-600.6084530000007
 20
3.399999999999636
 30
0.0
 11
-604.0084529999984
 21
3.399999999999636
 31
0.0
  0
LINE
  5
730
330
6F
100
AcDbEntity
  8
OUTLINE
  6
Continuous
 62
     3
100
AcDbLine
 10
600.5915469999998
 20
0.0
 30
0.0
 11
-600.6084530000007
 21
0.0
 31
0.0
  0
LINE
  5
731
330
6F
100
AcDbEntity
  8
OUTLINE
  6
Continuous
 62
     3
100
AcDbLine
 10
603.9915470000015
 20
55.93166699999892
 30
0.0
 11
603.9915470000015
 21
3.399999999999636
 31
0.0
  0
LINE
  5
732
330
6F
100
AcDbEntity
  8
OUTLINE
  6
Continuous
 62
     3
100
AcDbLine
 10
600.5915469999998
 20
3.399999999999636
 30
0.0
 11
603.9915470000015
 21
3.399999999999636
 31
0.0
  0
LINE
  5
733
330
6F
100
AcDbEntity
  8
OUTLINE
  6
Continuous
 62
     3
100
AcDbLine
 10
600.5915469999998
 20
3.199999999998908
 30
0.0
 11
600.5915469999998
 21
3.399999999999636
 31
0.0
  0
LINE
  5
734
330
6F
100
AcDbEntity
  8
OUTLINE
  6
Continuous
 62
     3
100
AcDbLine
 10
600.5915469999998
 20
3.199999999998908
 30
0.0
 11
600.5915469999998
 21
0.0
 31
0.0
  0
LINE
  5
735
330
6F
100
AcDbEntity
  8
OUTLINE
  6
Continuous
 62
     3
100
AcDbLine
 10
605.9217480000008
 20
130.0
 30
0.0
 11
605.9217480000008
 21
57.15860400000018
 31
0.0
  0
LINE
  5
736
330
6F
100
AcDbEntity
  8
OUTLINE
  6
Continuous
 62
     3
100
AcDbLine
 10
604.7652730000009
 20
55.96220600000015
 30
0.0
 11
604.7641169999986
 21
55.96112199999879
 31
0.0
  0
LWPOLYLINE
  5
737
330
6F
100
AcDbEntity
  8
OUTLINE
  6
Continuous
 62
     3
100
AcDbPolyline
 90
      135
 70
     0
 43
0.0
 10
605.9217480000008
 20
57.15860400000018
 10
605.9215089999996
 20
57.13818600000013
 10
605.9210480000001
 20
57.11776999999893
 10
605.9210480000001
 20
57.11776999999893
 10
605.9201910000009
 20
57.09735899999941
 10
605.9189509999996
 20
57.07695899999817
 10
605.9189509999996
 20
57.07695899999817
 10
605.9173750000008
 20
57.05657900000005
 10
605.9154610000005
 20
57.03622600000016
 10
605.9154610000005
 20
57.03622600000016
 10
605.9131960000012
 20
57.01590699999907
 10
605.9105810000001
 20
56.99562799999876
 10
605.9105810000001
 20
56.99562799999876
 10
605.9076219999988
 20
56.97539799999868
 10
605.9043170000006
 20
56.95522199999868
 10
605.9043170000006
 20
56.95522199999868
 10
605.9006670000017
 20
56.93510499999866
 10
605.8966720000024
 20
56.91505499999948
 10
605.8966720000024
 20
56.91505499999948
 10
605.8923360000008
 20
56.89507899999989
 10
605.8876589999998
 20
56.87518099999943
 10
605.8876589999998
 20
56.87518099999943
 10
605.8826430000006
 20
56.8553670000001
 10
605.877289
 20
56.83564199999818
 10
605.877289
 20
56.83564199999818
 10
605.8715990000019
 20
56.81601199999931
 10
605.8655750000035
 20
56.79648199999974
 10
605.8655750000035
 20
56.79648199999974
 10
605.8592180000012
 20
56.77705900000001
 10
605.8525289999996
 20
56.75774599999932
 10
605.8525289999996
 20
56.75774599999932
 10
605.8455089999988
 20
56.73854599999867
 10
605.838162
 20
56.71946799999933
 10
605.838162
 20
56.71946799999933
 10
605.8304889999999
 20
56.70051799999964
 10
605.822494
 20
56.68170099999952
 10
605.822494
 20
56.68170099999952
 10
605.8141790000007
 20
56.66302399999949
 10
605.8055460000032
 20
56.64448999999876
 10
605.8055460000032
 20
56.64448999999876
 10
605.7965980000008
 20
56.6261059999997
 10
605.7873380000017
 20
56.60787899999923
 10
605.7873380000017
 20
56.60787899999923
 10
605.7777679999998
 20
56.58981199999836
 10
605.7678900000027
 20
56.57191099999909
 10
605.7678900000027
 20
56.57191099999909
 10
605.7577040000032
 20
56.55417699999816
 10
605.7472160000034
 20
56.5366189999986
 10
605.7472160000034
 20
56.5366189999986
 10
605.7364300000007
 20
56.51924299999881
 10
605.7253490000001
 20
56.50205399999869
 10
605.7253490000001
 20
56.50205399999869
 10
605.7139759999992
 20
56.48505599999953
 10
605.7023150000024
 20
56.46825499999977
 10
605.7023150000024
 20
56.46825499999977
 10
605.6903689999998
 20
56.45165499999894
 10
605.6781420000008
 20
56.43526199999906
 10
605.6781420000008
 20
56.43526199999906
 10
605.6656379999984
 20
56.41907999999967
 10
605.6528570000009
 20
56.40311299999847
 10
605.6528570000009
 20
56.40311299999847
 10
605.6398020000015
 20
56.38736299999981
 10
605.6264789999986
 20
56.37183599999842
 10
605.6264789999986
 20
56.37183599999842
 10
605.612892000001
 20
56.35653999999886
 10
605.5990470000033
 20
56.34147799999847
 10
605.5990470000033
 20
56.34147799999847
 10
605.5849480000033
 20
56.3266539999986
 10
605.5705970000015
 20
56.31207199999881
 10
605.5705970000015
 20
56.31207199999881
 10
605.5560000000005
 20
56.29773699999896
 10
605.5411620000013
 20
56.2836529999986
 10
605.5411620000013
 20
56.2836529999986
 10
605.5260860000015
 20
56.2698249999994
 10
605.5107740000021
 20
56.25625399999989
 10
605.5107740000021
 20
56.25625399999989
 10
605.4952290000001
 20
56.24294399999961
 10
605.4794570000012
 20
56.22989999999845
 10
605.4794570000012
 20
56.22989999999845
 10
605.4634660000009
 20
56.21712799999841
 10
605.4472600000007
 20
56.20463000000018
 10
605.4472600000007
 20
56.20463000000018
 10
605.4308430000019
 20
56.19240999999965
 10
605.4142199999987
 20
56.18047099999968
 10
605.4142199999987
 20
56.18047099999968
 10
605.3973960000002
 20
56.16881699999976
 10
605.3803770000012
 20
56.15745099999911
 10
605.3803770000012
 20
56.15745099999911
 10
605.3631660000027
 20
56.14637799999946
 10
605.3457679999992
 20
56.13559799999894
 10
605.3457679999992
 20
56.13559799999894
 10
605.3281840000018
 20
56.12511499999889
 10
605.3104220000022
 20
56.11493299999892
 10
605.3104220000022
 20
56.11493299999892
 10
605.2924889999993
 20
56.10505499999999
 10
605.2743919999993
 20
56.09548399999948
 10
605.2743919999993
 20
56.09548399999948
 10
605.2561340000029
 20
56.08622299999843
 10
605.2377220000015
 20
56.07727299999897
 10
605.2377220000015
 20
56.07727299999897
 10
605.2191590000001
 20
56.06863799999882
 10
605.2004540000016
 20
56.06032099999903
 10
605.2004540000016
 20
56.06032099999903
 10
605.1816099999996
 20
56.0523229999999
 10
605.1626319999996
 20
56.04464799999914
 10
605.1626319999996
 20
56.04464799999914
 10
605.1435239999991
 20
56.03729699999894
 10
605.1242920000004
 20
56.03027099999962
 10
605.1242920000004
 20
56.03027099999962
 10
605.1049430000021
 20
56.02357499999925
 10
605.0854840000027
 20
56.01720899999964
 10
605.0854840000027
 20
56.01720899999964
 10
605.0659180000001
 20
56.01117499999964
 10
605.0462519999999
 20
56.0054749999981
 10
605.0462519999999
 20
56.0054749999981
 10
605.0264900000001
 20
56.00010999999904
 10
605.0066389999992
 20
55.99508199999945
 10
605.0066389999992
 20
55.99508199999945
 10
604.9867030000021
 20
55.9903919999997
 10
604.9666880000004
 20
55.98604299999897
 10
604.9666880000004
 20
55.98604299999897
 10
604.9465980000023
 20
55.98203599999941
 10
604.9264410000033
 20
55.97837099999924
 10
604.9264410000033
 20
55.97837099999924
 10
604.9062249999987
 20
55.97504899999876
 10
604.8859560000019
 20
55.972072999999
 10
604.8859560000019
 20
55.972072999999
 10
604.8656420000005
 20
55.96944599999915
 10
604.8452880000005
 20
55.96715499999845
 10
604.8452880000005
 20
55.96715499999845
 10
604.8249030000006
 20
55.96519899999838
 10
604.8044939999998
 20
55.96362399999998
 10
604.8044939999998
 20
55.96362399999998
 10
604.7840649999998
 20
55.96244399999886
 10
604.7636280000006
 20
55.96148399999947
  0
LINE
  5
7C0
330
6F
100
AcDbEntity
  8
OUTLINE
  6
Continuous
 62
     3
100
AcDbLine
 10
604.7649840000012
 20
55.95860999999967
 30
0.0
 11
604.7636280000006
 21
55.96148399999947
 31
0.0
  0
LINE
  5
7C1
330
6F
100
AcDbEntity
  8
OUTLINE
  6
Continuous
 62
     3
100
AcDbLine
 10
604.7649870000022
 20
55.95860999999967
 30
0.0
 11
603.9915470000015
 21
55.93166699999892
 31
0.0
  0
LINE
  5
7C2
330
6F
100
AcDbEntity
  8
OUTLINE
  6
Continuous
 62
     3
100
AcDbLine
 10
605.9217480000008
 20
130.0
 30
0.0
 11
605.1915469999983
 21
130.0
 31
0.0
  0
CIRCLE
  5
7C3
330
6F
100
AcDbEntity
  8
ARRANGE
  6
Continuous
 62
     1
100
AcDbCircle
 10
0.0
 20
0.0
 30
0.0
 40
50.0
  0
LINE
  5
7C4
330
6F
100
AcDbEntity
  8
ARRANGE
  6
Continuous
 62
     1
100
AcDbLine
 10
50.03735003132896
 20
-49.5223531503252
 30
0.0
 11
-50.03735003132896
 21
49.5223531503252
 31
0.0
  0
LINE
  5
7C5
330
6F
100
AcDbEntity
  8
ARRANGE
  6
Continuous
 62
     1
100
AcDbLine
 10
49.96376331050122
 20
49.59659479798574
 30
0.0
 11
-49.96376331050122
 21
-49.5965947979821
 31
0.0
  0
LINE
  5
7C6
330
6F
100
AcDbEntity
  8
NOTE
  6
Continuous
 62
     4
100
AcDbLine
 10
-530.0000000000046
 20
-23.66666700000132
 30
0.0
 11
-530.0000000000046
 21
23.66666600000099
 31
0.0
  0
LINE
  5
7C7
330
6F
100
AcDbEntity
  8
NOTE
  6
Continuous
 62
     4
100
AcDbLine
 10
529.9999999999922
 20
-23.66666700000553
 30
0.0
 11
529.9999999999922
 21
23.66666599999678
 31
0.0
  0
CIRCLE
  5
7C8
330
6F
100
AcDbEntity
  8
FIX
  6
Continuous
 62
    11
100
AcDbCircle
 10
-530.0000000000046
 20
0.0
 30
0.0
 40
12.42149793872491
  0
CIRCLE
  5
7C9
330
6F
100
AcDbEntity
  8
FIX
  6
Continuous
 62
    11
100
AcDbCircle
 10
529.9999999999922
 20
-0.0000000000042054
 30
0.0
 40
12.42149793872491
  0
LINE
  5
7CA
330
6F
100
AcDbEntity
  8
NOTE
  6
Continuous
 62
     4
100
AcDbLine
 10
-381.341785999998
 20
297.0
 30
0.0
 11
-428.6751190000002
 21
297.0
 31
0.0
  0
LINE
  5
7CB
330
6F
100
AcDbEntity
  8
NOTE
  6
Continuous
 62
     4
100
AcDbLine
 10
-405.0084529999991
 20
273.3333329999987
 30
0.0
 11
-405.0084529999991
 21
320.6666660000009
 31
0.0
  0
LINE
  5
7CC
330
6F
100
AcDbEntity
  8
NOTE
  6
Continuous
 62
     4
100
AcDbLine
 10
-381.341785999998
 20
382.0
 30
0.0
 11
-428.6751190000002
 21
382.0
 31
0.0
  0
LINE
  5
7CD
330
6F
100
AcDbEntity
  8
NOTE
  6
Continuous
 62
     4
100
AcDbLine
 10
-405.0084529999991
 20
358.3333329999987
 30
0.0
 11
-405.0084529999991
 21
405.6666660000009
 31
0.0
  0
LINE
  5
7CE
330
6F
100
AcDbEntity
  8
NOTE
  6
Continuous
 62
     4
100
AcDbLine
 10
-381.341785999998
 20
467.0
 30
0.0
 11
-428.6751190000002
 21
467.0
 31
0.0
  0
LINE
  5
7CF
330
6F
100
AcDbEntity
  8
NOTE
  6
Continuous
 62
     4
100
AcDbLine
 10
-405.0084529999991
 20
443.3333329999985
 30
0.0
 11
-405.0084529999991
 21
490.6666660000007
 31
0.0
  0
LINE
  5
7D0
330
6F
100
AcDbEntity
  8
NOTE
  6
Continuous
 62
     4
100
AcDbLine
 10
-392.841785999998
 20
557.0
 30
0.0
 11
-440.1751190000001
 21
557.0
 31
0.0
  0
LINE
  5
7D1
330
6F
100
AcDbEntity
  8
NOTE
  6
Continuous
 62
     4
100
AcDbLine
 10
-416.5084529999991
 20
533.3333329999986
 30
0.0
 11
-416.5084529999991
 21
580.666666000001
 31
0.0
  0
LINE
  5
7D2
330
6F
100
AcDbEntity
  8
NOTE
  6
Continuous
 62
     4
100
AcDbLine
 10
-458.3417859999972
 20
480.0
 30
0.0
 11
-505.6751189999996
 21
480.0
 31
0.0
  0
LINE
  5
7D3
330
6F
100
AcDbEntity
  8
NOTE
  6
Continuous
 62
     4
100
AcDbLine
 10
-482.0084529999985
 20
456.3333329999985
 30
0.0
 11
-482.0084529999985
 21
503.6666660000007
 31
0.0
  0
LINE
  5
7D4
330
6F
100
AcDbEntity
  8
NOTE
  6
Continuous
 62
     4
100
AcDbLine
 10
-458.3417859999972
 20
206.0
 30
0.0
 11
-505.6751189999996
 21
206.0
 31
0.0
  0
LINE
  5
7D5
330
6F
100
AcDbEntity
  8
NOTE
  6
Continuous
 62
     4
100
AcDbLine
 10
-482.0084529999985
 20
182.3333329999987
 30
0.0
 11
-482.0084529999985
 21
229.666666000001
 31
0.0
  0
LINE
  5
7D6
330
6F
100
AcDbEntity
  8
NOTE
  6
Continuous
 62
     4
100
AcDbLine
 10
-253.9817440000005
 20
1901.651184999999
 30
0.0
 11
-203.9817440000005
 21
1851.755138999996
 31
0.0
  0
LINE
  5
7D7
330
6F
100
AcDbEntity
  8
NOTE
  6
Continuous
 62
     4
100
AcDbLine
 10
-303.9817440000006
 20
1851.755138999996
 30
0.0
 11
-253.9817440000005
 21
1901.651184999999
 31
0.0
  0
LINE
  5
7D8
330
6F
100
AcDbEntity
  8
NOTE
  6
Continuous
 62
     4
100
AcDbLine
 10
-303.9817440000006
 20
1851.755138999996
 30
0.0
 11
-278.9817440000006
 21
1851.755138999996
 31
0.0
  0
LINE
  5
7D9
330
6F
100
AcDbEntity
  8
NOTE
  6
Continuous
 62
     4
100
AcDbLine
 10
-228.9817440000005
 20
1851.755138999996
 30
0.0
 11
-203.9817440000005
 21
1851.755138999996
 31
0.0
  0
LINE
  5
7DA
330
6F
100
AcDbEntity
  8
NOTE
  6
Continuous
 62
     4
100
AcDbLine
 10
-228.9817440000005
 20
1851.755138999996
 30
0.0
 11
-228.9817440000005
 21
1811.069051999998
 31
0.0
  0
LINE
  5
7DB
330
6F
100
AcDbEntity
  8
NOTE
  6
Continuous
 62
     4
100
AcDbLine
 10
-278.9817440000006
 20
1851.755138999996
 30
0.0
 11
-278.9817440000006
 21
1811.069051999998
 31
0.0
  0
LINE
  5
7DC
330
6F
100
AcDbEntity
  8
NOTE
  6
Continuous
 62
     4
100
AcDbLine
 10
-228.9817440000005
 20
1811.069051999998
 30
0.0
 11
-278.9817440000006
 21
1811.069051999998
 31
0.0
  0
LINE
  5
7DD
330
6F
100
AcDbEntity
  8
NOTE
  6
Continuous
 62
     4
100
AcDbLine
 10
227.6700449999989
 20
1811.069051999998
 30
0.0
 11
277.6700449999989
 21
1811.069051999998
 31
0.0
  0
LINE
  5
7DE
330
6F
100
AcDbEntity
  8
NOTE
  6
Continuous
 62
     4
100
AcDbLine
 10
277.6700449999989
 20
1851.755138999996
 30
0.0
 11
277.6700449999989
 21
1811.069051999998
 31
0.0
  0
LINE
  5
7DF
330
6F
100
AcDbEntity
  8
NOTE
  6
Continuous
 62
     4
100
AcDbLine
 10
227.6700449999989
 20
1851.755138999996
 30
0.0
 11
227.6700449999989
 21
1811.069051999998
 31
0.0
  0
LINE
  5
7E0
330
6F
100
AcDbEntity
  8
NOTE
  6
Continuous
 62
     4
100
AcDbLine
 10
227.6700449999989
 20
1851.755138999996
 30
0.0
 11
202.6700449999989
 21
1851.755138999996
 31
0.0
  0
LINE
  5
7E1
330
6F
100
AcDbEntity
  8
NOTE
  6
Continuous
 62
     4
100
AcDbLine
 10
302.6700449999989
 20
1851.755138999996
 30
0.0
 11
277.6700449999989
 21
1851.755138999996
 31
0.0
  0
LINE
  5
7E2
330
6F
100
AcDbEntity
  8
NOTE
  6
Continuous
 62
     4
100
AcDbLine
 10
302.6700449999989
 20
1851.755138999996
 30
0.0
 11
252.6700449999989
 21
1901.651184999999
 31
0.0
  0
LINE
  5
7E3
330
6F
100
AcDbEntity
  8
NOTE
  6
Continuous
 62
     4
100
AcDbLine
 10
252.6700449999989
 20
1901.651184999999
 30
0.0
 11
202.6700449999989
 21
1851.755138999996
 31
0.0
  0
TEXT
  5
7E4
330
6F
100
AcDbEntity
  8
NOTE
  6
Continuous
 62
     4
100
AcDbText
 10
768.4238414442188
 20
1128.921139317808
 30
0.0
 40
64.0
  1
空気
 50
359.9999969999111
 41
0.8
  7
STANDARD1
100
AcDbText
  0
TEXT
  5
7E5
330
6F
100
AcDbEntity
  8
NOTE
  6
Continuous
 62
     4
100
AcDbText
 10
770.8529417037206
 20
1039.067247327213
 30
0.0
 40
64.0
  1
吸込
 50
359.9999969999111
 41
0.8
  7
STANDARD1
100
AcDbText
  0
TEXT
  5
7E6
330
6F
100
AcDbEntity
  8
NOTE
  6
Continuous
 62
     4
100
AcDbText
 10
-891.8457309372714
 20
1113.142787522424
 30
0.0
 40
64.0
  1
空気
 50
359.9999969999111
 41
0.8
  7
STANDARD1
100
AcDbText
  0
TEXT
  5
7E7
330
6F
100
AcDbEntity
  8
NOTE
  6
Continuous
 62
     4
100
AcDbText
 10
-889.4166306777696
 20
1023.28889553183
 30
0.0
 40
64.0
  1
吸込
 50
359.9999969999111
 41
0.8
  7
STANDARD1
100
AcDbText
  0
TEXT
  5
7E8
330
6F
100
AcDbEntity
  8
NOTE
  6
Continuous
 62
     4
100
AcDbText
 10
-113.3034528313618
 20
1875.724330775607
 30
0.0
 40
64.0
  1
空気吹出
 50
359.9999969999111
 41
0.8
  7
STANDARD1
100
AcDbText
  0
LINE
  5
7E9
330
6F
100
AcDbEntity
  8
SIZE
  6
Continuous
 62
    30
100
AcDbLine
 10
-525.6451190000007
 20
206.0
 30
0.0
 11
-1115.905355796542
 21
206.0000000000002
 31
0.0
  0
LINE
  5
7EA
330
6F
100
AcDbEntity
  8
SIZE
  6
Continuous
 62
    30
100
AcDbLine
 10
-620.6084530000007
 20
0.0000000000000057
 30
0.0
 11
-1115.905355796542
 21
0.000000000000146
 31
0.0
  0
LINE
  5
7EB
330
6F
100
AcDbEntity
  8
SIZE
  6
Continuous
 62
    30
100
AcDbLine
 10
-1095.905355796541
 20
206.0000000000002
 30
0.0
 11
-1095.905355796541
 21
0.0000000000001403
 31
0.0
  0
CIRCLE
  5
7EC
330
6F
100
AcDbEntity
  8
SIZE
  6
Continuous
 62
    30
100
AcDbCircle
 10
-1095.905355796541
 20
206.0000000000002
 30
0.0
 40
7.5
  0
CIRCLE
  5
7ED
330
6F
100
AcDbEntity
  8
SIZE
  6
Continuous
 62
    30
100
AcDbCircle
 10
-1095.905355796541
 20
0.0000000000001403
 30
0.0
 40
7.5
  0
TEXT
  5
7EE
330
6F
100
AcDbEntity
  8
SIZE
  6
Continuous
 62
    30
100
AcDbText
 10
-1115.905355796541
 20
34.85714285714264
 30
0.0
 40
60.0
  1
206
 50
90.0
 41
0.9
 72
     1
 11
-1115.905355796541
 21
102.9999999999998
 31
0.0
100
AcDbText
  0
POINT
  5
7EF
330
6F
100
AcDbEntity
  8
DEFPOINTS
  6
Continuous
 62
     7
100
AcDbPoint
 10
-505.6451190000005
 20
206.0
 30
0.0
  0
POINT
  5
7F0
330
6F
100
AcDbEntity
  8
DEFPOINTS
  6
Continuous
 62
     7
100
AcDbPoint
 10
-600.6084530000007
 20
0.0
 30
0.0
  0
POINT
  5
7F1
330
6F
100
AcDbEntity
  8
DEFPOINTS
  6
Continuous
 62
     7
100
AcDbPoint
 10
-1095.905355796541
 20
0.0000000000001403
 30
0.0
  0
LINE
  5
7F2
330
6F
100
AcDbEntity
  8
SIZE
  6
Continuous
 62
    30
100
AcDbLine
 10
-460.1451190000005
 20
557.0
 30
0.0
 11
-870.706472290789
 21
557.0000000000001
 31
0.0
  0
LINE
  5
7F3
330
6F
100
AcDbEntity
  8
SIZE
  6
Continuous
 62
    30
100
AcDbLine
 10
-448.7451189999991
 20
467.0
 30
0.0
 11
-870.706472290789
 21
467.0
 31
0.0
  0
LINE
  5
7F4
330
6F
100
AcDbEntity
  8
SIZE
  6
Continuous
 62
    30
100
AcDbLine
 10
-850.7064722907886
 20
467.0
 30
0.0
 11
-850.7064722907886
 21
557.0000000000001
 31
0.0
  0
LINE
  5
7F5
330
6F
100
AcDbEntity
  8
SIZE
  6
Continuous
 62
    30
100
AcDbLine
 10
-850.7064722907886
 20
557.0000000000001
 30
0.0
 11
-850.7064722907886
 21
714.428571428574
 31
0.0
  0
CIRCLE
  5
7F6
330
6F
100
AcDbEntity
  8
SIZE
  6
Continuous
 62
    30
100
AcDbCircle
 10
-850.7064722907886
 20
467.0
 30
0.0
 40
7.5
  0
CIRCLE
  5
7F7
330
6F
100
AcDbEntity
  8
SIZE
  6
Continuous
 62
    30
100
AcDbCircle
 10
-850.7064722907886
 20
557.0000000000001
 30
0.0
 40
7.5
  0
TEXT
  5
7F8
330
6F
100
AcDbEntity
  8
SIZE
  6
Continuous
 62
    30
100
AcDbText
 10
-870.706472290789
 20
607.0000000000024
 30
0.0
 40
60.0
  1
90
 50
90.0
 41
0.9
 72
     1
 11
-870.706472290789
 21
650.7142857142881
 31
0.0
100
AcDbText
  0
POINT
  5
7F9
330
6F
100
AcDbEntity
  8
DEFPOINTS
  6
Continuous
 62
     7
100
AcDbPoint
 10
-440.1451190000007
 20
557.0
 30
0.0
  0
POINT
  5
7FA
330
6F
100
AcDbEntity
  8
DEFPOINTS
  6
Continuous
 62
     7
100
AcDbPoint
 10
-428.7451189999991
 20
467.0
 30
0.0
  0
POINT
  5
7FB
330
6F
100
AcDbEntity
  8
DEFPOINTS
  6
Continuous
 62
     7
100
AcDbPoint
 10
-850.7064722907886
 20
467.0
 30
0.0
  0
LINE
  5
7FC
330
6F
100
AcDbEntity
  8
SIZE
  6
Continuous
 62
    30
100
AcDbLine
 10
-448.6451190000007
 20
467.0
 30
0.0
 11
-870.706472290789
 21
467.0
 31
0.0
  0
LINE
  5
7FD
330
6F
100
AcDbEntity
  8
SIZE
  6
Continuous
 62
    30
100
AcDbLine
 10
-448.6451190000007
 20
382.0
 30
0.0
 11
-870.706472290789
 21
382.0000000000001
 31
0.0
  0
LINE
  5
7FE
330
6F
100
AcDbEntity
  8
SIZE
  6
Continuous
 62
    30
100
AcDbLine
 10
-850.7064722907886
 20
467.0
 30
0.0
 11
-850.7064722907886
 21
382.0000000000001
 31
0.0
  0
LINE
  5
7FF
330
6F
100
AcDbEntity
  8
SIZE
  6
Continuous
 62
    30
100
AcDbLine
 10
-850.7064722907886
 20
424.5
 30
0.0
 11
-975.7865805866495
 21
507.237397485489
 31
0.0
  0
LINE
  5
800
330
6F
100
AcDbEntity
  8
SIZE
  6
Continuous
 62
    30
100
AcDbLine
 10
-975.7865805866495
 20
507.237397485489
 30
0.0
 11
-975.7865805866495
 21
634.6659689140606
 31
0.0
  0
TEXT
  5
801
330
6F
100
AcDbEntity
  8
SIZE
  6
Continuous
 62
    30
100
AcDbText
 10
-995.7865805866489
 20
527.2373974854888
 30
0.0
 40
60.0
  1
85
 50
90.0
 41
0.9
 72
     1
 11
-995.7865805866489
 21
570.9516831997745
 31
0.0
100
AcDbText
  0
CIRCLE
  5
802
330
6F
100
AcDbEntity
  8
SIZE
  6
Continuous
 62
    30
100
AcDbCircle
 10
-850.7064722907886
 20
467.0
 30
0.0
 40
7.5
  0
CIRCLE
  5
803
330
6F
100
AcDbEntity
  8
SIZE
  6
Continuous
 62
    30
100
AcDbCircle
 10
-850.7064722907886
 20
382.0000000000001
 30
0.0
 40
7.5
  0
POINT
  5
804
330
6F
100
AcDbEntity
  8
DEFPOINTS
  6
Continuous
 62
     7
100
AcDbPoint
 10
-428.6451190000007
 20
467.0
 30
0.0
  0
POINT
  5
805
330
6F
100
AcDbEntity
  8
DEFPOINTS
  6
Continuous
 62
     7
100
AcDbPoint
 10
-428.6451190000007
 20
382.0
 30
0.0
  0
POINT
  5
806
330
6F
100
AcDbEntity
  8
DEFPOINTS
  6
Continuous
 62
     7
100
AcDbPoint
 10
-850.7064722907886
 20
382.0000000000001
 30
0.0
  0
LINE
  5
807
330
6F
100
AcDbEntity
  8
SIZE
  6
Continuous
 62
    30
100
AcDbLine
 10
-448.6451190000007
 20
382.0
 30
0.0
 11
-870.706472290789
 21
382.0000000000001
 31
0.0
  0
LINE
  5
808
330
6F
100
AcDbEntity
  8
SIZE
  6
Continuous
 62
    30
100
AcDbLine
 10
-448.6451190000007
 20
297.0
 30
0.0
 11
-870.706472290789
 21
297.0
 31
0.0
  0
LINE
  5
809
330
6F
100
AcDbEntity
  8
SIZE
  6
Continuous
 62
    30
100
AcDbLine
 10
-850.7064722907886
 20
382.0000000000001
 30
0.0
 11
-850.7064722907886
 21
297.0
 31
0.0
  0
LINE
  5
80A
330
6F
100
AcDbEntity
  8
SIZE
  6
Continuous
 62
    30
100
AcDbLine
 10
-850.7064722907886
 20
339.5
 30
0.0
 11
-975.7865805866495
 21
192.19336796039
 31
0.0
  0
LINE
  5
80B
330
6F
100
AcDbEntity
  8
SIZE
  6
Continuous
 62
    30
100
AcDbLine
 10
-975.7865805866495
 20
192.19336796039
 30
0.0
 11
-975.7865805866495
 21
64.76479653181863
 31
0.0
  0
TEXT
  5
80C
330
6F
100
AcDbEntity
  8
SIZE
  6
Continuous
 62
    30
100
AcDbText
 10
-995.7865805866489
 20
84.76479653181852
 30
0.0
 40
60.0
  1
85
 50
90.0
 41
0.9
 72
     1
 11
-995.7865805866489
 21
128.4790822461042
 31
0.0
100
AcDbText
  0
CIRCLE
  5
80D
330
6F
100
AcDbEntity
  8
SIZE
  6
Continuous
 62
    30
100
AcDbCircle
 10
-850.7064722907886
 20
382.0000000000001
 30
0.0
 40
7.5
  0
CIRCLE
  5
80E
330
6F
100
AcDbEntity
  8
SIZE
  6
Continuous
 62
    30
100
AcDbCircle
 10
-850.7064722907886
 20
297.0
 30
0.0
 40
7.5
  0
POINT
  5
80F
330
6F
100
AcDbEntity
  8
DEFPOINTS
  6
Continuous
 62
     7
100
AcDbPoint
 10
-428.6451190000007
 20
382.0
 30
0.0
  0
POINT
  5
810
330
6F
100
AcDbEntity
  8
DEFPOINTS
  6
Continuous
 62
     7
100
AcDbPoint
 10
-428.6451190000007
 20
297.0
 30
0.0
  0
POINT
  5
811
330
6F
100
AcDbEntity
  8
DEFPOINTS
  6
Continuous
 62
     7
100
AcDbPoint
 10
-850.7064722907886
 20
297.0
 30
0.0
  0
LINE
  5
812
330
6F
100
AcDbEntity
  8
SIZE
  6
Continuous
 62
    30
100
AcDbLine
 10
-448.6451190000007
 20
297.0
 30
0.0
 11
-870.7064722907885
 21
297.0
 31
0.0
  0
LINE
  5
813
330
6F
100
AcDbEntity
  8
SIZE
  6
Continuous
 62
    30
100
AcDbLine
 10
-620.6084530000007
 20
0.0000000000000057
 30
0.0
 11
-870.706472290789
 21
0.0000000000000765
 31
0.0
  0
LINE
  5
814
330
6F
100
AcDbEntity
  8
SIZE
  6
Continuous
 62
    30
100
AcDbLine
 10
-850.7064722907886
 20
297.0
 30
0.0
 11
-850.7064722907886
 21
0.0000000000000708
 31
0.0
  0
TEXT
  5
815
330
6F
100
AcDbEntity
  8
SIZE
  6
Continuous
 62
    30
100
AcDbText
 10
-872.6707951806892
 20
41.15421900029565
 30
0.0
 40
60.0
  1
297
 50
90.0
 41
0.9
 72
     1
 11
-872.6707951806892
 21
110.5827904288671
 31
0.0
100
AcDbText
  0
CIRCLE
  5
816
330
6F
100
AcDbEntity
  8
SIZE
  6
Continuous
 62
    30
100
AcDbCircle
 10
-850.7064722907886
 20
297.0
 30
0.0
 40
7.5
  0
CIRCLE
  5
817
330
6F
100
AcDbEntity
  8
SIZE
  6
Continuous
 62
    30
100
AcDbCircle
 10
-850.7064722907886
 20
0.0000000000000708
 30
0.0
 40
7.5
  0
POINT
  5
818
330
6F
100
AcDbEntity
  8
DEFPOINTS
  6
Continuous
 62
     7
100
AcDbPoint
 10
-428.6451190000007
 20
297.0
 30
0.0
  0
POINT
  5
819
330
6F
100
AcDbEntity
  8
DEFPOINTS
  6
Continuous
 62
     7
100
AcDbPoint
 10
-600.6084530000007
 20
0.0
 30
0.0
  0
POINT
  5
81A
330
6F
100
AcDbEntity
  8
DEFPOINTS
  6
Continuous
 62
     7
100
AcDbPoint
 10
-850.7064722907886
 20
0.0000000000000708
 30
0.0
  0
LINE
  5
81D
330
6F
100
AcDbEntity
  8
NOTE
  6
Continuous
 62
     4
100
AcDbLine
 10
-506.8266500410847
 20
187.3271805233025
 30
0.0
 11
-482.0084529999985
 21
206.0
 31
0.0
  0
LINE
  5
81E
330
6F
100
AcDbEntity
  8
NOTE
  6
Continuous
 62
     4
100
AcDbLine
 10
-482.0084529999985
 20
206.0
 30
0.0
 11
-494.1652325050127
 21
177.4197655075058
 31
0.0
  0
LINE
  5
81F
330
6F
100
AcDbEntity
  8
NOTE
  6
Continuous
 62
     4
100
AcDbLine
 10
-482.0084529999985
 20
206.0
 30
0.0
 11
-885.625140835094
 21
-309.8115816343899
 31
0.0
  0
LINE
  5
822
330
6F
100
AcDbEntity
  8
NOTE
  6
Continuous
 62
     4
100
AcDbLine
 10
-496.1551583783667
 20
507.6493728412988
 30
0.0
 11
-482.0084529999985
 21
480.0
 31
0.0
  0
LINE
  5
823
330
6F
100
AcDbEntity
  8
NOTE
  6
Continuous
 62
     4
100
AcDbLine
 10
-482.0084529999985
 20
480.0
 30
0.0
 11
-508.0845455816288
 21
496.8717067083835
 31
0.0
  0
LINE
  5
824
330
6F
100
AcDbEntity
  8
NOTE
  6
Continuous
 62
     4
100
AcDbLine
 10
-482.0084529999994
 20
480.0000000000008
 30
0.0
 11
-1011.294331606638
 21
1065.846333450109
 31
0.0
  0
TEXT
  5
825
330
6F
100
AcDbEntity
  8
NOTE
  6
Continuous
 62
     4
100
AcDbText
 10
630.3323949081023
 20
-143.1279121924217
 30
0.0
 40
60.0
  1
AH 2×2-14×20長穴
 50
0.0000025044165917
 41
0.7
  7
STANDARD1
100
AcDbText
  0
LINE
  5
826
330
6F
100
AcDbEntity
  8
NOTE
  6
Continuous
 62
     4
100
AcDbLine
 10
1229.485078750756
 20
-164.6395514794694
 30
0.0
 11
624.8303701995901
 21
-164.6395514794694
 31
0.0
  0
LINE
  5
827
330
6F
100
AcDbEntity
  8
NOTE
  6
Continuous
 62
     4
100
AcDbLine
 10
538.0026383256512
 20
-30.00957966064254
 30
0.0
 11
529.9999999999922
 21
-0.0000000000042054
 31
0.0
  0
LINE
  5
828
330
6F
100
AcDbEntity
  8
NOTE
  6
Continuous
 62
     4
100
AcDbLine
 10
529.9999999999922
 20
-0.0000000000042054
 30
0.0
 11
551.9352778178832
 21
-21.98773927969035
 31
0.0
  0
LINE
  5
829
330
6F
100
AcDbEntity
  8
NOTE
  6
Continuous
 62
     4
100
AcDbLine
 10
529.9999999999941
 20
-0.0000000000051149
 30
0.0
 11
624.7926775178598
 21
-164.6395514794736
 31
0.0
  0
LINE
  5
82A
330
6F
100
AcDbEntity
  8
NOTE
  6
Continuous
 62
     4
100
AcDbLine
 10
523.4882002625266
 20
-740.9997824897783
 30
0.0
 11
-126.6415782463718
 21
-740.9997824897783
 31
0.0
  0
TEXT
  5
82B
330
6F
100
AcDbEntity
  8
NOTE
  6
Continuous
 62
     4
100
AcDbText
 10
-109.4764316506735
 20
-708.6185546948708
 30
0.0
 40
60.0
  1
CL3 %%C39ノックアウト穴
 50
0.0000025044165917
 41
0.7
  7
STANDARD1
100
AcDbText
  0
LINE
  5
82C
330
6F
100
AcDbEntity
  8
NOTE
  6
Continuous
 62
     4
100
AcDbLine
 10
-405.0018740824596
 20
265.9417153033637
 30
0.0
 11
-405.0084529999991
 21
297.0
 31
0.0
  0
LINE
  5
82D
330
6F
100
AcDbEntity
  8
NOTE
  6
Continuous
 62
     4
100
AcDbLine
 10
-405.0084529999991
 20
297.0
 30
0.0
 11
-389.473613263968
 21
270.1060258430389
 31
0.0
  0
LINE
  5
82E
330
6F
100
AcDbEntity
  8
NOTE
  6
Continuous
 62
     4
100
AcDbLine
 10
-405.0084529999991
 20
297.0
 30
0.0
 11
-126.6415782463718
 21
-740.9997824897783
 31
0.0
  0
LINE
  5
82F
330
6F
100
AcDbEntity
  8
NOTE
  6
Continuous
 62
     4
100
AcDbLine
 10
233.0109613145571
 20
-486.6241190679921
 30
0.0
 11
-67.19898818538125
 21
-486.6241190679921
 31
0.0
  0
TEXT
  5
830
330
6F
100
AcDbEntity
  8
NOTE
  6
Continuous
 62
     4
100
AcDbText
 10
-43.25701748883874
 20
-454.2428912730847
 30
0.0
 40
60.0
  1
CL1 %%C39
 50
0.0000025044165917
 41
0.7
  7
STANDARD1
100
AcDbText
  0
LINE
  5
831
330
6F
100
AcDbEntity
  8
NOTE
  6
Continuous
 62
     4
100
AcDbLine
 10
-402.5835784166592
 20
351.0365203048081
 30
0.0
 11
-405.0084529999991
 21
382.0
 31
0.0
  0
LINE
  5
832
330
6F
100
AcDbEntity
  8
NOTE
  6
Continuous
 62
     4
100
AcDbLine
 10
-405.0084529999991
 20
382.0
 30
0.0
 11
-387.4267102783877
 21
356.3972772063094
 31
0.0
  0
LINE
  5
833
330
6F
100
AcDbEntity
  8
NOTE
  6
Continuous
 62
     4
100
AcDbLine
 10
-405.0084529999983
 20
381.9999999999991
 30
0.0
 11
-53.69373781403051
 21
-611.2983179327876
 31
0.0
  0
LINE
  5
834
330
6F
100
AcDbEntity
  8
NOTE
  6
Continuous
 62
     4
100
AcDbLine
 10
-402.5683749085508
 20
436.03771470826
 30
0.0
 11
-405.0084529999991
 21
467.0
 31
0.0
  0
LINE
  5
835
330
6F
100
AcDbEntity
  8
NOTE
  6
Continuous
 62
     4
100
AcDbLine
 10
-405.0084529999991
 20
467.0
 30
0.0
 11
-387.4141408558251
 21
441.4059133440387
 31
0.0
  0
LINE
  5
836
330
6F
100
AcDbEntity
  8
NOTE
  6
Continuous
 62
     4
100
AcDbLine
 10
-405.0084529999991
 20
467.0000000000008
 30
0.0
 11
-67.19898818538125
 21
-486.6241190679921
 31
0.0
  0
LINE
  5
837
330
6F
100
AcDbEntity
  8
NOTE
  6
Continuous
 62
     4
100
AcDbLine
 10
202.7988337753843
 20
-354.5299895448534
 30
0.0
 11
-65.23820910285646
 21
-354.5299895448534
 31
0.0
  0
TEXT
  5
838
330
6F
100
AcDbEntity
  8
NOTE
  6
Continuous
 62
     4
100
AcDbText
 10
-41.29623840631393
 20
-322.1487617499461
 30
0.0
 40
60.0
  1
EL %%C62
 50
0.0000025044165917
 41
0.7
  7
STANDARD1
100
AcDbText
  0
LINE
  5
839
330
6F
100
AcDbEntity
  8
NOTE
  6
Continuous
 62
     4
100
AcDbLine
 10
-413.2216378778017
 20
526.1161217148492
 30
0.0
 11
-416.5084529999991
 21
557.0
 31
0.0
  0
LINE
  5
83A
330
6F
100
AcDbEntity
  8
NOTE
  6
Continuous
 62
     4
100
AcDbLine
 10
-416.5084529999991
 20
557.0
 30
0.0
 11
-398.2200485779383
 21
531.897184315806
 31
0.0
  0
LINE
  5
83B
330
6F
100
AcDbEntity
  8
NOTE
  6
Continuous
 62
     4
100
AcDbLine
 10
-416.508453
 20
557.0000000000008
 30
0.0
 11
-65.23820910285646
 21
-354.5299895448534
 31
0.0
  0
LINE
  5
83C
330
6F
100
AcDbEntity
  8
NOTE
  6
Continuous
 62
     4
100
AcDbLine
 10
62.34901867853114
 20
-217.8987516549804
 30
0.0
 11
-30.61992822698086
 21
-217.8987516549804
 31
0.0
  0
TEXT
  5
83D
330
6F
100
AcDbEntity
  8
NOTE
  6
Continuous
 62
     4
100
AcDbText
 10
-6.707957530437852
 20
-185.5175238600732
 30
0.0
 40
60.0
  1
D1
 50
0.0000025044165917
 41
0.7
  7
STANDARD1
100
AcDbText
  0
LINE
  5
83E
330
6F
100
AcDbEntity
  8
NOTE
  6
Continuous
 62
     4
100
AcDbLine
 10
-106.9344585277722
 20
50.6446363590785
 30
0.0
 11
-106.5084529999985
 21
81.69999999999891
 31
0.0
  0
LINE
  5
83F
330
6F
100
AcDbEntity
  8
NOTE
  6
Continuous
 62
     4
100
AcDbLine
 10
-106.5084529999985
 20
81.69999999999891
 30
0.0
 11
-91.34970291171795
 21
54.59226333054356
 31
0.0
  0
LINE
  5
840
330
6F
100
AcDbEntity
  8
NOTE
  6
Continuous
 62
     4
100
AcDbLine
 10
-106.5084529999985
 20
81.699999999998
 30
0.0
 11
-30.61992822698086
 21
-217.8987516549804
 31
0.0
  0
TEXT
  5
841
330
6F
100
AcDbEntity
  8
ETC
  6
Continuous
 62
    61
100
AcDbText
 10
-1241.947677829688
 20
2113.105147676832
 30
0.0
 40
80.0
  1
QAHV-N560D-HWP_2
 50
0.0000029998804485
 41
0.8
  7
STANDARD_MODELNAME
100
AcDbText
  0
LINE
  5
842
330
6F
100
AcDbEntity
  8
SIZE
  6
Continuous
 62
    30
100
AcDbLine
 10
-604.0084529999984
 20
-16.60000000000036
 30
0.0
 11
-604.0084529999984
 21
-907.0749849195198
 31
0.0
  0
LINE
  5
843
330
6F
100
AcDbEntity
  8
SIZE
  6
Continuous
 62
    30
100
AcDbLine
 10
-530.0000000000046
 20
-43.66666700000132
 30
0.0
 11
-530.0000000000046
 21
-907.0749849195198
 31
0.0
  0
LINE
  5
844
330
6F
100
AcDbEntity
  8
SIZE
  6
Continuous
 62
    30
100
AcDbLine
 10
-530.0000000000046
 20
-887.0749849195197
 30
0.0
 11
-604.0084529999984
 21
-887.0749849195197
 31
0.0
  0
LINE
  5
845
330
6F
100
AcDbEntity
  8
SIZE
  6
Continuous
 62
    30
100
AcDbLine
 10
-604.0084529999984
 20
-887.0749849195197
 30
0.0
 11
-775.071431177901
 21
-887.0749849195197
 31
0.0
  0
CIRCLE
  5
846
330
6F
100
AcDbEntity
  8
SIZE
  6
Continuous
 62
    30
100
AcDbCircle
 10
-530.0000000000046
 20
-887.0749849195197
 30
0.0
 40
7.5
  0
CIRCLE
  5
847
330
6F
100
AcDbEntity
  8
SIZE
  6
Continuous
 62
    30
100
AcDbCircle
 10
-604.0084529999984
 20
-887.0749849195197
 30
0.0
 40
7.5
  0
TEXT
  5
848
330
6F
100
AcDbEntity
  8
SIZE
  6
Continuous
 62
    30
100
AcDbText
 10
-755.071431177901
 20
-867.0749849195198
 30
0.0
 40
60.0
  1
74
 41
0.9
 72
     1
 11
-710.0714311779011
 21
-867.0749849195198
 31
0.0
100
AcDbText
  0
POINT
  5
849
330
6F
100
AcDbEntity
  8
DEFPOINTS
  6
Continuous
 62
     7
100
AcDbPoint
 10
-604.0084529999984
 20
3.399999999999636
 30
0.0
  0
POINT
  5
84A
330
6F
100
AcDbEntity
  8
DEFPOINTS
  6
Continuous
 62
     7
100
AcDbPoint
 10
-530.0000000000046
 20
-23.66666700000132
 30
0.0
  0
POINT
  5
84B
330
6F
100
AcDbEntity
  8
DEFPOINTS
  6
Continuous
 62
     7
100
AcDbPoint
 10
-530.0000000000046
 20
-887.0749849195197
 30
0.0
  0
LINE
  5
84C
330
6F
100
AcDbEntity
  8
SIZE
  6
Continuous
 62
    30
100
AcDbLine
 10
-530.0000000000046
 20
-43.66666700000132
 30
0.0
 11
-530.0000000000046
 21
-907.0749849195198
 31
0.0
  0
LINE
  5
84D
330
6F
100
AcDbEntity
  8
SIZE
  6
Continuous
 62
    30
100
AcDbLine
 10
529.9999999999922
 20
-43.66666700000553
 30
0.0
 11
529.9999999999922
 21
-907.0749849195198
 31
0.0
  0
LINE
  5
84E
330
6F
100
AcDbEntity
  8
SIZE
  6
Continuous
 62
    30
100
AcDbLine
 10
-530.0000000000046
 20
-887.0749849195197
 30
0.0
 11
529.9999999999922
 21
-887.0749849195197
 31
0.0
  0
CIRCLE
  5
84F
330
6F
100
AcDbEntity
  8
SIZE
  6
Continuous
 62
    30
100
AcDbCircle
 10
-530.0000000000046
 20
-887.0749849195197
 30
0.0
 40
7.5
  0
CIRCLE
  5
850
330
6F
100
AcDbEntity
  8
SIZE
  6
Continuous
 62
    30
100
AcDbCircle
 10
529.9999999999922
 20
-887.0749849195197
 30
0.0
 40
7.5
  0
TEXT
  5
851
330
6F
100
AcDbEntity
  8
SIZE
  6
Continuous
 62
    30
100
AcDbText
 10
-286.7142857142919
 20
-851.360699205234
 30
0.0
 40
60.0
  1
1060(据付ピッチ)
 41
0.9
 72
     1
 11
-0.0000000000061959
 21
-851.360699205234
 31
0.0
100
AcDbText
  0
POINT
  5
852
330
6F
100
AcDbEntity
  8
DEFPOINTS
  6
Continuous
 62
     7
100
AcDbPoint
 10
-530.0000000000046
 20
-23.66666700000132
 30
0.0
  0
POINT
  5
853
330
6F
100
AcDbEntity
  8
DEFPOINTS
  6
Continuous
 62
     7
100
AcDbPoint
 10
529.9999999999922
 20
-23.66666700000553
 30
0.0
  0
POINT
  5
854
330
6F
100
AcDbEntity
  8
DEFPOINTS
  6
Continuous
 62
     7
100
AcDbPoint
 10
529.9999999999922
 20
-887.0749849195197
 30
0.0
  0
LINE
  5
855
330
6F
100
AcDbEntity
  8
SIZE
  6
Continuous
 62
    30
100
AcDbLine
 10
529.9999999999922
 20
-43.66666700000553
 30
0.0
 11
529.9999999999922
 21
-907.0749849195198
 31
0.0
  0
LINE
  5
856
330
6F
100
AcDbEntity
  8
SIZE
  6
Continuous
 62
    30
100
AcDbLine
 10
603.9915470000015
 20
-16.60000000000036
 30
0.0
 11
603.9915470000015
 21
-907.0749849195198
 31
0.0
  0
LINE
  5
857
330
6F
100
AcDbEntity
  8
SIZE
  6
Continuous
 62
    30
100
AcDbLine
 10
529.9999999999922
 20
-887.0749849195197
 30
0.0
 11
603.9915470000015
 21
-887.0749849195197
 31
0.0
  0
LINE
  5
858
330
6F
100
AcDbEntity
  8
SIZE
  6
Continuous
 62
    30
100
AcDbLine
 10
603.9915470000015
 20
-887.0749849195197
 30
0.0
 11
763.9915470000016
 21
-887.0749849195197
 31
0.0
  0
CIRCLE
  5
859
330
6F
100
AcDbEntity
  8
SIZE
  6
Continuous
 62
    30
100
AcDbCircle
 10
529.9999999999922
 20
-887.0749849195197
 30
0.0
 40
7.5
  0
CIRCLE
  5
85A
330
6F
100
AcDbEntity
  8
SIZE
  6
Continuous
 62
    30
100
AcDbCircle
 10
603.9915470000015
 20
-887.0749849195197
 30
0.0
 40
7.5
  0
TEXT
  5
85B
330
6F
100
AcDbEntity
  8
SIZE
  6
Continuous
 62
    30
100
AcDbText
 10
653.9915470000015
 20
-867.0749849195198
 30
0.0
 40
60.0
  1
74
 41
0.9
 72
     1
 11
698.9915470000015
 21
-867.0749849195198
 31
0.0
100
AcDbText
  0
POINT
  5
85C
330
6F
100
AcDbEntity
  8
DEFPOINTS
  6
Continuous
 62
     7
100
AcDbPoint
 10
529.9999999999922
 20
-23.66666700000553
 30
0.0
  0
POINT
  5
85D
330
6F
100
AcDbEntity
  8
DEFPOINTS
  6
Continuous
 62
     7
100
AcDbPoint
 10
603.9915470000015
 20
3.399999999999636
 30
0.0
  0
POINT
  5
85E
330
6F
100
AcDbEntity
  8
DEFPOINTS
  6
Continuous
 62
     7
100
AcDbPoint
 10
603.9915470000015
 20
-887.0749849195197
 30
0.0
  0
LINE
  5
85F
330
6F
100
AcDbEntity
  8
SIZE
  6
Continuous
 62
    30
100
AcDbLine
 10
-482.0084529999985
 20
162.3333329999987
 30
0.0
 11
-482.0084529999987
 21
-308.3927354850492
 31
0.0
  0
LINE
  5
860
330
6F
100
AcDbEntity
  8
SIZE
  6
Continuous
 62
    30
100
AcDbLine
 10
-604.0084529999984
 20
-16.60000000000036
 30
0.0
 11
-604.0084529999984
 21
-308.3927354850492
 31
0.0
  0
LINE
  5
861
330
6F
100
AcDbEntity
  8
SIZE
  6
Continuous
 62
    30
100
AcDbLine
 10
-482.0084529999987
 20
-288.3927354850492
 30
0.0
 11
-604.0084529999984
 21
-288.3927354850492
 31
0.0
  0
LINE
  5
862
330
6F
100
AcDbEntity
  8
SIZE
  6
Continuous
 62
    30
100
AcDbLine
 10
-604.0084529999984
 20
-288.3927354850492
 30
0.0
 11
-802.5798815714269
 21
-288.3927354850492
 31
0.0
  0
CIRCLE
  5
863
330
6F
100
AcDbEntity
  8
SIZE
  6
Continuous
 62
    30
100
AcDbCircle
 10
-482.0084529999987
 20
-288.3927354850492
 30
0.0
 40
7.5
  0
CIRCLE
  5
864
330
6F
100
AcDbEntity
  8
SIZE
  6
Continuous
 62
    30
100
AcDbCircle
 10
-604.0084529999984
 20
-288.3927354850492
 30
0.0
 40
7.5
  0
TEXT
  5
865
330
6F
100
AcDbEntity
  8
SIZE
  6
Continuous
 62
    30
100
AcDbText
 10
-782.5798815714267
 20
-268.3927354850493
 30
0.0
 40
60.0
  1
122
 41
0.9
 72
     1
 11
-718.2941672857124
 21
-268.3927354850493
 31
0.0
100
AcDbText
  0
POINT
  5
866
330
6F
100
AcDbEntity
  8
DEFPOINTS
  6
Continuous
 62
     7
100
AcDbPoint
 10
-482.0084529999985
 20
182.3333329999987
 30
0.0
  0
POINT
  5
867
330
6F
100
AcDbEntity
  8
DEFPOINTS
  6
Continuous
 62
     7
100
AcDbPoint
 10
-604.0084529999984
 20
3.399999999999636
 30
0.0
  0
POINT
  5
868
330
6F
100
AcDbEntity
  8
DEFPOINTS
  6
Continuous
 62
     7
100
AcDbPoint
 10
-604.0084529999984
 20
-288.3927354850492
 30
0.0
  0
LINE
  5
869
330
6F
100
AcDbEntity
  8
SIZE
  6
Continuous
 62
    30
100
AcDbLine
 10
-405.0084529999991
 20
253.3333329999987
 30
0.0
 11
-405.0084529999992
 21
-438.7771552890479
 31
0.0
  0
LINE
  5
86A
330
6F
100
AcDbEntity
  8
SIZE
  6
Continuous
 62
    30
100
AcDbLine
 10
-604.0084529999984
 20
-16.60000000000036
 30
0.0
 11
-604.0084529999984
 21
-438.7771552890479
 31
0.0
  0
LINE
  5
86B
330
6F
100
AcDbEntity
  8
SIZE
  6
Continuous
 62
    30
100
AcDbLine
 10
-405.0084529999992
 20
-418.7771552890479
 30
0.0
 11
-604.0084529999984
 21
-418.7771552890479
 31
0.0
  0
LINE
  5
86C
330
6F
100
AcDbEntity
  8
SIZE
  6
Continuous
 62
    30
100
AcDbLine
 10
-604.0084529999984
 20
-418.7771552890479
 30
0.0
 11
-800.0084529999984
 21
-418.7771552890479
 31
0.0
  0
CIRCLE
  5
86D
330
6F
100
AcDbEntity
  8
SIZE
  6
Continuous
 62
    30
100
AcDbCircle
 10
-405.0084529999992
 20
-418.7771552890479
 30
0.0
 40
7.5
  0
CIRCLE
  5
86E
330
6F
100
AcDbEntity
  8
SIZE
  6
Continuous
 62
    30
100
AcDbCircle
 10
-604.0084529999984
 20
-418.7771552890479
 30
0.0
 40
7.5
  0
TEXT
  5
86F
330
6F
100
AcDbEntity
  8
SIZE
  6
Continuous
 62
    30
100
AcDbText
 10
-780.0084529999984
 20
-398.7771552890482
 30
0.0
 40
60.0
  1
199
 41
0.9
 72
     1
 11
-717.0084529999984
 21
-398.7771552890482
 31
0.0
100
AcDbText
  0
POINT
  5
870
330
6F
100
AcDbEntity
  8
DEFPOINTS
  6
Continuous
 62
     7
100
AcDbPoint
 10
-405.0084529999991
 20
273.3333329999987
 30
0.0
  0
POINT
  5
871
330
6F
100
AcDbEntity
  8
DEFPOINTS
  6
Continuous
 62
     7
100
AcDbPoint
 10
-604.0084529999984
 20
3.399999999999636
 30
0.0
  0
POINT
  5
872
330
6F
100
AcDbEntity
  8
DEFPOINTS
  6
Continuous
 62
     7
100
AcDbPoint
 10
-604.0084529999984
 20
-418.7771552890479
 30
0.0
  0
LINE
  5
873
330
6F
100
AcDbEntity
  8
NOTE
  6
Continuous
 62
     4
100
AcDbLine
 10
234.0914252272735
 20
-611.2983179327874
 30
0.0
 11
-53.69373781403054
 21
-611.2983179327874
 31
0.0
  0
TEXT
  5
874
330
6F
100
AcDbEntity
  8
NOTE
  6
Continuous
 62
     4
100
AcDbText
 10
-42.17655357612239
 20
-578.9170901378801
 30
0.0
 40
60.0
  1
CL2 %%C39
 50
0.0000025044165917
 41
0.7
  7
STANDARD1
100
AcDbText
  0
LINE
  5
875
330
6F
100
AcDbEntity
  8
DETAIL
  6
Continuous
 62
     5
100
AcDbLine
 10
413.9613724999999
 20
1746.974696
 30
0.0
 11
413.9615545000014
 21
1747.000000000002
 31
0.0
  0
LINE
  5
876
330
6F
100
AcDbEntity
  8
DETAIL
  6
Continuous
 62
     5
100
AcDbLine
 10
413.9613724999999
 20
1741.025302
 30
0.0
 11
413.9615545000014
 21
1741.000000000002
 31
0.0
  0
LINE
  5
877
330
6F
100
AcDbEntity
  8
DETAIL
  6
Continuous
 62
     5
100
AcDbLine
 10
413.9613724999999
 20
1741.025302
 30
0.0
 11
413.9615545000014
 21
1741.000000000002
 31
0.0
  0
LINE
  5
878
330
6F
100
AcDbEntity
  8
DETAIL
  6
Continuous
 62
     5
100
AcDbLine
 10
413.9613724999999
 20
1746.974696
 30
0.0
 11
413.9615545000014
 21
1747.000000000002
 31
0.0
  0
ARC
  5
879
330
6F
100
AcDbEntity
  8
DETAIL
  6
Continuous
 62
     5
100
AcDbCircle
 10
828.2209314999999
 20
1743.999950000001
 30
0.0
 40
414.27024
100
AcDbArc
 50
179.5885729999912
 51
180.4114270000087
  0
LINE
  5
87A
330
6F
100
AcDbEntity
  8
DETAIL
  6
Continuous
 62
     5
100
AcDbLine
 10
364.7299865000004
 20
1560.074255000001
 30
0.0
 11
360.1992005000012
 21
1663.846314
 31
0.0
  0
LINE
  5
87B
330
6F
100
AcDbEntity
  8
DETAIL
  6
Continuous
 62
     5
100
AcDbLine
 10
-367.4494224999999
 20
1684.034507
 30
0.0
 11
-409.6112264999991
 21
1736.1
 31
0.0
  0
LINE
  5
87C
330
6F
100
AcDbEntity
  8
DETAIL
  6
Continuous
 62
     5
100
AcDbLine
 10
366.8562684999997
 20
1684.034507
 30
0.0
 11
409.0180725000008
 21
1736.1
 31
0.0
  0
LINE
  5
87D
330
6F
100
AcDbEntity
  8
DETAIL
  6
Continuous
 62
     5
100
AcDbLine
 10
-365.3231405000005
 20
1560.074255000001
 30
0.0
 11
-360.7923544999994
 21
1663.846314
 31
0.0
  0
LINE
  5
87E
330
6F
100
AcDbEntity
  8
DETAIL
  6
Continuous
 62
     5
100
AcDbLine
 10
-413.5594444999988
 20
1474.468944
 30
0.0
 11
-413.5489014999985
 21
1474.475714000002
 31
0.0
  0
ARC
  5
87F
330
6F
100
AcDbEntity
  8
DETAIL
  6
Continuous
 62
     5
100
AcDbCircle
 10
410.9615545000015
 20
1757.6
 30
0.0
 40
2.0
100
AcDbArc
 50
180.0
 51
270.0
  0
ARC
  5
880
330
6F
100
AcDbEntity
  8
DETAIL
  6
Continuous
 62
     5
100
AcDbCircle
 10
390.1706465000008
 20
1665.154895000001
 30
0.0
 40
30.0
100
AcDbArc
 50
140.9999999999534
 51
182.5000000000185
  0
ARC
  5
881
330
6F
100
AcDbEntity
  8
DETAIL
  6
Continuous
 62
     5
100
AcDbCircle
 10
469.6909494999998
 20
1562.82712
 30
0.0
 40
104.999315
100
AcDbArc
 50
181.4985129999923
 51
237.2933160000293
  0
ARC
  5
882
330
6F
100
AcDbEntity
  8
DETAIL
  6
Continuous
 62
     5
100
AcDbCircle
 10
414.5768055000007
 20
1477.000000000002
 30
0.0
 40
3.0
100
AcDbArc
 50
237.2928589999327
 51
267.7479819999225
  0
ARC
  5
883
330
6F
100
AcDbEntity
  8
DETAIL
  6
Continuous
 62
     5
100
AcDbCircle
 10
-411.5547084999997
 20
1757.6
 30
0.0
 40
2.0
100
AcDbArc
 50
270.0
 51
0.0
  0
ARC
  5
884
330
6F
100
AcDbEntity
  8
DETAIL
  6
Continuous
 62
     5
100
AcDbCircle
 10
-390.7638004999989
 20
1665.154895000001
 30
0.0
 40
30.0
100
AcDbArc
 50
357.4999999999814
 51
39.00000000004655
  0
ARC
  5
885
330
6F
100
AcDbEntity
  8
DETAIL
  6
Continuous
 62
     5
100
AcDbCircle
 10
-470.277523499999
 20
1562.809032000001
 30
0.0
 40
104.980529
100
AcDbArc
 50
302.7090199999641
 51
304.196475999985
  0
ARC
  5
886
330
6F
100
AcDbEntity
  8
DETAIL
  6
Continuous
 62
     5
100
AcDbCircle
 10
-470.2868864999982
 20
1562.825980000001
 30
0.0
 40
104.99981
100
AcDbArc
 50
304.1955039999708
 51
358.4982800000123
  0
ARC
  5
887
330
6F
100
AcDbEntity
  8
DETAIL
  6
Continuous
 62
     5
100
AcDbCircle
 10
-415.1696808196573
 20
1476.99951509597
 30
0.0
 40
2.999441287486852
100
AcDbArc
 50
286.9231540850947
 51
302.4691373071429
  0
ARC
  5
888
330
6F
100
AcDbEntity
  8
DETAIL
  6
Continuous
 62
     5
100
AcDbCircle
 10
-415.1700065000004
 20
1477.000000000002
 30
0.0
 40
3.0
100
AcDbArc
 50
272.2520179999735
 51
286.926408999937
  0
LINE
  5
889
330
6F
100
AcDbEntity
  8
DETAIL
  6
Continuous
 62
     5
100
AcDbLine
 10
-409.5547084999997
 20
1777.0
 30
0.0
 11
408.9615545000015
 21
1777.0
 31
0.0
  0
LINE
  5
88A
330
6F
100
AcDbEntity
  8
DETAIL
  6
Continuous
 62
     5
100
AcDbLine
 10
-386.1313725
 20
1755.6
 30
0.0
 11
-414.5546854999991
 21
1755.6
 31
0.0
  0
LINE
  5
88B
330
6F
100
AcDbEntity
  8
DETAIL
  6
Continuous
 62
     5
100
AcDbLine
 10
385.7097495000017
 20
1755.6
 30
0.0
 11
-386.3029035
 21
1755.6
 31
0.0
  0
LINE
  5
88C
330
6F
100
AcDbEntity
  8
DETAIL
  6
Continuous
 62
     5
100
AcDbLine
 10
413.961531500001
 20
1755.6
 30
0.0
 11
385.5382184999998
 21
1755.6
 31
0.0
  0
LINE
  5
88D
330
6F
100
AcDbEntity
  8
DETAIL
  6
Continuous
 62
     5
100
AcDbLine
 10
413.9615545000014
 20
1736.1
 30
0.0
 11
-414.5547084999997
 21
1736.1
 31
0.0
  0
LINE
  5
88E
330
6F
100
AcDbEntity
  8
DETAIL
  6
Continuous
 62
     5
100
AcDbLine
 10
413.9615545000014
 20
1746.999897
 30
0.0
 11
413.9615545000014
 21
1755.6
 31
0.0
  0
LINE
  5
88F
330
6F
100
AcDbEntity
  8
DETAIL
  6
Continuous
 62
     5
100
AcDbLine
 10
413.9615545000014
 20
1736.1
 30
0.0
 11
413.9615545000014
 21
1741.000088000001
 31
0.0
  0
LINE
  5
890
330
6F
100
AcDbEntity
  8
DETAIL
  6
Continuous
 62
     5
100
AcDbLine
 10
408.9615545000015
 20
1757.6
 30
0.0
 11
408.9615545000032
 21
1777.0
 31
0.0
  0
LINE
  5
891
330
6F
100
AcDbEntity
  8
DETAIL
  6
Continuous
 62
     5
100
AcDbLine
 10
385.7097495000017
 20
1755.6
 30
0.0
 11
385.7097495000017
 21
1777.0
 31
0.0
  0
LINE
  5
892
330
6F
100
AcDbEntity
  8
DETAIL
  6
Continuous
 62
     5
100
AcDbLine
 10
-386.3029035000018
 20
1777.0
 30
0.0
 11
-386.3029035
 21
1755.6
 31
0.0
  0
LINE
  5
893
330
6F
100
AcDbEntity
  8
DETAIL
  6
Continuous
 62
     5
100
AcDbLine
 10
-409.5547084999997
 20
1757.6
 30
0.0
 11
-409.5547084999997
 21
1777.0
 31
0.0
  0
LINE
  5
894
330
6F
100
AcDbEntity
  8
DETAIL
  6
Continuous
 62
     5
100
AcDbLine
 10
-414.5547084999997
 20
1736.1
 30
0.0
 11
-414.5547084999997
 21
1755.6
 31
0.0
  0
LINE
  5
895
330
6F
100
AcDbEntity
  8
OUTLINE
  6
Continuous
 62
     3
100
AcDbLine
 10
-414.5547084999997
 20
1736.1
 30
0.0
 11
-414.5547084999997
 21
1755.6
 31
0.0
  0
LINE
  5
896
330
6F
100
AcDbEntity
  8
OUTLINE
  6
Continuous
 62
     3
100
AcDbLine
 10
-409.5547084999997
 20
1757.6
 30
0.0
 11
-409.5547084999997
 21
1777.0
 31
0.0
  0
LINE
  5
897
330
6F
100
AcDbEntity
  8
OUTLINE
  6
Continuous
 62
     3
100
AcDbLine
 10
413.9615545000014
 20
1736.1
 30
0.0
 11
409.0180725000008
 21
1736.1
 31
0.0
  0
LINE
  5
898
330
6F
100
AcDbEntity
  8
OUTLINE
  6
Continuous
 62
     3
100
AcDbLine
 10
-409.6112265000011
 20
1736.100000000001
 30
0.0
 11
-414.5547084999997
 21
1736.1
 31
0.0
  0
LINE
  5
899
330
6F
100
AcDbEntity
  8
OUTLINE
  6
Continuous
 62
     3
100
AcDbLine
 10
-411.5547084999997
 20
1755.6
 30
0.0
 11
-414.5546854999991
 21
1755.6
 31
0.0
  0
LINE
  5
89A
330
6F
100
AcDbEntity
  8
OUTLINE
  6
Continuous
 62
     3
100
AcDbLine
 10
-409.5547084999997
 20
1777.0
 30
0.0
 11
408.9615545000015
 21
1777.0
 31
0.0
  0
ARC
  5
89B
330
6F
100
AcDbEntity
  8
OUTLINE
  6
Continuous
 62
     3
100
AcDbCircle
 10
-411.5547084999997
 20
1757.6
 30
0.0
 40
2.0
100
AcDbArc
 50
270.0
 51
0.0
  0
LINE
  5
89C
330
6F
100
AcDbEntity
  8
OUTLINE
  6
Continuous
 62
     3
100
AcDbLine
 10
-367.4494224999999
 20
1684.034507
 30
0.0
 11
-409.6112265000011
 21
1736.100000000001
 31
0.0
  0
ARC
  5
89D
330
6F
100
AcDbEntity
  8
OUTLINE
  6
Continuous
 62
     3
100
AcDbCircle
 10
-415.1700065000004
 20
1477.000000000002
 30
0.0
 40
3.0
100
AcDbArc
 50
272.2520179999735
 51
286.926408999937
  0
ARC
  5
89E
330
6F
100
AcDbEntity
  8
OUTLINE
  6
Continuous
 62
     3
100
AcDbCircle
 10
-415.1696808196573
 20
1476.99951509597
 30
0.0
 40
2.999441287486852
100
AcDbArc
 50
286.9231540850947
 51
302.4691373071429
  0
ARC
  5
89F
330
6F
100
AcDbEntity
  8
OUTLINE
  6
Continuous
 62
     3
100
AcDbCircle
 10
-470.2868864999982
 20
1562.825980000001
 30
0.0
 40
104.99981
100
AcDbArc
 50
304.1955039999708
 51
358.4982800000123
  0
ARC
  5
8A0
330
6F
100
AcDbEntity
  8
OUTLINE
  6
Continuous
 62
     3
100
AcDbCircle
 10
-470.277523499999
 20
1562.809032000001
 30
0.0
 40
104.980529
100
AcDbArc
 50
302.7090199999641
 51
304.196475999985
  0
ARC
  5
8A1
330
6F
100
AcDbEntity
  8
OUTLINE
  6
Continuous
 62
     3
100
AcDbCircle
 10
-390.7638004999989
 20
1665.154895000001
 30
0.0
 40
30.0
100
AcDbArc
 50
357.4999999999814
 51
39.00000000004655
  0
LINE
  5
8A2
330
6F
100
AcDbEntity
  8
OUTLINE
  6
Continuous
 62
     3
100
AcDbLine
 10
-413.5594444999988
 20
1474.468944
 30
0.0
 11
-413.5489014999985
 21
1474.475714000002
 31
0.0
  0
LINE
  5
8A3
330
6F
100
AcDbEntity
  8
OUTLINE
  6
Continuous
 62
     3
100
AcDbLine
 10
-365.3231405000005
 20
1560.074255000001
 30
0.0
 11
-360.7923544999994
 21
1663.846314
 31
0.0
  0
LINE
  5
8A4
330
6F
100
AcDbEntity
  8
OUTLINE
  6
Continuous
 62
     3
100
AcDbLine
 10
408.9615545000015
 20
1757.6
 30
0.0
 11
408.9615545000032
 21
1777.0
 31
0.0
  0
LINE
  5
8A5
330
6F
100
AcDbEntity
  8
OUTLINE
  6
Continuous
 62
     3
100
AcDbLine
 10
413.9615545000014
 20
1736.1
 30
0.0
 11
413.9615545000014
 21
1741.000088000001
 31
0.0
  0
LINE
  5
8A6
330
6F
100
AcDbEntity
  8
OUTLINE
  6
Continuous
 62
     3
100
AcDbLine
 10
413.9615545000014
 20
1746.999897
 30
0.0
 11
413.9615545000014
 21
1755.6
 31
0.0
  0
LINE
  5
8A7
330
6F
100
AcDbEntity
  8
OUTLINE
  6
Continuous
 62
     3
100
AcDbLine
 10
413.961531500001
 20
1755.6
 30
0.0
 11
410.9615545000015
 21
1755.6
 31
0.0
  0
ARC
  5
8A8
330
6F
100
AcDbEntity
  8
OUTLINE
  6
Continuous
 62
     3
100
AcDbCircle
 10
410.9615545000015
 20
1757.6
 30
0.0
 40
2.0
100
AcDbArc
 50
180.0
 51
270.0
  0
LINE
  5
8A9
330
6F
100
AcDbEntity
  8
OUTLINE
  6
Continuous
 62
     3
100
AcDbLine
 10
366.8562684999997
 20
1684.034507
 30
0.0
 11
409.0180725000008
 21
1736.1
 31
0.0
  0
ARC
  5
8AA
330
6F
100
AcDbEntity
  8
OUTLINE
  6
Continuous
 62
     3
100
AcDbCircle
 10
828.2209314999999
 20
1743.999950000001
 30
0.0
 40
414.27024
100
AcDbArc
 50
179.5885729999912
 51
180.4114270000087
  0
LINE
  5
8AB
330
6F
100
AcDbEntity
  8
OUTLINE
  6
Continuous
 62
     3
100
AcDbLine
 10
413.9613724999999
 20
1746.974696
 30
0.0
 11
413.9615545000014
 21
1747.000000000002
 31
0.0
  0
LINE
  5
8AC
330
6F
100
AcDbEntity
  8
OUTLINE
  6
Continuous
 62
     3
100
AcDbLine
 10
413.9613724999999
 20
1741.025302
 30
0.0
 11
413.9615545000014
 21
1741.000000000002
 31
0.0
  0
LINE
  5
8AD
330
6F
100
AcDbEntity
  8
OUTLINE
  6
Continuous
 62
     3
100
AcDbLine
 10
413.9613724999999
 20
1741.025302
 30
0.0
 11
413.9615545000014
 21
1741.000000000002
 31
0.0
  0
LINE
  5
8AE
330
6F
100
AcDbEntity
  8
OUTLINE
  6
Continuous
 62
     3
100
AcDbLine
 10
413.9613724999999
 20
1746.974696
 30
0.0
 11
413.9615545000014
 21
1747.000000000002
 31
0.0
  0
ARC
  5
8AF
330
6F
100
AcDbEntity
  8
OUTLINE
  6
Continuous
 62
     3
100
AcDbCircle
 10
469.6909494999998
 20
1562.82712
 30
0.0
 40
104.999315
100
AcDbArc
 50
181.4985129999923
 51
237.2933160000293
  0
ARC
  5
8B0
330
6F
100
AcDbEntity
  8
OUTLINE
  6
Continuous
 62
     3
100
AcDbCircle
 10
390.1706465000008
 20
1665.154895000001
 30
0.0
 40
30.0
100
AcDbArc
 50
140.9999999999534
 51
182.5000000000185
  0
LINE
  5
8B1
330
6F
100
AcDbEntity
  8
OUTLINE
  6
Continuous
 62
     3
100
AcDbLine
 10
364.7299865000004
 20
1560.074255000001
 30
0.0
 11
360.1992005000012
 21
1663.846314
 31
0.0
  0
ARC
  5
8B2
330
6F
100
AcDbEntity
  8
OUTLINE
  6
Continuous
 62
     3
100
AcDbCircle
 10
414.5768055000007
 20
1477.000000000002
 30
0.0
 40
3.0
100
AcDbArc
 50
237.2928589999327
 51
270.0
  0
LINE
  5
8B3
330
6F
100
AcDbEntity
  8
SIZE
  6
Continuous
 62
    30
100
AcDbLine
 10
-610.0
 20
1490.0
 30
0.0
 11
-610.0
 21
2020.197216723238
 31
0.0
  0
LINE
  5
8B4
330
6F
100
AcDbEntity
  8
SIZE
  6
Continuous
 62
    30
100
AcDbLine
 10
610.0
 20
1490.0
 30
0.0
 11
610.0
 21
2020.197216723238
 31
0.0
  0
LINE
  5
8B5
330
6F
100
AcDbEntity
  8
SIZE
  6
Continuous
 62
    30
100
AcDbLine
 10
-610.0
 20
2000.197216723238
 30
0.0
 11
610.0
 21
2000.197216723238
 31
0.0
  0
CIRCLE
  5
8B6
330
6F
100
AcDbEntity
  8
SIZE
  6
Continuous
 62
    30
100
AcDbCircle
 10
-610.0
 20
2000.197216723238
 30
0.0
 40
7.5
  0
CIRCLE
  5
8B7
330
6F
100
AcDbEntity
  8
SIZE
  6
Continuous
 62
    30
100
AcDbCircle
 10
610.0
 20
2000.197216723238
 30
0.0
 40
7.5
  0
TEXT
  5
8B8
330
6F
100
AcDbEntity
  8
SIZE
  6
Continuous
 62
    30
100
AcDbText
 10
-89.99999999999998
 20
2020.197216723238
 30
0.0
 40
60.0
  1
1220
 41
0.9
 72
     1
 11
0.0
 21
2020.197216723238
 31
0.0
100
AcDbText
  0
POINT
  5
8B9
330
6F
100
AcDbEntity
  8
DEFPOINTS
  6
Continuous
 62
     7
100
AcDbPoint
 10
-610.0
 20
1470.0
 30
0.0
  0
POINT
  5
8BA
330
6F
100
AcDbEntity
  8
DEFPOINTS
  6
Continuous
 62
     7
100
AcDbPoint
 10
610.0
 20
1470.0
 30
0.0
  0
POINT
  5
8BB
330
6F
100
AcDbEntity
  8
DEFPOINTS
  6
Continuous
 62
     7
100
AcDbPoint
 10
610.0
 20
2000.197216723238
 30
0.0
  0
LINE
  5
8BC
330
6F
100
AcDbEntity
  8
SIZE
  6
Continuous
 62
    30
100
AcDbLine
 10
-525.6751189999996
 20
480.0
 30
0.0
 11
-1115.905355796542
 21
480.0
 31
0.0
  0
LINE
  5
8BD
330
6F
100
AcDbEntity
  8
SIZE
  6
Continuous
 62
    30
100
AcDbLine
 10
-525.6751189999996
 20
206.0
 30
0.0
 11
-1115.905355796542
 21
206.0000000000002
 31
0.0
  0
LINE
  5
8BE
330
6F
100
AcDbEntity
  8
SIZE
  6
Continuous
 62
    30
100
AcDbLine
 10
-1095.905355796541
 20
480.0
 30
0.0
 11
-1095.905355796541
 21
206.0000000000002
 31
0.0
  0
CIRCLE
  5
8BF
330
6F
100
AcDbEntity
  8
SIZE
  6
Continuous
 62
    30
100
AcDbCircle
 10
-1095.905355796541
 20
480.0
 30
0.0
 40
7.5
  0
CIRCLE
  5
8C0
330
6F
100
AcDbEntity
  8
SIZE
  6
Continuous
 62
    30
100
AcDbCircle
 10
-1095.905355796541
 20
206.0000000000002
 30
0.0
 40
7.5
  0
TEXT
  5
8C1
330
6F
100
AcDbEntity
  8
SIZE
  6
Continuous
 62
    30
100
AcDbText
 10
-1115.905355796541
 20
272.285714285714
 30
0.0
 40
60.0
  1
274
 50
90.0
 41
0.9
 72
     1
 11
-1115.905355796541
 21
342.9999999999997
 31
0.0
100
AcDbText
  0
POINT
  5
8C2
330
6F
100
AcDbEntity
  8
DEFPOINTS
  6
Continuous
 62
     7
100
AcDbPoint
 10
-505.6751189999996
 20
480.0
 30
0.0
  0
POINT
  5
8C3
330
6F
100
AcDbEntity
  8
DEFPOINTS
  6
Continuous
 62
     7
100
AcDbPoint
 10
-505.6751189999996
 20
206.0
 30
0.0
  0
POINT
  5
8C4
330
6F
100
AcDbEntity
  8
DEFPOINTS
  6
Continuous
 62
     7
100
AcDbPoint
 10
-1095.905355796541
 20
206.0000000000002
 30
0.0
  0
LINE
  5
8CF
330
6F
100
AcDbEntity
  8
NOTE
  6
Continuous
 62
     4
100
AcDbLine
 10
-885.625140835094
 20
-309.81158163439
 30
0.0
 11
-1478.54074182988
 21
-309.81158163439
 31
0.0
  0
LINE
  5
8D0
330
6F
100
AcDbEntity
  8
NOTE
  6
Continuous
 62
     4
100
AcDbLine
 10
-1011.294331606638
 20
1065.846333450109
 30
0.0
 11
-1605.285605446041
 21
1065.846333450109
 31
0.0
  0
TEXT
  5
8D1
330
6F
100
AcDbEntity
  8
NOTE
  6
Continuous
 62
     4
100
AcDbText
 10
-1468.919577656964
 20
-290.7988323924445
 30
0.0
 40
60.0
  1
入水口 Rc3/4 メネジ
 50
0.0000025044165917
 41
0.7
  7
STANDARD1
100
AcDbText
  0
TEXT
  5
8D2
330
6F
100
AcDbEntity
  8
NOTE
  6
Continuous
 62
     4
100
AcDbText
 10
-1579.901766458178
 20
1084.905194220491
 30
0.0
 40
60.0
  1
出湯口 Rc3/4 メネジ
 50
0.0000025044165917
 41
0.7
  7
STANDARD1
100
AcDbText
  0
ENDSEC
  0
SECTION
  2
OBJECTS
  0
DICTIONARY
  5
C
330
0
100
AcDbDictionary
281
     1
  3
ACAD_CIP_PREVIOUS_PRODUCT_INFO
350
8C5
  3
ACAD_COLOR
350
62
  3
ACAD_DETAILVIEWSTYLE
350
69
  3
ACAD_GROUP
350
D
  3
ACAD_LAYOUT
350
61
  3
ACAD_MATERIAL
350
10
  3
ACAD_MLEADERSTYLE
350
65
  3
ACAD_MLINESTYLE
350
5E
  3
ACAD_PLOTSETTINGS
350
60
  3
ACAD_PLOTSTYLENAME
350
E
  3
ACAD_SCALELIST
350
42
  3
ACAD_SECTIONVIEWSTYLE
350
67
  3
ACAD_TABLESTYLE
350
63
  3
ACAD_VISUALSTYLE
350
29
  3
ACDB_RECOMPOSE_DATA
350
8F7
  3
AcDbVariableDictionary
350
8EB
  3
DWGPROPS
350
8F8
  0
DICTIONARY
  5
8D5
330
54
100
AcDbDictionary
280
     1
281
     1
  3
ADSK_XREC_LAYER_RECONCILED
360
8D6
  0
DICTIONARY
  5
8D7
330
73
100
AcDbDictionary
280
     1
281
     1
  3
ADSK_XREC_LAYER_RECONCILED
360
8D8
  0
DICTIONARY
  5
8D9
330
76
100
AcDbDictionary
280
     1
281
     1
  3
ADSK_XREC_LAYER_RECONCILED
360
8DA
  0
DICTIONARY
  5
8DB
330
77
100
AcDbDictionary
280
     1
281
     1
  3
ADSK_XREC_LAYER_RECONCILED
360
8DC
  0
DICTIONARY
  5
8DD
330
78
100
AcDbDictionary
280
     1
281
     1
  3
ADSK_XREC_LAYER_RECONCILED
360
8DE
  0
DICTIONARY
  5
8DF
330
79
100
AcDbDictionary
280
     1
281
     1
  3
ADSK_XREC_LAYER_RECONCILED
360
8E0
  0
DICTIONARY
  5
8E1
330
7A
100
AcDbDictionary
280
     1
281
     1
  3
ADSK_XREC_LAYER_RECONCILED
360
8E2
  0
DICTIONARY
  5
8E3
330
7B
100
AcDbDictionary
280
     1
281
     1
  3
ADSK_XREC_LAYER_RECONCILED
360
8E4
  0
DICTIONARY
  5
8E5
330
7C
100
AcDbDictionary
280
     1
281
     1
  3
ADSK_XREC_LAYER_RECONCILED
360
8E6
  0
DICTIONARY
  5
8E7
330
7D
100
AcDbDictionary
280
     1
281
     1
  3
ADSK_XREC_LAYER_RECONCILED
360
8E8
  0
DICTIONARY
  5
8E9
330
7E
100
AcDbDictionary
280
     1
281
     1
  3
ADSK_XREC_LAYER_RECONCILED
360
8EA
  0
XRECORD
  5
8C5
102
{ACAD_REACTORS
330
C
102
}
330
C
100
AcDbXrecord
280
     1
300
ACDLT
300
2018
300
86831ACDLT_2018_0F
  0
DICTIONARY
  5
62
102
{ACAD_REACTORS
330
C
102
}
330
C
100
AcDbDictionary
281
     1
  0
DICTIONARY
  5
69
102
{ACAD_REACTORS
330
C
102
}
330
C
100
AcDbDictionary
281
     1
  3
Imperial24
350
6A
  0
DICTIONARY
  5
D
102
{ACAD_REACTORS
330
C
102
}
330
C
100
AcDbDictionary
281
     1
  0
DICTIONARY
  5
61
102
{ACAD_REACTORS
330
C
102
}
330
C
100
AcDbDictionary
281
     1
  3
Model
350
72
  3
レイアウト1
350
6E
  0
DICTIONARY
  5
10
102
{ACAD_REACTORS
330
C
102
}
330
C
100
AcDbDictionary
281
     1
  3
ByBlock
350
19
  3
ByLayer
350
11
  3
Global
350
21
  0
DICTIONARY
  5
65
102
{ACAD_REACTORS
330
C
102
}
330
C
100
AcDbDictionary
281
     1
  3
Standard
350
66
  0
DICTIONARY
  5
5E
102
{ACAD_REACTORS
330
C
102
}
330
C
100
AcDbDictionary
281
     1
  3
Standard
350
5F
  0
DICTIONARY
  5
60
102
{ACAD_REACTORS
330
C
102
}
330
C
100
AcDbDictionary
281
     1
  0
ACDBDICTIONARYWDFLT
  5
E
102
{ACAD_REACTORS
330
C
102
}
330
C
100
AcDbDictionary
281
     1
  3
Normal
350
F
100
AcDbDictionaryWithDefault
340
F
  0
DICTIONARY
  5
42
102
{ACAD_REACTORS
330
C
102
}
330
C
100
AcDbDictionary
281
     1
  3
A0
350
43
  3
A1
350
44
  3
A2
350
45
  3
A3
350
46
  3
A4
350
47
  3
A5
350
48
  3
A6
350
49
  3
A7
350
4A
  3
A8
350
4B
  3
A9
350
4C
  3
B0
350
4D
  3
B1
350
4E
  3
B2
350
4F
  3
B3
350
50
  3
B4
350
51
  3
B5
350
52
  3
B6
350
53
  0
DICTIONARY
  5
67
102
{ACAD_REACTORS
330
C
102
}
330
C
100
AcDbDictionary
281
     1
  3
Imperial24
350
68
  0
DICTIONARY
  5
63
102
{ACAD_REACTORS
330
C
102
}
330
C
100
AcDbDictionary
281
     1
  3
Standard
350
64
  0
DICTIONARY
  5
29
102
{ACAD_REACTORS
330
C
102
}
330
C
100
AcDbDictionary
281
     1
  3
2dWireframe
350
2F
  3
Basic
350
2E
  3
Brighten
350
35
  3
ColorChange
350
39
  3
Conceptual
350
32
  3
Dim
350
34
  3
EdgeColorOff
350
41
  3
Facepattern
350
38
  3
Flat
350
2A
  3
FlatWithEdges
350
2B
  3
Gouraud
350
2C
  3
GouraudWithEdges
350
2D
  3
Hidden
350
31
  3
JitterOff
350
3F
  3
Linepattern
350
37
  3
OverhangOff
350
40
  3
Realistic
350
33
  3
Shaded
350
3E
  3
Shaded with edges
350
3D
  3
Shades of Gray
350
3A
  3
Sketchy
350
3B
  3
Thicken
350
36
  3
Wireframe
350
30
  3
X-Ray
350
3C
  0
XRECORD
  5
8F7
102
{ACAD_REACTORS
330
C
102
}
330
C
100
AcDbXrecord
280
     1
 90
        1
330
64
  0
DICTIONARY
  5
8EB
102
{ACAD_REACTORS
330
C
102
}
330
C
100
AcDbDictionary
281
     1
  3
CANNOSCALE
350
8F0
  3
CMLEADERSTYLE
350
8ED
  3
CTABLESTYLE
350
8EC
  3
CVIEWDETAILSTYLE
350
8EE
  3
CVIEWSECTIONSTYLE
350
8EF
  3
DIMASSOC
350
8F3
  3
INDEXCTL
350
8F2
  3
SORTENTS
350
8F1
  3
XCLIPFRAME
350
8F4
  0
XRECORD
  5
8F8
102
{ACAD_REACTORS
330
C
102
}
330
C
100
AcDbXrecord
280
     1
  1
DWGPROPS COOKIE
  2

  3

  4

  6

  7

  8
CG24244
  9

300
=
301
=
302
=
303
=
304
=
305
=
306
=
307
=
308
=
309
=
 40
1.702534826388888
 41
2455902.607164352
 42
2460084.391747686
  1

 90
        0
  0
XRECORD
  5
8D6
102
{ACAD_REACTORS
330
8D5
102
}
330
8D5
100
AcDbXrecord
280
     1
290
     1
  0
XRECORD
  5
8D8
102
{ACAD_REACTORS
330
8D7
102
}
330
8D7
100
AcDbXrecord
280
     1
290
     1
  0
XRECORD
  5
8DA
102
{ACAD_REACTORS
330
8D9
102
}
330
8D9
100
AcDbXrecord
280
     1
290
     1
  0
XRECORD
  5
8DC
102
{ACAD_REACTORS
330
8DB
102
}
330
8DB
100
AcDbXrecord
280
     1
290
     1
  0
XRECORD
  5
8DE
102
{ACAD_REACTORS
330
8DD
102
}
330
8DD
100
AcDbXrecord
280
     1
290
     1
  0
XRECORD
  5
8E0
102
{ACAD_REACTORS
330
8DF
102
}
330
8DF
100
AcDbXrecord
280
     1
290
     1
  0
XRECORD
  5
8E2
102
{ACAD_REACTORS
330
8E1
102
}
330
8E1
100
AcDbXrecord
280
     1
290
     1
  0
XRECORD
  5
8E4
102
{ACAD_REACTORS
330
8E3
102
}
330
8E3
100
AcDbXrecord
280
     1
290
     1
  0
XRECORD
  5
8E6
102
{ACAD_REACTORS
330
8E5
102
}
330
8E5
100
AcDbXrecord
280
     1
290
     1
  0
XRECORD
  5
8E8
102
{ACAD_REACTORS
330
8E7
102
}
330
8E7
100
AcDbXrecord
280
     1
290
     1
  0
XRECORD
  5
8EA
102
{ACAD_REACTORS
330
8E9
102
}
330
8E9
100
AcDbXrecord
280
     1
290
     1
  0
ACDBDETAILVIEWSTYLE
  5
6A
102
{ACAD_XDICTIONARY
360
930
102
}
102
{ACAD_REACTORS
330
69
102
}
330
69
100
AcDbModelDocViewStyle
 70
     0
  3
Imperial24
290
     0
100
AcDbDetailViewStyle
 70
     0
 71
     0
 90
        3
 71
     1
340
55
 40
0.24
340
0
 40
0.24
300

 40
0.36
280
     3
 71
     2
340
5C
 90
       25
 71
     3
340
55
 40
0.24
 90
        1
 40
0.75
 90
        1
300
%<\AcVar ViewType \f "%tc1">% %<\AcVar ViewDetailId>%\PSCALE %<\AcVar ViewScale \f "%sn">%
 71
     4
340
5C
 90
       25
340
5C
 90
       25
280
     0
  0
LAYOUT
  5
72
102
{ACAD_XDICTIONARY
360
934
102
}
102
{ACAD_REACTORS
330
61
102
}
330
61
100
AcDbPlotSettings
  1

  2
FX C3376(5-6西内側 X032)64bit
  4

  6

 40
0.0
 41
0.0
 42
0.0
 43
0.0
 44
0.0
 45
0.0
 46
0.0
 47
0.0
 48
0.0
 49
0.0
140
0.0
141
0.0
142
1.0
143
1.0
 70
  1712
 72
     0
 73
     0
 74
     0
  7

 75
     0
147
1.0
148
0.0
149
0.0
100
AcDbLayout
  1
Model
 70
     1
 71
     0
 10
0.0
 20
0.0
 11
12.0
 21
9.0
 12
0.0
 22
0.0
 32
0.0
 14
0.0
 24
0.0
 34
0.0
 15
0.0
 25
0.0
 35
0.0
146
0.0
 13
0.0
 23
0.0
 33
0.0
 16
1.0
 26
0.0
 36
0.0
 17
0.0
 27
1.0
 37
0.0
 76
     0
330
6F
331
82
  0
LAYOUT
  5
6E
102
{ACAD_XDICTIONARY
360
932
102
}
102
{ACAD_REACTORS
330
61
102
}
330
61
100
AcDbPlotSettings
  1

  2
FX C3376(5-6西内側 X032)64bit
  4

  6

 40
0.0
 41
0.0
 42
0.0
 43
0.0
 44
0.0
 45
0.0
 46
0.0
 47
0.0
 48
0.0
 49
0.0
140
0.0
141
0.0
142
1.0
143
1.0
 70
   688
 72
     0
 73
     0
 74
     5
  7

 75
    16
147
1.0
148
0.0
149
0.0
100
AcDbLayout
  1
レイアウト1
 70
     1
 71
     1
 10
0.0
 20
0.0
 11
12.0
 21
9.0
 12
0.0
 22
0.0
 32
0.0
 14
1.000000000000000E+20
 24
1.000000000000000E+20
 34
1.000000000000000E+20
 15
-1.000000000000000E+20
 25
-1.000000000000000E+20
 35
-1.000000000000000E+20
146
0.0
 13
0.0
 23
0.0
 33
0.0
 16
1.0
 26
0.0
 36
0.0
 17
0.0
 27
1.0
 37
0.0
 76
     0
330
6B
  0
MATERIAL
  5
19
102
{ACAD_XDICTIONARY
360
1A
102
}
102
{ACAD_REACTORS
330
10
102
}
330
10
100
AcDbMaterial
  1
ByBlock
 72
     0
 43
0.0208333333333333
 43
0.0
 43
0.0
 43
0.0
 43
0.0
 43
0.0208333333333333
 43
0.0
 43
0.0
 43
0.0
 43
0.0
 43
1.0
 43
0.0
 43
0.0
 43
0.0
 43
0.0
 43
1.0
 77
     0
 47
0.0208333333333333
 47
0.0
 47
0.0
 47
0.0
 47
0.0
 47
0.0208333333333333
 47
0.0
 47
0.0
 47
0.0
 47
0.0
 47
1.0
 47
0.0
 47
0.0
 47
0.0
 47
0.0
 47
1.0
171
     0
 49
0.0208333333333333
 49
0.0
 49
0.0
 49
0.0
 49
0.0
 49
0.0208333333333333
 49
0.0
 49
0.0
 49
0.0
 49
0.0
 49
1.0
 49
0.0
 49
0.0
 49
0.0
 49
0.0
 49
1.0
175
     0
142
0.0208333333333333
142
0.0
142
0.0
142
0.0
142
0.0
142
0.0208333333333333
142
0.0
142
0.0
142
0.0
142
0.0
142
1.0
142
0.0
142
0.0
142
0.0
142
0.0
142
1.0
179
     0
144
0.0208333333333333
144
0.0
144
0.0
144
0.0
144
0.0
144
0.0208333333333333
144
0.0
144
0.0
144
0.0
144
0.0
144
1.0
144
0.0
144
0.0
144
0.0
144
0.0
144
1.0
147
0.0208333333333333
147
0.0
147
0.0
147
0.0
147
0.0
147
0.0208333333333333
147
0.0
147
0.0
147
0.0
147
0.0
147
1.0
147
0.0
147
0.0
147
0.0
147
0.0
147
1.0
  0
MATERIAL
  5
11
102
{ACAD_XDICTIONARY
360
12
102
}
102
{ACAD_REACTORS
330
10
102
}
330
10
100
AcDbMaterial
  1
ByLayer
 72
     0
 43
0.0208333333333333
 43
0.0
 43
0.0
 43
0.0
 43
0.0
 43
0.0208333333333333
 43
0.0
 43
0.0
 43
0.0
 43
0.0
 43
1.0
 43
0.0
 43
0.0
 43
0.0
 43
0.0
 43
1.0
 77
     0
 47
0.0208333333333333
 47
0.0
 47
0.0
 47
0.0
 47
0.0
 47
0.0208333333333333
 47
0.0
 47
0.0
 47
0.0
 47
0.0
 47
1.0
 47
0.0
 47
0.0
 47
0.0
 47
0.0
 47
1.0
171
     0
 49
0.0208333333333333
 49
0.0
 49
0.0
 49
0.0
 49
0.0
 49
0.0208333333333333
 49
0.0
 49
0.0
 49
0.0
 49
0.0
 49
1.0
 49
0.0
 49
0.0
 49
0.0
 49
0.0
 49
1.0
175
     0
142
0.0208333333333333
142
0.0
142
0.0
142
0.0
142
0.0
142
0.0208333333333333
142
0.0
142
0.0
142
0.0
142
0.0
142
1.0
142
0.0
142
0.0
142
0.0
142
0.0
142
1.0
179
     0
144
0.0208333333333333
144
0.0
144
0.0
144
0.0
144
0.0
144
0.0208333333333333
144
0.0
144
0.0
144
0.0
144
0.0
144
1.0
144
0.0
144
0.0
144
0.0
144
0.0
144
1.0
147
0.0208333333333333
147
0.0
147
0.0
147
0.0
147
0.0
147
0.0208333333333333
147
0.0
147
0.0
147
0.0
147
0.0
147
1.0
147
0.0
147
0.0
147
0.0
147
0.0
147
1.0
  0
MATERIAL
  5
21
102
{ACAD_XDICTIONARY
360
22
102
}
102
{ACAD_REACTORS
330
10
102
}
330
10
100
AcDbMaterial
  1
Global
 72
     0
 43
0.0208333333333333
 43
0.0
 43
0.0
 43
0.0
 43
0.0
 43
0.0208333333333333
 43
0.0
 43
0.0
 43
0.0
 43
0.0
 43
1.0
 43
0.0
 43
0.0
 43
0.0
 43
0.0
 43
1.0
 77
     0
 47
0.0208333333333333
 47
0.0
 47
0.0
 47
0.0
 47
0.0
 47
0.0208333333333333
 47
0.0
 47
0.0
 47
0.0
 47
0.0
 47
1.0
 47
0.0
 47
0.0
 47
0.0
 47
0.0
 47
1.0
171
     0
 49
0.0208333333333333
 49
0.0
 49
0.0
 49
0.0
 49
0.0
 49
0.0208333333333333
 49
0.0
 49
0.0
 49
0.0
 49
0.0
 49
1.0
 49
0.0
 49
0.0
 49
0.0
 49
0.0
 49
1.0
175
     0
142
0.0208333333333333
142
0.0
142
0.0
142
0.0
142
0.0
142
0.0208333333333333
142
0.0
142
0.0
142
0.0
142
0.0
142
1.0
142
0.0
142
0.0
142
0.0
142
0.0
142
1.0
179
     0
144
0.0208333333333333
144
0.0
144
0.0
144
0.0
144
0.0
144
0.0208333333333333
144
0.0
144
0.0
144
0.0
144
0.0
144
1.0
144
0.0
144
0.0
144
0.0
144
0.0
144
1.0
147
0.0208333333333333
147
0.0
147
0.0
147
0.0
147
0.0
147
0.0208333333333333
147
0.0
147
0.0
147
0.0
147
0.0
147
1.0
147
0.0
147
0.0
147
0.0
147
0.0
147
1.0
  0
MLEADERSTYLE
  5
66
102
{ACAD_REACTORS
330
65
102
}
330
65
100
AcDbMLeaderStyle
170
     2
171
     1
172
     0
 90
        2
 40
0.0
 41
0.0
173
     1
 91
-1056964608
340
5A
 92
       -2
290
     1
 42
0.09
291
     1
 43
0.36
  3
Standard
 44
0.18
300

342
55
174
     1
178
     6
175
     1
176
     0
 93
-1056964608
 45
0.18
292
     0
297
     0
 46
0.18
 94
-1056964608
 47
1.0
 49
1.0
140
1.0
293
     1
141
0.0
294
     1
177
     0
142
1.0
295
     0
296
     0
143
0.125
1001
ACAD_MLEADERVER
1070
     2
  0
MLINESTYLE
  5
5F
102
{ACAD_REACTORS
330
5E
102
}
330
5E
100
AcDbMlineStyle
  2
STANDARD
 70
     0
  3

 62
   256
 51
90.0
 52
90.0
 71
     2
 49
0.5
 62
   256
  6
BYLAYER
 49
-0.5
 62
   256
  6
BYLAYER
  0
ACDBPLACEHOLDER
  5
F
102
{ACAD_REACTORS
330
E
102
}
330
E
  0
SCALE
  5
43
102
{ACAD_REACTORS
330
42
102
}
330
42
100
AcDbScale
 70
     0
300
1:1
140
1.0
141
1.0
290
     1
  0
SCALE
  5
44
102
{ACAD_REACTORS
330
42
102
}
330
42
100
AcDbScale
 70
     0
300
1/128" = 1'-0"
140
0.0078125
141
12.0
290
     0
  0
SCALE
  5
45
102
{ACAD_REACTORS
330
42
102
}
330
42
100
AcDbScale
 70
     0
300
1/64" = 1'-0"
140
0.015625
141
12.0
290
     0
  0
SCALE
  5
46
102
{ACAD_REACTORS
330
42
102
}
330
42
100
AcDbScale
 70
     0
300
1/32" = 1'-0"
140
0.03125
141
12.0
290
     0
  0
SCALE
  5
47
102
{ACAD_REACTORS
330
42
102
}
330
42
100
AcDbScale
 70
     0
300
1/16" = 1'-0"
140
0.0625
141
12.0
290
     0
  0
SCALE
  5
48
102
{ACAD_REACTORS
330
42
102
}
330
42
100
AcDbScale
 70
     0
300
3/32" = 1'-0"
140
0.09375
141
12.0
290
     0
  0
SCALE
  5
49
102
{ACAD_REACTORS
330
42
102
}
330
42
100
AcDbScale
 70
     0
300
1/8" = 1'-0"
140
0.125
141
12.0
290
     0
  0
SCALE
  5
4A
102
{ACAD_REACTORS
330
42
102
}
330
42
100
AcDbScale
 70
     0
300
3/16" = 1'-0"
140
0.1875
141
12.0
290
     0
  0
SCALE
  5
4B
102
{ACAD_REACTORS
330
42
102
}
330
42
100
AcDbScale
 70
     0
300
1/4" = 1'-0"
140
0.25
141
12.0
290
     0
  0
SCALE
  5
4C
102
{ACAD_REACTORS
330
42
102
}
330
42
100
AcDbScale
 70
     0
300
3/8" = 1'-0"
140
0.375
141
12.0
290
     0
  0
SCALE
  5
4D
102
{ACAD_REACTORS
330
42
102
}
330
42
100
AcDbScale
 70
     0
300
1/2" = 1'-0"
140
0.5
141
12.0
290
     0
  0
SCALE
  5
4E
102
{ACAD_REACTORS
330
42
102
}
330
42
100
AcDbScale
 70
     0
300
3/4" = 1'-0"
140
0.75
141
12.0
290
     0
  0
SCALE
  5
4F
102
{ACAD_REACTORS
330
42
102
}
330
42
100
AcDbScale
 70
     0
300
1" = 1'-0"
140
1.0
141
12.0
290
     0
  0
SCALE
  5
50
102
{ACAD_REACTORS
330
42
102
}
330
42
100
AcDbScale
 70
     0
300
1-1/2" = 1'-0"
140
1.5
141
12.0
290
     0
  0
SCALE
  5
51
102
{ACAD_REACTORS
330
42
102
}
330
42
100
AcDbScale
 70
     0
300
3" = 1'-0"
140
3.0
141
12.0
290
     0
  0
SCALE
  5
52
102
{ACAD_REACTORS
330
42
102
}
330
42
100
AcDbScale
 70
     0
300
6" = 1'-0"
140
6.0
141
12.0
290
     0
  0
SCALE
  5
53
102
{ACAD_REACTORS
330
42
102
}
330
42
100
AcDbScale
 70
     0
300
1'-0" = 1'-0"
140
12.0
141
12.0
290
     0
  0
ACDBSECTIONVIEWSTYLE
  5
68
102
{ACAD_XDICTIONARY
360
92E
102
}
102
{ACAD_REACTORS
330
67
102
}
330
67
100
AcDbModelDocViewStyle
 70
     0
  3
Imperial24
290
     0
100
AcDbSectionViewStyle
 70
     0
 71
     0
 90
       78
 71
     1
340
55
 40
0.24
340
0
340
0
 40
0.24
300
I, O, Q, S, X, Z
 40
0.48
 90
        3
 40
0.18
 90
        1
 71
     2
340
5C
 90
       25
340
5C
 90
       50
 40
0.24
 40
0.0
 40
0.24
 71
     3
340
55
 40
0.24
 90
        1
 40
0.75
 90
        1
300
%<\AcVar ViewType \f "%tc1">% %<\AcVar ViewSectionStartId>%-%<\AcVar ViewSectionEndId>%\PSCALE %<\AcVar ViewScale \f "%sn">%
 71
     4
300
ANSI31
 40
1.0
 90
        0
290
     0
290
     0
 90
        6
 40
0.0
 40
1.570796326794896
 40
0.2617993877991494
 40
1.308996938995747
 40
-0.2617993877991494
 40
1.832595714594046
  0
TABLESTYLE
  5
64
102
{ACAD_XDICTIONARY
360
8F5
102
}
102
{ACAD_REACTORS
330
63
102
}
330
63
100
AcDbTableStyle
  3
Standard
 70
     0
 71
     0
 40
0.06
 41
0.06
280
     0
281
     0
  7
STANDARD
140
0.18
170
     2
 62
     0
 63
     7
283
     0
274
    -2
284
     1
 64
     0
275
    -2
285
     1
 65
     0
276
    -2
286
     1
 66
     0
277
    -2
287
     1
 67
     0
278
    -2
288
     1
 68
     0
279
    -2
289
     1
 69
     0
  7
STANDARD
140
0.25
170
     5
 62
     0
 63
     7
283
     0
274
    -2
284
     1
 64
     0
275
    -2
285
     1
 65
     0
276
    -2
286
     1
 66
     0
277
    -2
287
     1
 67
     0
278
    -2
288
     1
 68
     0
279
    -2
289
     1
 69
     0
  7
STANDARD
140
0.18
170
     5
 62
     0
 63
     7
283
     0
274
    -2
284
     1
 64
     0
275
    -2
285
     1
 65
     0
276
    -2
286
     1
 66
     0
277
    -2
287
     1
 67
     0
278
    -2
288
     1
 68
     0
279
    -2
289
     1
 69
     0
  0
VISUALSTYLE
  5
2F
102
{ACAD_XDICTIONARY
360
906
102
}
102
{ACAD_REACTORS
330
29
102
}
330
29
100
AcDbVisualStyle
  2
2dWireframe
 70
     4
 71
     0
 72
     2
 73
     0
 90
        0
 40
-0.6
 41
-30.0
 62
     5
 63
     7
 74
     1
 91
        4
 64
     7
 65
   257
 75
     1
175
     1
 42
1.0
 92
        0
 66
   257
 43
1.0
 76
     1
 77
     6
 78
     2
 67
     7
 79
     5
170
     0
171
     0
290
     0
174
     0
 93
        1
 44
0.0
173
     0
291
     0
 45
0.0
1001
ACAD
1000
AcDbSavedByObjectVersion
1070
     0
  0
VISUALSTYLE
  5
2E
102
{ACAD_XDICTIONARY
360
904
102
}
102
{ACAD_REACTORS
330
29
102
}
330
29
100
AcDbVisualStyle
  2
Basic
 70
     7
 71
     1
 72
     0
 73
     1
 90
        0
 40
-0.6
 41
-30.0
 62
     5
 63
     7
 74
     0
 91
        4
 64
     7
 65
   257
 75
     1
175
     1
 42
1.0
 92
        8
 66
     7
 43
1.0
 76
     1
 77
     6
 78
     2
 67
     7
 79
     5
170
     0
171
     0
290
     0
174
     0
 93
        1
 44
0.0
173
     0
291
     1
 45
0.0
1001
ACAD
1000
AcDbSavedByObjectVersion
1070
     0
  0
VISUALSTYLE
  5
35
102
{ACAD_XDICTIONARY
360
912
102
}
102
{ACAD_REACTORS
330
29
102
}
330
29
100
AcDbVisualStyle
  2
Brighten
 70
    12
 71
     2
 72
     2
 73
     0
 90
        0
 40
-0.6
 41
-30.0
 62
     5
 63
     7
 74
     1
 91
        4
 64
     7
 65
   257
 75
     1
175
     1
 42
1.0
 92
        8
 66
     7
 43
1.0
 76
     1
 77
     6
 78
     2
 67
     7
 79
     5
170
     0
171
     0
290
     0
174
     0
 93
        1
 44
50.0
173
     0
291
     1
 45
0.0
1001
ACAD
1000
AcDbSavedByObjectVersion
1070
     0
  0
VISUALSTYLE
  5
39
102
{ACAD_XDICTIONARY
360
91A
102
}
102
{ACAD_REACTORS
330
29
102
}
330
29
100
AcDbVisualStyle
  2
ColorChange
 70
    16
 71
     2
 72
     2
 73
     3
 90
        0
 40
-0.6
 41
-30.0
 62
     5
 63
     8
 74
     1
 91
        4
 64
     7
 65
   257
 75
     1
175
     1
 42
1.0
 92
        8
 66
     8
 43
1.0
 76
     1
 77
     6
 78
     2
 67
     7
 79
     5
170
     0
171
     0
290
     0
174
     0
 93
        1
 44
0.0
173
     0
291
     1
 45
0.0
1001
ACAD
1000
AcDbSavedByObjectVersion
1070
     0
  0
VISUALSTYLE
  5
32
102
{ACAD_XDICTIONARY
360
90C
102
}
102
{ACAD_REACTORS
330
29
102
}
330
29
100
AcDbVisualStyle
  2
Conceptual
 70
     9
 71
     3
 72
     2
 73
     0
 90
        0
 40
-0.6
 41
-30.0
 62
     5
 63
     7
 74
     2
 91
        2
 64
     7
 65
   257
 75
     1
175
     1
 42
179.0
 92
        8
 66
     7
 43
1.0
 76
     1
 77
     6
 78
     2
 67
     7
 79
     3
170
     0
171
     0
290
     0
174
     0
 93
        1
 44
0.0
173
     0
291
     0
 45
0.0
1001
ACAD
1000
AcDbSavedByObjectVersion
1070
     0
  0
VISUALSTYLE
  5
34
102
{ACAD_XDICTIONARY
360
910
102
}
102
{ACAD_REACTORS
330
29
102
}
330
29
100
AcDbVisualStyle
  2
Dim
 70
    11
 71
     2
 72
     2
 73
     0
 90
        0
 40
-0.6
 41
-30.0
 62
     5
 63
     7
 74
     1
 91
        4
 64
     7
 65
   257
 75
     1
175
     1
 42
1.0
 92
        8
 66
     7
 43
1.0
 76
     1
 77
     6
 78
     2
 67
     7
 79
     5
170
     0
171
     0
290
     0
174
     0
 93
        1
 44
-50.0
173
     0
291
     1
 45
0.0
1001
ACAD
1000
AcDbSavedByObjectVersion
1070
     0
  0
VISUALSTYLE
  5
41
102
{ACAD_XDICTIONARY
360
92A
102
}
102
{ACAD_REACTORS
330
29
102
}
330
29
100
AcDbVisualStyle
  2
EdgeColorOff
 70
    22
 71
     2
 72
     2
 73
     0
 90
        0
 40
-0.6
 41
-30.0
 62
     5
 63
     7
 74
     1
 91
        4
 64
     7
 65
   257
 75
     1
175
     1
 42
1.0
 92
        8
 66
     7
 43
1.0
 76
     1
 77
     6
 78
     2
 67
     7
 79
     5
170
     0
171
     0
290
     0
174
     0
 93
        1
 44
0.0
173
     0
291
     1
 45
0.0
1001
ACAD
1000
AcDbSavedByObjectVersion
1070
     0
  0
VISUALSTYLE
  5
38
102
{ACAD_XDICTIONARY
360
918
102
}
102
{ACAD_REACTORS
330
29
102
}
330
29
100
AcDbVisualStyle
  2
Facepattern
 70
    15
 71
     2
 72
     2
 73
     0
 90
        0
 40
-0.6
 41
-30.0
 62
     5
 63
     7
 74
     1
 91
        4
 64
     7
 65
   257
 75
     1
175
     1
 42
1.0
 92
        8
 66
     7
 43
1.0
 76
     1
 77
     6
 78
     2
 67
     7
 79
     5
170
     0
171
     0
290
     0
174
     0
 93
        1
 44
0.0
173
     0
291
     1
 45
0.0
1001
ACAD
1000
AcDbSavedByObjectVersion
1070
     0
  0
VISUALSTYLE
  5
2A
102
{ACAD_XDICTIONARY
360
8FC
102
}
102
{ACAD_REACTORS
330
29
102
}
330
29
100
AcDbVisualStyle
  2
Flat
 70
     0
 71
     2
 72
     1
 73
     1
 90
        2
 40
-0.6
 41
30.0
 62
     5
 63
     7
 74
     0
 91
        0
 64
     7
 65
   257
 75
     1
175
     1
 42
1.0
 92
        8
 66
     7
 43
1.0
 76
     1
 77
     6
 78
     2
 67
     7
 79
     5
170
     0
171
     0
290
     0
174
     0
 93
       13
 44
0.0
173
     0
291
     1
 45
0.0
1001
ACAD
1000
AcDbSavedByObjectVersion
1070
     0
  0
VISUALSTYLE
  5
2B
102
{ACAD_XDICTIONARY
360
8FE
102
}
102
{ACAD_REACTORS
330
29
102
}
330
29
100
AcDbVisualStyle
  2
FlatWithEdges
 70
     1
 71
     2
 72
     1
 73
     1
 90
        2
 40
-0.6
 41
30.0
 62
     5
 63
     7
 74
     1
 91
        0
 64
     7
 65
   257
 75
     1
175
     1
 42
1.0
 92
        0
 66
   257
 43
1.0
 76
     1
 77
     6
 78
     2
 67
     7
 79
     5
170
     0
171
     0
290
     0
174
     0
 93
       13
 44
0.0
173
     0
291
     1
 45
0.0
1001
ACAD
1000
AcDbSavedByObjectVersion
1070
     0
  0
VISUALSTYLE
  5
2C
102
{ACAD_XDICTIONARY
360
900
102
}
102
{ACAD_REACTORS
330
29
102
}
330
29
100
AcDbVisualStyle
  2
Gouraud
 70
     2
 71
     2
 72
     2
 73
     1
 90
        2
 40
-0.6
 41
30.0
 62
     5
 63
     7
 74
     0
 91
        0
 64
     7
 65
   257
 75
     1
175
     1
 42
1.0
 92
        0
 66
     7
 43
1.0
 76
     1
 77
     6
 78
     2
 67
     7
 79
     5
170
     0
171
     0
290
     0
174
     0
 93
       13
 44
0.0
173
     0
291
     1
 45
0.0
1001
ACAD
1000
AcDbSavedByObjectVersion
1070
     0
  0
VISUALSTYLE
  5
2D
102
{ACAD_XDICTIONARY
360
902
102
}
102
{ACAD_REACTORS
330
29
102
}
330
29
100
AcDbVisualStyle
  2
GouraudWithEdges
 70
     3
 71
     2
 72
     2
 73
     1
 90
        2
 40
-0.6
 41
30.0
 62
     5
 63
     7
 74
     1
 91
        0
 64
     7
 65
   257
 75
     1
175
     1
 42
1.0
 92
        0
 66
   257
 43
1.0
 76
     1
 77
     6
 78
     2
 67
     7
 79
     5
170
     0
171
     0
290
     0
174
     0
 93
       13
 44
0.0
173
     0
291
     1
 45
0.0
1001
ACAD
1000
AcDbSavedByObjectVersion
1070
     0
  0
VISUALSTYLE
  5
31
102
{ACAD_XDICTIONARY
360
90A
102
}
102
{ACAD_REACTORS
330
29
102
}
330
29
100
AcDbVisualStyle
  2
Hidden
 70
     6
 71
     1
 72
     2
 73
     2
 90
        0
 40
-0.6
 41
-30.0
 62
     5
 63
     7
 74
     2
 91
        2
 64
     7
 65
   257
 75
     2
175
     1
 42
40.0
 92
        0
 66
   257
 43
1.0
 76
     1
 77
     6
 78
     2
 67
     7
 79
     3
170
     0
171
     0
290
     0
174
     0
 93
        1
 44
0.0
173
     0
291
     0
 45
0.0
1001
ACAD
1000
AcDbSavedByObjectVersion
1070
     0
  0
VISUALSTYLE
  5
3F
102
{ACAD_XDICTIONARY
360
926
102
}
102
{ACAD_REACTORS
330
29
102
}
330
29
100
AcDbVisualStyle
  2
JitterOff
 70
    20
 71
     2
 72
     2
 73
     0
 90
        0
 40
-0.6
 41
-30.0
 62
     5
 63
     7
 74
     1
 91
        4
 64
     7
 65
   257
 75
     1
175
     1
 42
1.0
 92
       10
 66
     7
 43
1.0
 76
     1
 77
     6
 78
     2
 67
     7
 79
     5
170
     0
171
     0
290
     0
174
     0
 93
        1
 44
0.0
173
     0
291
     1
 45
0.0
1001
ACAD
1000
AcDbSavedByObjectVersion
1070
     0
  0
VISUALSTYLE
  5
37
102
{ACAD_XDICTIONARY
360
916
102
}
102
{ACAD_REACTORS
330
29
102
}
330
29
100
AcDbVisualStyle
  2
Linepattern
 70
    14
 71
     2
 72
     2
 73
     0
 90
        0
 40
-0.6
 41
-30.0
 62
     5
 63
     7
 74
     1
 91
        4
 64
     7
 65
   257
 75
     7
175
     7
 42
1.0
 92
        8
 66
     7
 43
1.0
 76
     1
 77
     6
 78
     2
 67
     7
 79
     5
170
     0
171
     0
290
     0
174
     0
 93
        1
 44
0.0
173
     0
291
     1
 45
0.0
1001
ACAD
1000
AcDbSavedByObjectVersion
1070
     0
  0
VISUALSTYLE
  5
40
102
{ACAD_XDICTIONARY
360
928
102
}
102
{ACAD_REACTORS
330
29
102
}
330
29
100
AcDbVisualStyle
  2
OverhangOff
 70
    21
 71
     2
 72
     2
 73
     0
 90
        0
 40
-0.6
 41
-30.0
 62
     5
 63
     7
 74
     1
 91
        4
 64
     7
 65
   257
 75
     1
175
     1
 42
1.0
 92
        9
 66
     7
 43
1.0
 76
     1
 77
     6
 78
     2
 67
     7
 79
     5
170
     0
171
     0
290
     0
174
     0
 93
        1
 44
0.0
173
     0
291
     1
 45
0.0
1001
ACAD
1000
AcDbSavedByObjectVersion
1070
     0
  0
VISUALSTYLE
  5
33
102
{ACAD_XDICTIONARY
360
90E
102
}
102
{ACAD_REACTORS
330
29
102
}
330
29
100
AcDbVisualStyle
  2
Realistic
 70
     8
 71
     2
 72
     3
 73
     0
 90
        2
 40
-0.6
 41
30.0
 62
     5
 63
     7
 74
     0
 91
        0
 64
     7
 65
   257
 75
     1
175
     1
 42
1.0
 92
        8
 66
   257
 43
1.0
 76
     1
 77
     6
 78
     2
 67
     7
 79
     3
170
     0
171
     0
290
     0
174
     0
 93
       13
 44
0.0
173
     0
291
     0
 45
0.0
1001
ACAD
1000
AcDbSavedByObjectVersion
1070
     0
  0
VISUALSTYLE
  5
3E
102
{ACAD_XDICTIONARY
360
924
102
}
102
{ACAD_REACTORS
330
29
102
}
330
29
100
AcDbVisualStyle
  2
Shaded
 70
    27
 71
     2
 72
     2
 73
     1
 90
        2
 40
-0.6
 41
30.0
 62
     5
 63
     7
 74
     0
 91
        4
 64
     7
 65
   257
 75
     1
175
     1
 42
1.0
 92
        8
 66
   257
 43
1.0
 76
     1
 77
     6
 78
     2
 67
     8
 79
     3
170
     0
171
     0
290
     0
174
     0
 93
        5
 44
0.0
173
     0
291
     0
 45
0.0
1001
ACAD
1000
AcDbSavedByObjectVersion
1070
     0
  0
VISUALSTYLE
  5
3D
102
{ACAD_XDICTIONARY
360
922
102
}
102
{ACAD_REACTORS
330
29
102
}
330
29
100
AcDbVisualStyle
  2
Shaded with edges
 70
    26
 71
     2
 72
     2
 73
     1
 90
        2
 40
-0.6
 41
30.0
 62
     5
 63
     7
 74
     1
 91
        2
 64
     7
 65
   257
 75
     2
175
     1
 42
1.0
 92
        8
 66
   257
 43
1.0
 76
     1
 77
     6
 78
     2
 67
     7
 79
     3
170
     0
171
     0
290
     0
174
     0
 93
        5
 44
0.0
173
     0
291
     0
 45
0.0
1001
ACAD
1000
AcDbSavedByObjectVersion
1070
     0
  0
VISUALSTYLE
  5
3A
102
{ACAD_XDICTIONARY
360
91C
102
}
102
{ACAD_REACTORS
330
29
102
}
330
29
100
AcDbVisualStyle
  2
Shades of Gray
 70
    23
 71
     2
 72
     2
 73
     3
 90
        0
 40
-0.6
 41
-30.0
 62
     5
 63
     7
 74
     2
 91
        2
 64
     7
 65
     7
 75
     1
175
     1
 42
40.0
 92
        8
 66
     7
 43
1.0
 76
     1
 77
     6
 78
     2
 67
     7
 79
     3
170
     0
171
     0
290
     0
174
     0
 93
        1
 44
0.0
173
     0
291
     0
 45
0.0
1001
ACAD
1000
AcDbSavedByObjectVersion
1070
     0
  0
VISUALSTYLE
  5
3B
102
{ACAD_XDICTIONARY
360
91E
102
}
102
{ACAD_REACTORS
330
29
102
}
330
29
100
AcDbVisualStyle
  2
Sketchy
 70
    24
 71
     1
 72
     2
 73
     2
 90
        0
 40
-0.6
 41
-30.0
 62
     5
 63
     7
 74
     2
 91
        2
 64
     7
 65
     7
 75
     1
175
     1
 42
40.0
 92
       11
 66
     7
 43
1.0
 76
     1
 77
     6
 78
     2
 67
     7
 79
     6
170
     0
171
     0
290
     0
174
     0
 93
        1
 44
0.0
173
     0
291
     0
 45
0.0
1001
ACAD
1000
AcDbSavedByObjectVersion
1070
     0
  0
VISUALSTYLE
  5
36
102
{ACAD_XDICTIONARY
360
914
102
}
102
{ACAD_REACTORS
330
29
102
}
330
29
100
AcDbVisualStyle
  2
Thicken
 70
    13
 71
     2
 72
     2
 73
     0
 90
        0
 40
-0.6
 41
-30.0
 62
     5
 63
     7
 74
     1
 91
        4
 64
     7
 65
   257
 75
     1
175
     1
 42
1.0
 92
       12
 66
     7
 43
1.0
 76
     1
 77
     6
 78
     2
 67
     7
 79
     5
170
     0
171
     0
290
     0
174
     0
 93
        1
 44
0.0
173
     0
291
     1
 45
0.0
1001
ACAD
1000
AcDbSavedByObjectVersion
1070
     0
  0
VISUALSTYLE
  5
30
102
{ACAD_XDICTIONARY
360
908
102
}
102
{ACAD_REACTORS
330
29
102
}
330
29
100
AcDbVisualStyle
  2
Wireframe
 70
     5
 71
     0
 72
     2
 73
     0
 90
        0
 40
-0.6
 41
-30.0
 62
     5
 63
     7
 74
     1
 91
        4
 64
     7
 65
   257
 75
     1
175
     1
 42
1.0
 92
        0
 66
   257
 43
1.0
 76
     1
 77
     6
 78
     2
 67
     7
 79
     3
170
     0
171
     0
290
     0
174
     0
 93
        1
 44
0.0
173
     0
291
     0
 45
0.0
1001
ACAD
1000
AcDbSavedByObjectVersion
1070
     0
  0
VISUALSTYLE
  5
3C
102
{ACAD_XDICTIONARY
360
920
102
}
102
{ACAD_REACTORS
330
29
102
}
330
29
100
AcDbVisualStyle
  2
X-Ray
 70
    25
 71
     2
 72
     2
 73
     1
 90
        1
 40
0.5
 41
-30.0
 62
     5
 63
     7
 74
     1
 91
        0
 64
     7
 65
   257
 75
     1
175
     1
 42
1.0
 92
        8
 66
     7
 43
1.0
 76
     1
 77
     6
 78
     2
 67
     7
 79
     3
170
     0
171
     0
290
     0
174
     0
 93
       13
 44
0.0
173
     0
291
     0
 45
0.0
1001
ACAD
1000
AcDbSavedByObjectVersion
1070
     0
  0
DICTIONARYVAR
  5
8F0
102
{ACAD_REACTORS
330
8EB
102
}
330
8EB
100
DictionaryVariables
280
     0
  1
1:1
  0
DICTIONARYVAR
  5
8ED
102
{ACAD_REACTORS
330
8EB
102
}
330
8EB
100
DictionaryVariables
280
     0
  1
STANDARD
  0
DICTIONARYVAR
  5
8EC
102
{ACAD_REACTORS
330
8EB
102
}
330
8EB
100
DictionaryVariables
280
     0
  1
STANDARD
  0
DICTIONARYVAR
  5
8EE
102
{ACAD_REACTORS
330
8EB
102
}
330
8EB
100
DictionaryVariables
280
     0
  1
Imperial24
  0
DICTIONARYVAR
  5
8EF
102
{ACAD_REACTORS
330
8EB
102
}
330
8EB
100
DictionaryVariables
280
     0
  1
Imperial24
  0
DICTIONARYVAR
  5
8F3
102
{ACAD_REACTORS
330
8EB
102
}
330
8EB
100
DictionaryVariables
280
     0
  1
1
  0
DICTIONARYVAR
  5
8F2
102
{ACAD_REACTORS
330
8EB
102
}
330
8EB
100
DictionaryVariables
280
     0
  1
0
  0
DICTIONARYVAR
  5
8F1
102
{ACAD_REACTORS
330
8EB
102
}
330
8EB
100
DictionaryVariables
280
     0
  1
127
  0
DICTIONARYVAR
  5
8F4
102
{ACAD_REACTORS
330
8EB
102
}
330
8EB
100
DictionaryVariables
280
     0
  1
2
  0
DICTIONARY
  5
930
330
6A
100
AcDbDictionary
280
     1
281
     1
  3
ACAD_XREC_ROUNDTRIP
360
931
  0
DICTIONARY
  5
934
330
72
100
AcDbDictionary
280
     1
281
     1
  3
ACAD_XREC_ROUNDTRIP
360
935
  0
DICTIONARY
  5
932
330
6E
100
AcDbDictionary
280
     1
281
     1
  3
ACAD_XREC_ROUNDTRIP
360
933
  0
DICTIONARY
  5
1A
330
19
100
AcDbDictionary
280
     1
281
     1
  3
ACAD_XREC_ROUNDTRIP
360
8FA
  3
BUMPTILE
360
1C
  3
DIFFUSETILE
360
1B
  3
OPACITYTILE
360
1F
  3
REFLECTIONTILE
360
1E
  3
REFRACTIONTILE
360
20
  3
SPECULARTILE
360
1D
  0
DICTIONARY
  5
12
330
11
100
AcDbDictionary
280
     1
281
     1
  3
ACAD_XREC_ROUNDTRIP
360
8F9
  3
BUMPTILE
360
14
  3
DIFFUSETILE
360
13
  3
OPACITYTILE
360
17
  3
REFLECTIONTILE
360
16
  3
REFRACTIONTILE
360
18
  3
SPECULARTILE
360
15
  0
DICTIONARY
  5
22
330
21
100
AcDbDictionary
280
     1
281
     1
  3
ACAD_XREC_ROUNDTRIP
360
8FB
  3
BUMPTILE
360
24
  3
DIFFUSETILE
360
23
  3
OPACITYTILE
360
27
  3
REFLECTIONTILE
360
26
  3
REFRACTIONTILE
360
28
  3
SPECULARTILE
360
25
  0
DICTIONARY
  5
92E
330
68
100
AcDbDictionary
280
     1
281
     1
  3
ACAD_XREC_ROUNDTRIP
360
92F
  0
DICTIONARY
  5
8F5
330
64
100
AcDbDictionary
280
     1
281
     1
  3
ACAD_ROUNDTRIP_2008_TABLESTYLE_CELLSTYLEMAP
360
8F6
  3
ACAD_XREC_ROUNDTRIP
360
92C
  0
DICTIONARY
  5
906
330
2F
100
AcDbDictionary
280
     1
281
     1
  3
ACAD_XREC_ROUNDTRIP
360
907
  0
DICTIONARY
  5
904
330
2E
100
AcDbDictionary
280
     1
281
     1
  3
ACAD_XREC_ROUNDTRIP
360
905
  0
DICTIONARY
  5
912
330
35
100
AcDbDictionary
280
     1
281
     1
  3
ACAD_XREC_ROUNDTRIP
360
913
  0
DICTIONARY
  5
91A
330
39
100
AcDbDictionary
280
     1
281
     1
  3
ACAD_XREC_ROUNDTRIP
360
91B
  0
DICTIONARY
  5
90C
330
32
100
AcDbDictionary
280
     1
281
     1
  3
ACAD_XREC_ROUNDTRIP
360
90D
  0
DICTIONARY
  5
910
330
34
100
AcDbDictionary
280
     1
281
     1
  3
ACAD_XREC_ROUNDTRIP
360
911
  0
DICTIONARY
  5
92A
330
41
100
AcDbDictionary
280
     1
281
     1
  3
ACAD_XREC_ROUNDTRIP
360
92B
  0
DICTIONARY
  5
918
330
38
100
AcDbDictionary
280
     1
281
     1
  3
ACAD_XREC_ROUNDTRIP
360
919
  0
DICTIONARY
  5
8FC
330
2A
100
AcDbDictionary
280
     1
281
     1
  3
ACAD_XREC_ROUNDTRIP
360
8FD
  0
DICTIONARY
  5
8FE
330
2B
100
AcDbDictionary
280
     1
281
     1
  3
ACAD_XREC_ROUNDTRIP
360
8FF
  0
DICTIONARY
  5
900
330
2C
100
AcDbDictionary
280
     1
281
     1
  3
ACAD_XREC_ROUNDTRIP
360
901
  0
DICTIONARY
  5
902
330
2D
100
AcDbDictionary
280
     1
281
     1
  3
ACAD_XREC_ROUNDTRIP
360
903
  0
DICTIONARY
  5
90A
330
31
100
AcDbDictionary
280
     1
281
     1
  3
ACAD_XREC_ROUNDTRIP
360
90B
  0
DICTIONARY
  5
926
330
3F
100
AcDbDictionary
280
     1
281
     1
  3
ACAD_XREC_ROUNDTRIP
360
927
  0
DICTIONARY
  5
916
330
37
100
AcDbDictionary
280
     1
281
     1
  3
ACAD_XREC_ROUNDTRIP
360
917
  0
DICTIONARY
  5
928
330
40
100
AcDbDictionary
280
     1
281
     1
  3
ACAD_XREC_ROUNDTRIP
360
929
  0
DICTIONARY
  5
90E
330
33
100
AcDbDictionary
280
     1
281
     1
  3
ACAD_XREC_ROUNDTRIP
360
90F
  0
DICTIONARY
  5
924
330
3E
100
AcDbDictionary
280
     1
281
     1
  3
ACAD_XREC_ROUNDTRIP
360
925
  0
DICTIONARY
  5
922
330
3D
100
AcDbDictionary
280
     1
281
     1
  3
ACAD_XREC_ROUNDTRIP
360
923
  0
DICTIONARY
  5
91C
330
3A
100
AcDbDictionary
280
     1
281
     1
  3
ACAD_XREC_ROUNDTRIP
360
91D
  0
DICTIONARY
  5
91E
330
3B
100
AcDbDictionary
280
     1
281
     1
  3
ACAD_XREC_ROUNDTRIP
360
91F
  0
DICTIONARY
  5
914
330
36
100
AcDbDictionary
280
     1
281
     1
  3
ACAD_XREC_ROUNDTRIP
360
915
  0
DICTIONARY
  5
908
330
30
100
AcDbDictionary
280
     1
281
     1
  3
ACAD_XREC_ROUNDTRIP
360
909
  0
DICTIONARY
  5
920
330
3C
100
AcDbDictionary
280
     1
281
     1
  3
ACAD_XREC_ROUNDTRIP
360
921
  0
XRECORD
  5
931
102
{ACAD_REACTORS
330
930
102
}
330
930
100
AcDbXrecord
280
     1
102
DISPLAYNAME
  1
Imperial24
102
FLAGS
 90
        0
  0
XRECORD
  5
935
102
{ACAD_REACTORS
330
934
102
}
330
934
100
AcDbXrecord
280
     1
102
SHADEPLOT
 70
     0
102
SHADEPLOTRESLEVEL
 70
     2
102
SHADEPLOTCUSTOMDPI
 70
   300
  0
XRECORD
  5
933
102
{ACAD_REACTORS
330
932
102
}
330
932
100
AcDbXrecord
280
     1
102
SHADEPLOT
 70
     0
102
SHADEPLOTRESLEVEL
 70
     2
102
SHADEPLOTCUSTOMDPI
 70
   300
  0
XRECORD
  5
8FA
102
{ACAD_REACTORS
330
1A
102
}
330
1A
100
AcDbXrecord
280
     1
102
MATERIAL
148
0.0
149
0.0
149
0.0
 93
        0
 94
      127
282
     0
 72
     0
 77
     0
171
     0
175
     0
179
     0
273
     0
  0
XRECORD
  5
1C
102
{ACAD_REACTORS
330
1A
102
}
330
1A
100
AcDbXrecord
280
     1
270
     1
271
     1
  0
XRECORD
  5
1B
102
{ACAD_REACTORS
330
1A
102
}
330
1A
100
AcDbXrecord
280
     1
270
     1
271
     1
  0
XRECORD
  5
1F
102
{ACAD_REACTORS
330
1A
102
}
330
1A
100
AcDbXrecord
280
     1
270
     1
271
     1
  0
XRECORD
  5
1E
102
{ACAD_REACTORS
330
1A
102
}
330
1A
100
AcDbXrecord
280
     1
270
     1
271
     1
  0
XRECORD
  5
20
102
{ACAD_REACTORS
330
1A
102
}
330
1A
100
AcDbXrecord
280
     1
270
     1
271
     1
  0
XRECORD
  5
1D
102
{ACAD_REACTORS
330
1A
102
}
330
1A
100
AcDbXrecord
280
     1
270
     1
271
     1
  0
XRECORD
  5
8F9
102
{ACAD_REACTORS
330
12
102
}
330
12
100
AcDbXrecord
280
     1
102
MATERIAL
148
0.0
149
0.0
149
0.0
 93
        0
 94
      127
282
     0
 72
     0
 77
     0
171
     0
175
     0
179
     0
273
     0
  0
XRECORD
  5
14
102
{ACAD_REACTORS
330
12
102
}
330
12
100
AcDbXrecord
280
     1
270
     1
271
     1
  0
XRECORD
  5
13
102
{ACAD_REACTORS
330
12
102
}
330
12
100
AcDbXrecord
280
     1
270
     1
271
     1
  0
XRECORD
  5
17
102
{ACAD_REACTORS
330
12
102
}
330
12
100
AcDbXrecord
280
     1
270
     1
271
     1
  0
XRECORD
  5
16
102
{ACAD_REACTORS
330
12
102
}
330
12
100
AcDbXrecord
280
     1
270
     1
271
     1
  0
XRECORD
  5
18
102
{ACAD_REACTORS
330
12
102
}
330
12
100
AcDbXrecord
280
     1
270
     1
271
     1
  0
XRECORD
  5
15
102
{ACAD_REACTORS
330
12
102
}
330
12
100
AcDbXrecord
280
     1
270
     1
271
     1
  0
XRECORD
  5
8FB
102
{ACAD_REACTORS
330
22
102
}
330
22
100
AcDbXrecord
280
     1
102
MATERIAL
148
0.0
149
0.0
149
0.0
 93
        0
 94
      127
282
     0
 72
     0
 77
     0
171
     0
175
     0
179
     0
273
     0
  0
XRECORD
  5
24
102
{ACAD_REACTORS
330
22
102
}
330
22
100
AcDbXrecord
280
     1
270
     1
271
     1
  0
XRECORD
  5
23
102
{ACAD_REACTORS
330
22
102
}
330
22
100
AcDbXrecord
280
     1
270
     1
271
     1
  0
XRECORD
  5
27
102
{ACAD_REACTORS
330
22
102
}
330
22
100
AcDbXrecord
280
     1
270
     1
271
     1
  0
XRECORD
  5
26
102
{ACAD_REACTORS
330
22
102
}
330
22
100
AcDbXrecord
280
     1
270
     1
271
     1
  0
XRECORD
  5
28
102
{ACAD_REACTORS
330
22
102
}
330
22
100
AcDbXrecord
280
     1
270
     1
271
     1
  0
XRECORD
  5
25
102
{ACAD_REACTORS
330
22
102
}
330
22
100
AcDbXrecord
280
     1
270
     1
271
     1
  0
XRECORD
  5
92F
102
{ACAD_REACTORS
330
92E
102
}
330
92E
100
AcDbXrecord
280
     1
102
DISPLAYNAME
  1
Imperial24
102
FLAGS
 90
        0
  0
CELLSTYLEMAP
  5
8F6
102
{ACAD_REACTORS
330
8F5
102
}
330
8F5
100
AcDbCellStyleMap
 90
        3
300
CELLSTYLE
  1
TABLEFORMAT_BEGIN
 90
        5
170
     1
 91
        0
 92
    32768
 62
   257
 93
        1
300
CONTENTFORMAT
  1
CONTENTFORMAT_BEGIN
 90
        0
 91
        0
 92
      512
 93
        0
300

 40
0.0
140
1.0
 94
        5
 62
     0
340
55
144
0.25
309
CONTENTFORMAT_END
171
     0
 94
        0
309
TABLEFORMAT_END
  1
CELLSTYLE_BEGIN
 90
        1
 91
        1
300
_TITLE
309
CELLSTYLE_END
300
CELLSTYLE
  1
TABLEFORMAT_BEGIN
 90
        5
170
     1
 91
        0
 92
        0
 62
   257
 93
        1
300
CONTENTFORMAT
  1
CONTENTFORMAT_BEGIN
 90
        0
 91
        0
 92
      512
 93
        0
300

 40
0.0
140
1.0
 94
        5
 62
     0
340
55
144
0.18
309
CONTENTFORMAT_END
171
     0
 94
        0
309
TABLEFORMAT_END
  1
CELLSTYLE_BEGIN
 90
        2
 91
        1
300
_HEADER
309
CELLSTYLE_END
300
CELLSTYLE
  1
TABLEFORMAT_BEGIN
 90
        5
170
     1
 91
        0
 92
        0
 62
   257
 93
        1
300
CONTENTFORMAT
  1
CONTENTFORMAT_BEGIN
 90
        0
 91
        0
 92
      512
 93
        0
300

 40
0.0
140
1.0
 94
        2
 62
     0
340
55
144
0.18
309
CONTENTFORMAT_END
171
     0
 94
        0
309
TABLEFORMAT_END
  1
CELLSTYLE_BEGIN
 90
        3
 91
        2
300
_DATA
309
CELLSTYLE_END
  0
XRECORD
  5
92C
102
{ACAD_REACTORS
330
8F5
102
}
330
8F5
100
AcDbXrecord
280
     1
102
ACAD_ROUNDTRIP_PRE2007_TABLESTYLE
 90
      512
 91
        0
  1

 92
      512
 93
        0
  2

 94
      512
 95
        0
  3

  0
XRECORD
  5
907
102
{ACAD_REACTORS
330
906
102
}
330
906
100
AcDbXrecord
280
     1
102
RTVSPost2010Prop28
280
     1
102
RTVSPost2010PropOp28
 70
     1
102
RTVSPost2010Prop29
280
     1
102
RTVSPost2010PropOp29
 70
     1
102
RTVSPost2010Prop30
280
     0
102
RTVSPost2010PropOp30
 70
     1
102
RTVSPost2010Prop31
280
     0
102
RTVSPost2010PropOp31
 70
     1
102
RTVSPost2010Prop32
280
     0
102
RTVSPost2010PropOp32
 70
     1
102
RTVSPost2010Prop33
280
     0
102
RTVSPost2010PropOp33
 70
     1
102
RTVSPost2010Prop34
280
     0
102
RTVSPost2010PropOp34
 70
     1
102
RTVSPost2010Prop35
280
     0
102
RTVSPost2010PropOp35
 70
     1
102
RTVSPost2010Prop36
280
     0
102
RTVSPost2010PropOp36
 70
     1
102
RTVSPost2010Prop37
 90
       50
102
RTVSPost2010PropOp37
 70
     1
102
RTVSPost2010Prop38
140
0.0
102
RTVSPost2010PropOp38
 70
     1
102
RTVSPost2010Prop39
140
1.0
102
RTVSPost2010PropOp39
 70
     1
102
RTVSPost2010Prop40
 90
        0
102
RTVSPost2010PropOp40
 70
     1
102
RTVSPost2010Prop41ColorIndex
 90
       18
102
RTVSPost2010Prop41ColorRGB
 90
        0
102
RTVSPost2010PropOp41
 70
     1
102
RTVSPost2010Prop42
 90
       50
102
RTVSPost2010PropOp42
 70
     1
102
RTVSPost2010Prop43
 90
        3
102
RTVSPost2010PropOp43
 70
     1
102
RTVSPost2010Prop44ColorIndex
 90
        5
102
RTVSPost2010Prop44ColorRGB
 90
      255
102
RTVSPost2010PropOp44
 70
     1
102
RTVSPost2010Prop45
280
     0
102
RTVSPost2010PropOp45
 70
     1
102
RTVSPost2010Prop46
 90
       50
102
RTVSPost2010PropOp46
 70
     1
102
RTVSPost2010Prop47
 90
       50
102
RTVSPost2010PropOp47
 70
     1
102
RTVSPost2010Prop48
 90
       50
102
RTVSPost2010PropOp48
 70
     1
102
RTVSPost2010Prop49
280
     0
102
RTVSPost2010PropOp49
 70
     1
102
RTVSPost2010Prop50
 90
       50
102
RTVSPost2010PropOp50
 70
     1
102
RTVSPost2010Prop51ColorIndex
 90
      256
102
RTVSPost2010Prop51ColorRGB
 90
-16777216
102
RTVSPost2010PropOp51
 70
     0
102
RTVSPost2010Prop52
140
1.0
102
RTVSPost2010PropOp52
 70
     0
102
RTVSPost2010Prop53
 90
        2
102
RTVSPost2010PropOp53
 70
     1
102
RTVSPost2010Prop54
  1
strokes_ogs.tif
102
RTVSPost2010PropOp54
 70
     1
102
RTVSPost2010Prop55
280
     0
102
RTVSPost2010PropOp55
 70
     1
102
RTVSPost2010Prop56
140
1.0
102
RTVSPost2010PropOp56
 70
     1
102
RTVSPost2010Prop57
140
1.0
102
RTVSPost2010PropOp57
 70
     1
102
RTVSPropertyOp0
 70
     1
102
RTVSPropertyOp1
 70
     1
102
RTVSPropertyOp2
 70
     1
102
RTVSPropertyOp3
 70
     1
102
RTVSPropertyOp4
 70
     1
102
RTVSPropertyOp5
 70
     1
102
RTVSPropertyOp6
 70
     1
102
RTVSPropertyOp7
 70
     1
102
RTVSPropertyOp8
 70
     1
102
RTVSPropertyOp9
 70
     1
102
RTVSPropertyOp10
 70
     1
102
RTVSPropertyOp11
 70
     1
102
RTVSPropertyOp12
 70
     1
102
RTVSPropertyOp13
 70
     1
102
RTVSPropertyOp14
 70
     1
102
RTVSPropertyOp15
 70
     1
102
RTVSPropertyOp16
 70
     1
102
RTVSPropertyOp17
 70
     1
102
RTVSPropertyOp18
 70
     1
102
RTVSPropertyOp19
 70
     1
102
RTVSPropertyOp20
 70
     1
102
RTVSPropertyOp21
 70
     1
102
RTVSPropertyOp22
 70
     1
102
RTVSPropertyOp23
 70
     1
102
RTVSPropertyOp24
 70
     1
102
RTVSPropertyOp25
 70
     1
102
RTVSPropertyOp26
 70
     1
102
RTVSPropertyOp27
 70
     1
102
RTVSPropertyOp28
 70
     1
102
RTVSPropertyOp29
 70
     1
102
RTVSPropertyOp30
 70
     1
102
RTVSPropertyOp31
 70
     1
102
RTVSPropertyOp32
 70
     1
102
RTVSPropertyOp33
 70
     1
102
RTVSPropertyOp34
 70
     1
102
RTVSPropertyOp35
 70
     1
102
RTVSPropertyOp36
 70
     1
102
RTVSPropertyOp37
 70
     1
102
RTVSPropertyOp38
 70
     1
102
RTVSPropertyOp39
 70
     1
102
RTVSPropertyOp40
 70
     1
102
RTVSPropertyOp41
 70
     1
102
RTVSPropertyOp42
 70
     1
102
RTVSPropertyOp43
 70
     1
102
RTVSPropertyOp44
 70
     1
102
RTVSPropertyOp45
 70
     1
102
RTVSPropertyOp46
 70
     1
102
RTVSPropertyOp47
 70
     1
102
RTVSPropertyOp48
 70
     1
102
RTVSPropertyOp49
 70
     1
102
RTVSPropertyOp50
 70
     1
102
RTVSPropertyOp51
 70
     0
102
RTVSPropertyOp52
 70
     0
102
RTVSPropertyOp53
 70
     1
102
RTVSPropertyOp54
 70
     1
102
RTVSPropertyOp55
 70
     1
102
RTVSPropertyOp56
 70
     1
102
RTVSPropertyOp57
 70
     1
102
RTVSPropertyOp58
 70
     1
102
RTVSPropertyOp59
 70
     1
102
RTVSPropertyOp60
 70
     1
102
RTVSPropertyOp61
 70
     1
102
RTVSPropertyOp62
 70
     1
  0
XRECORD
  5
905
102
{ACAD_REACTORS
330
904
102
}
330
904
100
AcDbXrecord
280
     1
102
RTVSPost2010Prop28
280
     0
102
RTVSPost2010PropOp28
 70
     1
102
RTVSPost2010Prop29
280
     1
102
RTVSPost2010PropOp29
 70
     1
102
RTVSPost2010Prop30
280
     1
102
RTVSPost2010PropOp30
 70
     1
102
RTVSPost2010Prop31
280
     0
102
RTVSPost2010PropOp31
 70
     1
102
RTVSPost2010Prop32
280
     0
102
RTVSPost2010PropOp32
 70
     1
102
RTVSPost2010Prop33
280
     0
102
RTVSPost2010PropOp33
 70
     1
102
RTVSPost2010Prop34
280
     0
102
RTVSPost2010PropOp34
 70
     1
102
RTVSPost2010Prop35
280
     0
102
RTVSPost2010PropOp35
 70
     1
102
RTVSPost2010Prop36
280
     0
102
RTVSPost2010PropOp36
 70
     1
102
RTVSPost2010Prop37
 90
       50
102
RTVSPost2010PropOp37
 70
     1
102
RTVSPost2010Prop38
140
0.0
102
RTVSPost2010PropOp38
 70
     1
102
RTVSPost2010Prop39
140
1.0
102
RTVSPost2010PropOp39
 70
     1
102
RTVSPost2010Prop40
 90
        0
102
RTVSPost2010PropOp40
 70
     1
102
RTVSPost2010Prop41ColorIndex
 90
       18
102
RTVSPost2010Prop41ColorRGB
 90
        0
102
RTVSPost2010PropOp41
 70
     1
102
RTVSPost2010Prop42
 90
       50
102
RTVSPost2010PropOp42
 70
     1
102
RTVSPost2010Prop43
 90
        3
102
RTVSPost2010PropOp43
 70
     1
102
RTVSPost2010Prop44ColorIndex
 90
        5
102
RTVSPost2010Prop44ColorRGB
 90
      255
102
RTVSPost2010PropOp44
 70
     1
102
RTVSPost2010Prop45
280
     0
102
RTVSPost2010PropOp45
 70
     1
102
RTVSPost2010Prop46
 90
       50
102
RTVSPost2010PropOp46
 70
     1
102
RTVSPost2010Prop47
 90
       50
102
RTVSPost2010PropOp47
 70
     1
102
RTVSPost2010Prop48
 90
       50
102
RTVSPost2010PropOp48
 70
     1
102
RTVSPost2010Prop49
280
     0
102
RTVSPost2010PropOp49
 70
     1
102
RTVSPost2010Prop50
 90
       50
102
RTVSPost2010PropOp50
 70
     1
102
RTVSPost2010Prop51ColorIndex
 90
      256
102
RTVSPost2010Prop51ColorRGB
 90
-16777216
102
RTVSPost2010PropOp51
 70
     0
102
RTVSPost2010Prop52
140
1.0
102
RTVSPost2010PropOp52
 70
     0
102
RTVSPost2010Prop53
 90
        2
102
RTVSPost2010PropOp53
 70
     1
102
RTVSPost2010Prop54
  1
strokes_ogs.tif
102
RTVSPost2010PropOp54
 70
     1
102
RTVSPost2010Prop55
280
     0
102
RTVSPost2010PropOp55
 70
     1
102
RTVSPost2010Prop56
140
1.0
102
RTVSPost2010PropOp56
 70
     1
102
RTVSPost2010Prop57
140
1.0
102
RTVSPost2010PropOp57
 70
     1
102
RTVSPropertyOp0
 70
     1
102
RTVSPropertyOp1
 70
     1
102
RTVSPropertyOp2
 70
     1
102
RTVSPropertyOp3
 70
     1
102
RTVSPropertyOp4
 70
     1
102
RTVSPropertyOp5
 70
     1
102
RTVSPropertyOp6
 70
     1
102
RTVSPropertyOp7
 70
     1
102
RTVSPropertyOp8
 70
     1
102
RTVSPropertyOp9
 70
     1
102
RTVSPropertyOp10
 70
     1
102
RTVSPropertyOp11
 70
     1
102
RTVSPropertyOp12
 70
     1
102
RTVSPropertyOp13
 70
     1
102
RTVSPropertyOp14
 70
     1
102
RTVSPropertyOp15
 70
     1
102
RTVSPropertyOp16
 70
     1
102
RTVSPropertyOp17
 70
     1
102
RTVSPropertyOp18
 70
     1
102
RTVSPropertyOp19
 70
     1
102
RTVSPropertyOp20
 70
     1
102
RTVSPropertyOp21
 70
     1
102
RTVSPropertyOp22
 70
     1
102
RTVSPropertyOp23
 70
     1
102
RTVSPropertyOp24
 70
     1
102
RTVSPropertyOp25
 70
     1
102
RTVSPropertyOp26
 70
     1
102
RTVSPropertyOp27
 70
     1
102
RTVSPropertyOp28
 70
     1
102
RTVSPropertyOp29
 70
     1
102
RTVSPropertyOp30
 70
     1
102
RTVSPropertyOp31
 70
     1
102
RTVSPropertyOp32
 70
     1
102
RTVSPropertyOp33
 70
     1
102
RTVSPropertyOp34
 70
     1
102
RTVSPropertyOp35
 70
     1
102
RTVSPropertyOp36
 70
     1
102
RTVSPropertyOp37
 70
     1
102
RTVSPropertyOp38
 70
     1
102
RTVSPropertyOp39
 70
     1
102
RTVSPropertyOp40
 70
     1
102
RTVSPropertyOp41
 70
     1
102
RTVSPropertyOp42
 70
     1
102
RTVSPropertyOp43
 70
     1
102
RTVSPropertyOp44
 70
     1
102
RTVSPropertyOp45
 70
     1
102
RTVSPropertyOp46
 70
     1
102
RTVSPropertyOp47
 70
     1
102
RTVSPropertyOp48
 70
     1
102
RTVSPropertyOp49
 70
     1
102
RTVSPropertyOp50
 70
     1
102
RTVSPropertyOp51
 70
     0
102
RTVSPropertyOp52
 70
     0
102
RTVSPropertyOp53
 70
     1
102
RTVSPropertyOp54
 70
     1
102
RTVSPropertyOp55
 70
     1
102
RTVSPropertyOp56
 70
     1
102
RTVSPropertyOp57
 70
     1
102
RTVSPropertyOp58
 70
     1
102
RTVSPropertyOp59
 70
     1
102
RTVSPropertyOp60
 70
     1
102
RTVSPropertyOp61
 70
     1
102
RTVSPropertyOp62
 70
     1
  0
XRECORD
  5
913
102
{ACAD_REACTORS
330
912
102
}
330
912
100
AcDbXrecord
280
     1
102
RTVSPost2010Prop28
280
     0
102
RTVSPost2010PropOp28
 70
     1
102
RTVSPost2010Prop29
280
     1
102
RTVSPost2010PropOp29
 70
     1
102
RTVSPost2010Prop30
280
     1
102
RTVSPost2010PropOp30
 70
     1
102
RTVSPost2010Prop31
280
     0
102
RTVSPost2010PropOp31
 70
     1
102
RTVSPost2010Prop32
280
     0
102
RTVSPost2010PropOp32
 70
     1
102
RTVSPost2010Prop33
280
     0
102
RTVSPost2010PropOp33
 70
     1
102
RTVSPost2010Prop34
280
     0
102
RTVSPost2010PropOp34
 70
     1
102
RTVSPost2010Prop35
280
     0
102
RTVSPost2010PropOp35
 70
     1
102
RTVSPost2010Prop36
280
     0
102
RTVSPost2010PropOp36
 70
     1
102
RTVSPost2010Prop37
 90
       50
102
RTVSPost2010PropOp37
 70
     1
102
RTVSPost2010Prop38
140
0.0
102
RTVSPost2010PropOp38
 70
     1
102
RTVSPost2010Prop39
140
1.0
102
RTVSPost2010PropOp39
 70
     1
102
RTVSPost2010Prop40
 90
        0
102
RTVSPost2010PropOp40
 70
     1
102
RTVSPost2010Prop41ColorIndex
 90
       18
102
RTVSPost2010Prop41ColorRGB
 90
        0
102
RTVSPost2010PropOp41
 70
     1
102
RTVSPost2010Prop42
 90
       50
102
RTVSPost2010PropOp42
 70
     1
102
RTVSPost2010Prop43
 90
        3
102
RTVSPost2010PropOp43
 70
     1
102
RTVSPost2010Prop44ColorIndex
 90
        5
102
RTVSPost2010Prop44ColorRGB
 90
      255
102
RTVSPost2010PropOp44
 70
     1
102
RTVSPost2010Prop45
280
     0
102
RTVSPost2010PropOp45
 70
     1
102
RTVSPost2010Prop46
 90
       50
102
RTVSPost2010PropOp46
 70
     1
102
RTVSPost2010Prop47
 90
       50
102
RTVSPost2010PropOp47
 70
     1
102
RTVSPost2010Prop48
 90
       50
102
RTVSPost2010PropOp48
 70
     1
102
RTVSPost2010Prop49
280
     0
102
RTVSPost2010PropOp49
 70
     1
102
RTVSPost2010Prop50
 90
       50
102
RTVSPost2010PropOp50
 70
     1
102
RTVSPost2010Prop51ColorIndex
 90
      256
102
RTVSPost2010Prop51ColorRGB
 90
-16777216
102
RTVSPost2010PropOp51
 70
     0
102
RTVSPost2010Prop52
140
1.0
102
RTVSPost2010PropOp52
 70
     0
102
RTVSPost2010Prop53
 90
        2
102
RTVSPost2010PropOp53
 70
     1
102
RTVSPost2010Prop54
  1
strokes_ogs.tif
102
RTVSPost2010PropOp54
 70
     1
102
RTVSPost2010Prop55
280
     0
102
RTVSPost2010PropOp55
 70
     1
102
RTVSPost2010Prop56
140
1.0
102
RTVSPost2010PropOp56
 70
     1
102
RTVSPost2010Prop57
140
1.0
102
RTVSPost2010PropOp57
 70
     1
102
RTVSPropertyOp0
 70
     1
102
RTVSPropertyOp1
 70
     1
102
RTVSPropertyOp2
 70
     1
102
RTVSPropertyOp3
 70
     1
102
RTVSPropertyOp4
 70
     1
102
RTVSPropertyOp5
 70
     1
102
RTVSPropertyOp6
 70
     1
102
RTVSPropertyOp7
 70
     1
102
RTVSPropertyOp8
 70
     1
102
RTVSPropertyOp9
 70
     1
102
RTVSPropertyOp10
 70
     1
102
RTVSPropertyOp11
 70
     1
102
RTVSPropertyOp12
 70
     1
102
RTVSPropertyOp13
 70
     1
102
RTVSPropertyOp14
 70
     1
102
RTVSPropertyOp15
 70
     1
102
RTVSPropertyOp16
 70
     1
102
RTVSPropertyOp17
 70
     1
102
RTVSPropertyOp18
 70
     1
102
RTVSPropertyOp19
 70
     1
102
RTVSPropertyOp20
 70
     1
102
RTVSPropertyOp21
 70
     1
102
RTVSPropertyOp22
 70
     1
102
RTVSPropertyOp23
 70
     1
102
RTVSPropertyOp24
 70
     1
102
RTVSPropertyOp25
 70
     1
102
RTVSPropertyOp26
 70
     1
102
RTVSPropertyOp27
 70
     1
102
RTVSPropertyOp28
 70
     1
102
RTVSPropertyOp29
 70
     1
102
RTVSPropertyOp30
 70
     1
102
RTVSPropertyOp31
 70
     1
102
RTVSPropertyOp32
 70
     1
102
RTVSPropertyOp33
 70
     1
102
RTVSPropertyOp34
 70
     1
102
RTVSPropertyOp35
 70
     1
102
RTVSPropertyOp36
 70
     1
102
RTVSPropertyOp37
 70
     1
102
RTVSPropertyOp38
 70
     1
102
RTVSPropertyOp39
 70
     1
102
RTVSPropertyOp40
 70
     1
102
RTVSPropertyOp41
 70
     1
102
RTVSPropertyOp42
 70
     1
102
RTVSPropertyOp43
 70
     1
102
RTVSPropertyOp44
 70
     1
102
RTVSPropertyOp45
 70
     1
102
RTVSPropertyOp46
 70
     1
102
RTVSPropertyOp47
 70
     1
102
RTVSPropertyOp48
 70
     1
102
RTVSPropertyOp49
 70
     1
102
RTVSPropertyOp50
 70
     1
102
RTVSPropertyOp51
 70
     0
102
RTVSPropertyOp52
 70
     0
102
RTVSPropertyOp53
 70
     1
102
RTVSPropertyOp54
 70
     1
102
RTVSPropertyOp55
 70
     1
102
RTVSPropertyOp56
 70
     1
102
RTVSPropertyOp57
 70
     1
102
RTVSPropertyOp58
 70
     1
102
RTVSPropertyOp59
 70
     1
102
RTVSPropertyOp60
 70
     1
102
RTVSPropertyOp61
 70
     1
102
RTVSPropertyOp62
 70
     1
  0
XRECORD
  5
91B
102
{ACAD_REACTORS
330
91A
102
}
330
91A
100
AcDbXrecord
280
     1
102
RTVSPost2010Prop28
280
     0
102
RTVSPost2010PropOp28
 70
     1
102
RTVSPost2010Prop29
280
     1
102
RTVSPost2010PropOp29
 70
     1
102
RTVSPost2010Prop30
280
     1
102
RTVSPost2010PropOp30
 70
     1
102
RTVSPost2010Prop31
280
     0
102
RTVSPost2010PropOp31
 70
     1
102
RTVSPost2010Prop32
280
     0
102
RTVSPost2010PropOp32
 70
     1
102
RTVSPost2010Prop33
280
     0
102
RTVSPost2010PropOp33
 70
     1
102
RTVSPost2010Prop34
280
     0
102
RTVSPost2010PropOp34
 70
     1
102
RTVSPost2010Prop35
280
     0
102
RTVSPost2010PropOp35
 70
     1
102
RTVSPost2010Prop36
280
     0
102
RTVSPost2010PropOp36
 70
     1
102
RTVSPost2010Prop37
 90
       50
102
RTVSPost2010PropOp37
 70
     1
102
RTVSPost2010Prop38
140
0.0
102
RTVSPost2010PropOp38
 70
     1
102
RTVSPost2010Prop39
140
1.0
102
RTVSPost2010PropOp39
 70
     1
102
RTVSPost2010Prop40
 90
        0
102
RTVSPost2010PropOp40
 70
     1
102
RTVSPost2010Prop41ColorIndex
 90
       18
102
RTVSPost2010Prop41ColorRGB
 90
        0
102
RTVSPost2010PropOp41
 70
     1
102
RTVSPost2010Prop42
 90
       50
102
RTVSPost2010PropOp42
 70
     1
102
RTVSPost2010Prop43
 90
        3
102
RTVSPost2010PropOp43
 70
     1
102
RTVSPost2010Prop44ColorIndex
 90
        5
102
RTVSPost2010Prop44ColorRGB
 90
      255
102
RTVSPost2010PropOp44
 70
     1
102
RTVSPost2010Prop45
280
     0
102
RTVSPost2010PropOp45
 70
     1
102
RTVSPost2010Prop46
 90
       50
102
RTVSPost2010PropOp46
 70
     1
102
RTVSPost2010Prop47
 90
       50
102
RTVSPost2010PropOp47
 70
     1
102
RTVSPost2010Prop48
 90
       50
102
RTVSPost2010PropOp48
 70
     1
102
RTVSPost2010Prop49
280
     0
102
RTVSPost2010PropOp49
 70
     1
102
RTVSPost2010Prop50
 90
       50
102
RTVSPost2010PropOp50
 70
     1
102
RTVSPost2010Prop51ColorIndex
 90
      256
102
RTVSPost2010Prop51ColorRGB
 90
-16777216
102
RTVSPost2010PropOp51
 70
     0
102
RTVSPost2010Prop52
140
1.0
102
RTVSPost2010PropOp52
 70
     0
102
RTVSPost2010Prop53
 90
        2
102
RTVSPost2010PropOp53
 70
     1
102
RTVSPost2010Prop54
  1
strokes_ogs.tif
102
RTVSPost2010PropOp54
 70
     1
102
RTVSPost2010Prop55
280
     0
102
RTVSPost2010PropOp55
 70
     1
102
RTVSPost2010Prop56
140
1.0
102
RTVSPost2010PropOp56
 70
     1
102
RTVSPost2010Prop57
140
1.0
102
RTVSPost2010PropOp57
 70
     1
102
RTVSPropertyOp0
 70
     1
102
RTVSPropertyOp1
 70
     1
102
RTVSPropertyOp2
 70
     1
102
RTVSPropertyOp3
 70
     1
102
RTVSPropertyOp4
 70
     1
102
RTVSPropertyOp5
 70
     1
102
RTVSPropertyOp6
 70
     1
102
RTVSPropertyOp7
 70
     1
102
RTVSPropertyOp8
 70
     1
102
RTVSPropertyOp9
 70
     1
102
RTVSPropertyOp10
 70
     1
102
RTVSPropertyOp11
 70
     1
102
RTVSPropertyOp12
 70
     1
102
RTVSPropertyOp13
 70
     1
102
RTVSPropertyOp14
 70
     1
102
RTVSPropertyOp15
 70
     1
102
RTVSPropertyOp16
 70
     1
102
RTVSPropertyOp17
 70
     1
102
RTVSPropertyOp18
 70
     1
102
RTVSPropertyOp19
 70
     1
102
RTVSPropertyOp20
 70
     1
102
RTVSPropertyOp21
 70
     1
102
RTVSPropertyOp22
 70
     1
102
RTVSPropertyOp23
 70
     1
102
RTVSPropertyOp24
 70
     1
102
RTVSPropertyOp25
 70
     1
102
RTVSPropertyOp26
 70
     1
102
RTVSPropertyOp27
 70
     1
102
RTVSPropertyOp28
 70
     1
102
RTVSPropertyOp29
 70
     1
102
RTVSPropertyOp30
 70
     1
102
RTVSPropertyOp31
 70
     1
102
RTVSPropertyOp32
 70
     1
102
RTVSPropertyOp33
 70
     1
102
RTVSPropertyOp34
 70
     1
102
RTVSPropertyOp35
 70
     1
102
RTVSPropertyOp36
 70
     1
102
RTVSPropertyOp37
 70
     1
102
RTVSPropertyOp38
 70
     1
102
RTVSPropertyOp39
 70
     1
102
RTVSPropertyOp40
 70
     1
102
RTVSPropertyOp41
 70
     1
102
RTVSPropertyOp42
 70
     1
102
RTVSPropertyOp43
 70
     1
102
RTVSPropertyOp44
 70
     1
102
RTVSPropertyOp45
 70
     1
102
RTVSPropertyOp46
 70
     1
102
RTVSPropertyOp47
 70
     1
102
RTVSPropertyOp48
 70
     1
102
RTVSPropertyOp49
 70
     1
102
RTVSPropertyOp50
 70
     1
102
RTVSPropertyOp51
 70
     0
102
RTVSPropertyOp52
 70
     0
102
RTVSPropertyOp53
 70
     1
102
RTVSPropertyOp54
 70
     1
102
RTVSPropertyOp55
 70
     1
102
RTVSPropertyOp56
 70
     1
102
RTVSPropertyOp57
 70
     1
102
RTVSPropertyOp58
 70
     1
102
RTVSPropertyOp59
 70
     1
102
RTVSPropertyOp60
 70
     1
102
RTVSPropertyOp61
 70
     1
102
RTVSPropertyOp62
 70
     1
  0
XRECORD
  5
90D
102
{ACAD_REACTORS
330
90C
102
}
330
90C
100
AcDbXrecord
280
     1
102
RTVSPost2010Prop28
280
     0
102
RTVSPost2010PropOp28
 70
     1
102
RTVSPost2010Prop29
280
     1
102
RTVSPost2010PropOp29
 70
     1
102
RTVSPost2010Prop30
280
     1
102
RTVSPost2010PropOp30
 70
     1
102
RTVSPost2010Prop31
280
     0
102
RTVSPost2010PropOp31
 70
     1
102
RTVSPost2010Prop32
280
     0
102
RTVSPost2010PropOp32
 70
     1
102
RTVSPost2010Prop33
280
     0
102
RTVSPost2010PropOp33
 70
     1
102
RTVSPost2010Prop34
280
     0
102
RTVSPost2010PropOp34
 70
     1
102
RTVSPost2010Prop35
280
     0
102
RTVSPost2010PropOp35
 70
     1
102
RTVSPost2010Prop36
280
     0
102
RTVSPost2010PropOp36
 70
     1
102
RTVSPost2010Prop37
 90
       50
102
RTVSPost2010PropOp37
 70
     1
102
RTVSPost2010Prop38
140
0.0
102
RTVSPost2010PropOp38
 70
     1
102
RTVSPost2010Prop39
140
1.0
102
RTVSPost2010PropOp39
 70
     1
102
RTVSPost2010Prop40
 90
        0
102
RTVSPost2010PropOp40
 70
     1
102
RTVSPost2010Prop41ColorIndex
 90
       18
102
RTVSPost2010Prop41ColorRGB
 90
        0
102
RTVSPost2010PropOp41
 70
     1
102
RTVSPost2010Prop42
 90
       50
102
RTVSPost2010PropOp42
 70
     1
102
RTVSPost2010Prop43
 90
        3
102
RTVSPost2010PropOp43
 70
     1
102
RTVSPost2010Prop44ColorIndex
 90
        5
102
RTVSPost2010Prop44ColorRGB
 90
      255
102
RTVSPost2010PropOp44
 70
     1
102
RTVSPost2010Prop45
280
     0
102
RTVSPost2010PropOp45
 70
     1
102
RTVSPost2010Prop46
 90
       50
102
RTVSPost2010PropOp46
 70
     1
102
RTVSPost2010Prop47
 90
       50
102
RTVSPost2010PropOp47
 70
     1
102
RTVSPost2010Prop48
 90
       50
102
RTVSPost2010PropOp48
 70
     1
102
RTVSPost2010Prop49
280
     0
102
RTVSPost2010PropOp49
 70
     1
102
RTVSPost2010Prop50
 90
       50
102
RTVSPost2010PropOp50
 70
     1
102
RTVSPost2010Prop51ColorIndex
 90
      256
102
RTVSPost2010Prop51ColorRGB
 90
-16777216
102
RTVSPost2010PropOp51
 70
     0
102
RTVSPost2010Prop52
140
1.0
102
RTVSPost2010PropOp52
 70
     0
102
RTVSPost2010Prop53
 90
        2
102
RTVSPost2010PropOp53
 70
     1
102
RTVSPost2010Prop54
  1
strokes_ogs.tif
102
RTVSPost2010PropOp54
 70
     1
102
RTVSPost2010Prop55
280
     0
102
RTVSPost2010PropOp55
 70
     1
102
RTVSPost2010Prop56
140
1.0
102
RTVSPost2010PropOp56
 70
     1
102
RTVSPost2010Prop57
140
1.0
102
RTVSPost2010PropOp57
 70
     1
102
RTVSPropertyOp0
 70
     1
102
RTVSPropertyOp1
 70
     1
102
RTVSPropertyOp2
 70
     1
102
RTVSPropertyOp3
 70
     1
102
RTVSPropertyOp4
 70
     1
102
RTVSPropertyOp5
 70
     1
102
RTVSPropertyOp6
 70
     1
102
RTVSPropertyOp7
 70
     1
102
RTVSPropertyOp8
 70
     1
102
RTVSPropertyOp9
 70
     1
102
RTVSPropertyOp10
 70
     1
102
RTVSPropertyOp11
 70
     1
102
RTVSPropertyOp12
 70
     1
102
RTVSPropertyOp13
 70
     1
102
RTVSPropertyOp14
 70
     1
102
RTVSPropertyOp15
 70
     1
102
RTVSPropertyOp16
 70
     1
102
RTVSPropertyOp17
 70
     1
102
RTVSPropertyOp18
 70
     1
102
RTVSPropertyOp19
 70
     1
102
RTVSPropertyOp20
 70
     1
102
RTVSPropertyOp21
 70
     1
102
RTVSPropertyOp22
 70
     1
102
RTVSPropertyOp23
 70
     1
102
RTVSPropertyOp24
 70
     1
102
RTVSPropertyOp25
 70
     1
102
RTVSPropertyOp26
 70
     1
102
RTVSPropertyOp27
 70
     1
102
RTVSPropertyOp28
 70
     1
102
RTVSPropertyOp29
 70
     1
102
RTVSPropertyOp30
 70
     1
102
RTVSPropertyOp31
 70
     1
102
RTVSPropertyOp32
 70
     1
102
RTVSPropertyOp33
 70
     1
102
RTVSPropertyOp34
 70
     1
102
RTVSPropertyOp35
 70
     1
102
RTVSPropertyOp36
 70
     1
102
RTVSPropertyOp37
 70
     1
102
RTVSPropertyOp38
 70
     1
102
RTVSPropertyOp39
 70
     1
102
RTVSPropertyOp40
 70
     1
102
RTVSPropertyOp41
 70
     1
102
RTVSPropertyOp42
 70
     1
102
RTVSPropertyOp43
 70
     1
102
RTVSPropertyOp44
 70
     1
102
RTVSPropertyOp45
 70
     1
102
RTVSPropertyOp46
 70
     1
102
RTVSPropertyOp47
 70
     1
102
RTVSPropertyOp48
 70
     1
102
RTVSPropertyOp49
 70
     1
102
RTVSPropertyOp50
 70
     1
102
RTVSPropertyOp51
 70
     0
102
RTVSPropertyOp52
 70
     0
102
RTVSPropertyOp53
 70
     1
102
RTVSPropertyOp54
 70
     1
102
RTVSPropertyOp55
 70
     1
102
RTVSPropertyOp56
 70
     1
102
RTVSPropertyOp57
 70
     1
102
RTVSPropertyOp58
 70
     1
102
RTVSPropertyOp59
 70
     1
102
RTVSPropertyOp60
 70
     1
102
RTVSPropertyOp61
 70
     1
102
RTVSPropertyOp62
 70
     1
  0
XRECORD
  5
911
102
{ACAD_REACTORS
330
910
102
}
330
910
100
AcDbXrecord
280
     1
102
RTVSPost2010Prop28
280
     0
102
RTVSPost2010PropOp28
 70
     1
102
RTVSPost2010Prop29
280
     1
102
RTVSPost2010PropOp29
 70
     1
102
RTVSPost2010Prop30
280
     1
102
RTVSPost2010PropOp30
 70
     1
102
RTVSPost2010Prop31
280
     0
102
RTVSPost2010PropOp31
 70
     1
102
RTVSPost2010Prop32
280
     0
102
RTVSPost2010PropOp32
 70
     1
102
RTVSPost2010Prop33
280
     0
102
RTVSPost2010PropOp33
 70
     1
102
RTVSPost2010Prop34
280
     0
102
RTVSPost2010PropOp34
 70
     1
102
RTVSPost2010Prop35
280
     0
102
RTVSPost2010PropOp35
 70
     1
102
RTVSPost2010Prop36
280
     0
102
RTVSPost2010PropOp36
 70
     1
102
RTVSPost2010Prop37
 90
       50
102
RTVSPost2010PropOp37
 70
     1
102
RTVSPost2010Prop38
140
0.0
102
RTVSPost2010PropOp38
 70
     1
102
RTVSPost2010Prop39
140
1.0
102
RTVSPost2010PropOp39
 70
     1
102
RTVSPost2010Prop40
 90
        0
102
RTVSPost2010PropOp40
 70
     1
102
RTVSPost2010Prop41ColorIndex
 90
       18
102
RTVSPost2010Prop41ColorRGB
 90
        0
102
RTVSPost2010PropOp41
 70
     1
102
RTVSPost2010Prop42
 90
       50
102
RTVSPost2010PropOp42
 70
     1
102
RTVSPost2010Prop43
 90
        3
102
RTVSPost2010PropOp43
 70
     1
102
RTVSPost2010Prop44ColorIndex
 90
        5
102
RTVSPost2010Prop44ColorRGB
 90
      255
102
RTVSPost2010PropOp44
 70
     1
102
RTVSPost2010Prop45
280
     0
102
RTVSPost2010PropOp45
 70
     1
102
RTVSPost2010Prop46
 90
       50
102
RTVSPost2010PropOp46
 70
     1
102
RTVSPost2010Prop47
 90
       50
102
RTVSPost2010PropOp47
 70
     1
102
RTVSPost2010Prop48
 90
       50
102
RTVSPost2010PropOp48
 70
     1
102
RTVSPost2010Prop49
280
     0
102
RTVSPost2010PropOp49
 70
     1
102
RTVSPost2010Prop50
 90
       50
102
RTVSPost2010PropOp50
 70
     1
102
RTVSPost2010Prop51ColorIndex
 90
      256
102
RTVSPost2010Prop51ColorRGB
 90
-16777216
102
RTVSPost2010PropOp51
 70
     0
102
RTVSPost2010Prop52
140
1.0
102
RTVSPost2010PropOp52
 70
     0
102
RTVSPost2010Prop53
 90
        2
102
RTVSPost2010PropOp53
 70
     1
102
RTVSPost2010Prop54
  1
strokes_ogs.tif
102
RTVSPost2010PropOp54
 70
     1
102
RTVSPost2010Prop55
280
     0
102
RTVSPost2010PropOp55
 70
     1
102
RTVSPost2010Prop56
140
1.0
102
RTVSPost2010PropOp56
 70
     1
102
RTVSPost2010Prop57
140
1.0
102
RTVSPost2010PropOp57
 70
     1
102
RTVSPropertyOp0
 70
     1
102
RTVSPropertyOp1
 70
     1
102
RTVSPropertyOp2
 70
     1
102
RTVSPropertyOp3
 70
     1
102
RTVSPropertyOp4
 70
     1
102
RTVSPropertyOp5
 70
     1
102
RTVSPropertyOp6
 70
     1
102
RTVSPropertyOp7
 70
     1
102
RTVSPropertyOp8
 70
     1
102
RTVSPropertyOp9
 70
     1
102
RTVSPropertyOp10
 70
     1
102
RTVSPropertyOp11
 70
     1
102
RTVSPropertyOp12
 70
     1
102
RTVSPropertyOp13
 70
     1
102
RTVSPropertyOp14
 70
     1
102
RTVSPropertyOp15
 70
     1
102
RTVSPropertyOp16
 70
     1
102
RTVSPropertyOp17
 70
     1
102
RTVSPropertyOp18
 70
     1
102
RTVSPropertyOp19
 70
     1
102
RTVSPropertyOp20
 70
     1
102
RTVSPropertyOp21
 70
     1
102
RTVSPropertyOp22
 70
     1
102
RTVSPropertyOp23
 70
     1
102
RTVSPropertyOp24
 70
     1
102
RTVSPropertyOp25
 70
     1
102
RTVSPropertyOp26
 70
     1
102
RTVSPropertyOp27
 70
     1
102
RTVSPropertyOp28
 70
     1
102
RTVSPropertyOp29
 70
     1
102
RTVSPropertyOp30
 70
     1
102
RTVSPropertyOp31
 70
     1
102
RTVSPropertyOp32
 70
     1
102
RTVSPropertyOp33
 70
     1
102
RTVSPropertyOp34
 70
     1
102
RTVSPropertyOp35
 70
     1
102
RTVSPropertyOp36
 70
     1
102
RTVSPropertyOp37
 70
     1
102
RTVSPropertyOp38
 70
     1
102
RTVSPropertyOp39
 70
     1
102
RTVSPropertyOp40
 70
     1
102
RTVSPropertyOp41
 70
     1
102
RTVSPropertyOp42
 70
     1
102
RTVSPropertyOp43
 70
     1
102
RTVSPropertyOp44
 70
     1
102
RTVSPropertyOp45
 70
     1
102
RTVSPropertyOp46
 70
     1
102
RTVSPropertyOp47
 70
     1
102
RTVSPropertyOp48
 70
     1
102
RTVSPropertyOp49
 70
     1
102
RTVSPropertyOp50
 70
     1
102
RTVSPropertyOp51
 70
     0
102
RTVSPropertyOp52
 70
     0
102
RTVSPropertyOp53
 70
     1
102
RTVSPropertyOp54
 70
     1
102
RTVSPropertyOp55
 70
     1
102
RTVSPropertyOp56
 70
     1
102
RTVSPropertyOp57
 70
     1
102
RTVSPropertyOp58
 70
     1
102
RTVSPropertyOp59
 70
     1
102
RTVSPropertyOp60
 70
     1
102
RTVSPropertyOp61
 70
     1
102
RTVSPropertyOp62
 70
     1
  0
XRECORD
  5
92B
102
{ACAD_REACTORS
330
92A
102
}
330
92A
100
AcDbXrecord
280
     1
102
RTVSPost2010Prop28
280
     0
102
RTVSPost2010PropOp28
 70
     1
102
RTVSPost2010Prop29
280
     1
102
RTVSPost2010PropOp29
 70
     1
102
RTVSPost2010Prop30
280
     1
102
RTVSPost2010PropOp30
 70
     1
102
RTVSPost2010Prop31
280
     0
102
RTVSPost2010PropOp31
 70
     1
102
RTVSPost2010Prop32
280
     0
102
RTVSPost2010PropOp32
 70
     1
102
RTVSPost2010Prop33
280
     0
102
RTVSPost2010PropOp33
 70
     1
102
RTVSPost2010Prop34
280
     0
102
RTVSPost2010PropOp34
 70
     1
102
RTVSPost2010Prop35
280
     0
102
RTVSPost2010PropOp35
 70
     1
102
RTVSPost2010Prop36
280
     0
102
RTVSPost2010PropOp36
 70
     1
102
RTVSPost2010Prop37
 90
       50
102
RTVSPost2010PropOp37
 70
     0
102
RTVSPost2010Prop38
140
0.0
102
RTVSPost2010PropOp38
 70
     0
102
RTVSPost2010Prop39
140
1.0
102
RTVSPost2010PropOp39
 70
     0
102
RTVSPost2010Prop40
 90
        0
102
RTVSPost2010PropOp40
 70
     0
102
RTVSPost2010Prop41ColorIndex
 90
       18
102
RTVSPost2010Prop41ColorRGB
 90
        0
102
RTVSPost2010PropOp41
 70
     0
102
RTVSPost2010Prop42
 90
       50
102
RTVSPost2010PropOp42
 70
     0
102
RTVSPost2010Prop43
 90
        3
102
RTVSPost2010PropOp43
 70
     0
102
RTVSPost2010Prop44ColorIndex
 90
        5
102
RTVSPost2010Prop44ColorRGB
 90
      255
102
RTVSPost2010PropOp44
 70
     0
102
RTVSPost2010Prop45
280
     0
102
RTVSPost2010PropOp45
 70
     1
102
RTVSPost2010Prop46
 90
       50
102
RTVSPost2010PropOp46
 70
     0
102
RTVSPost2010Prop47
 90
       50
102
RTVSPost2010PropOp47
 70
     0
102
RTVSPost2010Prop48
 90
       50
102
RTVSPost2010PropOp48
 70
     0
102
RTVSPost2010Prop49
280
     0
102
RTVSPost2010PropOp49
 70
     1
102
RTVSPost2010Prop50
 90
       50
102
RTVSPost2010PropOp50
 70
     0
102
RTVSPost2010Prop51ColorIndex
 90
      256
102
RTVSPost2010Prop51ColorRGB
 90
-16777216
102
RTVSPost2010PropOp51
 70
     0
102
RTVSPost2010Prop52
140
1.0
102
RTVSPost2010PropOp52
 70
     0
102
RTVSPost2010Prop53
 90
        2
102
RTVSPost2010PropOp53
 70
     0
102
RTVSPost2010Prop54
  1
strokes_ogs.tif
102
RTVSPost2010PropOp54
 70
     0
102
RTVSPost2010Prop55
280
     0
102
RTVSPost2010PropOp55
 70
     1
102
RTVSPost2010Prop56
140
1.0
102
RTVSPost2010PropOp56
 70
     0
102
RTVSPost2010Prop57
140
1.0
102
RTVSPost2010PropOp57
 70
     0
102
RTVSPropertyOp0
 70
     0
102
RTVSPropertyOp1
 70
     0
102
RTVSPropertyOp2
 70
     0
102
RTVSPropertyOp3
 70
     0
102
RTVSPropertyOp4
 70
     0
102
RTVSPropertyOp5
 70
     0
102
RTVSPropertyOp6
 70
     0
102
RTVSPropertyOp7
 70
     0
102
RTVSPropertyOp8
 70
     0
102
RTVSPropertyOp9
 70
     0
102
RTVSPropertyOp10
 70
     0
102
RTVSPropertyOp11
 70
     0
102
RTVSPropertyOp12
 70
     0
102
RTVSPropertyOp13
 70
     0
102
RTVSPropertyOp14
 70
     2
102
RTVSPropertyOp15
 70
     0
102
RTVSPropertyOp16
 70
     0
102
RTVSPropertyOp17
 70
     0
102
RTVSPropertyOp18
 70
     0
102
RTVSPropertyOp19
 70
     0
102
RTVSPropertyOp20
 70
     0
102
RTVSPropertyOp21
 70
     0
102
RTVSPropertyOp22
 70
     0
102
RTVSPropertyOp23
 70
     0
102
RTVSPropertyOp24
 70
     0
102
RTVSPropertyOp25
 70
     0
102
RTVSPropertyOp26
 70
     0
102
RTVSPropertyOp27
 70
     0
102
RTVSPropertyOp28
 70
     1
102
RTVSPropertyOp29
 70
     1
102
RTVSPropertyOp30
 70
     1
102
RTVSPropertyOp31
 70
     1
102
RTVSPropertyOp32
 70
     1
102
RTVSPropertyOp33
 70
     1
102
RTVSPropertyOp34
 70
     1
102
RTVSPropertyOp35
 70
     1
102
RTVSPropertyOp36
 70
     1
102
RTVSPropertyOp37
 70
     0
102
RTVSPropertyOp38
 70
     0
102
RTVSPropertyOp39
 70
     0
102
RTVSPropertyOp40
 70
     0
102
RTVSPropertyOp41
 70
     0
102
RTVSPropertyOp42
 70
     0
102
RTVSPropertyOp43
 70
     0
102
RTVSPropertyOp44
 70
     0
102
RTVSPropertyOp45
 70
     1
102
RTVSPropertyOp46
 70
     0
102
RTVSPropertyOp47
 70
     0
102
RTVSPropertyOp48
 70
     0
102
RTVSPropertyOp49
 70
     1
102
RTVSPropertyOp50
 70
     0
102
RTVSPropertyOp51
 70
     0
102
RTVSPropertyOp52
 70
     0
102
RTVSPropertyOp53
 70
     0
102
RTVSPropertyOp54
 70
     0
102
RTVSPropertyOp55
 70
     1
102
RTVSPropertyOp56
 70
     0
102
RTVSPropertyOp57
 70
     0
102
RTVSPropertyOp58
 70
     0
102
RTVSPropertyOp59
 70
     0
102
RTVSPropertyOp60
 70
     0
102
RTVSPropertyOp61
 70
     0
102
RTVSPropertyOp62
 70
     0
  0
XRECORD
  5
919
102
{ACAD_REACTORS
330
918
102
}
330
918
100
AcDbXrecord
280
     1
102
RTVSPost2010Prop28
280
     0
102
RTVSPost2010PropOp28
 70
     1
102
RTVSPost2010Prop29
280
     1
102
RTVSPost2010PropOp29
 70
     1
102
RTVSPost2010Prop30
280
     1
102
RTVSPost2010PropOp30
 70
     1
102
RTVSPost2010Prop31
280
     0
102
RTVSPost2010PropOp31
 70
     1
102
RTVSPost2010Prop32
280
     0
102
RTVSPost2010PropOp32
 70
     1
102
RTVSPost2010Prop33
280
     0
102
RTVSPost2010PropOp33
 70
     1
102
RTVSPost2010Prop34
280
     0
102
RTVSPost2010PropOp34
 70
     1
102
RTVSPost2010Prop35
280
     0
102
RTVSPost2010PropOp35
 70
     1
102
RTVSPost2010Prop36
280
     0
102
RTVSPost2010PropOp36
 70
     1
102
RTVSPost2010Prop37
 90
       50
102
RTVSPost2010PropOp37
 70
     1
102
RTVSPost2010Prop38
140
0.0
102
RTVSPost2010PropOp38
 70
     1
102
RTVSPost2010Prop39
140
1.0
102
RTVSPost2010PropOp39
 70
     1
102
RTVSPost2010Prop40
 90
        0
102
RTVSPost2010PropOp40
 70
     1
102
RTVSPost2010Prop41ColorIndex
 90
       18
102
RTVSPost2010Prop41ColorRGB
 90
        0
102
RTVSPost2010PropOp41
 70
     1
102
RTVSPost2010Prop42
 90
       50
102
RTVSPost2010PropOp42
 70
     1
102
RTVSPost2010Prop43
 90
        3
102
RTVSPost2010PropOp43
 70
     1
102
RTVSPost2010Prop44ColorIndex
 90
        5
102
RTVSPost2010Prop44ColorRGB
 90
      255
102
RTVSPost2010PropOp44
 70
     1
102
RTVSPost2010Prop45
280
     0
102
RTVSPost2010PropOp45
 70
     1
102
RTVSPost2010Prop46
 90
       50
102
RTVSPost2010PropOp46
 70
     1
102
RTVSPost2010Prop47
 90
       50
102
RTVSPost2010PropOp47
 70
     1
102
RTVSPost2010Prop48
 90
       50
102
RTVSPost2010PropOp48
 70
     1
102
RTVSPost2010Prop49
280
     0
102
RTVSPost2010PropOp49
 70
     1
102
RTVSPost2010Prop50
 90
       50
102
RTVSPost2010PropOp50
 70
     1
102
RTVSPost2010Prop51ColorIndex
 90
      256
102
RTVSPost2010Prop51ColorRGB
 90
-16777216
102
RTVSPost2010PropOp51
 70
     0
102
RTVSPost2010Prop52
140
1.0
102
RTVSPost2010PropOp52
 70
     0
102
RTVSPost2010Prop53
 90
        2
102
RTVSPost2010PropOp53
 70
     1
102
RTVSPost2010Prop54
  1
strokes_ogs.tif
102
RTVSPost2010PropOp54
 70
     1
102
RTVSPost2010Prop55
280
     0
102
RTVSPost2010PropOp55
 70
     1
102
RTVSPost2010Prop56
140
1.0
102
RTVSPost2010PropOp56
 70
     1
102
RTVSPost2010Prop57
140
1.0
102
RTVSPost2010PropOp57
 70
     1
102
RTVSPropertyOp0
 70
     1
102
RTVSPropertyOp1
 70
     1
102
RTVSPropertyOp2
 70
     1
102
RTVSPropertyOp3
 70
     1
102
RTVSPropertyOp4
 70
     1
102
RTVSPropertyOp5
 70
     1
102
RTVSPropertyOp6
 70
     1
102
RTVSPropertyOp7
 70
     1
102
RTVSPropertyOp8
 70
     1
102
RTVSPropertyOp9
 70
     1
102
RTVSPropertyOp10
 70
     1
102
RTVSPropertyOp11
 70
     1
102
RTVSPropertyOp12
 70
     1
102
RTVSPropertyOp13
 70
     1
102
RTVSPropertyOp14
 70
     1
102
RTVSPropertyOp15
 70
     1
102
RTVSPropertyOp16
 70
     1
102
RTVSPropertyOp17
 70
     1
102
RTVSPropertyOp18
 70
     1
102
RTVSPropertyOp19
 70
     1
102
RTVSPropertyOp20
 70
     1
102
RTVSPropertyOp21
 70
     1
102
RTVSPropertyOp22
 70
     1
102
RTVSPropertyOp23
 70
     1
102
RTVSPropertyOp24
 70
     1
102
RTVSPropertyOp25
 70
     1
102
RTVSPropertyOp26
 70
     1
102
RTVSPropertyOp27
 70
     1
102
RTVSPropertyOp28
 70
     1
102
RTVSPropertyOp29
 70
     1
102
RTVSPropertyOp30
 70
     1
102
RTVSPropertyOp31
 70
     1
102
RTVSPropertyOp32
 70
     1
102
RTVSPropertyOp33
 70
     1
102
RTVSPropertyOp34
 70
     1
102
RTVSPropertyOp35
 70
     1
102
RTVSPropertyOp36
 70
     1
102
RTVSPropertyOp37
 70
     1
102
RTVSPropertyOp38
 70
     1
102
RTVSPropertyOp39
 70
     1
102
RTVSPropertyOp40
 70
     1
102
RTVSPropertyOp41
 70
     1
102
RTVSPropertyOp42
 70
     1
102
RTVSPropertyOp43
 70
     1
102
RTVSPropertyOp44
 70
     1
102
RTVSPropertyOp45
 70
     1
102
RTVSPropertyOp46
 70
     1
102
RTVSPropertyOp47
 70
     1
102
RTVSPropertyOp48
 70
     1
102
RTVSPropertyOp49
 70
     1
102
RTVSPropertyOp50
 70
     1
102
RTVSPropertyOp51
 70
     0
102
RTVSPropertyOp52
 70
     0
102
RTVSPropertyOp53
 70
     1
102
RTVSPropertyOp54
 70
     1
102
RTVSPropertyOp55
 70
     1
102
RTVSPropertyOp56
 70
     1
102
RTVSPropertyOp57
 70
     1
102
RTVSPropertyOp58
 70
     1
102
RTVSPropertyOp59
 70
     1
102
RTVSPropertyOp60
 70
     1
102
RTVSPropertyOp61
 70
     1
102
RTVSPropertyOp62
 70
     1
  0
XRECORD
  5
8FD
102
{ACAD_REACTORS
330
8FC
102
}
330
8FC
100
AcDbXrecord
280
     1
102
RTVSPost2010Prop28
280
     0
102
RTVSPost2010PropOp28
 70
     1
102
RTVSPost2010Prop29
280
     1
102
RTVSPost2010PropOp29
 70
     1
102
RTVSPost2010Prop30
280
     1
102
RTVSPost2010PropOp30
 70
     1
102
RTVSPost2010Prop31
280
     0
102
RTVSPost2010PropOp31
 70
     1
102
RTVSPost2010Prop32
280
     0
102
RTVSPost2010PropOp32
 70
     1
102
RTVSPost2010Prop33
280
     0
102
RTVSPost2010PropOp33
 70
     1
102
RTVSPost2010Prop34
280
     0
102
RTVSPost2010PropOp34
 70
     1
102
RTVSPost2010Prop35
280
     0
102
RTVSPost2010PropOp35
 70
     1
102
RTVSPost2010Prop36
280
     0
102
RTVSPost2010PropOp36
 70
     1
102
RTVSPost2010Prop37
 90
       50
102
RTVSPost2010PropOp37
 70
     1
102
RTVSPost2010Prop38
140
0.0
102
RTVSPost2010PropOp38
 70
     1
102
RTVSPost2010Prop39
140
1.0
102
RTVSPost2010PropOp39
 70
     1
102
RTVSPost2010Prop40
 90
        0
102
RTVSPost2010PropOp40
 70
     1
102
RTVSPost2010Prop41ColorIndex
 90
       18
102
RTVSPost2010Prop41ColorRGB
 90
        0
102
RTVSPost2010PropOp41
 70
     1
102
RTVSPost2010Prop42
 90
       50
102
RTVSPost2010PropOp42
 70
     1
102
RTVSPost2010Prop43
 90
        3
102
RTVSPost2010PropOp43
 70
     1
102
RTVSPost2010Prop44ColorIndex
 90
        5
102
RTVSPost2010Prop44ColorRGB
 90
      255
102
RTVSPost2010PropOp44
 70
     1
102
RTVSPost2010Prop45
280
     0
102
RTVSPost2010PropOp45
 70
     1
102
RTVSPost2010Prop46
 90
       50
102
RTVSPost2010PropOp46
 70
     1
102
RTVSPost2010Prop47
 90
       50
102
RTVSPost2010PropOp47
 70
     1
102
RTVSPost2010Prop48
 90
       50
102
RTVSPost2010PropOp48
 70
     1
102
RTVSPost2010Prop49
280
     0
102
RTVSPost2010PropOp49
 70
     1
102
RTVSPost2010Prop50
 90
       50
102
RTVSPost2010PropOp50
 70
     1
102
RTVSPost2010Prop51ColorIndex
 90
      256
102
RTVSPost2010Prop51ColorRGB
 90
-16777216
102
RTVSPost2010PropOp51
 70
     0
102
RTVSPost2010Prop52
140
1.0
102
RTVSPost2010PropOp52
 70
     0
102
RTVSPost2010Prop53
 90
        2
102
RTVSPost2010PropOp53
 70
     1
102
RTVSPost2010Prop54
  1
strokes_ogs.tif
102
RTVSPost2010PropOp54
 70
     1
102
RTVSPost2010Prop55
280
     0
102
RTVSPost2010PropOp55
 70
     1
102
RTVSPost2010Prop56
140
1.0
102
RTVSPost2010PropOp56
 70
     1
102
RTVSPost2010Prop57
140
1.0
102
RTVSPost2010PropOp57
 70
     1
102
RTVSPropertyOp0
 70
     1
102
RTVSPropertyOp1
 70
     1
102
RTVSPropertyOp2
 70
     1
102
RTVSPropertyOp3
 70
     1
102
RTVSPropertyOp4
 70
     1
102
RTVSPropertyOp5
 70
     1
102
RTVSPropertyOp6
 70
     1
102
RTVSPropertyOp7
 70
     1
102
RTVSPropertyOp8
 70
     1
102
RTVSPropertyOp9
 70
     1
102
RTVSPropertyOp10
 70
     1
102
RTVSPropertyOp11
 70
     1
102
RTVSPropertyOp12
 70
     1
102
RTVSPropertyOp13
 70
     1
102
RTVSPropertyOp14
 70
     1
102
RTVSPropertyOp15
 70
     1
102
RTVSPropertyOp16
 70
     1
102
RTVSPropertyOp17
 70
     1
102
RTVSPropertyOp18
 70
     1
102
RTVSPropertyOp19
 70
     1
102
RTVSPropertyOp20
 70
     1
102
RTVSPropertyOp21
 70
     1
102
RTVSPropertyOp22
 70
     1
102
RTVSPropertyOp23
 70
     1
102
RTVSPropertyOp24
 70
     1
102
RTVSPropertyOp25
 70
     1
102
RTVSPropertyOp26
 70
     1
102
RTVSPropertyOp27
 70
     1
102
RTVSPropertyOp28
 70
     1
102
RTVSPropertyOp29
 70
     1
102
RTVSPropertyOp30
 70
     1
102
RTVSPropertyOp31
 70
     1
102
RTVSPropertyOp32
 70
     1
102
RTVSPropertyOp33
 70
     1
102
RTVSPropertyOp34
 70
     1
102
RTVSPropertyOp35
 70
     1
102
RTVSPropertyOp36
 70
     1
102
RTVSPropertyOp37
 70
     1
102
RTVSPropertyOp38
 70
     1
102
RTVSPropertyOp39
 70
     1
102
RTVSPropertyOp40
 70
     1
102
RTVSPropertyOp41
 70
     1
102
RTVSPropertyOp42
 70
     1
102
RTVSPropertyOp43
 70
     1
102
RTVSPropertyOp44
 70
     1
102
RTVSPropertyOp45
 70
     1
102
RTVSPropertyOp46
 70
     1
102
RTVSPropertyOp47
 70
     1
102
RTVSPropertyOp48
 70
     1
102
RTVSPropertyOp49
 70
     1
102
RTVSPropertyOp50
 70
     1
102
RTVSPropertyOp51
 70
     0
102
RTVSPropertyOp52
 70
     0
102
RTVSPropertyOp53
 70
     1
102
RTVSPropertyOp54
 70
     1
102
RTVSPropertyOp55
 70
     1
102
RTVSPropertyOp56
 70
     1
102
RTVSPropertyOp57
 70
     1
102
RTVSPropertyOp58
 70
     1
102
RTVSPropertyOp59
 70
     1
102
RTVSPropertyOp60
 70
     1
102
RTVSPropertyOp61
 70
     1
102
RTVSPropertyOp62
 70
     1
  0
XRECORD
  5
8FF
102
{ACAD_REACTORS
330
8FE
102
}
330
8FE
100
AcDbXrecord
280
     1
102
RTVSPost2010Prop28
280
     0
102
RTVSPost2010PropOp28
 70
     1
102
RTVSPost2010Prop29
280
     1
102
RTVSPost2010PropOp29
 70
     1
102
RTVSPost2010Prop30
280
     1
102
RTVSPost2010PropOp30
 70
     1
102
RTVSPost2010Prop31
280
     0
102
RTVSPost2010PropOp31
 70
     1
102
RTVSPost2010Prop32
280
     0
102
RTVSPost2010PropOp32
 70
     1
102
RTVSPost2010Prop33
280
     0
102
RTVSPost2010PropOp33
 70
     1
102
RTVSPost2010Prop34
280
     0
102
RTVSPost2010PropOp34
 70
     1
102
RTVSPost2010Prop35
280
     0
102
RTVSPost2010PropOp35
 70
     1
102
RTVSPost2010Prop36
280
     0
102
RTVSPost2010PropOp36
 70
     1
102
RTVSPost2010Prop37
 90
       50
102
RTVSPost2010PropOp37
 70
     1
102
RTVSPost2010Prop38
140
0.0
102
RTVSPost2010PropOp38
 70
     1
102
RTVSPost2010Prop39
140
1.0
102
RTVSPost2010PropOp39
 70
     1
102
RTVSPost2010Prop40
 90
        0
102
RTVSPost2010PropOp40
 70
     1
102
RTVSPost2010Prop41ColorIndex
 90
       18
102
RTVSPost2010Prop41ColorRGB
 90
        0
102
RTVSPost2010PropOp41
 70
     1
102
RTVSPost2010Prop42
 90
       50
102
RTVSPost2010PropOp42
 70
     1
102
RTVSPost2010Prop43
 90
        3
102
RTVSPost2010PropOp43
 70
     1
102
RTVSPost2010Prop44ColorIndex
 90
        5
102
RTVSPost2010Prop44ColorRGB
 90
      255
102
RTVSPost2010PropOp44
 70
     1
102
RTVSPost2010Prop45
280
     0
102
RTVSPost2010PropOp45
 70
     1
102
RTVSPost2010Prop46
 90
       50
102
RTVSPost2010PropOp46
 70
     1
102
RTVSPost2010Prop47
 90
       50
102
RTVSPost2010PropOp47
 70
     1
102
RTVSPost2010Prop48
 90
       50
102
RTVSPost2010PropOp48
 70
     1
102
RTVSPost2010Prop49
280
     0
102
RTVSPost2010PropOp49
 70
     1
102
RTVSPost2010Prop50
 90
       50
102
RTVSPost2010PropOp50
 70
     1
102
RTVSPost2010Prop51ColorIndex
 90
      256
102
RTVSPost2010Prop51ColorRGB
 90
-16777216
102
RTVSPost2010PropOp51
 70
     0
102
RTVSPost2010Prop52
140
1.0
102
RTVSPost2010PropOp52
 70
     0
102
RTVSPost2010Prop53
 90
        2
102
RTVSPost2010PropOp53
 70
     1
102
RTVSPost2010Prop54
  1
strokes_ogs.tif
102
RTVSPost2010PropOp54
 70
     1
102
RTVSPost2010Prop55
280
     0
102
RTVSPost2010PropOp55
 70
     1
102
RTVSPost2010Prop56
140
1.0
102
RTVSPost2010PropOp56
 70
     1
102
RTVSPost2010Prop57
140
1.0
102
RTVSPost2010PropOp57
 70
     1
102
RTVSPropertyOp0
 70
     1
102
RTVSPropertyOp1
 70
     1
102
RTVSPropertyOp2
 70
     1
102
RTVSPropertyOp3
 70
     1
102
RTVSPropertyOp4
 70
     1
102
RTVSPropertyOp5
 70
     1
102
RTVSPropertyOp6
 70
     1
102
RTVSPropertyOp7
 70
     1
102
RTVSPropertyOp8
 70
     1
102
RTVSPropertyOp9
 70
     1
102
RTVSPropertyOp10
 70
     1
102
RTVSPropertyOp11
 70
     1
102
RTVSPropertyOp12
 70
     1
102
RTVSPropertyOp13
 70
     1
102
RTVSPropertyOp14
 70
     1
102
RTVSPropertyOp15
 70
     1
102
RTVSPropertyOp16
 70
     1
102
RTVSPropertyOp17
 70
     1
102
RTVSPropertyOp18
 70
     1
102
RTVSPropertyOp19
 70
     1
102
RTVSPropertyOp20
 70
     1
102
RTVSPropertyOp21
 70
     1
102
RTVSPropertyOp22
 70
     1
102
RTVSPropertyOp23
 70
     1
102
RTVSPropertyOp24
 70
     1
102
RTVSPropertyOp25
 70
     1
102
RTVSPropertyOp26
 70
     1
102
RTVSPropertyOp27
 70
     1
102
RTVSPropertyOp28
 70
     1
102
RTVSPropertyOp29
 70
     1
102
RTVSPropertyOp30
 70
     1
102
RTVSPropertyOp31
 70
     1
102
RTVSPropertyOp32
 70
     1
102
RTVSPropertyOp33
 70
     1
102
RTVSPropertyOp34
 70
     1
102
RTVSPropertyOp35
 70
     1
102
RTVSPropertyOp36
 70
     1
102
RTVSPropertyOp37
 70
     1
102
RTVSPropertyOp38
 70
     1
102
RTVSPropertyOp39
 70
     1
102
RTVSPropertyOp40
 70
     1
102
RTVSPropertyOp41
 70
     1
102
RTVSPropertyOp42
 70
     1
102
RTVSPropertyOp43
 70
     1
102
RTVSPropertyOp44
 70
     1
102
RTVSPropertyOp45
 70
     1
102
RTVSPropertyOp46
 70
     1
102
RTVSPropertyOp47
 70
     1
102
RTVSPropertyOp48
 70
     1
102
RTVSPropertyOp49
 70
     1
102
RTVSPropertyOp50
 70
     1
102
RTVSPropertyOp51
 70
     0
102
RTVSPropertyOp52
 70
     0
102
RTVSPropertyOp53
 70
     1
102
RTVSPropertyOp54
 70
     1
102
RTVSPropertyOp55
 70
     1
102
RTVSPropertyOp56
 70
     1
102
RTVSPropertyOp57
 70
     1
102
RTVSPropertyOp58
 70
     1
102
RTVSPropertyOp59
 70
     1
102
RTVSPropertyOp60
 70
     1
102
RTVSPropertyOp61
 70
     1
102
RTVSPropertyOp62
 70
     1
  0
XRECORD
  5
901
102
{ACAD_REACTORS
330
900
102
}
330
900
100
AcDbXrecord
280
     1
102
RTVSPost2010Prop28
280
     0
102
RTVSPost2010PropOp28
 70
     1
102
RTVSPost2010Prop29
280
     1
102
RTVSPost2010PropOp29
 70
     1
102
RTVSPost2010Prop30
280
     1
102
RTVSPost2010PropOp30
 70
     1
102
RTVSPost2010Prop31
280
     0
102
RTVSPost2010PropOp31
 70
     1
102
RTVSPost2010Prop32
280
     0
102
RTVSPost2010PropOp32
 70
     1
102
RTVSPost2010Prop33
280
     0
102
RTVSPost2010PropOp33
 70
     1
102
RTVSPost2010Prop34
280
     0
102
RTVSPost2010PropOp34
 70
     1
102
RTVSPost2010Prop35
280
     0
102
RTVSPost2010PropOp35
 70
     1
102
RTVSPost2010Prop36
280
     0
102
RTVSPost2010PropOp36
 70
     1
102
RTVSPost2010Prop37
 90
       50
102
RTVSPost2010PropOp37
 70
     1
102
RTVSPost2010Prop38
140
0.0
102
RTVSPost2010PropOp38
 70
     1
102
RTVSPost2010Prop39
140
1.0
102
RTVSPost2010PropOp39
 70
     1
102
RTVSPost2010Prop40
 90
        0
102
RTVSPost2010PropOp40
 70
     1
102
RTVSPost2010Prop41ColorIndex
 90
       18
102
RTVSPost2010Prop41ColorRGB
 90
        0
102
RTVSPost2010PropOp41
 70
     1
102
RTVSPost2010Prop42
 90
       50
102
RTVSPost2010PropOp42
 70
     1
102
RTVSPost2010Prop43
 90
        3
102
RTVSPost2010PropOp43
 70
     1
102
RTVSPost2010Prop44ColorIndex
 90
        5
102
RTVSPost2010Prop44ColorRGB
 90
      255
102
RTVSPost2010PropOp44
 70
     1
102
RTVSPost2010Prop45
280
     0
102
RTVSPost2010PropOp45
 70
     1
102
RTVSPost2010Prop46
 90
       50
102
RTVSPost2010PropOp46
 70
     1
102
RTVSPost2010Prop47
 90
       50
102
RTVSPost2010PropOp47
 70
     1
102
RTVSPost2010Prop48
 90
       50
102
RTVSPost2010PropOp48
 70
     1
102
RTVSPost2010Prop49
280
     0
102
RTVSPost2010PropOp49
 70
     1
102
RTVSPost2010Prop50
 90
       50
102
RTVSPost2010PropOp50
 70
     1
102
RTVSPost2010Prop51ColorIndex
 90
      256
102
RTVSPost2010Prop51ColorRGB
 90
-16777216
102
RTVSPost2010PropOp51
 70
     0
102
RTVSPost2010Prop52
140
1.0
102
RTVSPost2010PropOp52
 70
     0
102
RTVSPost2010Prop53
 90
        2
102
RTVSPost2010PropOp53
 70
     1
102
RTVSPost2010Prop54
  1
strokes_ogs.tif
102
RTVSPost2010PropOp54
 70
     1
102
RTVSPost2010Prop55
280
     0
102
RTVSPost2010PropOp55
 70
     1
102
RTVSPost2010Prop56
140
1.0
102
RTVSPost2010PropOp56
 70
     1
102
RTVSPost2010Prop57
140
1.0
102
RTVSPost2010PropOp57
 70
     1
102
RTVSPropertyOp0
 70
     1
102
RTVSPropertyOp1
 70
     1
102
RTVSPropertyOp2
 70
     1
102
RTVSPropertyOp3
 70
     1
102
RTVSPropertyOp4
 70
     1
102
RTVSPropertyOp5
 70
     1
102
RTVSPropertyOp6
 70
     1
102
RTVSPropertyOp7
 70
     1
102
RTVSPropertyOp8
 70
     1
102
RTVSPropertyOp9
 70
     1
102
RTVSPropertyOp10
 70
     1
102
RTVSPropertyOp11
 70
     1
102
RTVSPropertyOp12
 70
     1
102
RTVSPropertyOp13
 70
     1
102
RTVSPropertyOp14
 70
     1
102
RTVSPropertyOp15
 70
     1
102
RTVSPropertyOp16
 70
     1
102
RTVSPropertyOp17
 70
     1
102
RTVSPropertyOp18
 70
     1
102
RTVSPropertyOp19
 70
     1
102
RTVSPropertyOp20
 70
     1
102
RTVSPropertyOp21
 70
     1
102
RTVSPropertyOp22
 70
     1
102
RTVSPropertyOp23
 70
     1
102
RTVSPropertyOp24
 70
     1
102
RTVSPropertyOp25
 70
     1
102
RTVSPropertyOp26
 70
     1
102
RTVSPropertyOp27
 70
     1
102
RTVSPropertyOp28
 70
     1
102
RTVSPropertyOp29
 70
     1
102
RTVSPropertyOp30
 70
     1
102
RTVSPropertyOp31
 70
     1
102
RTVSPropertyOp32
 70
     1
102
RTVSPropertyOp33
 70
     1
102
RTVSPropertyOp34
 70
     1
102
RTVSPropertyOp35
 70
     1
102
RTVSPropertyOp36
 70
     1
102
RTVSPropertyOp37
 70
     1
102
RTVSPropertyOp38
 70
     1
102
RTVSPropertyOp39
 70
     1
102
RTVSPropertyOp40
 70
     1
102
RTVSPropertyOp41
 70
     1
102
RTVSPropertyOp42
 70
     1
102
RTVSPropertyOp43
 70
     1
102
RTVSPropertyOp44
 70
     1
102
RTVSPropertyOp45
 70
     1
102
RTVSPropertyOp46
 70
     1
102
RTVSPropertyOp47
 70
     1
102
RTVSPropertyOp48
 70
     1
102
RTVSPropertyOp49
 70
     1
102
RTVSPropertyOp50
 70
     1
102
RTVSPropertyOp51
 70
     0
102
RTVSPropertyOp52
 70
     0
102
RTVSPropertyOp53
 70
     1
102
RTVSPropertyOp54
 70
     1
102
RTVSPropertyOp55
 70
     1
102
RTVSPropertyOp56
 70
     1
102
RTVSPropertyOp57
 70
     1
102
RTVSPropertyOp58
 70
     1
102
RTVSPropertyOp59
 70
     1
102
RTVSPropertyOp60
 70
     1
102
RTVSPropertyOp61
 70
     1
102
RTVSPropertyOp62
 70
     1
  0
XRECORD
  5
903
102
{ACAD_REACTORS
330
902
102
}
330
902
100
AcDbXrecord
280
     1
102
RTVSPost2010Prop28
280
     0
102
RTVSPost2010PropOp28
 70
     1
102
RTVSPost2010Prop29
280
     1
102
RTVSPost2010PropOp29
 70
     1
102
RTVSPost2010Prop30
280
     1
102
RTVSPost2010PropOp30
 70
     1
102
RTVSPost2010Prop31
280
     0
102
RTVSPost2010PropOp31
 70
     1
102
RTVSPost2010Prop32
280
     0
102
RTVSPost2010PropOp32
 70
     1
102
RTVSPost2010Prop33
280
     0
102
RTVSPost2010PropOp33
 70
     1
102
RTVSPost2010Prop34
280
     0
102
RTVSPost2010PropOp34
 70
     1
102
RTVSPost2010Prop35
280
     0
102
RTVSPost2010PropOp35
 70
     1
102
RTVSPost2010Prop36
280
     0
102
RTVSPost2010PropOp36
 70
     1
102
RTVSPost2010Prop37
 90
       50
102
RTVSPost2010PropOp37
 70
     1
102
RTVSPost2010Prop38
140
0.0
102
RTVSPost2010PropOp38
 70
     1
102
RTVSPost2010Prop39
140
1.0
102
RTVSPost2010PropOp39
 70
     1
102
RTVSPost2010Prop40
 90
        0
102
RTVSPost2010PropOp40
 70
     1
102
RTVSPost2010Prop41ColorIndex
 90
       18
102
RTVSPost2010Prop41ColorRGB
 90
        0
102
RTVSPost2010PropOp41
 70
     1
102
RTVSPost2010Prop42
 90
       50
102
RTVSPost2010PropOp42
 70
     1
102
RTVSPost2010Prop43
 90
        3
102
RTVSPost2010PropOp43
 70
     1
102
RTVSPost2010Prop44ColorIndex
 90
        5
102
RTVSPost2010Prop44ColorRGB
 90
      255
102
RTVSPost2010PropOp44
 70
     1
102
RTVSPost2010Prop45
280
     0
102
RTVSPost2010PropOp45
 70
     1
102
RTVSPost2010Prop46
 90
       50
102
RTVSPost2010PropOp46
 70
     1
102
RTVSPost2010Prop47
 90
       50
102
RTVSPost2010PropOp47
 70
     1
102
RTVSPost2010Prop48
 90
       50
102
RTVSPost2010PropOp48
 70
     1
102
RTVSPost2010Prop49
280
     0
102
RTVSPost2010PropOp49
 70
     1
102
RTVSPost2010Prop50
 90
       50
102
RTVSPost2010PropOp50
 70
     1
102
RTVSPost2010Prop51ColorIndex
 90
      256
102
RTVSPost2010Prop51ColorRGB
 90
-16777216
102
RTVSPost2010PropOp51
 70
     0
102
RTVSPost2010Prop52
140
1.0
102
RTVSPost2010PropOp52
 70
     0
102
RTVSPost2010Prop53
 90
        2
102
RTVSPost2010PropOp53
 70
     1
102
RTVSPost2010Prop54
  1
strokes_ogs.tif
102
RTVSPost2010PropOp54
 70
     1
102
RTVSPost2010Prop55
280
     0
102
RTVSPost2010PropOp55
 70
     1
102
RTVSPost2010Prop56
140
1.0
102
RTVSPost2010PropOp56
 70
     1
102
RTVSPost2010Prop57
140
1.0
102
RTVSPost2010PropOp57
 70
     1
102
RTVSPropertyOp0
 70
     1
102
RTVSPropertyOp1
 70
     1
102
RTVSPropertyOp2
 70
     1
102
RTVSPropertyOp3
 70
     1
102
RTVSPropertyOp4
 70
     1
102
RTVSPropertyOp5
 70
     1
102
RTVSPropertyOp6
 70
     1
102
RTVSPropertyOp7
 70
     1
102
RTVSPropertyOp8
 70
     1
102
RTVSPropertyOp9
 70
     1
102
RTVSPropertyOp10
 70
     1
102
RTVSPropertyOp11
 70
     1
102
RTVSPropertyOp12
 70
     1
102
RTVSPropertyOp13
 70
     1
102
RTVSPropertyOp14
 70
     1
102
RTVSPropertyOp15
 70
     1
102
RTVSPropertyOp16
 70
     1
102
RTVSPropertyOp17
 70
     1
102
RTVSPropertyOp18
 70
     1
102
RTVSPropertyOp19
 70
     1
102
RTVSPropertyOp20
 70
     1
102
RTVSPropertyOp21
 70
     1
102
RTVSPropertyOp22
 70
     1
102
RTVSPropertyOp23
 70
     1
102
RTVSPropertyOp24
 70
     1
102
RTVSPropertyOp25
 70
     1
102
RTVSPropertyOp26
 70
     1
102
RTVSPropertyOp27
 70
     1
102
RTVSPropertyOp28
 70
     1
102
RTVSPropertyOp29
 70
     1
102
RTVSPropertyOp30
 70
     1
102
RTVSPropertyOp31
 70
     1
102
RTVSPropertyOp32
 70
     1
102
RTVSPropertyOp33
 70
     1
102
RTVSPropertyOp34
 70
     1
102
RTVSPropertyOp35
 70
     1
102
RTVSPropertyOp36
 70
     1
102
RTVSPropertyOp37
 70
     1
102
RTVSPropertyOp38
 70
     1
102
RTVSPropertyOp39
 70
     1
102
RTVSPropertyOp40
 70
     1
102
RTVSPropertyOp41
 70
     1
102
RTVSPropertyOp42
 70
     1
102
RTVSPropertyOp43
 70
     1
102
RTVSPropertyOp44
 70
     1
102
RTVSPropertyOp45
 70
     1
102
RTVSPropertyOp46
 70
     1
102
RTVSPropertyOp47
 70
     1
102
RTVSPropertyOp48
 70
     1
102
RTVSPropertyOp49
 70
     1
102
RTVSPropertyOp50
 70
     1
102
RTVSPropertyOp51
 70
     0
102
RTVSPropertyOp52
 70
     0
102
RTVSPropertyOp53
 70
     1
102
RTVSPropertyOp54
 70
     1
102
RTVSPropertyOp55
 70
     1
102
RTVSPropertyOp56
 70
     1
102
RTVSPropertyOp57
 70
     1
102
RTVSPropertyOp58
 70
     1
102
RTVSPropertyOp59
 70
     1
102
RTVSPropertyOp60
 70
     1
102
RTVSPropertyOp61
 70
     1
102
RTVSPropertyOp62
 70
     1
  0
XRECORD
  5
90B
102
{ACAD_REACTORS
330
90A
102
}
330
90A
100
AcDbXrecord
280
     1
102
RTVSPost2010Prop28
280
     0
102
RTVSPost2010PropOp28
 70
     1
102
RTVSPost2010Prop29
280
     1
102
RTVSPost2010PropOp29
 70
     1
102
RTVSPost2010Prop30
280
     1
102
RTVSPost2010PropOp30
 70
     1
102
RTVSPost2010Prop31
280
     0
102
RTVSPost2010PropOp31
 70
     1
102
RTVSPost2010Prop32
280
     0
102
RTVSPost2010PropOp32
 70
     1
102
RTVSPost2010Prop33
280
     0
102
RTVSPost2010PropOp33
 70
     1
102
RTVSPost2010Prop34
280
     0
102
RTVSPost2010PropOp34
 70
     1
102
RTVSPost2010Prop35
280
     0
102
RTVSPost2010PropOp35
 70
     1
102
RTVSPost2010Prop36
280
     0
102
RTVSPost2010PropOp36
 70
     1
102
RTVSPost2010Prop37
 90
       50
102
RTVSPost2010PropOp37
 70
     1
102
RTVSPost2010Prop38
140
0.0
102
RTVSPost2010PropOp38
 70
     1
102
RTVSPost2010Prop39
140
1.0
102
RTVSPost2010PropOp39
 70
     1
102
RTVSPost2010Prop40
 90
        0
102
RTVSPost2010PropOp40
 70
     1
102
RTVSPost2010Prop41ColorIndex
 90
       18
102
RTVSPost2010Prop41ColorRGB
 90
        0
102
RTVSPost2010PropOp41
 70
     1
102
RTVSPost2010Prop42
 90
       50
102
RTVSPost2010PropOp42
 70
     1
102
RTVSPost2010Prop43
 90
        3
102
RTVSPost2010PropOp43
 70
     1
102
RTVSPost2010Prop44ColorIndex
 90
        5
102
RTVSPost2010Prop44ColorRGB
 90
      255
102
RTVSPost2010PropOp44
 70
     1
102
RTVSPost2010Prop45
280
     0
102
RTVSPost2010PropOp45
 70
     1
102
RTVSPost2010Prop46
 90
       50
102
RTVSPost2010PropOp46
 70
     1
102
RTVSPost2010Prop47
 90
       50
102
RTVSPost2010PropOp47
 70
     1
102
RTVSPost2010Prop48
 90
       50
102
RTVSPost2010PropOp48
 70
     1
102
RTVSPost2010Prop49
280
     0
102
RTVSPost2010PropOp49
 70
     1
102
RTVSPost2010Prop50
 90
       50
102
RTVSPost2010PropOp50
 70
     1
102
RTVSPost2010Prop51ColorIndex
 90
      256
102
RTVSPost2010Prop51ColorRGB
 90
-16777216
102
RTVSPost2010PropOp51
 70
     0
102
RTVSPost2010Prop52
140
1.0
102
RTVSPost2010PropOp52
 70
     0
102
RTVSPost2010Prop53
 90
        2
102
RTVSPost2010PropOp53
 70
     1
102
RTVSPost2010Prop54
  1
strokes_ogs.tif
102
RTVSPost2010PropOp54
 70
     1
102
RTVSPost2010Prop55
280
     0
102
RTVSPost2010PropOp55
 70
     1
102
RTVSPost2010Prop56
140
1.0
102
RTVSPost2010PropOp56
 70
     1
102
RTVSPost2010Prop57
140
1.0
102
RTVSPost2010PropOp57
 70
     1
102
RTVSPropertyOp0
 70
     1
102
RTVSPropertyOp1
 70
     1
102
RTVSPropertyOp2
 70
     1
102
RTVSPropertyOp3
 70
     1
102
RTVSPropertyOp4
 70
     1
102
RTVSPropertyOp5
 70
     1
102
RTVSPropertyOp6
 70
     1
102
RTVSPropertyOp7
 70
     1
102
RTVSPropertyOp8
 70
     1
102
RTVSPropertyOp9
 70
     1
102
RTVSPropertyOp10
 70
     1
102
RTVSPropertyOp11
 70
     1
102
RTVSPropertyOp12
 70
     1
102
RTVSPropertyOp13
 70
     1
102
RTVSPropertyOp14
 70
     1
102
RTVSPropertyOp15
 70
     1
102
RTVSPropertyOp16
 70
     1
102
RTVSPropertyOp17
 70
     1
102
RTVSPropertyOp18
 70
     1
102
RTVSPropertyOp19
 70
     1
102
RTVSPropertyOp20
 70
     1
102
RTVSPropertyOp21
 70
     1
102
RTVSPropertyOp22
 70
     1
102
RTVSPropertyOp23
 70
     1
102
RTVSPropertyOp24
 70
     1
102
RTVSPropertyOp25
 70
     1
102
RTVSPropertyOp26
 70
     1
102
RTVSPropertyOp27
 70
     1
102
RTVSPropertyOp28
 70
     1
102
RTVSPropertyOp29
 70
     1
102
RTVSPropertyOp30
 70
     1
102
RTVSPropertyOp31
 70
     1
102
RTVSPropertyOp32
 70
     1
102
RTVSPropertyOp33
 70
     1
102
RTVSPropertyOp34
 70
     1
102
RTVSPropertyOp35
 70
     1
102
RTVSPropertyOp36
 70
     1
102
RTVSPropertyOp37
 70
     1
102
RTVSPropertyOp38
 70
     1
102
RTVSPropertyOp39
 70
     1
102
RTVSPropertyOp40
 70
     1
102
RTVSPropertyOp41
 70
     1
102
RTVSPropertyOp42
 70
     1
102
RTVSPropertyOp43
 70
     1
102
RTVSPropertyOp44
 70
     1
102
RTVSPropertyOp45
 70
     1
102
RTVSPropertyOp46
 70
     1
102
RTVSPropertyOp47
 70
     1
102
RTVSPropertyOp48
 70
     1
102
RTVSPropertyOp49
 70
     1
102
RTVSPropertyOp50
 70
     1
102
RTVSPropertyOp51
 70
     0
102
RTVSPropertyOp52
 70
     0
102
RTVSPropertyOp53
 70
     1
102
RTVSPropertyOp54
 70
     1
102
RTVSPropertyOp55
 70
     1
102
RTVSPropertyOp56
 70
     1
102
RTVSPropertyOp57
 70
     1
102
RTVSPropertyOp58
 70
     1
102
RTVSPropertyOp59
 70
     1
102
RTVSPropertyOp60
 70
     1
102
RTVSPropertyOp61
 70
     1
102
RTVSPropertyOp62
 70
     1
  0
XRECORD
  5
927
102
{ACAD_REACTORS
330
926
102
}
330
926
100
AcDbXrecord
280
     1
102
RTVSPost2010Prop28
280
     0
102
RTVSPost2010PropOp28
 70
     1
102
RTVSPost2010Prop29
280
     1
102
RTVSPost2010PropOp29
 70
     1
102
RTVSPost2010Prop30
280
     1
102
RTVSPost2010PropOp30
 70
     1
102
RTVSPost2010Prop31
280
     0
102
RTVSPost2010PropOp31
 70
     1
102
RTVSPost2010Prop32
280
     0
102
RTVSPost2010PropOp32
 70
     1
102
RTVSPost2010Prop33
280
     0
102
RTVSPost2010PropOp33
 70
     1
102
RTVSPost2010Prop34
280
     0
102
RTVSPost2010PropOp34
 70
     1
102
RTVSPost2010Prop35
280
     0
102
RTVSPost2010PropOp35
 70
     1
102
RTVSPost2010Prop36
280
     0
102
RTVSPost2010PropOp36
 70
     1
102
RTVSPost2010Prop37
 90
       50
102
RTVSPost2010PropOp37
 70
     0
102
RTVSPost2010Prop38
140
0.0
102
RTVSPost2010PropOp38
 70
     0
102
RTVSPost2010Prop39
140
1.0
102
RTVSPost2010PropOp39
 70
     0
102
RTVSPost2010Prop40
 90
        0
102
RTVSPost2010PropOp40
 70
     0
102
RTVSPost2010Prop41ColorIndex
 90
       18
102
RTVSPost2010Prop41ColorRGB
 90
        0
102
RTVSPost2010PropOp41
 70
     0
102
RTVSPost2010Prop42
 90
       50
102
RTVSPost2010PropOp42
 70
     0
102
RTVSPost2010Prop43
 90
        3
102
RTVSPost2010PropOp43
 70
     0
102
RTVSPost2010Prop44ColorIndex
 90
        5
102
RTVSPost2010Prop44ColorRGB
 90
      255
102
RTVSPost2010PropOp44
 70
     0
102
RTVSPost2010Prop45
280
     0
102
RTVSPost2010PropOp45
 70
     1
102
RTVSPost2010Prop46
 90
       50
102
RTVSPost2010PropOp46
 70
     0
102
RTVSPost2010Prop47
 90
       50
102
RTVSPost2010PropOp47
 70
     0
102
RTVSPost2010Prop48
 90
       50
102
RTVSPost2010PropOp48
 70
     0
102
RTVSPost2010Prop49
280
     0
102
RTVSPost2010PropOp49
 70
     1
102
RTVSPost2010Prop50
 90
       50
102
RTVSPost2010PropOp50
 70
     0
102
RTVSPost2010Prop51ColorIndex
 90
      256
102
RTVSPost2010Prop51ColorRGB
 90
-16777216
102
RTVSPost2010PropOp51
 70
     0
102
RTVSPost2010Prop52
140
1.0
102
RTVSPost2010PropOp52
 70
     0
102
RTVSPost2010Prop53
 90
        2
102
RTVSPost2010PropOp53
 70
     0
102
RTVSPost2010Prop54
  1
strokes_ogs.tif
102
RTVSPost2010PropOp54
 70
     0
102
RTVSPost2010Prop55
280
     0
102
RTVSPost2010PropOp55
 70
     1
102
RTVSPost2010Prop56
140
1.0
102
RTVSPost2010PropOp56
 70
     0
102
RTVSPost2010Prop57
140
1.0
102
RTVSPost2010PropOp57
 70
     0
102
RTVSPropertyOp0
 70
     0
102
RTVSPropertyOp1
 70
     0
102
RTVSPropertyOp2
 70
     0
102
RTVSPropertyOp3
 70
     0
102
RTVSPropertyOp4
 70
     0
102
RTVSPropertyOp5
 70
     0
102
RTVSPropertyOp6
 70
     0
102
RTVSPropertyOp7
 70
     0
102
RTVSPropertyOp8
 70
     0
102
RTVSPropertyOp9
 70
     0
102
RTVSPropertyOp10
 70
     0
102
RTVSPropertyOp11
 70
     0
102
RTVSPropertyOp12
 70
     0
102
RTVSPropertyOp13
 70
     0
102
RTVSPropertyOp14
 70
     2
102
RTVSPropertyOp15
 70
     0
102
RTVSPropertyOp16
 70
     0
102
RTVSPropertyOp17
 70
     0
102
RTVSPropertyOp18
 70
     0
102
RTVSPropertyOp19
 70
     0
102
RTVSPropertyOp20
 70
     0
102
RTVSPropertyOp21
 70
     0
102
RTVSPropertyOp22
 70
     0
102
RTVSPropertyOp23
 70
     0
102
RTVSPropertyOp24
 70
     0
102
RTVSPropertyOp25
 70
     0
102
RTVSPropertyOp26
 70
     0
102
RTVSPropertyOp27
 70
     0
102
RTVSPropertyOp28
 70
     1
102
RTVSPropertyOp29
 70
     1
102
RTVSPropertyOp30
 70
     1
102
RTVSPropertyOp31
 70
     1
102
RTVSPropertyOp32
 70
     1
102
RTVSPropertyOp33
 70
     1
102
RTVSPropertyOp34
 70
     1
102
RTVSPropertyOp35
 70
     1
102
RTVSPropertyOp36
 70
     1
102
RTVSPropertyOp37
 70
     0
102
RTVSPropertyOp38
 70
     0
102
RTVSPropertyOp39
 70
     0
102
RTVSPropertyOp40
 70
     0
102
RTVSPropertyOp41
 70
     0
102
RTVSPropertyOp42
 70
     0
102
RTVSPropertyOp43
 70
     0
102
RTVSPropertyOp44
 70
     0
102
RTVSPropertyOp45
 70
     1
102
RTVSPropertyOp46
 70
     0
102
RTVSPropertyOp47
 70
     0
102
RTVSPropertyOp48
 70
     0
102
RTVSPropertyOp49
 70
     1
102
RTVSPropertyOp50
 70
     0
102
RTVSPropertyOp51
 70
     0
102
RTVSPropertyOp52
 70
     0
102
RTVSPropertyOp53
 70
     0
102
RTVSPropertyOp54
 70
     0
102
RTVSPropertyOp55
 70
     1
102
RTVSPropertyOp56
 70
     0
102
RTVSPropertyOp57
 70
     0
102
RTVSPropertyOp58
 70
     0
102
RTVSPropertyOp59
 70
     0
102
RTVSPropertyOp60
 70
     0
102
RTVSPropertyOp61
 70
     0
102
RTVSPropertyOp62
 70
     0
  0
XRECORD
  5
917
102
{ACAD_REACTORS
330
916
102
}
330
916
100
AcDbXrecord
280
     1
102
RTVSPost2010Prop28
280
     0
102
RTVSPost2010PropOp28
 70
     1
102
RTVSPost2010Prop29
280
     1
102
RTVSPost2010PropOp29
 70
     1
102
RTVSPost2010Prop30
280
     1
102
RTVSPost2010PropOp30
 70
     1
102
RTVSPost2010Prop31
280
     0
102
RTVSPost2010PropOp31
 70
     1
102
RTVSPost2010Prop32
280
     0
102
RTVSPost2010PropOp32
 70
     1
102
RTVSPost2010Prop33
280
     0
102
RTVSPost2010PropOp33
 70
     1
102
RTVSPost2010Prop34
280
     0
102
RTVSPost2010PropOp34
 70
     1
102
RTVSPost2010Prop35
280
     0
102
RTVSPost2010PropOp35
 70
     1
102
RTVSPost2010Prop36
280
     0
102
RTVSPost2010PropOp36
 70
     1
102
RTVSPost2010Prop37
 90
       50
102
RTVSPost2010PropOp37
 70
     1
102
RTVSPost2010Prop38
140
0.0
102
RTVSPost2010PropOp38
 70
     1
102
RTVSPost2010Prop39
140
1.0
102
RTVSPost2010PropOp39
 70
     1
102
RTVSPost2010Prop40
 90
        0
102
RTVSPost2010PropOp40
 70
     1
102
RTVSPost2010Prop41ColorIndex
 90
       18
102
RTVSPost2010Prop41ColorRGB
 90
        0
102
RTVSPost2010PropOp41
 70
     1
102
RTVSPost2010Prop42
 90
       50
102
RTVSPost2010PropOp42
 70
     1
102
RTVSPost2010Prop43
 90
        3
102
RTVSPost2010PropOp43
 70
     1
102
RTVSPost2010Prop44ColorIndex
 90
        5
102
RTVSPost2010Prop44ColorRGB
 90
      255
102
RTVSPost2010PropOp44
 70
     1
102
RTVSPost2010Prop45
280
     0
102
RTVSPost2010PropOp45
 70
     1
102
RTVSPost2010Prop46
 90
       50
102
RTVSPost2010PropOp46
 70
     1
102
RTVSPost2010Prop47
 90
       50
102
RTVSPost2010PropOp47
 70
     1
102
RTVSPost2010Prop48
 90
       50
102
RTVSPost2010PropOp48
 70
     1
102
RTVSPost2010Prop49
280
     0
102
RTVSPost2010PropOp49
 70
     1
102
RTVSPost2010Prop50
 90
       50
102
RTVSPost2010PropOp50
 70
     1
102
RTVSPost2010Prop51ColorIndex
 90
      256
102
RTVSPost2010Prop51ColorRGB
 90
-16777216
102
RTVSPost2010PropOp51
 70
     0
102
RTVSPost2010Prop52
140
1.0
102
RTVSPost2010PropOp52
 70
     0
102
RTVSPost2010Prop53
 90
        2
102
RTVSPost2010PropOp53
 70
     1
102
RTVSPost2010Prop54
  1
strokes_ogs.tif
102
RTVSPost2010PropOp54
 70
     1
102
RTVSPost2010Prop55
280
     0
102
RTVSPost2010PropOp55
 70
     1
102
RTVSPost2010Prop56
140
1.0
102
RTVSPost2010PropOp56
 70
     1
102
RTVSPost2010Prop57
140
1.0
102
RTVSPost2010PropOp57
 70
     1
102
RTVSPropertyOp0
 70
     1
102
RTVSPropertyOp1
 70
     1
102
RTVSPropertyOp2
 70
     1
102
RTVSPropertyOp3
 70
     1
102
RTVSPropertyOp4
 70
     1
102
RTVSPropertyOp5
 70
     1
102
RTVSPropertyOp6
 70
     1
102
RTVSPropertyOp7
 70
     1
102
RTVSPropertyOp8
 70
     1
102
RTVSPropertyOp9
 70
     1
102
RTVSPropertyOp10
 70
     1
102
RTVSPropertyOp11
 70
     1
102
RTVSPropertyOp12
 70
     1
102
RTVSPropertyOp13
 70
     1
102
RTVSPropertyOp14
 70
     1
102
RTVSPropertyOp15
 70
     1
102
RTVSPropertyOp16
 70
     1
102
RTVSPropertyOp17
 70
     1
102
RTVSPropertyOp18
 70
     1
102
RTVSPropertyOp19
 70
     1
102
RTVSPropertyOp20
 70
     1
102
RTVSPropertyOp21
 70
     1
102
RTVSPropertyOp22
 70
     1
102
RTVSPropertyOp23
 70
     1
102
RTVSPropertyOp24
 70
     1
102
RTVSPropertyOp25
 70
     1
102
RTVSPropertyOp26
 70
     1
102
RTVSPropertyOp27
 70
     1
102
RTVSPropertyOp28
 70
     1
102
RTVSPropertyOp29
 70
     1
102
RTVSPropertyOp30
 70
     1
102
RTVSPropertyOp31
 70
     1
102
RTVSPropertyOp32
 70
     1
102
RTVSPropertyOp33
 70
     1
102
RTVSPropertyOp34
 70
     1
102
RTVSPropertyOp35
 70
     1
102
RTVSPropertyOp36
 70
     1
102
RTVSPropertyOp37
 70
     1
102
RTVSPropertyOp38
 70
     1
102
RTVSPropertyOp39
 70
     1
102
RTVSPropertyOp40
 70
     1
102
RTVSPropertyOp41
 70
     1
102
RTVSPropertyOp42
 70
     1
102
RTVSPropertyOp43
 70
     1
102
RTVSPropertyOp44
 70
     1
102
RTVSPropertyOp45
 70
     1
102
RTVSPropertyOp46
 70
     1
102
RTVSPropertyOp47
 70
     1
102
RTVSPropertyOp48
 70
     1
102
RTVSPropertyOp49
 70
     1
102
RTVSPropertyOp50
 70
     1
102
RTVSPropertyOp51
 70
     0
102
RTVSPropertyOp52
 70
     0
102
RTVSPropertyOp53
 70
     1
102
RTVSPropertyOp54
 70
     1
102
RTVSPropertyOp55
 70
     1
102
RTVSPropertyOp56
 70
     1
102
RTVSPropertyOp57
 70
     1
102
RTVSPropertyOp58
 70
     1
102
RTVSPropertyOp59
 70
     1
102
RTVSPropertyOp60
 70
     1
102
RTVSPropertyOp61
 70
     1
102
RTVSPropertyOp62
 70
     1
  0
XRECORD
  5
929
102
{ACAD_REACTORS
330
928
102
}
330
928
100
AcDbXrecord
280
     1
102
RTVSPost2010Prop28
280
     0
102
RTVSPost2010PropOp28
 70
     1
102
RTVSPost2010Prop29
280
     1
102
RTVSPost2010PropOp29
 70
     1
102
RTVSPost2010Prop30
280
     1
102
RTVSPost2010PropOp30
 70
     1
102
RTVSPost2010Prop31
280
     0
102
RTVSPost2010PropOp31
 70
     1
102
RTVSPost2010Prop32
280
     0
102
RTVSPost2010PropOp32
 70
     1
102
RTVSPost2010Prop33
280
     0
102
RTVSPost2010PropOp33
 70
     1
102
RTVSPost2010Prop34
280
     0
102
RTVSPost2010PropOp34
 70
     1
102
RTVSPost2010Prop35
280
     0
102
RTVSPost2010PropOp35
 70
     1
102
RTVSPost2010Prop36
280
     0
102
RTVSPost2010PropOp36
 70
     1
102
RTVSPost2010Prop37
 90
       50
102
RTVSPost2010PropOp37
 70
     0
102
RTVSPost2010Prop38
140
0.0
102
RTVSPost2010PropOp38
 70
     0
102
RTVSPost2010Prop39
140
1.0
102
RTVSPost2010PropOp39
 70
     0
102
RTVSPost2010Prop40
 90
        0
102
RTVSPost2010PropOp40
 70
     0
102
RTVSPost2010Prop41ColorIndex
 90
       18
102
RTVSPost2010Prop41ColorRGB
 90
        0
102
RTVSPost2010PropOp41
 70
     0
102
RTVSPost2010Prop42
 90
       50
102
RTVSPost2010PropOp42
 70
     0
102
RTVSPost2010Prop43
 90
        3
102
RTVSPost2010PropOp43
 70
     0
102
RTVSPost2010Prop44ColorIndex
 90
        5
102
RTVSPost2010Prop44ColorRGB
 90
      255
102
RTVSPost2010PropOp44
 70
     0
102
RTVSPost2010Prop45
280
     0
102
RTVSPost2010PropOp45
 70
     1
102
RTVSPost2010Prop46
 90
       50
102
RTVSPost2010PropOp46
 70
     0
102
RTVSPost2010Prop47
 90
       50
102
RTVSPost2010PropOp47
 70
     0
102
RTVSPost2010Prop48
 90
       50
102
RTVSPost2010PropOp48
 70
     0
102
RTVSPost2010Prop49
280
     0
102
RTVSPost2010PropOp49
 70
     1
102
RTVSPost2010Prop50
 90
       50
102
RTVSPost2010PropOp50
 70
     0
102
RTVSPost2010Prop51ColorIndex
 90
      256
102
RTVSPost2010Prop51ColorRGB
 90
-16777216
102
RTVSPost2010PropOp51
 70
     0
102
RTVSPost2010Prop52
140
1.0
102
RTVSPost2010PropOp52
 70
     0
102
RTVSPost2010Prop53
 90
        2
102
RTVSPost2010PropOp53
 70
     0
102
RTVSPost2010Prop54
  1
strokes_ogs.tif
102
RTVSPost2010PropOp54
 70
     0
102
RTVSPost2010Prop55
280
     0
102
RTVSPost2010PropOp55
 70
     1
102
RTVSPost2010Prop56
140
1.0
102
RTVSPost2010PropOp56
 70
     0
102
RTVSPost2010Prop57
140
1.0
102
RTVSPost2010PropOp57
 70
     0
102
RTVSPropertyOp0
 70
     0
102
RTVSPropertyOp1
 70
     0
102
RTVSPropertyOp2
 70
     0
102
RTVSPropertyOp3
 70
     0
102
RTVSPropertyOp4
 70
     0
102
RTVSPropertyOp5
 70
     0
102
RTVSPropertyOp6
 70
     0
102
RTVSPropertyOp7
 70
     0
102
RTVSPropertyOp8
 70
     0
102
RTVSPropertyOp9
 70
     0
102
RTVSPropertyOp10
 70
     0
102
RTVSPropertyOp11
 70
     0
102
RTVSPropertyOp12
 70
     0
102
RTVSPropertyOp13
 70
     0
102
RTVSPropertyOp14
 70
     2
102
RTVSPropertyOp15
 70
     0
102
RTVSPropertyOp16
 70
     0
102
RTVSPropertyOp17
 70
     0
102
RTVSPropertyOp18
 70
     0
102
RTVSPropertyOp19
 70
     0
102
RTVSPropertyOp20
 70
     0
102
RTVSPropertyOp21
 70
     0
102
RTVSPropertyOp22
 70
     0
102
RTVSPropertyOp23
 70
     0
102
RTVSPropertyOp24
 70
     0
102
RTVSPropertyOp25
 70
     0
102
RTVSPropertyOp26
 70
     0
102
RTVSPropertyOp27
 70
     0
102
RTVSPropertyOp28
 70
     1
102
RTVSPropertyOp29
 70
     1
102
RTVSPropertyOp30
 70
     1
102
RTVSPropertyOp31
 70
     1
102
RTVSPropertyOp32
 70
     1
102
RTVSPropertyOp33
 70
     1
102
RTVSPropertyOp34
 70
     1
102
RTVSPropertyOp35
 70
     1
102
RTVSPropertyOp36
 70
     1
102
RTVSPropertyOp37
 70
     0
102
RTVSPropertyOp38
 70
     0
102
RTVSPropertyOp39
 70
     0
102
RTVSPropertyOp40
 70
     0
102
RTVSPropertyOp41
 70
     0
102
RTVSPropertyOp42
 70
     0
102
RTVSPropertyOp43
 70
     0
102
RTVSPropertyOp44
 70
     0
102
RTVSPropertyOp45
 70
     1
102
RTVSPropertyOp46
 70
     0
102
RTVSPropertyOp47
 70
     0
102
RTVSPropertyOp48
 70
     0
102
RTVSPropertyOp49
 70
     1
102
RTVSPropertyOp50
 70
     0
102
RTVSPropertyOp51
 70
     0
102
RTVSPropertyOp52
 70
     0
102
RTVSPropertyOp53
 70
     0
102
RTVSPropertyOp54
 70
     0
102
RTVSPropertyOp55
 70
     1
102
RTVSPropertyOp56
 70
     0
102
RTVSPropertyOp57
 70
     0
102
RTVSPropertyOp58
 70
     0
102
RTVSPropertyOp59
 70
     0
102
RTVSPropertyOp60
 70
     0
102
RTVSPropertyOp61
 70
     0
102
RTVSPropertyOp62
 70
     0
  0
XRECORD
  5
90F
102
{ACAD_REACTORS
330
90E
102
}
330
90E
100
AcDbXrecord
280
     1
102
RTVSPost2010Prop28
280
     0
102
RTVSPost2010PropOp28
 70
     1
102
RTVSPost2010Prop29
280
     1
102
RTVSPost2010PropOp29
 70
     1
102
RTVSPost2010Prop30
280
     1
102
RTVSPost2010PropOp30
 70
     1
102
RTVSPost2010Prop31
280
     0
102
RTVSPost2010PropOp31
 70
     1
102
RTVSPost2010Prop32
280
     0
102
RTVSPost2010PropOp32
 70
     1
102
RTVSPost2010Prop33
280
     0
102
RTVSPost2010PropOp33
 70
     1
102
RTVSPost2010Prop34
280
     0
102
RTVSPost2010PropOp34
 70
     1
102
RTVSPost2010Prop35
280
     0
102
RTVSPost2010PropOp35
 70
     1
102
RTVSPost2010Prop36
280
     0
102
RTVSPost2010PropOp36
 70
     1
102
RTVSPost2010Prop37
 90
       50
102
RTVSPost2010PropOp37
 70
     1
102
RTVSPost2010Prop38
140
0.0
102
RTVSPost2010PropOp38
 70
     1
102
RTVSPost2010Prop39
140
1.0
102
RTVSPost2010PropOp39
 70
     1
102
RTVSPost2010Prop40
 90
        0
102
RTVSPost2010PropOp40
 70
     1
102
RTVSPost2010Prop41ColorIndex
 90
       18
102
RTVSPost2010Prop41ColorRGB
 90
        0
102
RTVSPost2010PropOp41
 70
     1
102
RTVSPost2010Prop42
 90
       50
102
RTVSPost2010PropOp42
 70
     1
102
RTVSPost2010Prop43
 90
        3
102
RTVSPost2010PropOp43
 70
     1
102
RTVSPost2010Prop44ColorIndex
 90
        5
102
RTVSPost2010Prop44ColorRGB
 90
      255
102
RTVSPost2010PropOp44
 70
     1
102
RTVSPost2010Prop45
280
     0
102
RTVSPost2010PropOp45
 70
     1
102
RTVSPost2010Prop46
 90
       50
102
RTVSPost2010PropOp46
 70
     1
102
RTVSPost2010Prop47
 90
       50
102
RTVSPost2010PropOp47
 70
     1
102
RTVSPost2010Prop48
 90
       50
102
RTVSPost2010PropOp48
 70
     1
102
RTVSPost2010Prop49
280
     0
102
RTVSPost2010PropOp49
 70
     1
102
RTVSPost2010Prop50
 90
       50
102
RTVSPost2010PropOp50
 70
     1
102
RTVSPost2010Prop51ColorIndex
 90
      256
102
RTVSPost2010Prop51ColorRGB
 90
-16777216
102
RTVSPost2010PropOp51
 70
     0
102
RTVSPost2010Prop52
140
1.0
102
RTVSPost2010PropOp52
 70
     0
102
RTVSPost2010Prop53
 90
        2
102
RTVSPost2010PropOp53
 70
     1
102
RTVSPost2010Prop54
  1
strokes_ogs.tif
102
RTVSPost2010PropOp54
 70
     1
102
RTVSPost2010Prop55
280
     0
102
RTVSPost2010PropOp55
 70
     1
102
RTVSPost2010Prop56
140
1.0
102
RTVSPost2010PropOp56
 70
     1
102
RTVSPost2010Prop57
140
1.0
102
RTVSPost2010PropOp57
 70
     1
102
RTVSPropertyOp0
 70
     1
102
RTVSPropertyOp1
 70
     1
102
RTVSPropertyOp2
 70
     1
102
RTVSPropertyOp3
 70
     1
102
RTVSPropertyOp4
 70
     1
102
RTVSPropertyOp5
 70
     1
102
RTVSPropertyOp6
 70
     1
102
RTVSPropertyOp7
 70
     1
102
RTVSPropertyOp8
 70
     1
102
RTVSPropertyOp9
 70
     1
102
RTVSPropertyOp10
 70
     1
102
RTVSPropertyOp11
 70
     1
102
RTVSPropertyOp12
 70
     1
102
RTVSPropertyOp13
 70
     1
102
RTVSPropertyOp14
 70
     1
102
RTVSPropertyOp15
 70
     1
102
RTVSPropertyOp16
 70
     1
102
RTVSPropertyOp17
 70
     1
102
RTVSPropertyOp18
 70
     1
102
RTVSPropertyOp19
 70
     1
102
RTVSPropertyOp20
 70
     1
102
RTVSPropertyOp21
 70
     1
102
RTVSPropertyOp22
 70
     1
102
RTVSPropertyOp23
 70
     1
102
RTVSPropertyOp24
 70
     1
102
RTVSPropertyOp25
 70
     1
102
RTVSPropertyOp26
 70
     1
102
RTVSPropertyOp27
 70
     1
102
RTVSPropertyOp28
 70
     1
102
RTVSPropertyOp29
 70
     1
102
RTVSPropertyOp30
 70
     1
102
RTVSPropertyOp31
 70
     1
102
RTVSPropertyOp32
 70
     1
102
RTVSPropertyOp33
 70
     1
102
RTVSPropertyOp34
 70
     1
102
RTVSPropertyOp35
 70
     1
102
RTVSPropertyOp36
 70
     1
102
RTVSPropertyOp37
 70
     1
102
RTVSPropertyOp38
 70
     1
102
RTVSPropertyOp39
 70
     1
102
RTVSPropertyOp40
 70
     1
102
RTVSPropertyOp41
 70
     1
102
RTVSPropertyOp42
 70
     1
102
RTVSPropertyOp43
 70
     1
102
RTVSPropertyOp44
 70
     1
102
RTVSPropertyOp45
 70
     1
102
RTVSPropertyOp46
 70
     1
102
RTVSPropertyOp47
 70
     1
102
RTVSPropertyOp48
 70
     1
102
RTVSPropertyOp49
 70
     1
102
RTVSPropertyOp50
 70
     1
102
RTVSPropertyOp51
 70
     0
102
RTVSPropertyOp52
 70
     0
102
RTVSPropertyOp53
 70
     1
102
RTVSPropertyOp54
 70
     1
102
RTVSPropertyOp55
 70
     1
102
RTVSPropertyOp56
 70
     1
102
RTVSPropertyOp57
 70
     1
102
RTVSPropertyOp58
 70
     1
102
RTVSPropertyOp59
 70
     1
102
RTVSPropertyOp60
 70
     1
102
RTVSPropertyOp61
 70
     1
102
RTVSPropertyOp62
 70
     1
  0
XRECORD
  5
925
102
{ACAD_REACTORS
330
924
102
}
330
924
100
AcDbXrecord
280
     1
102
RTVSPost2010Prop28
280
     0
102
RTVSPost2010PropOp28
 70
     1
102
RTVSPost2010Prop29
280
     1
102
RTVSPost2010PropOp29
 70
     1
102
RTVSPost2010Prop30
280
     1
102
RTVSPost2010PropOp30
 70
     1
102
RTVSPost2010Prop31
280
     0
102
RTVSPost2010PropOp31
 70
     1
102
RTVSPost2010Prop32
280
     0
102
RTVSPost2010PropOp32
 70
     1
102
RTVSPost2010Prop33
280
     0
102
RTVSPost2010PropOp33
 70
     1
102
RTVSPost2010Prop34
280
     0
102
RTVSPost2010PropOp34
 70
     1
102
RTVSPost2010Prop35
280
     0
102
RTVSPost2010PropOp35
 70
     1
102
RTVSPost2010Prop36
280
     0
102
RTVSPost2010PropOp36
 70
     1
102
RTVSPost2010Prop37
 90
       50
102
RTVSPost2010PropOp37
 70
     1
102
RTVSPost2010Prop38
140
0.0
102
RTVSPost2010PropOp38
 70
     1
102
RTVSPost2010Prop39
140
1.0
102
RTVSPost2010PropOp39
 70
     1
102
RTVSPost2010Prop40
 90
        0
102
RTVSPost2010PropOp40
 70
     1
102
RTVSPost2010Prop41ColorIndex
 90
       18
102
RTVSPost2010Prop41ColorRGB
 90
        0
102
RTVSPost2010PropOp41
 70
     1
102
RTVSPost2010Prop42
 90
       50
102
RTVSPost2010PropOp42
 70
     1
102
RTVSPost2010Prop43
 90
        3
102
RTVSPost2010PropOp43
 70
     1
102
RTVSPost2010Prop44ColorIndex
 90
        5
102
RTVSPost2010Prop44ColorRGB
 90
      255
102
RTVSPost2010PropOp44
 70
     1
102
RTVSPost2010Prop45
280
     0
102
RTVSPost2010PropOp45
 70
     1
102
RTVSPost2010Prop46
 90
       50
102
RTVSPost2010PropOp46
 70
     1
102
RTVSPost2010Prop47
 90
       50
102
RTVSPost2010PropOp47
 70
     1
102
RTVSPost2010Prop48
 90
       50
102
RTVSPost2010PropOp48
 70
     1
102
RTVSPost2010Prop49
280
     0
102
RTVSPost2010PropOp49
 70
     1
102
RTVSPost2010Prop50
 90
       50
102
RTVSPost2010PropOp50
 70
     1
102
RTVSPost2010Prop51ColorIndex
 90
      256
102
RTVSPost2010Prop51ColorRGB
 90
-16777216
102
RTVSPost2010PropOp51
 70
     0
102
RTVSPost2010Prop52
140
1.0
102
RTVSPost2010PropOp52
 70
     0
102
RTVSPost2010Prop53
 90
        2
102
RTVSPost2010PropOp53
 70
     1
102
RTVSPost2010Prop54
  1
strokes_ogs.tif
102
RTVSPost2010PropOp54
 70
     1
102
RTVSPost2010Prop55
280
     0
102
RTVSPost2010PropOp55
 70
     1
102
RTVSPost2010Prop56
140
1.0
102
RTVSPost2010PropOp56
 70
     1
102
RTVSPost2010Prop57
140
1.0
102
RTVSPost2010PropOp57
 70
     1
102
RTVSPropertyOp0
 70
     1
102
RTVSPropertyOp1
 70
     1
102
RTVSPropertyOp2
 70
     1
102
RTVSPropertyOp3
 70
     1
102
RTVSPropertyOp4
 70
     1
102
RTVSPropertyOp5
 70
     1
102
RTVSPropertyOp6
 70
     1
102
RTVSPropertyOp7
 70
     1
102
RTVSPropertyOp8
 70
     1
102
RTVSPropertyOp9
 70
     1
102
RTVSPropertyOp10
 70
     1
102
RTVSPropertyOp11
 70
     1
102
RTVSPropertyOp12
 70
     1
102
RTVSPropertyOp13
 70
     1
102
RTVSPropertyOp14
 70
     1
102
RTVSPropertyOp15
 70
     1
102
RTVSPropertyOp16
 70
     1
102
RTVSPropertyOp17
 70
     1
102
RTVSPropertyOp18
 70
     1
102
RTVSPropertyOp19
 70
     1
102
RTVSPropertyOp20
 70
     1
102
RTVSPropertyOp21
 70
     1
102
RTVSPropertyOp22
 70
     1
102
RTVSPropertyOp23
 70
     1
102
RTVSPropertyOp24
 70
     1
102
RTVSPropertyOp25
 70
     1
102
RTVSPropertyOp26
 70
     1
102
RTVSPropertyOp27
 70
     1
102
RTVSPropertyOp28
 70
     1
102
RTVSPropertyOp29
 70
     1
102
RTVSPropertyOp30
 70
     1
102
RTVSPropertyOp31
 70
     1
102
RTVSPropertyOp32
 70
     1
102
RTVSPropertyOp33
 70
     1
102
RTVSPropertyOp34
 70
     1
102
RTVSPropertyOp35
 70
     1
102
RTVSPropertyOp36
 70
     1
102
RTVSPropertyOp37
 70
     1
102
RTVSPropertyOp38
 70
     1
102
RTVSPropertyOp39
 70
     1
102
RTVSPropertyOp40
 70
     1
102
RTVSPropertyOp41
 70
     1
102
RTVSPropertyOp42
 70
     1
102
RTVSPropertyOp43
 70
     1
102
RTVSPropertyOp44
 70
     1
102
RTVSPropertyOp45
 70
     1
102
RTVSPropertyOp46
 70
     1
102
RTVSPropertyOp47
 70
     1
102
RTVSPropertyOp48
 70
     1
102
RTVSPropertyOp49
 70
     1
102
RTVSPropertyOp50
 70
     1
102
RTVSPropertyOp51
 70
     0
102
RTVSPropertyOp52
 70
     0
102
RTVSPropertyOp53
 70
     1
102
RTVSPropertyOp54
 70
     1
102
RTVSPropertyOp55
 70
     1
102
RTVSPropertyOp56
 70
     1
102
RTVSPropertyOp57
 70
     1
102
RTVSPropertyOp58
 70
     1
102
RTVSPropertyOp59
 70
     1
102
RTVSPropertyOp60
 70
     1
102
RTVSPropertyOp61
 70
     1
102
RTVSPropertyOp62
 70
     1
  0
XRECORD
  5
923
102
{ACAD_REACTORS
330
922
102
}
330
922
100
AcDbXrecord
280
     1
102
RTVSPost2010Prop28
280
     0
102
RTVSPost2010PropOp28
 70
     1
102
RTVSPost2010Prop29
280
     1
102
RTVSPost2010PropOp29
 70
     1
102
RTVSPost2010Prop30
280
     1
102
RTVSPost2010PropOp30
 70
     1
102
RTVSPost2010Prop31
280
     0
102
RTVSPost2010PropOp31
 70
     1
102
RTVSPost2010Prop32
280
     0
102
RTVSPost2010PropOp32
 70
     1
102
RTVSPost2010Prop33
280
     0
102
RTVSPost2010PropOp33
 70
     1
102
RTVSPost2010Prop34
280
     0
102
RTVSPost2010PropOp34
 70
     1
102
RTVSPost2010Prop35
280
     0
102
RTVSPost2010PropOp35
 70
     1
102
RTVSPost2010Prop36
280
     0
102
RTVSPost2010PropOp36
 70
     1
102
RTVSPost2010Prop37
 90
       50
102
RTVSPost2010PropOp37
 70
     1
102
RTVSPost2010Prop38
140
0.0
102
RTVSPost2010PropOp38
 70
     1
102
RTVSPost2010Prop39
140
1.0
102
RTVSPost2010PropOp39
 70
     1
102
RTVSPost2010Prop40
 90
        0
102
RTVSPost2010PropOp40
 70
     1
102
RTVSPost2010Prop41ColorIndex
 90
       18
102
RTVSPost2010Prop41ColorRGB
 90
        0
102
RTVSPost2010PropOp41
 70
     1
102
RTVSPost2010Prop42
 90
       50
102
RTVSPost2010PropOp42
 70
     1
102
RTVSPost2010Prop43
 90
        3
102
RTVSPost2010PropOp43
 70
     1
102
RTVSPost2010Prop44ColorIndex
 90
        5
102
RTVSPost2010Prop44ColorRGB
 90
      255
102
RTVSPost2010PropOp44
 70
     1
102
RTVSPost2010Prop45
280
     0
102
RTVSPost2010PropOp45
 70
     1
102
RTVSPost2010Prop46
 90
       50
102
RTVSPost2010PropOp46
 70
     1
102
RTVSPost2010Prop47
 90
       50
102
RTVSPost2010PropOp47
 70
     1
102
RTVSPost2010Prop48
 90
       50
102
RTVSPost2010PropOp48
 70
     1
102
RTVSPost2010Prop49
280
     0
102
RTVSPost2010PropOp49
 70
     1
102
RTVSPost2010Prop50
 90
       50
102
RTVSPost2010PropOp50
 70
     1
102
RTVSPost2010Prop51ColorIndex
 90
      256
102
RTVSPost2010Prop51ColorRGB
 90
-16777216
102
RTVSPost2010PropOp51
 70
     0
102
RTVSPost2010Prop52
140
1.0
102
RTVSPost2010PropOp52
 70
     0
102
RTVSPost2010Prop53
 90
        2
102
RTVSPost2010PropOp53
 70
     1
102
RTVSPost2010Prop54
  1
strokes_ogs.tif
102
RTVSPost2010PropOp54
 70
     1
102
RTVSPost2010Prop55
280
     0
102
RTVSPost2010PropOp55
 70
     1
102
RTVSPost2010Prop56
140
1.0
102
RTVSPost2010PropOp56
 70
     1
102
RTVSPost2010Prop57
140
1.0
102
RTVSPost2010PropOp57
 70
     1
102
RTVSPropertyOp0
 70
     1
102
RTVSPropertyOp1
 70
     1
102
RTVSPropertyOp2
 70
     1
102
RTVSPropertyOp3
 70
     1
102
RTVSPropertyOp4
 70
     1
102
RTVSPropertyOp5
 70
     1
102
RTVSPropertyOp6
 70
     1
102
RTVSPropertyOp7
 70
     1
102
RTVSPropertyOp8
 70
     1
102
RTVSPropertyOp9
 70
     1
102
RTVSPropertyOp10
 70
     1
102
RTVSPropertyOp11
 70
     1
102
RTVSPropertyOp12
 70
     1
102
RTVSPropertyOp13
 70
     1
102
RTVSPropertyOp14
 70
     1
102
RTVSPropertyOp15
 70
     1
102
RTVSPropertyOp16
 70
     1
102
RTVSPropertyOp17
 70
     1
102
RTVSPropertyOp18
 70
     1
102
RTVSPropertyOp19
 70
     1
102
RTVSPropertyOp20
 70
     1
102
RTVSPropertyOp21
 70
     1
102
RTVSPropertyOp22
 70
     1
102
RTVSPropertyOp23
 70
     1
102
RTVSPropertyOp24
 70
     1
102
RTVSPropertyOp25
 70
     1
102
RTVSPropertyOp26
 70
     1
102
RTVSPropertyOp27
 70
     1
102
RTVSPropertyOp28
 70
     1
102
RTVSPropertyOp29
 70
     1
102
RTVSPropertyOp30
 70
     1
102
RTVSPropertyOp31
 70
     1
102
RTVSPropertyOp32
 70
     1
102
RTVSPropertyOp33
 70
     1
102
RTVSPropertyOp34
 70
     1
102
RTVSPropertyOp35
 70
     1
102
RTVSPropertyOp36
 70
     1
102
RTVSPropertyOp37
 70
     1
102
RTVSPropertyOp38
 70
     1
102
RTVSPropertyOp39
 70
     1
102
RTVSPropertyOp40
 70
     1
102
RTVSPropertyOp41
 70
     1
102
RTVSPropertyOp42
 70
     1
102
RTVSPropertyOp43
 70
     1
102
RTVSPropertyOp44
 70
     1
102
RTVSPropertyOp45
 70
     1
102
RTVSPropertyOp46
 70
     1
102
RTVSPropertyOp47
 70
     1
102
RTVSPropertyOp48
 70
     1
102
RTVSPropertyOp49
 70
     1
102
RTVSPropertyOp50
 70
     1
102
RTVSPropertyOp51
 70
     0
102
RTVSPropertyOp52
 70
     0
102
RTVSPropertyOp53
 70
     1
102
RTVSPropertyOp54
 70
     1
102
RTVSPropertyOp55
 70
     1
102
RTVSPropertyOp56
 70
     1
102
RTVSPropertyOp57
 70
     1
102
RTVSPropertyOp58
 70
     1
102
RTVSPropertyOp59
 70
     1
102
RTVSPropertyOp60
 70
     1
102
RTVSPropertyOp61
 70
     1
102
RTVSPropertyOp62
 70
     1
  0
XRECORD
  5
91D
102
{ACAD_REACTORS
330
91C
102
}
330
91C
100
AcDbXrecord
280
     1
102
RTVSPost2010Prop28
280
     0
102
RTVSPost2010PropOp28
 70
     1
102
RTVSPost2010Prop29
280
     1
102
RTVSPost2010PropOp29
 70
     1
102
RTVSPost2010Prop30
280
     1
102
RTVSPost2010PropOp30
 70
     1
102
RTVSPost2010Prop31
280
     0
102
RTVSPost2010PropOp31
 70
     1
102
RTVSPost2010Prop32
280
     0
102
RTVSPost2010PropOp32
 70
     1
102
RTVSPost2010Prop33
280
     0
102
RTVSPost2010PropOp33
 70
     1
102
RTVSPost2010Prop34
280
     0
102
RTVSPost2010PropOp34
 70
     1
102
RTVSPost2010Prop35
280
     0
102
RTVSPost2010PropOp35
 70
     1
102
RTVSPost2010Prop36
280
     0
102
RTVSPost2010PropOp36
 70
     1
102
RTVSPost2010Prop37
 90
       50
102
RTVSPost2010PropOp37
 70
     1
102
RTVSPost2010Prop38
140
0.0
102
RTVSPost2010PropOp38
 70
     1
102
RTVSPost2010Prop39
140
1.0
102
RTVSPost2010PropOp39
 70
     1
102
RTVSPost2010Prop40
 90
        0
102
RTVSPost2010PropOp40
 70
     1
102
RTVSPost2010Prop41ColorIndex
 90
       18
102
RTVSPost2010Prop41ColorRGB
 90
        0
102
RTVSPost2010PropOp41
 70
     1
102
RTVSPost2010Prop42
 90
       50
102
RTVSPost2010PropOp42
 70
     1
102
RTVSPost2010Prop43
 90
        3
102
RTVSPost2010PropOp43
 70
     1
102
RTVSPost2010Prop44ColorIndex
 90
        5
102
RTVSPost2010Prop44ColorRGB
 90
      255
102
RTVSPost2010PropOp44
 70
     1
102
RTVSPost2010Prop45
280
     0
102
RTVSPost2010PropOp45
 70
     1
102
RTVSPost2010Prop46
 90
       50
102
RTVSPost2010PropOp46
 70
     1
102
RTVSPost2010Prop47
 90
       50
102
RTVSPost2010PropOp47
 70
     1
102
RTVSPost2010Prop48
 90
       50
102
RTVSPost2010PropOp48
 70
     1
102
RTVSPost2010Prop49
280
     0
102
RTVSPost2010PropOp49
 70
     1
102
RTVSPost2010Prop50
 90
       50
102
RTVSPost2010PropOp50
 70
     1
102
RTVSPost2010Prop51ColorIndex
 90
      256
102
RTVSPost2010Prop51ColorRGB
 90
-16777216
102
RTVSPost2010PropOp51
 70
     0
102
RTVSPost2010Prop52
140
1.0
102
RTVSPost2010PropOp52
 70
     0
102
RTVSPost2010Prop53
 90
        2
102
RTVSPost2010PropOp53
 70
     1
102
RTVSPost2010Prop54
  1
strokes_ogs.tif
102
RTVSPost2010PropOp54
 70
     1
102
RTVSPost2010Prop55
280
     0
102
RTVSPost2010PropOp55
 70
     1
102
RTVSPost2010Prop56
140
1.0
102
RTVSPost2010PropOp56
 70
     1
102
RTVSPost2010Prop57
140
1.0
102
RTVSPost2010PropOp57
 70
     1
102
RTVSPropertyOp0
 70
     1
102
RTVSPropertyOp1
 70
     1
102
RTVSPropertyOp2
 70
     1
102
RTVSPropertyOp3
 70
     1
102
RTVSPropertyOp4
 70
     1
102
RTVSPropertyOp5
 70
     1
102
RTVSPropertyOp6
 70
     1
102
RTVSPropertyOp7
 70
     1
102
RTVSPropertyOp8
 70
     1
102
RTVSPropertyOp9
 70
     1
102
RTVSPropertyOp10
 70
     1
102
RTVSPropertyOp11
 70
     1
102
RTVSPropertyOp12
 70
     1
102
RTVSPropertyOp13
 70
     1
102
RTVSPropertyOp14
 70
     1
102
RTVSPropertyOp15
 70
     1
102
RTVSPropertyOp16
 70
     1
102
RTVSPropertyOp17
 70
     1
102
RTVSPropertyOp18
 70
     1
102
RTVSPropertyOp19
 70
     1
102
RTVSPropertyOp20
 70
     1
102
RTVSPropertyOp21
 70
     1
102
RTVSPropertyOp22
 70
     1
102
RTVSPropertyOp23
 70
     1
102
RTVSPropertyOp24
 70
     1
102
RTVSPropertyOp25
 70
     1
102
RTVSPropertyOp26
 70
     1
102
RTVSPropertyOp27
 70
     1
102
RTVSPropertyOp28
 70
     1
102
RTVSPropertyOp29
 70
     1
102
RTVSPropertyOp30
 70
     1
102
RTVSPropertyOp31
 70
     1
102
RTVSPropertyOp32
 70
     1
102
RTVSPropertyOp33
 70
     1
102
RTVSPropertyOp34
 70
     1
102
RTVSPropertyOp35
 70
     1
102
RTVSPropertyOp36
 70
     1
102
RTVSPropertyOp37
 70
     1
102
RTVSPropertyOp38
 70
     1
102
RTVSPropertyOp39
 70
     1
102
RTVSPropertyOp40
 70
     1
102
RTVSPropertyOp41
 70
     1
102
RTVSPropertyOp42
 70
     1
102
RTVSPropertyOp43
 70
     1
102
RTVSPropertyOp44
 70
     1
102
RTVSPropertyOp45
 70
     1
102
RTVSPropertyOp46
 70
     1
102
RTVSPropertyOp47
 70
     1
102
RTVSPropertyOp48
 70
     1
102
RTVSPropertyOp49
 70
     1
102
RTVSPropertyOp50
 70
     1
102
RTVSPropertyOp51
 70
     0
102
RTVSPropertyOp52
 70
     0
102
RTVSPropertyOp53
 70
     1
102
RTVSPropertyOp54
 70
     1
102
RTVSPropertyOp55
 70
     1
102
RTVSPropertyOp56
 70
     1
102
RTVSPropertyOp57
 70
     1
102
RTVSPropertyOp58
 70
     1
102
RTVSPropertyOp59
 70
     1
102
RTVSPropertyOp60
 70
     1
102
RTVSPropertyOp61
 70
     1
102
RTVSPropertyOp62
 70
     1
  0
XRECORD
  5
91F
102
{ACAD_REACTORS
330
91E
102
}
330
91E
100
AcDbXrecord
280
     1
102
RTVSPost2010Prop28
280
     0
102
RTVSPost2010PropOp28
 70
     1
102
RTVSPost2010Prop29
280
     1
102
RTVSPost2010PropOp29
 70
     1
102
RTVSPost2010Prop30
280
     1
102
RTVSPost2010PropOp30
 70
     1
102
RTVSPost2010Prop31
280
     0
102
RTVSPost2010PropOp31
 70
     1
102
RTVSPost2010Prop32
280
     0
102
RTVSPost2010PropOp32
 70
     1
102
RTVSPost2010Prop33
280
     0
102
RTVSPost2010PropOp33
 70
     1
102
RTVSPost2010Prop34
280
     0
102
RTVSPost2010PropOp34
 70
     1
102
RTVSPost2010Prop35
280
     0
102
RTVSPost2010PropOp35
 70
     1
102
RTVSPost2010Prop36
280
     0
102
RTVSPost2010PropOp36
 70
     1
102
RTVSPost2010Prop37
 90
       50
102
RTVSPost2010PropOp37
 70
     1
102
RTVSPost2010Prop38
140
0.0
102
RTVSPost2010PropOp38
 70
     1
102
RTVSPost2010Prop39
140
1.0
102
RTVSPost2010PropOp39
 70
     1
102
RTVSPost2010Prop40
 90
        0
102
RTVSPost2010PropOp40
 70
     1
102
RTVSPost2010Prop41ColorIndex
 90
       18
102
RTVSPost2010Prop41ColorRGB
 90
        0
102
RTVSPost2010PropOp41
 70
     1
102
RTVSPost2010Prop42
 90
       50
102
RTVSPost2010PropOp42
 70
     1
102
RTVSPost2010Prop43
 90
        3
102
RTVSPost2010PropOp43
 70
     1
102
RTVSPost2010Prop44ColorIndex
 90
        5
102
RTVSPost2010Prop44ColorRGB
 90
      255
102
RTVSPost2010PropOp44
 70
     1
102
RTVSPost2010Prop45
280
     0
102
RTVSPost2010PropOp45
 70
     1
102
RTVSPost2010Prop46
 90
       50
102
RTVSPost2010PropOp46
 70
     1
102
RTVSPost2010Prop47
 90
       50
102
RTVSPost2010PropOp47
 70
     1
102
RTVSPost2010Prop48
 90
       50
102
RTVSPost2010PropOp48
 70
     1
102
RTVSPost2010Prop49
280
     0
102
RTVSPost2010PropOp49
 70
     1
102
RTVSPost2010Prop50
 90
       50
102
RTVSPost2010PropOp50
 70
     1
102
RTVSPost2010Prop51ColorIndex
 90
      256
102
RTVSPost2010Prop51ColorRGB
 90
-16777216
102
RTVSPost2010PropOp51
 70
     0
102
RTVSPost2010Prop52
140
1.0
102
RTVSPost2010PropOp52
 70
     0
102
RTVSPost2010Prop53
 90
        2
102
RTVSPost2010PropOp53
 70
     1
102
RTVSPost2010Prop54
  1
strokes_ogs.tif
102
RTVSPost2010PropOp54
 70
     1
102
RTVSPost2010Prop55
280
     0
102
RTVSPost2010PropOp55
 70
     1
102
RTVSPost2010Prop56
140
1.0
102
RTVSPost2010PropOp56
 70
     1
102
RTVSPost2010Prop57
140
1.0
102
RTVSPost2010PropOp57
 70
     1
102
RTVSPropertyOp0
 70
     1
102
RTVSPropertyOp1
 70
     1
102
RTVSPropertyOp2
 70
     1
102
RTVSPropertyOp3
 70
     1
102
RTVSPropertyOp4
 70
     1
102
RTVSPropertyOp5
 70
     1
102
RTVSPropertyOp6
 70
     1
102
RTVSPropertyOp7
 70
     1
102
RTVSPropertyOp8
 70
     1
102
RTVSPropertyOp9
 70
     1
102
RTVSPropertyOp10
 70
     1
102
RTVSPropertyOp11
 70
     1
102
RTVSPropertyOp12
 70
     1
102
RTVSPropertyOp13
 70
     1
102
RTVSPropertyOp14
 70
     1
102
RTVSPropertyOp15
 70
     1
102
RTVSPropertyOp16
 70
     1
102
RTVSPropertyOp17
 70
     1
102
RTVSPropertyOp18
 70
     1
102
RTVSPropertyOp19
 70
     1
102
RTVSPropertyOp20
 70
     1
102
RTVSPropertyOp21
 70
     1
102
RTVSPropertyOp22
 70
     1
102
RTVSPropertyOp23
 70
     1
102
RTVSPropertyOp24
 70
     1
102
RTVSPropertyOp25
 70
     1
102
RTVSPropertyOp26
 70
     1
102
RTVSPropertyOp27
 70
     1
102
RTVSPropertyOp28
 70
     1
102
RTVSPropertyOp29
 70
     1
102
RTVSPropertyOp30
 70
     1
102
RTVSPropertyOp31
 70
     1
102
RTVSPropertyOp32
 70
     1
102
RTVSPropertyOp33
 70
     1
102
RTVSPropertyOp34
 70
     1
102
RTVSPropertyOp35
 70
     1
102
RTVSPropertyOp36
 70
     1
102
RTVSPropertyOp37
 70
     1
102
RTVSPropertyOp38
 70
     1
102
RTVSPropertyOp39
 70
     1
102
RTVSPropertyOp40
 70
     1
102
RTVSPropertyOp41
 70
     1
102
RTVSPropertyOp42
 70
     1
102
RTVSPropertyOp43
 70
     1
102
RTVSPropertyOp44
 70
     1
102
RTVSPropertyOp45
 70
     1
102
RTVSPropertyOp46
 70
     1
102
RTVSPropertyOp47
 70
     1
102
RTVSPropertyOp48
 70
     1
102
RTVSPropertyOp49
 70
     1
102
RTVSPropertyOp50
 70
     1
102
RTVSPropertyOp51
 70
     0
102
RTVSPropertyOp52
 70
     0
102
RTVSPropertyOp53
 70
     1
102
RTVSPropertyOp54
 70
     1
102
RTVSPropertyOp55
 70
     1
102
RTVSPropertyOp56
 70
     1
102
RTVSPropertyOp57
 70
     1
102
RTVSPropertyOp58
 70
     1
102
RTVSPropertyOp59
 70
     1
102
RTVSPropertyOp60
 70
     1
102
RTVSPropertyOp61
 70
     1
102
RTVSPropertyOp62
 70
     1
  0
XRECORD
  5
915
102
{ACAD_REACTORS
330
914
102
}
330
914
100
AcDbXrecord
280
     1
102
RTVSPost2010Prop28
280
     0
102
RTVSPost2010PropOp28
 70
     1
102
RTVSPost2010Prop29
280
     1
102
RTVSPost2010PropOp29
 70
     1
102
RTVSPost2010Prop30
280
     1
102
RTVSPost2010PropOp30
 70
     1
102
RTVSPost2010Prop31
280
     0
102
RTVSPost2010PropOp31
 70
     1
102
RTVSPost2010Prop32
280
     0
102
RTVSPost2010PropOp32
 70
     1
102
RTVSPost2010Prop33
280
     0
102
RTVSPost2010PropOp33
 70
     1
102
RTVSPost2010Prop34
280
     0
102
RTVSPost2010PropOp34
 70
     1
102
RTVSPost2010Prop35
280
     0
102
RTVSPost2010PropOp35
 70
     1
102
RTVSPost2010Prop36
280
     0
102
RTVSPost2010PropOp36
 70
     1
102
RTVSPost2010Prop37
 90
       50
102
RTVSPost2010PropOp37
 70
     1
102
RTVSPost2010Prop38
140
0.0
102
RTVSPost2010PropOp38
 70
     1
102
RTVSPost2010Prop39
140
1.0
102
RTVSPost2010PropOp39
 70
     1
102
RTVSPost2010Prop40
 90
        0
102
RTVSPost2010PropOp40
 70
     1
102
RTVSPost2010Prop41ColorIndex
 90
       18
102
RTVSPost2010Prop41ColorRGB
 90
        0
102
RTVSPost2010PropOp41
 70
     1
102
RTVSPost2010Prop42
 90
       50
102
RTVSPost2010PropOp42
 70
     1
102
RTVSPost2010Prop43
 90
        3
102
RTVSPost2010PropOp43
 70
     1
102
RTVSPost2010Prop44ColorIndex
 90
        5
102
RTVSPost2010Prop44ColorRGB
 90
      255
102
RTVSPost2010PropOp44
 70
     1
102
RTVSPost2010Prop45
280
     0
102
RTVSPost2010PropOp45
 70
     1
102
RTVSPost2010Prop46
 90
       50
102
RTVSPost2010PropOp46
 70
     1
102
RTVSPost2010Prop47
 90
       50
102
RTVSPost2010PropOp47
 70
     1
102
RTVSPost2010Prop48
 90
       50
102
RTVSPost2010PropOp48
 70
     1
102
RTVSPost2010Prop49
280
     0
102
RTVSPost2010PropOp49
 70
     1
102
RTVSPost2010Prop50
 90
       50
102
RTVSPost2010PropOp50
 70
     1
102
RTVSPost2010Prop51ColorIndex
 90
      256
102
RTVSPost2010Prop51ColorRGB
 90
-16777216
102
RTVSPost2010PropOp51
 70
     0
102
RTVSPost2010Prop52
140
1.0
102
RTVSPost2010PropOp52
 70
     0
102
RTVSPost2010Prop53
 90
        2
102
RTVSPost2010PropOp53
 70
     1
102
RTVSPost2010Prop54
  1
strokes_ogs.tif
102
RTVSPost2010PropOp54
 70
     1
102
RTVSPost2010Prop55
280
     0
102
RTVSPost2010PropOp55
 70
     1
102
RTVSPost2010Prop56
140
1.0
102
RTVSPost2010PropOp56
 70
     1
102
RTVSPost2010Prop57
140
1.0
102
RTVSPost2010PropOp57
 70
     1
102
RTVSPropertyOp0
 70
     1
102
RTVSPropertyOp1
 70
     1
102
RTVSPropertyOp2
 70
     1
102
RTVSPropertyOp3
 70
     1
102
RTVSPropertyOp4
 70
     1
102
RTVSPropertyOp5
 70
     1
102
RTVSPropertyOp6
 70
     1
102
RTVSPropertyOp7
 70
     1
102
RTVSPropertyOp8
 70
     1
102
RTVSPropertyOp9
 70
     1
102
RTVSPropertyOp10
 70
     1
102
RTVSPropertyOp11
 70
     1
102
RTVSPropertyOp12
 70
     1
102
RTVSPropertyOp13
 70
     1
102
RTVSPropertyOp14
 70
     1
102
RTVSPropertyOp15
 70
     1
102
RTVSPropertyOp16
 70
     1
102
RTVSPropertyOp17
 70
     1
102
RTVSPropertyOp18
 70
     1
102
RTVSPropertyOp19
 70
     1
102
RTVSPropertyOp20
 70
     1
102
RTVSPropertyOp21
 70
     1
102
RTVSPropertyOp22
 70
     1
102
RTVSPropertyOp23
 70
     1
102
RTVSPropertyOp24
 70
     1
102
RTVSPropertyOp25
 70
     1
102
RTVSPropertyOp26
 70
     1
102
RTVSPropertyOp27
 70
     1
102
RTVSPropertyOp28
 70
     1
102
RTVSPropertyOp29
 70
     1
102
RTVSPropertyOp30
 70
     1
102
RTVSPropertyOp31
 70
     1
102
RTVSPropertyOp32
 70
     1
102
RTVSPropertyOp33
 70
     1
102
RTVSPropertyOp34
 70
     1
102
RTVSPropertyOp35
 70
     1
102
RTVSPropertyOp36
 70
     1
102
RTVSPropertyOp37
 70
     1
102
RTVSPropertyOp38
 70
     1
102
RTVSPropertyOp39
 70
     1
102
RTVSPropertyOp40
 70
     1
102
RTVSPropertyOp41
 70
     1
102
RTVSPropertyOp42
 70
     1
102
RTVSPropertyOp43
 70
     1
102
RTVSPropertyOp44
 70
     1
102
RTVSPropertyOp45
 70
     1
102
RTVSPropertyOp46
 70
     1
102
RTVSPropertyOp47
 70
     1
102
RTVSPropertyOp48
 70
     1
102
RTVSPropertyOp49
 70
     1
102
RTVSPropertyOp50
 70
     1
102
RTVSPropertyOp51
 70
     0
102
RTVSPropertyOp52
 70
     0
102
RTVSPropertyOp53
 70
     1
102
RTVSPropertyOp54
 70
     1
102
RTVSPropertyOp55
 70
     1
102
RTVSPropertyOp56
 70
     1
102
RTVSPropertyOp57
 70
     1
102
RTVSPropertyOp58
 70
     1
102
RTVSPropertyOp59
 70
     1
102
RTVSPropertyOp60
 70
     1
102
RTVSPropertyOp61
 70
     1
102
RTVSPropertyOp62
 70
     1
  0
XRECORD
  5
909
102
{ACAD_REACTORS
330
908
102
}
330
908
100
AcDbXrecord
280
     1
102
RTVSPost2010Prop28
280
     0
102
RTVSPost2010PropOp28
 70
     1
102
RTVSPost2010Prop29
280
     1
102
RTVSPost2010PropOp29
 70
     1
102
RTVSPost2010Prop30
280
     1
102
RTVSPost2010PropOp30
 70
     1
102
RTVSPost2010Prop31
280
     0
102
RTVSPost2010PropOp31
 70
     1
102
RTVSPost2010Prop32
280
     0
102
RTVSPost2010PropOp32
 70
     1
102
RTVSPost2010Prop33
280
     0
102
RTVSPost2010PropOp33
 70
     1
102
RTVSPost2010Prop34
280
     0
102
RTVSPost2010PropOp34
 70
     1
102
RTVSPost2010Prop35
280
     0
102
RTVSPost2010PropOp35
 70
     1
102
RTVSPost2010Prop36
280
     0
102
RTVSPost2010PropOp36
 70
     1
102
RTVSPost2010Prop37
 90
       50
102
RTVSPost2010PropOp37
 70
     1
102
RTVSPost2010Prop38
140
0.0
102
RTVSPost2010PropOp38
 70
     1
102
RTVSPost2010Prop39
140
1.0
102
RTVSPost2010PropOp39
 70
     1
102
RTVSPost2010Prop40
 90
        0
102
RTVSPost2010PropOp40
 70
     1
102
RTVSPost2010Prop41ColorIndex
 90
       18
102
RTVSPost2010Prop41ColorRGB
 90
        0
102
RTVSPost2010PropOp41
 70
     1
102
RTVSPost2010Prop42
 90
       50
102
RTVSPost2010PropOp42
 70
     1
102
RTVSPost2010Prop43
 90
        3
102
RTVSPost2010PropOp43
 70
     1
102
RTVSPost2010Prop44ColorIndex
 90
        5
102
RTVSPost2010Prop44ColorRGB
 90
      255
102
RTVSPost2010PropOp44
 70
     1
102
RTVSPost2010Prop45
280
     0
102
RTVSPost2010PropOp45
 70
     1
102
RTVSPost2010Prop46
 90
       50
102
RTVSPost2010PropOp46
 70
     1
102
RTVSPost2010Prop47
 90
       50
102
RTVSPost2010PropOp47
 70
     1
102
RTVSPost2010Prop48
 90
       50
102
RTVSPost2010PropOp48
 70
     1
102
RTVSPost2010Prop49
280
     0
102
RTVSPost2010PropOp49
 70
     1
102
RTVSPost2010Prop50
 90
       50
102
RTVSPost2010PropOp50
 70
     1
102
RTVSPost2010Prop51ColorIndex
 90
      256
102
RTVSPost2010Prop51ColorRGB
 90
-16777216
102
RTVSPost2010PropOp51
 70
     0
102
RTVSPost2010Prop52
140
1.0
102
RTVSPost2010PropOp52
 70
     0
102
RTVSPost2010Prop53
 90
        2
102
RTVSPost2010PropOp53
 70
     1
102
RTVSPost2010Prop54
  1
strokes_ogs.tif
102
RTVSPost2010PropOp54
 70
     1
102
RTVSPost2010Prop55
280
     0
102
RTVSPost2010PropOp55
 70
     1
102
RTVSPost2010Prop56
140
1.0
102
RTVSPost2010PropOp56
 70
     1
102
RTVSPost2010Prop57
140
1.0
102
RTVSPost2010PropOp57
 70
     1
102
RTVSPropertyOp0
 70
     1
102
RTVSPropertyOp1
 70
     1
102
RTVSPropertyOp2
 70
     1
102
RTVSPropertyOp3
 70
     1
102
RTVSPropertyOp4
 70
     1
102
RTVSPropertyOp5
 70
     1
102
RTVSPropertyOp6
 70
     1
102
RTVSPropertyOp7
 70
     1
102
RTVSPropertyOp8
 70
     1
102
RTVSPropertyOp9
 70
     1
102
RTVSPropertyOp10
 70
     1
102
RTVSPropertyOp11
 70
     1
102
RTVSPropertyOp12
 70
     1
102
RTVSPropertyOp13
 70
     1
102
RTVSPropertyOp14
 70
     1
102
RTVSPropertyOp15
 70
     1
102
RTVSPropertyOp16
 70
     1
102
RTVSPropertyOp17
 70
     1
102
RTVSPropertyOp18
 70
     1
102
RTVSPropertyOp19
 70
     1
102
RTVSPropertyOp20
 70
     1
102
RTVSPropertyOp21
 70
     1
102
RTVSPropertyOp22
 70
     1
102
RTVSPropertyOp23
 70
     1
102
RTVSPropertyOp24
 70
     1
102
RTVSPropertyOp25
 70
     1
102
RTVSPropertyOp26
 70
     1
102
RTVSPropertyOp27
 70
     1
102
RTVSPropertyOp28
 70
     1
102
RTVSPropertyOp29
 70
     1
102
RTVSPropertyOp30
 70
     1
102
RTVSPropertyOp31
 70
     1
102
RTVSPropertyOp32
 70
     1
102
RTVSPropertyOp33
 70
     1
102
RTVSPropertyOp34
 70
     1
102
RTVSPropertyOp35
 70
     1
102
RTVSPropertyOp36
 70
     1
102
RTVSPropertyOp37
 70
     1
102
RTVSPropertyOp38
 70
     1
102
RTVSPropertyOp39
 70
     1
102
RTVSPropertyOp40
 70
     1
102
RTVSPropertyOp41
 70
     1
102
RTVSPropertyOp42
 70
     1
102
RTVSPropertyOp43
 70
     1
102
RTVSPropertyOp44
 70
     1
102
RTVSPropertyOp45
 70
     1
102
RTVSPropertyOp46
 70
     1
102
RTVSPropertyOp47
 70
     1
102
RTVSPropertyOp48
 70
     1
102
RTVSPropertyOp49
 70
     1
102
RTVSPropertyOp50
 70
     1
102
RTVSPropertyOp51
 70
     0
102
RTVSPropertyOp52
 70
     0
102
RTVSPropertyOp53
 70
     1
102
RTVSPropertyOp54
 70
     1
102
RTVSPropertyOp55
 70
     1
102
RTVSPropertyOp56
 70
     1
102
RTVSPropertyOp57
 70
     1
102
RTVSPropertyOp58
 70
     1
102
RTVSPropertyOp59
 70
     1
102
RTVSPropertyOp60
 70
     1
102
RTVSPropertyOp61
 70
     1
102
RTVSPropertyOp62
 70
     1
  0
XRECORD
  5
921
102
{ACAD_REACTORS
330
920
102
}
330
920
100
AcDbXrecord
280
     1
102
RTVSPost2010Prop28
280
     0
102
RTVSPost2010PropOp28
 70
     1
102
RTVSPost2010Prop29
280
     1
102
RTVSPost2010PropOp29
 70
     1
102
RTVSPost2010Prop30
280
     1
102
RTVSPost2010PropOp30
 70
     1
102
RTVSPost2010Prop31
280
     0
102
RTVSPost2010PropOp31
 70
     1
102
RTVSPost2010Prop32
280
     0
102
RTVSPost2010PropOp32
 70
     1
102
RTVSPost2010Prop33
280
     0
102
RTVSPost2010PropOp33
 70
     1
102
RTVSPost2010Prop34
280
     0
102
RTVSPost2010PropOp34
 70
     1
102
RTVSPost2010Prop35
280
     0
102
RTVSPost2010PropOp35
 70
     1
102
RTVSPost2010Prop36
280
     0
102
RTVSPost2010PropOp36
 70
     1
102
RTVSPost2010Prop37
 90
       50
102
RTVSPost2010PropOp37
 70
     1
102
RTVSPost2010Prop38
140
0.0
102
RTVSPost2010PropOp38
 70
     1
102
RTVSPost2010Prop39
140
1.0
102
RTVSPost2010PropOp39
 70
     1
102
RTVSPost2010Prop40
 90
        0
102
RTVSPost2010PropOp40
 70
     1
102
RTVSPost2010Prop41ColorIndex
 90
       18
102
RTVSPost2010Prop41ColorRGB
 90
        0
102
RTVSPost2010PropOp41
 70
     1
102
RTVSPost2010Prop42
 90
       50
102
RTVSPost2010PropOp42
 70
     1
102
RTVSPost2010Prop43
 90
        3
102
RTVSPost2010PropOp43
 70
     1
102
RTVSPost2010Prop44ColorIndex
 90
        5
102
RTVSPost2010Prop44ColorRGB
 90
      255
102
RTVSPost2010PropOp44
 70
     1
102
RTVSPost2010Prop45
280
     0
102
RTVSPost2010PropOp45
 70
     1
102
RTVSPost2010Prop46
 90
       50
102
RTVSPost2010PropOp46
 70
     1
102
RTVSPost2010Prop47
 90
       50
102
RTVSPost2010PropOp47
 70
     1
102
RTVSPost2010Prop48
 90
       50
102
RTVSPost2010PropOp48
 70
     1
102
RTVSPost2010Prop49
280
     0
102
RTVSPost2010PropOp49
 70
     1
102
RTVSPost2010Prop50
 90
       50
102
RTVSPost2010PropOp50
 70
     1
102
RTVSPost2010Prop51ColorIndex
 90
      256
102
RTVSPost2010Prop51ColorRGB
 90
-16777216
102
RTVSPost2010PropOp51
 70
     0
102
RTVSPost2010Prop52
140
1.0
102
RTVSPost2010PropOp52
 70
     0
102
RTVSPost2010Prop53
 90
        2
102
RTVSPost2010PropOp53
 70
     1
102
RTVSPost2010Prop54
  1
strokes_ogs.tif
102
RTVSPost2010PropOp54
 70
     1
102
RTVSPost2010Prop55
280
     0
102
RTVSPost2010PropOp55
 70
     1
102
RTVSPost2010Prop56
140
1.0
102
RTVSPost2010PropOp56
 70
     1
102
RTVSPost2010Prop57
140
1.0
102
RTVSPost2010PropOp57
 70
     1
102
RTVSPropertyOp0
 70
     1
102
RTVSPropertyOp1
 70
     1
102
RTVSPropertyOp2
 70
     1
102
RTVSPropertyOp3
 70
     1
102
RTVSPropertyOp4
 70
     1
102
RTVSPropertyOp5
 70
     1
102
RTVSPropertyOp6
 70
     1
102
RTVSPropertyOp7
 70
     1
102
RTVSPropertyOp8
 70
     1
102
RTVSPropertyOp9
 70
     1
102
RTVSPropertyOp10
 70
     1
102
RTVSPropertyOp11
 70
     1
102
RTVSPropertyOp12
 70
     1
102
RTVSPropertyOp13
 70
     1
102
RTVSPropertyOp14
 70
     1
102
RTVSPropertyOp15
 70
     1
102
RTVSPropertyOp16
 70
     1
102
RTVSPropertyOp17
 70
     1
102
RTVSPropertyOp18
 70
     1
102
RTVSPropertyOp19
 70
     1
102
RTVSPropertyOp20
 70
     1
102
RTVSPropertyOp21
 70
     1
102
RTVSPropertyOp22
 70
     1
102
RTVSPropertyOp23
 70
     1
102
RTVSPropertyOp24
 70
     1
102
RTVSPropertyOp25
 70
     1
102
RTVSPropertyOp26
 70
     1
102
RTVSPropertyOp27
 70
     1
102
RTVSPropertyOp28
 70
     1
102
RTVSPropertyOp29
 70
     1
102
RTVSPropertyOp30
 70
     1
102
RTVSPropertyOp31
 70
     1
102
RTVSPropertyOp32
 70
     1
102
RTVSPropertyOp33
 70
     1
102
RTVSPropertyOp34
 70
     1
102
RTVSPropertyOp35
 70
     1
102
RTVSPropertyOp36
 70
     1
102
RTVSPropertyOp37
 70
     1
102
RTVSPropertyOp38
 70
     1
102
RTVSPropertyOp39
 70
     1
102
RTVSPropertyOp40
 70
     1
102
RTVSPropertyOp41
 70
     1
102
RTVSPropertyOp42
 70
     1
102
RTVSPropertyOp43
 70
     1
102
RTVSPropertyOp44
 70
     1
102
RTVSPropertyOp45
 70
     1
102
RTVSPropertyOp46
 70
     1
102
RTVSPropertyOp47
 70
     1
102
RTVSPropertyOp48
 70
     1
102
RTVSPropertyOp49
 70
     1
102
RTVSPropertyOp50
 70
     1
102
RTVSPropertyOp51
 70
     0
102
RTVSPropertyOp52
 70
     0
102
RTVSPropertyOp53
 70
     1
102
RTVSPropertyOp54
 70
     1
102
RTVSPropertyOp55
 70
     1
102
RTVSPropertyOp56
 70
     1
102
RTVSPropertyOp57
 70
     1
102
RTVSPropertyOp58
 70
     1
102
RTVSPropertyOp59
 70
     1
102
RTVSPropertyOp60
 70
     1
102
RTVSPropertyOp61
 70
     1
102
RTVSPropertyOp62
 70
     1
  0
ENDSEC
  0
EOF
