  0
SECTION
  2
HEADER
  9
$ACADVER
  1
AC1009
  9
$INSBASE
 10
0.0
 20
0.0
 30
0.0
  9
$EXTMIN
 10
-1251.785379
 20
-607.773016
 30
0.0
  9
$EXTMAX
 10
1367.177035
 20
1997.545211
 30
0.0
  9
$LIMMIN
 10
-3837.000175
 20
-3000.109539
  9
$LIMMAX
 10
7319.256881
 20
4045.223003
  9
$ORTHOMODE
 70
     0
  9
$REGENMODE
 70
     1
  9
$FILLMODE
 70
     1
  9
$QTEXTMODE
 70
     0
  9
$MIRRTEXT
 70
     0
  9
$DRAGMODE
 70
     2
  9
$LTSCALE
 40
20.0
  9
$OSMODE
 70
    37
  9
$ATTMODE
 70
     1
  9
$TEXTSIZE
 40
64.0
  9
$TRACEWID
 40
0.05
  9
$TEXTSTYLE
  7
STANDARD
  9
$CLAYER
  8
0
  9
$CELTYPE
  6
CONTINUOUS
  9
$CECOLOR
 62
     7
  9
$DIMSCALE
 40
1.0
  9
$DIMASZ
 40
10.0
  9
$DIMEXO
 40
20.0
  9
$DIMDLI
 40
200.0
  9
$DIMRND
 40
0.0
  9
$DIMDLE
 40
0.0
  9
$DIMEXE
 40
30.0
  9
$DIMTP
 40
0.0
  9
$DIMTM
 40
0.0
  9
$DIMTXT
 40
64.0
  9
$DIMCEN
 40
0.0
  9
$DIMTSZ
 40
0.0
  9
$DIMTOL
 70
     0
  9
$DIMLIM
 70
     0
  9
$DIMTIH
 70
     0
  9
$DIMTOH
 70
     0
  9
$DIMSE1
 70
     0
  9
$DIMSE2
 70
     0
  9
$DIMTAD
 70
     1
  9
$DIMZIN
 70
     8
  9
$DIMBLK
  1

  9
$DIMASO
 70
     1
  9
$DIMSHO
 70
     0
  9
$DIMPOST
  1

  9
$DIMAPOST
  1

  9
$DIMALT
 70
     0
  9
$DIMALTD
 70
     2
  9
$DIMALTF
 40
25.4
  9
$DIMLFAC
 40
1.0
  9
$DIMTOFL
 70
     1
  9
$DIMTVP
 40
0.0
  9
$DIMTIX
 70
     1
  9
$DIMSOXD
 70
     0
  9
$DIMSAH
 70
     1
  9
$DIMBLK1
  1
_DOTBLANK
  9
$DIMBLK2
  1
_DOTBLANK
  9
$DIMSTYLE
  2
STANDARD
  9
$DIMCLRD
 70
     0
  9
$DIMCLRE
 70
     0
  9
$DIMCLRT
 70
     0
  9
$DIMTFAC
 40
1.0
  9
$DIMGAP
 40
0.09
  9
$LUNITS
 70
     2
  9
$LUPREC
 70
     4
  9
$SKETCHINC
 40
0.1
  9
$FILLETRAD
 40
10.0
  9
$AUNITS
 70
     1
  9
$AUPREC
 70
     3
  9
$MENU
  1
ACAD
  9
$ELEVATION
 40
0.0
  9
$PELEVATION
 40
0.0
  9
$THICKNESS
 40
0.0
  9
$LIMCHECK
 70
     0
  9
$BLIPMODE
 70
     0
  9
$CHAMFERA
 40
0.0
  9
$CHAMFERB
 40
0.0
  9
$SKPOLY
 70
     0
  9
$TDCREATE
 40
2450330.439931
  9
$TDUPDATE
 40
2452871.383668
  9
$TDINDWG
 40
1.080533
  9
$TDUSRTIMER
 40
1.080533
  9
$USRTIMER
 70
     1
  9
$ANGBASE
 50
0.0
  9
$ANGDIR
 70
     0
  9
$PDMODE
 70
     3
  9
$PDSIZE
 40
-2.0
  9
$PLINEWID
 40
0.0
  9
$COORDS
 70
     1
  9
$SPLFRAME
 70
     0
  9
$SPLINETYPE
 70
     6
  9
$SPLINESEGS
 70
     8
  9
$ATTDIA
 70
     0
  9
$ATTREQ
 70
     1
  9
$HANDLING
 70
     1
  9
$HANDSEED
  5
1A3
  9
$SURFTAB1
 70
     6
  9
$SURFTAB2
 70
     6
  9
$SURFTYPE
 70
     6
  9
$SURFU
 70
     6
  9
$SURFV
 70
     6
  9
$UCSNAME
  2

  9
$UCSORG
 10
0.0
 20
0.0
 30
0.0
  9
$UCSXDIR
 10
1.0
 20
0.0
 30
0.0
  9
$UCSYDIR
 10
0.0
 20
1.0
 30
0.0
  9
$PUCSNAME
  2

  9
$PUCSORG
 10
0.0
 20
0.0
 30
0.0
  9
$PUCSXDIR
 10
1.0
 20
0.0
 30
0.0
  9
$PUCSYDIR
 10
0.0
 20
1.0
 30
0.0
  9
$USERI1
 70
     0
  9
$USERI2
 70
     0
  9
$USERI3
 70
     0
  9
$USERI4
 70
     0
  9
$USERI5
 70
     0
  9
$USERR1
 40
20.0
  9
$USERR2
 40
0.0
  9
$USERR3
 40
0.0
  9
$USERR4
 40
0.0
  9
$USERR5
 40
0.0
  9
$WORLDVIEW
 70
     1
  9
$SHADEDGE
 70
     3
  9
$SHADEDIF
 70
    70
  9
$TILEMODE
 70
     1
  9
$MAXACTVP
 70
    48
  9
$PLIMCHECK
 70
     0
  9
$PEXTMIN
 10
1.000000E+020
 20
1.000000E+020
 30
1.000000E+020
  9
$PEXTMAX
 10
-1.000000E+020
 20
-1.000000E+020
 30
-1.000000E+020
  9
$PLIMMIN
 10
0.0
 20
0.0
  9
$PLIMMAX
 10
12.0
 20
9.0
  9
$UNITMODE
 70
     0
  9
$VISRETAIN
 70
     1
  9
$PLINEGEN
 70
     0
  9
$PSLTSCALE
 70
     1
  0
ENDSEC
  0
SECTION
  2
TABLES
  0
TABLE
  2
VPORT
 70
     2
  0
VPORT
  2
*ACTIVE
 70
     0
 10
0.0
 20
0.0
 11
1.0
 21
1.0
 12
2461.100128
 22
522.556732
 13
0.0
 23
0.0
 14
50.0
 24
50.0
 15
100.0
 25
100.0
 16
0.0
 26
0.0
 36
1.0
 17
0.0
 27
0.0
 37
0.0
 40
7045.332542
 41
1.787879
 42
50.0
 43
0.0
 44
0.0
 50
0.0
 51
0.0
 71
     0
 72
  1000
 73
     1
 74
     0
 75
     0
 76
     0
 77
     0
 78
     0
  0
ENDTAB
  0
TABLE
  2
LTYPE
 70
     2
  0
LTYPE
  2
CONTINUOUS
 70
     0
  3
実線
 72
    65
 73
     0
 40
0.0
  0
LTYPE
  2
DASHDOT
 70
     0
  3
____ _ ____ _ ____ _ ____ _ ____ _ ____ _ ____
 72
    65
 73
     4
 40
5.5
 49
4.0
 49
-0.6
 49
0.3
 49
-0.6
  0
ENDTAB
  0
TABLE
  2
LAYER
 70
    12
  0
LAYER
  2
0
 70
     0
 62
     7
  6
CONTINUOUS
  0
LAYER
  2
OUTLINE
 70
     0
 62
     3
  6
CONTINUOUS
  0
LAYER
  2
DETAIL
 70
     0
 62
     5
  6
CONTINUOUS
  0
LAYER
  2
BASIS
 70
     0
 62
     6
  6
DASHDOT
  0
LAYER
  2
SIZE
 70
     0
 62
    30
  6
CONTINUOUS
  0
LAYER
  2
NOTE
 70
     0
 62
     4
  6
CONTINUOUS
  0
LAYER
  2
ARRANGE
 70
     0
 62
     1
  6
CONTINUOUS
  0
LAYER
  2
FIX
 70
     0
 62
    11
  6
CONTINUOUS
  0
LAYER
  2
SERVICESPACE
 70
     0
 62
     2
  6
DASHDOT
  0
LAYER
  2
ETC
 70
     0
 62
    61
  6
CONTINUOUS
  0
LAYER
  2
SYMBOLLINE
 70
     0
 62
    15
  6
CONTINUOUS
  0
LAYER
  2
DEFPOINTS
 70
     0
 62
     7
  6
CONTINUOUS
  0
ENDTAB
  0
TABLE
  2
STYLE
 70
     2
  0
STYLE
  2
STANDARD
 70
     0
 40
0.0
 41
0.9
 50
0.0
 71
     0
 42
64.0
  3
SIMPLEX
  4
BIGFONT
  0
STYLE
  2
STANDARD1
 70
     0
 40
0.0
 41
1.0
 50
0.0
 71
     0
 42
64.0
  3
MONOTXT
  4
BIGFONT
  0
ENDTAB
  0
TABLE
  2
VIEW
 70
     1
  0
VIEW
  2
ALL
 70
     0
 40
9000.0
 10
241.506647
 20
0.0
 41
12483.01
 11
0.0
 21
0.0
 31
1.0
 12
0.0
 22
0.0
 32
0.0
 42
50.0
 43
0.0
 44
0.0
 50
0.0
 71
     0
  0
ENDTAB
  0
TABLE
  2
UCS
 70
     0
  0
ENDTAB
  0
TABLE
  2
APPID
 70
     1
  0
APPID
  2
ACAD
 70
     0
  0
ENDTAB
  0
TABLE
  2
DIMSTYLE
 70
     1
  0
DIMSTYLE
  2
STANDARD
 70
     0
  3

  4

  5

  6

  7

 40
1.0
 41
0.18
 42
0.0625
 43
0.38
 44
0.18
 45
0.0
 46
0.0
 47
0.0
 48
0.0
140
0.18
141
0.09
142
0.0
143
25.4
144
1.0
145
0.0
146
1.0
147
0.09
 71
     0
 72
     0
 73
     1
 74
     1
 75
     0
 76
     0
 77
     0
 78
     0
170
     0
171
     2
172
     0
173
     0
174
     0
175
     0
176
     0
177
     0
178
     0
  0
ENDTAB
  0
ENDSEC
  0
SECTION
  2
BLOCKS
  0
BLOCK
  8
0
  2
$MODEL_SPACE
 70
     0
 10
0.0
 20
0.0
 30
0.0
  3
$MODEL_SPACE
  1

  0
ENDBLK
  5
185
  8
0
  0
BLOCK
 67
     1
  8
0
  2
$PAPER_SPACE
 70
     0
 10
0.0
 20
0.0
 30
0.0
  3
$PAPER_SPACE
  1

  0
ENDBLK
  5
182
 67
     1
  8
0
  0
BLOCK
  8
0
  2
_DOTBLANK
 70
     0
 10
0.0
 20
0.0
 30
0.0
  3
_DOTBLANK
  1

  0
CIRCLE
  5
32
  8
0
  6
CONTINUOUS
 62
     7
 10
0.0
 20
0.0
 30
0.0
 40
0.5
  0
LINE
  5
33
  8
0
  6
CONTINUOUS
 62
     7
 10
-0.5
 20
0.0
 30
0.0
 11
-1.0
 21
0.0
 31
0.0
  0
ENDBLK
  5
34
  8
0
  0
ENDSEC
  0
SECTION
  2
ENTITIES
  0
LINE
  5
35
  8
NOTE
  6
CONTINUOUS
 62
     4
 10
770.496708
 20
601.002424
 30
0.0
 11
1367.177035
 21
601.002424
 31
0.0
  0
TEXT
  5
36
  8
NOTE
  6
CONTINUOUS
 62
     4
 10
932.797388
 20
629.817086
 30
0.0
 40
64.0
  1
C R1-1/4
 41
0.9
 72
     2
 11
1343.128817
 21
629.817086
 31
0.0
  0
LINE
  5
37
  8
SIZE
  6
CONTINUOUS
 62
    30
 10
-370.0
 20
1755.000001
 30
0.0
 11
-1187.785379
 21
1755.000001
 31
0.0
  0
LINE
  5
38
  8
SIZE
  6
CONTINUOUS
 62
    30
 10
-515.0
 20
0.0
 30
0.0
 11
-1187.785379
 21
0.0
 31
0.0
  0
LINE
  5
39
  8
SIZE
  6
CONTINUOUS
 62
    30
 10
-1157.785379
 20
1745.000001
 30
0.0
 11
-1157.785379
 21
10.0
 31
0.0
  0
CIRCLE
  5
3A
  8
SIZE
  6
CONTINUOUS
 62
    30
 10
-1157.785379
 20
1755.000001
 30
0.0
 40
5.0
  0
LINE
  5
3B
  8
SIZE
  6
CONTINUOUS
 62
    30
 10
-1157.785379
 20
1750.000001
 30
0.0
 11
-1157.785379
 21
1745.000001
 31
0.0
  0
CIRCLE
  5
3C
  8
SIZE
  6
CONTINUOUS
 62
    30
 10
-1157.785379
 20
0.0
 30
0.0
 40
5.0
  0
LINE
  5
3D
  8
SIZE
  6
CONTINUOUS
 62
    30
 10
-1157.785379
 20
5.0
 30
0.0
 11
-1157.785379
 21
10.0
 31
0.0
  0
TEXT
  5
3E
  8
SIZE
  6
CONTINUOUS
 62
    30
 10
-1187.785379
 20
781.5
 30
0.0
 40
64.0
  1
1755
 50
90.0
 41
0.9
 72
     1
 11
-1187.785379
 21
877.5
 31
0.0
  0
POINT
  5
3F
  8
DEFPOINTS
  6
CONTINUOUS
 62
     7
 10
-350.0
 20
1755.000001
 30
0.0
  0
POINT
  5
40
  8
DEFPOINTS
  6
CONTINUOUS
 62
     7
 10
-495.0
 20
0.0
 30
0.0
  0
POINT
  5
41
  8
DEFPOINTS
  6
CONTINUOUS
 62
     7
 10
-1157.785379
 20
0.0
 30
0.0
  0
LINE
  5
42
  8
SIZE
  6
CONTINUOUS
 62
    30
 10
-515.0
 20
1490.0
 30
0.0
 11
-1023.751151
 21
1490.0
 31
0.0
  0
LINE
  5
43
  8
SIZE
  6
CONTINUOUS
 62
    30
 10
-370.0
 20
1755.000001
 30
0.0
 11
-1023.751151
 21
1755.000001
 31
0.0
  0
LINE
  5
44
  8
SIZE
  6
CONTINUOUS
 62
    30
 10
-993.751151
 20
1500.0
 30
0.0
 11
-993.751151
 21
1745.000001
 31
0.0
  0
CIRCLE
  5
45
  8
SIZE
  6
CONTINUOUS
 62
    30
 10
-993.751151
 20
1490.0
 30
0.0
 40
5.0
  0
LINE
  5
46
  8
SIZE
  6
CONTINUOUS
 62
    30
 10
-993.751151
 20
1495.0
 30
0.0
 11
-993.751151
 21
1500.0
 31
0.0
  0
CIRCLE
  5
47
  8
SIZE
  6
CONTINUOUS
 62
    30
 10
-993.751151
 20
1755.000001
 30
0.0
 40
5.0
  0
LINE
  5
48
  8
SIZE
  6
CONTINUOUS
 62
    30
 10
-993.751151
 20
1750.000001
 30
0.0
 11
-993.751151
 21
1745.000001
 31
0.0
  0
TEXT
  5
49
  8
SIZE
  6
CONTINUOUS
 62
    30
 10
-1023.751151
 20
1548.442857
 30
0.0
 40
64.0
  1
265
 50
90.0
 41
0.9
 72
     1
 11
-1023.751151
 21
1622.5
 31
0.0
  0
POINT
  5
4A
  8
DEFPOINTS
  6
CONTINUOUS
 62
     7
 10
-495.0
 20
1490.0
 30
0.0
  0
POINT
  5
4B
  8
DEFPOINTS
  6
CONTINUOUS
 62
     7
 10
-350.0
 20
1755.000001
 30
0.0
  0
POINT
  5
4C
  8
DEFPOINTS
  6
CONTINUOUS
 62
     7
 10
-993.751151
 20
1755.000001
 30
0.0
  0
LINE
  5
4D
  8
SIZE
  6
CONTINUOUS
 62
    30
 10
-515.0
 20
0.0
 30
0.0
 11
-1023.751151
 21
0.0
 31
0.0
  0
LINE
  5
4E
  8
SIZE
  6
CONTINUOUS
 62
    30
 10
-515.0
 20
1490.0
 30
0.0
 11
-1023.751151
 21
1490.0
 31
0.0
  0
LINE
  5
4F
  8
SIZE
  6
CONTINUOUS
 62
    30
 10
-993.751151
 20
10.0
 30
0.0
 11
-993.751151
 21
1480.0
 31
0.0
  0
CIRCLE
  5
50
  8
SIZE
  6
CONTINUOUS
 62
    30
 10
-993.751151
 20
0.0
 30
0.0
 40
5.0
  0
LINE
  5
51
  8
SIZE
  6
CONTINUOUS
 62
    30
 10
-993.751151
 20
5.0
 30
0.0
 11
-993.751151
 21
10.0
 31
0.0
  0
CIRCLE
  5
52
  8
SIZE
  6
CONTINUOUS
 62
    30
 10
-993.751151
 20
1490.0
 30
0.0
 40
5.0
  0
LINE
  5
53
  8
SIZE
  6
CONTINUOUS
 62
    30
 10
-993.751151
 20
1485.0
 30
0.0
 11
-993.751151
 21
1480.0
 31
0.0
  0
TEXT
  5
54
  8
SIZE
  6
CONTINUOUS
 62
    30
 10
-1023.751151
 20
649.0
 30
0.0
 40
64.0
  1
1490
 50
90.0
 41
0.9
 72
     1
 11
-1023.751151
 21
745.0
 31
0.0
  0
POINT
  5
55
  8
DEFPOINTS
  6
CONTINUOUS
 62
     7
 10
-495.0
 20
0.0
 30
0.0
  0
POINT
  5
56
  8
DEFPOINTS
  6
CONTINUOUS
 62
     7
 10
-495.0
 20
1490.0
 30
0.0
  0
POINT
  5
57
  8
DEFPOINTS
  6
CONTINUOUS
 62
     7
 10
-993.751151
 20
1490.0
 30
0.0
  0
LINE
  5
58
  8
SIZE
  6
CONTINUOUS
 62
    30
 10
-515.0
 20
0.0
 30
0.0
 11
-857.429167
 21
0.0
 31
0.0
  0
TEXT
  5
59
  8
NOTE
  6
CONTINUOUS
 62
     4
 10
-1066.948906
 20
-303.798874
 30
0.0
 40
64.0
  1
AH 4-14×20
 41
0.9
  0
LINE
  5
5A
  8
NOTE
  6
CONTINUOUS
 62
     4
 10
-1069.94982
 20
-335.0
 30
0.0
 11
-504.0
 21
-335.0
 31
0.0
  0
LINE
  5
5B
  8
OUTLINE
  6
CONTINUOUS
 62
     3
 10
-495.0
 20
1490.0
 30
0.0
 11
-495.0
 21
0.0
 31
0.0
  0
LINE
  5
5C
  8
OUTLINE
  6
CONTINUOUS
 62
     3
 10
495.0
 20
1490.0
 30
0.0
 11
495.0
 21
0.0
 31
0.0
  0
LINE
  5
5D
  8
SIZE
  6
CONTINUOUS
 62
    30
 10
532.0
 20
107.0
 30
0.0
 11
911.937192
 21
107.0
 31
0.0
  0
LINE
  5
5E
  8
SIZE
  6
CONTINUOUS
 62
    30
 10
532.0
 20
573.0
 30
0.0
 11
911.937192
 21
573.0
 31
0.0
  0
LINE
  5
5F
  8
SIZE
  6
CONTINUOUS
 62
    30
 10
881.937192
 20
117.0
 30
0.0
 11
881.937192
 21
563.0
 31
0.0
  0
CIRCLE
  5
60
  8
SIZE
  6
CONTINUOUS
 62
    30
 10
881.937192
 20
107.0
 30
0.0
 40
5.0
  0
LINE
  5
61
  8
SIZE
  6
CONTINUOUS
 62
    30
 10
881.937192
 20
112.0
 30
0.0
 11
881.937192
 21
117.0
 31
0.0
  0
CIRCLE
  5
62
  8
SIZE
  6
CONTINUOUS
 62
    30
 10
881.937192
 20
573.0
 30
0.0
 40
5.0
  0
LINE
  5
63
  8
SIZE
  6
CONTINUOUS
 62
    30
 10
881.937192
 20
568.0
 30
0.0
 11
881.937192
 21
563.0
 31
0.0
  0
TEXT
  5
64
  8
SIZE
  6
CONTINUOUS
 62
    30
 10
851.937192
 20
270.314286
 30
0.0
 40
64.0
  1
466
 50
90.0
 41
0.9
 72
     1
 11
851.937192
 21
343.0
 31
0.0
  0
POINT
  5
65
  8
DEFPOINTS
  6
CONTINUOUS
 62
     7
 10
512.0
 20
107.0
 30
0.0
  0
POINT
  5
66
  8
DEFPOINTS
  6
CONTINUOUS
 62
     7
 10
512.0
 20
573.0
 30
0.0
  0
POINT
  5
67
  8
DEFPOINTS
  6
CONTINUOUS
 62
     7
 10
881.937192
 20
573.0
 30
0.0
  0
LINE
  5
68
  8
NOTE
  6
CONTINUOUS
 62
     4
 10
492.0
 20
107.0
 30
0.0
 11
770.496708
 21
601.002424
 31
0.0
  0
LINE
  5
69
  8
DETAIL
  6
CONTINUOUS
 62
     5
 10
70.0
 20
290.0
 30
0.0
 11
70.0
 21
1290.0
 31
0.0
  0
LINE
  5
6A
  8
DETAIL
  6
CONTINUOUS
 62
     5
 10
140.0
 20
290.0
 30
0.0
 11
140.0
 21
1290.0
 31
0.0
  0
LINE
  5
6B
  8
DETAIL
  6
CONTINUOUS
 62
     5
 10
210.0
 20
290.0
 30
0.0
 11
210.0
 21
1290.0
 31
0.0
  0
LINE
  5
6C
  8
DETAIL
  6
CONTINUOUS
 62
     5
 10
280.0
 20
290.0
 30
0.0
 11
280.0
 21
1290.0
 31
0.0
  0
LINE
  5
6D
  8
DETAIL
  6
CONTINUOUS
 62
     5
 10
350.0
 20
290.0
 30
0.0
 11
350.0
 21
1290.0
 31
0.0
  0
LINE
  5
6E
  8
DETAIL
  6
CONTINUOUS
 62
     5
 10
420.0
 20
290.0
 30
0.0
 11
420.0
 21
1290.0
 31
0.0
  0
LINE
  5
6F
  8
NOTE
  6
CONTINUOUS
 62
     4
 10
495.0
 20
194.0
 30
0.0
 11
736.749581
 21
731.634051
 31
0.0
  0
LINE
  5
70
  8
DETAIL
  6
CONTINUOUS
 62
     5
 10
495.0
 20
1490.0
 30
0.0
 11
495.0
 21
0.0
 31
0.0
  0
LINE
  5
71
  8
DETAIL
  6
CONTINUOUS
 62
     5
 10
-490.0
 20
290.0
 30
0.0
 11
-490.0
 21
1290.0
 31
0.0
  0
LINE
  5
72
  8
DETAIL
  6
CONTINUOUS
 62
     5
 10
-420.0
 20
290.0
 30
0.0
 11
-420.0
 21
1290.0
 31
0.0
  0
LINE
  5
73
  8
DETAIL
  6
CONTINUOUS
 62
     5
 10
-350.0
 20
290.0
 30
0.0
 11
-350.0
 21
1290.0
 31
0.0
  0
LINE
  5
74
  8
DETAIL
  6
CONTINUOUS
 62
     5
 10
-280.0
 20
290.0
 30
0.0
 11
-280.0
 21
1290.0
 31
0.0
  0
LINE
  5
75
  8
DETAIL
  6
CONTINUOUS
 62
     5
 10
-210.0
 20
290.0
 30
0.0
 11
-210.0
 21
1290.0
 31
0.0
  0
LINE
  5
76
  8
DETAIL
  6
CONTINUOUS
 62
     5
 10
-140.0
 20
290.0
 30
0.0
 11
-140.0
 21
1290.0
 31
0.0
  0
LINE
  5
77
  8
DETAIL
  6
CONTINUOUS
 62
     5
 10
-70.0
 20
290.0
 30
0.0
 11
-70.0
 21
1290.0
 31
0.0
  0
LINE
  5
78
  8
DETAIL
  6
CONTINUOUS
 62
     5
 10
0.0
 20
290.0
 30
0.0
 11
0.0
 21
1290.0
 31
0.0
  0
LINE
  5
79
  8
BASIS
  6
DASHDOT
 62
     6
 10
0.0
 20
1815.0
 30
0.0
 11
0.0
 21
-76.375176
 31
0.0
  0
LINE
  5
7A
  8
DETAIL
  6
CONTINUOUS
 62
     5
 10
-495.0
 20
1490.0
 30
0.0
 11
-495.0
 21
0.0
 31
0.0
  0
LINE
  5
7B
  8
OUTLINE
  6
CONTINUOUS
 62
     3
 10
495.0
 20
0.0
 30
0.0
 11
-495.0
 21
0.0
 31
0.0
  0
LINE
  5
7C
  8
DETAIL
  6
CONTINUOUS
 62
     5
 10
495.0
 20
35.0
 30
0.0
 11
-495.0
 21
35.0
 31
0.0
  0
LINE
  5
7D
  8
DETAIL
  6
CONTINUOUS
 62
     5
 10
495.0
 20
0.0
 30
0.0
 11
-495.0
 21
0.0
 31
0.0
  0
LINE
  5
7E
  8
DETAIL
  6
CONTINUOUS
 62
     5
 10
495.0
 20
290.0
 30
0.0
 11
-495.0
 21
290.0
 31
0.0
  0
LINE
  5
7F
  8
SIZE
  6
CONTINUOUS
 62
    30
 10
-493.0
 20
-577.773016
 30
0.0
 11
493.0
 21
-577.773016
 31
0.0
  0
LINE
  5
80
  8
SIZE
  6
CONTINUOUS
 62
    30
 10
-270.0
 20
-380.310942
 30
0.0
 11
270.0
 21
-380.310942
 31
0.0
  0
LINE
  5
81
  8
SIZE
  6
CONTINUOUS
 62
    30
 10
-495.0
 20
-19.999999
 30
0.0
 11
-495.0
 21
-607.773016
 31
0.0
  0
LINE
  5
82
  8
NOTE
  6
CONTINUOUS
 62
     4
 10
-260.0
 20
0.0
 30
0.0
 11
-300.0
 21
0.0
 31
0.0
  0
POLYLINE
  5
83
  8
NOTE
  6
CONTINUOUS
 62
     4
 66
     1
 10
0.0
 20
0.0
 30
0.0
  0
VERTEX
  5
84
  8
NOTE
  6
CONTINUOUS
 62
     4
 10
-292.870065
 20
-37.872964
 30
0.0
  0
VERTEX
  5
85
  8
NOTE
  6
CONTINUOUS
 62
     4
 10
-280.0
 20
0.0
 30
0.0
  0
VERTEX
  5
86
  8
NOTE
  6
CONTINUOUS
 62
     4
 10
-310.082285
 20
-26.363917
 30
0.0
  0
SEQEND
  5
87
  8
NOTE
  6
CONTINUOUS
 62
     4
  0
LINE
  5
88
  8
SIZE
  6
CONTINUOUS
 62
    30
 10
-485.0
 20
-380.310942
 30
0.0
 11
-290.0
 21
-380.310942
 31
0.0
  0
LINE
  5
89
  8
NOTE
  6
CONTINUOUS
 62
     4
 10
-280.0
 20
0.0
 30
0.0
 11
-504.0
 21
-335.0
 31
0.0
  0
CIRCLE
  5
8A
  8
FIX
  6
CONTINUOUS
 62
    11
 10
-280.0
 20
0.0
 30
0.0
 40
40.0
  0
LINE
  5
8B
  8
SIZE
  6
CONTINUOUS
 62
    30
 10
-495.0
 20
-20.0
 30
0.0
 11
-495.0
 21
-410.310942
 31
0.0
  0
TEXT
  5
8C
  8
SIZE
  6
CONTINUOUS
 62
    30
 10
-456.071429
 20
-360.310942
 30
0.0
 40
64.0
  1
215
 41
0.9
 72
     1
 11
-387.5
 21
-360.310942
 31
0.0
  0
CIRCLE
  5
8D
  8
SIZE
  6
CONTINUOUS
 62
    30
 10
-495.0
 20
-380.310942
 30
0.0
 40
5.0
  0
LINE
  5
8E
  8
SIZE
  6
CONTINUOUS
 62
    30
 10
-490.0
 20
-380.310942
 30
0.0
 11
-485.0
 21
-380.310942
 31
0.0
  0
LINE
  5
8F
  8
SIZE
  6
CONTINUOUS
 62
    30
 10
-515.0
 20
0.0
 30
0.0
 11
-624.479524
 21
0.0
 31
0.0
  0
LINE
  5
90
  8
SIZE
  6
CONTINUOUS
 62
    30
 10
-515.0
 20
0.0
 30
0.0
 11
-783.709236
 21
0.0
 31
0.0
  0
LINE
  5
91
  8
NOTE
  6
CONTINUOUS
 62
     4
 10
-410.0
 20
0.0
 30
0.0
 11
-450.0
 21
0.0
 31
0.0
  0
CIRCLE
  5
92
  8
FIX
  6
CONTINUOUS
 62
    11
 10
-430.0
 20
0.0
 30
0.0
 40
40.0
  0
LINE
  5
93
  8
NOTE
  6
CONTINUOUS
 62
     4
 10
-430.0
 20
-20.0
 30
0.0
 11
-430.0
 21
20.0
 31
0.0
  0
LINE
  5
94
  8
SIZE
  6
CONTINUOUS
 62
    30
 10
-280.0
 20
-40.0
 30
0.0
 11
-280.0
 21
-410.310942
 31
0.0
  0
LINE
  5
95
  8
SIZE
  6
CONTINUOUS
 62
    30
 10
-280.0
 20
-40.0
 30
0.0
 11
-280.0
 21
-410.310942
 31
0.0
  0
TEXT
  5
96
  8
SIZE
  6
CONTINUOUS
 62
    30
 10
-74.057143
 20
-545.773016
 30
0.0
 40
64.0
  1
990
 41
0.9
  0
TEXT
  5
97
  8
SIZE
  6
CONTINUOUS
 62
    30
 10
-74.057143
 20
-360.310942
 30
0.0
 40
64.0
  1
560
 41
0.9
 72
     1
 11
0.0
 21
-360.310942
 31
0.0
  0
CIRCLE
  5
98
  8
SIZE
  6
CONTINUOUS
 62
    30
 10
-280.0
 20
-380.310942
 30
0.0
 40
5.0
  0
LINE
  5
99
  8
SIZE
  6
CONTINUOUS
 62
    30
 10
-285.0
 20
-380.310942
 30
0.0
 11
-290.0
 21
-380.310942
 31
0.0
  0
CIRCLE
  5
9A
  8
SIZE
  6
CONTINUOUS
 62
    30
 10
-280.0
 20
-380.310942
 30
0.0
 40
5.0
  0
LINE
  5
9B
  8
SIZE
  6
CONTINUOUS
 62
    30
 10
-275.0
 20
-380.310942
 30
0.0
 11
-270.0
 21
-380.310942
 31
0.0
  0
CIRCLE
  5
9C
  8
ARRANGE
  6
CONTINUOUS
 62
     1
 10
0.0
 20
0.0
 30
0.0
 40
40.0
  0
POINT
  5
9D
  8
ARRANGE
  6
CONTINUOUS
 62
     1
 10
0.0
 20
0.0
 30
0.0
  0
LINE
  5
9E
  8
NOTE
  6
CONTINUOUS
 62
     4
 10
-280.0
 20
-20.0
 30
0.0
 11
-280.0
 21
20.0
 31
0.0
  0
LINE
  5
9F
  8
SIZE
  6
CONTINUOUS
 62
    30
 10
495.0
 20
-19.999999
 30
0.0
 11
495.0
 21
-607.773016
 31
0.0
  0
CIRCLE
  5
A0
  8
SIZE
  6
CONTINUOUS
 62
    30
 10
495.0
 20
-577.773016
 30
0.0
 40
6.0
  0
LINE
  5
A1
  8
SIZE
  6
CONTINUOUS
 62
    30
 10
515.0
 20
0.0
 30
0.0
 11
911.937192
 21
0.0
 31
0.0
  0
LINE
  5
A2
  8
SIZE
  6
CONTINUOUS
 62
    30
 10
532.0
 20
107.0
 30
0.0
 11
911.937192
 21
107.0
 31
0.0
  0
LINE
  5
A3
  8
SIZE
  6
CONTINUOUS
 62
    30
 10
881.937192
 20
-10.0
 30
0.0
 11
881.937192
 21
-20.0
 31
0.0
  0
LINE
  5
A4
  8
SIZE
  6
CONTINUOUS
 62
    30
 10
881.937192
 20
117.0
 30
0.0
 11
881.937192
 21
127.0
 31
0.0
  0
LINE
  5
A5
  8
SIZE
  6
CONTINUOUS
 62
    30
 10
881.937192
 20
0.0
 30
0.0
 11
881.937192
 21
107.0
 31
0.0
  0
CIRCLE
  5
A6
  8
SIZE
  6
CONTINUOUS
 62
    30
 10
881.937192
 20
0.0
 30
0.0
 40
5.0
  0
LINE
  5
A7
  8
SIZE
  6
CONTINUOUS
 62
    30
 10
881.937192
 20
-5.0
 30
0.0
 11
881.937192
 21
-10.0
 31
0.0
  0
CIRCLE
  5
A8
  8
SIZE
  6
CONTINUOUS
 62
    30
 10
881.937192
 20
107.0
 30
0.0
 40
5.0
  0
LINE
  5
A9
  8
SIZE
  6
CONTINUOUS
 62
    30
 10
881.937192
 20
112.0
 30
0.0
 11
881.937192
 21
117.0
 31
0.0
  0
TEXT
  5
AA
  8
SIZE
  6
CONTINUOUS
 62
    30
 10
851.937192
 20
-15.071429
 30
0.0
 40
64.0
  1
107
 50
90.0
 41
0.9
 72
     1
 11
851.937192
 21
53.5
 31
0.0
  0
POINT
  5
AB
  8
DEFPOINTS
  6
CONTINUOUS
 62
     7
 10
495.0
 20
0.0
 30
0.0
  0
POINT
  5
AC
  8
DEFPOINTS
  6
CONTINUOUS
 62
     7
 10
512.0
 20
107.0
 30
0.0
  0
POINT
  5
AD
  8
DEFPOINTS
  6
CONTINUOUS
 62
     7
 10
881.937192
 20
107.0
 30
0.0
  0
LINE
  5
AE
  8
NOTE
  6
CONTINUOUS
 62
     4
 10
495.0
 20
98.0
 30
0.0
 11
769.310234
 21
-268.932971
 31
0.0
  0
TEXT
  5
AF
  8
SIZE
  6
CONTINUOUS
 62
    30
 10
541.695405
 20
-160.326305
 30
0.0
 40
64.0
  1
3
 41
0.9
 72
     1
 11
560.895405
 21
-160.326305
 31
0.0
  0
LINE
  5
B0
  8
SIZE
  6
CONTINUOUS
 62
    30
 10
495.0
 20
-20.0
 30
0.0
 11
495.0
 21
-210.326305
 31
0.0
  0
LINE
  5
B1
  8
SIZE
  6
CONTINUOUS
 62
    30
 10
495.0
 20
-20.0
 30
0.0
 11
495.0
 21
-210.326305
 31
0.0
  0
LINE
  5
B2
  8
SIZE
  6
CONTINUOUS
 62
    30
 10
495.0
 20
-20.0
 30
0.0
 11
495.0
 21
-410.310942
 31
0.0
  0
LINE
  5
B3
  8
SIZE
  6
CONTINUOUS
 62
    30
 10
280.0
 20
-40.0
 30
0.0
 11
280.0
 21
-410.310942
 31
0.0
  0
LINE
  5
B4
  8
SIZE
  6
CONTINUOUS
 62
    30
 10
280.0
 20
-40.0
 30
0.0
 11
280.0
 21
-410.310942
 31
0.0
  0
LINE
  5
B5
  8
SIZE
  6
CONTINUOUS
 62
    30
 10
492.0
 20
73.0
 30
0.0
 11
492.0
 21
-210.326305
 31
0.0
  0
LINE
  5
B6
  8
SIZE
  6
CONTINUOUS
 62
    30
 10
500.0
 20
-180.326305
 30
0.0
 11
505.0
 21
-180.326305
 31
0.0
  0
TEXT
  5
B7
  8
SIZE
  6
CONTINUOUS
 62
    30
 10
318.928571
 20
-360.310942
 30
0.0
 40
64.0
  1
215
 41
0.9
 72
     1
 11
387.5
 21
-360.310942
 31
0.0
  0
LINE
  5
B8
  8
SIZE
  6
CONTINUOUS
 62
    30
 10
290.0
 20
-380.310942
 30
0.0
 11
485.0
 21
-380.310942
 31
0.0
  0
CIRCLE
  5
B9
  8
SIZE
  6
CONTINUOUS
 62
    30
 10
280.0
 20
-380.310942
 30
0.0
 40
5.0
  0
LINE
  5
BA
  8
SIZE
  6
CONTINUOUS
 62
    30
 10
275.0
 20
-380.310942
 30
0.0
 11
270.0
 21
-380.310942
 31
0.0
  0
CIRCLE
  5
BB
  8
SIZE
  6
CONTINUOUS
 62
    30
 10
280.0
 20
-380.310942
 30
0.0
 40
5.0
  0
LINE
  5
BC
  8
SIZE
  6
CONTINUOUS
 62
    30
 10
285.0
 20
-380.310942
 30
0.0
 11
290.0
 21
-380.310942
 31
0.0
  0
CIRCLE
  5
BD
  8
SIZE
  6
CONTINUOUS
 62
    30
 10
495.0
 20
-380.310942
 30
0.0
 40
5.0
  0
LINE
  5
BE
  8
SIZE
  6
CONTINUOUS
 62
    30
 10
490.0
 20
-380.310942
 30
0.0
 11
485.0
 21
-380.310942
 31
0.0
  0
LINE
  5
BF
  8
SIZE
  6
CONTINUOUS
 62
    30
 10
482.0
 20
-180.326305
 30
0.0
 11
472.0
 21
-180.326305
 31
0.0
  0
LINE
  5
C0
  8
SIZE
  6
CONTINUOUS
 62
    30
 10
492.0
 20
-180.326305
 30
0.0
 11
495.0
 21
-180.326305
 31
0.0
  0
LINE
  5
C1
  8
SIZE
  6
CONTINUOUS
 62
    30
 10
487.0
 20
-180.326305
 30
0.0
 11
482.0
 21
-180.326305
 31
0.0
  0
LINE
  5
C2
  8
SIZE
  6
CONTINUOUS
 62
    30
 10
490.0
 20
-180.326305
 30
0.0
 11
485.0
 21
-180.326305
 31
0.0
  0
CIRCLE
  5
C3
  8
SIZE
  6
CONTINUOUS
 62
    30
 10
492.0
 20
-180.326305
 30
0.0
 40
5.0
  0
CIRCLE
  5
C4
  8
SIZE
  6
CONTINUOUS
 62
    30
 10
495.0
 20
-180.326305
 30
0.0
 40
5.0
  0
CIRCLE
  5
C5
  8
SIZE
  6
CONTINUOUS
 62
    30
 10
495.0
 20
-180.326305
 30
0.0
 40
5.0
  0
LINE
  5
C6
  8
SIZE
  6
CONTINUOUS
 62
    30
 10
505.0
 20
-180.326305
 30
0.0
 11
600.095405
 21
-180.326305
 31
0.0
  0
LINE
  5
C7
  8
NOTE
  6
CONTINUOUS
 62
     4
 10
475.0
 20
194.0
 30
0.0
 11
515.0
 21
194.0
 31
0.0
  0
POLYLINE
  5
C8
  8
NOTE
  6
CONTINUOUS
 62
     4
 66
     1
 10
0.0
 20
0.0
 30
0.0
  0
VERTEX
  5
C9
  8
NOTE
  6
CONTINUOUS
 62
     4
 10
520.228972
 20
225.04028
 30
0.0
  0
VERTEX
  5
CA
  8
NOTE
  6
CONTINUOUS
 62
     4
 10
495.0
 20
194.0
 30
0.0
  0
VERTEX
  5
CB
  8
NOTE
  6
CONTINUOUS
 62
     4
 10
501.32879
 20
233.496157
 30
0.0
  0
SEQEND
  5
CC
  8
NOTE
  6
CONTINUOUS
 62
     4
  0
LINE
  5
CD
  8
NOTE
  6
CONTINUOUS
 62
     4
 10
472.0
 20
107.0
 30
0.0
 11
512.0
 21
107.0
 31
0.0
  0
POLYLINE
  5
CE
  8
NOTE
  6
CONTINUOUS
 62
     4
 66
     1
 10
0.0
 20
0.0
 30
0.0
  0
VERTEX
  5
CF
  8
NOTE
  6
CONTINUOUS
 62
     4
 10
520.043413
 20
135.523096
 30
0.0
  0
VERTEX
  5
D0
  8
NOTE
  6
CONTINUOUS
 62
     4
 10
492.0
 20
107.0
 30
0.0
  0
VERTEX
  5
D1
  8
NOTE
  6
CONTINUOUS
 62
     4
 10
502.02476
 20
145.723432
 30
0.0
  0
SEQEND
  5
D2
  8
NOTE
  6
CONTINUOUS
 62
     4
  0
LINE
  5
D3
  8
NOTE
  6
CONTINUOUS
 62
     4
 10
475.0
 20
98.0
 30
0.0
 11
515.0
 21
98.0
 31
0.0
  0
POLYLINE
  5
D4
  8
NOTE
  6
CONTINUOUS
 62
     4
 66
     1
 10
0.0
 20
0.0
 30
0.0
  0
VERTEX
  5
D5
  8
NOTE
  6
CONTINUOUS
 62
     4
 10
509.842382
 20
60.855637
 30
0.0
  0
VERTEX
  5
D6
  8
NOTE
  6
CONTINUOUS
 62
     4
 10
495.0
 20
98.0
 30
0.0
  0
VERTEX
  5
D7
  8
NOTE
  6
CONTINUOUS
 62
     4
 10
526.426061
 20
73.25323
 30
0.0
  0
SEQEND
  5
D8
  8
NOTE
  6
CONTINUOUS
 62
     4
  0
LINE
  5
D9
  8
NOTE
  6
CONTINUOUS
 62
     4
 10
492.0
 20
87.0
 30
0.0
 11
492.0
 21
127.0
 31
0.0
  0
LINE
  5
DA
  8
NOTE
  6
CONTINUOUS
 62
     4
 10
495.0
 20
78.0
 30
0.0
 11
495.0
 21
118.0
 31
0.0
  0
LINE
  5
DB
  8
NOTE
  6
CONTINUOUS
 62
     4
 10
260.0
 20
0.0
 30
0.0
 11
300.0
 21
0.0
 31
0.0
  0
CIRCLE
  5
DC
  8
FIX
  6
CONTINUOUS
 62
    11
 10
280.0
 20
0.0
 30
0.0
 40
40.0
  0
LINE
  5
DD
  8
NOTE
  6
CONTINUOUS
 62
     4
 10
280.0
 20
-20.0
 30
0.0
 11
280.0
 21
20.0
 31
0.0
  0
LINE
  5
DE
  8
NOTE
  6
CONTINUOUS
 62
     4
 10
410.0
 20
0.0
 30
0.0
 11
450.0
 21
0.0
 31
0.0
  0
CIRCLE
  5
DF
  8
FIX
  6
CONTINUOUS
 62
    11
 10
430.0
 20
0.0
 30
0.0
 40
40.0
  0
LINE
  5
E0
  8
NOTE
  6
CONTINUOUS
 62
     4
 10
430.0
 20
-20.0
 30
0.0
 11
430.0
 21
20.0
 31
0.0
  0
LINE
  5
E1
  8
NOTE
  6
CONTINUOUS
 62
     4
 10
495.0
 20
174.0
 30
0.0
 11
495.0
 21
214.0
 31
0.0
  0
LINE
  5
E2
  8
SIZE
  6
CONTINUOUS
 62
    30
 10
631.942994
 20
108.0
 30
0.0
 11
631.942994
 21
118.0
 31
0.0
  0
LINE
  5
E3
  8
SIZE
  6
CONTINUOUS
 62
    30
 10
631.942994
 20
98.0
 30
0.0
 11
631.942994
 21
194.0
 31
0.0
  0
TEXT
  5
E4
  8
SIZE
  6
CONTINUOUS
 62
    30
 10
611.942994
 20
100.742857
 30
0.0
 40
64.0
  1
96
 50
90.0
 41
0.9
 72
     1
 11
611.942994
 21
146.0
 31
0.0
  0
CIRCLE
  5
E5
  8
SIZE
  6
CONTINUOUS
 62
    30
 10
631.942994
 20
98.0
 30
0.0
 40
5.0
  0
CIRCLE
  5
E6
  8
SIZE
  6
CONTINUOUS
 62
    30
 10
631.942994
 20
98.0
 30
0.0
 40
5.0
  0
LINE
  5
E7
  8
SIZE
  6
CONTINUOUS
 62
    30
 10
535.0
 20
98.0
 30
0.0
 11
661.942994
 21
98.0
 31
0.0
  0
LINE
  5
E8
  8
SIZE
  6
CONTINUOUS
 62
    30
 10
535.0
 20
98.0
 30
0.0
 11
661.942994
 21
98.0
 31
0.0
  0
LINE
  5
E9
  8
SIZE
  6
CONTINUOUS
 62
    30
 10
515.0
 20
0.0
 30
0.0
 11
661.942994
 21
0.0
 31
0.0
  0
CIRCLE
  5
EA
  8
SIZE
  6
CONTINUOUS
 62
    30
 10
631.942994
 20
0.0
 30
0.0
 40
5.0
  0
LINE
  5
EB
  8
SIZE
  6
CONTINUOUS
 62
    30
 10
631.942994
 20
103.0
 30
0.0
 11
631.942994
 21
108.0
 31
0.0
  0
LINE
  5
EC
  8
SIZE
  6
CONTINUOUS
 62
    30
 10
631.942994
 20
88.0
 30
0.0
 11
631.942994
 21
78.0
 31
0.0
  0
LINE
  5
ED
  8
SIZE
  6
CONTINUOUS
 62
    30
 10
631.942994
 20
93.0
 30
0.0
 11
631.942994
 21
88.0
 31
0.0
  0
TEXT
  5
EE
  8
SIZE
  6
CONTINUOUS
 62
    30
 10
611.942994
 20
2.371429
 30
0.0
 40
64.0
  1
98
 50
90.0
 41
0.9
 72
     1
 11
611.942994
 21
49.0
 31
0.0
  0
LINE
  5
EF
  8
SIZE
  6
CONTINUOUS
 62
    30
 10
631.942994
 20
-10.0
 30
0.0
 11
631.942994
 21
-20.0
 31
0.0
  0
LINE
  5
F0
  8
SIZE
  6
CONTINUOUS
 62
    30
 10
631.942994
 20
-5.0
 30
0.0
 11
631.942994
 21
-10.0
 31
0.0
  0
LINE
  5
F1
  8
SIZE
  6
CONTINUOUS
 62
    30
 10
631.942994
 20
0.0
 30
0.0
 11
631.942994
 21
98.0
 31
0.0
  0
CIRCLE
  5
F2
  8
SIZE
  6
CONTINUOUS
 62
    30
 10
631.942994
 20
194.0
 30
0.0
 40
5.0
  0
LINE
  5
F3
  8
SIZE
  6
CONTINUOUS
 62
    30
 10
535.0
 20
194.0
 30
0.0
 11
661.942994
 21
194.0
 31
0.0
  0
LINE
  5
F4
  8
SIZE
  6
CONTINUOUS
 62
    30
 10
631.942994
 20
204.0
 30
0.0
 11
631.942994
 21
214.0
 31
0.0
  0
LINE
  5
F5
  8
SIZE
  6
CONTINUOUS
 62
    30
 10
631.942994
 20
199.0
 30
0.0
 11
631.942994
 21
204.0
 31
0.0
  0
TEXT
  5
F6
  8
NOTE
  6
CONTINUOUS
 62
     4
 10
788.804048
 20
-149.283554
 30
0.0
 40
64.0
  1
CL3 %%c39
 41
0.9
  0
TEXT
  5
F7
  8
NOTE
  6
CONTINUOUS
 62
     4
 10
791.579904
 20
-243.618989
 30
0.0
 40
64.0
  1
EL %%c39
 41
0.9
  0
LINE
  5
F8
  8
NOTE
  6
CONTINUOUS
 62
     4
 10
1138.771767
 20
-268.932971
 30
0.0
 11
769.310234
 21
-268.932971
 31
0.0
  0
LINE
  5
F9
  8
OUTLINE
  6
CONTINUOUS
 62
     3
 10
350.0
 20
1755.0
 30
0.0
 11
-350.0
 21
1755.0
 31
0.0
  0
LINE
  5
FA
  8
OUTLINE
  6
CONTINUOUS
 62
     3
 10
495.0
 20
1490.0
 30
0.0
 11
-495.0
 21
1490.0
 31
0.0
  0
LINE
  5
FB
  8
DETAIL
  6
CONTINUOUS
 62
     5
 10
495.0
 20
1290.0
 30
0.0
 11
-495.0
 21
1290.0
 31
0.0
  0
LINE
  5
FC
  8
DETAIL
  6
CONTINUOUS
 62
     5
 10
400.0
 20
1655.0
 30
0.0
 11
-400.0
 21
1655.0
 31
0.0
  0
LINE
  5
FD
  8
DETAIL
  6
CONTINUOUS
 62
     5
 10
495.0
 20
1490.0
 30
0.0
 11
-495.0
 21
1490.0
 31
0.0
  0
LINE
  5
FE
  8
DETAIL
  6
CONTINUOUS
 62
     5
 10
350.0
 20
1755.0
 30
0.0
 11
-350.0
 21
1755.0
 31
0.0
  0
LINE
  5
FF
  8
DETAIL
  6
CONTINUOUS
 62
     5
 10
495.0
 20
438.67168
 30
0.0
 11
-490.0
 21
438.67168
 31
0.0
  0
LINE
  5
100
  8
DETAIL
  6
CONTINUOUS
 62
     5
 10
495.0
 20
1220.0
 30
0.0
 11
-490.0
 21
1220.0
 31
0.0
  0
LINE
  5
101
  8
DETAIL
  6
CONTINUOUS
 62
     5
 10
495.0
 20
1150.0
 30
0.0
 11
-490.0
 21
1150.0
 31
0.0
  0
LINE
  5
102
  8
DETAIL
  6
CONTINUOUS
 62
     5
 10
495.0
 20
1080.0
 30
0.0
 11
-490.0
 21
1080.0
 31
0.0
  0
LINE
  5
103
  8
DETAIL
  6
CONTINUOUS
 62
     5
 10
495.0
 20
1010.0
 30
0.0
 11
-490.0
 21
1010.0
 31
0.0
  0
LINE
  5
104
  8
DETAIL
  6
CONTINUOUS
 62
     5
 10
495.0
 20
940.0
 30
0.0
 11
-490.0
 21
940.0
 31
0.0
  0
LINE
  5
105
  8
DETAIL
  6
CONTINUOUS
 62
     5
 10
495.0
 20
870.0
 30
0.0
 11
-490.0
 21
870.0
 31
0.0
  0
LINE
  5
106
  8
DETAIL
  6
CONTINUOUS
 62
     5
 10
495.0
 20
800.0
 30
0.0
 11
-490.0
 21
800.0
 31
0.0
  0
LINE
  5
107
  8
DETAIL
  6
CONTINUOUS
 62
     5
 10
495.0
 20
730.0
 30
0.0
 11
-490.0
 21
730.0
 31
0.0
  0
LINE
  5
108
  8
DETAIL
  6
CONTINUOUS
 62
     5
 10
495.0
 20
660.0
 30
0.0
 11
-490.0
 21
660.0
 31
0.0
  0
LINE
  5
109
  8
DETAIL
  6
CONTINUOUS
 62
     5
 10
495.0
 20
590.0
 30
0.0
 11
-490.0
 21
590.0
 31
0.0
  0
LINE
  5
10A
  8
DETAIL
  6
CONTINUOUS
 62
     5
 10
495.0
 20
520.0
 30
0.0
 11
-490.0
 21
520.0
 31
0.0
  0
LINE
  5
10B
  8
DETAIL
  6
CONTINUOUS
 62
     5
 10
-490.0
 20
1290.0
 30
0.0
 11
495.0
 21
1290.0
 31
0.0
  0
LINE
  5
10C
  8
DETAIL
  6
CONTINUOUS
 62
     5
 10
495.0
 20
357.34336
 30
0.0
 11
-490.0
 21
357.34336
 31
0.0
  0
ARC
  5
10D
  8
OUTLINE
  6
CONTINUOUS
 62
     3
 10
-150.0
 20
1592.5
 30
0.0
 40
257.694102
 50
140.906141
 51
165.963757
  0
LINE
  5
10E
  8
DETAIL
  6
CONTINUOUS
 62
     5
 10
-300.0
 20
1755.000001
 30
0.0
 11
-300.0
 21
1655.000001
 31
0.0
  0
LINE
  5
10F
  8
DETAIL
  6
CONTINUOUS
 62
     5
 10
-350.0
 20
1755.000001
 30
0.0
 11
-350.0
 21
1655.000001
 31
0.0
  0
ARC
  5
110
  8
DETAIL
  6
CONTINUOUS
 62
     5
 10
-150.0
 20
1592.5
 30
0.0
 40
257.694102
 50
140.906141
 51
165.963757
  0
ARC
  5
111
  8
OUTLINE
  6
CONTINUOUS
 62
     3
 10
-1277.925
 20
1731.368
 30
0.0
 40
881.240278
 50
344.103779
 51
355.02853
  0
ARC
  5
112
  8
DETAIL
  6
CONTINUOUS
 62
     5
 10
-1277.925
 20
1731.368
 30
0.0
 40
881.240278
 50
344.103779
 51
355.02853
  0
LINE
  5
113
  8
DETAIL
  6
CONTINUOUS
 62
     5
 10
150.0
 20
1755.000001
 30
0.0
 11
150.0
 21
1655.000001
 31
0.0
  0
LINE
  5
114
  8
DETAIL
  6
CONTINUOUS
 62
     5
 10
200.0
 20
1755.000001
 30
0.0
 11
200.0
 21
1655.000001
 31
0.0
  0
LINE
  5
115
  8
DETAIL
  6
CONTINUOUS
 62
     5
 10
50.0
 20
1755.000001
 30
0.0
 11
50.0
 21
1655.000001
 31
0.0
  0
LINE
  5
116
  8
DETAIL
  6
CONTINUOUS
 62
     5
 10
100.0
 20
1755.000001
 30
0.0
 11
100.0
 21
1655.000001
 31
0.0
  0
LINE
  5
117
  8
DETAIL
  6
CONTINUOUS
 62
     5
 10
0.0
 20
1755.000001
 30
0.0
 11
0.0
 21
1655.000001
 31
0.0
  0
LINE
  5
118
  8
DETAIL
  6
CONTINUOUS
 62
     5
 10
-50.0
 20
1755.000001
 30
0.0
 11
-50.0
 21
1655.000001
 31
0.0
  0
LINE
  5
119
  8
DETAIL
  6
CONTINUOUS
 62
     5
 10
-100.0
 20
1755.000001
 30
0.0
 11
-100.0
 21
1655.000001
 31
0.0
  0
LINE
  5
11A
  8
DETAIL
  6
CONTINUOUS
 62
     5
 10
-150.0
 20
1755.000001
 30
0.0
 11
-150.0
 21
1655.000001
 31
0.0
  0
LINE
  5
11B
  8
DETAIL
  6
CONTINUOUS
 62
     5
 10
-200.0
 20
1755.000001
 30
0.0
 11
-200.0
 21
1655.000001
 31
0.0
  0
LINE
  5
11C
  8
DETAIL
  6
CONTINUOUS
 62
     5
 10
-250.0
 20
1755.000001
 30
0.0
 11
-250.0
 21
1655.000001
 31
0.0
  0
LINE
  5
11D
  8
NOTE
  6
CONTINUOUS
 62
     4
 10
739.824162
 20
981.23597
 30
0.0
 11
1243.163293
 21
981.23597
 31
0.0
  0
LINE
  5
11E
  8
NOTE
  6
CONTINUOUS
 62
     4
 10
736.749581
 20
731.634051
 30
0.0
 11
1130.269561
 21
731.634051
 31
0.0
  0
LINE
  5
11F
  8
NOTE
  6
CONTINUOUS
 62
     4
 10
492.0
 20
573.0
 30
0.0
 11
739.824162
 21
981.23597
 31
0.0
  0
LINE
  5
120
  8
NOTE
  6
CONTINUOUS
 62
     4
 10
472.0
 20
573.0
 30
0.0
 11
512.0
 21
573.0
 31
0.0
  0
POLYLINE
  5
121
  8
NOTE
  6
CONTINUOUS
 62
     4
 66
     1
 10
0.0
 20
0.0
 30
0.0
  0
VERTEX
  5
122
  8
NOTE
  6
CONTINUOUS
 62
     4
 10
521.769753
 20
601.143881
 30
0.0
  0
VERTEX
  5
123
  8
NOTE
  6
CONTINUOUS
 62
     4
 10
492.0
 20
573.0
 30
0.0
  0
VERTEX
  5
124
  8
NOTE
  6
CONTINUOUS
 62
     4
 10
502.776005
 20
610.763302
 30
0.0
  0
SEQEND
  5
125
  8
NOTE
  6
CONTINUOUS
 62
     4
  0
LINE
  5
126
  8
NOTE
  6
CONTINUOUS
 62
     4
 10
492.0
 20
553.0
 30
0.0
 11
492.0
 21
593.0
 31
0.0
  0
TEXT
  5
127
  8
NOTE
  6
CONTINUOUS
 62
     4
 10
775.589861
 20
761.471791
 30
0.0
 40
64.0
  1
CL2 %%c39
 41
0.9
  0
TEXT
  5
128
  8
NOTE
  6
CONTINUOUS
 62
     4
 10
775.589861
 20
855.707379
 30
0.0
 40
64.0
  1
CL1 %%c39
 41
0.9
  0
TEXT
  5
129
  8
NOTE
  6
CONTINUOUS
 62
     4
 10
775.141607
 20
999.188333
 30
0.0
 40
64.0
  1
CR R1-1/4
 41
0.9
 72
     2
 11
1243.073036
 21
999.188333
 31
0.0
  0
TEXT
  5
12A
  8
ETC
  6
CONTINUOUS
 62
    61
 10
698.450377
 20
1829.545179
 30
0.0
 40
64.0
  1
チラー
 50
0.000003
 41
0.659722
  7
STANDARD1
  0
TEXT
  5
12B
  8
ETC
  6
CONTINUOUS
 62
    61
 10
698.450377
 20
1933.545179
 30
0.0
 40
64.0
  1
BAL-P190_250C_5
 50
0.000003
 41
0.659722
  7
STANDARD1
  0
ARC
  5
12C
  8
OUTLINE
  6
CONTINUOUS
 62
     3
 10
150.0
 20
1592.5
 30
0.0
 40
257.694102
 50
14.036243
 51
39.093859
  0
LINE
  5
12D
  8
DETAIL
  6
CONTINUOUS
 62
     5
 10
250.0
 20
1755.000001
 30
0.0
 11
250.0
 21
1655.000001
 31
0.0
  0
LINE
  5
12E
  8
DETAIL
  6
CONTINUOUS
 62
     5
 10
300.0
 20
1755.000001
 30
0.0
 11
300.0
 21
1655.000001
 31
0.0
  0
LINE
  5
12F
  8
DETAIL
  6
CONTINUOUS
 62
     5
 10
350.0
 20
1755.000001
 30
0.0
 11
350.0
 21
1655.000001
 31
0.0
  0
ARC
  5
130
  8
DETAIL
  6
CONTINUOUS
 62
     5
 10
150.0
 20
1592.5
 30
0.0
 40
257.694102
 50
14.036243
 51
39.093859
  0
ARC
  5
131
  8
OUTLINE
  6
CONTINUOUS
 62
     3
 10
1277.925
 20
1731.368
 30
0.0
 40
881.240278
 50
184.97147
 51
195.896221
  0
ARC
  5
132
  8
DETAIL
  6
CONTINUOUS
 62
     5
 10
1277.925
 20
1731.368
 30
0.0
 40
881.240278
 50
184.97147
 51
195.896221
  0
ENDSEC
  0
EOF
