  0
SECTION
  2
HEADER
  9
$ACADVER
  1
AC1009
  9
$INSBASE
 10
0.0
 20
0.0
 30
0.0
  9
$EXTMIN
 10
-1061.096158
 20
-747.756933
 30
-0.001526
  9
$EXTMAX
 10
1890.563988
 20
2676.544208
 30
0.0
  9
$LIMMIN
 10
-6000.0
 20
-4500.0
  9
$LIMMAX
 10
6000.0
 20
4500.0
  9
$ORTHOMODE
 70
     0
  9
$REGENMODE
 70
     1
  9
$FILLMODE
 70
     1
  9
$QTEXTMODE
 70
     0
  9
$MIRRTEXT
 70
     0
  9
$DRAGMODE
 70
     2
  9
$LTSCALE
 40
20.0
  9
$OSMODE
 70
    37
  9
$ATTMODE
 70
     1
  9
$TEXTSIZE
 40
64.0
  9
$TRACEWID
 40
0.05
  9
$TEXTSTYLE
  7
STANDARD
  9
$CLAYER
  8
0
  9
$CELTYPE
  6
CONTINUOUS
  9
$CECOLOR
 62
     7
  9
$DIMSCALE
 40
1.0
  9
$DIMASZ
 40
10.0
  9
$DIMEXO
 40
20.0
  9
$DIMDLI
 40
200.0
  9
$DIMRND
 40
0.0
  9
$DIMDLE
 40
0.0
  9
$DIMEXE
 40
30.0
  9
$DIMTP
 40
0.0
  9
$DIMTM
 40
0.0
  9
$DIMTXT
 40
64.0
  9
$DIMCEN
 40
0.0
  9
$DIMTSZ
 40
0.0
  9
$DIMTOL
 70
     0
  9
$DIMLIM
 70
     0
  9
$DIMTIH
 70
     0
  9
$DIMTOH
 70
     0
  9
$DIMSE1
 70
     0
  9
$DIMSE2
 70
     0
  9
$DIMTAD
 70
     1
  9
$DIMZIN
 70
     8
  9
$DIMBLK
  1

  9
$DIMASO
 70
     1
  9
$DIMSHO
 70
     0
  9
$DIMPOST
  1

  9
$DIMAPOST
  1

  9
$DIMALT
 70
     0
  9
$DIMALTD
 70
     2
  9
$DIMALTF
 40
25.4
  9
$DIMLFAC
 40
1.0
  9
$DIMTOFL
 70
     1
  9
$DIMTVP
 40
0.0
  9
$DIMTIX
 70
     1
  9
$DIMSOXD
 70
     0
  9
$DIMSAH
 70
     1
  9
$DIMBLK1
  1
_DOTBLANK
  9
$DIMBLK2
  1
_DOTBLANK
  9
$DIMSTYLE
  2
STANDARD
  9
$DIMCLRD
 70
     0
  9
$DIMCLRE
 70
     0
  9
$DIMCLRT
 70
     0
  9
$DIMTFAC
 40
1.0
  9
$DIMGAP
 40
0.09
  9
$LUNITS
 70
     2
  9
$LUPREC
 70
     4
  9
$SKETCHINC
 40
0.1
  9
$FILLETRAD
 40
10.0
  9
$AUNITS
 70
     1
  9
$AUPREC
 70
     3
  9
$MENU
  1
ACAD
  9
$ELEVATION
 40
0.0
  9
$PELEVATION
 40
0.0
  9
$THICKNESS
 40
0.0
  9
$LIMCHECK
 70
     0
  9
$BLIPMODE
 70
     0
  9
$CHAMFERA
 40
0.0
  9
$CHAMFERB
 40
0.0
  9
$SKPOLY
 70
     0
  9
$TDCREATE
 40
2450330.439931
  9
$TDUPDATE
 40
2452423.392512
  9
$TDINDWG
 40
0.996828
  9
$TDUSRTIMER
 40
0.996826
  9
$USRTIMER
 70
     1
  9
$ANGBASE
 50
0.0
  9
$ANGDIR
 70
     0
  9
$PDMODE
 70
     3
  9
$PDSIZE
 40
-2.0
  9
$PLINEWID
 40
0.0
  9
$COORDS
 70
     2
  9
$SPLFRAME
 70
     0
  9
$SPLINETYPE
 70
     6
  9
$SPLINESEGS
 70
     8
  9
$ATTDIA
 70
     0
  9
$ATTREQ
 70
     1
  9
$HANDLING
 70
     1
  9
$HANDSEED
  5
16D
  9
$SURFTAB1
 70
     6
  9
$SURFTAB2
 70
     6
  9
$SURFTYPE
 70
     6
  9
$SURFU
 70
     6
  9
$SURFV
 70
     6
  9
$UCSNAME
  2

  9
$UCSORG
 10
0.0
 20
0.0
 30
0.0
  9
$UCSXDIR
 10
1.0
 20
0.0
 30
0.0
  9
$UCSYDIR
 10
0.0
 20
1.0
 30
0.0
  9
$PUCSNAME
  2

  9
$PUCSORG
 10
0.0
 20
0.0
 30
0.0
  9
$PUCSXDIR
 10
1.0
 20
0.0
 30
0.0
  9
$PUCSYDIR
 10
0.0
 20
1.0
 30
0.0
  9
$USERI1
 70
     0
  9
$USERI2
 70
     0
  9
$USERI3
 70
     0
  9
$USERI4
 70
     0
  9
$USERI5
 70
     0
  9
$USERR1
 40
20.0
  9
$USERR2
 40
0.0
  9
$USERR3
 40
0.0
  9
$USERR4
 40
0.0
  9
$USERR5
 40
0.0
  9
$WORLDVIEW
 70
     1
  9
$SHADEDGE
 70
     3
  9
$SHADEDIF
 70
    70
  9
$TILEMODE
 70
     1
  9
$MAXACTVP
 70
    48
  9
$PLIMCHECK
 70
     0
  9
$PEXTMIN
 10
1.000000E+020
 20
1.000000E+020
 30
1.000000E+020
  9
$PEXTMAX
 10
-1.000000E+020
 20
-1.000000E+020
 30
-1.000000E+020
  9
$PLIMMIN
 10
0.0
 20
0.0
  9
$PLIMMAX
 10
12.0
 20
9.0
  9
$UNITMODE
 70
     0
  9
$VISRETAIN
 70
     1
  9
$PLINEGEN
 70
     0
  9
$PSLTSCALE
 70
     1
  0
ENDSEC
  0
SECTION
  2
TABLES
  0
TABLE
  2
VPORT
 70
     2
  0
VPORT
  2
*ACTIVE
 70
     0
 10
0.0
 20
0.0
 11
1.0
 21
1.0
 12
2002.659574
 22
0.0
 13
0.0
 23
0.0
 14
50.0
 24
50.0
 15
100.0
 25
100.0
 16
0.0
 26
0.0
 36
1.0
 17
0.0
 27
0.0
 37
0.0
 40
9000.0
 41
1.778369
 42
50.0
 43
0.0
 44
0.0
 50
0.0
 51
0.0
 71
     0
 72
  1000
 73
     1
 74
     0
 75
     0
 76
     0
 77
     0
 78
     0
  0
ENDTAB
  0
TABLE
  2
LTYPE
 70
     2
  0
LTYPE
  2
CONTINUOUS
 70
     0
  3
実線
 72
    65
 73
     0
 40
0.0
  0
LTYPE
  2
DASHDOT
 70
     0
  3
____ _ ____ _ ____ _ ____ _ ____ _ ____ _ ____
 72
    65
 73
     4
 40
5.5
 49
4.0
 49
-0.6
 49
0.3
 49
-0.6
  0
ENDTAB
  0
TABLE
  2
LAYER
 70
    12
  0
LAYER
  2
0
 70
     0
 62
     7
  6
CONTINUOUS
  0
LAYER
  2
OUTLINE
 70
     0
 62
     3
  6
CONTINUOUS
  0
LAYER
  2
DETAIL
 70
     0
 62
     5
  6
CONTINUOUS
  0
LAYER
  2
BASIS
 70
     0
 62
     6
  6
DASHDOT
  0
LAYER
  2
SIZE
 70
     0
 62
    30
  6
CONTINUOUS
  0
LAYER
  2
NOTE
 70
     0
 62
     4
  6
CONTINUOUS
  0
LAYER
  2
ARRANGE
 70
     0
 62
     1
  6
CONTINUOUS
  0
LAYER
  2
FIX
 70
     0
 62
    11
  6
CONTINUOUS
  0
LAYER
  2
SERVICESPACE
 70
     0
 62
     2
  6
DASHDOT
  0
LAYER
  2
ETC
 70
     0
 62
    61
  6
CONTINUOUS
  0
LAYER
  2
SYMBOLLINE
 70
     0
 62
    15
  6
CONTINUOUS
  0
LAYER
  2
DEFPOINTS
 70
     0
 62
     7
  6
CONTINUOUS
  0
ENDTAB
  0
TABLE
  2
STYLE
 70
     1
  0
STYLE
  2
STANDARD
 70
     0
 40
0.0
 41
0.9
 50
0.0
 71
     0
 42
64.0
  3
SIMPLEX
  4
BIGFONT
  0
ENDTAB
  0
TABLE
  2
VIEW
 70
     1
  0
VIEW
  2
ALL
 70
     0
 40
9000.0
 10
241.506647
 20
0.0
 41
12483.01
 11
0.0
 21
0.0
 31
1.0
 12
0.0
 22
0.0
 32
0.0
 42
50.0
 43
0.0
 44
0.0
 50
0.0
 71
     0
  0
ENDTAB
  0
TABLE
  2
UCS
 70
     0
  0
ENDTAB
  0
TABLE
  2
APPID
 70
     1
  0
APPID
  2
ACAD
 70
     0
  0
ENDTAB
  0
TABLE
  2
DIMSTYLE
 70
     1
  0
DIMSTYLE
  2
STANDARD
 70
     0
  3

  4

  5

  6

  7

 40
1.0
 41
0.18
 42
0.0625
 43
0.38
 44
0.18
 45
0.0
 46
0.0
 47
0.0
 48
0.0
140
0.18
141
0.09
142
0.0
143
25.4
144
1.0
145
0.0
146
1.0
147
0.09
 71
     0
 72
     0
 73
     1
 74
     1
 75
     0
 76
     0
 77
     0
 78
     0
170
     0
171
     2
172
     0
173
     0
174
     0
175
     0
176
     0
177
     0
178
     0
  0
ENDTAB
  0
ENDSEC
  0
SECTION
  2
BLOCKS
  0
BLOCK
  8
0
  2
$MODEL_SPACE
 70
     0
 10
0.0
 20
0.0
 30
0.0
  3
$MODEL_SPACE
  1

  0
ENDBLK
  5
151
  8
0
  0
BLOCK
 67
     1
  8
0
  2
$PAPER_SPACE
 70
     0
 10
0.0
 20
0.0
 30
0.0
  3
$PAPER_SPACE
  1

  0
ENDBLK
  5
14E
 67
     1
  8
0
  0
BLOCK
  8
0
  2
_DOTBLANK
 70
     0
 10
0.0
 20
0.0
 30
0.0
  3
_DOTBLANK
  1

  0
CIRCLE
  5
30
  8
0
  6
CONTINUOUS
 62
     7
 10
0.0
 20
0.0
 30
0.0
 40
0.5
  0
LINE
  5
31
  8
0
  6
CONTINUOUS
 62
     7
 10
-0.5
 20
0.0
 30
0.0
 11
-1.0
 21
0.0
 31
0.0
  0
ENDBLK
  5
32
  8
0
  0
ENDSEC
  0
SECTION
  2
ENTITIES
  0
CIRCLE
  5
33
  8
ARRANGE
  6
CONTINUOUS
 62
     1
 10
0.0
 20
0.0
 30
0.0
 40
40.0
  0
POINT
  5
34
  8
ARRANGE
  6
CONTINUOUS
 62
     1
 10
0.0
 20
0.0
 30
0.0
  0
LINE
  5
35
  8
BASIS
  6
DASHDOT
 62
     6
 10
0.0
 20
-88.798199
 30
0.0
 11
0.0
 21
1950.699611
 31
0.0
  0
LINE
  5
36
  8
OUTLINE
  6
CONTINUOUS
 62
     3
 10
400.0
 20
20.0
 30
0.0
 11
400.0
 21
1595.0
 31
0.0
  0
LINE
  5
37
  8
OUTLINE
  6
CONTINUOUS
 62
     3
 10
400.0
 20
0.0
 30
0.0
 11
400.0
 21
1690.0
 31
0.0
  0
LINE
  5
38
  8
DETAIL
  6
CONTINUOUS
 62
     5
 10
420.0
 20
244.684845
 30
0.0
 11
420.0
 21
700.0
 31
0.0
  0
LINE
  5
39
  8
DETAIL
  6
CONTINUOUS
 62
     5
 10
420.0
 20
700.0
 30
0.0
 11
400.0
 21
700.0
 31
0.0
  0
ARC
  5
3A
  8
DETAIL
  6
CONTINUOUS
 62
     5
 10
360.0
 20
1740.0
 30
0.0
 40
50.0
 50
180.0
 51
270.0
  0
ARC
  5
3B
  8
DETAIL
  6
CONTINUOUS
 62
     5
 10
190.0
 20
1835.0
 30
0.0
 40
120.0
 50
0.0
 51
90.0
  0
LINE
  5
3C
  8
DETAIL
  6
CONTINUOUS
 62
     5
 10
420.0
 20
1460.0
 30
0.0
 11
420.0
 21
1690.0
 31
0.0
  0
LINE
  5
3D
  8
DETAIL
  6
CONTINUOUS
 62
     5
 10
420.0
 20
1460.0
 30
0.0
 11
400.0
 21
1460.0
 31
0.0
  0
LINE
  5
3E
  8
OUTLINE
  6
CONTINUOUS
 62
     3
 10
-400.0
 20
20.0
 30
0.0
 11
-400.0
 21
1595.0
 31
0.0
  0
LINE
  5
3F
  8
OUTLINE
  6
CONTINUOUS
 62
     3
 10
-400.0
 20
0.0
 30
0.0
 11
-400.0
 21
1690.0
 31
0.0
  0
LINE
  5
40
  8
DETAIL
  6
CONTINUOUS
 62
     5
 10
-420.0
 20
244.684845
 30
0.0
 11
-420.0
 21
895.062532
 31
0.0
  0
ARC
  5
41
  8
DETAIL
  6
CONTINUOUS
 62
     5
 10
-360.0
 20
1740.0
 30
0.0
 40
50.0
 50
270.0
 51
0.0
  0
ARC
  5
42
  8
DETAIL
  6
CONTINUOUS
 62
     5
 10
-190.0
 20
1835.0
 30
0.0
 40
120.0
 50
90.0
 51
180.0
  0
LINE
  5
43
  8
DETAIL
  6
CONTINUOUS
 62
     5
 10
-420.0
 20
1460.0
 30
0.0
 11
-420.0
 21
1690.0
 31
0.0
  0
LINE
  5
44
  8
DETAIL
  6
CONTINUOUS
 62
     5
 10
-420.0
 20
1460.0
 30
0.0
 11
-400.0
 21
1460.0
 31
0.0
  0
LINE
  5
45
  8
DETAIL
  6
CONTINUOUS
 62
     5
 10
-310.0
 20
1835.0
 30
0.0
 11
-310.0
 21
1740.0
 31
0.0
  0
LINE
  5
46
  8
DETAIL
  6
CONTINUOUS
 62
     5
 10
310.0
 20
1835.0
 30
0.0
 11
310.0
 21
1740.0
 31
0.0
  0
LINE
  5
47
  8
DETAIL
  6
CONTINUOUS
 62
     5
 10
190.0
 20
1955.0
 30
0.0
 11
-190.0
 21
1955.0
 31
0.0
  0
LINE
  5
48
  8
DETAIL
  6
CONTINUOUS
 62
     5
 10
-310.0
 20
1835.0
 30
0.0
 11
310.0
 21
1835.0
 31
0.0
  0
LINE
  5
49
  8
OUTLINE
  6
CONTINUOUS
 62
     3
 10
-400.0
 20
0.0
 30
0.0
 11
400.0
 21
0.0
 31
0.0
  0
LINE
  5
4A
  8
DETAIL
  6
CONTINUOUS
 62
     5
 10
-420.0
 20
244.684845
 30
0.0
 11
420.0
 21
244.684845
 31
0.0
  0
LINE
  5
4B
  8
DETAIL
  6
CONTINUOUS
 62
     5
 10
-420.0
 20
895.062532
 30
0.0
 11
-400.0
 21
895.062532
 31
0.0
  0
TEXT
  5
4C
  8
ETC
  6
CONTINUOUS
 62
    61
 10
556.004023
 20
-643.363718
 30
0.0
 40
64.0
  1
CAH-P500CK_3
 41
0.9
  0
LINE
  5
4D
  8
NOTE
  6
CONTINUOUS
 62
     4
 10
1023.07728
 20
1206.688656
 30
0.0
 11
1104.951632
 21
1280.72024
 31
0.0
  0
LINE
  5
4E
  8
NOTE
  6
CONTINUOUS
 62
     4
 10
1104.951632
 20
1280.72024
 30
0.0
 11
1104.951632
 21
1280.72024
 31
0.0
  0
LINE
  5
4F
  8
NOTE
  6
CONTINUOUS
 62
     4
 10
1104.951632
 20
1280.72024
 30
0.0
 11
1104.951632
 21
1230.067047
 31
0.0
  0
LINE
  5
50
  8
NOTE
  6
CONTINUOUS
 62
     4
 10
1104.951632
 20
1230.067047
 30
0.0
 11
1221.914987
 21
1230.067047
 31
0.0
  0
LINE
  5
51
  8
NOTE
  6
CONTINUOUS
 62
     4
 10
1221.914987
 20
1230.067047
 30
0.0
 11
1221.914987
 21
1230.067047
 31
0.0
  0
LINE
  5
52
  8
NOTE
  6
CONTINUOUS
 62
     4
 10
1221.914987
 20
1230.067047
 30
0.0
 11
1221.914987
 21
1206.688656
 31
0.0
  0
LINE
  5
53
  8
NOTE
  6
CONTINUOUS
 62
     4
 10
1023.07728
 20
1206.688656
 30
0.0
 11
1104.951632
 21
1132.657072
 31
0.0
  0
LINE
  5
54
  8
NOTE
  6
CONTINUOUS
 62
     4
 10
1104.951632
 20
1132.657072
 30
0.0
 11
1104.951632
 21
1132.657072
 31
0.0
  0
LINE
  5
55
  8
NOTE
  6
CONTINUOUS
 62
     4
 10
1104.951632
 20
1132.657072
 30
0.0
 11
1104.951632
 21
1183.310265
 31
0.0
  0
LINE
  5
56
  8
NOTE
  6
CONTINUOUS
 62
     4
 10
1104.951632
 20
1183.310265
 30
0.0
 11
1221.914987
 21
1183.310265
 31
0.0
  0
LINE
  5
57
  8
NOTE
  6
CONTINUOUS
 62
     4
 10
1221.914987
 20
1183.310265
 30
0.0
 11
1221.914987
 21
1183.310265
 31
0.0
  0
LINE
  5
58
  8
NOTE
  6
CONTINUOUS
 62
     4
 10
1221.914987
 20
1183.310265
 30
0.0
 11
1221.914987
 21
1206.688656
 31
0.0
  0
LINE
  5
59
  8
NOTE
  6
CONTINUOUS
 62
     4
 10
1023.07728
 20
941.733478
 30
0.0
 11
1104.951632
 21
1015.765062
 31
0.0
  0
LINE
  5
5A
  8
NOTE
  6
CONTINUOUS
 62
     4
 10
1104.951632
 20
1015.765062
 30
0.0
 11
1104.951632
 21
1015.765062
 31
0.0
  0
LINE
  5
5B
  8
NOTE
  6
CONTINUOUS
 62
     4
 10
1104.951632
 20
1015.765062
 30
0.0
 11
1104.951632
 21
965.111869
 31
0.0
  0
LINE
  5
5C
  8
NOTE
  6
CONTINUOUS
 62
     4
 10
1104.951632
 20
965.111869
 30
0.0
 11
1221.914987
 21
965.111869
 31
0.0
  0
LINE
  5
5D
  8
NOTE
  6
CONTINUOUS
 62
     4
 10
1221.914987
 20
965.111869
 30
0.0
 11
1221.914987
 21
965.111869
 31
0.0
  0
LINE
  5
5E
  8
NOTE
  6
CONTINUOUS
 62
     4
 10
1221.914987
 20
965.111869
 30
0.0
 11
1221.914987
 21
941.733478
 31
0.0
  0
LINE
  5
5F
  8
NOTE
  6
CONTINUOUS
 62
     4
 10
1023.07728
 20
941.733478
 30
0.0
 11
1104.951632
 21
867.701894
 31
0.0
  0
LINE
  5
60
  8
NOTE
  6
CONTINUOUS
 62
     4
 10
1104.951632
 20
867.701894
 30
0.0
 11
1104.951632
 21
867.701894
 31
0.0
  0
LINE
  5
61
  8
NOTE
  6
CONTINUOUS
 62
     4
 10
1104.951632
 20
867.701894
 30
0.0
 11
1104.951632
 21
918.355087
 31
0.0
  0
LINE
  5
62
  8
NOTE
  6
CONTINUOUS
 62
     4
 10
1104.951632
 20
918.355087
 30
0.0
 11
1221.914987
 21
918.355087
 31
0.0
  0
LINE
  5
63
  8
NOTE
  6
CONTINUOUS
 62
     4
 10
1221.914987
 20
918.355087
 30
0.0
 11
1221.914987
 21
918.355087
 31
0.0
  0
LINE
  5
64
  8
NOTE
  6
CONTINUOUS
 62
     4
 10
1221.914987
 20
918.355087
 30
0.0
 11
1221.914987
 21
941.733478
 31
0.0
  0
LINE
  5
65
  8
NOTE
  6
CONTINUOUS
 62
     4
 10
-572.876595
 20
1188.93811
 30
0.0
 11
-654.750947
 21
1262.969693
 31
0.0
  0
LINE
  5
66
  8
NOTE
  6
CONTINUOUS
 62
     4
 10
-654.750947
 20
1262.969693
 30
0.0
 11
-654.750947
 21
1262.969693
 31
0.0
  0
LINE
  5
67
  8
NOTE
  6
CONTINUOUS
 62
     4
 10
-654.750947
 20
1262.969693
 30
0.0
 11
-654.750947
 21
1212.316501
 31
0.0
  0
LINE
  5
68
  8
NOTE
  6
CONTINUOUS
 62
     4
 10
-654.750947
 20
1212.316501
 30
0.0
 11
-771.714303
 21
1212.316501
 31
0.0
  0
LINE
  5
69
  8
NOTE
  6
CONTINUOUS
 62
     4
 10
-771.714303
 20
1212.316501
 30
0.0
 11
-771.714303
 21
1212.316501
 31
0.0
  0
LINE
  5
6A
  8
NOTE
  6
CONTINUOUS
 62
     4
 10
-771.714303
 20
1212.316501
 30
0.0
 11
-771.714303
 21
1188.93811
 31
0.0
  0
LINE
  5
6B
  8
NOTE
  6
CONTINUOUS
 62
     4
 10
-572.876595
 20
1188.93811
 30
0.0
 11
-654.750947
 21
1114.906526
 31
0.0
  0
LINE
  5
6C
  8
NOTE
  6
CONTINUOUS
 62
     4
 10
-654.750947
 20
1114.906526
 30
0.0
 11
-654.750947
 21
1114.906526
 31
0.0
  0
LINE
  5
6D
  8
NOTE
  6
CONTINUOUS
 62
     4
 10
-654.750947
 20
1114.906526
 30
0.0
 11
-654.750947
 21
1165.559719
 31
0.0
  0
LINE
  5
6E
  8
NOTE
  6
CONTINUOUS
 62
     4
 10
-654.750947
 20
1165.559719
 30
0.0
 11
-771.714303
 21
1165.559719
 31
0.0
  0
LINE
  5
6F
  8
NOTE
  6
CONTINUOUS
 62
     4
 10
-771.714303
 20
1165.559719
 30
0.0
 11
-771.714303
 21
1165.559719
 31
0.0
  0
LINE
  5
70
  8
NOTE
  6
CONTINUOUS
 62
     4
 10
-771.714303
 20
1165.559719
 30
0.0
 11
-771.714303
 21
1188.93811
 31
0.0
  0
LINE
  5
71
  8
NOTE
  6
CONTINUOUS
 62
     4
 10
-572.876595
 20
923.982932
 30
0.0
 11
-654.750947
 21
998.014515
 31
0.0
  0
LINE
  5
72
  8
NOTE
  6
CONTINUOUS
 62
     4
 10
-654.750947
 20
998.014515
 30
0.0
 11
-654.750947
 21
998.014515
 31
0.0
  0
LINE
  5
73
  8
NOTE
  6
CONTINUOUS
 62
     4
 10
-654.750947
 20
998.014515
 30
0.0
 11
-654.750947
 21
947.361322
 31
0.0
  0
LINE
  5
74
  8
NOTE
  6
CONTINUOUS
 62
     4
 10
-654.750947
 20
947.361322
 30
0.0
 11
-771.714303
 21
947.361322
 31
0.0
  0
LINE
  5
75
  8
NOTE
  6
CONTINUOUS
 62
     4
 10
-771.714303
 20
947.361322
 30
0.0
 11
-771.714303
 21
947.361322
 31
0.0
  0
LINE
  5
76
  8
NOTE
  6
CONTINUOUS
 62
     4
 10
-771.714303
 20
947.361322
 30
0.0
 11
-771.714303
 21
923.982932
 31
0.0
  0
LINE
  5
77
  8
NOTE
  6
CONTINUOUS
 62
     4
 10
-572.876595
 20
923.982932
 30
0.0
 11
-654.750947
 21
849.951348
 31
0.0
  0
LINE
  5
78
  8
NOTE
  6
CONTINUOUS
 62
     4
 10
-654.750947
 20
849.951348
 30
0.0
 11
-654.750947
 21
849.951348
 31
0.0
  0
LINE
  5
79
  8
NOTE
  6
CONTINUOUS
 62
     4
 10
-654.750947
 20
849.951348
 30
0.0
 11
-654.750947
 21
900.604541
 31
0.0
  0
LINE
  5
7A
  8
NOTE
  6
CONTINUOUS
 62
     4
 10
-654.750947
 20
900.604541
 30
0.0
 11
-771.714303
 21
900.604541
 31
0.0
  0
LINE
  5
7B
  8
NOTE
  6
CONTINUOUS
 62
     4
 10
-771.714303
 20
900.604541
 30
0.0
 11
-771.714303
 21
900.604541
 31
0.0
  0
LINE
  5
7C
  8
NOTE
  6
CONTINUOUS
 62
     4
 10
-771.714303
 20
900.604541
 30
0.0
 11
-771.714303
 21
923.982932
 31
0.0
  0
LINE
  5
7D
  8
NOTE
  6
CONTINUOUS
 62
     4
 10
-136.539312
 20
2499.208635
 30
0.0
 11
-210.570896
 21
2417.334283
 31
0.0
  0
LINE
  5
7E
  8
NOTE
  6
CONTINUOUS
 62
     4
 10
-210.570896
 20
2417.334283
 30
0.0
 11
-159.917703
 21
2417.334283
 31
0.0
  0
LINE
  5
7F
  8
NOTE
  6
CONTINUOUS
 62
     4
 10
-159.917703
 20
2417.334283
 30
0.0
 11
-159.917703
 21
2300.370928
 31
0.0
  0
LINE
  5
80
  8
NOTE
  6
CONTINUOUS
 62
     4
 10
-136.539312
 20
2499.208635
 30
0.0
 11
-62.507729
 21
2417.334283
 31
0.0
  0
LINE
  5
81
  8
NOTE
  6
CONTINUOUS
 62
     4
 10
-62.507729
 20
2417.334283
 30
0.0
 11
-62.507729
 21
2417.334283
 31
0.0
  0
LINE
  5
82
  8
NOTE
  6
CONTINUOUS
 62
     4
 10
-62.507729
 20
2417.334283
 30
0.0
 11
-113.160921
 21
2417.334283
 31
0.0
  0
LINE
  5
83
  8
NOTE
  6
CONTINUOUS
 62
     4
 10
-113.160921
 20
2417.334283
 30
0.0
 11
-113.160921
 21
2300.370928
 31
0.0
  0
LINE
  5
84
  8
NOTE
  6
CONTINUOUS
 62
     4
 10
-113.160921
 20
2300.370928
 30
0.0
 11
-159.917703
 21
2300.370928
 31
0.0
  0
LINE
  5
85
  8
NOTE
  6
CONTINUOUS
 62
     4
 10
128.415866
 20
2499.208635
 30
0.0
 11
54.384282
 21
2417.334283
 31
0.0
  0
LINE
  5
86
  8
NOTE
  6
CONTINUOUS
 62
     4
 10
54.384282
 20
2417.334283
 30
0.0
 11
54.384282
 21
2417.334283
 31
0.0
  0
LINE
  5
87
  8
NOTE
  6
CONTINUOUS
 62
     4
 10
54.384282
 20
2417.334283
 30
0.0
 11
105.037475
 21
2417.334283
 31
0.0
  0
LINE
  5
88
  8
NOTE
  6
CONTINUOUS
 62
     4
 10
105.037475
 20
2417.334283
 30
0.0
 11
105.037475
 21
2300.370928
 31
0.0
  0
LINE
  5
89
  8
NOTE
  6
CONTINUOUS
 62
     4
 10
128.415866
 20
2499.208635
 30
0.0
 11
202.44745
 21
2417.334283
 31
0.0
  0
LINE
  5
8A
  8
NOTE
  6
CONTINUOUS
 62
     4
 10
202.44745
 20
2417.334283
 30
0.0
 11
202.44745
 21
2417.334283
 31
0.0
  0
LINE
  5
8B
  8
NOTE
  6
CONTINUOUS
 62
     4
 10
202.44745
 20
2417.334283
 30
0.0
 11
151.794257
 21
2417.334283
 31
0.0
  0
LINE
  5
8C
  8
NOTE
  6
CONTINUOUS
 62
     4
 10
151.794257
 20
2417.334283
 30
0.0
 11
151.794257
 21
2300.370928
 31
0.0
  0
LINE
  5
8D
  8
NOTE
  6
CONTINUOUS
 62
     4
 10
151.794257
 20
2300.370928
 30
0.0
 11
105.037475
 21
2300.370928
 31
0.0
  0
TEXT
  5
8E
  8
NOTE
  6
CONTINUOUS
 62
     4
 10
-65.014484
 20
2580.272893
 30
0.0
 40
96.0
  1
EA
 41
0.9
  0
TEXT
  5
8F
  8
NOTE
  6
CONTINUOUS
 62
     4
 10
-1060.893222
 20
1043.372801
 30
0.0
 40
96.0
  1
OA
 41
0.9
  0
TEXT
  5
90
  8
NOTE
  6
CONTINUOUS
 62
     4
 10
1381.064939
 20
1061.643647
 30
0.0
 40
96.0
  1
OA
 41
0.9
  0
LINE
  5
91
  8
SIZE
  6
CONTINUOUS
 62
    30
 10
-74.5
 20
1955.0
 30
0.0
 11
946.687945
 21
1955.0
 31
0.0
  0
LINE
  5
92
  8
SIZE
  6
CONTINUOUS
 62
    30
 10
399.0
 20
0.0
 30
0.0
 11
946.687945
 21
0.0
 31
0.0
  0
LINE
  5
93
  8
SIZE
  6
CONTINUOUS
 62
    30
 10
916.687945
 20
1945.0
 30
0.0
 11
916.687945
 21
10.0
 31
0.0
  0
CIRCLE
  5
94
  8
SIZE
  6
CONTINUOUS
 62
    30
 10
916.687945
 20
1955.0
 30
0.0
 40
5.0
  0
LINE
  5
95
  8
SIZE
  6
CONTINUOUS
 62
    30
 10
916.687945
 20
1950.0
 30
0.0
 11
916.687945
 21
1945.0
 31
0.0
  0
CIRCLE
  5
96
  8
SIZE
  6
CONTINUOUS
 62
    30
 10
916.687945
 20
0.0
 30
0.0
 40
5.0
  0
LINE
  5
97
  8
SIZE
  6
CONTINUOUS
 62
    30
 10
916.687945
 20
5.0
 30
0.0
 11
916.687945
 21
10.0
 31
0.0
  0
TEXT
  5
98
  8
SIZE
  6
CONTINUOUS
 62
    30
 10
896.687945
 20
810.493489
 30
0.0
 40
64.0
  1
1955
 50
90.0
 41
0.9
 72
     1
 11
896.687945
 21
906.493489
 31
0.0
  0
LINE
  5
99
  8
SIZE
  6
CONTINUOUS
 62
    30
 10
399.0
 20
0.0
 30
0.0
 11
761.028067
 21
0.0
 31
0.0
  0
LINE
  5
9A
  8
SIZE
  6
CONTINUOUS
 62
    30
 10
420.0
 20
1690.0
 30
0.0
 11
761.028067
 21
1690.0
 31
0.0
  0
LINE
  5
9B
  8
SIZE
  6
CONTINUOUS
 62
    30
 10
731.028067
 20
10.0
 30
0.0
 11
731.028067
 21
1680.0
 31
0.0
  0
CIRCLE
  5
9C
  8
SIZE
  6
CONTINUOUS
 62
    30
 10
731.028067
 20
0.0
 30
0.0
 40
5.0
  0
LINE
  5
9D
  8
SIZE
  6
CONTINUOUS
 62
    30
 10
731.028067
 20
5.0
 30
0.0
 11
731.028067
 21
10.0
 31
0.0
  0
CIRCLE
  5
9E
  8
SIZE
  6
CONTINUOUS
 62
    30
 10
731.028067
 20
1690.0
 30
0.0
 40
5.0
  0
LINE
  5
9F
  8
SIZE
  6
CONTINUOUS
 62
    30
 10
731.028067
 20
1685.0
 30
0.0
 11
731.028067
 21
1680.0
 31
0.0
  0
TEXT
  5
A0
  8
SIZE
  6
CONTINUOUS
 62
    30
 10
711.028067
 20
641.823371
 30
0.0
 40
64.0
  1
1690
 50
90.0
 41
0.9
 72
     1
 11
711.028067
 21
737.823371
 31
0.0
  0
LINE
  5
A1
  8
SIZE
  6
CONTINUOUS
 62
    30
 10
420.0
 20
1690.0
 30
0.0
 11
761.028067
 21
1690.0
 31
0.0
  0
LINE
  5
A3
  8
SIZE
  6
CONTINUOUS
 62
    30
 10
731.028067
 20
1700.0
 30
0.0
 11
731.028067
 21
1945.0
 31
0.0
  0
CIRCLE
  5
A4
  8
SIZE
  6
CONTINUOUS
 62
    30
 10
731.028067
 20
1690.0
 30
0.0
 40
5.0
  0
LINE
  5
A5
  8
SIZE
  6
CONTINUOUS
 62
    30
 10
731.028067
 20
1695.0
 30
0.0
 11
731.028067
 21
1700.0
 31
0.0
  0
CIRCLE
  5
A6
  8
SIZE
  6
CONTINUOUS
 62
    30
 10
731.028067
 20
1955.0
 30
0.0
 40
5.0
  0
LINE
  5
A7
  8
SIZE
  6
CONTINUOUS
 62
    30
 10
731.028067
 20
1950.0
 30
0.0
 11
731.028067
 21
1945.0
 31
0.0
  0
TEXT
  5
A8
  8
SIZE
  6
CONTINUOUS
 62
    30
 10
711.028067
 20
1728.442857
 30
0.0
 40
64.0
  1
265
 50
90.0
 41
0.9
 72
     1
 11
711.028067
 21
1802.5
 31
0.0
  0
LINE
  5
A9
  8
BASIS
  6
DASHDOT
 62
     6
 10
0.0
 20
-88.798199
 30
0.0
 11
0.0
 21
1950.699611
 31
0.0
  0
LINE
  5
AA
  8
SIZE
  6
CONTINUOUS
 62
    30
 10
-377.5
 20
-20.0
 30
0.0
 11
-377.5
 21
-285.040139
 31
0.0
  0
LINE
  5
AB
  8
SIZE
  6
CONTINUOUS
 62
    30
 10
377.5
 20
-20.0
 30
0.0
 11
377.5
 21
-285.040139
 31
0.0
  0
LINE
  5
AC
  8
SIZE
  6
CONTINUOUS
 62
    30
 10
-367.5
 20
-255.040139
 30
0.0
 11
367.5
 21
-255.040139
 31
0.0
  0
CIRCLE
  5
AD
  8
SIZE
  6
CONTINUOUS
 62
    30
 10
-377.5
 20
-255.040139
 30
0.0
 40
5.0
  0
LINE
  5
AE
  8
SIZE
  6
CONTINUOUS
 62
    30
 10
-372.5
 20
-255.040139
 30
0.0
 11
-367.5
 21
-255.040139
 31
0.0
  0
CIRCLE
  5
AF
  8
SIZE
  6
CONTINUOUS
 62
    30
 10
377.5
 20
-255.040139
 30
0.0
 40
5.0
  0
LINE
  5
B0
  8
SIZE
  6
CONTINUOUS
 62
    30
 10
372.5
 20
-255.040139
 30
0.0
 11
367.5
 21
-255.040139
 31
0.0
  0
TEXT
  5
B1
  8
SIZE
  6
CONTINUOUS
 62
    30
 10
-78.042234
 20
-235.040139
 30
0.0
 40
64.0
  1
755
 41
0.9
 72
     1
 11
-3.985091
 21
-235.040139
 31
0.0
  0
LINE
  5
B2
  8
SIZE
  6
CONTINUOUS
 62
    30
 10
377.5
 20
-20.0
 30
0.0
 11
377.5
 21
-283.40009
 31
0.0
  0
LINE
  5
B3
  8
SIZE
  6
CONTINUOUS
 62
    30
 10
420.0
 20
-20.0
 30
0.0
 11
420.0
 21
-283.40009
 31
0.0
  0
LINE
  5
B4
  8
SIZE
  6
CONTINUOUS
 62
    30
 10
367.5
 20
-253.40009
 30
0.0
 11
357.5
 21
-253.40009
 31
0.0
  0
LINE
  5
B5
  8
SIZE
  6
CONTINUOUS
 62
    30
 10
430.0
 20
-253.40009
 30
0.0
 11
655.542857
 21
-253.40009
 31
0.0
  0
LINE
  5
B6
  8
SIZE
  6
CONTINUOUS
 62
    30
 10
377.5
 20
-253.40009
 30
0.0
 11
420.0
 21
-253.40009
 31
0.0
  0
CIRCLE
  5
B7
  8
SIZE
  6
CONTINUOUS
 62
    30
 10
377.5
 20
-253.40009
 30
0.0
 40
5.0
  0
LINE
  5
B8
  8
SIZE
  6
CONTINUOUS
 62
    30
 10
372.5
 20
-253.40009
 30
0.0
 11
367.5
 21
-253.40009
 31
0.0
  0
CIRCLE
  5
B9
  8
SIZE
  6
CONTINUOUS
 62
    30
 10
420.0
 20
-253.40009
 30
0.0
 40
5.0
  0
LINE
  5
BA
  8
SIZE
  6
CONTINUOUS
 62
    30
 10
425.0
 20
-253.40009
 30
0.0
 11
430.0
 21
-253.40009
 31
0.0
  0
TEXT
  5
BB
  8
SIZE
  6
CONTINUOUS
 62
    30
 10
460.0
 20
-233.40009
 30
0.0
 40
64.0
  1
42.5
 41
0.9
 72
     1
 11
547.771429
 21
-233.40009
 31
0.0
  0
LINE
  5
BC
  8
SIZE
  6
CONTINUOUS
 62
    30
 10
0.0
 20
121.0
 30
0.0
 11
0.0
 21
-146.731527
 31
0.0
  0
LINE
  5
BD
  8
SIZE
  6
CONTINUOUS
 62
    30
 10
420.0
 20
-20.0
 30
0.0
 11
420.0
 21
-146.731527
 31
0.0
  0
LINE
  5
BE
  8
SIZE
  6
CONTINUOUS
 62
    30
 10
10.0
 20
-116.731527
 30
0.0
 11
410.0
 21
-116.731527
 31
0.0
  0
CIRCLE
  5
BF
  8
SIZE
  6
CONTINUOUS
 62
    30
 10
0.0
 20
-116.731527
 30
0.0
 40
5.0
  0
LINE
  5
C0
  8
SIZE
  6
CONTINUOUS
 62
    30
 10
5.0
 20
-116.731527
 30
0.0
 11
10.0
 21
-116.731527
 31
0.0
  0
CIRCLE
  5
C1
  8
SIZE
  6
CONTINUOUS
 62
    30
 10
420.0
 20
-116.731527
 30
0.0
 40
5.0
  0
LINE
  5
C2
  8
SIZE
  6
CONTINUOUS
 62
    30
 10
415.0
 20
-116.731527
 30
0.0
 11
410.0
 21
-116.731527
 31
0.0
  0
TEXT
  5
C3
  8
SIZE
  6
CONTINUOUS
 62
    30
 10
141.409628
 20
-96.731527
 30
0.0
 40
64.0
  1
420
 41
0.9
 72
     1
 11
215.466771
 21
-96.731527
 31
0.0
  0
LINE
  5
C4
  8
NOTE
  6
CONTINUOUS
 62
     4
 10
416.764491
 20
-7.635427
 30
0.0
 11
377.5
 21
0.0
 31
0.0
  0
LINE
  5
C5
  8
NOTE
  6
CONTINUOUS
 62
     4
 10
377.5
 20
0.0
 30
0.0
 11
407.686333
 21
-26.244719
 31
0.0
  0
LINE
  5
C6
  8
NOTE
  6
CONTINUOUS
 62
     4
 10
377.5
 20
0.0
 30
0.0
 11
1234.474096
 21
-415.779351
 31
0.0
  0
LINE
  5
C7
  8
NOTE
  6
CONTINUOUS
 62
     4
 10
1234.474096
 20
-415.779351
 30
0.0
 11
1889.914517
 21
-415.779351
 31
0.0
  0
TEXT
  5
C8
  8
NOTE
  6
CONTINUOUS
 62
     4
 10
1249.712291
 20
-390.8788
 30
0.0
 40
64.0
  1
AH 6-14×20
 41
0.9
  0
TEXT
  5
C9
  8
ETC
  6
CONTINUOUS
 62
    61
 10
557.904011
 20
-751.366698
 30
0.0
 40
64.0
  1
チラー
 41
0.9
  0
CIRCLE
  5
CA
  8
FIX
  6
CONTINUOUS
 62
    11
 10
377.5
 20
0.0
 30
0.0
 40
20.0
  0
CIRCLE
  5
CB
  8
FIX
  6
CONTINUOUS
 62
    11
 10
-377.5
 20
0.0
 30
0.0
 40
20.0
  0
LINE
  5
CC
  8
SIZE
  6
CONTINUOUS
 62
    30
 10
420.0
 20
224.684845
 30
0.0
 11
420.0
 21
-413.074809
 31
0.0
  0
LINE
  5
CD
  8
SIZE
  6
CONTINUOUS
 62
    30
 10
-420.0
 20
224.684845
 30
0.0
 11
-420.0
 21
-413.074809
 31
0.0
  0
LINE
  5
CE
  8
SIZE
  6
CONTINUOUS
 62
    30
 10
410.0
 20
-383.074809
 30
0.0
 11
-410.0
 21
-383.074809
 31
0.0
  0
CIRCLE
  5
CF
  8
SIZE
  6
CONTINUOUS
 62
    30
 10
420.0
 20
-383.074809
 30
0.0
 40
5.0
  0
LINE
  5
D0
  8
SIZE
  6
CONTINUOUS
 62
    30
 10
415.0
 20
-383.074809
 30
0.0
 11
410.0
 21
-383.074809
 31
0.0
  0
CIRCLE
  5
D1
  8
SIZE
  6
CONTINUOUS
 62
    30
 10
-420.0
 20
-383.074809
 30
0.0
 40
5.0
  0
LINE
  5
D2
  8
SIZE
  6
CONTINUOUS
 62
    30
 10
-415.0
 20
-383.074809
 30
0.0
 11
-410.0
 21
-383.074809
 31
0.0
  0
TEXT
  5
D3
  8
SIZE
  6
CONTINUOUS
 62
    30
 10
-78.137978
 20
-363.074809
 30
0.0
 40
64.0
  1
840
 41
0.9
 72
     1
 11
-4.080835
 21
-363.074809
 31
0.0
  0
ARC
  5
D4
  8
OUTLINE
  6
CONTINUOUS
 62
     3
 10
360.0
 20
1740.0
 30
0.0
 40
50.0
 50
180.0
 51
270.0
  0
ARC
  5
D5
  8
OUTLINE
  6
CONTINUOUS
 62
     3
 10
190.0
 20
1835.0
 30
0.0
 40
120.0
 50
0.0
 51
90.0
  0
ARC
  5
D6
  8
OUTLINE
  6
CONTINUOUS
 62
     3
 10
-360.0
 20
1740.0
 30
0.0
 40
50.0
 50
270.0
 51
0.0
  0
ARC
  5
D7
  8
OUTLINE
  6
CONTINUOUS
 62
     3
 10
-190.0
 20
1835.0
 30
0.0
 40
120.0
 50
90.0
 51
180.0
  0
LINE
  5
D8
  8
OUTLINE
  6
CONTINUOUS
 62
     3
 10
-310.0
 20
1835.0
 30
0.0
 11
-310.0
 21
1740.0
 31
0.0
  0
LINE
  5
D9
  8
OUTLINE
  6
CONTINUOUS
 62
     3
 10
310.0
 20
1835.0
 30
0.0
 11
310.0
 21
1740.0
 31
0.0
  0
LINE
  5
DA
  8
OUTLINE
  6
CONTINUOUS
 62
     3
 10
190.0
 20
1955.0
 30
0.0
 11
-190.0
 21
1955.0
 31
0.0
  0
LINE
  5
DB
  8
OUTLINE
  6
CONTINUOUS
 62
     3
 10
-400.0
 20
1690.0
 30
0.0
 11
-360.0
 21
1690.0
 31
0.0
  0
LINE
  5
DC
  8
DETAIL
  6
CONTINUOUS
 62
     5
 10
-420.0
 20
1690.0
 30
0.0
 11
420.0
 21
1690.0
 31
0.0
  0
LINE
  5
DD
  8
DETAIL
  6
CONTINUOUS
 62
     5
 10
-400.0
 20
0.0
 30
0.0
 11
400.0
 21
0.0
 31
0.0
  0
LINE
  5
DE
  8
DETAIL
  6
CONTINUOUS
 62
     5
 10
400.0
 20
0.0
 30
0.0
 11
400.0
 21
1690.0
 31
0.0
  0
LINE
  5
DF
  8
DETAIL
  6
CONTINUOUS
 62
     5
 10
-400.0
 20
1690.0
 30
0.0
 11
-400.0
 21
0.0
 31
0.0
  0
LINE
  5
E0
  8
DETAIL
  6
CONTINUOUS
 62
     5
 10
0.0
 20
1955.0
 30
0.0
 11
0.0
 21
1835.0
 31
0.0
  0
LINE
  5
E1
  8
DETAIL
  6
CONTINUOUS
 62
     5
 10
-50.0
 20
1955.0
 30
0.0
 11
-50.0
 21
1835.0
 31
0.0
  0
LINE
  5
E2
  8
DETAIL
  6
CONTINUOUS
 62
     5
 10
-100.0
 20
1955.0
 30
0.0
 11
-100.0
 21
1835.0
 31
0.0
  0
LINE
  5
E3
  8
DETAIL
  6
CONTINUOUS
 62
     5
 10
-150.0
 20
1955.0
 30
0.0
 11
-150.0
 21
1835.0
 31
0.0
  0
LINE
  5
E4
  8
DETAIL
  6
CONTINUOUS
 62
     5
 10
-200.0
 20
1955.0
 30
0.0
 11
-200.0
 21
1835.0
 31
0.0
  0
LINE
  5
E5
  8
DETAIL
  6
CONTINUOUS
 62
     5
 10
-250.0
 20
1938.923048
 30
0.0
 11
-250.0
 21
1835.0
 31
0.0
  0
LINE
  5
E6
  8
DETAIL
  6
CONTINUOUS
 62
     5
 10
-300.0
 20
1880.958315
 30
0.0
 11
-300.0
 21
1835.0
 31
0.0
  0
LINE
  5
E7
  8
DETAIL
  6
CONTINUOUS
 62
     5
 10
50.0
 20
1955.0
 30
0.0
 11
50.0
 21
1835.0
 31
0.0
  0
LINE
  5
E8
  8
DETAIL
  6
CONTINUOUS
 62
     5
 10
100.0
 20
1955.0
 30
0.0
 11
100.0
 21
1835.0
 31
0.0
  0
LINE
  5
E9
  8
DETAIL
  6
CONTINUOUS
 62
     5
 10
150.0
 20
1955.0
 30
0.0
 11
150.0
 21
1835.0
 31
0.0
  0
LINE
  5
EA
  8
DETAIL
  6
CONTINUOUS
 62
     5
 10
200.0
 20
1955.0
 30
0.0
 11
200.0
 21
1835.0
 31
0.0
  0
LINE
  5
EB
  8
DETAIL
  6
CONTINUOUS
 62
     5
 10
250.0
 20
1938.923048
 30
0.0
 11
250.0
 21
1835.0
 31
0.0
  0
LINE
  5
EC
  8
DETAIL
  6
CONTINUOUS
 62
     5
 10
300.0
 20
1882.958315
 30
0.0
 11
300.0
 21
1835.0
 31
0.0
  0
LINE
  5
ED
  8
DETAIL
  6
CONTINUOUS
 62
     5
 10
420.0
 20
244.684845
 30
0.0
 11
-420.0
 21
244.684845
 31
0.0
  0
LINE
  5
EE
  8
DETAIL
  6
CONTINUOUS
 62
     5
 10
445.0
 20
248.0
 30
0.0
 11
445.0
 21
288.0
 31
0.0
  0
LINE
  5
EF
  8
DETAIL
  6
CONTINUOUS
 62
     5
 10
445.0
 20
248.0
 30
0.0
 11
420.0
 21
248.0
 31
0.0
  0
LINE
  5
F0
  8
DETAIL
  6
CONTINUOUS
 62
     5
 10
445.0
 20
288.0
 30
0.0
 11
420.0
 21
288.0
 31
0.0
  0
LINE
  5
F1
  8
NOTE
  6
CONTINUOUS
 62
     4
 10
445.0
 20
248.0
 30
0.0
 11
445.0
 21
288.0
 31
0.0
  0
LINE
  5
F2
  8
NOTE
  6
CONTINUOUS
 62
     4
 10
465.0
 20
268.0
 30
0.0
 11
425.0
 21
268.0
 31
0.0
  0
LINE
  5
F3
  8
NOTE
  6
CONTINUOUS
 62
     4
 10
443.917626
 20
267.786813
 30
0.0
 11
512.520766
 21
419.459346
 31
0.0
  0
TEXT
  5
F4
  8
NOTE
  6
CONTINUOUS
 62
     4
 10
518.766576
 20
440.459526
 30
0.0
 40
64.0
  1
D 2-30A
 41
0.9
  0
LINE
  5
F5
  8
NOTE
  6
CONTINUOUS
 62
     4
 10
512.520766
 20
419.459346
 30
0.0
 11
785.52706
 21
419.459346
 31
0.0
  0
LINE
  5
F6
  8
NOTE
  6
CONTINUOUS
 62
     4
 10
469.507365
 20
298.530353
 30
0.0
 11
443.917626
 21
267.786813
 31
0.0
  0
LINE
  5
F7
  8
NOTE
  6
CONTINUOUS
 62
     4
 10
443.917626
 20
267.786813
 30
0.0
 11
450.70722
 21
307.206369
 31
0.0
  0
LINE
  5
F8
  8
SIZE
  6
CONTINUOUS
 62
    30
 10
485.0
 20
268.0
 30
0.0
 11
662.211953
 21
268.0
 31
0.0
  0
LINE
  5
F9
  8
SIZE
  6
CONTINUOUS
 62
    30
 10
420.0
 20
0.0
 30
0.0
 11
662.211953
 21
0.0
 31
0.0
  0
LINE
  5
FA
  8
SIZE
  6
CONTINUOUS
 62
    30
 10
632.211953
 20
258.0
 30
0.0
 11
632.211953
 21
10.0
 31
0.0
  0
CIRCLE
  5
FB
  8
SIZE
  6
CONTINUOUS
 62
    30
 10
632.211953
 20
268.0
 30
0.0
 40
5.0
  0
LINE
  5
FC
  8
SIZE
  6
CONTINUOUS
 62
    30
 10
632.211953
 20
263.0
 30
0.0
 11
632.211953
 21
258.0
 31
0.0
  0
CIRCLE
  5
FD
  8
SIZE
  6
CONTINUOUS
 62
    30
 10
632.211953
 20
0.0
 30
0.0
 40
5.0
  0
LINE
  5
FE
  8
SIZE
  6
CONTINUOUS
 62
    30
 10
632.211953
 20
5.0
 30
0.0
 11
632.211953
 21
10.0
 31
0.0
  0
TEXT
  5
FF
  8
SIZE
  6
CONTINUOUS
 62
    30
 10
612.211953
 20
64.201791
 30
0.0
 40
64.0
  1
268
 50
90.0
 41
0.9
 72
     1
 11
612.211953
 21
138.258934
 31
0.0
  0
LINE
  5
100
  8
SIZE
  6
CONTINUOUS
 62
    30
 10
445.0
 20
228.0
 30
0.0
 11
445.0
 21
-147.561043
 31
0.0
  0
LINE
  5
101
  8
SIZE
  6
CONTINUOUS
 62
    30
 10
420.0
 20
224.684845
 30
0.0
 11
420.0
 21
-147.561043
 31
0.0
  0
LINE
  5
102
  8
SIZE
  6
CONTINUOUS
 62
    30
 10
410.0
 20
-117.561043
 30
0.0
 11
400.0
 21
-117.561043
 31
0.0
  0
LINE
  5
103
  8
SIZE
  6
CONTINUOUS
 62
    30
 10
455.0
 20
-117.561043
 30
0.0
 11
598.257143
 21
-117.561043
 31
0.0
  0
LINE
  5
104
  8
SIZE
  6
CONTINUOUS
 62
    30
 10
420.0
 20
-117.561043
 30
0.0
 11
445.0
 21
-117.561043
 31
0.0
  0
CIRCLE
  5
105
  8
SIZE
  6
CONTINUOUS
 62
    30
 10
420.0
 20
-117.561043
 30
0.0
 40
5.0
  0
LINE
  5
106
  8
SIZE
  6
CONTINUOUS
 62
    30
 10
415.0
 20
-117.561043
 30
0.0
 11
410.0
 21
-117.561043
 31
0.0
  0
CIRCLE
  5
107
  8
SIZE
  6
CONTINUOUS
 62
    30
 10
445.0
 20
-117.561043
 30
0.0
 40
5.0
  0
LINE
  5
108
  8
SIZE
  6
CONTINUOUS
 62
    30
 10
450.0
 20
-117.561043
 30
0.0
 11
455.0
 21
-117.561043
 31
0.0
  0
TEXT
  5
109
  8
SIZE
  6
CONTINUOUS
 62
    30
 10
485.0
 20
-97.561043
 30
0.0
 40
64.0
  1
25
 41
0.9
 72
     1
 11
531.628571
 21
-97.561043
 31
0.0
  0
LINE
  5
10A
  8
OUTLINE
  6
CONTINUOUS
 62
     3
 10
360.0
 20
1690.0
 30
0.0
 11
400.0
 21
1690.0
 31
0.0
  0
LINE
  5
10B
  8
NOTE
  6
CONTINUOUS
 62
     4
 10
397.5
 20
0.0
 30
0.0
 11
357.5
 21
0.0
 31
0.0
  0
LINE
  5
10C
  8
NOTE
  6
CONTINUOUS
 62
     4
 10
377.5
 20
-20.0
 30
0.0
 11
377.5
 21
20.0
 31
0.0
  0
LINE
  5
10D
  8
NOTE
  6
CONTINUOUS
 62
     4
 10
-377.5
 20
-20.0
 30
0.0
 11
-377.5
 21
20.0
 31
0.0
  0
LINE
  5
10E
  8
NOTE
  6
CONTINUOUS
 62
     4
 10
-357.5
 20
0.0
 30
0.0
 11
-397.5
 21
0.0
 31
0.0
  0
ENDSEC
  0
EOF
