  0
SECTION
  2
HEADER
  9
$ACADVER
  1
AC1009
  9
$INSBASE
 10
0.0
 20
0.0
 30
0.0
  9
$EXTMIN
 10
-1571.31566
 20
-832.984376
 30
0.0
  9
$EXTMAX
 10
2269.414517
 20
1989.655001
 30
0.0
  9
$LIMMIN
 10
-6000.0
 20
-4500.0
  9
$LIMMAX
 10
6000.0
 20
4500.0
  9
$ORTHOMODE
 70
     0
  9
$REGENMODE
 70
     1
  9
$FILLMODE
 70
     1
  9
$QTEXTMODE
 70
     0
  9
$MIRRTEXT
 70
     0
  9
$DRAGMODE
 70
     2
  9
$LTSCALE
 40
20.0
  9
$OSMODE
 70
    37
  9
$ATTMODE
 70
     1
  9
$TEXTSIZE
 40
64.0
  9
$TRACEWID
 40
0.05
  9
$TEXTSTYLE
  7
STANDARD
  9
$CLAYER
  8
0
  9
$CELTYPE
  6
CONTINUOUS
  9
$CECOLOR
 62
     7
  9
$DIMSCALE
 40
1.0
  9
$DIMASZ
 40
10.0
  9
$DIMEXO
 40
20.0
  9
$DIMDLI
 40
200.0
  9
$DIMRND
 40
0.0
  9
$DIMDLE
 40
0.0
  9
$DIMEXE
 40
30.0
  9
$DIMTP
 40
0.0
  9
$DIMTM
 40
0.0
  9
$DIMTXT
 40
64.0
  9
$DIMCEN
 40
0.0
  9
$DIMTSZ
 40
0.0
  9
$DIMTOL
 70
     0
  9
$DIMLIM
 70
     0
  9
$DIMTIH
 70
     0
  9
$DIMTOH
 70
     0
  9
$DIMSE1
 70
     0
  9
$DIMSE2
 70
     0
  9
$DIMTAD
 70
     1
  9
$DIMZIN
 70
     8
  9
$DIMBLK
  1

  9
$DIMASO
 70
     1
  9
$DIMSHO
 70
     0
  9
$DIMPOST
  1

  9
$DIMAPOST
  1

  9
$DIMALT
 70
     0
  9
$DIMALTD
 70
     2
  9
$DIMALTF
 40
25.4
  9
$DIMLFAC
 40
1.0
  9
$DIMTOFL
 70
     1
  9
$DIMTVP
 40
0.0
  9
$DIMTIX
 70
     1
  9
$DIMSOXD
 70
     0
  9
$DIMSAH
 70
     1
  9
$DIMBLK1
  1
_DOTBLANK
  9
$DIMBLK2
  1
_DOTBLANK
  9
$DIMSTYLE
  2
STANDARD
  9
$DIMCLRD
 70
     0
  9
$DIMCLRE
 70
     0
  9
$DIMCLRT
 70
     0
  9
$DIMTFAC
 40
1.0
  9
$DIMGAP
 40
0.09
  9
$LUNITS
 70
     2
  9
$LUPREC
 70
     4
  9
$SKETCHINC
 40
0.1
  9
$FILLETRAD
 40
10.0
  9
$AUNITS
 70
     1
  9
$AUPREC
 70
     3
  9
$MENU
  1
ACAD
  9
$ELEVATION
 40
0.0
  9
$PELEVATION
 40
0.0
  9
$THICKNESS
 40
0.0
  9
$LIMCHECK
 70
     0
  9
$BLIPMODE
 70
     0
  9
$CHAMFERA
 40
0.0
  9
$CHAMFERB
 40
0.0
  9
$SKPOLY
 70
     0
  9
$TDCREATE
 40
2450330.439931
  9
$TDUPDATE
 40
2452423.397364
  9
$TDINDWG
 40
0.996105
  9
$TDUSRTIMER
 40
0.996103
  9
$USRTIMER
 70
     1
  9
$ANGBASE
 50
0.0
  9
$ANGDIR
 70
     0
  9
$PDMODE
 70
     3
  9
$PDSIZE
 40
-2.0
  9
$PLINEWID
 40
0.0
  9
$COORDS
 70
     2
  9
$SPLFRAME
 70
     0
  9
$SPLINETYPE
 70
     6
  9
$SPLINESEGS
 70
     8
  9
$ATTDIA
 70
     0
  9
$ATTREQ
 70
     1
  9
$HANDLING
 70
     1
  9
$HANDSEED
  5
1BB
  9
$SURFTAB1
 70
     6
  9
$SURFTAB2
 70
     6
  9
$SURFTYPE
 70
     6
  9
$SURFU
 70
     6
  9
$SURFV
 70
     6
  9
$UCSNAME
  2

  9
$UCSORG
 10
0.0
 20
0.0
 30
0.0
  9
$UCSXDIR
 10
1.0
 20
0.0
 30
0.0
  9
$UCSYDIR
 10
0.0
 20
1.0
 30
0.0
  9
$PUCSNAME
  2

  9
$PUCSORG
 10
0.0
 20
0.0
 30
0.0
  9
$PUCSXDIR
 10
1.0
 20
0.0
 30
0.0
  9
$PUCSYDIR
 10
0.0
 20
1.0
 30
0.0
  9
$USERI1
 70
     0
  9
$USERI2
 70
     0
  9
$USERI3
 70
     0
  9
$USERI4
 70
     0
  9
$USERI5
 70
     0
  9
$USERR1
 40
20.0
  9
$USERR2
 40
0.0
  9
$USERR3
 40
0.0
  9
$USERR4
 40
0.0
  9
$USERR5
 40
0.0
  9
$WORLDVIEW
 70
     1
  9
$SHADEDGE
 70
     3
  9
$SHADEDIF
 70
    70
  9
$TILEMODE
 70
     1
  9
$MAXACTVP
 70
    48
  9
$PLIMCHECK
 70
     0
  9
$PEXTMIN
 10
1.000000E+020
 20
1.000000E+020
 30
1.000000E+020
  9
$PEXTMAX
 10
-1.000000E+020
 20
-1.000000E+020
 30
-1.000000E+020
  9
$PLIMMIN
 10
0.0
 20
0.0
  9
$PLIMMAX
 10
12.0
 20
9.0
  9
$UNITMODE
 70
     0
  9
$VISRETAIN
 70
     1
  9
$PLINEGEN
 70
     0
  9
$PSLTSCALE
 70
     1
  0
ENDSEC
  0
SECTION
  2
TABLES
  0
TABLE
  2
VPORT
 70
     2
  0
VPORT
  2
*ACTIVE
 70
     0
 10
0.0
 20
0.0
 11
1.0
 21
1.0
 12
2002.659574
 22
0.0
 13
0.0
 23
0.0
 14
50.0
 24
50.0
 15
100.0
 25
100.0
 16
0.0
 26
0.0
 36
1.0
 17
0.0
 27
0.0
 37
0.0
 40
9000.0
 41
1.778369
 42
50.0
 43
0.0
 44
0.0
 50
0.0
 51
0.0
 71
     0
 72
  1000
 73
     1
 74
     0
 75
     0
 76
     0
 77
     0
 78
     0
  0
ENDTAB
  0
TABLE
  2
LTYPE
 70
     2
  0
LTYPE
  2
CONTINUOUS
 70
     0
  3
実線
 72
    65
 73
     0
 40
0.0
  0
LTYPE
  2
DASHDOT
 70
     0
  3
____ _ ____ _ ____ _ ____ _ ____ _ ____ _ ____
 72
    65
 73
     4
 40
5.5
 49
4.0
 49
-0.6
 49
0.3
 49
-0.6
  0
ENDTAB
  0
TABLE
  2
LAYER
 70
    12
  0
LAYER
  2
0
 70
     0
 62
     7
  6
CONTINUOUS
  0
LAYER
  2
OUTLINE
 70
     0
 62
     3
  6
CONTINUOUS
  0
LAYER
  2
DETAIL
 70
     0
 62
     5
  6
CONTINUOUS
  0
LAYER
  2
BASIS
 70
     0
 62
     6
  6
DASHDOT
  0
LAYER
  2
SIZE
 70
     0
 62
    30
  6
CONTINUOUS
  0
LAYER
  2
NOTE
 70
     0
 62
     4
  6
CONTINUOUS
  0
LAYER
  2
ARRANGE
 70
     0
 62
     1
  6
CONTINUOUS
  0
LAYER
  2
FIX
 70
     0
 62
    11
  6
CONTINUOUS
  0
LAYER
  2
SERVICESPACE
 70
     0
 62
     2
  6
DASHDOT
  0
LAYER
  2
ETC
 70
     0
 62
    61
  6
CONTINUOUS
  0
LAYER
  2
SYMBOLLINE
 70
     0
 62
    15
  6
CONTINUOUS
  0
LAYER
  2
DEFPOINTS
 70
     0
 62
     7
  6
CONTINUOUS
  0
ENDTAB
  0
TABLE
  2
STYLE
 70
     1
  0
STYLE
  2
STANDARD
 70
     0
 40
0.0
 41
0.9
 50
0.0
 71
     0
 42
64.0
  3
SIMPLEX
  4
BIGFONT
  0
ENDTAB
  0
TABLE
  2
VIEW
 70
     1
  0
VIEW
  2
ALL
 70
     0
 40
9000.0
 10
241.506647
 20
0.0
 41
12483.01
 11
0.0
 21
0.0
 31
1.0
 12
0.0
 22
0.0
 32
0.0
 42
50.0
 43
0.0
 44
0.0
 50
0.0
 71
     0
  0
ENDTAB
  0
TABLE
  2
UCS
 70
     0
  0
ENDTAB
  0
TABLE
  2
APPID
 70
     1
  0
APPID
  2
ACAD
 70
     0
  0
ENDTAB
  0
TABLE
  2
DIMSTYLE
 70
     1
  0
DIMSTYLE
  2
STANDARD
 70
     0
  3

  4

  5

  6

  7

 40
1.0
 41
0.18
 42
0.0625
 43
0.38
 44
0.18
 45
0.0
 46
0.0
 47
0.0
 48
0.0
140
0.18
141
0.09
142
0.0
143
25.4
144
1.0
145
0.0
146
1.0
147
0.09
 71
     0
 72
     0
 73
     1
 74
     1
 75
     0
 76
     0
 77
     0
 78
     0
170
     0
171
     2
172
     0
173
     0
174
     0
175
     0
176
     0
177
     0
178
     0
  0
ENDTAB
  0
ENDSEC
  0
SECTION
  2
BLOCKS
  0
BLOCK
  8
0
  2
$MODEL_SPACE
 70
     0
 10
0.0
 20
0.0
 30
0.0
  3
$MODEL_SPACE
  1

  0
ENDBLK
  5
19F
  8
0
  0
BLOCK
 67
     1
  8
0
  2
$PAPER_SPACE
 70
     0
 10
0.0
 20
0.0
 30
0.0
  3
$PAPER_SPACE
  1

  0
ENDBLK
  5
19C
 67
     1
  8
0
  0
BLOCK
  8
0
  2
_DOTBLANK
 70
     0
 10
0.0
 20
0.0
 30
0.0
  3
_DOTBLANK
  1

  0
CIRCLE
  5
30
  8
0
  6
CONTINUOUS
 62
     7
 10
0.0
 20
0.0
 30
0.0
 40
0.5
  0
LINE
  5
31
  8
0
  6
CONTINUOUS
 62
     7
 10
-0.5
 20
0.0
 30
0.0
 11
-1.0
 21
0.0
 31
0.0
  0
ENDBLK
  5
32
  8
0
  0
ENDSEC
  0
SECTION
  2
ENTITIES
  0
CIRCLE
  5
33
  8
FIX
  6
CONTINUOUS
 62
    11
 10
0.0
 20
0.0
 30
0.0
 40
20.0
  0
LINE
  5
34
  8
NOTE
  6
CONTINUOUS
 62
     4
 10
0.0
 20
-20.0
 30
0.0
 11
0.0
 21
20.0
 31
0.0
  0
LINE
  5
35
  8
NOTE
  6
CONTINUOUS
 62
     4
 10
-20.0
 20
0.0
 30
0.0
 11
20.0
 21
0.0
 31
0.0
  0
CIRCLE
  5
36
  8
ARRANGE
  6
CONTINUOUS
 62
     1
 10
0.0
 20
0.0
 30
0.0
 40
40.0
  0
POINT
  5
37
  8
ARRANGE
  6
CONTINUOUS
 62
     1
 10
0.0
 20
0.0
 30
0.0
  0
LINE
  5
38
  8
OUTLINE
  6
CONTINUOUS
 62
     3
 10
-995.0
 20
1690.0
 30
0.0
 11
-860.5
 21
1690.0
 31
0.0
  0
LINE
  5
39
  8
OUTLINE
  6
CONTINUOUS
 62
     3
 10
974.0
 20
0.0
 30
0.0
 11
-974.0
 21
0.0
 31
0.0
  0
LINE
  5
3A
  8
OUTLINE
  6
CONTINUOUS
 62
     3
 10
-995.0
 20
1690.0
 30
0.0
 11
-995.0
 21
251.556053
 31
0.0
  0
LINE
  5
3B
  8
OUTLINE
  6
CONTINUOUS
 62
     3
 10
-995.0
 20
1690.0
 30
0.0
 11
-995.0
 21
251.556053
 31
0.0
  0
LINE
  5
3C
  8
BASIS
  6
DASHDOT
 62
     6
 10
-500.5
 20
1379.640063
 30
0.0
 11
-500.5
 21
1989.655001
 31
0.0
  0
LINE
  5
3D
  8
DETAIL
  6
CONTINUOUS
 62
     5
 10
-6.0
 20
0.0
 30
0.0
 11
-974.0
 21
0.0
 31
0.0
  0
LINE
  5
3E
  8
DETAIL
  6
CONTINUOUS
 62
     5
 10
995.0
 20
680.0
 30
0.0
 11
-995.0
 21
680.0
 31
0.0
  0
LINE
  5
3F
  8
DETAIL
  6
CONTINUOUS
 62
     5
 10
-11.0
 20
1690.0
 30
0.0
 11
-995.0
 21
1690.0
 31
0.0
  0
LINE
  5
40
  8
DETAIL
  6
CONTINUOUS
 62
     5
 10
-995.0
 20
1461.0
 30
0.0
 11
995.0
 21
1461.0
 31
0.0
  0
LINE
  5
41
  8
OUTLINE
  6
CONTINUOUS
 62
     3
 10
995.0
 20
1690.0
 30
0.0
 11
995.0
 21
251.556053
 31
0.0
  0
LINE
  5
42
  8
OUTLINE
  6
CONTINUOUS
 62
     3
 10
995.0
 20
1690.0
 30
0.0
 11
995.0
 21
251.556053
 31
0.0
  0
LINE
  5
43
  8
BASIS
  6
DASHDOT
 62
     6
 10
500.5
 20
1379.640063
 30
0.0
 11
500.5
 21
1989.655001
 31
0.0
  0
LINE
  5
44
  8
DETAIL
  6
CONTINUOUS
 62
     5
 10
6.0
 20
0.0
 30
0.0
 11
974.0
 21
0.0
 31
0.0
  0
LINE
  5
45
  8
DETAIL
  6
CONTINUOUS
 62
     5
 10
995.0
 20
1690.0
 30
0.0
 11
11.0
 21
1690.0
 31
0.0
  0
ARC
  5
46
  8
DETAIL
  6
CONTINUOUS
 62
     5
 10
860.5
 20
1740.0
 30
0.0
 40
50.0
 50
180.0
 51
270.0
  0
ARC
  5
47
  8
DETAIL
  6
CONTINUOUS
 62
     5
 10
690.5
 20
1835.0
 30
0.0
 40
120.0
 50
0.0
 51
90.0
  0
ARC
  5
48
  8
DETAIL
  6
CONTINUOUS
 62
     5
 10
140.5
 20
1740.0
 30
0.0
 40
50.0
 50
270.0
 51
0.0
  0
ARC
  5
49
  8
DETAIL
  6
CONTINUOUS
 62
     5
 10
310.5
 20
1835.0
 30
0.0
 40
120.0
 50
90.0
 51
180.0
  0
LINE
  5
4A
  8
DETAIL
  6
CONTINUOUS
 62
     5
 10
190.5
 20
1835.0
 30
0.0
 11
190.5
 21
1740.0
 31
0.0
  0
LINE
  5
4B
  8
DETAIL
  6
CONTINUOUS
 62
     5
 10
810.5
 20
1835.0
 30
0.0
 11
810.5
 21
1740.0
 31
0.0
  0
LINE
  5
4C
  8
DETAIL
  6
CONTINUOUS
 62
     5
 10
690.5
 20
1955.0
 30
0.0
 11
310.5
 21
1955.0
 31
0.0
  0
LINE
  5
4D
  8
DETAIL
  6
CONTINUOUS
 62
     5
 10
190.5
 20
1835.0
 30
0.0
 11
810.5
 21
1835.0
 31
0.0
  0
LINE
  5
4E
  8
BASIS
  6
DASHDOT
 62
     6
 10
-500.5
 20
1379.640063
 30
0.0
 11
-500.5
 21
1989.655001
 31
0.0
  0
ARC
  5
4F
  8
DETAIL
  6
CONTINUOUS
 62
     5
 10
-140.5
 20
1740.0
 30
0.0
 40
50.0
 50
180.0
 51
270.0
  0
ARC
  5
50
  8
DETAIL
  6
CONTINUOUS
 62
     5
 10
-310.5
 20
1835.0
 30
0.0
 40
120.0
 50
0.0
 51
90.0
  0
ARC
  5
51
  8
DETAIL
  6
CONTINUOUS
 62
     5
 10
-860.5
 20
1740.0
 30
0.0
 40
50.0
 50
270.0
 51
0.0
  0
ARC
  5
52
  8
DETAIL
  6
CONTINUOUS
 62
     5
 10
-690.5
 20
1835.0
 30
0.0
 40
120.0
 50
90.0
 51
180.0
  0
LINE
  5
53
  8
DETAIL
  6
CONTINUOUS
 62
     5
 10
-810.5
 20
1835.0
 30
0.0
 11
-810.5
 21
1740.0
 31
0.0
  0
LINE
  5
54
  8
DETAIL
  6
CONTINUOUS
 62
     5
 10
-190.5
 20
1835.0
 30
0.0
 11
-190.5
 21
1740.0
 31
0.0
  0
LINE
  5
55
  8
DETAIL
  6
CONTINUOUS
 62
     5
 10
-310.5
 20
1955.0
 30
0.0
 11
-690.5
 21
1955.0
 31
0.0
  0
LINE
  5
56
  8
DETAIL
  6
CONTINUOUS
 62
     5
 10
-810.5
 20
1835.0
 30
0.0
 11
-190.5
 21
1835.0
 31
0.0
  0
LINE
  5
57
  8
OUTLINE
  6
CONTINUOUS
 62
     3
 10
974.0
 20
251.556053
 30
0.0
 11
974.0
 21
0.0
 31
0.0
  0
LINE
  5
58
  8
OUTLINE
  6
CONTINUOUS
 62
     3
 10
-974.0
 20
251.556053
 30
0.0
 11
-974.0
 21
0.0
 31
0.0
  0
LINE
  5
59
  8
NOTE
  6
CONTINUOUS
 62
     4
 10
835.0
 20
206.0
 30
0.0
 11
835.0
 21
76.0
 31
0.0
  0
LINE
  5
5A
  8
NOTE
  6
CONTINUOUS
 62
     4
 10
770.0
 20
141.0
 30
0.0
 11
900.0
 21
141.0
 31
0.0
  0
CIRCLE
  5
5B
  8
DETAIL
  6
CONTINUOUS
 62
     5
 10
835.0
 20
141.0
 30
0.0
 40
45.0
  0
LINE
  5
5C
  8
SIZE
  6
CONTINUOUS
 62
    30
 10
1015.0
 20
0.0
 30
0.0
 11
1274.262052
 21
0.0
 31
0.0
  0
LINE
  5
5D
  8
SIZE
  6
CONTINUOUS
 62
    30
 10
855.0
 20
141.0
 30
0.0
 11
1274.262052
 21
141.0
 31
0.0
  0
LINE
  5
5E
  8
SIZE
  6
CONTINUOUS
 62
    30
 10
1244.262052
 20
10.0
 30
0.0
 11
1244.262052
 21
131.0
 31
0.0
  0
CIRCLE
  5
5F
  8
SIZE
  6
CONTINUOUS
 62
    30
 10
1244.262052
 20
0.0
 30
0.0
 40
5.0
  0
LINE
  5
60
  8
SIZE
  6
CONTINUOUS
 62
    30
 10
1244.262052
 20
5.0
 30
0.0
 11
1244.262052
 21
10.0
 31
0.0
  0
CIRCLE
  5
61
  8
SIZE
  6
CONTINUOUS
 62
    30
 10
1244.262052
 20
141.0
 30
0.0
 40
5.0
  0
LINE
  5
62
  8
SIZE
  6
CONTINUOUS
 62
    30
 10
1244.262052
 20
136.0
 30
0.0
 11
1244.262052
 21
131.0
 31
0.0
  0
TEXT
  5
63
  8
SIZE
  6
CONTINUOUS
 62
    30
 10
1224.262052
 20
14.271429
 30
0.0
 40
64.0
  1
141
 50
90.0
 41
0.9
 72
     1
 11
1224.262052
 21
70.5
 31
0.0
  0
LINE
  5
64
  8
SIZE
  6
CONTINUOUS
 62
    30
 10
995.0
 20
-20.0
 30
0.0
 11
995.0
 21
-262.0857
 31
0.0
  0
LINE
  5
65
  8
SIZE
  6
CONTINUOUS
 62
    30
 10
835.0
 20
56.0
 30
0.0
 11
835.0
 21
-262.0857
 31
0.0
  0
LINE
  5
66
  8
SIZE
  6
CONTINUOUS
 62
    30
 10
1005.0
 20
-232.0857
 30
0.0
 11
1015.0
 21
-232.0857
 31
0.0
  0
LINE
  5
67
  8
SIZE
  6
CONTINUOUS
 62
    30
 10
825.0
 20
-232.0857
 30
0.0
 11
815.0
 21
-232.0857
 31
0.0
  0
LINE
  5
68
  8
SIZE
  6
CONTINUOUS
 62
    30
 10
995.0
 20
-232.0857
 30
0.0
 11
835.0
 21
-232.0857
 31
0.0
  0
CIRCLE
  5
69
  8
SIZE
  6
CONTINUOUS
 62
    30
 10
995.0
 20
-232.0857
 30
0.0
 40
5.0
  0
LINE
  5
6A
  8
SIZE
  6
CONTINUOUS
 62
    30
 10
1000.0
 20
-232.0857
 30
0.0
 11
1005.0
 21
-232.0857
 31
0.0
  0
CIRCLE
  5
6B
  8
SIZE
  6
CONTINUOUS
 62
    30
 10
835.0
 20
-232.0857
 30
0.0
 40
5.0
  0
LINE
  5
6C
  8
SIZE
  6
CONTINUOUS
 62
    30
 10
830.0
 20
-232.0857
 30
0.0
 11
825.0
 21
-232.0857
 31
0.0
  0
TEXT
  5
6D
  8
SIZE
  6
CONTINUOUS
 62
    30
 10
837.731254
 20
-212.0857
 30
0.0
 40
64.0
  1
160
 41
0.9
 72
     1
 11
906.302683
 21
-212.0857
 31
0.0
  0
LINE
  5
6E
  8
SIZE
  6
CONTINUOUS
 62
    30
 10
-730.0
 20
-40.0
 30
0.0
 11
-730.0
 21
-450.448061
 31
0.0
  0
LINE
  5
6F
  8
SIZE
  6
CONTINUOUS
 62
    30
 10
0.0
 20
-100.0
 30
0.0
 11
0.0
 21
-450.448061
 31
0.0
  0
LINE
  5
70
  8
SIZE
  6
CONTINUOUS
 62
    30
 10
-720.0
 20
-420.448061
 30
0.0
 11
-10.0
 21
-420.448061
 31
0.0
  0
CIRCLE
  5
71
  8
SIZE
  6
CONTINUOUS
 62
    30
 10
-730.0
 20
-420.448061
 30
0.0
 40
5.0
  0
LINE
  5
72
  8
SIZE
  6
CONTINUOUS
 62
    30
 10
-725.0
 20
-420.448061
 30
0.0
 11
-720.0
 21
-420.448061
 31
0.0
  0
CIRCLE
  5
73
  8
SIZE
  6
CONTINUOUS
 62
    30
 10
0.0
 20
-420.448061
 30
0.0
 40
5.0
  0
LINE
  5
74
  8
SIZE
  6
CONTINUOUS
 62
    30
 10
-5.0
 20
-420.448061
 30
0.0
 11
-10.0
 21
-420.448061
 31
0.0
  0
TEXT
  5
75
  8
SIZE
  6
CONTINUOUS
 62
    30
 10
-412.354939
 20
-400.448061
 30
0.0
 40
64.0
  1
730
 41
0.9
 72
     1
 11
-338.297796
 21
-400.448061
 31
0.0
  0
LINE
  5
76
  8
SIZE
  6
CONTINUOUS
 62
    30
 10
0.0
 20
-100.0
 30
0.0
 11
0.0
 21
-450.448061
 31
0.0
  0
LINE
  5
77
  8
SIZE
  6
CONTINUOUS
 62
    30
 10
730.0
 20
-20.0
 30
0.0
 11
730.0
 21
-450.448061
 31
0.0
  0
LINE
  5
78
  8
SIZE
  6
CONTINUOUS
 62
    30
 10
10.0
 20
-420.448061
 30
0.0
 11
720.0
 21
-420.448061
 31
0.0
  0
CIRCLE
  5
79
  8
SIZE
  6
CONTINUOUS
 62
    30
 10
0.0
 20
-420.448061
 30
0.0
 40
5.0
  0
LINE
  5
7A
  8
SIZE
  6
CONTINUOUS
 62
    30
 10
5.0
 20
-420.448061
 30
0.0
 11
10.0
 21
-420.448061
 31
0.0
  0
CIRCLE
  5
7B
  8
SIZE
  6
CONTINUOUS
 62
    30
 10
730.0
 20
-420.448061
 30
0.0
 40
5.0
  0
LINE
  5
7C
  8
SIZE
  6
CONTINUOUS
 62
    30
 10
725.0
 20
-420.448061
 30
0.0
 11
720.0
 21
-420.448061
 31
0.0
  0
TEXT
  5
7D
  8
SIZE
  6
CONTINUOUS
 62
    30
 10
290.942857
 20
-400.448061
 30
0.0
 40
64.0
  1
730
 41
0.9
 72
     1
 11
365.0
 21
-400.448061
 31
0.0
  0
LINE
  5
7E
  8
SIZE
  6
CONTINUOUS
 62
    30
 10
729.984641
 20
-40.046273
 30
0.0
 11
729.984641
 21
-450.448061
 31
0.0
  0
LINE
  5
7F
  8
SIZE
  6
CONTINUOUS
 62
    30
 10
974.0
 20
-20.0
 30
0.0
 11
974.0
 21
-450.448061
 31
0.0
  0
LINE
  5
80
  8
SIZE
  6
CONTINUOUS
 62
    30
 10
739.984641
 20
-420.448061
 30
0.0
 11
964.0
 21
-420.448061
 31
0.0
  0
CIRCLE
  5
81
  8
SIZE
  6
CONTINUOUS
 62
    30
 10
729.984641
 20
-420.448061
 30
0.0
 40
5.0
  0
LINE
  5
82
  8
SIZE
  6
CONTINUOUS
 62
    30
 10
734.984641
 20
-420.448061
 30
0.0
 11
739.984641
 21
-420.448061
 31
0.0
  0
CIRCLE
  5
83
  8
SIZE
  6
CONTINUOUS
 62
    30
 10
974.0
 20
-420.448061
 30
0.0
 40
5.0
  0
LINE
  5
84
  8
SIZE
  6
CONTINUOUS
 62
    30
 10
969.0
 20
-420.448061
 30
0.0
 11
964.0
 21
-420.448061
 31
0.0
  0
TEXT
  5
85
  8
SIZE
  6
CONTINUOUS
 62
    30
 10
776.56375
 20
-400.448061
 30
0.0
 40
64.0
  1
244
 41
0.9
 72
     1
 11
851.992321
 21
-400.448061
 31
0.0
  0
LINE
  5
86
  8
SIZE
  6
CONTINUOUS
 62
    30
 10
974.0
 20
-20.0
 30
0.0
 11
974.0
 21
-450.448061
 31
0.0
  0
LINE
  5
87
  8
SIZE
  6
CONTINUOUS
 62
    30
 10
995.0
 20
-20.0
 30
0.0
 11
995.0
 21
-450.448061
 31
0.0
  0
LINE
  5
88
  8
SIZE
  6
CONTINUOUS
 62
    30
 10
964.0
 20
-420.448061
 30
0.0
 11
954.0
 21
-420.448061
 31
0.0
  0
LINE
  5
89
  8
SIZE
  6
CONTINUOUS
 62
    30
 10
1005.0
 20
-420.448061
 30
0.0
 11
1015.0
 21
-420.448061
 31
0.0
  0
LINE
  5
8A
  8
SIZE
  6
CONTINUOUS
 62
    30
 10
1142.56653
 20
-420.448061
 30
0.0
 11
995.0
 21
-420.448061
 31
0.0
  0
TEXT
  5
8B
  8
SIZE
  6
CONTINUOUS
 62
    30
 10
1053.995102
 20
-400.448061
 30
0.0
 40
64.0
  1
21
 41
0.9
 72
     1
 11
1088.280816
 21
-400.448061
 31
0.0
  0
LINE
  5
8C
  8
SIZE
  6
CONTINUOUS
 62
    30
 10
974.0
 20
-420.448061
 30
0.0
 11
995.0
 21
-420.448061
 31
0.0
  0
LINE
  5
8D
  8
SIZE
  6
CONTINUOUS
 62
    30
 10
974.0
 20
-420.448061
 30
0.0
 11
995.0
 21
-420.448061
 31
0.0
  0
CIRCLE
  5
8E
  8
SIZE
  6
CONTINUOUS
 62
    30
 10
974.0
 20
-420.448061
 30
0.0
 40
5.0
  0
LINE
  5
8F
  8
SIZE
  6
CONTINUOUS
 62
    30
 10
969.0
 20
-420.448061
 30
0.0
 11
964.0
 21
-420.448061
 31
0.0
  0
CIRCLE
  5
90
  8
SIZE
  6
CONTINUOUS
 62
    30
 10
995.0
 20
-420.448061
 30
0.0
 40
5.0
  0
LINE
  5
91
  8
SIZE
  6
CONTINUOUS
 62
    30
 10
1000.0
 20
-420.448061
 30
0.0
 11
1005.0
 21
-420.448061
 31
0.0
  0
LINE
  5
92
  8
NOTE
  6
CONTINUOUS
 62
     4
 10
802.0
 20
384.0
 30
0.0
 11
802.0
 21
254.0
 31
0.0
  0
LINE
  5
93
  8
NOTE
  6
CONTINUOUS
 62
     4
 10
737.0
 20
319.0
 30
0.0
 11
867.0
 21
319.0
 31
0.0
  0
LINE
  5
94
  8
SIZE
  6
CONTINUOUS
 62
    30
 10
855.0
 20
141.0
 30
0.0
 11
1277.511677
 21
141.0
 31
0.0
  0
LINE
  5
95
  8
SIZE
  6
CONTINUOUS
 62
    30
 10
887.0
 20
319.0
 30
0.0
 11
1277.511677
 21
319.0
 31
0.0
  0
LINE
  5
96
  8
SIZE
  6
CONTINUOUS
 62
    30
 10
1247.511677
 20
131.0
 30
0.0
 11
1247.511677
 21
121.0
 31
0.0
  0
LINE
  5
97
  8
SIZE
  6
CONTINUOUS
 62
    30
 10
1247.511677
 20
329.0
 30
0.0
 11
1247.511677
 21
339.0
 31
0.0
  0
LINE
  5
98
  8
SIZE
  6
CONTINUOUS
 62
    30
 10
1247.511677
 20
141.0
 30
0.0
 11
1247.511677
 21
319.0
 31
0.0
  0
CIRCLE
  5
99
  8
SIZE
  6
CONTINUOUS
 62
    30
 10
1247.511677
 20
141.0
 30
0.0
 40
5.0
  0
LINE
  5
9A
  8
SIZE
  6
CONTINUOUS
 62
    30
 10
1247.511677
 20
136.0
 30
0.0
 11
1247.511677
 21
131.0
 31
0.0
  0
CIRCLE
  5
9B
  8
SIZE
  6
CONTINUOUS
 62
    30
 10
1247.511677
 20
319.0
 30
0.0
 40
5.0
  0
LINE
  5
9C
  8
SIZE
  6
CONTINUOUS
 62
    30
 10
1247.511677
 20
324.0
 30
0.0
 11
1247.511677
 21
329.0
 31
0.0
  0
TEXT
  5
9D
  8
SIZE
  6
CONTINUOUS
 62
    30
 10
1227.511677
 20
170.248764
 30
0.0
 40
64.0
  1
178
 50
90.0
 41
0.9
 72
     1
 11
1227.511677
 21
238.820193
 31
0.0
  0
LINE
  5
9E
  8
SIZE
  6
CONTINUOUS
 62
    30
 10
995.0
 20
339.0
 30
0.0
 11
995.0
 21
512.392212
 31
0.0
  0
LINE
  5
9F
  8
SIZE
  6
CONTINUOUS
 62
    30
 10
802.0
 20
404.0
 30
0.0
 11
802.0
 21
512.392212
 31
0.0
  0
LINE
  5
A0
  8
SIZE
  6
CONTINUOUS
 62
    30
 10
1005.0
 20
482.392212
 30
0.0
 11
1015.0
 21
482.392212
 31
0.0
  0
LINE
  5
A1
  8
SIZE
  6
CONTINUOUS
 62
    30
 10
792.0
 20
482.392212
 30
0.0
 11
782.0
 21
482.392212
 31
0.0
  0
LINE
  5
A2
  8
SIZE
  6
CONTINUOUS
 62
    30
 10
995.0
 20
482.392212
 30
0.0
 11
802.0
 21
482.392212
 31
0.0
  0
CIRCLE
  5
A3
  8
SIZE
  6
CONTINUOUS
 62
    30
 10
995.0
 20
482.392212
 30
0.0
 40
5.0
  0
LINE
  5
A4
  8
SIZE
  6
CONTINUOUS
 62
    30
 10
1000.0
 20
482.392212
 30
0.0
 11
1005.0
 21
482.392212
 31
0.0
  0
CIRCLE
  5
A5
  8
SIZE
  6
CONTINUOUS
 62
    30
 10
802.0
 20
482.392212
 30
0.0
 40
5.0
  0
LINE
  5
A6
  8
SIZE
  6
CONTINUOUS
 62
    30
 10
797.0
 20
482.392212
 30
0.0
 11
792.0
 21
482.392212
 31
0.0
  0
TEXT
  5
A7
  8
SIZE
  6
CONTINUOUS
 62
    30
 10
821.483198
 20
502.392212
 30
0.0
 40
64.0
  1
193
 41
0.9
 72
     1
 11
890.054627
 21
502.392212
 31
0.0
  0
LINE
  5
A8
  8
DETAIL
  6
CONTINUOUS
 62
     5
 10
995.0
 20
231.556053
 30
0.0
 11
-995.0
 21
231.556053
 31
0.0
  0
TEXT
  5
A9
  8
NOTE
  6
CONTINUOUS
 62
     4
 10
44.363227
 20
312.15499
 30
0.0
 40
64.0
  1
CH%%c90
 41
0.9
 72
     1
 11
176.02037
 21
312.15499
 31
0.0
  0
TEXT
  5
AA
  8
ETC
  6
CONTINUOUS
 62
    61
 10
1183.710996
 20
-733.070917
 30
0.0
 40
64.0
  1
CAH-P500CP_5
 41
0.9
  0
LINE
  5
AB
  8
SIZE
  6
CONTINUOUS
 62
    30
 10
500.5
 20
1955.0
 30
0.0
 11
1521.687945
 21
1955.0
 31
0.0
  0
LINE
  5
AC
  8
SIZE
  6
CONTINUOUS
 62
    30
 10
974.0
 20
0.0
 30
0.0
 11
1521.687945
 21
0.0
 31
0.0
  0
LINE
  5
AD
  8
SIZE
  6
CONTINUOUS
 62
    30
 10
1491.687945
 20
1945.0
 30
0.0
 11
1491.687945
 21
10.0
 31
0.0
  0
CIRCLE
  5
AE
  8
SIZE
  6
CONTINUOUS
 62
    30
 10
1491.687945
 20
1955.0
 30
0.0
 40
5.0
  0
LINE
  5
AF
  8
SIZE
  6
CONTINUOUS
 62
    30
 10
1491.687945
 20
1950.0
 30
0.0
 11
1491.687945
 21
1945.0
 31
0.0
  0
CIRCLE
  5
B0
  8
SIZE
  6
CONTINUOUS
 62
    30
 10
1491.687945
 20
0.0
 30
0.0
 40
5.0
  0
LINE
  5
B1
  8
SIZE
  6
CONTINUOUS
 62
    30
 10
1491.687945
 20
5.0
 30
0.0
 11
1491.687945
 21
10.0
 31
0.0
  0
TEXT
  5
B2
  8
SIZE
  6
CONTINUOUS
 62
    30
 10
1471.687945
 20
810.493489
 30
0.0
 40
64.0
  1
1955
 50
90.0
 41
0.9
 72
     1
 11
1471.687945
 21
906.493489
 31
0.0
  0
LINE
  5
B3
  8
SIZE
  6
CONTINUOUS
 62
    30
 10
974.0
 20
0.0
 30
0.0
 11
1336.028067
 21
0.0
 31
0.0
  0
LINE
  5
B4
  8
SIZE
  6
CONTINUOUS
 62
    30
 10
995.0
 20
1690.0
 30
0.0
 11
1336.028067
 21
1690.0
 31
0.0
  0
LINE
  5
B5
  8
SIZE
  6
CONTINUOUS
 62
    30
 10
1306.028067
 20
10.0
 30
0.0
 11
1306.028067
 21
1680.0
 31
0.0
  0
CIRCLE
  5
B6
  8
SIZE
  6
CONTINUOUS
 62
    30
 10
1306.028067
 20
0.0
 30
0.0
 40
5.0
  0
LINE
  5
B7
  8
SIZE
  6
CONTINUOUS
 62
    30
 10
1306.028067
 20
5.0
 30
0.0
 11
1306.028067
 21
10.0
 31
0.0
  0
CIRCLE
  5
B8
  8
SIZE
  6
CONTINUOUS
 62
    30
 10
1306.028067
 20
1690.0
 30
0.0
 40
5.0
  0
LINE
  5
B9
  8
SIZE
  6
CONTINUOUS
 62
    30
 10
1306.028067
 20
1685.0
 30
0.0
 11
1306.028067
 21
1680.0
 31
0.0
  0
TEXT
  5
BA
  8
SIZE
  6
CONTINUOUS
 62
    30
 10
1286.028067
 20
641.823371
 30
0.0
 40
64.0
  1
1690
 50
90.0
 41
0.9
 72
     1
 11
1286.028067
 21
737.823371
 31
0.0
  0
LINE
  5
BB
  8
SIZE
  6
CONTINUOUS
 62
    30
 10
995.0
 20
1690.0
 30
0.0
 11
1336.028067
 21
1690.0
 31
0.0
  0
LINE
  5
BD
  8
SIZE
  6
CONTINUOUS
 62
    30
 10
1306.028067
 20
1700.0
 30
0.0
 11
1306.028067
 21
1945.0
 31
0.0
  0
CIRCLE
  5
BE
  8
SIZE
  6
CONTINUOUS
 62
    30
 10
1306.028067
 20
1690.0
 30
0.0
 40
5.0
  0
LINE
  5
BF
  8
SIZE
  6
CONTINUOUS
 62
    30
 10
1306.028067
 20
1695.0
 30
0.0
 11
1306.028067
 21
1700.0
 31
0.0
  0
CIRCLE
  5
C0
  8
SIZE
  6
CONTINUOUS
 62
    30
 10
1306.028067
 20
1955.0
 30
0.0
 40
5.0
  0
LINE
  5
C1
  8
SIZE
  6
CONTINUOUS
 62
    30
 10
1306.028067
 20
1950.0
 30
0.0
 11
1306.028067
 21
1945.0
 31
0.0
  0
TEXT
  5
C2
  8
SIZE
  6
CONTINUOUS
 62
    30
 10
1286.028067
 20
1728.442857
 30
0.0
 40
64.0
  1
265
 50
90.0
 41
0.9
 72
     1
 11
1286.028067
 21
1802.5
 31
0.0
  0
LINE
  5
C3
  8
NOTE
  6
CONTINUOUS
 62
     4
 10
835.0
 20
141.0
 30
0.0
 11
797.466822
 21
165.824596
 31
0.0
  0
LINE
  5
C4
  8
NOTE
  6
CONTINUOUS
 62
     4
 10
835.0
 20
141.0
 30
0.0
 11
790.241342
 21
145.654301
 31
0.0
  0
TEXT
  5
C5
  8
NOTE
  6
CONTINUOUS
 62
     4
 10
64.848941
 20
490.15499
 30
0.0
 40
64.0
  1
CHR
 41
0.9
 72
     1
 11
143.02037
 21
490.15499
 31
0.0
  0
LINE
  5
C6
  8
NOTE
  6
CONTINUOUS
 62
     4
 10
802.0
 20
319.0
 30
0.0
 11
763.333165
 21
344.574401
 31
0.0
  0
LINE
  5
C7
  8
NOTE
  6
CONTINUOUS
 62
     4
 10
802.0
 20
319.0
 30
0.0
 11
755.889445
 21
323.79488
 31
0.0
  0
LINE
  5
C8
  8
NOTE
  6
CONTINUOUS
 62
     4
 10
802.0
 20
319.0
 30
0.0
 11
263.520303
 21
482.92433
 31
0.0
  0
LINE
  5
C9
  8
NOTE
  6
CONTINUOUS
 62
     4
 10
263.520303
 20
482.92433
 30
0.0
 11
49.375868
 21
482.92433
 31
0.0
  0
LINE
  5
CA
  8
NOTE
  6
CONTINUOUS
 62
     4
 10
766.264491
 20
-7.635427
 30
0.0
 11
727.0
 21
0.0
 31
0.0
  0
LINE
  5
CB
  8
NOTE
  6
CONTINUOUS
 62
     4
 10
727.0
 20
0.0
 30
0.0
 11
757.186333
 21
-26.244719
 31
0.0
  0
LINE
  5
CC
  8
NOTE
  6
CONTINUOUS
 62
     4
 10
727.0
 20
0.0
 30
0.0
 11
1583.974096
 21
-415.779351
 31
0.0
  0
LINE
  5
CD
  8
NOTE
  6
CONTINUOUS
 62
     4
 10
1583.974096
 20
-415.779351
 30
0.0
 11
2269.414517
 21
-415.779351
 31
0.0
  0
TEXT
  5
CE
  8
NOTE
  6
CONTINUOUS
 62
     4
 10
1599.212291
 20
-390.8788
 30
0.0
 40
64.0
  1
AH 6-14×20
 41
0.9
  0
TEXT
  5
CF
  8
ETC
  6
CONTINUOUS
 62
    61
 10
1177.119852
 20
-836.858703
 30
0.0
 40
64.0
  1
チラー
 41
0.9
  0
LINE
  5
D0
  8
NOTE
  6
CONTINUOUS
 62
     4
 10
835.0
 20
141.0
 30
0.0
 11
296.520303
 21
304.92433
 31
0.0
  0
LINE
  5
D1
  8
NOTE
  6
CONTINUOUS
 62
     4
 10
296.520303
 20
304.92433
 30
0.0
 11
82.375868
 21
304.92433
 31
0.0
  0
LINE
  5
D2
  8
SIZE
  6
CONTINUOUS
 62
    30
 10
-995.0
 20
231.556053
 30
0.0
 11
-995.0
 21
-832.984376
 31
0.0
  0
LINE
  5
D3
  8
SIZE
  6
CONTINUOUS
 62
    30
 10
995.0
 20
211.556053
 30
0.0
 11
995.0
 21
-832.984376
 31
0.0
  0
LINE
  5
D4
  8
SIZE
  6
CONTINUOUS
 62
    30
 10
-985.0
 20
-802.984376
 30
0.0
 11
985.0
 21
-802.984376
 31
0.0
  0
CIRCLE
  5
D5
  8
SIZE
  6
CONTINUOUS
 62
    30
 10
-995.0
 20
-802.984376
 30
0.0
 40
5.0
  0
LINE
  5
D6
  8
SIZE
  6
CONTINUOUS
 62
    30
 10
-990.0
 20
-802.984376
 30
0.0
 11
-985.0
 21
-802.984376
 31
0.0
  0
CIRCLE
  5
D7
  8
SIZE
  6
CONTINUOUS
 62
    30
 10
995.0
 20
-802.984376
 30
0.0
 40
5.0
  0
LINE
  5
D8
  8
SIZE
  6
CONTINUOUS
 62
    30
 10
990.0
 20
-802.984376
 30
0.0
 11
985.0
 21
-802.984376
 31
0.0
  0
TEXT
  5
D9
  8
SIZE
  6
CONTINUOUS
 62
    30
 10
-96.0
 20
-782.984376
 30
0.0
 40
64.0
  1
1990
 41
0.9
 72
     1
 11
0.0
 21
-782.984376
 31
0.0
  0
CIRCLE
  5
DA
  8
FIX
  6
CONTINUOUS
 62
    11
 10
-730.0
 20
0.0
 30
0.0
 40
20.0
  0
CIRCLE
  5
DB
  8
FIX
  6
CONTINUOUS
 62
    11
 10
729.984641
 20
-0.046273
 30
0.0
 40
20.0
  0
LINE
  5
DC
  8
OUTLINE
  6
CONTINUOUS
 62
     3
 10
-995.0
 20
251.556053
 30
0.0
 11
-974.0
 21
251.556053
 31
0.0
  0
LINE
  5
DD
  8
OUTLINE
  6
CONTINUOUS
 62
     3
 10
974.0
 20
251.556053
 30
0.0
 11
995.0
 21
251.556053
 31
0.0
  0
LINE
  5
DE
  8
OUTLINE
  6
CONTINUOUS
 62
     3
 10
974.0
 20
0.0
 30
0.0
 11
-974.0
 21
0.0
 31
0.0
  0
LINE
  5
DF
  8
DETAIL
  6
CONTINUOUS
 62
     5
 10
-995.0
 20
1690.0
 30
0.0
 11
995.0
 21
1690.0
 31
0.0
  0
LINE
  5
E0
  8
DETAIL
  6
CONTINUOUS
 62
     5
 10
995.0
 20
1690.0
 30
0.0
 11
995.0
 21
231.556053
 31
0.0
  0
LINE
  5
E1
  8
DETAIL
  6
CONTINUOUS
 62
     5
 10
974.0
 20
231.556053
 30
0.0
 11
974.0
 21
0.0
 31
0.0
  0
LINE
  5
E2
  8
DETAIL
  6
CONTINUOUS
 62
     5
 10
974.0
 20
0.0
 30
0.0
 11
-974.0
 21
0.0
 31
0.0
  0
LINE
  5
E3
  8
DETAIL
  6
CONTINUOUS
 62
     5
 10
-974.0
 20
0.0
 30
0.0
 11
-974.0
 21
231.556053
 31
0.0
  0
LINE
  5
E4
  8
DETAIL
  6
CONTINUOUS
 62
     5
 10
-974.0
 20
231.556053
 30
0.0
 11
-995.0
 21
231.556053
 31
0.0
  0
LINE
  5
E5
  8
DETAIL
  6
CONTINUOUS
 62
     5
 10
-995.0
 20
231.556053
 30
0.0
 11
-995.0
 21
1690.0
 31
0.0
  0
ARC
  5
E6
  8
OUTLINE
  6
CONTINUOUS
 62
     3
 10
860.5
 20
1740.0
 30
0.0
 40
50.0
 50
180.0
 51
270.0
  0
ARC
  5
E7
  8
OUTLINE
  6
CONTINUOUS
 62
     3
 10
690.5
 20
1835.0
 30
0.0
 40
120.0
 50
0.0
 51
90.0
  0
ARC
  5
E8
  8
OUTLINE
  6
CONTINUOUS
 62
     3
 10
140.5
 20
1740.0
 30
0.0
 40
50.0
 50
270.0
 51
0.0
  0
ARC
  5
E9
  8
OUTLINE
  6
CONTINUOUS
 62
     3
 10
310.5
 20
1835.0
 30
0.0
 40
120.0
 50
90.0
 51
180.0
  0
LINE
  5
EA
  8
OUTLINE
  6
CONTINUOUS
 62
     3
 10
190.5
 20
1835.0
 30
0.0
 11
190.5
 21
1740.0
 31
0.0
  0
LINE
  5
EB
  8
OUTLINE
  6
CONTINUOUS
 62
     3
 10
810.5
 20
1835.0
 30
0.0
 11
810.5
 21
1740.0
 31
0.0
  0
LINE
  5
EC
  8
OUTLINE
  6
CONTINUOUS
 62
     3
 10
690.5
 20
1955.0
 30
0.0
 11
310.5
 21
1955.0
 31
0.0
  0
ARC
  5
ED
  8
OUTLINE
  6
CONTINUOUS
 62
     3
 10
-140.5
 20
1740.0
 30
0.0
 40
50.0
 50
180.0
 51
270.0
  0
ARC
  5
EE
  8
OUTLINE
  6
CONTINUOUS
 62
     3
 10
-310.5
 20
1835.0
 30
0.0
 40
120.0
 50
0.0
 51
90.0
  0
ARC
  5
EF
  8
OUTLINE
  6
CONTINUOUS
 62
     3
 10
-860.5
 20
1740.0
 30
0.0
 40
50.0
 50
270.0
 51
0.0
  0
ARC
  5
F0
  8
OUTLINE
  6
CONTINUOUS
 62
     3
 10
-690.5
 20
1835.0
 30
0.0
 40
120.0
 50
90.0
 51
180.0
  0
LINE
  5
F1
  8
OUTLINE
  6
CONTINUOUS
 62
     3
 10
-810.5
 20
1835.0
 30
0.0
 11
-810.5
 21
1740.0
 31
0.0
  0
LINE
  5
F2
  8
OUTLINE
  6
CONTINUOUS
 62
     3
 10
-190.5
 20
1835.0
 30
0.0
 11
-190.5
 21
1740.0
 31
0.0
  0
LINE
  5
F3
  8
OUTLINE
  6
CONTINUOUS
 62
     3
 10
-310.5
 20
1955.0
 30
0.0
 11
-690.5
 21
1955.0
 31
0.0
  0
LINE
  5
F4
  8
DETAIL
  6
CONTINUOUS
 62
     5
 10
-500.5
 20
1955.0
 30
0.0
 11
-500.5
 21
1835.0
 31
0.0
  0
LINE
  5
F5
  8
DETAIL
  6
CONTINUOUS
 62
     5
 10
-550.5
 20
1955.0
 30
0.0
 11
-550.5
 21
1835.0
 31
0.0
  0
LINE
  5
F6
  8
DETAIL
  6
CONTINUOUS
 62
     5
 10
-600.5
 20
1955.0
 30
0.0
 11
-600.5
 21
1835.0
 31
0.0
  0
LINE
  5
F7
  8
DETAIL
  6
CONTINUOUS
 62
     5
 10
-650.5
 20
1955.0
 30
0.0
 11
-650.5
 21
1835.0
 31
0.0
  0
LINE
  5
F8
  8
DETAIL
  6
CONTINUOUS
 62
     5
 10
-700.5
 20
1955.0
 30
0.0
 11
-700.5
 21
1835.0
 31
0.0
  0
LINE
  5
F9
  8
DETAIL
  6
CONTINUOUS
 62
     5
 10
-750.5
 20
1938.923048
 30
0.0
 11
-750.5
 21
1835.0
 31
0.0
  0
LINE
  5
FA
  8
DETAIL
  6
CONTINUOUS
 62
     5
 10
-800.5
 20
1880.958315
 30
0.0
 11
-800.5
 21
1835.0
 31
0.0
  0
LINE
  5
FB
  8
DETAIL
  6
CONTINUOUS
 62
     5
 10
-450.5
 20
1955.0
 30
0.0
 11
-450.5
 21
1835.0
 31
0.0
  0
LINE
  5
FC
  8
DETAIL
  6
CONTINUOUS
 62
     5
 10
-400.5
 20
1955.0
 30
0.0
 11
-400.5
 21
1835.0
 31
0.0
  0
LINE
  5
FD
  8
DETAIL
  6
CONTINUOUS
 62
     5
 10
-350.5
 20
1955.0
 30
0.0
 11
-350.5
 21
1835.0
 31
0.0
  0
LINE
  5
FE
  8
DETAIL
  6
CONTINUOUS
 62
     5
 10
-300.5
 20
1955.0
 30
0.0
 11
-300.5
 21
1835.0
 31
0.0
  0
LINE
  5
FF
  8
DETAIL
  6
CONTINUOUS
 62
     5
 10
-250.5
 20
1938.923048
 30
0.0
 11
-250.5
 21
1835.0
 31
0.0
  0
LINE
  5
100
  8
DETAIL
  6
CONTINUOUS
 62
     5
 10
-200.5
 20
1882.958315
 30
0.0
 11
-200.5
 21
1835.0
 31
0.0
  0
LINE
  5
101
  8
DETAIL
  6
CONTINUOUS
 62
     5
 10
500.5
 20
1955.0
 30
0.0
 11
500.5
 21
1835.0
 31
0.0
  0
LINE
  5
102
  8
DETAIL
  6
CONTINUOUS
 62
     5
 10
450.5
 20
1955.0
 30
0.0
 11
450.5
 21
1835.0
 31
0.0
  0
LINE
  5
103
  8
DETAIL
  6
CONTINUOUS
 62
     5
 10
400.5
 20
1955.0
 30
0.0
 11
400.5
 21
1835.0
 31
0.0
  0
LINE
  5
104
  8
DETAIL
  6
CONTINUOUS
 62
     5
 10
350.5
 20
1955.0
 30
0.0
 11
350.5
 21
1835.0
 31
0.0
  0
LINE
  5
105
  8
DETAIL
  6
CONTINUOUS
 62
     5
 10
300.5
 20
1955.0
 30
0.0
 11
300.5
 21
1835.0
 31
0.0
  0
LINE
  5
106
  8
DETAIL
  6
CONTINUOUS
 62
     5
 10
250.5
 20
1938.923048
 30
0.0
 11
250.5
 21
1835.0
 31
0.0
  0
LINE
  5
107
  8
DETAIL
  6
CONTINUOUS
 62
     5
 10
200.5
 20
1880.958315
 30
0.0
 11
200.5
 21
1835.0
 31
0.0
  0
LINE
  5
108
  8
DETAIL
  6
CONTINUOUS
 62
     5
 10
550.5
 20
1955.0
 30
0.0
 11
550.5
 21
1835.0
 31
0.0
  0
LINE
  5
109
  8
DETAIL
  6
CONTINUOUS
 62
     5
 10
600.5
 20
1955.0
 30
0.0
 11
600.5
 21
1835.0
 31
0.0
  0
LINE
  5
10A
  8
DETAIL
  6
CONTINUOUS
 62
     5
 10
650.5
 20
1955.0
 30
0.0
 11
650.5
 21
1835.0
 31
0.0
  0
LINE
  5
10B
  8
DETAIL
  6
CONTINUOUS
 62
     5
 10
700.5
 20
1955.0
 30
0.0
 11
700.5
 21
1835.0
 31
0.0
  0
LINE
  5
10C
  8
DETAIL
  6
CONTINUOUS
 62
     5
 10
750.5
 20
1938.923048
 30
0.0
 11
750.5
 21
1835.0
 31
0.0
  0
LINE
  5
10D
  8
DETAIL
  6
CONTINUOUS
 62
     5
 10
800.5
 20
1882.958315
 30
0.0
 11
800.5
 21
1835.0
 31
0.0
  0
LINE
  5
10E
  8
NOTE
  6
CONTINUOUS
 62
     4
 10
-909.0
 20
248.0
 30
0.0
 11
-909.0
 21
288.0
 31
0.0
  0
CIRCLE
  5
10F
  8
DETAIL
  6
CONTINUOUS
 62
     5
 10
-909.0
 20
268.0
 30
0.0
 40
20.0
  0
LINE
  5
110
  8
DETAIL
  6
CONTINUOUS
 62
     5
 10
-933.942292
 20
266.302337
 30
0.0
 11
-933.942292
 21
231.556053
 31
0.0
  0
LINE
  5
111
  8
DETAIL
  6
CONTINUOUS
 62
     5
 10
-884.036466
 20
266.65019
 30
0.0
 11
-884.036466
 21
231.556053
 31
0.0
  0
ARC
  5
112
  8
DETAIL
  6
CONTINUOUS
 62
     5
 10
-909.0
 20
268.0
 30
0.0
 40
25.0
 50
356.904959
 51
183.893754
  0
LINE
  5
113
  8
NOTE
  6
CONTINUOUS
 62
     4
 10
-889.0
 20
268.0
 30
0.0
 11
-929.0
 21
268.0
 31
0.0
  0
LINE
  5
114
  8
NOTE
  6
CONTINUOUS
 62
     4
 10
-933.942292
 20
268.0
 30
0.0
 11
-934.0
 21
268.0
 31
0.0
  0
LINE
  5
115
  8
NOTE
  6
CONTINUOUS
 62
     4
 10
-909.0
 20
268.0
 30
0.0
 11
-1165.627623
 21
752.262855
 31
0.0
  0
POLYLINE
  5
116
  8
NOTE
  6
CONTINUOUS
 62
     4
 66
     1
 10
0.0
 20
0.0
 30
0.0
  0
VERTEX
  5
117
  8
NOTE
  6
CONTINUOUS
 62
     4
 10
-918.14714
 20
306.94008
 30
0.0
  0
VERTEX
  5
118
  8
NOTE
  6
CONTINUOUS
 62
     4
 10
-909.0
 20
268.0
 30
0.0
  0
VERTEX
  5
119
  8
NOTE
  6
CONTINUOUS
 62
     4
 10
-936.391695
 20
297.149529
 30
0.0
  0
SEQEND
  5
11A
  8
NOTE
  6
CONTINUOUS
 62
     4
  0
TEXT
  5
11B
  8
NOTE
  6
CONTINUOUS
 62
     4
 10
-1532.145338
 20
768.379619
 30
0.0
 40
64.0
  1
D 2-30A
 41
0.9
 72
     2
 11
-1160.213909
 21
768.379619
 31
0.0
  0
LINE
  5
11C
  8
SIZE
  6
CONTINUOUS
 62
    30
 10
-949.0
 20
268.0
 30
0.0
 11
-1189.291923
 21
268.0
 31
0.0
  0
LINE
  5
11D
  8
SIZE
  6
CONTINUOUS
 62
    30
 10
-994.0
 20
0.0
 30
0.0
 11
-1189.291923
 21
0.0
 31
0.0
  0
LINE
  5
11E
  8
SIZE
  6
CONTINUOUS
 62
    30
 10
-1159.291923
 20
258.0
 30
0.0
 11
-1159.291923
 21
10.0
 31
0.0
  0
CIRCLE
  5
11F
  8
SIZE
  6
CONTINUOUS
 62
    30
 10
-1159.291923
 20
268.0
 30
0.0
 40
5.0
  0
LINE
  5
120
  8
SIZE
  6
CONTINUOUS
 62
    30
 10
-1159.291923
 20
263.0
 30
0.0
 11
-1159.291923
 21
258.0
 31
0.0
  0
CIRCLE
  5
121
  8
SIZE
  6
CONTINUOUS
 62
    30
 10
-1159.291923
 20
0.0
 30
0.0
 40
5.0
  0
LINE
  5
122
  8
SIZE
  6
CONTINUOUS
 62
    30
 10
-1159.291923
 20
5.0
 30
0.0
 11
-1159.291923
 21
10.0
 31
0.0
  0
TEXT
  5
123
  8
SIZE
  6
CONTINUOUS
 62
    30
 10
-1179.291923
 20
74.147247
 30
0.0
 40
64.0
  1
268
 50
90.0
 41
0.9
 72
     1
 11
-1179.291923
 21
148.20439
 31
0.0
  0
LINE
  5
124
  8
NOTE
  6
CONTINUOUS
 62
     4
 10
91.0
 20
248.0
 30
0.0
 11
91.0
 21
288.0
 31
0.0
  0
CIRCLE
  5
125
  8
DETAIL
  6
CONTINUOUS
 62
     5
 10
91.0
 20
268.0
 30
0.0
 40
20.0
  0
LINE
  5
126
  8
DETAIL
  6
CONTINUOUS
 62
     5
 10
66.057708
 20
266.302337
 30
0.0
 11
66.057708
 21
231.556053
 31
0.0
  0
LINE
  5
127
  8
DETAIL
  6
CONTINUOUS
 62
     5
 10
115.963534
 20
266.65019
 30
0.0
 11
115.963534
 21
231.556053
 31
0.0
  0
ARC
  5
128
  8
DETAIL
  6
CONTINUOUS
 62
     5
 10
91.0
 20
268.0
 30
0.0
 40
25.0
 50
356.904959
 51
183.893754
  0
LINE
  5
129
  8
NOTE
  6
CONTINUOUS
 62
     4
 10
111.0
 20
268.0
 30
0.0
 11
71.0
 21
268.0
 31
0.0
  0
LINE
  5
12A
  8
NOTE
  6
CONTINUOUS
 62
     4
 10
66.057708
 20
268.0
 30
0.0
 11
66.0
 21
268.0
 31
0.0
  0
LINE
  5
12B
  8
NOTE
  6
CONTINUOUS
 62
     4
 10
-730.0
 20
-20.0
 30
0.0
 11
-730.0
 21
20.0
 31
0.0
  0
LINE
  5
12C
  8
NOTE
  6
CONTINUOUS
 62
     4
 10
-750.0
 20
0.0
 30
0.0
 11
-710.0
 21
0.0
 31
0.0
  0
LINE
  5
12D
  8
NOTE
  6
CONTINUOUS
 62
     4
 10
729.984641
 20
-20.046273
 30
0.0
 11
729.984641
 21
19.953727
 31
0.0
  0
LINE
  5
12E
  8
NOTE
  6
CONTINUOUS
 62
     4
 10
709.984641
 20
-0.046273
 30
0.0
 11
749.984641
 21
-0.046273
 31
0.0
  0
LINE
  5
12F
  8
SIZE
  6
CONTINUOUS
 62
    30
 10
-909.0
 20
228.0
 30
0.0
 11
-909.0
 21
-631.030166
 31
0.0
  0
LINE
  5
130
  8
SIZE
  6
CONTINUOUS
 62
    30
 10
91.0
 20
228.0
 30
0.0
 11
91.0
 21
-631.030166
 31
0.0
  0
LINE
  5
131
  8
SIZE
  6
CONTINUOUS
 62
    30
 10
-899.0
 20
-601.030166
 30
0.0
 11
81.0
 21
-601.030166
 31
0.0
  0
CIRCLE
  5
132
  8
SIZE
  6
CONTINUOUS
 62
    30
 10
-909.0
 20
-601.030166
 30
0.0
 40
5.0
  0
LINE
  5
133
  8
SIZE
  6
CONTINUOUS
 62
    30
 10
-904.0
 20
-601.030166
 30
0.0
 11
-899.0
 21
-601.030166
 31
0.0
  0
CIRCLE
  5
134
  8
SIZE
  6
CONTINUOUS
 62
    30
 10
91.0
 20
-601.030166
 30
0.0
 40
5.0
  0
LINE
  5
135
  8
SIZE
  6
CONTINUOUS
 62
    30
 10
86.0
 20
-601.030166
 30
0.0
 11
81.0
 21
-601.030166
 31
0.0
  0
TEXT
  5
136
  8
SIZE
  6
CONTINUOUS
 62
    30
 10
-505.0
 20
-581.030166
 30
0.0
 40
64.0
  1
1000
 41
0.9
 72
     1
 11
-409.0
 21
-581.030166
 31
0.0
  0
LINE
  5
137
  8
SIZE
  6
CONTINUOUS
 62
    30
 10
91.0
 20
228.0
 30
0.0
 11
91.0
 21
-631.030166
 31
0.0
  0
LINE
  5
138
  8
SIZE
  6
CONTINUOUS
 62
    30
 10
995.0
 20
211.556053
 30
0.0
 11
995.0
 21
-631.030166
 31
0.0
  0
LINE
  5
139
  8
SIZE
  6
CONTINUOUS
 62
    30
 10
101.0
 20
-601.030166
 30
0.0
 11
985.0
 21
-601.030166
 31
0.0
  0
CIRCLE
  5
13A
  8
SIZE
  6
CONTINUOUS
 62
    30
 10
91.0
 20
-601.030166
 30
0.0
 40
5.0
  0
LINE
  5
13B
  8
SIZE
  6
CONTINUOUS
 62
    30
 10
96.0
 20
-601.030166
 30
0.0
 11
101.0
 21
-601.030166
 31
0.0
  0
CIRCLE
  5
13C
  8
SIZE
  6
CONTINUOUS
 62
    30
 10
995.0
 20
-601.030166
 30
0.0
 40
5.0
  0
LINE
  5
13D
  8
SIZE
  6
CONTINUOUS
 62
    30
 10
990.0
 20
-601.030166
 30
0.0
 11
985.0
 21
-601.030166
 31
0.0
  0
TEXT
  5
13E
  8
SIZE
  6
CONTINUOUS
 62
    30
 10
467.571429
 20
-581.030166
 30
0.0
 40
64.0
  1
904
 41
0.9
 72
     1
 11
543.0
 21
-581.030166
 31
0.0
  0
LINE
  5
13F
  8
BASIS
  6
DASHDOT
 62
     6
 10
0.0
 20
1790.0
 30
0.0
 11
0.0
 21
-80.0
 31
0.0
  0
LINE
  5
140
  8
OUTLINE
  6
CONTINUOUS
 62
     3
 10
860.5
 20
1690.0
 30
0.0
 11
995.0
 21
1690.0
 31
0.0
  0
LINE
  5
141
  8
OUTLINE
  6
CONTINUOUS
 62
     3
 10
-140.5
 20
1690.0
 30
0.0
 11
140.5
 21
1690.0
 31
0.0
  0
LINE
  5
142
  8
NOTE
  6
CONTINUOUS
 62
     4
 10
91.0
 20
268.0
 30
0.0
 11
-1165.627623
 21
752.262855
 31
0.0
  0
POLYLINE
  5
143
  8
NOTE
  6
CONTINUOUS
 62
     4
 66
     1
 10
0.0
 20
0.0
 30
0.0
  0
VERTEX
  5
144
  8
NOTE
  6
CONTINUOUS
 62
     4
 10
58.95721
 20
291.94284
 30
0.0
  0
VERTEX
  5
145
  8
NOTE
  6
CONTINUOUS
 62
     4
 10
91.0
 20
268.0
 30
0.0
  0
VERTEX
  5
146
  8
NOTE
  6
CONTINUOUS
 62
     4
 10
51.27871
 20
272.713714
 30
0.0
  0
SEQEND
  5
147
  8
NOTE
  6
CONTINUOUS
 62
     4
  0
LINE
  5
148
  8
NOTE
  6
CONTINUOUS
 62
     4
 10
-1165.627623
 20
752.262855
 30
0.0
 11
-1571.31566
 21
752.262855
 31
0.0
  0
ENDSEC
  0
EOF
