  0
SECTION
  2
HEADER
  9
$ACADVER
  1
AC1009
  9
$DWGCODEPAGE
  3
ansi_932
  9
$INSBASE
 10
0.0
 20
0.0
 30
0.0
  9
$EXTMIN
 10
-1123.135642564317
 20
-829.7525593111677
 30
-0.000000000000013
  9
$EXTMAX
 10
1334.867578431578
 20
1778.542112792544
 30
0.0000000000000023
  9
$LIMMIN
 10
-5530.0
 20
-2625.0
  9
$LIMMAX
 10
8840.0
 20
4820.0
  9
$ORTHOMODE
 70
     1
  9
$REGENMODE
 70
     1
  9
$FILLMODE
 70
     1
  9
$QTEXTMODE
 70
     0
  9
$MIRRTEXT
 70
     0
  9
$DRAGMODE
 70
     2
  9
$LTSCALE
 40
20.0
  9
$OSMODE
 70
    37
  9
$ATTMODE
 70
     0
  9
$TEXTSIZE
 40
64.0
  9
$TRACEWID
 40
0.05
  9
$TEXTSTYLE
  7
STANDARD
  9
$CLAYER
  8
SYMBOLLINE
  9
$CELTYPE
  6
CONTINUOUS
  9
$CECOLOR
 62
     7
  9
$DIMSCALE
 40
1.0
  9
$DIMASZ
 40
20.0
  9
$DIMEXO
 40
20.0
  9
$DIMDLI
 40
200.0
  9
$DIMRND
 40
0.0
  9
$DIMDLE
 40
0.0
  9
$DIMEXE
 40
15.0
  9
$DIMTP
 40
0.0
  9
$DIMTM
 40
0.0
  9
$DIMTXT
 40
60.0
  9
$DIMCEN
 40
0.0
  9
$DIMTSZ
 40
0.0
  9
$DIMTOL
 70
     0
  9
$DIMLIM
 70
     0
  9
$DIMTIH
 70
     0
  9
$DIMTOH
 70
     0
  9
$DIMSE1
 70
     0
  9
$DIMSE2
 70
     0
  9
$DIMTAD
 70
     1
  9
$DIMZIN
 70
     8
  9
$DIMBLK
  1
DOTBLANK
  9
$DIMASO
 70
     1
  9
$DIMSHO
 70
     0
  9
$DIMPOST
  1

  9
$DIMAPOST
  1

  9
$DIMALT
 70
     0
  9
$DIMALTD
 70
     2
  9
$DIMALTF
 40
25.4
  9
$DIMLFAC
 40
1.0
  9
$DIMTOFL
 70
     1
  9
$DIMTVP
 40
0.0
  9
$DIMTIX
 70
     1
  9
$DIMSOXD
 70
     0
  9
$DIMSAH
 70
     0
  9
$DIMBLK1
  1

  9
$DIMBLK2
  1

  9
$DIMSTYLE
  2
STANDARD
  9
$DIMCLRD
 70
     0
  9
$DIMCLRE
 70
     0
  9
$DIMCLRT
 70
     0
  9
$DIMTFAC
 40
1.0
  9
$DIMGAP
 40
0.09
  9
$LUNITS
 70
     2
  9
$LUPREC
 70
     4
  9
$SKETCHINC
 40
0.1
  9
$FILLETRAD
 40
15.0
  9
$AUNITS
 70
     1
  9
$AUPREC
 70
     3
  9
$MENU
  1
ACAD
  9
$ELEVATION
 40
0.0
  9
$PELEVATION
 40
0.0
  9
$THICKNESS
 40
0.0
  9
$LIMCHECK
 70
     0
  9
$CHAMFERA
 40
0.0
  9
$CHAMFERB
 40
0.0
  9
$SKPOLY
 70
     0
  9
$TDCREATE
 40
2449761.493622674
  9
$TDUPDATE
 40
2457464.707893901
  9
$TDINDWG
 40
9.8359778241
  9
$TDUSRTIMER
 40
9.8359761806
  9
$USRTIMER
 70
     1
  9
$ANGBASE
 50
0.0
  9
$ANGDIR
 70
     0
  9
$PDMODE
 70
    35
  9
$PDSIZE
 40
100.0
  9
$PLINEWID
 40
0.0
  9
$COORDS
 70
     1
  9
$SPLFRAME
 70
     0
  9
$SPLINETYPE
 70
     6
  9
$SPLINESEGS
 70
     8
  9
$ATTDIA
 70
     0
  9
$ATTREQ
 70
     1
  9
$HANDLING
 70
     1
  9
$HANDSEED
  5
80E
  9
$SURFTAB1
 70
     6
  9
$SURFTAB2
 70
     6
  9
$SURFTYPE
 70
     6
  9
$SURFU
 70
     6
  9
$SURFV
 70
     6
  9
$UCSNAME
  2
W_UCS
  9
$UCSORG
 10
-0.000033373001088
 20
60.00000107079814
 30
0.0
  9
$UCSXDIR
 10
1.0
 20
0.0
 30
0.0
  9
$UCSYDIR
 10
0.0
 20
1.0
 30
0.0
  9
$PUCSNAME
  2

  9
$PUCSORG
 10
0.0
 20
0.0
 30
0.0
  9
$PUCSXDIR
 10
1.0
 20
0.0
 30
0.0
  9
$PUCSYDIR
 10
0.0
 20
1.0
 30
0.0
  9
$USERI1
 70
     0
  9
$USERI2
 70
     0
  9
$USERI3
 70
     0
  9
$USERI4
 70
     0
  9
$USERI5
 70
     0
  9
$USERR1
 40
20.0
  9
$USERR2
 40
0.0
  9
$USERR3
 40
0.0
  9
$USERR4
 40
0.0
  9
$USERR5
 40
0.0
  9
$WORLDVIEW
 70
     1
  9
$SHADEDGE
 70
     3
  9
$SHADEDIF
 70
    70
  9
$TILEMODE
 70
     1
  9
$MAXACTVP
 70
    64
  9
$PLIMCHECK
 70
     0
  9
$PEXTMIN
 10
1.000000000000000E+20
 20
1.000000000000000E+20
 30
1.000000000000000E+20
  9
$PEXTMAX
 10
-1.000000000000000E+20
 20
-1.000000000000000E+20
 30
-1.000000000000000E+20
  9
$PLIMMIN
 10
0.0
 20
0.0
  9
$PLIMMAX
 10
12.0
 20
9.0
  9
$UNITMODE
 70
     0
  9
$VISRETAIN
 70
     1
  9
$PLINEGEN
 70
     0
  9
$PSLTSCALE
 70
     1
  0
ENDSEC
  0
SECTION
  2
TABLES
  0
TABLE
  2
VPORT
 70
     1
  0
VPORT
  2
*ACTIVE
 70
     0
 10
0.0
 20
0.0
 11
1.0
 21
1.0
 12
1655.000000000002
 22
1097.5
 13
0.0
 23
0.0
 14
50.0
 24
50.0
 15
100.0
 25
100.0
 16
0.0
 26
0.0
 36
1.0
 17
0.0
 27
0.0
 37
0.0
 40
9280.59004642905
 41
1.555979643765903
 42
50.0
 43
0.0
 44
0.0
 50
0.0
 51
0.0
 71
     0
 72
  1000
 73
     1
 74
     0
 75
     0
 76
     0
 77
     0
 78
     0
  0
ENDTAB
  0
TABLE
  2
LTYPE
 70
     2
  0
LTYPE
  2
CONTINUOUS
 70
     0
  3
実線
 72
    65
 73
     0
 40
0.0
  0
LTYPE
  2
DASHDOT
 70
     0
  3
____ _ ____ _ ____ _ ____ _ ____ _ ____ _ ____
 72
    65
 73
     4
 40
5.5
 49
4.0
 49
-0.6
 49
0.3
 49
-0.6
  0
ENDTAB
  0
TABLE
  2
LAYER
 70
    12
  0
LAYER
  2
0
 70
     0
 62
     7
  6
CONTINUOUS
  0
LAYER
  2
SYMBOLLINE
 70
     0
 62
    15
  6
CONTINUOUS
  0
LAYER
  2
DETAIL
 70
     0
 62
     5
  6
CONTINUOUS
  0
LAYER
  2
OUTLINE
 70
     0
 62
     3
  6
CONTINUOUS
  0
LAYER
  2
BASIS
 70
     0
 62
     6
  6
DASHDOT
  0
LAYER
  2
SIZE
 70
     0
 62
    30
  6
CONTINUOUS
  0
LAYER
  2
NOTE
 70
     0
 62
     4
  6
CONTINUOUS
  0
LAYER
  2
ARRANGE
 70
     0
 62
     1
  6
CONTINUOUS
  0
LAYER
  2
FIX
 70
     0
 62
    11
  6
CONTINUOUS
  0
LAYER
  2
SERVICESPACE
 70
     0
 62
     2
  6
DASHDOT
  0
LAYER
  2
ETC
 70
     0
 62
    61
  6
CONTINUOUS
  0
LAYER
  2
DEFPOINTS
 70
     0
 62
     7
  6
CONTINUOUS
  0
ENDTAB
  0
TABLE
  2
STYLE
 70
     3
  0
STYLE
  2
STANDARD
 70
     0
 40
0.0
 41
0.9
 50
0.0
 71
     0
 42
64.0
  3
SIMPLEX
  4
BIGFONT
  0
STYLE
  2
ANNOTATIVE
 70
     0
 40
0.0
 41
1.0
 50
0.0
 71
     0
 42
0.2
  3
txt
  4

  0
STYLE
  2
STANDARD1
 70
     0
 40
0.0
 41
1.0
 50
0.0
 71
     0
 42
3.5
  3
MONOTXT
  4
BIGFONT
  0
ENDTAB
  0
TABLE
  2
VIEW
 70
     1
  0
VIEW
  2
ALL
 70
     0
 40
6056.230032000001
 10
0.0
 20
58.11501599999999
 41
8400.0
 11
0.0
 21
0.0
 31
1.0
 12
0.0
 22
0.0
 32
0.0
 42
50.0
 43
0.0
 44
0.0
 50
0.0
 71
     0
  0
ENDTAB
  0
TABLE
  2
UCS
 70
     1
  0
UCS
  2
W_UCS
 70
     0
 10
0.0
 20
0.0
 30
0.0
 11
1.0
 21
0.0
 31
0.0
 12
0.0
 22
1.0
 32
0.0
  0
ENDTAB
  0
TABLE
  2
APPID
 70
     4
  0
APPID
  2
ACAD
 70
     0
  0
APPID
  2
ACADANNOTATIVE
 70
     0
  0
APPID
  2
ACAD_MLEADERVER
 70
     0
  0
APPID
  2
ACAD_EXEMPT_FROM_CAD_STAND
 70
     0
  0
ENDTAB
  0
TABLE
  2
DIMSTYLE
 70
     2
  0
DIMSTYLE
  2
STANDARD
 70
     0
  3

  4

  5

  6

  7

 40
1.0
 41
0.18
 42
0.0625
 43
0.38
 44
0.18
 45
0.0
 46
0.0
 47
0.0
 48
0.0
140
0.18
141
0.09
142
0.0
143
25.4
144
1.0
145
0.0
146
1.0
147
0.09
 71
     0
 72
     0
 73
     1
 74
     1
 75
     0
 76
     0
 77
     0
 78
     0
170
     0
171
     2
172
     0
173
     0
174
     0
175
     0
176
     0
177
     0
178
     0
  0
DIMSTYLE
  2
ANNOTATIVE
 70
     0
  3

  4

  5

  6

  7

 40
1.0
 41
0.18
 42
0.0625
 43
0.38
 44
0.18
 45
0.0
 46
0.0
 47
0.0
 48
0.0
140
0.18
141
0.09
142
0.0
143
25.4
144
1.0
145
0.0
146
1.0
147
0.09
 71
     0
 72
     0
 73
     1
 74
     1
 75
     0
 76
     0
 77
     0
 78
     0
170
     0
171
     2
172
     0
173
     0
174
     0
175
     0
176
     0
177
     0
178
     0
  0
ENDTAB
  0
ENDSEC
  0
SECTION
  2
BLOCKS
  0
BLOCK
  8
0
  2
$MODEL_SPACE
 70
     0
 10
0.0
 20
0.0
 30
0.0
  3
$MODEL_SPACE
  1

  0
ENDBLK
  5
738
  8
0
  0
BLOCK
 67
     1
  8
0
  2
$PAPER_SPACE
 70
     0
 10
0.0
 20
0.0
 30
0.0
  3
$PAPER_SPACE
  1

  0
ENDBLK
  5
734
 67
     1
  8
0
  0
BLOCK
  8
0
  2
_DOTBLANK
 70
     0
 10
0.0
 20
0.0
 30
0.0
  3
_DOTBLANK
  1

  0
CIRCLE
  5
8C
  8
0
  6
CONTINUOUS
 62
     7
 10
0.0
 20
0.0
 30
0.0
 40
0.5
  0
LINE
  5
8D
  8
0
  6
CONTINUOUS
 62
     7
 10
-0.5
 20
0.0
 30
0.0
 11
-1.0
 21
0.0
 31
0.0
  0
ENDBLK
  5
8E
  8
0
  0
ENDSEC
  0
SECTION
  2
ENTITIES
  0
LINE
  5
90
  8
DETAIL
  6
CONTINUOUS
 62
     5
 10
210.0000000000007
 20
1280.000000000002
 30
0.0
 11
210.0000000000007
 21
1239.999999999998
 31
0.0
  0
LINE
  5
91
  8
DETAIL
  6
CONTINUOUS
 62
     5
 10
208.5000000000007
 20
1239.999999999998
 30
0.0
 11
208.5000000000007
 21
1234.430757142857
 31
0.0
  0
LINE
  5
92
  8
DETAIL
  6
CONTINUOUS
 62
     5
 10
208.5000000000007
 20
1239.999999999998
 30
0.0
 11
208.5000000000007
 21
1234.415628571426
 31
0.0
  0
LINE
  5
93
  8
DETAIL
  6
CONTINUOUS
 62
     5
 10
210.0000000000007
 20
1280.000000000002
 30
0.0
 11
210.0000000000007
 21
1239.999999999998
 31
0.0
  0
ARC
  5
94
  8
DETAIL
  6
CONTINUOUS
 62
     5
 10
276.9999999999956
 20
1212.600000000004
 30
0.0
 40
8.000000000000012
 50
0.0
 51
74.73263300002796
  0
ARC
  5
95
  8
DETAIL
  6
CONTINUOUS
 62
     5
 10
276.9999999999956
 20
1212.600000000004
 30
0.0
 40
8.000000000000012
 50
0.0
 51
74.73263300002796
  0
ARC
  5
96
  8
DETAIL
  6
CONTINUOUS
 62
     5
 10
276.9999999999956
 20
685.599999999999
 30
0.0
 40
8.000000000000012
 50
285.2673669999718
 51
0.0
  0
ARC
  5
97
  8
DETAIL
  6
CONTINUOUS
 62
     5
 10
276.9999999999956
 20
685.599999999999
 30
0.0
 40
8.000000000000012
 50
285.2673669999718
 51
0.0
  0
ARC
  5
98
  8
DETAIL
  6
CONTINUOUS
 62
     5
 10
276.9999999999956
 20
614.9999999999985
 30
0.0
 40
8.000000000000012
 50
0.0
 51
74.73263300002775
  0
ARC
  5
99
  8
DETAIL
  6
CONTINUOUS
 62
     5
 10
276.9999999999956
 20
614.9999999999985
 30
0.0
 40
8.000000000000012
 50
0.0
 51
74.73263300002775
  0
LINE
  5
9A
  8
DETAIL
  6
CONTINUOUS
 62
     5
 10
208.5000000000007
 20
663.7692369933544
 30
0.0
 11
208.5000000000007
 21
636.8307630066488
 31
0.0
  0
ARC
  5
9B
  8
DETAIL
  6
CONTINUOUS
 62
     5
 10
120.1894163965737
 20
1263.658764238475
 30
0.0
 40
606.950318829413
 50
278.7480181601555
 51
285.1786149860109
  0
ARC
  5
9C
  8
DETAIL
  6
CONTINUOUS
 62
     5
 10
120.1894163965727
 20
36.94123576152973
 30
0.0
 40
606.9503188294111
 50
74.82138501398897
 51
81.25198183984458
  0
LINE
  5
9D
  8
DETAIL
  6
CONTINUOUS
 62
     5
 10
284.9999999999934
 20
1212.600000000004
 30
0.0
 11
284.9999999999934
 21
685.599999999999
 31
0.0
  0
LINE
  5
9E
  8
DETAIL
  6
CONTINUOUS
 62
     5
 10
284.9999999999934
 20
1212.600000000004
 30
0.0
 11
284.9999999999934
 21
685.599999999999
 31
0.0
  0
ARC
  5
9F
  8
DETAIL
  6
CONTINUOUS
 62
     5
 10
120.1880931073749
 20
634.5311549126069
 30
0.0
 40
606.9603944777144
 50
74.82151361535254
 51
81.24266917859644
  0
LINE
  5
A2
  8
DETAIL
  6
CONTINUOUS
 62
     5
 10
-210.000000000003
 20
1280.000000000002
 30
0.0
 11
-210.000000000003
 21
1239.999999999998
 31
0.0
  0
LINE
  5
A4
  8
DETAIL
  6
CONTINUOUS
 62
     5
 10
210.0000000000007
 20
1239.999999999998
 30
0.0
 11
-210.000000000003
 21
1239.999999999998
 31
0.0
  0
LINE
  5
A5
  8
DETAIL
  6
CONTINUOUS
 62
     5
 10
210.0000000000007
 20
1280.000000000002
 30
0.0
 11
-210.000000000003
 21
1280.000000000002
 31
0.0
  0
ARC
  5
A6
  8
DETAIL
  6
CONTINUOUS
 62
     5
 10
276.9999999999956
 20
87.99999999999946
 30
0.0
 40
8.000000000000012
 50
285.2673669999718
 51
0.0
  0
ARC
  5
A7
  8
DETAIL
  6
CONTINUOUS
 62
     5
 10
276.9999999999956
 20
87.99999999999946
 30
0.0
 40
8.000000000000012
 50
285.2673669999718
 51
0.0
  0
LINE
  5
A8
  8
DETAIL
  6
CONTINUOUS
 62
     5
 10
144.0000000000007
 20
122.9999999999967
 30
0.0
 11
144.0000000000007
 21
72.99999999999667
 31
0.0
  0
LINE
  5
AA
  8
DETAIL
  6
CONTINUOUS
 62
     5
 10
206.7999999999968
 20
51.79999999999786
 30
0.0
 11
199.7999999999949
 21
51.79999999999786
 31
0.0
  0
LINE
  5
AB
  8
DETAIL
  6
CONTINUOUS
 62
     5
 10
206.7999999999968
 20
50.99999999999766
 30
0.0
 11
199.7999999999949
 21
50.99999999999766
 31
0.0
  0
ARC
  5
AC
  8
DETAIL
  6
CONTINUOUS
 62
     5
 10
206.7999999999968
 20
51.99999999999945
 30
0.0
 40
0.2000000000000003
 50
270.0
 51
0.0
  0
ARC
  5
AD
  8
DETAIL
  6
CONTINUOUS
 62
     5
 10
206.7999999999968
 20
51.99999999999945
 30
0.0
 40
1.000000000000001
 50
270.0
 51
0.0
  0
LINE
  5
AE
  8
DETAIL
  6
CONTINUOUS
 62
     5
 10
207.7999999999995
 20
51.99999999999945
 30
0.0
 11
207.7999999999995
 21
53.00000000000136
 31
0.0
  0
LINE
  5
AF
  8
DETAIL
  6
CONTINUOUS
 62
     5
 10
207.0000000000007
 20
51.99999999999945
 30
0.0
 11
207.0000000000007
 21
53.00000000000136
 31
0.0
  0
LINE
  5
B2
  8
DETAIL
  6
CONTINUOUS
 62
     5
 10
199.7999999999949
 20
51.79999999999786
 30
0.0
 11
199.7999999999949
 21
50.99999999999766
 31
0.0
  0
LINE
  5
B5
  8
DETAIL
  6
CONTINUOUS
 62
     5
 10
199.7999999999949
 20
51.79999999999786
 30
0.0
 11
199.7999999999949
 21
50.99999999999766
 31
0.0
  0
LINE
  5
B6
  8
DETAIL
  6
CONTINUOUS
 62
     5
 10
208.5000000000007
 20
53.00000000000136
 30
0.0
 11
208.5000000000007
 21
66.16924285713907
 31
0.0
  0
LINE
  5
B8
  8
DETAIL
  6
CONTINUOUS
 62
     5
 10
207.0000000000007
 20
51.99999999999945
 30
0.0
 11
207.0000000000007
 21
53.00000000000136
 31
0.0
  0
LINE
  5
B9
  8
DETAIL
  6
CONTINUOUS
 62
     5
 10
207.7999999999995
 20
51.99999999999945
 30
0.0
 11
207.7999999999995
 21
53.00000000000136
 31
0.0
  0
ARC
  5
BA
  8
DETAIL
  6
CONTINUOUS
 62
     5
 10
206.7999999999968
 20
51.99999999999945
 30
0.0
 40
1.000000000000001
 50
270.0
 51
0.0
  0
ARC
  5
BB
  8
DETAIL
  6
CONTINUOUS
 62
     5
 10
206.7999999999968
 20
51.99999999999945
 30
0.0
 40
0.2000000000000003
 50
270.0
 51
0.0
  0
LINE
  5
BC
  8
DETAIL
  6
CONTINUOUS
 62
     5
 10
206.7999999999968
 20
50.99999999999766
 30
0.0
 11
199.7999999999949
 21
50.99999999999766
 31
0.0
  0
LINE
  5
BD
  8
DETAIL
  6
CONTINUOUS
 62
     5
 10
206.7999999999968
 20
51.79999999999786
 30
0.0
 11
199.7999999999949
 21
51.79999999999786
 31
0.0
  0
LINE
  5
C1
  8
DETAIL
  6
CONTINUOUS
 62
     5
 10
178.9999999999988
 20
2.499999999997719
 30
0.0
 11
156.2999999999995
 21
2.499999999997719
 31
0.0
  0
ARC
  5
C2
  8
DETAIL
  6
CONTINUOUS
 62
     5
 10
156.4999999999948
 20
2.499999999997719
 30
0.0
 40
0.2000000000000003
 50
180.0
 51
270.0
  0
ARC
  5
C3
  8
DETAIL
  6
CONTINUOUS
 62
     5
 10
156.4999999999948
 20
2.499999999997719
 30
0.0
 40
2.500000000000003
 50
180.0
 51
270.0
  0
LINE
  5
C5
  8
DETAIL
  6
CONTINUOUS
 62
     5
 10
178.9999999999988
 20
53.00000000000136
 30
0.0
 11
178.9999999999988
 21
50.70000000000106
 31
0.0
  0
LINE
  5
C7
  8
DETAIL
  6
CONTINUOUS
 62
     5
 10
153.9999999999988
 20
51.19999999999836
 30
0.0
 11
152.1999999999955
 21
51.19999999999836
 31
0.0
  0
LINE
  5
C9
  8
DETAIL
  6
CONTINUOUS
 62
     5
 10
152.1999999999955
 20
51.19999999999836
 30
0.0
 11
152.1999999999955
 21
53.00000000000136
 31
0.0
  0
LINE
  5
CA
  8
DETAIL
  6
CONTINUOUS
 62
     5
 10
153.9999999999988
 20
0.0000000000013713
 30
0.0
 11
153.9999999999988
 21
51.19999999999836
 31
0.0
  0
LINE
  5
CB
  8
DETAIL
  6
CONTINUOUS
 62
     5
 10
178.9999999999988
 20
53.00000000000136
 30
0.0
 11
178.9999999999988
 21
50.70000000000106
 31
0.0
  0
LINE
  5
CC
  8
DETAIL
  6
CONTINUOUS
 62
     5
 10
178.9999999999988
 20
2.300000000002449
 30
0.0
 11
178.9999999999988
 21
50.49999999999945
 31
0.0
  0
ARC
  5
CD
  8
DETAIL
  6
CONTINUOUS
 62
     5
 10
156.4999999999948
 20
2.499999999997719
 30
0.0
 40
2.500000000000003
 50
180.0
 51
270.0
  0
ARC
  5
CE
  8
DETAIL
  6
CONTINUOUS
 62
     5
 10
156.4999999999948
 20
50.49999999999945
 30
0.0
 40
2.500000000000003
 50
90.0
 51
180.0
  0
ARC
  5
CF
  8
DETAIL
  6
CONTINUOUS
 62
     5
 10
156.4999999999948
 20
50.49999999999945
 30
0.0
 40
0.2000000000000003
 50
90.0
 51
180.0
  0
ARC
  5
D0
  8
DETAIL
  6
CONTINUOUS
 62
     5
 10
156.4999999999948
 20
2.499999999997719
 30
0.0
 40
0.2000000000000003
 50
180.0
 51
270.0
  0
LINE
  5
D1
  8
DETAIL
  6
CONTINUOUS
 62
     5
 10
178.9999999999988
 20
2.499999999997719
 30
0.0
 11
153.9999999999988
 21
2.499999999997719
 31
0.0
  0
LINE
  5
D2
  8
DETAIL
  6
CONTINUOUS
 62
     5
 10
178.9999999999988
 20
50.49999999999945
 30
0.0
 11
153.9999999999988
 21
50.49999999999945
 31
0.0
  0
LINE
  5
D3
  8
DETAIL
  6
CONTINUOUS
 62
     5
 10
178.9999999999988
 20
50.70000000000106
 30
0.0
 11
156.4999999999948
 21
50.70000000000106
 31
0.0
  0
ARC
  5
D9
  8
DETAIL
  6
CONTINUOUS
 62
     5
 10
120.1894163965737
 20
666.058764238471
 30
0.0
 40
606.9503188294135
 50
278.7480181601555
 51
285.1786149860109
  0
LINE
  5
DA
  8
DETAIL
  6
CONTINUOUS
 62
     5
 10
208.1999999999978
 20
53.00000000000136
 30
0.0
 11
208.1999999999978
 21
192.9999999999978
 31
0.0
  0
LINE
  5
DB
  8
SIZE
  6
CONTINUOUS
 62
    30
 10
154.0000000000048
 20
62.99999999999685
 30
0.0
 11
894.2483881720086
 21
62.99999999999655
 31
0.0
  0
LINE
  5
DC
  8
SIZE
  6
CONTINUOUS
 62
    30
 10
154.0000000000048
 20
132.9999999999967
 30
0.0
 11
894.2483881720086
 21
132.9999999999965
 31
0.0
  0
LINE
  5
DD
  8
SIZE
  6
CONTINUOUS
 62
    30
 10
879.2483881720086
 20
42.99999999999655
 30
0.0
 11
879.2483881720086
 21
22.9999999999966
 31
0.0
  0
LINE
  5
DE
  8
SIZE
  6
CONTINUOUS
 62
    30
 10
879.2483881720086
 20
152.9999999999966
 30
0.0
 11
879.2483881720086
 21
290.4285714285681
 31
0.0
  0
LINE
  5
DF
  8
SIZE
  6
CONTINUOUS
 62
    30
 10
879.2483881720086
 20
62.99999999999655
 30
0.0
 11
879.2483881720086
 21
132.9999999999965
 31
0.0
  0
CIRCLE
  5
E0
  8
SIZE
  6
CONTINUOUS
 62
    30
 10
879.2483881720086
 20
62.99999999999655
 30
0.0
 40
10.0
  0
LINE
  5
E1
  8
SIZE
  6
CONTINUOUS
 62
    30
 10
879.2483881720086
 20
52.99999999999655
 30
0.0
 11
879.2483881720086
 21
42.99999999999655
 31
0.0
  0
CIRCLE
  5
E2
  8
SIZE
  6
CONTINUOUS
 62
    30
 10
879.2483881720086
 20
132.9999999999965
 30
0.0
 40
10.0
  0
LINE
  5
E3
  8
SIZE
  6
CONTINUOUS
 62
    30
 10
879.2483881720086
 20
142.9999999999966
 30
0.0
 11
879.2483881720086
 21
152.9999999999966
 31
0.0
  0
TEXT
  5
E4
  8
SIZE
  6
CONTINUOUS
 62
    30
 10
864.2483881720086
 20
180.285714285711
 30
0.0
 40
60.0
  1
70
 50
90.0
 41
0.9
 72
     1
 11
864.2483881720086
 21
231.7142857142825
 31
0.0
  0
POINT
  5
E5
  8
DEFPOINTS
  6
CONTINUOUS
 62
     7
 10
134.0000000000048
 20
62.99999999999685
 30
0.0
  0
POINT
  5
E6
  8
DEFPOINTS
  6
CONTINUOUS
 62
     7
 10
134.0000000000048
 20
132.9999999999967
 30
0.0
  0
POINT
  5
E7
  8
DEFPOINTS
  6
CONTINUOUS
 62
     7
 10
879.2483881720086
 20
132.9999999999965
 30
0.0
  0
LINE
  5
E8
  8
SIZE
  6
CONTINUOUS
 62
    30
 10
288.2402
 20
0.0000000000013003
 30
0.0
 11
894.2483881720086
 21
0.0000000000011511
 31
0.0
  0
LINE
  5
E9
  8
SIZE
  6
CONTINUOUS
 62
    30
 10
153.5000000000033
 20
62.99999999999685
 30
0.0
 11
894.2483881720086
 21
62.99999999999655
 31
0.0
  0
LINE
  5
EA
  8
SIZE
  6
CONTINUOUS
 62
    30
 10
879.2483881720086
 20
82.99999999999656
 30
0.0
 11
879.2483881720086
 21
102.9999999999966
 31
0.0
  0
LINE
  5
EB
  8
SIZE
  6
CONTINUOUS
 62
    30
 10
879.2483881720086
 20
-19.99999999999886
 30
0.0
 11
879.2483881720086
 21
-157.4285714285707
 31
0.0
  0
LINE
  5
EC
  8
SIZE
  6
CONTINUOUS
 62
    30
 10
879.2483881720086
 20
62.99999999999655
 30
0.0
 11
879.2483881720086
 21
0.0000000000011511
 31
0.0
  0
CIRCLE
  5
ED
  8
SIZE
  6
CONTINUOUS
 62
    30
 10
879.2483881720086
 20
62.99999999999655
 30
0.0
 40
10.0
  0
LINE
  5
EE
  8
SIZE
  6
CONTINUOUS
 62
    30
 10
879.2483881720086
 20
72.99999999999656
 30
0.0
 11
879.2483881720086
 21
82.99999999999656
 31
0.0
  0
CIRCLE
  5
EF
  8
SIZE
  6
CONTINUOUS
 62
    30
 10
879.2483881720086
 20
0.0000000000011511
 30
0.0
 40
10.0
  0
LINE
  5
F0
  8
SIZE
  6
CONTINUOUS
 62
    30
 10
879.2483881720086
 20
-9.999999999998849
 30
0.0
 11
879.2483881720086
 21
-19.99999999999886
 31
0.0
  0
TEXT
  5
F1
  8
SIZE
  6
CONTINUOUS
 62
    30
 10
864.2483881720086
 20
-151.4285714285706
 30
0.0
 40
60.0
  1
63
 50
90.0
 41
0.9
 72
     1
 11
864.2483881720086
 21
-98.71428571428487
 31
0.0
  0
POINT
  5
F3
  8
DEFPOINTS
  6
CONTINUOUS
 62
     7
 10
133.5000000000033
 20
62.99999999999685
 30
0.0
  0
POINT
  5
F4
  8
DEFPOINTS
  6
CONTINUOUS
 62
     7
 10
879.2483881720086
 20
62.99999999999655
 30
0.0
  0
LINE
  5
F5
  8
DETAIL
  6
CONTINUOUS
 62
     5
 10
34.00000000000477
 20
72.99999999999667
 30
0.0
 11
34.00000000000477
 21
122.9999999999967
 31
0.0
  0
ARC
  5
F6
  8
DETAIL
  6
CONTINUOUS
 62
     5
 10
44.00000000000068
 20
122.9999999999967
 30
0.0
 40
10.00000000000001
 50
90.0
 51
180.0
  0
LINE
  5
F7
  8
DETAIL
  6
CONTINUOUS
 62
     5
 10
44.00000000000068
 20
133.0000000000004
 30
0.0
 11
134.0000000000048
 21
133.0000000000004
 31
0.0
  0
LINE
  5
FA
  8
DETAIL
  6
CONTINUOUS
 62
     5
 10
-18.80000000000268
 20
78.00000000000136
 30
0.0
 11
-15.40000000000441
 21
78.00000000000136
 31
0.0
  0
LINE
  5
FB
  8
DETAIL
  6
CONTINUOUS
 62
     5
 10
-16.80000000000268
 20
78.00000000000136
 30
0.0
 11
-16.80000000000268
 21
192.9999999999978
 31
0.0
  0
CIRCLE
  5
FC
  8
DETAIL
  6
CONTINUOUS
 62
     5
 10
186.3786497033495
 20
142.0000000000022
 30
0.0
 40
16.00000000000002
  0
CIRCLE
  5
FD
  8
DETAIL
  6
CONTINUOUS
 62
     5
 10
186.3786497033495
 20
97.99999999999667
 30
0.0
 40
16.00000000000002
  0
LINE
  5
FE
  8
DETAIL
  6
CONTINUOUS
 62
     5
 10
134.0000000000048
 20
62.99999999999945
 30
0.0
 11
44.00000000000068
 21
62.99999999999945
 31
0.0
  0
LINE
  5
FF
  8
DETAIL
  6
CONTINUOUS
 62
     5
 10
-15.40000000000441
 20
58.00000000000036
 30
0.0
 11
-10.40000000000441
 21
53.00000000000136
 31
0.0
  0
LINE
  5
101
  8
DETAIL
  6
CONTINUOUS
 62
     5
 10
-18.80000000000268
 20
58.00000000000036
 30
0.0
 11
-23.79999999999995
 21
53.00000000000136
 31
0.0
  0
LINE
  5
102
  8
DETAIL
  6
CONTINUOUS
 62
     5
 10
-18.80000000000268
 20
58.00000000000036
 30
0.0
 11
-18.80000000000268
 21
78.00000000000136
 31
0.0
  0
LINE
  5
103
  8
DETAIL
  6
CONTINUOUS
 62
     5
 10
-15.40000000000441
 20
58.00000000000036
 30
0.0
 11
-15.40000000000441
 21
78.00000000000136
 31
0.0
  0
ARC
  5
104
  8
DETAIL
  6
CONTINUOUS
 62
     5
 10
44.00000000000068
 20
72.99999999999667
 30
0.0
 40
10.00000000000001
 50
180.0
 51
270.0
  0
ARC
  5
10C
  8
DETAIL
  6
CONTINUOUS
 62
     5
 10
-158.5000000000029
 20
2.499999999997719
 30
0.0
 40
0.2000000000000003
 50
270.0
 51
0.0
  0
ARC
  5
10D
  8
DETAIL
  6
CONTINUOUS
 62
     5
 10
-158.5000000000029
 20
2.499999999997719
 30
0.0
 40
2.500000000000003
 50
270.0
 51
0.0
  0
LINE
  5
10E
  8
DETAIL
  6
CONTINUOUS
 62
     5
 10
-156.0000000000075
 20
0.0000000000013713
 30
0.0
 11
-156.0000000000075
 21
2.499999999997719
 31
0.0
  0
LINE
  5
113
  8
DETAIL
  6
CONTINUOUS
 62
     5
 10
-156.0000000000075
 20
51.19999999999836
 30
0.0
 11
-154.200000000004
 21
51.19999999999836
 31
0.0
  0
LINE
  5
117
  8
DETAIL
  6
CONTINUOUS
 62
     5
 10
-181.0000000000073
 20
2.300000000002449
 30
0.0
 11
-181.0000000000073
 21
53.00000000000136
 31
0.0
  0
LINE
  5
118
  8
DETAIL
  6
CONTINUOUS
 62
     5
 10
-156.0000000000075
 20
0.0000000000013713
 30
0.0
 11
-156.0000000000075
 21
51.19999999999836
 31
0.0
  0
LINE
  5
11A
  8
DETAIL
  6
CONTINUOUS
 62
     5
 10
-154.200000000004
 20
51.19999999999836
 30
0.0
 11
-154.200000000004
 21
53.00000000000136
 31
0.0
  0
ARC
  5
11B
  8
DETAIL
  6
CONTINUOUS
 62
     5
 10
-158.5000000000029
 20
2.499999999997719
 30
0.0
 40
2.500000000000003
 50
270.0
 51
0.0
  0
ARC
  5
11C
  8
DETAIL
  6
CONTINUOUS
 62
     5
 10
-158.5000000000029
 20
50.49999999999945
 30
0.0
 40
2.500000000000003
 50
0.0
 51
90.0
  0
ARC
  5
11D
  8
DETAIL
  6
CONTINUOUS
 62
     5
 10
-158.5000000000029
 20
2.499999999997719
 30
0.0
 40
0.2000000000000003
 50
270.0
 51
0.0
  0
LINE
  5
120
  8
DETAIL
  6
CONTINUOUS
 62
     5
 10
-156.0000000000075
 20
2.499999999997719
 30
0.0
 11
-181.0000000000073
 21
2.499999999997719
 31
0.0
  0
LINE
  5
121
  8
DETAIL
  6
CONTINUOUS
 62
     5
 10
-181.0000000000073
 20
50.49999999999945
 30
0.0
 11
-156.0000000000075
 21
50.49999999999945
 31
0.0
  0
LINE
  5
126
  8
DETAIL
  6
CONTINUOUS
 62
     5
 10
208.5000000000007
 20
53.00000000000136
 30
0.0
 11
-208.5000000000029
 21
53.00000000000136
 31
0.0
  0
POINT
  5
12F
  8
DEFPOINTS
  6
CONTINUOUS
 62
     7
 10
-177.2972188428313
 20
566.0000000000014
 30
0.0
  0
POINT
  5
13B
  8
DEFPOINTS
  6
CONTINUOUS
 62
     7
 10
-177.2972188428313
 20
516.0000000000014
 30
0.0
  0
LINE
  5
13E
  8
DETAIL
  6
CONTINUOUS
 62
     5
 10
-154.200000000004
 20
51.40000000000096
 30
0.0
 11
152.1999999999955
 21
51.40000000000096
 31
0.0
  0
LINE
  5
13F
  8
DETAIL
  6
CONTINUOUS
 62
     5
 10
208.1999999999978
 20
192.9999999999978
 30
0.0
 11
-16.80000000000268
 21
192.9999999999978
 31
0.0
  0
ARC
  5
140
  8
DETAIL
  6
CONTINUOUS
 62
     5
 10
134.0000000000048
 20
72.99999999999667
 30
0.0
 40
10.00000000000001
 50
270.0
 51
0.0
  0
ARC
  5
141
  8
DETAIL
  6
CONTINUOUS
 62
     5
 10
134.0000000000048
 20
122.9999999999967
 30
0.0
 40
10.00000000000001
 50
0.0
 51
90.0
  0
LINE
  5
142
  8
DETAIL
  6
CONTINUOUS
 62
     5
 10
153.9999999999988
 20
0.0000000000013713
 30
0.0
 11
-156.0000000000075
 21
0.0000000000013713
 31
0.0
  0
LINE
  5
144
  8
SIZE
  6
CONTINUOUS
 62
    30
 10
144.0000000000033
 20
52.99999999999665
 30
0.0
 11
144.0000000000033
 21
-278.5599805068611
 31
0.0
  0
LINE
  5
145
  8
SIZE
  6
CONTINUOUS
 62
    30
 10
34.00000000000069
 20
52.99999999999665
 30
0.0
 11
34.00000000000066
 21
-278.5599805068611
 31
0.0
  0
LINE
  5
146
  8
SIZE
  6
CONTINUOUS
 62
    30
 10
124.0000000000034
 20
-263.5599805068611
 30
0.0
 11
54.00000000000065
 21
-263.5599805068611
 31
0.0
  0
LINE
  5
147
  8
SIZE
  6
CONTINUOUS
 62
    30
 10
34.00000000000066
 20
-263.5599805068611
 30
0.0
 11
-134.2857142857138
 21
-263.5599805068611
 31
0.0
  0
CIRCLE
  5
148
  8
SIZE
  6
CONTINUOUS
 62
    30
 10
144.0000000000033
 20
-263.5599805068611
 30
0.0
 40
10.0
  0
LINE
  5
149
  8
SIZE
  6
CONTINUOUS
 62
    30
 10
134.0000000000033
 20
-263.5599805068611
 30
0.0
 11
124.0000000000034
 21
-263.5599805068611
 31
0.0
  0
CIRCLE
  5
14A
  8
SIZE
  6
CONTINUOUS
 62
    30
 10
34.00000000000066
 20
-263.5599805068611
 30
0.0
 40
10.0
  0
LINE
  5
14B
  8
SIZE
  6
CONTINUOUS
 62
    30
 10
44.00000000000065
 20
-263.5599805068611
 30
0.0
 11
54.00000000000065
 21
-263.5599805068611
 31
0.0
  0
TEXT
  5
14C
  8
SIZE
  6
CONTINUOUS
 62
    30
 10
-141.1428571428566
 20
-248.5599805068609
 30
0.0
 40
60.0
  1
110
 41
0.9
 72
     1
 11
-60.14285714285661
 21
-248.5599805068609
 31
0.0
  0
POINT
  5
14D
  8
DEFPOINTS
  6
CONTINUOUS
 62
     7
 10
144.0000000000033
 20
72.99999999999667
 30
0.0
  0
POINT
  5
14E
  8
DEFPOINTS
  6
CONTINUOUS
 62
     7
 10
34.00000000000069
 20
72.99999999999667
 30
0.0
  0
POINT
  5
14F
  8
DEFPOINTS
  6
CONTINUOUS
 62
     7
 10
34.00000000000066
 20
-263.5599805068611
 30
0.0
  0
LINE
  5
150
  8
SIZE
  6
CONTINUOUS
 62
    30
 10
210.0000000000007
 20
1219.999999999998
 30
0.0
 11
210.0000000000007
 21
-278.5599805068609
 31
0.0
  0
LINE
  5
151
  8
SIZE
  6
CONTINUOUS
 62
    30
 10
144.0000000000033
 20
52.99999999999665
 30
0.0
 11
144.0000000000033
 21
-278.5599805068611
 31
0.0
  0
LINE
  5
152
  8
SIZE
  6
CONTINUOUS
 62
    30
 10
124.0000000000034
 20
-263.5599805068611
 30
0.0
 11
104.0000000000034
 21
-263.5599805068611
 31
0.0
  0
LINE
  5
153
  8
SIZE
  6
CONTINUOUS
 62
    30
 10
230.0000000000006
 20
-263.5599805068611
 30
0.0
 11
364.8571428571443
 21
-263.5599805068611
 31
0.0
  0
LINE
  5
154
  8
SIZE
  6
CONTINUOUS
 62
    30
 10
144.0000000000033
 20
-263.5599805068611
 30
0.0
 11
210.0000000000007
 21
-263.5599805068611
 31
0.0
  0
CIRCLE
  5
155
  8
SIZE
  6
CONTINUOUS
 62
    30
 10
144.0000000000033
 20
-263.5599805068611
 30
0.0
 40
10.0
  0
LINE
  5
156
  8
SIZE
  6
CONTINUOUS
 62
    30
 10
134.0000000000033
 20
-263.5599805068611
 30
0.0
 11
124.0000000000034
 21
-263.5599805068611
 31
0.0
  0
CIRCLE
  5
157
  8
SIZE
  6
CONTINUOUS
 62
    30
 10
210.0000000000007
 20
-263.5599805068611
 30
0.0
 40
10.0
  0
LINE
  5
158
  8
SIZE
  6
CONTINUOUS
 62
    30
 10
220.0000000000006
 20
-263.5599805068611
 30
0.0
 11
230.0000000000006
 21
-263.5599805068611
 31
0.0
  0
TEXT
  5
159
  8
SIZE
  6
CONTINUOUS
 62
    30
 10
254.714285714287
 20
-248.5599805068609
 30
0.0
 40
60.0
  1
66
 41
0.9
 72
     1
 11
307.4285714285727
 21
-248.5599805068609
 31
0.0
  0
POINT
  5
15B
  8
DEFPOINTS
  6
CONTINUOUS
 62
     7
 10
144.0000000000033
 20
72.99999999999667
 30
0.0
  0
POINT
  5
15C
  8
DEFPOINTS
  6
CONTINUOUS
 62
     7
 10
144.0000000000033
 20
-263.5599805068611
 30
0.0
  0
LINE
  5
15D
  8
DETAIL
  6
CONTINUOUS
 62
     5
 10
284.9999999999934
 20
614.9999999999985
 30
0.0
 11
284.9999999999934
 21
87.99999999999946
 31
0.0
  0
LINE
  5
15F
  8
DETAIL
  6
CONTINUOUS
 62
     5
 10
-208.5000000000029
 20
1239.999999999998
 30
0.0
 11
-208.5000000000029
 21
53.00000000000136
 31
0.0
  0
LINE
  5
160
  8
DETAIL
  6
CONTINUOUS
 62
     5
 10
207.7999999999995
 20
192.9999999999978
 30
0.0
 11
207.7999999999995
 21
1239.999999999998
 31
0.0
  0
LINE
  5
161
  8
DETAIL
  6
CONTINUOUS
 62
     5
 10
284.9999999999934
 20
614.9999999999985
 30
0.0
 11
284.9999999999934
 21
87.99999999999946
 31
0.0
  0
LINE
  5
162
  8
DETAIL
  6
CONTINUOUS
 62
     5
 10
208.5000000000007
 20
1234.415628571426
 30
0.0
 11
212.5977177555867
 21
1234.415628571426
 31
0.0
  0
LINE
  5
163
  8
DETAIL
  6
CONTINUOUS
 62
     5
 10
212.5000042440736
 20
663.7692369933544
 30
0.0
 11
208.5000000000007
 21
663.7692369933544
 31
0.0
  0
LINE
  5
164
  8
DETAIL
  6
CONTINUOUS
 62
     5
 10
212.5000042440745
 20
636.8307630066488
 30
0.0
 11
208.5000000000007
 21
636.8307630066488
 31
0.0
  0
LINE
  5
165
  8
DETAIL
  6
CONTINUOUS
 62
     5
 10
212.5000042440736
 20
66.16923699334836
 30
0.0
 11
208.5000000000007
 21
66.16923699334836
 31
0.0
  0
TEXT
  5
166
  8
NOTE
  6
CONTINUOUS
 62
     4
 10
-1001.279846008124
 20
915.0954973646826
 30
0.0
 40
65.0
  1
φ15.88
 41
0.8
  0
TEXT
  5
167
  8
NOTE
  6
CONTINUOUS
 62
     4
 10
-1001.279846008124
 20
1003.856634876445
 30
0.0
 40
65.0
  1
GHP1 <取出し口>
 41
0.8
  0
TEXT
  5
168
  8
NOTE
  6
CONTINUOUS
 62
     4
 10
-993.520560293836
 20
697.6846545075332
 30
0.0
 40
65.0
  1
φ15.88
 41
0.8
  0
TEXT
  5
169
  8
NOTE
  6
CONTINUOUS
 62
     4
 10
-993.520560293836
 20
786.4457920192964
 30
0.0
 40
65.0
  1
GHP2 <戻し口>
 41
0.8
  0
TEXT
  5
16A
  8
NOTE
  6
CONTINUOUS
 62
     4
 10
415.0077784746345
 20
585.7708752646953
 30
0.0
 40
65.0
  1
<配管通し穴>
 41
0.8
  0
TEXT
  5
16B
  8
NOTE
  6
CONTINUOUS
 62
     4
 10
415.0077784746345
 20
662.5721534965909
 30
0.0
 40
65.0
  1
ﾉｯｸｱｳﾄ穴
 41
0.8
  0
LINE
  5
16C
  8
NOTE
  6
CONTINUOUS
 62
     4
 10
-139.0000000000075
 20
527.7027811571693
 30
0.0
 11
-139.0000000000075
 21
604.2972188428171
 31
0.0
  0
LINE
  5
16D
  8
NOTE
  6
CONTINUOUS
 62
     4
 10
-100.7027811571813
 20
566.0000000000014
 30
0.0
 11
-177.2972188428313
 21
566.0000000000014
 31
0.0
  0
LINE
  5
16E
  8
NOTE
  6
CONTINUOUS
 62
     4
 10
-139.0000000000075
 20
477.7027811571693
 30
0.0
 11
-139.0000000000075
 21
554.2972188428171
 31
0.0
  0
LINE
  5
16F
  8
NOTE
  6
CONTINUOUS
 62
     4
 10
-100.7027811571813
 20
516.0000000000014
 30
0.0
 11
-177.2972188428313
 21
516.0000000000014
 31
0.0
  0
LINE
  5
170
  8
NOTE
  6
CONTINUOUS
 62
     4
 10
105.0000142857168
 20
57.70278115717766
 30
0.0
 11
105.0000142857168
 21
134.2972188428254
 31
0.0
  0
LINE
  5
171
  8
NOTE
  6
CONTINUOUS
 62
     4
 10
143.2972331285416
 20
96.00000000000966
 30
0.0
 11
66.70279544289156
 21
96.00000000000966
 31
0.0
  0
LINE
  5
172
  8
NOTE
  6
CONTINUOUS
 62
     4
 10
78.00001428570954
 20
81.70276687144857
 30
0.0
 11
78.00001428570954
 21
158.2972045570964
 31
0.0
  0
LINE
  5
173
  8
NOTE
  6
CONTINUOUS
 62
     4
 10
116.2972331285334
 20
119.9999857142806
 30
0.0
 11
39.70279544288428
 21
119.9999857142806
 31
0.0
  0
LINE
  5
17A
  8
SIZE
  6
CONTINUOUS
 62
    30
 10
210.0000000000007
 20
1219.999999999998
 30
0.0
 11
210.0000000000007
 21
-403.326179276793
 31
0.0
  0
LINE
  5
17B
  8
SIZE
  6
CONTINUOUS
 62
    30
 10
105.0000142857168
 20
35.70276687144955
 30
0.0
 11
105.0000142857168
 21
-403.326179276793
 31
0.0
  0
LINE
  5
17C
  8
SIZE
  6
CONTINUOUS
 62
    30
 10
125.0000142857168
 20
-388.326179276793
 30
0.0
 11
190.0000000000006
 21
-388.326179276793
 31
0.0
  0
LINE
  5
17D
  8
SIZE
  6
CONTINUOUS
 62
    30
 10
210.0000000000007
 20
-388.326179276793
 30
0.0
 11
411.3524541308022
 21
-388.326179276793
 31
0.0
  0
CIRCLE
  5
17E
  8
SIZE
  6
CONTINUOUS
 62
    30
 10
105.0000142857168
 20
-388.326179276793
 30
0.0
 40
10.0
  0
LINE
  5
17F
  8
SIZE
  6
CONTINUOUS
 62
    30
 10
115.0000142857168
 20
-388.326179276793
 30
0.0
 11
125.0000142857168
 21
-388.326179276793
 31
0.0
  0
CIRCLE
  5
180
  8
SIZE
  6
CONTINUOUS
 62
    30
 10
210.0000000000007
 20
-388.326179276793
 30
0.0
 40
10.0
  0
LINE
  5
181
  8
SIZE
  6
CONTINUOUS
 62
    30
 10
200.0000000000006
 20
-388.326179276793
 30
0.0
 11
190.0000000000006
 21
-388.326179276793
 31
0.0
  0
TEXT
  5
182
  8
SIZE
  6
CONTINUOUS
 62
    30
 10
256.6153894957363
 20
-373.326179276793
 30
0.0
 40
60.0
  1
105
 41
0.9
 72
     1
 11
337.6153894957363
 21
-373.326179276793
 31
0.0
  0
POINT
  5
184
  8
DEFPOINTS
  6
CONTINUOUS
 62
     7
 10
105.0000142857168
 20
55.70276687144946
 30
0.0
  0
POINT
  5
185
  8
DEFPOINTS
  6
CONTINUOUS
 62
     7
 10
105.0000142857168
 20
-388.326179276793
 30
0.0
  0
LINE
  5
186
  8
SIZE
  6
CONTINUOUS
 62
    30
 10
210.0000000000007
 20
1219.999999999998
 30
0.0
 11
210.0000000000007
 21
-517.8022811619062
 31
0.0
  0
LINE
  5
187
  8
SIZE
  6
CONTINUOUS
 62
    30
 10
78.00001428570954
 20
61.70276687144855
 30
0.0
 11
78.00001428570951
 21
-517.8022811619062
 31
0.0
  0
LINE
  5
188
  8
SIZE
  6
CONTINUOUS
 62
    30
 10
98.0000142857095
 20
-502.8022811619061
 30
0.0
 11
190.0000000000006
 21
-502.8022811619061
 31
0.0
  0
LINE
  5
189
  8
SIZE
  6
CONTINUOUS
 62
    30
 10
210.0000000000007
 20
-502.8022811619061
 30
0.0
 11
411.3524999999999
 21
-502.8022811619061
 31
0.0
  0
CIRCLE
  5
18A
  8
SIZE
  6
CONTINUOUS
 62
    30
 10
78.00001428570951
 20
-502.8022811619061
 30
0.0
 40
10.0
  0
LINE
  5
18B
  8
SIZE
  6
CONTINUOUS
 62
    30
 10
88.0000142857095
 20
-502.8022811619061
 30
0.0
 11
98.0000142857095
 21
-502.8022811619061
 31
0.0
  0
CIRCLE
  5
18C
  8
SIZE
  6
CONTINUOUS
 62
    30
 10
210.0000000000007
 20
-502.8022811619061
 30
0.0
 40
10.0
  0
LINE
  5
18D
  8
SIZE
  6
CONTINUOUS
 62
    30
 10
200.0000000000006
 20
-502.8022811619061
 30
0.0
 11
190.0000000000006
 21
-502.8022811619061
 31
0.0
  0
TEXT
  5
18E
  8
SIZE
  6
CONTINUOUS
 62
    30
 10
256.6153894957363
 20
-487.8022811619061
 30
0.0
 40
60.0
  1
132
 41
0.9
 72
     1
 11
337.6153894957363
 21
-487.8022811619061
 31
0.0
  0
POINT
  5
190
  8
DEFPOINTS
  6
CONTINUOUS
 62
     7
 10
78.00001428570954
 20
81.70276687144857
 30
0.0
  0
POINT
  5
191
  8
DEFPOINTS
  6
CONTINUOUS
 62
     7
 10
78.00001428570951
 20
-502.8022811619061
 30
0.0
  0
LINE
  5
192
  8
SIZE
  6
CONTINUOUS
 62
    30
 10
210.0000000000007
 20
1300.000000000002
 30
0.0
 11
210.0000000000007
 21
1406.578066843658
 31
0.0
  0
LINE
  5
193
  8
SIZE
  6
CONTINUOUS
 62
    30
 10
-139.0000000000075
 20
624.2972188428171
 30
0.0
 11
-139.0000000000074
 21
1406.578066843658
 31
0.0
  0
LINE
  5
194
  8
SIZE
  6
CONTINUOUS
 62
    30
 10
190.0000000000007
 20
1391.578066843658
 30
0.0
 11
-119.0000000000074
 21
1391.578066843658
 31
0.0
  0
CIRCLE
  5
195
  8
SIZE
  6
CONTINUOUS
 62
    30
 10
210.0000000000007
 20
1391.578066843658
 30
0.0
 40
10.0
  0
LINE
  5
196
  8
SIZE
  6
CONTINUOUS
 62
    30
 10
200.0000000000007
 20
1391.578066843658
 30
0.0
 11
190.0000000000007
 21
1391.578066843658
 31
0.0
  0
CIRCLE
  5
197
  8
SIZE
  6
CONTINUOUS
 62
    30
 10
-139.0000000000074
 20
1391.578066843658
 30
0.0
 40
10.0
  0
LINE
  5
198
  8
SIZE
  6
CONTINUOUS
 62
    30
 10
-129.0000000000074
 20
1391.578066843658
 30
0.0
 11
-119.0000000000074
 21
1391.578066843658
 31
0.0
  0
TEXT
  5
199
  8
SIZE
  6
CONTINUOUS
 62
    30
 10
-40.35714285714624
 20
1406.578066843658
 30
0.0
 40
60.0
  1
349
 41
0.9
 72
     1
 11
35.49999999999662
 21
1406.578066843658
 31
0.0
  0
POINT
  5
19A
  8
DEFPOINTS
  6
CONTINUOUS
 62
     7
 10
210.0000000000007
 20
1280.000000000002
 30
0.0
  0
POINT
  5
19B
  8
DEFPOINTS
  6
CONTINUOUS
 62
     7
 10
-139.0000000000075
 20
604.2972188428171
 30
0.0
  0
POINT
  5
19C
  8
DEFPOINTS
  6
CONTINUOUS
 62
     7
 10
-139.0000000000074
 20
1391.578066843658
 30
0.0
  0
POINT
  5
1A8
  8
DEFPOINTS
  6
CONTINUOUS
 62
     7
 10
187.0000000000007
 20
-38.29721884283072
 30
0.0
  0
POINT
  5
1B2
  8
DEFPOINTS
  6
CONTINUOUS
 62
     7
 10
187.0000000000007
 20
-38.29721884283072
 30
0.0
  0
LINE
  5
1B5
  8
SIZE
  6
CONTINUOUS
 62
    30
 10
210.0000000000007
 20
1300.000000000002
 30
0.0
 11
210.0000000000007
 21
1532.334052558372
 31
0.0
  0
LINE
  5
1B6
  8
SIZE
  6
CONTINUOUS
 62
    30
 10
-210.000000000003
 20
1300.000000000002
 30
0.0
 11
-210.0000000000029
 21
1532.334052558372
 31
0.0
  0
LINE
  5
1B7
  8
SIZE
  6
CONTINUOUS
 62
    30
 10
190.0000000000007
 20
1517.334052558372
 30
0.0
 11
-190.0000000000029
 21
1517.334052558372
 31
0.0
  0
CIRCLE
  5
1B8
  8
SIZE
  6
CONTINUOUS
 62
    30
 10
210.0000000000007
 20
1517.334052558372
 30
0.0
 40
10.0
  0
LINE
  5
1B9
  8
SIZE
  6
CONTINUOUS
 62
    30
 10
200.0000000000007
 20
1517.334052558372
 30
0.0
 11
190.0000000000007
 21
1517.334052558372
 31
0.0
  0
CIRCLE
  5
1BA
  8
SIZE
  6
CONTINUOUS
 62
    30
 10
-210.0000000000029
 20
1517.334052558372
 30
0.0
 40
10.0
  0
LINE
  5
1BB
  8
SIZE
  6
CONTINUOUS
 62
    30
 10
-200.0000000000029
 20
1517.334052558372
 30
0.0
 11
-190.0000000000029
 21
1517.334052558372
 31
0.0
  0
TEXT
  5
1BC
  8
SIZE
  6
CONTINUOUS
 62
    30
 10
-77.14285714285826
 20
1532.334052558372
 30
0.0
 40
60.0
  1
420
 41
0.9
 72
     1
 11
-0.0000000000011084
 21
1532.334052558372
 31
0.0
  0
POINT
  5
1BD
  8
DEFPOINTS
  6
CONTINUOUS
 62
     7
 10
210.0000000000007
 20
1280.000000000002
 30
0.0
  0
POINT
  5
1BE
  8
DEFPOINTS
  6
CONTINUOUS
 62
     7
 10
-210.000000000003
 20
1280.000000000002
 30
0.0
  0
POINT
  5
1BF
  8
DEFPOINTS
  6
CONTINUOUS
 62
     7
 10
-210.0000000000029
 20
1517.334052558372
 30
0.0
  0
LINE
  5
1C0
  8
SIZE
  6
CONTINUOUS
 62
    30
 10
288.2402
 20
0.0000000000013003
 30
0.0
 11
656.1173191833188
 21
0.0000000000012292
 31
0.0
  0
LINE
  5
1C1
  8
SIZE
  6
CONTINUOUS
 62
    30
 10
163.2972331285416
 20
96.00000000000966
 30
0.0
 11
656.1173191833188
 21
96.00000000000958
 31
0.0
  0
LINE
  5
1C2
  8
SIZE
  6
CONTINUOUS
 62
    30
 10
641.1173191833188
 20
76.00000000000958
 30
0.0
 11
641.1173191833188
 21
20.00000000000124
 31
0.0
  0
LINE
  5
1C3
  8
SIZE
  6
CONTINUOUS
 62
    30
 10
641.1173191833188
 20
0.0000000000012292
 30
0.0
 11
641.1173191833188
 21
-137.428571428571
 31
0.0
  0
CIRCLE
  5
1C4
  8
SIZE
  6
CONTINUOUS
 62
    30
 10
641.1173191833188
 20
96.00000000000958
 30
0.0
 40
10.0
  0
LINE
  5
1C5
  8
SIZE
  6
CONTINUOUS
 62
    30
 10
641.1173191833188
 20
86.00000000000958
 30
0.0
 11
641.1173191833188
 21
76.00000000000958
 31
0.0
  0
CIRCLE
  5
1C6
  8
SIZE
  6
CONTINUOUS
 62
    30
 10
641.1173191833188
 20
0.0000000000012292
 30
0.0
 40
10.0
  0
LINE
  5
1C7
  8
SIZE
  6
CONTINUOUS
 62
    30
 10
641.1173191833188
 20
10.00000000000123
 30
0.0
 11
641.1173191833188
 21
20.00000000000124
 31
0.0
  0
TEXT
  5
1C8
  8
SIZE
  6
CONTINUOUS
 62
    30
 10
626.1173191833188
 20
-131.4285714285709
 30
0.0
 40
60.0
  1
96
 50
90.0
 41
0.9
 72
     1
 11
626.1173191833188
 21
-79.9999999999995
 31
0.0
  0
POINT
  5
1CA
  8
DEFPOINTS
  6
CONTINUOUS
 62
     7
 10
143.2972331285416
 20
96.00000000000966
 30
0.0
  0
POINT
  5
1CB
  8
DEFPOINTS
  6
CONTINUOUS
 62
     7
 10
641.1173191833188
 20
96.00000000000958
 30
0.0
  0
LINE
  5
1CC
  8
SIZE
  6
CONTINUOUS
 62
    30
 10
288.2402
 20
0.0000000000013003
 30
0.0
 11
779.0609476029016
 21
0.0000000000012008
 31
0.0
  0
LINE
  5
1CD
  8
SIZE
  6
CONTINUOUS
 62
    30
 10
136.2972331285334
 20
119.9999857142806
 30
0.0
 11
779.0609476029016
 21
119.9999857142805
 31
0.0
  0
LINE
  5
1CE
  8
SIZE
  6
CONTINUOUS
 62
    30
 10
764.0609476029016
 20
99.99998571428046
 30
0.0
 11
764.0609476029016
 21
20.0000000000012
 31
0.0
  0
LINE
  5
1CF
  8
SIZE
  6
CONTINUOUS
 62
    30
 10
764.0609476029016
 20
0.0000000000012008
 30
0.0
 11
764.0609476029016
 21
-178.5714285714286
 31
0.0
  0
CIRCLE
  5
1D0
  8
SIZE
  6
CONTINUOUS
 62
    30
 10
764.0609476029016
 20
119.9999857142805
 30
0.0
 40
10.0
  0
LINE
  5
1D1
  8
SIZE
  6
CONTINUOUS
 62
    30
 10
764.0609476029016
 20
109.9999857142805
 30
0.0
 11
764.0609476029016
 21
99.99998571428046
 31
0.0
  0
CIRCLE
  5
1D2
  8
SIZE
  6
CONTINUOUS
 62
    30
 10
764.0609476029016
 20
0.0000000000012008
 30
0.0
 40
10.0
  0
LINE
  5
1D3
  8
SIZE
  6
CONTINUOUS
 62
    30
 10
764.0609476029016
 20
10.0000000000012
 30
0.0
 11
764.0609476029016
 21
20.0000000000012
 31
0.0
  0
TEXT
  5
1D4
  8
SIZE
  6
CONTINUOUS
 62
    30
 10
749.0609476029011
 20
-180.2857142857142
 30
0.0
 40
60.0
  1
120
 50
90.0
 41
0.9
 72
     1
 11
749.0609476029011
 21
-99.28571428571422
 31
0.0
  0
POINT
  5
1D6
  8
DEFPOINTS
  6
CONTINUOUS
 62
     7
 10
116.2972331285334
 20
119.9999857142806
 30
0.0
  0
POINT
  5
1D7
  8
DEFPOINTS
  6
CONTINUOUS
 62
     7
 10
764.0609476029016
 20
119.9999857142805
 30
0.0
  0
LINE
  5
1E1
  8
SIZE
  6
CONTINUOUS
 62
    30
 10
288.2402
 20
0.0000000000013003
 30
0.0
 11
1017.088096508068
 21
0.0000000000011298
 31
0.0
  0
LINE
  5
1E2
  8
SIZE
  6
CONTINUOUS
 62
    30
 10
230.0000000000007
 20
1280.000000000002
 30
0.0
 11
1017.088096508069
 21
1280.000000000002
 31
0.0
  0
LINE
  5
1E3
  8
SIZE
  6
CONTINUOUS
 62
    30
 10
1002.088096508068
 20
20.00000000000113
 30
0.0
 11
1002.088096508068
 21
1260.000000000002
 31
0.0
  0
CIRCLE
  5
1E4
  8
SIZE
  6
CONTINUOUS
 62
    30
 10
1002.088096508068
 20
0.0000000000011369
 30
0.0
 40
10.0
  0
LINE
  5
1E5
  8
SIZE
  6
CONTINUOUS
 62
    30
 10
1002.088096508068
 20
10.00000000000113
 30
0.0
 11
1002.088096508068
 21
20.00000000000113
 31
0.0
  0
CIRCLE
  5
1E6
  8
SIZE
  6
CONTINUOUS
 62
    30
 10
1002.088096508068
 20
1280.000000000002
 30
0.0
 40
10.0
  0
LINE
  5
1E7
  8
SIZE
  6
CONTINUOUS
 62
    30
 10
1002.088096508068
 20
1270.000000000002
 30
0.0
 11
1002.088096508068
 21
1260.000000000002
 31
0.0
  0
TEXT
  5
1E8
  8
SIZE
  6
CONTINUOUS
 62
    30
 10
987.0880965080682
 20
533.285714285716
 30
0.0
 40
60.0
  1
1280
 50
90.0
 41
0.9
 72
     1
 11
987.0880965080682
 21
640.0000000000017
 31
0.0
  0
POINT
  5
1EA
  8
DEFPOINTS
  6
CONTINUOUS
 62
     7
 10
210.0000000000007
 20
1280.000000000002
 30
0.0
  0
POINT
  5
1EB
  8
DEFPOINTS
  6
CONTINUOUS
 62
     7
 10
1002.088096508068
 20
1280.000000000002
 30
0.0
  0
TEXT
  5
1EC
  8
ETC
  6
CONTINUOUS
 62
    61
 10
393.8518434206878
 20
1574.465383147916
 30
0.0
 40
75.0
  1
ECOV-EN37_55MB_5
 50
0.0000025613209388
 41
0.7999999999999999
  7
STANDARD1
  0
LINE
  5
1ED
  8
BASIS
  6
DASHDOT
 62
     6
 10
-0.0000000000002273
 20
1358.013453076384
 30
0.0
 11
-0.0000000000002273
 21
-54.62093158299513
 31
0.0
  0
LINE
  5
1EE
  8
ARRANGE
  6
CONTINUOUS
 62
     1
 10
37.89732108180374
 20
-37.89732108180533
 30
0.0
 11
-37.89732108180874
 21
37.89732108180986
 31
0.0
  0
LINE
  5
1EF
  8
ARRANGE
  6
CONTINUOUS
 62
     1
 10
37.89732108180374
 20
37.89732108180986
 30
0.0
 11
-37.89732108180874
 21
-37.89732108180897
 31
0.0
  0
CIRCLE
  5
1F0
  8
ARRANGE
  6
CONTINUOUS
 62
     1
 10
-0.0000000000002273
 20
0.0000000000013713
 30
0.0
 40
34.44967411438486
  0
LINE
  5
1F1
  8
OUTLINE
  6
CONTINUOUS
 62
     3
 10
210.0000000000007
 20
1239.999999999998
 30
0.0
 11
207.7999999999995
 21
1239.999999999998
 31
0.0
  0
LINE
  5
1F3
  8
OUTLINE
  6
CONTINUOUS
 62
     3
 10
210.0000000000016
 20
1280.000000000002
 30
0.0
 11
210.0000000000007
 21
1239.999999999998
 31
0.0
  0
LINE
  5
1FC
  8
OUTLINE
  6
CONTINUOUS
 62
     3
 10
-208.5000000000029
 20
1239.999999999998
 30
0.0
 11
-210.000000000003
 21
1239.999999999998
 31
0.0
  0
LINE
  5
1FD
  8
OUTLINE
  6
CONTINUOUS
 62
     3
 10
-210.000000000003
 20
1280.000000000002
 30
0.0
 11
-210.000000000003
 21
1239.999999999998
 31
0.0
  0
LINE
  5
202
  8
OUTLINE
  6
CONTINUOUS
 62
     3
 10
178.9999999999988
 20
2.300000000002449
 30
0.0
 11
178.9999999999988
 21
53.00000000000136
 31
0.0
  0
ARC
  5
203
  8
OUTLINE
  6
CONTINUOUS
 62
     3
 10
156.4999999999948
 20
2.499999999997719
 30
0.0
 40
2.500000000000003
 50
180.0
 51
270.0
  0
LINE
  5
208
  8
OUTLINE
  6
CONTINUOUS
 62
     3
 10
-181.0000000000073
 20
2.300000000002449
 30
0.0
 11
-181.0000000000073
 21
53.00000000000136
 31
0.0
  0
ARC
  5
209
  8
OUTLINE
  6
CONTINUOUS
 62
     3
 10
-158.5000000000029
 20
2.499999999997719
 30
0.0
 40
2.500000000000003
 50
270.0
 51
0.0
  0
LINE
  5
20B
  8
OUTLINE
  6
CONTINUOUS
 62
     3
 10
153.9999999999988
 20
0.0000000000013713
 30
0.0
 11
-156.0000000000075
 21
0.0000000000013713
 31
0.0
  0
LINE
  5
20D
  8
OUTLINE
  6
CONTINUOUS
 62
     3
 10
-208.5000000000029
 20
1239.999999999998
 30
0.0
 11
-208.5000000000029
 21
53.00000000000136
 31
0.0
  0
LINE
  5
213
  8
OUTLINE
  6
CONTINUOUS
 62
     3
 10
153.9999999999988
 20
2.499999999997719
 30
0.0
 11
153.9999999999988
 21
0.0000000000013713
 31
0.0
  0
LINE
  5
214
  8
OUTLINE
  6
CONTINUOUS
 62
     3
 10
-156.0000000000029
 20
2.499999999997719
 30
0.0
 11
-156.0000000000075
 21
0.0000000000013713
 31
0.0
  0
LINE
  5
216
  8
OUTLINE
  6
CONTINUOUS
 62
     3
 10
207.7999999999995
 20
53.00000000000136
 30
0.0
 11
-208.5000000000029
 21
53.00000000000136
 31
0.0
  0
LINE
  5
217
  8
SIZE
  6
CONTINUOUS
 62
    30
 10
-210.000000000003
 20
1300.000000000002
 30
0.0
 11
-210.0000000000029
 21
1658.090038273086
 31
0.0
  0
LINE
  5
218
  8
SIZE
  6
CONTINUOUS
 62
    30
 10
284.9999999999956
 20
1232.600000000004
 30
0.0
 11
284.9999999999956
 21
1658.090038273086
 31
0.0
  0
LINE
  5
219
  8
SIZE
  6
CONTINUOUS
 62
    30
 10
-190.0000000000029
 20
1643.090038273085
 30
0.0
 11
264.9999999999956
 21
1643.090038273085
 31
0.0
  0
CIRCLE
  5
21A
  8
SIZE
  6
CONTINUOUS
 62
    30
 10
-210.0000000000029
 20
1643.090038273085
 30
0.0
 40
10.0
  0
LINE
  5
21B
  8
SIZE
  6
CONTINUOUS
 62
    30
 10
-200.0000000000029
 20
1643.090038273085
 30
0.0
 11
-190.0000000000029
 21
1643.090038273085
 31
0.0
  0
CIRCLE
  5
21C
  8
SIZE
  6
CONTINUOUS
 62
    30
 10
284.9999999999956
 20
1643.090038273085
 30
0.0
 40
10.0
  0
LINE
  5
21D
  8
SIZE
  6
CONTINUOUS
 62
    30
 10
274.9999999999956
 20
1643.090038273085
 30
0.0
 11
264.9999999999956
 21
1643.090038273085
 31
0.0
  0
TEXT
  5
21E
  8
SIZE
  6
CONTINUOUS
 62
    30
 10
-39.64285714286078
 20
1658.090038273086
 30
0.0
 40
60.0
  1
495
 41
0.9
 72
     1
 11
37.49999999999638
 21
1658.090038273086
 31
0.0
  0
POINT
  5
21F
  8
DEFPOINTS
  6
CONTINUOUS
 62
     7
 10
-210.000000000003
 20
1280.000000000002
 30
0.0
  0
POINT
  5
220
  8
DEFPOINTS
  6
CONTINUOUS
 62
     7
 10
284.9999999999956
 20
1212.600000000004
 30
0.0
  0
POINT
  5
221
  8
DEFPOINTS
  6
CONTINUOUS
 62
     7
 10
284.9999999999956
 20
1643.090038273085
 30
0.0
  0
LINE
  5
222
  8
NOTE
  6
CONTINUOUS
 62
     4
 10
402.1645654962563
 20
1095.002046274189
 30
0.0
 11
402.1645654962563
 21
1055.002046274187
 31
0.0
  0
LINE
  5
223
  8
NOTE
  6
CONTINUOUS
 62
     4
 10
466.1645654962565
 20
1119.002046274186
 30
0.0
 11
466.1645654962565
 21
1095.002046274189
 31
0.0
  0
LINE
  5
224
  8
NOTE
  6
CONTINUOUS
 62
     4
 10
514.1645654962595
 20
1075.002046274186
 30
0.0
 11
466.1645654962565
 21
1119.002046274186
 31
0.0
  0
LINE
  5
225
  8
NOTE
  6
CONTINUOUS
 62
     4
 10
466.1645654962565
 20
1055.002046274187
 30
0.0
 11
466.1645654962565
 21
1031.002046274189
 31
0.0
  0
LINE
  5
226
  8
NOTE
  6
CONTINUOUS
 62
     4
 10
514.1645654962595
 20
1075.002046274186
 30
0.0
 11
466.1645654962565
 21
1031.002046274189
 31
0.0
  0
LINE
  5
227
  8
NOTE
  6
CONTINUOUS
 62
     4
 10
466.1645654962565
 20
1095.002046274189
 30
0.0
 11
402.1645654962563
 21
1095.002046274189
 31
0.0
  0
LINE
  5
228
  8
NOTE
  6
CONTINUOUS
 62
     4
 10
466.1645654962565
 20
1055.002046274187
 30
0.0
 11
402.1645654962563
 21
1055.002046274187
 31
0.0
  0
TEXT
  5
229
  8
NOTE
  6
CONTINUOUS
 62
     4
 10
340.8078756331827
 20
1140.319257665892
 30
0.0
 40
65.0
  1
空気吹出
 41
0.8
  0
LINE
  5
22A
  8
NOTE
  6
CONTINUOUS
 62
     4
 10
-412.5814440405153
 20
1095.002046274189
 30
0.0
 11
-412.5814440405153
 21
1055.002046274187
 31
0.0
  0
LINE
  5
22B
  8
NOTE
  6
CONTINUOUS
 62
     4
 10
-348.5814440405153
 20
1119.002046274186
 30
0.0
 11
-348.5814440405153
 21
1095.002046274189
 31
0.0
  0
LINE
  5
22C
  8
NOTE
  6
CONTINUOUS
 62
     4
 10
-300.5814440405117
 20
1075.002046274186
 30
0.0
 11
-348.5814440405153
 21
1119.002046274186
 31
0.0
  0
LINE
  5
22D
  8
NOTE
  6
CONTINUOUS
 62
     4
 10
-348.5814440405153
 20
1055.002046274187
 30
0.0
 11
-348.5814440405153
 21
1031.002046274189
 31
0.0
  0
LINE
  5
22E
  8
NOTE
  6
CONTINUOUS
 62
     4
 10
-300.5814440405117
 20
1075.002046274186
 30
0.0
 11
-348.5814440405153
 21
1031.002046274189
 31
0.0
  0
LINE
  5
22F
  8
NOTE
  6
CONTINUOUS
 62
     4
 10
-348.5814440405153
 20
1095.002046274189
 30
0.0
 11
-412.5814440405153
 21
1095.002046274189
 31
0.0
  0
LINE
  5
230
  8
NOTE
  6
CONTINUOUS
 62
     4
 10
-348.5814440405153
 20
1055.002046274187
 30
0.0
 11
-412.5814440405153
 21
1055.002046274187
 31
0.0
  0
TEXT
  5
231
  8
NOTE
  6
CONTINUOUS
 62
     4
 10
-473.9381339035896
 20
1140.319257665892
 30
0.0
 40
65.0
  1
空気吸込
 41
0.8
  0
LINE
  5
232
  8
NOTE
  6
CONTINUOUS
 62
     4
 10
-139.0000000000063
 20
566.0000000000014
 30
0.0
 11
-448.2918184382061
 21
888.8174285714316
 31
0.0
  0
LINE
  5
233
  8
NOTE
  6
CONTINUOUS
 62
     4
 10
-448.2918184382061
 20
888.8174285714316
 30
0.0
 11
-1007.44555208725
 21
888.8174285714316
 31
0.0
  0
LINE
  5
234
  8
NOTE
  6
CONTINUOUS
 62
     4
 10
-156.441881550025
 20
597.7605385551275
 30
0.0
 11
-139.0000000000075
 21
566.0000000000014
 31
0.0
  0
LINE
  5
235
  8
NOTE
  6
CONTINUOUS
 62
     4
 10
-139.0000000000075
 20
566.0000000000014
 30
0.0
 11
-169.9853817044684
 21
584.7844925921726
 31
0.0
  0
LINE
  5
237
  8
NOTE
  6
CONTINUOUS
 62
     4
 10
89.00000000000247
 20
133.0000000000004
 30
0.0
 11
372.5819451899895
 21
571.4851752646952
 31
0.0
  0
LINE
  5
238
  8
NOTE
  6
CONTINUOUS
 62
     4
 10
372.5819451899895
 20
571.4851752646952
 30
0.0
 11
837.5630737772545
 21
571.4851752646952
 31
0.0
  0
LINE
  5
239
  8
NOTE
  6
CONTINUOUS
 62
     4
 10
115.8818549064697
 20
157.296438383108
 30
0.0
 11
89.00000000000247
 21
133.0000000000004
 31
0.0
  0
LINE
  5
23A
  8
NOTE
  6
CONTINUOUS
 62
     4
 10
89.00000000000247
 20
133.0000000000004
 30
0.0
 11
100.1321502147277
 21
167.4822602639874
 31
0.0
  0
LINE
  5
23C
  8
NOTE
  6
CONTINUOUS
 62
     4
 10
-139.0000000000063
 20
516.0000000000014
 30
0.0
 11
-483.461261295349
 21
671.4065857142829
 31
0.0
  0
LINE
  5
23D
  8
NOTE
  6
CONTINUOUS
 62
     4
 10
-483.461261295349
 20
671.4065857142829
 30
0.0
 11
-1004.752498446599
 21
671.4065857142829
 31
0.0
  0
LINE
  5
23E
  8
NOTE
  6
CONTINUOUS
 62
     4
 10
-167.046684071701
 20
538.9419823445834
 30
0.0
 11
-139.0000000000075
 21
516.0000000000014
 31
0.0
  0
LINE
  5
23F
  8
NOTE
  6
CONTINUOUS
 62
     4
 10
-139.0000000000075
 20
516.0000000000014
 30
0.0
 11
-174.7601320437853
 21
521.8449976499636
 31
0.0
  0
LINE
  5
241
  8
NOTE
  6
CONTINUOUS
 62
     4
 10
105.0000142857166
 20
96.00000000000966
 30
0.0
 11
388.4236538133216
 21
342.3275959962824
 31
0.0
  0
LINE
  5
243
  8
NOTE
  6
CONTINUOUS
 62
     4
 10
137.5690748316176
 20
111.8810370087729
 30
0.0
 11
105.0000142857168
 21
96.00000000000156
 31
0.0
  0
LINE
  5
244
  8
NOTE
  6
CONTINUOUS
 62
     4
 10
105.0000142857168
 20
96.00000000000156
 30
0.0
 11
125.2651297277428
 21
126.0379116690554
 31
0.0
  0
LINE
  5
246
  8
NOTE
  6
CONTINUOUS
 62
     4
 10
78.00001428570954
 20
119.9999857142725
 30
0.0
 11
-652.4593784342333
 21
452.8833871938816
 31
0.0
  0
LINE
  5
248
  8
NOTE
  6
CONTINUOUS
 62
     4
 10
50.04029499392549
 20
143.047873653117
 30
0.0
 11
78.00001428570954
 21
119.9999857142806
 31
0.0
  0
LINE
  5
249
  8
NOTE
  6
CONTINUOUS
 62
     4
 10
78.00001428570954
 20
119.9999857142806
 30
0.0
 11
42.26224315405372
 21
125.9801826891235
 31
0.0
  0
LINE
  5
2B8
  8
OUTLINE
  6
CONTINUOUS
 62
     3
 10
210.0000190520418
 20
1280.000000000002
 30
0.0
 11
-210.000000000003
 21
1280.000000000002
 31
0.0
  0
LINE
  5
3A3
  8
OUTLINE
  6
CONTINUOUS
 62
     3
 10
207.7999999999995
 20
53.00000000000136
 30
0.0
 11
207.7999999999995
 21
1239.999999999998
 31
0.0
  0
TEXT
  5
55E
  8
NOTE
  6
CONTINUOUS
 62
     4
 10
402.8514767472974
 20
366.8923444559135
 30
0.0
 40
65.0
  1
RL φ9.52
 41
0.8
  0
TEXT
  5
55F
  8
NOTE
  6
CONTINUOUS
 62
     4
 10
-1083.861203821175
 20
477.4481356535124
 30
0.0
 40
65.0
  1
RG φ22.22
 41
0.8
  0
LINE
  5
560
  8
NOTE
  6
CONTINUOUS
 62
     4
 10
771.7376785531883
 20
342.3275959962824
 30
0.0
 11
388.4236538133216
 21
342.3275959962824
 31
0.0
  0
LINE
  5
561
  8
NOTE
  6
CONTINUOUS
 62
     4
 10
-652.459378434233
 20
452.8833871938816
 30
0.0
 11
-1092.752588572705
 21
452.8833871938816
 31
0.0
  0
LINE
  5
5E1
  8
DETAIL
  6
CONTINUOUS
 62
     5
 10
254.9999999999948
 20
2.29999999999427
 30
0.0
 11
254.9999999999948
 21
-0.0000000000068283
 31
0.0
  0
LINE
  5
5E2
  8
DETAIL
  6
CONTINUOUS
 62
     5
 10
254.9999999999948
 20
-0.0000000000068283
 30
0.0
 11
156.4999999999909
 21
-0.0000000000068283
 31
0.0
  0
LINE
  5
5E3
  8
DETAIL
  6
CONTINUOUS
 62
     5
 10
156.4999999999909
 20
2.299999999989488
 30
0.0
 11
254.9999999999948
 21
2.29999999999427
 31
0.0
  0
LINE
  5
5E4
  8
DETAIL
  6
CONTINUOUS
 62
     5
 10
-255.0000000000052
 20
2.29999999999427
 30
0.0
 11
-255.0000000000052
 21
-0.0000000000068283
 31
0.0
  0
LINE
  5
5E5
  8
DETAIL
  6
CONTINUOUS
 62
     5
 10
-158.5000000000072
 20
-0.0000000000104592
 30
0.0
 11
-255.0000000000052
 21
-0.0000000000068283
 31
0.0
  0
LINE
  5
5E6
  8
DETAIL
  6
CONTINUOUS
 62
     5
 10
-158.5000000000072
 20
2.29999999999427
 30
0.0
 11
-255.0000000000052
 21
2.29999999999427
 31
0.0
  0
LINE
  5
5E7
  8
SIZE
  6
CONTINUOUS
 62
    30
 10
-197.297218842835
 20
565.9999999999931
 30
0.0
 11
-498.1770118497742
 21
565.9999999999931
 31
0.0
  0
LINE
  5
5E8
  8
SIZE
  6
CONTINUOUS
 62
    30
 10
-288.2401901417329
 20
-0.0000000000068283
 30
0.0
 11
-498.1770118497742
 21
-0.0000000000068283
 31
0.0
  0
LINE
  5
5E9
  8
SIZE
  6
CONTINUOUS
 62
    30
 10
-483.1770118497742
 20
545.9999999999931
 30
0.0
 11
-483.1770118497742
 21
19.99999999999317
 31
0.0
  0
CIRCLE
  5
5EA
  8
SIZE
  6
CONTINUOUS
 62
    30
 10
-483.1770118497742
 20
565.9999999999931
 30
0.0
 40
10.0
  0
LINE
  5
5EB
  8
SIZE
  6
CONTINUOUS
 62
    30
 10
-483.1770118497742
 20
555.9999999999931
 30
0.0
 11
-483.1770118497742
 21
545.9999999999931
 31
0.0
  0
CIRCLE
  5
5EC
  8
SIZE
  6
CONTINUOUS
 62
    30
 10
-483.1770118497742
 20
-0.0000000000068283
 30
0.0
 40
10.0
  0
LINE
  5
5ED
  8
SIZE
  6
CONTINUOUS
 62
    30
 10
-483.1770118497742
 20
9.999999999993172
 30
0.0
 11
-483.1770118497742
 21
19.99999999999317
 31
0.0
  0
TEXT
  5
5EE
  8
SIZE
  6
CONTINUOUS
 62
    30
 10
-497.3186196100732
 20
205.6756714285676
 30
0.0
 40
60.0
  1
566
 50
90.0
 41
0.9
 72
     1
 11
-497.3186196100732
 21
282.8185285714248
 31
0.0
  0
POINT
  5
5EF
  8
DEFPOINTS
  6
CONTINUOUS
 62
     7
 10
-211.0000000000073
 20
-0.0000000000068283
 30
0.0
 50
180.0
  0
POINT
  5
5F0
  8
DEFPOINTS
  6
CONTINUOUS
 62
     7
 10
-483.1770118497742
 20
-0.0000000000068283
 30
0.0
 50
180.0
  0
LINE
  5
5F1
  8
SIZE
  6
CONTINUOUS
 62
    30
 10
-288.2401901417329
 20
-0.0000000000068283
 30
0.0
 11
-382.8455142857231
 21
-0.0000000000068283
 31
0.0
  0
LINE
  5
5F2
  8
SIZE
  6
CONTINUOUS
 62
    30
 10
-197.297218842835
 20
515.999999999993
 30
0.0
 11
-382.8455142857235
 21
515.999999999993
 31
0.0
  0
LINE
  5
5F3
  8
SIZE
  6
CONTINUOUS
 62
    30
 10
-367.8455142857231
 20
19.99999999999317
 30
0.0
 11
-367.8455142857235
 21
495.9999999999931
 31
0.0
  0
CIRCLE
  5
5F4
  8
SIZE
  6
CONTINUOUS
 62
    30
 10
-367.8455142857231
 20
-0.0000000000068283
 30
0.0
 40
10.0
  0
LINE
  5
5F5
  8
SIZE
  6
CONTINUOUS
 62
    30
 10
-367.8455142857231
 20
9.999999999993172
 30
0.0
 11
-367.8455142857231
 21
19.99999999999317
 31
0.0
  0
CIRCLE
  5
5F6
  8
SIZE
  6
CONTINUOUS
 62
    30
 10
-367.8455142857235
 20
515.999999999993
 30
0.0
 40
10.0
  0
LINE
  5
5F7
  8
SIZE
  6
CONTINUOUS
 62
    30
 10
-367.8455142857235
 20
505.9999999999931
 30
0.0
 11
-367.8455142857235
 21
495.9999999999931
 31
0.0
  0
TEXT
  5
5F8
  8
SIZE
  6
CONTINUOUS
 62
    30
 10
-381.987122046022
 20
180.6756714285676
 30
0.0
 40
60.0
  1
516
 50
90.0
 41
0.9
 72
     1
 11
-381.987122046022
 21
257.8185285714248
 31
0.0
  0
POINT
  5
5F9
  8
DEFPOINTS
  6
CONTINUOUS
 62
     7
 10
-211.0000000000073
 20
-0.0000000000068283
 30
0.0
 50
180.0
  0
POINT
  5
5FA
  8
DEFPOINTS
  6
CONTINUOUS
 62
     7
 10
-367.8455142857235
 20
515.999999999993
 30
0.0
 50
180.0
  0
LINE
  5
5FB
  8
NOTE
  6
CONTINUOUS
 62
     4
 10
187.9999999999947
 20
-38.29721884283892
 30
0.0
 11
187.9999999999947
 21
38.29721884280888
 31
0.0
  0
CIRCLE
  5
5FC
  8
FIX
  6
CONTINUOUS
 62
    11
 10
187.9999999999947
 20
-0.0000000000068283
 30
0.0
 40
20.0
  0
LINE
  5
5FD
  8
NOTE
  6
CONTINUOUS
 62
     4
 10
-188.0000000000052
 20
-38.29721884283892
 30
0.0
 11
-188.0000000000052
 21
38.29721884280888
 31
0.0
  0
LINE
  5
5FE
  8
NOTE
  6
CONTINUOUS
 62
     4
 10
-149.7027811571804
 20
-0.0000000000068283
 30
0.0
 11
-226.2972188428305
 21
-0.0000000000068283
 31
0.0
  0
CIRCLE
  5
5FF
  8
FIX
  6
CONTINUOUS
 62
    11
 10
-188.0000000000052
 20
-0.0000000000068283
 30
0.0
 40
20.0
  0
LINE
  5
600
  8
SIZE
  6
CONTINUOUS
 62
    30
 10
254.9999999999948
 20
-20.00000000000683
 30
0.0
 11
254.9999999999948
 21
-889.6817870656913
 31
0.0
  0
LINE
  5
601
  8
SIZE
  6
CONTINUOUS
 62
    30
 10
187.9999999999947
 20
-58.29721884283891
 30
0.0
 11
187.9999999999947
 21
-793.3914670325055
 31
0.0
  0
LINE
  5
602
  8
SIZE
  6
CONTINUOUS
 62
    30
 10
167.9999999999948
 20
-778.1677303371347
 30
0.0
 11
147.9999999999948
 21
-778.1677303371347
 31
0.0
  0
LINE
  5
603
  8
SIZE
  6
CONTINUOUS
 62
    30
 10
274.9999999999948
 20
-778.1677303371347
 30
0.0
 11
400.4469999999949
 21
-778.1677303371347
 31
0.0
  0
LINE
  5
604
  8
SIZE
  6
CONTINUOUS
 62
    30
 10
187.9999999999947
 20
-778.1677303371347
 30
0.0
 11
254.9999999999948
 21
-778.1677303371347
 31
0.0
  0
CIRCLE
  5
605
  8
SIZE
  6
CONTINUOUS
 62
    30
 10
187.9999999999947
 20
-778.1677303371347
 30
0.0
 40
10.0
  0
LINE
  5
606
  8
SIZE
  6
CONTINUOUS
 62
    30
 10
177.9999999999948
 20
-778.1677303371347
 30
0.0
 11
167.9999999999948
 21
-778.1677303371347
 31
0.0
  0
CIRCLE
  5
607
  8
SIZE
  6
CONTINUOUS
 62
    30
 10
254.9999999999948
 20
-778.1677303371347
 30
0.0
 40
10.0
  0
LINE
  5
608
  8
SIZE
  6
CONTINUOUS
 62
    30
 10
264.9999999999948
 20
-778.1677303371347
 30
0.0
 11
274.9999999999948
 21
-778.1677303371347
 31
0.0
  0
TEXT
  5
609
  8
SIZE
  6
CONTINUOUS
 62
    30
 10
285.0092142857085
 20
-763.1677303371347
 30
0.0
 40
60.0
  1
67
 41
0.9
 72
     1
 11
337.7234999999943
 21
-763.1677303371347
 31
0.0
  0
POINT
  5
60A
  8
DEFPOINTS
  6
CONTINUOUS
 62
     7
 10
186.9999999999968
 20
-38.29721884283892
 30
0.0
 50
180.0
  0
POINT
  5
60B
  8
DEFPOINTS
  6
CONTINUOUS
 62
     7
 10
187.9999999999947
 20
-778.1677303371347
 30
0.0
 50
180.0
  0
LINE
  5
60C
  8
SIZE
  6
CONTINUOUS
 62
    30
 10
187.9999999999947
 20
-58.29721884283891
 30
0.0
 11
187.9999999999947
 21
-793.3914670325055
 31
0.0
  0
LINE
  5
60D
  8
SIZE
  6
CONTINUOUS
 62
    30
 10
-188.0000000000052
 20
-58.29721884283891
 30
0.0
 11
-188.0000000000052
 21
-793.3573911268131
 31
0.0
  0
LINE
  5
60E
  8
SIZE
  6
CONTINUOUS
 62
    30
 10
167.9999999999948
 20
-778.1677303371347
 30
0.0
 11
-168.0000000000052
 21
-778.1677303371347
 31
0.0
  0
CIRCLE
  5
60F
  8
SIZE
  6
CONTINUOUS
 62
    30
 10
187.9999999999947
 20
-778.1677303371347
 30
0.0
 40
10.0
  0
LINE
  5
610
  8
SIZE
  6
CONTINUOUS
 62
    30
 10
177.9999999999948
 20
-778.1677303371347
 30
0.0
 11
167.9999999999948
 21
-778.1677303371347
 31
0.0
  0
CIRCLE
  5
611
  8
SIZE
  6
CONTINUOUS
 62
    30
 10
-188.0000000000052
 20
-778.1677303371347
 30
0.0
 40
10.0
  0
LINE
  5
612
  8
SIZE
  6
CONTINUOUS
 62
    30
 10
-178.0000000000052
 20
-778.1677303371347
 30
0.0
 11
-168.0000000000052
 21
-778.1677303371347
 31
0.0
  0
TEXT
  5
613
  8
SIZE
  6
CONTINUOUS
 62
    30
 10
-77.14285714286238
 20
-763.1677303371347
 30
0.0
 40
60.0
  1
376
 41
0.9
 72
     1
 11
-0.0000000000052296
 21
-763.1677303371347
 31
0.0
  0
POINT
  5
614
  8
DEFPOINTS
  6
CONTINUOUS
 62
     7
 10
186.9999999999968
 20
-38.29721884283892
 30
0.0
 50
180.0
  0
POINT
  5
615
  8
DEFPOINTS
  6
CONTINUOUS
 62
     7
 10
-189.0000000000032
 20
-38.29721884283892
 30
0.0
 50
180.0
  0
POINT
  5
616
  8
DEFPOINTS
  6
CONTINUOUS
 62
     7
 10
-188.0000000000052
 20
-778.1677303371347
 30
0.0
 50
180.0
  0
POINT
  5
617
  8
DEFPOINTS
  6
CONTINUOUS
 62
     7
 10
208.9999999999929
 20
-0.0000000000068283
 30
0.0
 50
180.0
  0
POINT
  5
618
  8
DEFPOINTS
  6
CONTINUOUS
 62
     7
 10
208.9999999999929
 20
-0.0000000000068283
 30
0.0
 50
180.0
  0
TEXT
  5
619
  8
NOTE
  6
CONTINUOUS
 62
     4
 10
-1016.516059465698
 20
-791.1092703505897
 30
0.0
 40
65.0
  1
AH 4-15×28長穴
 41
0.8
  0
TEXT
  5
61A
  8
NOTE
  6
CONTINUOUS
 62
     4
 10
-818.1048658374372
 20
-869.3164741967743
 30
0.0
 40
65.0
  1
<M12ボルト>
 41
0.8
  0
TEXT
  5
61B
  8
NOTE
  6
CONTINUOUS
 62
     4
 10
-1020.206218788081
 20
-584.9499137244779
 30
0.0
 40
65.0
  1
AH 4-15×28長穴
 41
0.8
  0
TEXT
  5
61C
  8
NOTE
  6
CONTINUOUS
 62
     4
 10
-829.9480976106964
 20
-663.1571175706626
 30
0.0
 40
65.0
  1
<M12ボルト>
 41
0.8
  0
LINE
  5
61D
  8
NOTE
  6
CONTINUOUS
 62
     4
 10
-1120.309126932637
 20
-698.9308169651817
 30
0.0
 11
-341.818829729151
 21
-698.9308169651817
 31
0.0
  0
POINT
  5
61E
  8
DEFPOINTS
  6
CONTINUOUS
 62
     7
 10
208.9999999999929
 20
-0.0000000000068283
 30
0.0
 50
180.0
  0
LINE
  5
61F
  8
OUTLINE
  6
CONTINUOUS
 62
     3
 10
254.9999999999948
 20
2.29999999999427
 30
0.0
 11
254.9999999999948
 21
-0.0000000000068283
 31
0.0
  0
LINE
  5
620
  8
OUTLINE
  6
CONTINUOUS
 62
     3
 10
254.9999999999948
 20
-0.0000000000068283
 30
0.0
 11
156.4999999999909
 21
-0.0000000000068283
 31
0.0
  0
LINE
  5
621
  8
OUTLINE
  6
CONTINUOUS
 62
     3
 10
178.999999999995
 20
2.29999999999427
 30
0.0
 11
254.9999999999948
 21
2.29999999999427
 31
0.0
  0
LINE
  5
622
  8
OUTLINE
  6
CONTINUOUS
 62
     3
 10
-255.0000000000052
 20
2.29999999999427
 30
0.0
 11
-255.0000000000052
 21
-0.0000000000068283
 31
0.0
  0
LINE
  5
623
  8
OUTLINE
  6
CONTINUOUS
 62
     3
 10
-158.5000000000072
 20
-0.0000000000104592
 30
0.0
 11
-255.0000000000052
 21
-0.0000000000068283
 31
0.0
  0
LINE
  5
624
  8
OUTLINE
  6
CONTINUOUS
 62
     3
 10
-255.0000000000052
 20
2.29999999999427
 30
0.0
 11
-181.0000000000103
 21
2.29999999999427
 31
0.0
  0
LINE
  5
625
  8
NOTE
  6
CONTINUOUS
 62
     4
 10
-188.0000000000052
 20
-0.0000000000150138
 30
0.0
 11
-382.7843146115135
 21
-885.0721357271364
 31
0.0
210
0.0
220
0.0
230
-1.0
  0
LINE
  5
626
  8
NOTE
  6
CONTINUOUS
 62
     4
 10
-382.7843146115135
 20
-885.0721357271364
 30
0.0
 11
-1114.038554968288
 21
-885.0721357271364
 31
0.0
210
0.0
220
0.0
230
-1.0
  0
LINE
  5
627
  8
NOTE
  6
CONTINUOUS
 62
     4
 10
-207.3831964086181
 20
-30.61442043061743
 30
0.0
 11
-188.0000000000052
 21
-0.0000000000150138
 31
0.0
210
0.0
220
0.0
230
-1.0
  0
LINE
  5
628
  8
NOTE
  6
CONTINUOUS
 62
     4
 10
-188.0000000000052
 20
-0.0000000000150138
 30
0.0
 11
-189.479130445348
 21
-36.20446401265008
 31
0.0
210
0.0
220
0.0
230
-1.0
  0
LINE
  5
629
  8
NOTE
  6
CONTINUOUS
 62
     4
 10
-236.0000000000052
 20
-38.29721884283892
 30
0.0
 11
-236.0000000000052
 21
38.29721884280888
 31
0.0
  0
LINE
  5
62A
  8
NOTE
  6
CONTINUOUS
 62
     4
 10
-197.7027811571804
 20
-0.0000000000068283
 30
0.0
 11
-274.29721884283
 21
-0.0000000000068283
 31
0.0
  0
LINE
  5
62B
  8
NOTE
  6
CONTINUOUS
 62
     4
 10
235.9999999999948
 20
-38.29721884283892
 30
0.0
 11
235.9999999999948
 21
38.29721884280888
 31
0.0
  0
LINE
  5
62C
  8
NOTE
  6
CONTINUOUS
 62
     4
 10
274.2972188428195
 20
-0.0000000000068283
 30
0.0
 11
197.70278115717
 21
-0.0000000000068283
 31
0.0
  0
CIRCLE
  5
62D
  8
FIX
  6
CONTINUOUS
 62
    11
 10
235.9999999999948
 20
-0.0000000000068283
 30
0.0
 40
20.0
  0
CIRCLE
  5
62E
  8
FIX
  6
CONTINUOUS
 62
    11
 10
-236.0000000000052
 20
-0.0000000000068283
 30
0.0
 40
20.0
  0
TEXT
  5
62F
  8
NOTE
  6
CONTINUOUS
 62
     4
 10
-1018.282460956557
 20
-381.8226595407039
 30
0.0
 40
65.0
  1
AH 4-15×22長穴
 41
0.8
  0
TEXT
  5
630
  8
NOTE
  6
CONTINUOUS
 62
     4
 10
-819.8712673282959
 20
-460.0298633868881
 30
0.0
 40
65.0
  1
<M12ボルト>
 41
0.8
  0
TEXT
  5
631
  8
NOTE
  6
CONTINUOUS
 62
     4
 10
-1021.972620278939
 20
-175.6633029145918
 30
0.0
 40
65.0
  1
AH 4-15×22長穴
 41
0.8
  0
TEXT
  5
632
  8
NOTE
  6
CONTINUOUS
 62
     4
 10
-831.7144991015551
 20
-253.8705067607766
 30
0.0
 40
65.0
  1
<M12ボルト>
 41
0.8
  0
LINE
  5
633
  8
NOTE
  6
CONTINUOUS
 62
     4
 10
-1122.075528423496
 20
-289.6442061552958
 30
0.0
 11
-326.433298168866
 21
-289.6442061552958
 31
0.0
  0
LINE
  5
634
  8
NOTE
  6
CONTINUOUS
 62
     4
 10
-236.0000000000052
 20
-0.0000000000150138
 30
0.0
 11
-384.5507161023721
 21
-475.78552491725
 31
0.0
210
0.0
220
0.0
230
-1.0
  0
LINE
  5
635
  8
NOTE
  6
CONTINUOUS
 62
     4
 10
-384.5507161023721
 20
-475.78552491725
 30
0.0
 11
-1115.804956459145
 21
-475.78552491725
 31
0.0
210
0.0
220
0.0
230
-1.0
  0
LINE
  5
636
  8
NOTE
  6
CONTINUOUS
 62
     4
 10
-255.3831964086181
 20
-30.61442043061743
 30
0.0
 11
-236.0000000000052
 21
-0.0000000000150138
 31
0.0
210
0.0
220
0.0
230
-1.0
  0
LINE
  5
637
  8
NOTE
  6
CONTINUOUS
 62
     4
 10
-236.0000000000052
 20
-0.0000000000150138
 30
0.0
 11
-237.4791304453481
 21
-36.20446401265008
 31
0.0
210
0.0
220
0.0
230
-1.0
  0
LINE
  5
638
  8
SIZE
  6
CONTINUOUS
 62
    30
 10
-236.0000000000052
 20
-58.29721884283891
 30
0.0
 11
-236.0000000000052
 21
-889.1686605390705
 31
0.0
  0
LINE
  5
639
  8
SIZE
  6
CONTINUOUS
 62
    30
 10
235.9999999999948
 20
-58.29721884283891
 30
0.0
 11
235.9999999999948
 21
-889.6817870656913
 31
0.0
  0
LINE
  5
63A
  8
SIZE
  6
CONTINUOUS
 62
    30
 10
-216.0000000000052
 20
-874.5503779017712
 30
0.0
 11
215.9999999999948
 21
-874.5503779017712
 31
0.0
  0
LINE
  5
63B
  8
SIZE
  6
CONTINUOUS
 62
    30
 10
235.9999999999948
 20
-58.29721884283891
 30
0.0
 11
235.9999999999948
 21
-889.6817870656913
 31
0.0
  0
LINE
  5
63C
  8
SIZE
  6
CONTINUOUS
 62
    30
 10
254.9999999999948
 20
-20.00000000000683
 30
0.0
 11
254.9999999999948
 21
-793.3914670325055
 31
0.0
  0
LINE
  5
63D
  8
SIZE
  6
CONTINUOUS
 62
    30
 10
215.9999999999948
 20
-874.5503779017712
 30
0.0
 11
195.9999999999948
 21
-874.5503779017712
 31
0.0
  0
LINE
  5
63E
  8
SIZE
  6
CONTINUOUS
 62
    30
 10
274.9999999999948
 20
-874.5503779017712
 30
0.0
 11
400.4470294778799
 21
-874.5503779017712
 31
0.0
  0
LINE
  5
63F
  8
SIZE
  6
CONTINUOUS
 62
    30
 10
235.9999999999948
 20
-874.5503779017712
 30
0.0
 11
254.9999999999948
 21
-874.5503779017712
 31
0.0
  0
TEXT
  5
640
  8
SIZE
  6
CONTINUOUS
 62
    30
 10
283.7235147389377
 20
-862.0028145197724
 30
0.0
 40
60.0
  1
19
 41
0.9
 72
     1
 11
337.7235147389377
 21
-862.0028145197724
 31
0.0
  0
CIRCLE
  5
641
  8
SIZE
  6
CONTINUOUS
 62
    30
 10
254.9999999999948
 20
-874.5503779017712
 30
0.0
 40
10.0
  0
LINE
  5
642
  8
SIZE
  6
CONTINUOUS
 62
    30
 10
264.9999999999948
 20
-874.5503779017712
 30
0.0
 11
274.9999999999948
 21
-874.5503779017712
 31
0.0
  0
CIRCLE
  5
643
  8
SIZE
  6
CONTINUOUS
 62
    30
 10
235.9999999999948
 20
-874.5503779017712
 30
0.0
 40
10.0
  0
LINE
  5
644
  8
SIZE
  6
CONTINUOUS
 62
    30
 10
225.9999999999948
 20
-874.5503779017712
 30
0.0
 11
215.9999999999948
 21
-874.5503779017712
 31
0.0
  0
TEXT
  5
645
  8
SIZE
  6
CONTINUOUS
 62
    30
 10
-77.14285714286216
 20
-862.0028145197724
 30
0.0
 40
60.0
  1
472
 41
0.9
 72
     1
 11
-0.0000000000050022
 21
-862.0028145197724
 31
0.0
  0
CIRCLE
  5
646
  8
SIZE
  6
CONTINUOUS
 62
    30
 10
235.9999999999948
 20
-874.5503779017712
 30
0.0
 40
10.0
  0
LINE
  5
647
  8
SIZE
  6
CONTINUOUS
 62
    30
 10
225.9999999999948
 20
-874.5503779017712
 30
0.0
 11
215.9999999999948
 21
-874.5503779017712
 31
0.0
  0
CIRCLE
  5
648
  8
SIZE
  6
CONTINUOUS
 62
    30
 10
-236.0000000000052
 20
-874.5503779017712
 30
0.0
 40
10.0
  0
LINE
  5
649
  8
SIZE
  6
CONTINUOUS
 62
    30
 10
-226.0000000000052
 20
-874.5503779017712
 30
0.0
 11
-216.0000000000052
 21
-874.5503779017712
 31
0.0
  0
ENDSEC
  0
EOF
