  0
SECTION
  2
HEADER
  9
$ACADVER
  1
AC1009
  9
$INSBASE
 10
0.0
 20
0.0
 30
0.0
  9
$EXTMIN
 10
-1369.641302274536
 20
-1437.073673451072
 30
-0.0000000000112498
  9
$EXTMAX
 10
1716.1649503443409
 20
1703.872841304204
 30
0.0000000000002956
  9
$LIMMIN
 10
-4267.1522210604817
 20
-2696.0832101984129
  9
$LIMMAX
 10
7190.7174225864646
 20
5141.155363923066
  9
$ORTHOMODE
 70
     1
  9
$REGENMODE
 70
     1
  9
$FILLMODE
 70
     1
  9
$QTEXTMODE
 70
     0
  9
$MIRRTEXT
 70
     0
  9
$DRAGMODE
 70
     2
  9
$LTSCALE
 40
20.0
  9
$OSMODE
 70
   431
  9
$ATTMODE
 70
     1
  9
$TEXTSIZE
 40
60.0
  9
$TRACEWID
 40
0.05
  9
$TEXTSTYLE
  7
STANDARD1
  9
$CLAYER
  8
SYMBOLLINE
  9
$CELTYPE
  6
CONTINUOUS
  9
$CECOLOR
 62
     7
  9
$DIMSCALE
 40
1.0
  9
$DIMASZ
 40
30.0
  9
$DIMEXO
 40
20.0
  9
$DIMDLI
 40
80.0
  9
$DIMRND
 40
0.0
  9
$DIMDLE
 40
0.0
  9
$DIMEXE
 40
20.0
  9
$DIMTP
 40
0.0
  9
$DIMTM
 40
0.0
  9
$DIMTXT
 40
40.0
  9
$DIMCEN
 40
0.09
  9
$DIMTSZ
 40
0.0
  9
$DIMTOL
 70
     0
  9
$DIMLIM
 70
     0
  9
$DIMTIH
 70
     0
  9
$DIMTOH
 70
     0
  9
$DIMSE1
 70
     0
  9
$DIMSE2
 70
     0
  9
$DIMTAD
 70
     1
  9
$DIMZIN
 70
     8
  9
$DIMBLK
  1
SMALL
  9
$DIMASO
 70
     1
  9
$DIMSHO
 70
     0
  9
$DIMPOST
  1

  9
$DIMAPOST
  1

  9
$DIMALT
 70
     0
  9
$DIMALTD
 70
     2
  9
$DIMALTF
 40
25.399999999999999
  9
$DIMLFAC
 40
1.0
  9
$DIMTOFL
 70
     1
  9
$DIMTVP
 40
0.0
  9
$DIMTIX
 70
     0
  9
$DIMSOXD
 70
     0
  9
$DIMSAH
 70
     0
  9
$DIMBLK1
  1

  9
$DIMBLK2
  1

  9
$DIMSTYLE
  2
STANDARD
  9
$DIMCLRD
 70
     0
  9
$DIMCLRE
 70
     0
  9
$DIMCLRT
 70
     0
  9
$DIMTFAC
 40
1.0
  9
$DIMGAP
 40
0.09
  9
$LUNITS
 70
     2
  9
$LUPREC
 70
     4
  9
$SKETCHINC
 40
0.1
  9
$FILLETRAD
 40
0.0
  9
$AUNITS
 70
     1
  9
$AUPREC
 70
     3
  9
$MENU
  1
ACAD
  9
$ELEVATION
 40
0.0
  9
$PELEVATION
 40
0.0
  9
$THICKNESS
 40
0.0
  9
$LIMCHECK
 70
     0
  9
$BLIPMODE
 70
     0
  9
$CHAMFERA
 40
0.0
  9
$CHAMFERB
 40
0.0
  9
$SKPOLY
 70
     0
  9
$TDCREATE
 40
2455902.6071690628
  9
$TDUPDATE
 40
2457061.6197689818
  9
$TDINDWG
 40
1.6519075579
  9
$TDUSRTIMER
 40
1.6519038657
  9
$USRTIMER
 70
     1
  9
$ANGBASE
 50
0.0
  9
$ANGDIR
 70
     0
  9
$PDMODE
 70
     3
  9
$PDSIZE
 40
-2.0
  9
$PLINEWID
 40
0.0
  9
$COORDS
 70
     1
  9
$SPLFRAME
 70
     0
  9
$SPLINETYPE
 70
     6
  9
$SPLINESEGS
 70
     8
  9
$ATTDIA
 70
     1
  9
$ATTREQ
 70
     1
  9
$HANDLING
 70
     1
  9
$HANDSEED
  5
63D
  9
$SURFTAB1
 70
     6
  9
$SURFTAB2
 70
     6
  9
$SURFTYPE
 70
     6
  9
$SURFU
 70
     6
  9
$SURFV
 70
     6
  9
$UCSNAME
  2

  9
$UCSORG
 10
0.0
 20
0.0
 30
0.0
  9
$UCSXDIR
 10
1.0
 20
0.0
 30
0.0
  9
$UCSYDIR
 10
0.0
 20
1.0
 30
0.0
  9
$PUCSNAME
  2

  9
$PUCSORG
 10
0.0
 20
0.0
 30
0.0
  9
$PUCSXDIR
 10
1.0
 20
0.0
 30
0.0
  9
$PUCSYDIR
 10
0.0
 20
1.0
 30
0.0
  9
$USERI1
 70
     0
  9
$USERI2
 70
     0
  9
$USERI3
 70
     0
  9
$USERI4
 70
     0
  9
$USERI5
 70
     0
  9
$USERR1
 40
20.0
  9
$USERR2
 40
0.0
  9
$USERR3
 40
0.0
  9
$USERR4
 40
0.0
  9
$USERR5
 40
0.0
  9
$WORLDVIEW
 70
     1
  9
$SHADEDGE
 70
     3
  9
$SHADEDIF
 70
    70
  9
$TILEMODE
 70
     1
  9
$MAXACTVP
 70
    64
  9
$PLIMCHECK
 70
     0
  9
$PEXTMIN
 10
1.0000000000000000E+020
 20
1.0000000000000000E+020
 30
1.0000000000000000E+020
  9
$PEXTMAX
 10
-1.0000000000000000E+020
 20
-1.0000000000000000E+020
 30
-1.0000000000000000E+020
  9
$PLIMMIN
 10
0.0
 20
0.0
  9
$PLIMMAX
 10
12.0
 20
9.0
  9
$UNITMODE
 70
     0
  9
$VISRETAIN
 70
     1
  9
$PLINEGEN
 70
     0
  9
$PSLTSCALE
 70
     1
  0
ENDSEC
  0
SECTION
  2
TABLES
  0
TABLE
  2
VPORT
 70
     1
  0
VPORT
  2
*ACTIVE
 70
     0
 10
0.0
 20
0.0
 11
1.0
 21
1.0
 12
173.26182403490211
 22
133.39958392656629
 13
0.0
 23
0.0
 14
50.0
 24
50.0
 15
100.0
 25
100.0
 16
0.0
 26
0.0
 36
1.0
 17
0.0
 27
0.0
 37
0.0
 40
3165.6136339811042
 41
1.6159895150720831
 42
50.0
 43
0.0
 44
0.0
 50
0.0
 51
0.0
 71
     0
 72
  1000
 73
     1
 74
     0
 75
     0
 76
     0
 77
     0
 78
     0
  0
ENDTAB
  0
TABLE
  2
LTYPE
 70
     4
  0
LTYPE
  2
CONTINUOUS
 70
     0
  3
実線
 72
    65
 73
     0
 40
0.0
  0
LTYPE
  2
DASHDOT
 70
     0
  3
____ _ ____ _ ____ _ ____ _ ____ _ ____ _ ____
 72
    65
 73
     4
 40
5.5
 49
4.0
 49
-0.6
 49
0.3
 49
-0.6
  0
ENDTAB
  0
TABLE
  2
LAYER
 70
    12
  0
LAYER
  2
0
 70
     0
 62
     7
  6
CONTINUOUS
  0
LAYER
  2
SYMBOLLINE
 70
     0
 62
    15
  6
CONTINUOUS
  0
LAYER
  2
NOTE
 70
     0
 62
     4
  6
CONTINUOUS
  0
LAYER
  2
OUTLINE
 70
     0
 62
     3
  6
CONTINUOUS
  0
LAYER
  2
DETAIL
 70
     0
 62
     5
  6
CONTINUOUS
  0
LAYER
  2
BASIS
 70
     0
 62
     6
  6
DASHDOT
  0
LAYER
  2
SIZE
 70
     0
 62
    30
  6
CONTINUOUS
  0
LAYER
  2
ARRANGE
 70
     0
 62
     1
  6
CONTINUOUS
  0
LAYER
  2
FIX
 70
     0
 62
    11
  6
CONTINUOUS
  0
LAYER
  2
SERVICESPACE
 70
     0
 62
     2
  6
DASHDOT
  0
LAYER
  2
ETC
 70
     0
 62
    61
  6
CONTINUOUS
  0
LAYER
  2
DEFPOINTS
 70
     0
 62
     7
  6
CONTINUOUS
  0
ENDTAB
  0
TABLE
  2
STYLE
 70
     4
  0
STYLE
  2
STANDARD
 70
     0
 40
0.0
 41
0.9
 50
0.0
 71
     0
 42
64.0
  3
SIMPLEX
  4
BIGFONT
  0
STYLE
  2
ANNOTATIVE
 70
     0
 40
0.0
 41
1.0
 50
0.0
 71
     0
 42
0.2
  3
txt
  4

  0
STYLE
  2
STANDARD1
 70
     0
 40
60.0
 41
0.7
 50
0.0
 71
     0
 42
60.0
  3
MONOTXT.shx
  4
BIGFONT.shx
  0
STYLE
  2
STANDARD_MODELNAME
 70
     0
 40
80.0
 41
0.8
 50
0.0
 71
     0
 42
64.0
  3
MONOTXT.shx
  4
BIGFONT.shx
  0
ENDTAB
  0
TABLE
  2
VIEW
 70
     1
  0
VIEW
  2
ALL
 70
     0
 40
9000.0
 10
241.50664699999999
 20
0.0
 41
12483.01
 11
0.0
 21
0.0
 31
1.0
 12
0.0
 22
0.0
 32
0.0
 42
50.0
 43
0.0
 44
0.0
 50
0.0
 71
     0
  0
ENDTAB
  0
TABLE
  2
UCS
 70
     0
  0
ENDTAB
  0
TABLE
  2
APPID
 70
     5
  0
APPID
  2
ACAD
 70
     0
  0
APPID
  2
ACADANNOTATIVE
 70
     0
  0
APPID
  2
ACAD_NAV_VCDISPLAY
 70
     0
  0
APPID
  2
ACAD_EXEMPT_FROM_CAD_STANDARDS
 70
     0
  0
APPID
  2
ACAD_MLEADERVER
 70
     0
  0
ENDTAB
  0
TABLE
  2
DIMSTYLE
 70
     3
  0
DIMSTYLE
  2
STANDARD
 70
     0
  3

  4

  5

  6

  7

 40
1.0
 41
0.18
 42
0.0625
 43
0.38
 44
0.18
 45
0.0
 46
0.0
 47
0.0
 48
0.0
140
0.18
141
0.09
142
0.0
143
25.399999999999999
144
1.0
145
0.0
146
1.0
147
0.09
 71
     0
 72
     0
 73
     1
 74
     1
 75
     0
 76
     0
 77
     0
 78
     0
170
     0
171
     2
172
     0
173
     0
174
     0
175
     0
176
     0
177
     0
178
     0
  0
DIMSTYLE
  2
ANNOTATIVE
 70
     0
  3

  4

  5

  6

  7

 40
1.0
 41
0.18
 42
0.0625
 43
0.38
 44
0.18
 45
0.0
 46
0.0
 47
0.0
 48
0.0
140
0.18
141
0.09
142
0.0
143
25.399999999999999
144
1.0
145
0.0
146
1.0
147
0.09
 71
     0
 72
     0
 73
     1
 74
     1
 75
     0
 76
     0
 77
     0
 78
     0
170
     0
171
     2
172
     0
173
     0
174
     0
175
     0
176
     0
177
     0
178
     0
  0
ENDTAB
  0
ENDSEC
  0
SECTION
  2
BLOCKS
  0
BLOCK
  8
0
  2
$MODEL_SPACE
 70
     0
 10
0.0
 20
0.0
 30
0.0
  3
$MODEL_SPACE
  1

  0
ENDBLK
  5
5AF
  8
0
  0
BLOCK
 67
     1
  8
0
  2
$PAPER_SPACE
 70
     0
 10
0.0
 20
0.0
 30
0.0
  3
$PAPER_SPACE
  1

  0
ENDBLK
  5
5AB
 67
     1
  8
0
  0
BLOCK
  8
0
  2
_SMALL
 70
     0
 10
0.0
 20
0.0
 30
0.0
  3
_SMALL
  1

  0
CIRCLE
  5
89
  8
0
  6
CONTINUOUS
 62
     7
 10
0.0
 20
0.0
 30
0.0
 40
0.25
  0
ENDBLK
  5
8A
  8
0
  0
ENDSEC
  0
SECTION
  2
ENTITIES
  0
LINE
  5
8C
  8
DETAIL
  6
CONTINUOUS
 62
     5
 10
504.99999999999818
 20
-110.0
 30
0.0
 11
504.99999999999818
 21
-260.0
 31
0.0
  0
ARC
  5
8D
  8
DETAIL
  6
CONTINUOUS
 62
     5
 10
484.99999999999801
 20
-110.0
 30
0.0
 40
20.0
 50
0.0
 51
90.0
  0
LINE
  5
8E
  8
DETAIL
  6
CONTINUOUS
 62
     5
 10
346.99999999999818
 20
-110.0
 30
0.0
 11
346.99999999999818
 21
-260.0
 31
0.0
  0
ARC
  5
8F
  8
DETAIL
  6
CONTINUOUS
 62
     5
 10
366.99999999999818
 20
-260.0
 30
0.0
 40
20.0
 50
180.0
 51
270.0
  0
ARC
  5
90
  8
DETAIL
  6
CONTINUOUS
 62
     5
 10
366.99999999999818
 20
-110.0
 30
0.0
 40
20.0
 50
90.0
 51
180.0
  0
LINE
  5
91
  8
DETAIL
  6
CONTINUOUS
 62
     5
 10
-567.79999999999916
 20
424.00000000000171
 30
0.0
 11
-597.79999999999916
 21
394.00000000000182
 31
0.0
  0
LINE
  5
92
  8
DETAIL
  6
CONTINUOUS
 62
     5
 10
-597.79999999999916
 20
-394.0
 30
0.0
 11
-567.79999999999916
 21
-424.0
 31
0.0
  0
LINE
  5
93
  8
DETAIL
  6
CONTINUOUS
 62
     5
 10
-601.20000000000073
 20
-304.5
 30
0.0
 11
-601.20000000000073
 21
-316.09999999999849
 31
0.0
  0
LINE
  5
94
  8
DETAIL
  6
CONTINUOUS
 62
     5
 10
-601.20000000000073
 20
304.50000000000182
 30
0.0
 11
-601.20000000000073
 21
316.10000000000042
 31
0.0
  0
LINE
  5
95
  8
DETAIL
  6
CONTINUOUS
 62
     5
 10
-598.0
 20
-304.5
 30
0.0
 11
-598.0
 21
-316.09999999999849
 31
0.0
  0
LINE
  5
96
  8
DETAIL
  6
CONTINUOUS
 62
     5
 10
-598.0
 20
304.50000000000182
 30
0.0
 11
-598.0
 21
316.10000000000042
 31
0.0
  0
LINE
  5
97
  8
DETAIL
  6
CONTINUOUS
 62
     5
 10
-597.79999999999916
 20
-394.0
 30
0.0
 11
-597.79999999999916
 21
-319.5
 31
0.0
  0
LINE
  5
98
  8
DETAIL
  6
CONTINUOUS
 62
     5
 10
-597.79999999999916
 20
319.50000000000182
 30
0.0
 11
-597.79999999999916
 21
394.00000000000182
 31
0.0
  0
LINE
  5
99
  8
DETAIL
  6
CONTINUOUS
 62
     5
 10
-591.20000000000073
 20
-324.29999999999922
 30
0.0
 11
-591.20000000000073
 21
-316.29999999999922
 31
0.0
  0
LINE
  5
9A
  8
DETAIL
  6
CONTINUOUS
 62
     5
 10
-591.20000000000073
 20
316.30000000000109
 30
0.0
 11
-591.20000000000073
 21
324.30000000000109
 31
0.0
  0
LINE
  5
9B
  8
DETAIL
  6
CONTINUOUS
 62
     5
 10
-556.20000000000073
 20
359.30000000000109
 30
0.0
 11
-591.20000000000073
 21
324.30000000000109
 31
0.0
  0
LINE
  5
9C
  8
DETAIL
  6
CONTINUOUS
 62
     5
 10
-591.20000000000073
 20
-324.29999999999922
 30
0.0
 11
-556.20000000000073
 21
-359.2999999999991
 31
0.0
  0
LINE
  5
9D
  8
DETAIL
  6
CONTINUOUS
 62
     5
 10
-540.0
 20
313.80000000000109
 30
0.0
 11
-540.0
 21
-313.79999999999922
 31
0.0
  0
LINE
  5
9E
  8
DETAIL
  6
CONTINUOUS
 62
     5
 10
-533.0
 20
-400.0
 30
0.0
 11
-533.0
 21
-390.0
 31
0.0
  0
LINE
  5
9F
  8
DETAIL
  6
CONTINUOUS
 62
     5
 10
-533.0
 20
390.00000000000182
 30
0.0
 11
-533.0
 21
400.00000000000148
 31
0.0
  0
LINE
  5
A0
  8
DETAIL
  6
CONTINUOUS
 62
     5
 10
-517.0
 20
400.00000000000148
 30
0.0
 11
-517.0
 21
390.00000000000182
 31
0.0
  0
LINE
  5
A1
  8
DETAIL
  6
CONTINUOUS
 62
     5
 10
-517.0
 20
-390.0
 30
0.0
 11
-517.0
 21
-400.0
 31
0.0
  0
LINE
  5
A2
  8
DETAIL
  6
CONTINUOUS
 62
     5
 10
-505.0
 20
313.80000000000109
 30
0.0
 11
-505.0
 21
-313.79999999999922
 31
0.0
  0
LINE
  5
A3
  8
DETAIL
  6
CONTINUOUS
 62
     5
 10
-487.2999999999991
 20
316.30000000000109
 30
0.0
 11
-487.2999999999991
 21
314.00000000000182
 31
0.0
  0
LINE
  5
A4
  8
DETAIL
  6
CONTINUOUS
 62
     5
 10
-487.2999999999991
 20
-316.29999999999922
 30
0.0
 11
-487.2999999999991
 21
-314.0
 31
0.0
  0
LINE
  5
A5
  8
DETAIL
  6
CONTINUOUS
 62
     5
 10
-567.79999999999916
 20
-424.0
 30
0.0
 11
567.79999999999916
 21
-424.0
 31
0.0
  0
LINE
  5
A6
  8
DETAIL
  6
CONTINUOUS
 62
     5
 10
366.99999999999818
 20
-280.0
 30
0.0
 11
484.99999999999801
 21
-280.0
 31
0.0
  0
ARC
  5
A7
  8
DETAIL
  6
CONTINUOUS
 62
     5
 10
484.99999999999801
 20
-260.0
 30
0.0
 40
20.0
 50
270.0
 51
0.0
  0
LINE
  5
A8
  8
DETAIL
  6
CONTINUOUS
 62
     5
 10
366.99999999999818
 20
-90.0
 30
0.0
 11
484.99999999999801
 21
-90.0
 31
0.0
  0
LINE
  5
A9
  8
DETAIL
  6
CONTINUOUS
 62
     5
 10
-556.20000000000073
 20
-359.2999999999991
 30
0.0
 11
556.20000000000073
 21
-359.2999999999991
 31
0.0
  0
LINE
  5
AA
  8
DETAIL
  6
CONTINUOUS
 62
     5
 10
-303.79999999999922
 20
316.30000000000109
 30
0.0
 11
-303.79999999999922
 21
313.10000000000042
 31
0.0
  0
LINE
  5
AB
  8
DETAIL
  6
CONTINUOUS
 62
     5
 10
-303.79999999999922
 20
-316.29999999999922
 30
0.0
 11
-303.79999999999922
 21
-313.0999999999986
 31
0.0
  0
LINE
  5
AC
  8
DETAIL
  6
CONTINUOUS
 62
     5
 10
-287.0
 20
312.89999999999958
 30
0.0
 11
-287.0
 21
-312.89999999999958
 31
0.0
  0
LINE
  5
AD
  8
DETAIL
  6
CONTINUOUS
 62
     5
 10
-604.99999999999807
 20
-319.5
 30
0.0
 11
-591.20000000000073
 21
-319.5
 31
0.0
  0
LINE
  5
AE
  8
DETAIL
  6
CONTINUOUS
 62
     5
 10
604.99999999999807
 20
-319.5
 30
0.0
 11
591.20000000000073
 21
-319.5
 31
0.0
  0
LINE
  5
AF
  8
DETAIL
  6
CONTINUOUS
 62
     5
 10
-597.79999999999916
 20
-316.29999999999922
 30
0.0
 11
597.79999999999916
 21
-316.29999999999922
 31
0.0
  0
LINE
  5
B0
  8
DETAIL
  6
CONTINUOUS
 62
     5
 10
-504.79999999999922
 20
-314.0
 30
0.0
 11
-487.2999999999991
 21
-314.0
 31
0.0
  0
LINE
  5
B1
  8
DETAIL
  6
CONTINUOUS
 62
     5
 10
504.79999999999922
 20
-314.0
 30
0.0
 11
487.2999999999991
 21
-314.0
 31
0.0
  0
LINE
  5
B2
  8
DETAIL
  6
CONTINUOUS
 62
     5
 10
120.2000000000007
 20
-314.0
 30
0.0
 11
137.7000000000007
 21
-314.0
 31
0.0
  0
LINE
  5
B3
  8
DETAIL
  6
CONTINUOUS
 62
     5
 10
347.20000000000078
 20
-314.0
 30
0.0
 11
364.7000000000009
 21
-314.0
 31
0.0
  0
LINE
  5
B4
  8
DETAIL
  6
CONTINUOUS
 62
     5
 10
120.0
 20
-313.79999999999922
 30
0.0
 11
85.0
 21
-313.79999999999922
 31
0.0
  0
LINE
  5
B5
  8
DETAIL
  6
CONTINUOUS
 62
     5
 10
312.0
 20
-313.79999999999922
 30
0.0
 11
347.0
 21
-313.79999999999922
 31
0.0
  0
LINE
  5
B6
  8
DETAIL
  6
CONTINUOUS
 62
     5
 10
505.0
 20
-313.79999999999922
 30
0.0
 11
540.0
 21
-313.79999999999922
 31
0.0
  0
LINE
  5
B7
  8
DETAIL
  6
CONTINUOUS
 62
     5
 10
-505.0
 20
-313.79999999999922
 30
0.0
 11
-540.0
 21
-313.79999999999922
 31
0.0
  0
LINE
  5
B8
  8
DETAIL
  6
CONTINUOUS
 62
     5
 10
-303.79999999999922
 20
-313.0999999999986
 30
0.0
 11
-287.20000000000078
 21
-313.0999999999986
 31
0.0
  0
LINE
  5
B9
  8
DETAIL
  6
CONTINUOUS
 62
     5
 10
-226.7999999999993
 20
-313.0999999999986
 30
0.0
 11
-210.2000000000007
 21
-313.0999999999986
 31
0.0
  0
LINE
  5
BA
  8
DETAIL
  6
CONTINUOUS
 62
     5
 10
-113.7999999999993
 20
-313.0999999999986
 30
0.0
 11
-97.20000000000077
 21
-313.0999999999986
 31
0.0
  0
LINE
  5
BB
  8
DETAIL
  6
CONTINUOUS
 62
     5
 10
-36.799999999999272
 20
-313.0999999999986
 30
0.0
 11
-20.200000000000731
 21
-313.0999999999986
 31
0.0
  0
LINE
  5
BC
  8
DETAIL
  6
CONTINUOUS
 62
     5
 10
-37.0
 20
-312.89999999999958
 30
0.0
 11
-97.0
 21
-312.89999999999958
 31
0.0
  0
LINE
  5
BD
  8
DETAIL
  6
CONTINUOUS
 62
     5
 10
-227.0
 20
-312.89999999999958
 30
0.0
 11
-287.0
 21
-312.89999999999958
 31
0.0
  0
LINE
  5
BE
  8
DETAIL
  6
CONTINUOUS
 62
     5
 10
-601.20000000000073
 20
-304.5
 30
0.0
 11
-598.0
 21
-304.5
 31
0.0
  0
LINE
  5
BF
  8
DETAIL
  6
CONTINUOUS
 62
     5
 10
601.20000000000073
 20
-304.5
 30
0.0
 11
598.0
 21
-304.5
 31
0.0
  0
LINE
  5
C0
  8
DETAIL
  6
CONTINUOUS
 62
     5
 10
-227.0
 20
312.89999999999958
 30
0.0
 11
-227.0
 21
-312.89999999999958
 31
0.0
  0
LINE
  5
C1
  8
DETAIL
  6
CONTINUOUS
 62
     5
 10
-210.2000000000007
 20
316.30000000000109
 30
0.0
 11
-210.2000000000007
 21
313.10000000000042
 31
0.0
  0
LINE
  5
C2
  8
DETAIL
  6
CONTINUOUS
 62
     5
 10
-210.2000000000007
 20
-316.29999999999922
 30
0.0
 11
-210.2000000000007
 21
-313.0999999999986
 31
0.0
  0
LINE
  5
C3
  8
DETAIL
  6
CONTINUOUS
 62
     5
 10
-113.7999999999993
 20
316.30000000000109
 30
0.0
 11
-113.7999999999993
 21
313.10000000000042
 31
0.0
  0
LINE
  5
C4
  8
DETAIL
  6
CONTINUOUS
 62
     5
 10
-113.7999999999993
 20
-316.29999999999922
 30
0.0
 11
-113.7999999999993
 21
-313.0999999999986
 31
0.0
  0
LINE
  5
C5
  8
DETAIL
  6
CONTINUOUS
 62
     5
 10
-97.0
 20
312.89999999999958
 30
0.0
 11
-97.0
 21
-312.89999999999958
 31
0.0
  0
LINE
  5
C6
  8
DETAIL
  6
CONTINUOUS
 62
     5
 10
-37.0
 20
312.89999999999958
 30
0.0
 11
-37.0
 21
-312.89999999999958
 31
0.0
  0
LINE
  5
C7
  8
DETAIL
  6
CONTINUOUS
 62
     5
 10
-20.200000000000731
 20
316.30000000000109
 30
0.0
 11
-20.200000000000731
 21
313.10000000000042
 31
0.0
  0
LINE
  5
C8
  8
DETAIL
  6
CONTINUOUS
 62
     5
 10
-20.200000000000731
 20
-316.29999999999922
 30
0.0
 11
-20.200000000000731
 21
-313.0999999999986
 31
0.0
  0
LINE
  5
C9
  8
DETAIL
  6
CONTINUOUS
 62
     5
 10
85.0
 20
313.80000000000109
 30
0.0
 11
85.0
 21
-313.79999999999922
 31
0.0
  0
LINE
  5
CA
  8
DETAIL
  6
CONTINUOUS
 62
     5
 10
120.0
 20
313.80000000000109
 30
0.0
 11
120.0
 21
-313.79999999999922
 31
0.0
  0
LINE
  5
CB
  8
DETAIL
  6
CONTINUOUS
 62
     5
 10
137.7000000000007
 20
316.30000000000109
 30
0.0
 11
137.7000000000007
 21
314.00000000000182
 31
0.0
  0
LINE
  5
CC
  8
DETAIL
  6
CONTINUOUS
 62
     5
 10
137.7000000000007
 20
-316.29999999999922
 30
0.0
 11
137.7000000000007
 21
-314.0
 31
0.0
  0
LINE
  5
CD
  8
DETAIL
  6
CONTINUOUS
 62
     5
 10
312.0
 20
313.80000000000109
 30
0.0
 11
312.0
 21
-313.79999999999922
 31
0.0
  0
LINE
  5
CE
  8
DETAIL
  6
CONTINUOUS
 62
     5
 10
347.0
 20
313.80000000000109
 30
0.0
 11
347.0
 21
-313.79999999999922
 31
0.0
  0
LINE
  5
CF
  8
DETAIL
  6
CONTINUOUS
 62
     5
 10
364.7000000000009
 20
316.30000000000109
 30
0.0
 11
364.7000000000009
 21
314.00000000000182
 31
0.0
  0
LINE
  5
D0
  8
DETAIL
  6
CONTINUOUS
 62
     5
 10
364.7000000000009
 20
-316.29999999999922
 30
0.0
 11
364.7000000000009
 21
-314.0
 31
0.0
  0
LINE
  5
D1
  8
DETAIL
  6
CONTINUOUS
 62
     5
 10
-601.20000000000073
 20
304.50000000000182
 30
0.0
 11
-598.0
 21
304.50000000000182
 31
0.0
  0
LINE
  5
D2
  8
DETAIL
  6
CONTINUOUS
 62
     5
 10
601.20000000000073
 20
304.50000000000182
 30
0.0
 11
598.0
 21
304.50000000000182
 31
0.0
  0
LINE
  5
D3
  8
DETAIL
  6
CONTINUOUS
 62
     5
 10
-37.0
 20
312.89999999999958
 30
0.0
 11
-97.0
 21
312.89999999999958
 31
0.0
  0
LINE
  5
D4
  8
DETAIL
  6
CONTINUOUS
 62
     5
 10
-227.0
 20
312.89999999999958
 30
0.0
 11
-287.0
 21
312.89999999999958
 31
0.0
  0
LINE
  5
D5
  8
DETAIL
  6
CONTINUOUS
 62
     5
 10
-303.79999999999922
 20
313.10000000000042
 30
0.0
 11
-287.20000000000078
 21
313.10000000000042
 31
0.0
  0
LINE
  5
D6
  8
DETAIL
  6
CONTINUOUS
 62
     5
 10
-226.7999999999993
 20
313.10000000000042
 30
0.0
 11
-210.2000000000007
 21
313.10000000000042
 31
0.0
  0
LINE
  5
D7
  8
DETAIL
  6
CONTINUOUS
 62
     5
 10
-113.7999999999993
 20
313.10000000000042
 30
0.0
 11
-97.20000000000077
 21
313.10000000000042
 31
0.0
  0
LINE
  5
D8
  8
DETAIL
  6
CONTINUOUS
 62
     5
 10
-36.799999999999272
 20
313.10000000000042
 30
0.0
 11
-20.200000000000731
 21
313.10000000000042
 31
0.0
  0
LINE
  5
D9
  8
DETAIL
  6
CONTINUOUS
 62
     5
 10
120.0
 20
313.80000000000109
 30
0.0
 11
85.0
 21
313.80000000000109
 31
0.0
  0
LINE
  5
DA
  8
DETAIL
  6
CONTINUOUS
 62
     5
 10
312.0
 20
313.80000000000109
 30
0.0
 11
347.0
 21
313.80000000000109
 31
0.0
  0
LINE
  5
DB
  8
DETAIL
  6
CONTINUOUS
 62
     5
 10
505.0
 20
313.80000000000109
 30
0.0
 11
540.0
 21
313.80000000000109
 31
0.0
  0
LINE
  5
DC
  8
DETAIL
  6
CONTINUOUS
 62
     5
 10
-505.0
 20
313.80000000000109
 30
0.0
 11
-540.0
 21
313.80000000000109
 31
0.0
  0
LINE
  5
DD
  8
DETAIL
  6
CONTINUOUS
 62
     5
 10
-504.79999999999922
 20
314.00000000000182
 30
0.0
 11
-487.2999999999991
 21
314.00000000000182
 31
0.0
  0
LINE
  5
DE
  8
DETAIL
  6
CONTINUOUS
 62
     5
 10
504.79999999999922
 20
314.00000000000182
 30
0.0
 11
487.2999999999991
 21
314.00000000000182
 31
0.0
  0
LINE
  5
DF
  8
DETAIL
  6
CONTINUOUS
 62
     5
 10
120.2000000000007
 20
314.00000000000182
 30
0.0
 11
137.7000000000007
 21
314.00000000000182
 31
0.0
  0
LINE
  5
E0
  8
DETAIL
  6
CONTINUOUS
 62
     5
 10
347.20000000000078
 20
314.00000000000182
 30
0.0
 11
364.7000000000009
 21
314.00000000000182
 31
0.0
  0
LINE
  5
E1
  8
DETAIL
  6
CONTINUOUS
 62
     5
 10
597.79999999999916
 20
316.30000000000109
 30
0.0
 11
-597.79999999999916
 21
316.30000000000109
 31
0.0
  0
LINE
  5
E2
  8
DETAIL
  6
CONTINUOUS
 62
     5
 10
-604.99999999999807
 20
319.50000000000182
 30
0.0
 11
-591.20000000000073
 21
319.50000000000182
 31
0.0
  0
LINE
  5
E3
  8
DETAIL
  6
CONTINUOUS
 62
     5
 10
604.99999999999807
 20
319.50000000000182
 30
0.0
 11
591.20000000000073
 21
319.50000000000182
 31
0.0
  0
LINE
  5
E4
  8
DETAIL
  6
CONTINUOUS
 62
     5
 10
556.20000000000073
 20
359.30000000000109
 30
0.0
 11
-556.20000000000073
 21
359.30000000000109
 31
0.0
  0
LINE
  5
E5
  8
DETAIL
  6
CONTINUOUS
 62
     5
 10
567.79999999999916
 20
424.00000000000171
 30
0.0
 11
-567.79999999999916
 21
424.00000000000171
 31
0.0
  0
LINE
  5
E6
  8
DETAIL
  6
CONTINUOUS
 62
     5
 10
487.2999999999991
 20
316.30000000000109
 30
0.0
 11
487.2999999999991
 21
314.00000000000182
 31
0.0
  0
LINE
  5
E7
  8
DETAIL
  6
CONTINUOUS
 62
     5
 10
487.2999999999991
 20
-316.29999999999922
 30
0.0
 11
487.2999999999991
 21
-314.0
 31
0.0
  0
LINE
  5
E8
  8
DETAIL
  6
CONTINUOUS
 62
     5
 10
505.0
 20
-313.79999999999922
 30
0.0
 11
505.0
 21
313.80000000000109
 31
0.0
  0
LINE
  5
E9
  8
DETAIL
  6
CONTINUOUS
 62
     5
 10
517.0
 20
-400.0
 30
0.0
 11
517.0
 21
-390.0
 31
0.0
  0
LINE
  5
EA
  8
DETAIL
  6
CONTINUOUS
 62
     5
 10
517.0
 20
390.00000000000182
 30
0.0
 11
517.0
 21
400.00000000000148
 31
0.0
  0
LINE
  5
EB
  8
DETAIL
  6
CONTINUOUS
 62
     5
 10
533.0
 20
400.00000000000148
 30
0.0
 11
533.0
 21
390.00000000000182
 31
0.0
  0
LINE
  5
EC
  8
DETAIL
  6
CONTINUOUS
 62
     5
 10
533.0
 20
-390.0
 30
0.0
 11
533.0
 21
-400.0
 31
0.0
  0
LINE
  5
ED
  8
DETAIL
  6
CONTINUOUS
 62
     5
 10
540.0
 20
-313.79999999999922
 30
0.0
 11
540.0
 21
313.80000000000109
 31
0.0
  0
LINE
  5
EE
  8
DETAIL
  6
CONTINUOUS
 62
     5
 10
591.20000000000073
 20
-324.29999999999922
 30
0.0
 11
591.20000000000073
 21
-316.29999999999922
 31
0.0
  0
LINE
  5
EF
  8
DETAIL
  6
CONTINUOUS
 62
     5
 10
591.20000000000073
 20
316.30000000000109
 30
0.0
 11
591.20000000000073
 21
324.30000000000109
 31
0.0
  0
LINE
  5
F0
  8
DETAIL
  6
CONTINUOUS
 62
     5
 10
597.79999999999916
 20
-394.0
 30
0.0
 11
597.79999999999916
 21
-319.5
 31
0.0
  0
LINE
  5
F1
  8
DETAIL
  6
CONTINUOUS
 62
     5
 10
597.79999999999916
 20
319.50000000000182
 30
0.0
 11
597.79999999999916
 21
394.00000000000182
 31
0.0
  0
LINE
  5
F2
  8
DETAIL
  6
CONTINUOUS
 62
     5
 10
598.0
 20
-304.5
 30
0.0
 11
598.0
 21
-316.09999999999849
 31
0.0
  0
LINE
  5
F3
  8
DETAIL
  6
CONTINUOUS
 62
     5
 10
598.0
 20
304.50000000000182
 30
0.0
 11
598.0
 21
316.10000000000042
 31
0.0
  0
LINE
  5
F4
  8
DETAIL
  6
CONTINUOUS
 62
     5
 10
601.20000000000073
 20
-304.5
 30
0.0
 11
601.20000000000073
 21
-316.09999999999849
 31
0.0
  0
LINE
  5
F5
  8
DETAIL
  6
CONTINUOUS
 62
     5
 10
601.20000000000073
 20
304.50000000000182
 30
0.0
 11
601.20000000000073
 21
316.10000000000042
 31
0.0
  0
LINE
  5
F6
  8
DETAIL
  6
CONTINUOUS
 62
     5
 10
556.20000000000073
 20
-359.2999999999991
 30
0.0
 11
591.20000000000073
 21
-324.29999999999922
 31
0.0
  0
LINE
  5
F7
  8
DETAIL
  6
CONTINUOUS
 62
     5
 10
591.20000000000073
 20
324.30000000000109
 30
0.0
 11
556.20000000000073
 21
359.30000000000109
 31
0.0
  0
LINE
  5
F8
  8
DETAIL
  6
CONTINUOUS
 62
     5
 10
567.79999999999916
 20
-424.0
 30
0.0
 11
597.79999999999916
 21
-394.0
 31
0.0
  0
LINE
  5
F9
  8
DETAIL
  6
CONTINUOUS
 62
     5
 10
597.79999999999916
 20
394.00000000000182
 30
0.0
 11
567.79999999999916
 21
424.00000000000171
 31
0.0
  0
ARC
  5
FA
  8
DETAIL
  6
CONTINUOUS
 62
     5
 10
-525.0
 20
-390.0
 30
0.0
 40
8.0
 50
0.0
 51
180.0
  0
ARC
  5
FB
  8
DETAIL
  6
CONTINUOUS
 62
     5
 10
-525.0
 20
-400.0
 30
0.0
 40
8.0
 50
180.0
 51
0.0
  0
CIRCLE
  5
FC
  8
DETAIL
  6
CONTINUOUS
 62
     5
 10
-560.0
 20
-395.0
 30
0.0
 40
8.0
  0
ARC
  5
FD
  8
DETAIL
  6
CONTINUOUS
 62
     5
 10
-597.79999999999916
 20
-316.09999999999849
 30
0.0
 40
3.399999999999999
 50
180.0
 51
270.0
  0
ARC
  5
FE
  8
DETAIL
  6
CONTINUOUS
 62
     5
 10
-504.79999999999922
 20
-313.79999999999922
 30
0.0
 40
2.5
 50
180.0
 51
270.0
  0
ARC
  5
FF
  8
DETAIL
  6
CONTINUOUS
 62
     5
 10
-597.79999999999916
 20
-316.09999999999849
 30
0.0
 40
0.2
 50
180.0
 51
270.0
  0
ARC
  5
100
  8
DETAIL
  6
CONTINUOUS
 62
     5
 10
-504.79999999999922
 20
-313.79999999999922
 30
0.0
 40
0.2
 50
180.0
 51
270.0
  0
ARC
  5
101
  8
DETAIL
  6
CONTINUOUS
 62
     5
 10
-226.7999999999993
 20
-312.89999999999958
 30
0.0
 40
3.399999999999999
 50
180.0
 51
270.0
  0
ARC
  5
102
  8
DETAIL
  6
CONTINUOUS
 62
     5
 10
-287.20000000000078
 20
-312.89999999999958
 30
0.0
 40
3.399999999999999
 50
270.0
 51
0.0
  0
ARC
  5
103
  8
DETAIL
  6
CONTINUOUS
 62
     5
 10
-226.7999999999993
 20
-312.89999999999958
 30
0.0
 40
0.2
 50
180.0
 51
270.0
  0
ARC
  5
104
  8
DETAIL
  6
CONTINUOUS
 62
     5
 10
-287.20000000000078
 20
-312.89999999999958
 30
0.0
 40
0.2
 50
270.0
 51
0.0
  0
ARC
  5
105
  8
DETAIL
  6
CONTINUOUS
 62
     5
 10
-36.799999999999272
 20
-312.89999999999958
 30
0.0
 40
3.399999999999999
 50
180.0
 51
270.0
  0
ARC
  5
106
  8
DETAIL
  6
CONTINUOUS
 62
     5
 10
-97.20000000000077
 20
-312.89999999999958
 30
0.0
 40
3.399999999999999
 50
270.0
 51
0.0
  0
ARC
  5
107
  8
DETAIL
  6
CONTINUOUS
 62
     5
 10
-36.799999999999272
 20
-312.89999999999958
 30
0.0
 40
0.2
 50
180.0
 51
270.0
  0
ARC
  5
108
  8
DETAIL
  6
CONTINUOUS
 62
     5
 10
-97.20000000000077
 20
-312.89999999999958
 30
0.0
 40
0.2
 50
270.0
 51
0.0
  0
ARC
  5
109
  8
DETAIL
  6
CONTINUOUS
 62
     5
 10
-525.0
 20
390.00000000000182
 30
0.0
 40
8.0
 50
180.0
 51
0.0
  0
ARC
  5
10A
  8
DETAIL
  6
CONTINUOUS
 62
     5
 10
-525.0
 20
400.00000000000148
 30
0.0
 40
8.0
 50
0.0
 51
180.0
  0
CIRCLE
  5
10B
  8
DETAIL
  6
CONTINUOUS
 62
     5
 10
-560.0
 20
395.00000000000171
 30
0.0
 40
8.0
  0
ARC
  5
10C
  8
DETAIL
  6
CONTINUOUS
 62
     5
 10
-597.79999999999916
 20
316.10000000000042
 30
0.0
 40
3.399999999999999
 50
90.0
 51
180.0
  0
ARC
  5
10D
  8
DETAIL
  6
CONTINUOUS
 62
     5
 10
-504.79999999999922
 20
313.80000000000109
 30
0.0
 40
2.5
 50
90.0
 51
180.0
  0
ARC
  5
10E
  8
DETAIL
  6
CONTINUOUS
 62
     5
 10
-597.79999999999916
 20
316.10000000000042
 30
0.0
 40
0.2
 50
90.0
 51
180.0
  0
ARC
  5
10F
  8
DETAIL
  6
CONTINUOUS
 62
     5
 10
-504.79999999999922
 20
313.80000000000109
 30
0.0
 40
0.2
 50
90.0
 51
180.0
  0
ARC
  5
110
  8
DETAIL
  6
CONTINUOUS
 62
     5
 10
-36.799999999999272
 20
312.89999999999958
 30
0.0
 40
3.399999999999999
 50
90.0
 51
180.0
  0
ARC
  5
111
  8
DETAIL
  6
CONTINUOUS
 62
     5
 10
-97.20000000000077
 20
312.89999999999958
 30
0.0
 40
3.399999999999999
 50
0.0
 51
90.0
  0
ARC
  5
112
  8
DETAIL
  6
CONTINUOUS
 62
     5
 10
-226.7999999999993
 20
312.89999999999958
 30
0.0
 40
3.399999999999999
 50
90.0
 51
180.0
  0
ARC
  5
113
  8
DETAIL
  6
CONTINUOUS
 62
     5
 10
-287.20000000000078
 20
312.89999999999958
 30
0.0
 40
3.399999999999999
 50
0.0
 51
90.0
  0
ARC
  5
114
  8
DETAIL
  6
CONTINUOUS
 62
     5
 10
-36.799999999999272
 20
312.89999999999958
 30
0.0
 40
0.2
 50
90.0
 51
180.0
  0
ARC
  5
115
  8
DETAIL
  6
CONTINUOUS
 62
     5
 10
-97.20000000000077
 20
312.89999999999958
 30
0.0
 40
0.2
 50
0.0
 51
90.0
  0
ARC
  5
116
  8
DETAIL
  6
CONTINUOUS
 62
     5
 10
-226.7999999999993
 20
312.89999999999958
 30
0.0
 40
0.2
 50
90.0
 51
180.0
  0
ARC
  5
117
  8
DETAIL
  6
CONTINUOUS
 62
     5
 10
-287.20000000000078
 20
312.89999999999958
 30
0.0
 40
0.2
 50
0.0
 51
90.0
  0
ARC
  5
118
  8
DETAIL
  6
CONTINUOUS
 62
     5
 10
120.2000000000007
 20
-313.79999999999922
 30
0.0
 40
2.5
 50
180.0
 51
270.0
  0
ARC
  5
119
  8
DETAIL
  6
CONTINUOUS
 62
     5
 10
120.2000000000007
 20
-313.79999999999922
 30
0.0
 40
0.2
 50
180.0
 51
270.0
  0
ARC
  5
11A
  8
DETAIL
  6
CONTINUOUS
 62
     5
 10
525.0
 20
-390.0
 30
0.0
 40
8.0
 50
0.0
 51
180.0
  0
ARC
  5
11B
  8
DETAIL
  6
CONTINUOUS
 62
     5
 10
525.0
 20
-400.0
 30
0.0
 40
8.0
 50
180.0
 51
0.0
  0
CIRCLE
  5
11C
  8
DETAIL
  6
CONTINUOUS
 62
     5
 10
560.0
 20
-395.0
 30
0.0
 40
8.0
  0
ARC
  5
11D
  8
DETAIL
  6
CONTINUOUS
 62
     5
 10
597.79999999999916
 20
-316.09999999999849
 30
0.0
 40
3.399999999999999
 50
270.0
 51
0.0
  0
ARC
  5
11E
  8
DETAIL
  6
CONTINUOUS
 62
     5
 10
347.20000000000078
 20
-313.79999999999922
 30
0.0
 40
2.5
 50
180.0
 51
270.0
  0
ARC
  5
11F
  8
DETAIL
  6
CONTINUOUS
 62
     5
 10
504.79999999999922
 20
-313.79999999999922
 30
0.0
 40
2.5
 50
270.0
 51
0.0
  0
ARC
  5
120
  8
DETAIL
  6
CONTINUOUS
 62
     5
 10
597.79999999999916
 20
-316.09999999999849
 30
0.0
 40
0.2
 50
270.0
 51
0.0
  0
ARC
  5
121
  8
DETAIL
  6
CONTINUOUS
 62
     5
 10
347.20000000000078
 20
-313.79999999999922
 30
0.0
 40
0.2
 50
180.0
 51
270.0
  0
ARC
  5
122
  8
DETAIL
  6
CONTINUOUS
 62
     5
 10
504.79999999999922
 20
-313.79999999999922
 30
0.0
 40
0.2
 50
270.0
 51
0.0
  0
ARC
  5
123
  8
DETAIL
  6
CONTINUOUS
 62
     5
 10
120.2000000000007
 20
313.80000000000109
 30
0.0
 40
2.5
 50
90.0
 51
180.0
  0
ARC
  5
124
  8
DETAIL
  6
CONTINUOUS
 62
     5
 10
120.2000000000007
 20
313.80000000000109
 30
0.0
 40
0.2
 50
90.0
 51
180.0
  0
ARC
  5
125
  8
DETAIL
  6
CONTINUOUS
 62
     5
 10
525.0
 20
390.00000000000182
 30
0.0
 40
8.0
 50
180.0
 51
0.0
  0
ARC
  5
126
  8
DETAIL
  6
CONTINUOUS
 62
     5
 10
525.0
 20
400.00000000000148
 30
0.0
 40
8.0
 50
0.0
 51
180.0
  0
CIRCLE
  5
127
  8
DETAIL
  6
CONTINUOUS
 62
     5
 10
560.0
 20
395.00000000000171
 30
0.0
 40
8.0
  0
ARC
  5
128
  8
DETAIL
  6
CONTINUOUS
 62
     5
 10
597.79999999999916
 20
316.10000000000042
 30
0.0
 40
3.399999999999999
 50
0.0
 51
90.0
  0
ARC
  5
129
  8
DETAIL
  6
CONTINUOUS
 62
     5
 10
347.20000000000078
 20
313.80000000000109
 30
0.0
 40
2.5
 50
90.0
 51
180.0
  0
ARC
  5
12A
  8
DETAIL
  6
CONTINUOUS
 62
     5
 10
504.79999999999922
 20
313.80000000000109
 30
0.0
 40
2.5
 50
0.0
 51
90.0
  0
ARC
  5
12B
  8
DETAIL
  6
CONTINUOUS
 62
     5
 10
597.79999999999916
 20
316.10000000000042
 30
0.0
 40
0.2
 50
0.0
 51
90.0
  0
ARC
  5
12C
  8
DETAIL
  6
CONTINUOUS
 62
     5
 10
347.20000000000078
 20
313.80000000000109
 30
0.0
 40
0.2
 50
90.0
 51
180.0
  0
ARC
  5
12D
  8
DETAIL
  6
CONTINUOUS
 62
     5
 10
504.79999999999922
 20
313.80000000000109
 30
0.0
 40
0.2
 50
0.0
 51
90.0
  0
LINE
  5
12E
  8
DETAIL
  6
CONTINUOUS
 62
     5
 10
-525.0
 20
418.67087437566801
 30
0.0
 11
-525.0
 21
371.3291256243337
 31
0.0
  0
LINE
  5
12F
  8
DETAIL
  6
CONTINUOUS
 62
     5
 10
-501.32912562433188
 20
395.00000000000171
 30
0.0
 11
-548.67087437566795
 21
395.00000000000171
 31
0.0
  0
LINE
  5
130
  8
DETAIL
  6
CONTINUOUS
 62
     5
 10
525.0
 20
425.45906043549212
 30
0.0
 11
525.0
 21
364.5409395645093
 31
0.0
  0
LINE
  5
131
  8
DETAIL
  6
CONTINUOUS
 62
     5
 10
555.45906043549257
 20
395.00000000000171
 30
0.0
 11
494.54093956450708
 21
395.00000000000171
 31
0.0
  0
LINE
  5
132
  8
DETAIL
  6
CONTINUOUS
 62
     5
 10
525.0
 20
-365.24573882385448
 30
0.0
 11
525.0
 21
-424.7542611761437
 31
0.0
  0
LINE
  5
133
  8
DETAIL
  6
CONTINUOUS
 62
     5
 10
554.75426117614552
 20
-395.0
 30
0.0
 11
495.24573882385448
 21
-395.0
 31
0.0
  0
LINE
  5
134
  8
DETAIL
  6
CONTINUOUS
 62
     5
 10
-525.0
 20
-364.42994327954148
 30
0.0
 11
-525.0
 21
-425.57005672045852
 31
0.0
  0
LINE
  5
135
  8
DETAIL
  6
CONTINUOUS
 62
     5
 10
-494.42994327954142
 20
-395.0
 30
0.0
 11
-555.57005672045852
 21
-395.0
 31
0.0
  0
LINE
  5
136
  8
BASIS
  6
DASHDOT
 62
     6
 10
0.0
 20
464.77396237215902
 30
0.0
 11
0.0
 21
-464.77396237215902
 31
0.0
  0
CIRCLE
  5
137
  8
ARRANGE
  6
CONTINUOUS
 62
     1
 10
0.0
 20
0.0
 30
0.0
 40
50.0
  0
LINE
  5
138
  8
ARRANGE
  6
CONTINUOUS
 62
     1
 10
50.037350031328963
 20
-49.522353150325202
 30
0.0
 11
-50.037350031328963
 21
49.522353150325202
 31
0.0
  0
LINE
  5
139
  8
ARRANGE
  6
CONTINUOUS
 62
     1
 10
49.963763310501221
 20
49.596594797985738
 30
0.0
 11
-49.963763310501221
 21
-49.5965947979821
 31
0.0
  0
LINE
  5
13A
  8
BASIS
  6
DASHDOT
 62
     6
 10
674.00098289168272
 20
0.0
 30
0.0
 11
-674.00098289168272
 21
0.0
 31
0.0
  0
LINE
  5
13B
  8
DETAIL
  6
CONTINUOUS
 62
     5
 10
-608.82842683785032
 20
-322.17157287520058
 30
0.0
 11
-597.79999999999916
 21
-333.19999971305151
 31
0.0
  0
LINE
  5
13C
  8
DETAIL
  6
CONTINUOUS
 62
     5
 10
608.82842741164825
 20
322.17157287530063
 30
0.0
 11
597.79999999999916
 21
333.20000028695
 31
0.0
  0
ARC
  5
13D
  8
DETAIL
  6
CONTINUOUS
 62
     5
 10
-605.99999971315083
 20
-319.34314575049939
 30
0.0
 40
4.0
 50
180.0
 51
225.0
  0
ARC
  5
13E
  8
DETAIL
  6
CONTINUOUS
 62
     5
 10
606.00000028684894
 20
319.34314575049939
 30
0.0
 40
4.0
 50
359.97830126623307
 51
45.0
  0
LINE
  5
13F
  8
DETAIL
  6
CONTINUOUS
 62
     5
 10
610.0
 20
319.34163089314461
 30
0.0
 11
610.0
 21
-319.34163089303718
 31
0.0
  0
LINE
  5
140
  8
DETAIL
  6
CONTINUOUS
 62
     5
 10
608.82842741164825
 20
-322.17157287530063
 30
0.0
 11
597.79999999999916
 21
-333.20000028695
 31
0.0
  0
ARC
  5
141
  8
DETAIL
  6
CONTINUOUS
 62
     5
 10
606.00000028684894
 20
-319.34314575049939
 30
0.0
 40
4.0
 50
315.00000000007373
 51
0.0216987352781525
  0
LINE
  5
142
  8
DETAIL
  6
CONTINUOUS
 62
     5
 10
-610.0
 20
319.34163089314461
 30
0.0
 11
-610.0
 21
-319.34163089303718
 31
0.0
  0
ARC
  5
143
  8
DETAIL
  6
CONTINUOUS
 62
     5
 10
-605.99999971315083
 20
319.34314575049939
 30
0.0
 40
4.0
 50
135.0000000000737
 51
180.0
  0
LINE
  5
144
  8
DETAIL
  6
CONTINUOUS
 62
     5
 10
-608.82842741164825
 20
322.17157287530063
 30
0.0
 11
-597.79999999999916
 21
333.20000028695
 31
0.0
  0
LINE
  5
145
  8
SIZE
  6
CONTINUOUS
 62
    30
 10
574.75426117614541
 20
-395.0
 30
0.0
 11
1317.149788165505
 21
-395.00000000000023
 31
0.0
  0
LINE
  5
146
  8
SIZE
  6
CONTINUOUS
 62
    30
 10
575.45906043549235
 20
395.00000000000171
 30
0.0
 11
1317.149788165505
 21
395.00000000000159
 31
0.0
  0
LINE
  5
147
  8
SIZE
  6
CONTINUOUS
 62
    30
 10
1297.149788165505
 20
-395.00000000000023
 30
0.0
 11
1297.149788165505
 21
395.00000000000159
 31
0.0
  0
CIRCLE
  5
148
  8
SIZE
  6
CONTINUOUS
 62
    30
 10
1297.149788165505
 20
-395.00000000000023
 30
0.0
 40
7.5
  0
CIRCLE
  5
149
  8
SIZE
  6
CONTINUOUS
 62
    30
 10
1297.149788165505
 20
395.00000000000159
 30
0.0
 40
7.5
  0
TEXT
  5
14A
  8
SIZE
  6
CONTINUOUS
 62
    30
 10
1277.149788165505
 20
-69.428571428569612
 30
0.0
 40
60.0
  1
790
 50
90.0
 41
0.9
 72
     1
 11
1277.149788165505
 21
0.0000000000018233
 31
0.0
  0
POINT
  5
14B
  8
DEFPOINTS
  6
CONTINUOUS
 62
     7
 10
554.75426117614552
 20
-395.0
 30
0.0
  0
POINT
  5
14C
  8
DEFPOINTS
  6
CONTINUOUS
 62
     7
 10
555.45906043549257
 20
395.00000000000171
 30
0.0
  0
POINT
  5
14D
  8
DEFPOINTS
  6
CONTINUOUS
 62
     7
 10
1297.149788165505
 20
395.00000000000159
 30
0.0
  0
LINE
  5
14E
  8
SIZE
  6
CONTINUOUS
 62
    30
 10
525.0
 20
445.45906043549218
 30
0.0
 11
525.0
 21
865.60526043274172
 31
0.0
  0
LINE
  5
14F
  8
SIZE
  6
CONTINUOUS
 62
    30
 10
-525.0
 20
438.67087437566789
 30
0.0
 11
-525.0
 21
865.60526043274172
 31
0.0
  0
LINE
  5
150
  8
SIZE
  6
CONTINUOUS
 62
    30
 10
525.0
 20
845.60526043274092
 30
0.0
 11
-525.0
 21
845.60526043274092
 31
0.0
  0
CIRCLE
  5
151
  8
SIZE
  6
CONTINUOUS
 62
    30
 10
525.0
 20
845.60526043274092
 30
0.0
 40
7.5
  0
CIRCLE
  5
152
  8
SIZE
  6
CONTINUOUS
 62
    30
 10
-525.0
 20
845.60526043274092
 30
0.0
 40
7.5
  0
TEXT
  5
153
  8
SIZE
  6
CONTINUOUS
 62
    30
 10
-90.0
 20
865.60526043274103
 30
0.0
 40
60.0
  1
1050
 41
0.9
 72
     1
 11
0.0
 21
865.60526043274103
 31
0.0
  0
POINT
  5
154
  8
DEFPOINTS
  6
CONTINUOUS
 62
     7
 10
525.0
 20
425.45906043549212
 30
0.0
  0
POINT
  5
155
  8
DEFPOINTS
  6
CONTINUOUS
 62
     7
 10
-525.0
 20
418.67087437566801
 30
0.0
  0
POINT
  5
156
  8
DEFPOINTS
  6
CONTINUOUS
 62
     7
 10
-525.0
 20
845.60526043274092
 30
0.0
  0
POINT
  5
15D
  8
DEFPOINTS
  6
CONTINUOUS
 62
     7
 10
504.99999999999818
 20
-260.0
 30
0.0
  0
POINT
  5
15E
  8
DEFPOINTS
  6
CONTINUOUS
 62
     7
 10
346.99999999999818
 20
-260.0
 30
0.0
  0
POINT
  5
167
  8
DEFPOINTS
  6
CONTINUOUS
 62
     7
 10
504.99999999999818
 20
-260.0
 30
0.0
  0
POINT
  5
168
  8
DEFPOINTS
  6
CONTINUOUS
 62
     7
 10
604.99999999999807
 20
-319.5
 30
0.0
  0
LINE
  5
16A
  8
DETAIL
  6
CONTINUOUS
 62
     5
 10
604.99999999999807
 20
-319.5
 30
0.0
 11
604.99999999999807
 21
319.50000000000182
 31
0.0
  0
LINE
  5
16B
  8
NOTE
  6
CONTINUOUS
 62
     4
 10
525.0
 20
429.00000000000159
 30
0.0
 11
525.0
 21
361.00000000000182
 31
0.0
  0
LINE
  5
16C
  8
NOTE
  6
CONTINUOUS
 62
     4
 10
491.0
 20
395.00000000000171
 30
0.0
 11
559.0
 21
395.00000000000171
 31
0.0
  0
CIRCLE
  5
16D
  8
FIX
  6
CONTINUOUS
 62
    11
 10
525.0
 20
395.00000000000171
 30
0.0
 40
19.563859253491721
  0
LINE
  5
16E
  8
NOTE
  6
CONTINUOUS
 62
     4
 10
-525.0
 20
429.00000000000159
 30
0.0
 11
-525.0
 21
361.00000000000182
 31
0.0
  0
LINE
  5
16F
  8
NOTE
  6
CONTINUOUS
 62
     4
 10
-559.0
 20
395.00000000000171
 30
0.0
 11
-491.0
 21
395.00000000000171
 31
0.0
  0
CIRCLE
  5
170
  8
FIX
  6
CONTINUOUS
 62
    11
 10
-525.0
 20
395.00000000000171
 30
0.0
 40
19.563859253491721
  0
LINE
  5
171
  8
NOTE
  6
CONTINUOUS
 62
     4
 10
-525.0
 20
-361.0
 30
0.0
 11
-525.0
 21
-429.0
 31
0.0
  0
LINE
  5
172
  8
NOTE
  6
CONTINUOUS
 62
     4
 10
-559.0
 20
-395.0
 30
0.0
 11
-491.0
 21
-395.0
 31
0.0
  0
CIRCLE
  5
173
  8
FIX
  6
CONTINUOUS
 62
    11
 10
-525.0
 20
-395.0
 30
0.0
 40
19.563859253491721
  0
LINE
  5
174
  8
NOTE
  6
CONTINUOUS
 62
     4
 10
525.0
 20
-361.0
 30
0.0
 11
525.0
 21
-429.0
 31
0.0
  0
LINE
  5
175
  8
NOTE
  6
CONTINUOUS
 62
     4
 10
491.0
 20
-395.0
 30
0.0
 11
559.0
 21
-395.0
 31
0.0
  0
CIRCLE
  5
176
  8
FIX
  6
CONTINUOUS
 62
    11
 10
525.0
 20
-395.0
 30
0.0
 40
19.563859253491721
  0
POINT
  5
17E
  8
DEFPOINTS
  6
CONTINUOUS
 62
     7
 10
400.0
 20
-184.3531423131098
 30
0.0
  0
POINT
  5
17F
  8
DEFPOINTS
  6
CONTINUOUS
 62
     7
 10
604.99999999999807
 20
-319.5
 30
0.0
  0
POINT
  5
188
  8
DEFPOINTS
  6
CONTINUOUS
 62
     7
 10
361.9999999999992
 20
-274.4598671848089
 30
0.0
  0
POINT
  5
189
  8
DEFPOINTS
  6
CONTINUOUS
 62
     7
 10
604.99999999999807
 20
-319.34163089303718
 30
0.0
  0
LINE
  5
18B
  8
SIZE
  6
CONTINUOUS
 62
    30
 10
-587.79999971314999
 20
-424.0
 30
0.0
 11
-858.20220502320251
 21
-423.99999999999989
 31
0.0
  0
LINE
  5
18C
  8
SIZE
  6
CONTINUOUS
 62
    30
 10
-583.99999971314969
 20
176.0
 30
0.0
 11
-858.20220502320251
 21
176.00000000000011
 31
0.0
  0
LINE
  5
18D
  8
SIZE
  6
CONTINUOUS
 62
    30
 10
-838.20220502320285
 20
-423.99999999999989
 30
0.0
 11
-838.20220502320251
 21
176.00000000000011
 31
0.0
  0
CIRCLE
  5
18E
  8
SIZE
  6
CONTINUOUS
 62
    30
 10
-838.20220502320285
 20
-423.99999999999989
 30
0.0
 40
7.5
  0
CIRCLE
  5
18F
  8
SIZE
  6
CONTINUOUS
 62
    30
 10
-838.20220502320251
 20
176.00000000000011
 30
0.0
 40
7.5
  0
TEXT
  5
190
  8
SIZE
  6
CONTINUOUS
 62
    30
 10
-858.20220502320251
 20
-193.4285714285696
 30
0.0
 40
60.0
  1
600
 50
90.0
 41
0.9
 72
     1
 11
-858.20220502320251
 21
-123.9999999999982
 31
0.0
  0
POINT
  5
191
  8
DEFPOINTS
  6
CONTINUOUS
 62
     7
 10
-567.79999971314976
 20
-424.0
 30
0.0
  0
POINT
  5
192
  8
DEFPOINTS
  6
CONTINUOUS
 62
     7
 10
-563.99999971314992
 20
176.0
 30
0.0
  0
POINT
  5
193
  8
DEFPOINTS
  6
CONTINUOUS
 62
     7
 10
-838.20220502320251
 20
176.00000000000011
 30
0.0
  0
LINE
  5
194
  8
SIZE
  6
CONTINUOUS
 62
    30
 10
-587.79999971314999
 20
-424.0
 30
0.0
 11
-973.2022050232016
 21
-423.99999999999989
 31
0.0
  0
LINE
  5
195
  8
SIZE
  6
CONTINUOUS
 62
    30
 10
-523.99999971314992
 20
216.0
 30
0.0
 11
-973.2022050232016
 21
216.00000000000011
 31
0.0
  0
LINE
  5
196
  8
SIZE
  6
CONTINUOUS
 62
    30
 10
-953.20220502320149
 20
-423.99999999999989
 30
0.0
 11
-953.20220502320149
 21
216.00000000000011
 31
0.0
  0
CIRCLE
  5
197
  8
SIZE
  6
CONTINUOUS
 62
    30
 10
-953.20220502320149
 20
-423.99999999999989
 30
0.0
 40
7.5
  0
CIRCLE
  5
198
  8
SIZE
  6
CONTINUOUS
 62
    30
 10
-953.20220502320149
 20
216.00000000000011
 30
0.0
 40
7.5
  0
TEXT
  5
199
  8
SIZE
  6
CONTINUOUS
 62
    30
 10
-973.20220502320115
 20
-173.4285714285696
 30
0.0
 40
60.0
  1
640
 50
90.0
 41
0.9
 72
     1
 11
-973.20220502320115
 21
-103.9999999999982
 31
0.0
  0
POINT
  5
19A
  8
DEFPOINTS
  6
CONTINUOUS
 62
     7
 10
-567.79999971314976
 20
-424.0
 30
0.0
  0
POINT
  5
19B
  8
DEFPOINTS
  6
CONTINUOUS
 62
     7
 10
-503.99999971314992
 20
216.0
 30
0.0
  0
POINT
  5
19C
  8
DEFPOINTS
  6
CONTINUOUS
 62
     7
 10
-953.20220502320149
 20
216.00000000000011
 30
0.0
  0
LINE
  5
19D
  8
NOTE
  6
CONTINUOUS
 62
     4
 10
-529.99999971314992
 20
210.0
 30
0.0
 11
-529.99999971314992
 21
142.0
 31
0.0
  0
LINE
  5
19E
  8
NOTE
  6
CONTINUOUS
 62
     4
 10
-563.99999971314992
 20
176.0
 30
0.0
 11
-495.9999997131498
 21
176.0
 31
0.0
  0
LINE
  5
19F
  8
NOTE
  6
CONTINUOUS
 62
     4
 10
-469.99999971314998
 20
250.0
 30
0.0
 11
-469.99999971314998
 21
182.0
 31
0.0
  0
LINE
  5
1A0
  8
NOTE
  6
CONTINUOUS
 62
     4
 10
-503.99999971314992
 20
216.0
 30
0.0
 11
-435.99999971314998
 21
216.0
 31
0.0
  0
LINE
  5
1A1
  8
NOTE
  6
CONTINUOUS
 62
     4
 10
361.9999999999992
 20
-206.0
 30
0.0
 11
361.9999999999992
 21
-274.0
 31
0.0
  0
LINE
  5
1A2
  8
NOTE
  6
CONTINUOUS
 62
     4
 10
327.99999999999892
 20
-240.0
 30
0.0
 11
395.99999999999909
 21
-240.0
 31
0.0
  0
LINE
  5
1A3
  8
NOTE
  6
CONTINUOUS
 62
     4
 10
400.0
 20
-116.0
 30
0.0
 11
400.0
 21
-184.0
 31
0.0
  0
LINE
  5
1A4
  8
NOTE
  6
CONTINUOUS
 62
     4
 10
366.0
 20
-150.0
 30
0.0
 11
434.0
 21
-150.0
 31
0.0
  0
POINT
  5
1AC
  8
DEFPOINTS
  6
CONTINUOUS
 62
     7
 10
567.80000028685015
 20
-424.0
 30
0.0
  0
POINT
  5
1AD
  8
DEFPOINTS
  6
CONTINUOUS
 62
     7
 10
395.99999999999909
 20
-240.0
 30
0.0
  0
POINT
  5
1B6
  8
DEFPOINTS
  6
CONTINUOUS
 62
     7
 10
567.80000028685015
 20
-424.0
 30
0.0
  0
POINT
  5
1B7
  8
DEFPOINTS
  6
CONTINUOUS
 62
     7
 10
434.0
 20
-150.0
 30
0.0
  0
LINE
  5
1B9
  8
DETAIL
  6
CONTINUOUS
 62
     5
 10
-604.99999999999807
 20
-319.5
 30
0.0
 11
-604.99999999999807
 21
319.50000000000182
 31
0.0
  0
POINT
  5
1C0
  8
DEFPOINTS
  6
CONTINUOUS
 62
     7
 10
604.99999999999807
 20
-319.50000000000182
 30
0.0
  0
POINT
  5
1C1
  8
DEFPOINTS
  6
CONTINUOUS
 62
     7
 10
-604.99999999999807
 20
-319.50000000000182
 30
0.0
  0
LINE
  5
1C3
  8
SIZE
  6
CONTINUOUS
 62
    30
 10
-469.99999971314998
 20
270.0
 30
0.0
 11
-469.9999997131498
 21
995.60526043274092
 31
0.0
  0
LINE
  5
1C4
  8
SIZE
  6
CONTINUOUS
 62
    30
 10
604.99999999999807
 20
339.50000000000182
 30
0.0
 11
604.99999999999807
 21
995.60526043274092
 31
0.0
  0
LINE
  5
1C5
  8
SIZE
  6
CONTINUOUS
 62
    30
 10
-469.9999997131498
 20
975.6052604327416
 30
0.0
 11
604.99999999999807
 21
975.6052604327416
 31
0.0
  0
CIRCLE
  5
1C6
  8
SIZE
  6
CONTINUOUS
 62
    30
 10
-469.9999997131498
 20
975.6052604327416
 30
0.0
 40
7.5
  0
CIRCLE
  5
1C7
  8
SIZE
  6
CONTINUOUS
 62
    30
 10
604.99999999999807
 20
975.6052604327416
 30
0.0
 40
7.5
  0
TEXT
  5
1C8
  8
SIZE
  6
CONTINUOUS
 62
    30
 10
-22.499999856576341
 20
995.60526043274092
 30
0.0
 40
60.0
  1
1075
 41
0.9
 72
     1
 11
67.500000143423676
 21
995.60526043274092
 31
0.0
  0
POINT
  5
1C9
  8
DEFPOINTS
  6
CONTINUOUS
 62
     7
 10
-469.99999971314998
 20
250.0
 30
0.0
  0
POINT
  5
1CA
  8
DEFPOINTS
  6
CONTINUOUS
 62
     7
 10
604.99999999999807
 20
319.50000000000182
 30
0.0
  0
POINT
  5
1CB
  8
DEFPOINTS
  6
CONTINUOUS
 62
     7
 10
604.99999999999807
 20
975.6052604327416
 30
0.0
  0
LINE
  5
1CC
  8
SIZE
  6
CONTINUOUS
 62
    30
 10
604.99999999999807
 20
339.50000000000182
 30
0.0
 11
604.99999999999807
 21
1125.605260432741
 31
0.0
  0
LINE
  5
1CD
  8
SIZE
  6
CONTINUOUS
 62
    30
 10
-529.99999971314992
 20
230.0
 30
0.0
 11
-529.99999971314992
 21
1125.605260432741
 31
0.0
  0
LINE
  5
1CE
  8
SIZE
  6
CONTINUOUS
 62
    30
 10
604.99999999999807
 20
1105.605260432741
 30
0.0
 11
-529.99999971314992
 21
1105.605260432741
 31
0.0
  0
CIRCLE
  5
1CF
  8
SIZE
  6
CONTINUOUS
 62
    30
 10
604.99999999999807
 20
1105.605260432741
 30
0.0
 40
7.5
  0
CIRCLE
  5
1D0
  8
SIZE
  6
CONTINUOUS
 62
    30
 10
-529.99999971314992
 20
1105.605260432741
 30
0.0
 40
7.5
  0
TEXT
  5
1D1
  8
SIZE
  6
CONTINUOUS
 62
    30
 10
-47.357142713719171
 20
1125.605260432741
 30
0.0
 40
60.0
  1
1135
 41
0.9
 72
     1
 11
37.500000143423691
 21
1125.605260432741
 31
0.0
  0
POINT
  5
1D2
  8
DEFPOINTS
  6
CONTINUOUS
 62
     7
 10
604.99999999999807
 20
319.50000000000182
 30
0.0
  0
POINT
  5
1D3
  8
DEFPOINTS
  6
CONTINUOUS
 62
     7
 10
-529.99999971314992
 20
210.0
 30
0.0
  0
POINT
  5
1D4
  8
DEFPOINTS
  6
CONTINUOUS
 62
     7
 10
-529.99999971314992
 20
1105.605260432741
 30
0.0
  0
LINE
  5
1D5
  8
SIZE
  6
CONTINUOUS
 62
    30
 10
579.0
 20
-395.0
 30
0.0
 11
1317.149788165503
 21
-395.00000000000023
 31
0.0
  0
LINE
  5
1D6
  8
SIZE
  6
CONTINUOUS
 62
    30
 10
587.79999999999927
 20
-424.0
 30
0.0
 11
1317.149788165503
 21
-424.0
 31
0.0
  0
LINE
  5
1D7
  8
SIZE
  6
CONTINUOUS
 62
    30
 10
1297.149788165503
 20
-395.00000000000023
 30
0.0
 11
1297.149788165503
 21
-365.00000000000023
 31
0.0
  0
LINE
  5
1D8
  8
SIZE
  6
CONTINUOUS
 62
    30
 10
1297.149788165503
 20
-424.0
 30
0.0
 11
1297.149788165503
 21
-608.85714285714312
 31
0.0
  0
LINE
  5
1D9
  8
SIZE
  6
CONTINUOUS
 62
    30
 10
1297.149788165503
 20
-395.00000000000023
 30
0.0
 11
1297.149788165503
 21
-424.0
 31
0.0
  0
CIRCLE
  5
1DA
  8
SIZE
  6
CONTINUOUS
 62
    30
 10
1297.149788165503
 20
-395.00000000000023
 30
0.0
 40
7.5
  0
CIRCLE
  5
1DB
  8
SIZE
  6
CONTINUOUS
 62
    30
 10
1297.149788165503
 20
-424.0
 30
0.0
 40
7.5
  0
TEXT
  5
1DC
  8
SIZE
  6
CONTINUOUS
 62
    30
 10
1277.149788165503
 20
-588.85714285714278
 30
0.0
 40
60.0
  1
29
 50
90.0
 41
0.9
 72
     1
 11
1277.149788165503
 21
-546.42857142857144
 31
0.0
  0
POINT
  5
1DD
  8
DEFPOINTS
  6
CONTINUOUS
 62
     7
 10
559.0
 20
-395.0
 30
0.0
  0
POINT
  5
1DE
  8
DEFPOINTS
  6
CONTINUOUS
 62
     7
 10
567.79999999999916
 20
-424.0
 30
0.0
  0
POINT
  5
1DF
  8
DEFPOINTS
  6
CONTINUOUS
 62
     7
 10
1297.149788165503
 20
-424.0
 30
0.0
  0
LINE
  5
1E0
  8
SIZE
  6
CONTINUOUS
 62
    30
 10
525.0
 20
449.00000000000171
 30
0.0
 11
525.0
 21
865.60526043274172
 31
0.0
  0
LINE
  5
1E1
  8
SIZE
  6
CONTINUOUS
 62
    30
 10
601.00000000000068
 20
336.10000000000042
 30
0.0
 11
601.00000000000068
 21
865.60526043274172
 31
0.0
  0
LINE
  5
1E2
  8
SIZE
  6
CONTINUOUS
 62
    30
 10
525.0
 20
845.60526043274092
 30
0.0
 11
601.00000000000068
 21
845.60526043274092
 31
0.0
  0
LINE
  5
1E3
  8
SIZE
  6
CONTINUOUS
 62
    30
 10
601.00000000000068
 20
845.60526043274092
 30
0.0
 11
755.85714285714334
 21
845.60526043274092
 31
0.0
  0
CIRCLE
  5
1E4
  8
SIZE
  6
CONTINUOUS
 62
    30
 10
525.0
 20
845.60526043274092
 30
0.0
 40
7.5
  0
CIRCLE
  5
1E5
  8
SIZE
  6
CONTINUOUS
 62
    30
 10
601.00000000000068
 20
845.60526043274092
 30
0.0
 40
7.5
  0
TEXT
  5
1E6
  8
SIZE
  6
CONTINUOUS
 62
    30
 10
651.00000000000091
 20
865.60526043274103
 30
0.0
 40
60.0
  1
76
 41
0.9
 72
     1
 11
693.42857142857235
 21
865.60526043274103
 31
0.0
  0
POINT
  5
1E7
  8
DEFPOINTS
  6
CONTINUOUS
 62
     7
 10
525.0
 20
429.00000000000159
 30
0.0
  0
POINT
  5
1E8
  8
DEFPOINTS
  6
CONTINUOUS
 62
     7
 10
601.00000000000068
 20
316.10000000000042
 30
0.0
  0
POINT
  5
1E9
  8
DEFPOINTS
  6
CONTINUOUS
 62
     7
 10
601.00000000000068
 20
845.60526043274092
 30
0.0
  0
LINE
  5
1EA
  8
SIZE
  6
CONTINUOUS
 62
    30
 10
601.00000000000068
 20
336.10000000000042
 30
0.0
 11
601.00000000000102
 21
1255.605260432741
 31
0.0
  0
LINE
  5
1EB
  8
SIZE
  6
CONTINUOUS
 62
    30
 10
-601.00000000000068
 20
336.10000000000042
 30
0.0
 11
-601.00000000000068
 21
1255.605260432741
 31
0.0
  0
LINE
  5
1EC
  8
SIZE
  6
CONTINUOUS
 62
    30
 10
601.00000000000068
 20
1235.605260432741
 30
0.0
 11
-601.00000000000068
 21
1235.605260432741
 31
0.0
  0
CIRCLE
  5
1ED
  8
SIZE
  6
CONTINUOUS
 62
    30
 10
601.00000000000068
 20
1235.605260432741
 30
0.0
 40
7.5
  0
CIRCLE
  5
1EE
  8
SIZE
  6
CONTINUOUS
 62
    30
 10
-601.00000000000068
 20
1235.605260432741
 30
0.0
 40
7.5
  0
TEXT
  5
1EF
  8
SIZE
  6
CONTINUOUS
 62
    30
 10
-124.71428571428569
 20
1271.319546147027
 30
0.0
 40
60.0
  1
(1202)
 41
0.9
 72
     1
 11
0.0
 21
1271.319546147027
 31
0.0
  0
POINT
  5
1F0
  8
DEFPOINTS
  6
CONTINUOUS
 62
     7
 10
601.00000000000068
 20
316.10000000000042
 30
0.0
  0
POINT
  5
1F1
  8
DEFPOINTS
  6
CONTINUOUS
 62
     7
 10
-601.00000000000068
 20
316.10000000000042
 30
0.0
  0
POINT
  5
1F2
  8
DEFPOINTS
  6
CONTINUOUS
 62
     7
 10
-601.00000000000068
 20
1235.605260432741
 30
0.0
  0
POINT
  5
1FA
  8
DEFPOINTS
  6
CONTINUOUS
 62
     7
 10
484.99999999999801
 20
-280.0
 30
0.0
  0
POINT
  5
1FB
  8
DEFPOINTS
  6
CONTINUOUS
 62
     7
 10
567.79999999999916
 20
-424.0
 30
0.0
  0
POINT
  5
203
  8
DEFPOINTS
  6
CONTINUOUS
 62
     7
 10
484.99999999999801
 20
-280.0
 30
0.0
  0
POINT
  5
204
  8
DEFPOINTS
  6
CONTINUOUS
 62
     7
 10
484.99999999999801
 20
-90.0
 30
0.0
  0
LINE
  5
206
  8
SERVICESPACE
  6
DASHDOT
 62
     2
 10
-610.07091039833904
 20
424.0
 30
0.0
 11
-610.07091039833904
 21
-424.0
 31
0.0
  0
LINE
  5
207
  8
SERVICESPACE
  6
DASHDOT
 62
     2
 10
-610.07091039833904
 20
424.0
 30
0.0
 11
-710.07091039833892
 21
424.0
 31
0.0
  0
LINE
  5
208
  8
SERVICESPACE
  6
DASHDOT
 62
     2
 10
-710.07091039833892
 20
424.0
 30
0.0
 11
-710.07091039833892
 21
-424.0
 31
0.0
  0
LINE
  5
209
  8
SERVICESPACE
  6
DASHDOT
 62
     2
 10
-610.07091039833904
 20
-424.0
 30
0.0
 11
-710.07091039833892
 21
-424.0
 31
0.0
  0
LINE
  5
20A
  8
SERVICESPACE
  6
DASHDOT
 62
     2
 10
-710.07091039833892
 20
424.0
 30
0.0
 11
-610.07091039833904
 21
-424.0
 31
0.0
  0
LINE
  5
20B
  8
SERVICESPACE
  6
DASHDOT
 62
     2
 10
-710.07091039833892
 20
-424.0
 30
0.0
 11
-610.07091039833904
 21
424.0
 31
0.0
  0
LINE
  5
20C
  8
SERVICESPACE
  6
DASHDOT
 62
     2
 10
-610.07091039833904
 20
424.0
 30
0.0
 11
610.07091039825161
 21
424.0
 31
0.0
  0
LINE
  5
20D
  8
SERVICESPACE
  6
DASHDOT
 62
     2
 10
-610.07091039833904
 20
424.0
 30
0.0
 11
-610.07091039833904
 21
724.0
 31
0.0
  0
LINE
  5
20E
  8
SERVICESPACE
  6
DASHDOT
 62
     2
 10
-610.07091039833904
 20
724.0
 30
0.0
 11
610.07091039825877
 21
724.0
 31
0.0
  0
LINE
  5
20F
  8
SERVICESPACE
  6
DASHDOT
 62
     2
 10
610.07091039825161
 20
424.0
 30
0.0
 11
610.07091039825161
 21
724.0
 31
0.0
  0
LINE
  5
210
  8
SERVICESPACE
  6
DASHDOT
 62
     2
 10
-610.07091039833904
 20
724.0
 30
0.0
 11
610.07091039825161
 21
424.0
 31
0.0
  0
LINE
  5
211
  8
SERVICESPACE
  6
DASHDOT
 62
     2
 10
610.07091039825161
 20
724.0
 30
0.0
 11
-610.07091039833904
 21
424.0
 31
0.0
  0
LINE
  5
212
  8
SERVICESPACE
  6
DASHDOT
 62
     2
 10
710.07091039825161
 20
424.0
 30
0.0
 11
710.07091039825161
 21
-424.0
 31
0.0
  0
LINE
  5
213
  8
SERVICESPACE
  6
DASHDOT
 62
     2
 10
710.07091039825161
 20
424.0
 30
0.0
 11
610.07091039825161
 21
424.0
 31
0.0
  0
LINE
  5
214
  8
SERVICESPACE
  6
DASHDOT
 62
     2
 10
610.07091039825161
 20
424.0
 30
0.0
 11
610.07091039825161
 21
-424.0
 31
0.0
  0
LINE
  5
215
  8
SERVICESPACE
  6
DASHDOT
 62
     2
 10
710.07091039825161
 20
-424.0
 30
0.0
 11
610.07091039825161
 21
-424.0
 31
0.0
  0
LINE
  5
216
  8
SERVICESPACE
  6
DASHDOT
 62
     2
 10
610.07091039825161
 20
424.0
 30
0.0
 11
710.07091039825161
 21
-424.0
 31
0.0
  0
LINE
  5
217
  8
SERVICESPACE
  6
DASHDOT
 62
     2
 10
610.07091039825161
 20
-424.0
 30
0.0
 11
710.07091039825161
 21
424.0
 31
0.0
  0
LINE
  5
218
  8
SERVICESPACE
  6
DASHDOT
 62
     2
 10
-610.00001039834012
 20
-424.0
 30
0.0
 11
610.00001039825293
 21
-424.0
 31
0.0
  0
LINE
  5
219
  8
SERVICESPACE
  6
DASHDOT
 62
     2
 10
610.00001039825293
 20
-424.0
 30
0.0
 11
610.00001039825293
 21
-874.00000000000171
 31
0.0
  0
LINE
  5
21A
  8
SERVICESPACE
  6
DASHDOT
 62
     2
 10
610.00001039825293
 20
-874.00000000000171
 30
0.0
 11
-610.00001039834012
 21
-874.00000000000171
 31
0.0
  0
LINE
  5
21B
  8
SERVICESPACE
  6
DASHDOT
 62
     2
 10
-610.00001039834012
 20
-424.00000000000358
 30
0.0
 11
610.00001039825293
 21
-874.00000000000171
 31
0.0
  0
LINE
  5
21C
  8
SERVICESPACE
  6
DASHDOT
 62
     2
 10
610.00001039825293
 20
-424.0
 30
0.0
 11
-610.00001039834012
 21
-874.00000000000171
 31
0.0
  0
LINE
  5
21D
  8
SERVICESPACE
  6
DASHDOT
 62
     2
 10
-610.00001039825293
 20
-424.0
 30
0.0
 11
-610.00001039825293
 21
-874.00000000000171
 31
0.0
  0
TEXT
  5
21E
  8
NOTE
  6
CONTINUOUS
 62
     4
 10
-154.2284429124264
 20
640.87969035382025
 30
0.0
 40
60.0
  1
通風スペース
 50
0.0000025044165917
 41
0.8
  7
STANDARD1
  0
TEXT
  5
21F
  8
NOTE
  6
CONTINUOUS
 62
     4
 10
-216.71608074695541
 20
-862.06632748251104
 30
0.0
 40
60.0
  1
サービススペース
 50
0.0000025044165917
 41
0.8
  7
STANDARD1
  0
TEXT
  5
220
  8
NOTE
  6
CONTINUOUS
 62
     4
 10
-205.4780715751622
 20
-793.11438072841372
 30
0.0
 40
60.0
  1
通風スペース 兼
 50
0.0000025044165917
 41
0.8
  7
STANDARD1
  0
POINT
  5
245
  8
DEFPOINTS
  6
CONTINUOUS
 62
     7
 10
-610.00001039834012
 20
-874.00000000000352
 30
0.0
  0
POINT
  5
246
  8
DEFPOINTS
  6
CONTINUOUS
 62
     7
 10
610.00001039825293
 20
-874.00000000000171
 30
0.0
  0
POINT
  5
24E
  8
DEFPOINTS
  6
CONTINUOUS
 62
     7
 10
609.92911039825412
 20
723.98491565222503
 30
0.0
  0
POINT
  5
24F
  8
DEFPOINTS
  6
CONTINUOUS
 62
     7
 10
610.07091039825161
 20
424.0
 30
0.0
  0
POINT
  5
257
  8
DEFPOINTS
  6
CONTINUOUS
 62
     7
 10
710.07091039825161
 20
424.0
 30
0.0
  0
POINT
  5
258
  8
DEFPOINTS
  6
CONTINUOUS
 62
     7
 10
710.07091039825161
 20
-424.0
 30
0.0
  0
POINT
  5
260
  8
DEFPOINTS
  6
CONTINUOUS
 62
     7
 10
610.00001039825293
 20
-424.0
 30
0.0
  0
POINT
  5
261
  8
DEFPOINTS
  6
CONTINUOUS
 62
     7
 10
610.00001039825293
 20
-874.00000000000171
 30
0.0
  0
POINT
  5
26A
  8
DEFPOINTS
  6
CONTINUOUS
 62
     7
 10
-710.07091039833892
 20
-424.0
 30
0.0
  0
POINT
  5
26B
  8
DEFPOINTS
  6
CONTINUOUS
 62
     7
 10
-610.07091039833904
 20
-424.0
 30
0.0
  0
POINT
  5
274
  8
DEFPOINTS
  6
CONTINUOUS
 62
     7
 10
610.07091039825161
 20
-424.0
 30
0.0
  0
POINT
  5
275
  8
DEFPOINTS
  6
CONTINUOUS
 62
     7
 10
710.07091039825161
 20
-424.0
 30
0.0
  0
TEXT
  5
29E
  8
NOTE
  6
CONTINUOUS
 62
     4
 10
952.01996599740232
 20
1068.684545456219
 30
0.0
 40
60.0
  1
<M12ボルト>
 50
0.0000025044165917
 41
0.7
  7
STANDARD1
  0
TEXT
  5
29F
  8
NOTE
  6
CONTINUOUS
 62
     4
 10
912.62385468750995
 20
1150.1218557811351
 30
0.0
 40
60.0
  1
AH 4-16x25長穴
 50
0.0000025044165917
 41
0.7
  7
STANDARD1
  0
LINE
  5
2A0
  8
NOTE
  6
CONTINUOUS
 62
     4
 10
547.03825150442549
 20
416.88452791830969
 30
0.0
 11
525.0
 21
395.00000000000171
 31
0.0
  0
LINE
  5
2A1
  8
NOTE
  6
CONTINUOUS
 62
     4
 10
525.0
 20
395.00000000000171
 30
0.0
 11
533.14342183463646
 21
424.97168284235602
 31
0.0
  0
LINE
  5
2A2
  8
NOTE
  6
CONTINUOUS
 62
     4
 10
525.0
 20
395.00000000000171
 30
0.0
 11
540.09083666953086
 21
420.9281053803324
 31
0.0
  0
LINE
  5
2A3
  8
NOTE
  6
CONTINUOUS
 62
     4
 10
540.09083666953086
 20
420.9281053803324
 30
0.0
 11
908.21337777323765
 21
1053.412589019541
 31
0.0
  0
LINE
  5
2A4
  8
NOTE
  6
CONTINUOUS
 62
     4
 10
908.21337777323765
 20
1053.412589019541
 30
0.0
 11
1424.9813723019611
 21
1053.412589019541
 31
0.0
  0
LINE
  5
2C6
  8
OUTLINE
  6
CONTINUOUS
 62
     3
 10
-608.82842769849765
 20
322.1715728753025
 30
0.0
 11
-597.79999999999916
 21
333.20000057380088
 31
0.0
  0
ARC
  5
2C7
  8
OUTLINE
  6
CONTINUOUS
 62
     3
 10
-606.0
 20
319.34314575050121
 30
0.0
 40
4.0
 50
135.0000000000737
 51
180.0
  0
LINE
  5
2C8
  8
OUTLINE
  6
CONTINUOUS
 62
     3
 10
-610.00000028684894
 20
319.34163089314637
 30
0.0
 11
-610.00000028684894
 21
-319.34163089303547
 31
0.0
  0
ARC
  5
2C9
  8
OUTLINE
  6
CONTINUOUS
 62
     3
 10
606.0
 20
-319.34314575049763
 30
0.0
 40
4.0
 50
315.00000000007373
 51
0.0216987352781525
  0
LINE
  5
2CA
  8
OUTLINE
  6
CONTINUOUS
 62
     3
 10
608.82842712479919
 20
-322.17157287529881
 30
0.0
 11
597.80000000000075
 21
-333.20000000009702
 31
0.0
  0
LINE
  5
2CB
  8
OUTLINE
  6
CONTINUOUS
 62
     3
 10
609.99999971315083
 20
319.34163089314637
 30
0.0
 11
609.99999971315083
 21
-319.34163089303547
 31
0.0
  0
ARC
  5
2CC
  8
OUTLINE
  6
CONTINUOUS
 62
     3
 10
606.0
 20
319.34314575050121
 30
0.0
 40
4.0
 50
359.97830126623307
 51
45.0
  0
ARC
  5
2CD
  8
OUTLINE
  6
CONTINUOUS
 62
     3
 10
-606.0
 20
-319.34314575049763
 30
0.0
 40
4.0
 50
180.0
 51
225.0
  0
LINE
  5
2CE
  8
OUTLINE
  6
CONTINUOUS
 62
     3
 10
597.80000000000075
 20
394.00000000000182
 30
0.0
 11
567.80000000000075
 21
424.00000000000171
 31
0.0
  0
LINE
  5
2CF
  8
OUTLINE
  6
CONTINUOUS
 62
     3
 10
567.80000000000075
 20
-423.99999999999778
 30
0.0
 11
597.80000000000075
 21
-393.99999999999818
 31
0.0
  0
LINE
  5
2D0
  8
OUTLINE
  6
CONTINUOUS
 62
     3
 10
608.82842712479919
 20
322.1715728753025
 30
0.0
 11
597.80000000000075
 21
333.20000000010077
 31
0.0
  0
LINE
  5
2D1
  8
OUTLINE
  6
CONTINUOUS
 62
     3
 10
597.80000000000075
 20
333.20000000010077
 30
0.0
 11
597.80000000000075
 21
394.00000000000182
 31
0.0
  0
LINE
  5
2D2
  8
OUTLINE
  6
CONTINUOUS
 62
     3
 10
597.80000000000075
 20
-333.20000000009702
 30
0.0
 11
597.80000000000075
 21
-393.99999999999818
 31
0.0
  0
LINE
  5
2D3
  8
OUTLINE
  6
CONTINUOUS
 62
     3
 10
567.80000000000075
 20
424.00000000000171
 30
0.0
 11
-567.79999999999916
 21
424.00000000000171
 31
0.0
  0
LINE
  5
2D4
  8
OUTLINE
  6
CONTINUOUS
 62
     3
 10
-567.79999999999916
 20
-423.99999999999778
 30
0.0
 11
567.80000000000075
 21
-423.99999999999778
 31
0.0
  0
LINE
  5
2D5
  8
OUTLINE
  6
CONTINUOUS
 62
     3
 10
-597.79999999999916
 20
333.20000057380088
 30
0.0
 11
-597.79999999999916
 21
394.00000000000182
 31
0.0
  0
LINE
  5
2D6
  8
OUTLINE
  6
CONTINUOUS
 62
     3
 10
-597.79999999999916
 20
-333.19999999989892
 30
0.0
 11
-597.79999999999916
 21
-393.99999999999818
 31
0.0
  0
LINE
  5
2D7
  8
OUTLINE
  6
CONTINUOUS
 62
     3
 10
-608.82842712469915
 20
-322.17157287519882
 30
0.0
 11
-597.79999999999916
 21
-333.19999999989892
 31
0.0
  0
LINE
  5
2D8
  8
OUTLINE
  6
CONTINUOUS
 62
     3
 10
-597.79999999999916
 20
-393.99999999999818
 30
0.0
 11
-567.79999999999916
 21
-423.99999999999778
 31
0.0
  0
LINE
  5
2D9
  8
OUTLINE
  6
CONTINUOUS
 62
     3
 10
-567.79999999999916
 20
424.00000000000171
 30
0.0
 11
-597.79999999999916
 21
394.00000000000182
 31
0.0
  0
TEXT
  5
2E5
  8
ETC
  6
CONTINUOUS
 62
    61
 10
676.02421468434272
 20
1487.6342552700689
 30
0.0
 40
80.0
  1
ECOV-EN98MC_6
 50
0.0000029998804485
 41
0.8
  7
STANDARD_MODELNAME
  0
TEXT
  5
2E6
  8
ETC
  6
CONTINUOUS
 62
    61
 10
676.02421468434272
 20
1346.3445032912241
 30
0.0
 40
80.0
  1
ECOV-EN110MC_6
 50
0.0000029998804485
 41
0.8
  7
STANDARD_MODELNAME
  0
TEXT
  5
2E7
  8
ETC
  6
CONTINUOUS
 62
    61
 10
676.02421468434272
 20
1623.5994321077519
 30
0.0
 40
80.0
  1
ECOV-EN75MC_6
 50
0.0000029998804485
 41
0.8
  7
STANDARD_MODELNAME
  0
TEXT
  5
325
  8
NOTE
  6
CONTINUOUS
 62
     4
 10
805.5816325187169
 20
-565.3085061532546
 30
0.0
 40
60.0
  1
RG %%C28.58
 50
359.99999749558327
 41
0.7
  7
STANDARD1
  0
TEXT
  5
326
  8
NOTE
  6
CONTINUOUS
 62
     4
 10
1012.643009877092
 20
-1119.53491430137
 30
0.0
 40
60.0
  1
RL %%C12.7
 50
359.99999749558327
 41
0.7
  7
STANDARD1
  0
LINE
  5
327
  8
NOTE
  6
CONTINUOUS
 62
     4
 10
409.670262208248
 20
-179.51445612582441
 30
0.0
 11
400.0
 21
-150.0
 31
0.0
  0
LINE
  5
328
  8
NOTE
  6
CONTINUOUS
 62
     4
 10
400.0
 20
-150.0
 30
0.0
 11
423.13192070249107
 21
-170.72513778465961
 31
0.0
  0
LINE
  5
329
  8
NOTE
  6
CONTINUOUS
 62
     4
 10
400.0
 20
-150.0
 30
0.0
 11
985.85727549632952
 21
-976.18415621840165
 31
0.0
  0
LINE
  5
32A
  8
NOTE
  6
CONTINUOUS
 62
     4
 10
752.21740356443161
 20
-644.57631332494566
 30
0.0
 11
1183.874389583639
 21
-644.57631332494566
 31
0.0
  0
LINE
  5
32B
  8
NOTE
  6
CONTINUOUS
 62
     4
 10
371.485603792294
 20
-269.57432014899217
 30
0.0
 11
361.9999999999992
 21
-240.0
 31
0.0
  0
LINE
  5
32C
  8
NOTE
  6
CONTINUOUS
 62
     4
 10
361.9999999999992
 20
-240.0
 30
0.0
 11
385.00193383418269
 21
-260.8693107568825
 31
0.0
  0
LINE
  5
32D
  8
NOTE
  6
CONTINUOUS
 62
     4
 10
361.9999999999992
 20
-240.0
 30
0.0
 11
1105.629731228961
 21
-1349.1102543370289
 31
0.0
  0
LINE
  5
32E
  8
NOTE
  6
CONTINUOUS
 62
     4
 10
999.45520229166914
 20
-1190.048504847382
 30
0.0
 11
1715.6783542847311
 21
-1190.048504847382
 31
0.0
  0
TEXT
  5
32F
  8
NOTE
  6
CONTINUOUS
 62
     4
 10
-1369.155047395755
 20
1080.062189473716
 30
0.0
 40
60.0
  1
GHP1 <取出し口>
 50
359.99999749558327
 41
0.7
  7
STANDARD1
  0
TEXT
  5
330
  8
NOTE
  6
CONTINUOUS
 62
     4
 10
-1149.3550473957521
 20
991.39389986718743
 30
0.0
 40
60.0
  1
%%C19.05
 50
359.99999749558327
 41
0.7
  7
STANDARD1
  0
TEXT
  5
331
  8
NOTE
  6
CONTINUOUS
 62
     4
 10
-1320.112999825609
 20
873.76068579785351
 30
0.0
 40
60.0
  1
GHP2 <戻し口>
 50
359.99999749558327
 41
0.7
  7
STANDARD1
  0
TEXT
  5
332
  8
NOTE
  6
CONTINUOUS
 62
     4
 10
-1150.7129998256071
 20
785.09239839432485
 30
0.0
 40
60.0
  1
%%C19.05
 50
359.99999749558327
 41
0.7
  7
STANDARD1
  0
LINE
  5
333
  8
NOTE
  6
CONTINUOUS
 62
     4
 10
-539.06564889730635
 20
205.7057418094428
 30
0.0
 11
-529.99999971314992
 21
176.0
 31
0.0
  0
LINE
  5
334
  8
NOTE
  6
CONTINUOUS
 62
     4
 10
-529.99999971314992
 20
176.0
 30
0.0
 11
-552.70395301700535
 21
197.19310255615801
 31
0.0
  0
LINE
  5
335
  8
NOTE
  6
CONTINUOUS
 62
     4
 10
-529.99999971314992
 20
176.0
 30
0.0
 11
-909.84698014705828
 21
772.07383076415499
 31
0.0
  0
LINE
  5
336
  8
NOTE
  6
CONTINUOUS
 62
     4
 10
-909.84698014705828
 20
772.07383076415499
 30
0.0
 11
-1332.2590545133071
 21
772.07383076415499
 31
0.0
  0
LINE
  5
337
  8
NOTE
  6
CONTINUOUS
 62
     4
 10
-478.28744636416968
 20
245.93217866420721
 30
0.0
 11
-469.99999971314998
 21
216.0
 31
0.0
  0
LINE
  5
338
  8
NOTE
  6
CONTINUOUS
 62
     4
 10
-469.99999971314998
 20
216.0
 30
0.0
 11
-492.14322827874628
 21
237.77830388876191
 31
0.0
  0
LINE
  5
339
  8
NOTE
  6
CONTINUOUS
 62
     4
 10
-469.99999971314998
 20
216.0
 30
0.0
 11
-908.19909587125062
 21
974.83938663471019
 31
0.0
  0
LINE
  5
33A
  8
NOTE
  6
CONTINUOUS
 62
     4
 10
-908.19909587125062
 20
974.83938663471019
 30
0.0
 11
-1366.198463982563
 21
974.83938663471019
 31
0.0
  0
TEXT
  5
33B
  8
NOTE
  6
CONTINUOUS
 62
     4
 10
857.27911780692159
 20
-626.06459531505152
 30
0.0
 40
40.0
  1
ECOV-EN75MC
 41
0.7
  0
TEXT
  5
33C
  8
NOTE
  6
CONTINUOUS
 62
     4
 10
909.38918125325108
 20
-730.66737087575882
 30
0.0
 40
60.0
  1
RG %%C31.75
 50
359.99999749558327
 41
0.7
  7
STANDARD1
  0
LINE
  5
33D
  8
NOTE
  6
CONTINUOUS
 62
     4
 10
868.7237673448052
 20
-809.93517804744988
 30
0.0
 11
1287.574565120738
 21
-809.93517804744988
 31
0.0
  0
TEXT
  5
33E
  8
NOTE
  6
CONTINUOUS
 62
     4
 10
961.086666541456
 20
-791.42346003755574
 30
0.0
 40
40.0
  1
ECOV-EN98MC
 41
0.7
  0
TEXT
  5
33F
  8
NOTE
  6
CONTINUOUS
 62
     4
 10
1004.245858612359
 20
-896.91634904671082
 30
0.0
 40
60.0
  1
RG %%C34.92
 50
359.99999749558327
 41
0.7
  7
STANDARD1
  0
LINE
  5
340
  8
NOTE
  6
CONTINUOUS
 62
     4
 10
985.85727549632952
 20
-976.18415621840165
 30
0.0
 11
1402.616960384514
 21
-976.18415621840165
 31
0.0
  0
TEXT
  5
341
  8
NOTE
  6
CONTINUOUS
 62
     4
 10
1055.9433439005641
 20
-957.67243820850751
 30
0.0
 40
40.0
  1
ECOV-EN110MC
 41
0.7
  0
LINE
  5
342
  8
SIZE
  6
CONTINUOUS
 62
    30
 10
-730.07091039833892
 20
424.0
 30
0.0
 11
-1198.2873008045719
 21
424.0
 31
0.0
  0
LINE
  5
343
  8
SIZE
  6
CONTINUOUS
 62
    30
 10
-730.07091039833892
 20
-424.0
 30
0.0
 11
-1198.2873008045719
 21
-424.0
 31
0.0
  0
LINE
  5
344
  8
SIZE
  6
CONTINUOUS
 62
    30
 10
-1178.2873008045719
 20
424.0
 30
0.0
 11
-1178.2873008045719
 21
-424.0
 31
0.0
  0
CIRCLE
  5
345
  8
SIZE
  6
CONTINUOUS
 62
    30
 10
-1178.2873008045719
 20
424.0
 30
0.0
 40
7.5
  0
CIRCLE
  5
346
  8
SIZE
  6
CONTINUOUS
 62
    30
 10
-1178.2873008045719
 20
-424.0
 30
0.0
 40
7.5
  0
TEXT
  5
347
  8
SIZE
  6
CONTINUOUS
 62
    30
 10
-1195.2722764333189
 20
-69.428571428571431
 30
0.0
 40
60.0
  1
848
 50
90.0
 41
0.9
 72
     1
 11
-1195.2722764333189
 21
0.0
 31
0.0
  0
LINE
  5
348
  8
SIZE
  6
CONTINUOUS
 62
    30
 10
-630.07091039833904
 20
724.0
 30
0.0
 11
-1198.287300804571
 21
724.0
 31
0.0
  0
LINE
  5
349
  8
SIZE
  6
CONTINUOUS
 62
    30
 10
-730.07091039833892
 20
424.0
 30
0.0
 11
-1198.2873008045719
 21
424.0
 31
0.0
  0
LINE
  5
34A
  8
SIZE
  6
CONTINUOUS
 62
    30
 10
-1178.287300804571
 20
724.0
 30
0.0
 11
-1178.2873008045719
 21
424.0
 31
0.0
  0
CIRCLE
  5
34B
  8
SIZE
  6
CONTINUOUS
 62
    30
 10
-1178.287300804571
 20
724.0
 30
0.0
 40
7.5
  0
CIRCLE
  5
34C
  8
SIZE
  6
CONTINUOUS
 62
    30
 10
-1178.2873008045719
 20
424.0
 30
0.0
 40
7.5
  0
TEXT
  5
34D
  8
SIZE
  6
CONTINUOUS
 62
    30
 10
-1195.2722764333189
 20
504.5714285714285
 30
0.0
 40
60.0
  1
300
 50
90.0
 41
0.9
 72
     1
 11
-1195.2722764333189
 21
574.0
 31
0.0
  0
LINE
  5
34E
  8
SIZE
  6
CONTINUOUS
 62
    30
 10
-730.07091039833892
 20
-424.0
 30
0.0
 11
-1198.2873008045719
 21
-424.0
 31
0.0
  0
LINE
  5
34F
  8
SIZE
  6
CONTINUOUS
 62
    30
 10
-630.00001039825293
 20
-874.00000000000171
 30
0.0
 11
-1198.2873008045719
 21
-874.00000000000171
 31
0.0
  0
LINE
  5
350
  8
SIZE
  6
CONTINUOUS
 62
    30
 10
-1178.2873008045719
 20
-424.0
 30
0.0
 11
-1178.2873008045719
 21
-874.00000000000171
 31
0.0
  0
CIRCLE
  5
351
  8
SIZE
  6
CONTINUOUS
 62
    30
 10
-1178.2873008045719
 20
-424.0
 30
0.0
 40
7.5
  0
CIRCLE
  5
352
  8
SIZE
  6
CONTINUOUS
 62
    30
 10
-1178.2873008045719
 20
-874.00000000000171
 30
0.0
 40
7.5
  0
TEXT
  5
353
  8
SIZE
  6
CONTINUOUS
 62
    30
 10
-1195.2722764333189
 20
-718.42857142857224
 30
0.0
 40
60.0
  1
450
 50
90.0
 41
0.9
 72
     1
 11
-1195.2722764333189
 21
-649.0000000000008
 31
0.0
  0
TEXT
  5
354
  8
NOTE
  6
CONTINUOUS
 62
     4
 10
1047.5693368434199
 20
-1176.9737961694541
 30
0.0
 40
40.0
  1
ECOV-EN75MC/ECOV-EN98MC
 41
0.7
  0
TEXT
  5
355
  8
NOTE
  6
CONTINUOUS
 62
     4
 10
1106.7518164181799
 20
-1278.5966637910169
 30
0.0
 40
60.0
  1
RL %%C15.88
 50
359.99999749558327
 41
0.7
  7
STANDARD1
  0
LINE
  5
356
  8
NOTE
  6
CONTINUOUS
 62
     4
 10
1105.629731228961
 20
-1349.1102543370289
 30
0.0
 11
1480.7184863783309
 21
-1349.1102543370289
 31
0.0
  0
TEXT
  5
357
  8
NOTE
  6
CONTINUOUS
 62
     4
 10
1141.6781433845081
 20
-1336.035545659101
 30
0.0
 40
40.0
  1
ECOV-EN110MC
 41
0.7
  0
LINE
  5
374
  8
SIZE
  6
CONTINUOUS
 62
    30
 10
587.80000028685015
 20
-424.0
 30
0.0
 11
1091.489522508936
 21
-424.0
 31
0.0
  0
LINE
  5
375
  8
SIZE
  6
CONTINUOUS
 62
    30
 10
415.99999999999909
 20
-240.0
 30
0.0
 11
1091.489522508936
 21
-240.0000000000002
 31
0.0
  0
LINE
  5
376
  8
SIZE
  6
CONTINUOUS
 62
    30
 10
1071.4895225089369
 20
-424.0
 30
0.0
 11
1071.4895225089369
 21
-240.0000000000002
 31
0.0
  0
CIRCLE
  5
377
  8
SIZE
  6
CONTINUOUS
 62
    30
 10
1071.4895225089369
 20
-424.0
 30
0.0
 40
7.5
  0
CIRCLE
  5
378
  8
SIZE
  6
CONTINUOUS
 62
    30
 10
1071.4895225089369
 20
-240.0000000000002
 30
0.0
 40
7.5
  0
TEXT
  5
379
  8
SIZE
  6
CONTINUOUS
 62
    30
 10
1051.489522508936
 20
-383.32964623153123
 30
0.0
 40
60.0
  1
184
 50
90.0
 41
0.9
 72
     1
 11
1051.489522508936
 21
-317.75821766010267
 31
0.0
  0
POINT
  5
37A
  8
DEFPOINTS
  6
CONTINUOUS
 62
     7
 10
1071.4895225089369
 20
-240.0000000000002
 30
0.0
  0
LINE
  5
37B
  8
SIZE
  6
CONTINUOUS
 62
    30
 10
587.80000028685015
 20
-424.0
 30
0.0
 11
1221.4895225089369
 21
-424.0
 31
0.0
  0
LINE
  5
37C
  8
SIZE
  6
CONTINUOUS
 62
    30
 10
454.0
 20
-150.0
 30
0.0
 11
1221.4895225089369
 21
-150.0000000000002
 31
0.0
  0
LINE
  5
37D
  8
SIZE
  6
CONTINUOUS
 62
    30
 10
1201.4895225089369
 20
-424.0
 30
0.0
 11
1201.4895225089369
 21
-150.0000000000002
 31
0.0
  0
CIRCLE
  5
37E
  8
SIZE
  6
CONTINUOUS
 62
    30
 10
1201.4895225089369
 20
-424.0
 30
0.0
 40
7.5
  0
CIRCLE
  5
37F
  8
SIZE
  6
CONTINUOUS
 62
    30
 10
1201.4895225089369
 20
-150.0000000000002
 30
0.0
 40
7.5
  0
TEXT
  5
380
  8
SIZE
  6
CONTINUOUS
 62
    30
 10
1181.489522508936
 20
-357.71428571428407
 30
0.0
 40
60.0
  1
274
 50
90.0
 41
0.9
 72
     1
 11
1181.489522508936
 21
-286.99999999999841
 31
0.0
  0
POINT
  5
381
  8
DEFPOINTS
  6
CONTINUOUS
 62
     7
 10
1201.4895225089369
 20
-150.0000000000002
 30
0.0
  0
LINE
  5
3B6
  8
SIZE
  6
CONTINUOUS
 62
    30
 10
400.0
 20
-204.35314231310991
 30
0.0
 11
400.0
 21
-1046.5296154721691
 31
0.0
  0
LINE
  5
3B7
  8
SIZE
  6
CONTINUOUS
 62
    30
 10
604.99999999999807
 20
-346.00000028694922
 30
0.0
 11
604.99999999999807
 21
-1046.5296154721691
 31
0.0
  0
LINE
  5
3B8
  8
SIZE
  6
CONTINUOUS
 62
    30
 10
400.0
 20
-1026.5296154721691
 30
0.0
 11
604.99999999999807
 21
-1026.5296154721691
 31
0.0
  0
CIRCLE
  5
3B9
  8
SIZE
  6
CONTINUOUS
 62
    30
 10
400.0
 20
-1026.5296154721691
 30
0.0
 40
7.5
  0
CIRCLE
  5
3BA
  8
SIZE
  6
CONTINUOUS
 62
    30
 10
604.99999999999807
 20
-1026.5296154721691
 30
0.0
 40
7.5
  0
TEXT
  5
3BB
  8
SIZE
  6
CONTINUOUS
 62
    30
 10
433.07142857142719
 20
-1006.529615472169
 30
0.0
 40
60.0
  1
205
 41
0.9
 72
     1
 11
502.49999999999858
 21
-1006.529615472169
 31
0.0
  0
POINT
  5
3BC
  8
DEFPOINTS
  6
CONTINUOUS
 62
     7
 10
604.99999999999807
 20
-1026.5296154721691
 30
0.0
  0
LINE
  5
3BD
  8
SIZE
  6
CONTINUOUS
 62
    30
 10
361.9999999999992
 20
-294.4598671848089
 30
0.0
 11
361.99999999999892
 21
-1176.5296154721691
 31
0.0
  0
LINE
  5
3BE
  8
SIZE
  6
CONTINUOUS
 62
    30
 10
604.99999999999807
 20
-346.00000028695092
 30
0.0
 11
604.99999999999807
 21
-1176.5296154721691
 31
0.0
  0
LINE
  5
3BF
  8
SIZE
  6
CONTINUOUS
 62
    30
 10
361.99999999999892
 20
-1156.5296154721691
 30
0.0
 11
604.99999999999807
 21
-1156.5296154721691
 31
0.0
  0
CIRCLE
  5
3C0
  8
SIZE
  6
CONTINUOUS
 62
    30
 10
361.99999999999892
 20
-1156.5296154721691
 30
0.0
 40
7.5
  0
CIRCLE
  5
3C1
  8
SIZE
  6
CONTINUOUS
 62
    30
 10
604.99999999999807
 20
-1156.5296154721691
 30
0.0
 40
7.5
  0
TEXT
  5
3C2
  8
SIZE
  6
CONTINUOUS
 62
    30
 10
414.07142857142668
 20
-1136.5296154721691
 30
0.0
 40
60.0
  1
243
 41
0.9
 72
     1
 11
483.49999999999818
 21
-1136.5296154721691
 31
0.0
  0
POINT
  5
3C3
  8
DEFPOINTS
  6
CONTINUOUS
 62
     7
 10
604.99999999999807
 20
-1156.5296154721691
 30
0.0
  0
LINE
  5
3C4
  8
SIZE
  6
CONTINUOUS
 62
    30
 10
604.99999999999807
 20
-346.00000028695092
 30
0.0
 11
604.99999999999807
 21
-1306.5296154721691
 31
0.0
  0
LINE
  5
3C5
  8
SIZE
  6
CONTINUOUS
 62
    30
 10
-604.99999999999807
 20
-339.50000000000182
 30
0.0
 11
-604.99999999999807
 21
-1306.5296154721691
 31
0.0
  0
LINE
  5
3C6
  8
SIZE
  6
CONTINUOUS
 62
    30
 10
604.99999999999807
 20
-1286.5296154721691
 30
0.0
 11
-604.99999999999807
 21
-1286.5296154721691
 31
0.0
  0
CIRCLE
  5
3C7
  8
SIZE
  6
CONTINUOUS
 62
    30
 10
604.99999999999807
 20
-1286.5296154721691
 30
0.0
 40
7.5
  0
CIRCLE
  5
3C8
  8
SIZE
  6
CONTINUOUS
 62
    30
 10
-604.99999999999807
 20
-1286.5296154721691
 30
0.0
 40
7.5
  0
TEXT
  5
3C9
  8
SIZE
  6
CONTINUOUS
 62
    30
 10
-84.857142857142847
 20
-1266.5296154721691
 30
0.0
 40
60.0
  1
1210
 41
0.9
 72
     1
 11
0.0
 21
-1266.5296154721691
 31
0.0
  0
POINT
  5
3CA
  8
DEFPOINTS
  6
CONTINUOUS
 62
     7
 10
-604.99999999999807
 20
-1286.5296154721691
 30
0.0
  0
LINE
  5
3CB
  8
SIZE
  6
CONTINUOUS
 62
    30
 10
-610.00001039834012
 20
-894.00000000000352
 30
0.0
 11
-610.00001039834012
 21
-1436.5296154721691
 31
0.0
  0
LINE
  5
3CC
  8
SIZE
  6
CONTINUOUS
 62
    30
 10
610.00001039825293
 20
-894.00000000000193
 30
0.0
 11
610.00001039825293
 21
-1436.5296154721691
 31
0.0
  0
LINE
  5
3CD
  8
SIZE
  6
CONTINUOUS
 62
    30
 10
-610.00001039834012
 20
-1416.5296154721691
 30
0.0
 11
610.00001039825293
 21
-1416.5296154721691
 31
0.0
  0
CIRCLE
  5
3CE
  8
SIZE
  6
CONTINUOUS
 62
    30
 10
-610.00001039834012
 20
-1416.5296154721691
 30
0.0
 40
7.5
  0
CIRCLE
  5
3CF
  8
SIZE
  6
CONTINUOUS
 62
    30
 10
610.00001039825293
 20
-1416.5296154721691
 30
0.0
 40
7.5
  0
TEXT
  5
3D0
  8
SIZE
  6
CONTINUOUS
 62
    30
 10
-90.000000000043642
 20
-1396.5296154721691
 30
0.0
 40
60.0
  1
1220
 41
0.9
 72
     1
 11
-0.0000000000436557
 21
-1396.5296154721691
 31
0.0
  0
POINT
  5
3D1
  8
DEFPOINTS
  6
CONTINUOUS
 62
     7
 10
610.00001039825293
 20
-1416.5296154721691
 30
0.0
  0
LINE
  5
3D2
  8
SIZE
  6
CONTINUOUS
 62
    30
 10
-710.07091039833892
 20
-444.0
 30
0.0
 11
-710.07091039833915
 21
-1436.683820558686
 31
0.0
  0
LINE
  5
3D3
  8
SIZE
  6
CONTINUOUS
 62
    30
 10
-610.07091039833904
 20
-444.0
 30
0.0
 11
-610.07091039833915
 21
-1436.683820558686
 31
0.0
  0
LINE
  5
3D4
  8
SIZE
  6
CONTINUOUS
 62
    30
 10
-610.07091039833915
 20
-1416.683820558686
 30
0.0
 11
-710.07091039833915
 21
-1416.683820558686
 31
0.0
  0
LINE
  5
3D5
  8
SIZE
  6
CONTINUOUS
 62
    30
 10
-710.07091039833915
 20
-1416.683820558686
 30
0.0
 11
-908.64233896977078
 21
-1416.683820558686
 31
0.0
  0
CIRCLE
  5
3D6
  8
SIZE
  6
CONTINUOUS
 62
    30
 10
-610.07091039833915
 20
-1416.683820558686
 30
0.0
 40
7.5
  0
CIRCLE
  5
3D7
  8
SIZE
  6
CONTINUOUS
 62
    30
 10
-710.07091039833915
 20
-1416.683820558686
 30
0.0
 40
7.5
  0
TEXT
  5
3D8
  8
SIZE
  6
CONTINUOUS
 62
    30
 10
-888.64233896977089
 20
-1396.683820558686
 30
0.0
 40
60.0
  1
100
 41
0.9
 72
     1
 11
-824.35662468405656
 21
-1396.683820558686
 31
0.0
  0
POINT
  5
3D9
  8
DEFPOINTS
  6
CONTINUOUS
 62
     7
 10
-610.07091039833915
 20
-1416.683820558686
 30
0.0
  0
LINE
  5
3DA
  8
SIZE
  6
CONTINUOUS
 62
    30
 10
610.07091039825161
 20
-444.0
 30
0.0
 11
610.07091039825161
 21
-1436.5296154721691
 31
0.0
  0
LINE
  5
3DB
  8
SIZE
  6
CONTINUOUS
 62
    30
 10
710.07091039825161
 20
-444.0
 30
0.0
 11
710.07091039825161
 21
-1436.5296154721691
 31
0.0
  0
LINE
  5
3DC
  8
SIZE
  6
CONTINUOUS
 62
    30
 10
610.07091039825161
 20
-1416.5296154721691
 30
0.0
 11
710.07091039825161
 21
-1416.5296154721691
 31
0.0
  0
LINE
  5
3DD
  8
SIZE
  6
CONTINUOUS
 62
    30
 10
710.07091039825161
 20
-1416.5296154721691
 30
0.0
 11
908.64233896968005
 21
-1416.5296154721691
 31
0.0
  0
CIRCLE
  5
3DE
  8
SIZE
  6
CONTINUOUS
 62
    30
 10
610.07091039825161
 20
-1416.5296154721691
 30
0.0
 40
7.5
  0
CIRCLE
  5
3DF
  8
SIZE
  6
CONTINUOUS
 62
    30
 10
710.07091039825161
 20
-1416.5296154721691
 30
0.0
 40
7.5
  0
TEXT
  5
3E0
  8
SIZE
  6
CONTINUOUS
 62
    30
 10
760.07091039825161
 20
-1396.5296154721691
 30
0.0
 40
60.0
  1
100
 41
0.9
 72
     1
 11
824.35662468396595
 21
-1396.5296154721691
 31
0.0
  0
POINT
  5
3E1
  8
DEFPOINTS
  6
CONTINUOUS
 62
     7
 10
710.07091039825161
 20
-1416.5296154721691
 30
0.0
  0
ENDSEC
  0
EOF
