  0
SECTION
  2
HEADER
  9
$ACADVER
  1
AC1009
  9
$INSBASE
 10
0.0
 20
0.0
 30
0.0
  9
$EXTMIN
 10
-1450.195279
 20
-500.56455
 30
-0.001526
  9
$EXTMAX
 10
1827.392601
 20
1593.704241
 30
0.0
  9
$LIMMIN
 10
-6000.0
 20
-4500.0
  9
$LIMMAX
 10
6000.0
 20
4500.0
  9
$ORTHOMODE
 70
     0
  9
$REGENMODE
 70
     1
  9
$FILLMODE
 70
     1
  9
$QTEXTMODE
 70
     0
  9
$MIRRTEXT
 70
     0
  9
$DRAGMODE
 70
     2
  9
$LTSCALE
 40
20.0
  9
$OSMODE
 70
    37
  9
$ATTMODE
 70
     1
  9
$TEXTSIZE
 40
64.0
  9
$TRACEWID
 40
0.05
  9
$TEXTSTYLE
  7
STANDARD
  9
$CLAYER
  8
0
  9
$CELTYPE
  6
CONTINUOUS
  9
$CECOLOR
 62
     7
  9
$DIMSCALE
 40
1.0
  9
$DIMASZ
 40
10.0
  9
$DIMEXO
 40
20.0
  9
$DIMDLI
 40
200.0
  9
$DIMRND
 40
0.0
  9
$DIMDLE
 40
0.0
  9
$DIMEXE
 40
30.0
  9
$DIMTP
 40
0.0
  9
$DIMTM
 40
0.0
  9
$DIMTXT
 40
64.0
  9
$DIMCEN
 40
0.0
  9
$DIMTSZ
 40
0.0
  9
$DIMTOL
 70
     0
  9
$DIMLIM
 70
     0
  9
$DIMTIH
 70
     0
  9
$DIMTOH
 70
     0
  9
$DIMSE1
 70
     0
  9
$DIMSE2
 70
     0
  9
$DIMTAD
 70
     1
  9
$DIMZIN
 70
     8
  9
$DIMBLK
  1

  9
$DIMASO
 70
     1
  9
$DIMSHO
 70
     0
  9
$DIMPOST
  1

  9
$DIMAPOST
  1

  9
$DIMALT
 70
     0
  9
$DIMALTD
 70
     2
  9
$DIMALTF
 40
25.4
  9
$DIMLFAC
 40
1.0
  9
$DIMTOFL
 70
     1
  9
$DIMTVP
 40
0.0
  9
$DIMTIX
 70
     1
  9
$DIMSOXD
 70
     0
  9
$DIMSAH
 70
     1
  9
$DIMBLK1
  1

  9
$DIMBLK2
  1

  9
$DIMSTYLE
  2
STANDARD
  9
$DIMCLRD
 70
     0
  9
$DIMCLRE
 70
     0
  9
$DIMCLRT
 70
     0
  9
$DIMTFAC
 40
1.0
  9
$DIMGAP
 40
0.09
  9
$LUNITS
 70
     2
  9
$LUPREC
 70
     4
  9
$SKETCHINC
 40
0.1
  9
$FILLETRAD
 40
10.0
  9
$AUNITS
 70
     1
  9
$AUPREC
 70
     3
  9
$MENU
  1
ACAD
  9
$ELEVATION
 40
0.0
  9
$PELEVATION
 40
0.0
  9
$THICKNESS
 40
0.0
  9
$LIMCHECK
 70
     0
  9
$BLIPMODE
 70
     0
  9
$CHAMFERA
 40
0.0
  9
$CHAMFERB
 40
0.0
  9
$SKPOLY
 70
     0
  9
$TDCREATE
 40
2450330.439931
  9
$TDUPDATE
 40
2452251.499613
  9
$TDINDWG
 40
1.348705
  9
$TDUSRTIMER
 40
1.348705
  9
$USRTIMER
 70
     1
  9
$ANGBASE
 50
0.0
  9
$ANGDIR
 70
     0
  9
$PDMODE
 70
     3
  9
$PDSIZE
 40
-2.0
  9
$PLINEWID
 40
0.0
  9
$COORDS
 70
     2
  9
$SPLFRAME
 70
     0
  9
$SPLINETYPE
 70
     6
  9
$SPLINESEGS
 70
     8
  9
$ATTDIA
 70
     0
  9
$ATTREQ
 70
     1
  9
$HANDLING
 70
     1
  9
$HANDSEED
  5
44A
  9
$SURFTAB1
 70
     6
  9
$SURFTAB2
 70
     6
  9
$SURFTYPE
 70
     6
  9
$SURFU
 70
     6
  9
$SURFV
 70
     6
  9
$UCSNAME
  2

  9
$UCSORG
 10
0.0
 20
0.0
 30
0.0
  9
$UCSXDIR
 10
1.0
 20
0.0
 30
0.0
  9
$UCSYDIR
 10
0.0
 20
1.0
 30
0.0
  9
$PUCSNAME
  2

  9
$PUCSORG
 10
0.0
 20
0.0
 30
0.0
  9
$PUCSXDIR
 10
1.0
 20
0.0
 30
0.0
  9
$PUCSYDIR
 10
0.0
 20
1.0
 30
0.0
  9
$USERI1
 70
     0
  9
$USERI2
 70
     0
  9
$USERI3
 70
     0
  9
$USERI4
 70
     0
  9
$USERI5
 70
     0
  9
$USERR1
 40
20.0
  9
$USERR2
 40
0.0
  9
$USERR3
 40
0.0
  9
$USERR4
 40
0.0
  9
$USERR5
 40
0.0
  9
$WORLDVIEW
 70
     1
  9
$SHADEDGE
 70
     3
  9
$SHADEDIF
 70
    70
  9
$TILEMODE
 70
     1
  9
$MAXACTVP
 70
    48
  9
$PLIMCHECK
 70
     0
  9
$PEXTMIN
 10
1.000000E+020
 20
1.000000E+020
 30
1.000000E+020
  9
$PEXTMAX
 10
-1.000000E+020
 20
-1.000000E+020
 30
-1.000000E+020
  9
$PLIMMIN
 10
0.0
 20
0.0
  9
$PLIMMAX
 10
12.0
 20
9.0
  9
$UNITMODE
 70
     0
  9
$VISRETAIN
 70
     1
  9
$PLINEGEN
 70
     0
  9
$PSLTSCALE
 70
     1
  0
ENDSEC
  0
SECTION
  2
TABLES
  0
TABLE
  2
VPORT
 70
     2
  0
VPORT
  2
*ACTIVE
 70
     0
 10
0.0
 20
0.0
 11
1.0
 21
1.0
 12
2484.022556
 22
0.0
 13
0.0
 23
0.0
 14
50.0
 24
50.0
 15
100.0
 25
100.0
 16
0.0
 26
0.0
 36
1.0
 17
0.0
 27
0.0
 37
0.0
 40
9000.0
 41
1.885338
 42
50.0
 43
0.0
 44
0.0
 50
0.0
 51
0.0
 71
     0
 72
  1000
 73
     1
 74
     0
 75
     0
 76
     0
 77
     0
 78
     2
  0
ENDTAB
  0
TABLE
  2
LTYPE
 70
     2
  0
LTYPE
  2
CONTINUOUS
 70
     0
  3
実線
 72
    65
 73
     0
 40
0.0
  0
LTYPE
  2
DASHDOT
 70
     0
  3
____ _ ____ _ ____ _ ____ _ ____ _ ____ _ ____
 72
    65
 73
     4
 40
5.5
 49
4.0
 49
-0.6
 49
0.3
 49
-0.6
  0
ENDTAB
  0
TABLE
  2
LAYER
 70
    12
  0
LAYER
  2
0
 70
     0
 62
     7
  6
CONTINUOUS
  0
LAYER
  2
OUTLINE
 70
     0
 62
     3
  6
CONTINUOUS
  0
LAYER
  2
DETAIL
 70
     0
 62
     5
  6
CONTINUOUS
  0
LAYER
  2
BASIS
 70
     0
 62
     6
  6
DASHDOT
  0
LAYER
  2
SIZE
 70
     0
 62
    30
  6
CONTINUOUS
  0
LAYER
  2
NOTE
 70
     0
 62
     4
  6
CONTINUOUS
  0
LAYER
  2
ARRANGE
 70
     0
 62
     1
  6
CONTINUOUS
  0
LAYER
  2
FIX
 70
     0
 62
    11
  6
CONTINUOUS
  0
LAYER
  2
SERVICESPACE
 70
     0
 62
     2
  6
DASHDOT
  0
LAYER
  2
ETC
 70
     0
 62
    61
  6
CONTINUOUS
  0
LAYER
  2
SYMBOLLINE
 70
     0
 62
    15
  6
CONTINUOUS
  0
LAYER
  2
DEFPOINTS
 70
     0
 62
     7
  6
CONTINUOUS
  0
ENDTAB
  0
TABLE
  2
STYLE
 70
     2
  0
STYLE
  2
STANDARD
 70
     0
 40
0.0
 41
0.9
 50
0.0
 71
     0
 42
64.0
  3
SIMPLEX
  4
BIGFONT
  0
STYLE
  2
STANDARD1
 70
     0
 40
0.0
 41
1.0
 50
0.0
 71
     0
 42
64.0
  3
MONOTXT
  4
BIGFONT
  0
ENDTAB
  0
TABLE
  2
VIEW
 70
     1
  0
VIEW
  2
ALL
 70
     0
 40
9000.0
 10
241.506647
 20
0.0
 41
12483.01
 11
0.0
 21
0.0
 31
1.0
 12
0.0
 22
0.0
 32
0.0
 42
50.0
 43
0.0
 44
0.0
 50
0.0
 71
     0
  0
ENDTAB
  0
TABLE
  2
UCS
 70
     0
  0
ENDTAB
  0
TABLE
  2
APPID
 70
     1
  0
APPID
  2
ACAD
 70
     0
  0
ENDTAB
  0
TABLE
  2
DIMSTYLE
 70
     1
  0
DIMSTYLE
  2
STANDARD
 70
     0
  3

  4

  5

  6

  7

 40
1.0
 41
0.18
 42
0.0625
 43
0.38
 44
0.18
 45
0.0
 46
0.0
 47
0.0
 48
0.0
140
0.18
141
0.09
142
0.0
143
25.4
144
1.0
145
0.0
146
1.0
147
0.09
 71
     0
 72
     0
 73
     1
 74
     1
 75
     0
 76
     0
 77
     0
 78
     0
170
     0
171
     2
172
     0
173
     0
174
     0
175
     0
176
     0
177
     0
178
     0
  0
ENDTAB
  0
ENDSEC
  0
SECTION
  2
BLOCKS
  0
BLOCK
  8
0
  2
$MODEL_SPACE
 70
     0
 10
0.0
 20
0.0
 30
0.0
  3
$MODEL_SPACE
  1

  0
ENDBLK
  5
42E
  8
0
  0
BLOCK
 67
     1
  8
0
  2
$PAPER_SPACE
 70
     0
 10
0.0
 20
0.0
 30
0.0
  3
$PAPER_SPACE
  1

  0
ENDBLK
  5
42B
 67
     1
  8
0
  0
ENDSEC
  0
SECTION
  2
ENTITIES
  0
LINE
  5
31
  8
BASIS
  6
DASHDOT
 62
     6
 10
0.0
 20
1451.715119
 30
0.0
 11
0.0
 21
-75.251969
 31
0.0
  0
LINE
  5
32
  8
SIZE
  6
CONTINUOUS
 62
    30
 10
515.0
 20
1375.0
 30
0.0
 11
808.114796
 21
1375.0
 31
0.0
  0
LINE
  5
33
  8
SIZE
  6
CONTINUOUS
 62
    30
 10
606.0
 20
0.0
 30
0.0
 11
808.114796
 21
0.0
 31
0.0
  0
LINE
  5
34
  8
SIZE
  6
CONTINUOUS
 62
    30
 10
778.114796
 20
1365.0
 30
0.0
 11
778.114796
 21
10.0
 31
0.0
  0
CIRCLE
  5
35
  8
SIZE
  6
CONTINUOUS
 62
    30
 10
778.114796
 20
1375.0
 30
0.0
 40
5.0
  0
LINE
  5
36
  8
SIZE
  6
CONTINUOUS
 62
    30
 10
778.114796
 20
1370.0
 30
0.0
 11
778.114796
 21
1365.0
 31
0.0
  0
CIRCLE
  5
37
  8
SIZE
  6
CONTINUOUS
 62
    30
 10
778.114796
 20
0.0
 30
0.0
 40
5.0
  0
LINE
  5
38
  8
SIZE
  6
CONTINUOUS
 62
    30
 10
778.114796
 20
5.0
 30
0.0
 11
778.114796
 21
10.0
 31
0.0
  0
TEXT
  5
39
  8
SIZE
  6
CONTINUOUS
 62
    30
 10
758.114796
 20
592.827244
 30
0.0
 40
64.0
  1
1375
 50
90.0
 41
0.9
 72
     1
 11
758.114796
 21
688.827244
 31
0.0
  0
POINT
  5
3A
  8
DEFPOINTS
  6
CONTINUOUS
 62
     7
 10
495.0
 20
1375.0
 30
0.0
  0
POINT
  5
3B
  8
DEFPOINTS
  6
CONTINUOUS
 62
     7
 10
586.0
 20
0.0
 30
0.0
  0
POINT
  5
3C
  8
DEFPOINTS
  6
CONTINUOUS
 62
     7
 10
778.114796
 20
0.0
 30
0.0
  0
ARC
  5
3D
  8
DETAIL
  6
CONTINUOUS
 62
     5
 10
566.0
 20
739.605655
 30
0.0
 40
5.0
 50
280.561983
 51
0.0
  0
ARC
  5
3E
  8
DETAIL
  6
CONTINUOUS
 62
     5
 10
563.5
 20
728.6
 30
0.0
 40
7.0
 50
0.0
 51
90.0
  0
ARC
  5
3F
  8
DETAIL
  6
CONTINUOUS
 62
     5
 10
525.5
 20
690.6
 30
0.0
 40
43.0
 50
0.0
 51
90.0
  0
ARC
  5
40
  8
DETAIL
  6
CONTINUOUS
 62
     5
 10
0.0
 20
739.605655
 30
0.0
 40
5.0
 50
180.0
 51
259.438017
  0
ARC
  5
41
  8
DETAIL
  6
CONTINUOUS
 62
     5
 10
2.5
 20
728.6
 30
0.0
 40
7.0
 50
90.0
 51
180.0
  0
ARC
  5
42
  8
DETAIL
  6
CONTINUOUS
 62
     5
 10
40.5
 20
690.6
 30
0.0
 40
43.0
 50
90.0
 51
180.0
  0
LINE
  5
43
  8
DETAIL
  6
CONTINUOUS
 62
     5
 10
-595.0
 20
146.0
 30
0.0
 11
-595.0
 21
1335.0
 31
0.0
  0
LINE
  5
44
  8
DETAIL
  6
CONTINUOUS
 62
     5
 10
-5.8
 20
1335.0
 30
0.0
 11
-5.8
 21
226.0
 31
0.0
  0
LINE
  5
45
  8
DETAIL
  6
CONTINUOUS
 62
     5
 10
-5.0
 20
175.0
 30
0.0
 11
-5.0
 21
1335.0
 31
0.0
  0
LINE
  5
46
  8
DETAIL
  6
CONTINUOUS
 62
     5
 10
571.0
 20
175.873239
 30
0.0
 11
571.0
 21
1335.0
 31
0.0
  0
LINE
  5
47
  8
DETAIL
  6
CONTINUOUS
 62
     5
 10
572.0
 20
1335.0
 30
0.0
 11
572.0
 21
175.0
 31
0.0
  0
LINE
  5
48
  8
DETAIL
  6
CONTINUOUS
 62
     5
 10
595.0
 20
1335.0
 30
0.0
 11
595.0
 21
150.0
 31
0.0
  0
LINE
  5
49
  8
NOTE
  6
CONTINUOUS
 62
     4
 10
1263.66813
 20
-138.737067
 30
0.0
 11
643.86877
 21
-138.737067
 31
0.0
  0
TEXT
  5
4A
  8
NOTE
  6
CONTINUOUS
 62
     4
 10
651.932756
 20
-127.664768
 30
0.0
 40
64.0
  1
AH 2X3-15X22
 50
0.000003
 41
0.82672
  7
STANDARD1
  0
ARC
  5
4B
  8
DETAIL
  6
CONTINUOUS
 62
     5
 10
525.5
 20
205.6
 30
0.0
 40
43.0
 50
270.0
 51
0.0
  0
LINE
  5
4C
  8
DETAIL
  6
CONTINUOUS
 62
     5
 10
-6.8
 20
146.0
 30
0.0
 11
-6.8
 21
226.0
 31
0.0
  0
ARC
  5
4D
  8
DETAIL
  6
CONTINUOUS
 62
     5
 10
40.5
 20
205.6
 30
0.0
 40
43.0
 50
180.0
 51
270.0
  0
LINE
  5
4E
  8
DETAIL
  6
CONTINUOUS
 62
     5
 10
-4.5
 20
167.6
 30
0.0
 11
-4.5
 21
728.6
 31
0.0
  0
LINE
  5
4F
  8
DETAIL
  6
CONTINUOUS
 62
     5
 10
570.5
 20
728.6
 30
0.0
 11
570.5
 21
167.6
 31
0.0
  0
LINE
  5
50
  8
DETAIL
  6
CONTINUOUS
 62
     5
 10
586.0
 20
0.0
 30
0.0
 11
-584.0
 21
0.0
 31
0.0
  0
LINE
  5
51
  8
DETAIL
  6
CONTINUOUS
 62
     5
 10
586.0
 20
147.7
 30
0.0
 11
-6.8
 21
147.7
 31
0.0
  0
LINE
  5
52
  8
DETAIL
  6
CONTINUOUS
 62
     5
 10
-6.8
 20
150.0
 30
0.0
 11
595.0
 21
150.0
 31
0.0
  0
LINE
  5
53
  8
DETAIL
  6
CONTINUOUS
 62
     5
 10
-4.5
 20
152.1
 30
0.0
 11
570.5
 21
152.1
 31
0.0
  0
LINE
  5
54
  8
DETAIL
  6
CONTINUOUS
 62
     5
 10
563.5
 20
160.6
 30
0.0
 11
2.5
 21
160.6
 31
0.0
  0
LINE
  5
55
  8
DETAIL
  6
CONTINUOUS
 62
     5
 10
40.5
 20
162.6
 30
0.0
 11
525.5
 21
162.6
 31
0.0
  0
LINE
  5
56
  8
DETAIL
  6
CONTINUOUS
 62
     5
 10
-574.0
 20
130.0
 30
0.0
 11
-503.0
 21
130.0
 31
0.0
  0
LINE
  5
57
  8
DETAIL
  6
CONTINUOUS
 62
     5
 10
-574.0
 20
25.0
 30
0.0
 11
-503.0
 21
25.0
 31
0.0
  0
LINE
  5
58
  8
DETAIL
  6
CONTINUOUS
 62
     5
 10
586.0
 20
146.0
 30
0.0
 11
-595.0
 21
146.0
 31
0.0
  0
LINE
  5
59
  8
DETAIL
  6
CONTINUOUS
 62
     5
 10
-584.0
 20
0.0
 30
0.0
 11
-584.0
 21
15.0
 31
0.0
  0
LINE
  5
5A
  8
DETAIL
  6
CONTINUOUS
 62
     5
 10
-584.0
 20
15.0
 30
0.0
 11
-574.0
 21
25.0
 31
0.0
  0
LINE
  5
5B
  8
DETAIL
  6
CONTINUOUS
 62
     5
 10
-574.0
 20
130.0
 30
0.0
 11
-584.0
 21
140.0
 31
0.0
  0
LINE
  5
5C
  8
DETAIL
  6
CONTINUOUS
 62
     5
 10
-584.0
 20
140.0
 30
0.0
 11
-584.0
 21
146.0
 31
0.0
  0
LINE
  5
5D
  8
DETAIL
  6
CONTINUOUS
 62
     5
 10
-494.0
 20
34.0
 30
0.0
 11
-494.0
 21
121.0
 31
0.0
  0
LINE
  5
5E
  8
NOTE
  6
CONTINUOUS
 62
     4
 10
-425.0
 20
-20.0
 30
0.0
 11
-425.0
 21
20.0
 31
0.0
  0
LINE
  5
5F
  8
NOTE
  6
CONTINUOUS
 62
     4
 10
-405.0
 20
0.0
 30
0.0
 11
-445.0
 21
0.0
 31
0.0
  0
CIRCLE
  5
60
  8
FIX
  6
CONTINUOUS
 62
    11
 10
-425.0
 20
0.0
 30
0.0
 40
20.0
  0
ARC
  5
61
  8
DETAIL
  6
CONTINUOUS
 62
     5
 10
-503.0
 20
34.0
 30
0.0
 40
9.0
 50
270.0
 51
0.0
  0
ARC
  5
62
  8
DETAIL
  6
CONTINUOUS
 62
     5
 10
-503.0
 20
121.0
 30
0.0
 40
9.0
 50
0.0
 51
90.0
  0
LINE
  5
63
  8
DETAIL
  6
CONTINUOUS
 62
     5
 10
2.182336
 20
167.1
 30
0.0
 11
4.817664
 21
167.1
 31
0.0
  0
LINE
  5
64
  8
DETAIL
  6
CONTINUOUS
 62
     5
 10
11.5
 20
152.1
 30
0.0
 11
11.5
 21
160.6
 31
0.0
  0
CIRCLE
  5
65
  8
DETAIL
  6
CONTINUOUS
 62
     5
 10
3.5
 20
168.6
 30
0.0
 40
3.0
  0
CIRCLE
  5
66
  8
DETAIL
  6
CONTINUOUS
 62
     5
 10
3.5
 20
168.6
 30
0.0
 40
2.0
  0
LINE
  5
67
  8
DETAIL
  6
CONTINUOUS
 62
     5
 10
-4.5
 20
175.0
 30
0.0
 11
-6.8
 21
175.0
 31
0.0
  0
LINE
  5
68
  8
DETAIL
  6
CONTINUOUS
 62
     5
 10
-4.5
 20
175.873239
 30
0.0
 11
-5.0
 21
175.873239
 31
0.0
  0
LINE
  5
69
  8
DETAIL
  6
CONTINUOUS
 62
     5
 10
-4.5
 20
177.892979
 30
0.0
 11
-5.0
 21
177.892979
 31
0.0
  0
LINE
  5
6A
  8
DETAIL
  6
CONTINUOUS
 62
     5
 10
-4.5
 20
179.01974
 30
0.0
 11
-5.0
 21
179.01974
 31
0.0
  0
LINE
  5
6B
  8
DETAIL
  6
CONTINUOUS
 62
     5
 10
-4.5
 20
152.1
 30
0.0
 11
-4.5
 21
167.6
 31
0.0
  0
ARC
  5
6C
  8
DETAIL
  6
CONTINUOUS
 62
     5
 10
2.5
 20
167.6
 30
0.0
 40
7.0
 50
180.0
 51
270.0
  0
LINE
  5
6D
  8
DETAIL
  6
CONTINUOUS
 62
     5
 10
576.0
 20
130.0
 30
0.0
 11
505.0
 21
130.0
 31
0.0
  0
LINE
  5
6E
  8
DETAIL
  6
CONTINUOUS
 62
     5
 10
576.0
 20
25.0
 30
0.0
 11
505.0
 21
25.0
 31
0.0
  0
LINE
  5
6F
  8
DETAIL
  6
CONTINUOUS
 62
     5
 10
496.0
 20
34.0
 30
0.0
 11
496.0
 21
121.0
 31
0.0
  0
LINE
  5
70
  8
NOTE
  6
CONTINUOUS
 62
     4
 10
425.0
 20
-20.0
 30
0.0
 11
425.0
 21
20.0
 31
0.0
  0
LINE
  5
71
  8
NOTE
  6
CONTINUOUS
 62
     4
 10
445.0
 20
0.0
 30
0.0
 11
405.0
 21
0.0
 31
0.0
  0
CIRCLE
  5
72
  8
FIX
  6
CONTINUOUS
 62
    11
 10
425.0
 20
0.0
 30
0.0
 40
20.0
  0
ARC
  5
73
  8
DETAIL
  6
CONTINUOUS
 62
     5
 10
505.0
 20
34.0
 30
0.0
 40
9.0
 50
180.0
 51
270.0
  0
ARC
  5
74
  8
OUTLINE
  6
CONTINUOUS
 62
     3
 10
505.0
 20
121.0
 30
0.0
 40
9.0
 50
90.0
 51
180.0
  0
LINE
  5
75
  8
DETAIL
  6
CONTINUOUS
 62
     5
 10
576.0
 20
25.0
 30
0.0
 11
586.0
 21
15.0
 31
0.0
  0
LINE
  5
76
  8
DETAIL
  6
CONTINUOUS
 62
     5
 10
586.0
 20
0.0
 30
0.0
 11
586.0
 21
15.0
 31
0.0
  0
LINE
  5
77
  8
DETAIL
  6
CONTINUOUS
 62
     5
 10
573.2
 20
150.0
 30
0.0
 11
573.2
 21
175.0
 31
0.0
  0
LINE
  5
78
  8
DETAIL
  6
CONTINUOUS
 62
     5
 10
586.0
 20
140.0
 30
0.0
 11
586.0
 21
150.0
 31
0.0
  0
LINE
  5
79
  8
DETAIL
  6
CONTINUOUS
 62
     5
 10
586.0
 20
140.0
 30
0.0
 11
576.0
 21
130.0
 31
0.0
  0
ARC
  5
7A
  8
DETAIL
  6
CONTINUOUS
 62
     5
 10
563.5
 20
167.6
 30
0.0
 40
7.0
 50
270.0
 51
0.0
  0
CIRCLE
  5
7B
  8
DETAIL
  6
CONTINUOUS
 62
     5
 10
562.5
 20
168.6
 30
0.0
 40
3.0
  0
CIRCLE
  5
7C
  8
DETAIL
  6
CONTINUOUS
 62
     5
 10
562.5
 20
168.6
 30
0.0
 40
2.0
  0
LINE
  5
7D
  8
DETAIL
  6
CONTINUOUS
 62
     5
 10
561.182336
 20
167.1
 30
0.0
 11
563.817664
 21
167.1
 31
0.0
  0
LINE
  5
7E
  8
DETAIL
  6
CONTINUOUS
 62
     5
 10
570.5
 20
167.6
 30
0.0
 11
570.5
 21
152.1
 31
0.0
  0
LINE
  5
7F
  8
DETAIL
  6
CONTINUOUS
 62
     5
 10
573.2
 20
175.0
 30
0.0
 11
570.5
 21
175.0
 31
0.0
  0
LINE
  5
80
  8
DETAIL
  6
CONTINUOUS
 62
     5
 10
571.0
 20
175.873239
 30
0.0
 11
570.5
 21
175.873239
 31
0.0
  0
LINE
  5
81
  8
DETAIL
  6
CONTINUOUS
 62
     5
 10
571.0
 20
177.892979
 30
0.0
 11
570.5
 21
177.892979
 31
0.0
  0
LINE
  5
82
  8
DETAIL
  6
CONTINUOUS
 62
     5
 10
571.0
 20
179.01974
 30
0.0
 11
570.5
 21
179.01974
 31
0.0
  0
LINE
  5
83
  8
DETAIL
  6
CONTINUOUS
 62
     5
 10
554.5
 20
160.6
 30
0.0
 11
554.5
 21
152.1
 31
0.0
  0
LINE
  5
84
  8
DETAIL
  6
CONTINUOUS
 62
     5
 10
22.5
 20
666.6
 30
0.0
 11
106.1
 21
666.6
 31
0.0
  0
LINE
  5
85
  8
DETAIL
  6
CONTINUOUS
 62
     5
 10
22.5
 20
672.978266
 30
0.0
 11
106.1
 21
672.978266
 31
0.0
  0
LINE
  5
86
  8
DETAIL
  6
CONTINUOUS
 62
     5
 10
106.1
 20
708.6
 30
0.0
 11
40.5
 21
708.6
 31
0.0
  0
LINE
  5
87
  8
DETAIL
  6
CONTINUOUS
 62
     5
 10
22.5
 20
618.6
 30
0.0
 11
106.1
 21
618.6
 31
0.0
  0
LINE
  5
88
  8
DETAIL
  6
CONTINUOUS
 62
     5
 10
22.5
 20
624.978266
 30
0.0
 11
106.1
 21
624.978266
 31
0.0
  0
LINE
  5
89
  8
DETAIL
  6
CONTINUOUS
 62
     5
 10
22.5
 20
522.6
 30
0.0
 11
106.1
 21
522.6
 31
0.0
  0
LINE
  5
8A
  8
DETAIL
  6
CONTINUOUS
 62
     5
 10
22.5
 20
528.978266
 30
0.0
 11
106.1
 21
528.978266
 31
0.0
  0
LINE
  5
8B
  8
DETAIL
  6
CONTINUOUS
 62
     5
 10
22.5
 20
480.978266
 30
0.0
 11
106.1
 21
480.978266
 31
0.0
  0
LINE
  5
8C
  8
DETAIL
  6
CONTINUOUS
 62
     5
 10
22.5
 20
570.6
 30
0.0
 11
106.1
 21
570.6
 31
0.0
  0
LINE
  5
8D
  8
DETAIL
  6
CONTINUOUS
 62
     5
 10
22.5
 20
576.978266
 30
0.0
 11
106.1
 21
576.978266
 31
0.0
  0
LINE
  5
8E
  8
DETAIL
  6
CONTINUOUS
 62
     5
 10
22.5
 20
474.6
 30
0.0
 11
106.1
 21
474.6
 31
0.0
  0
LINE
  5
8F
  8
DETAIL
  6
CONTINUOUS
 62
     5
 10
22.5
 20
432.978266
 30
0.0
 11
106.1
 21
432.978266
 31
0.0
  0
LINE
  5
90
  8
DETAIL
  6
CONTINUOUS
 62
     5
 10
22.5
 20
426.6
 30
0.0
 11
106.1
 21
426.6
 31
0.0
  0
LINE
  5
91
  8
DETAIL
  6
CONTINUOUS
 62
     5
 10
22.5
 20
384.978266
 30
0.0
 11
106.1
 21
384.978266
 31
0.0
  0
LINE
  5
92
  8
DETAIL
  6
CONTINUOUS
 62
     5
 10
22.5
 20
378.6
 30
0.0
 11
106.1
 21
378.6
 31
0.0
  0
LINE
  5
93
  8
DETAIL
  6
CONTINUOUS
 62
     5
 10
22.5
 20
234.6
 30
0.0
 11
106.1
 21
234.6
 31
0.0
  0
LINE
  5
94
  8
DETAIL
  6
CONTINUOUS
 62
     5
 10
22.5
 20
240.978266
 30
0.0
 11
106.1
 21
240.978266
 31
0.0
  0
LINE
  5
95
  8
DETAIL
  6
CONTINUOUS
 62
     5
 10
22.5
 20
282.6
 30
0.0
 11
106.1
 21
282.6
 31
0.0
  0
LINE
  5
96
  8
DETAIL
  6
CONTINUOUS
 62
     5
 10
22.5
 20
288.978266
 30
0.0
 11
106.1
 21
288.978266
 31
0.0
  0
LINE
  5
97
  8
DETAIL
  6
CONTINUOUS
 62
     5
 10
22.5
 20
330.6
 30
0.0
 11
106.1
 21
330.6
 31
0.0
  0
LINE
  5
98
  8
DETAIL
  6
CONTINUOUS
 62
     5
 10
22.5
 20
336.978266
 30
0.0
 11
106.1
 21
336.978266
 31
0.0
  0
LINE
  5
99
  8
DETAIL
  6
CONTINUOUS
 62
     5
 10
40.5
 20
187.6
 30
0.0
 11
106.1
 21
187.6
 31
0.0
  0
LINE
  5
9A
  8
DETAIL
  6
CONTINUOUS
 62
     5
 10
525.5
 20
733.6
 30
0.0
 11
40.5
 21
733.6
 31
0.0
  0
LINE
  5
9B
  8
DETAIL
  6
CONTINUOUS
 62
     5
 10
22.5
 20
690.6
 30
0.0
 11
22.5
 21
205.6
 31
0.0
  0
LINE
  5
9C
  8
DETAIL
  6
CONTINUOUS
 62
     5
 10
-2.5
 20
690.6
 30
0.0
 11
-2.5
 21
205.6
 31
0.0
  0
LINE
  5
9D
  8
NOTE
  6
CONTINUOUS
 62
     4
 10
-469.0
 20
100.0
 30
0.0
 11
-469.0
 21
140.0
 31
0.0
  0
LINE
  5
9E
  8
NOTE
  6
CONTINUOUS
 62
     4
 10
-449.0
 20
120.0
 30
0.0
 11
-489.0
 21
120.0
 31
0.0
  0
LINE
  5
9F
  8
NOTE
  6
CONTINUOUS
 62
     4
 10
-537.0
 20
269.969618
 30
0.0
 11
-537.0
 21
309.969618
 31
0.0
  0
LINE
  5
A0
  8
NOTE
  6
CONTINUOUS
 62
     4
 10
-517.0
 20
289.969618
 30
0.0
 11
-557.0
 21
289.969618
 31
0.0
  0
ARC
  5
A1
  8
DETAIL
  6
CONTINUOUS
 62
     5
 10
40.5
 20
205.6
 30
0.0
 40
18.0
 50
180.0
 51
270.0
  0
LINE
  5
A2
  8
DETAIL
  6
CONTINUOUS
 62
     5
 10
-5.8
 20
226.0
 30
0.0
 11
-6.8
 21
226.0
 31
0.0
  0
ARC
  5
A3
  8
DETAIL
  6
CONTINUOUS
 62
     5
 10
40.5
 20
690.6
 30
0.0
 40
18.0
 50
90.0
 51
180.0
  0
CIRCLE
  5
A4
  8
DETAIL
  6
CONTINUOUS
 62
     5
 10
3.5
 20
727.6
 30
0.0
 40
3.0
  0
CIRCLE
  5
A5
  8
DETAIL
  6
CONTINUOUS
 62
     5
 10
3.5
 20
727.6
 30
0.0
 40
2.0
  0
LINE
  5
A6
  8
DETAIL
  6
CONTINUOUS
 62
     5
 10
-4.5
 20
728.6
 30
0.0
 11
-4.5
 21
733.6
 31
0.0
  0
LINE
  5
A7
  8
DETAIL
  6
CONTINUOUS
 62
     5
 10
-3.5
 20
734.6
 30
0.0
 11
-3.5
 21
733.8
 31
0.0
  0
LINE
  5
A8
  8
DETAIL
  6
CONTINUOUS
 62
     5
 10
-3.722829
 20
733.771303
 30
0.0
 11
-3.882683
 21
733.75
 31
0.0
  0
LINE
  5
A9
  8
DETAIL
  6
CONTINUOUS
 62
     5
 10
-3.882683
 20
733.75
 30
0.0
 11
-4.05557
 21
733.725
 31
0.0
  0
LINE
  5
AA
  8
DETAIL
  6
CONTINUOUS
 62
     5
 10
-4.05557
 20
733.725
 30
0.0
 11
-4.207107
 21
733.7
 31
0.0
  0
LINE
  5
AB
  8
DETAIL
  6
CONTINUOUS
 62
     5
 10
-4.207107
 20
733.7
 30
0.0
 11
-4.33147
 21
733.675
 31
0.0
  0
LINE
  5
AC
  8
DETAIL
  6
CONTINUOUS
 62
     5
 10
-4.33147
 20
733.675
 30
0.0
 11
-4.42388
 21
733.65
 31
0.0
  0
LINE
  5
AD
  8
DETAIL
  6
CONTINUOUS
 62
     5
 10
-4.42388
 20
733.65
 30
0.0
 11
-4.480785
 21
733.625
 31
0.0
  0
LINE
  5
AE
  8
DETAIL
  6
CONTINUOUS
 62
     5
 10
-4.480785
 20
733.625
 30
0.0
 11
-4.5
 21
733.6
 31
0.0
  0
LINE
  5
AF
  8
DETAIL
  6
CONTINUOUS
 62
     5
 10
-3.5
 20
733.8
 30
0.0
 11
-3.722829
 21
733.771303
 31
0.0
  0
ARC
  5
B0
  8
DETAIL
  6
CONTINUOUS
 62
     5
 10
-3.5
 20
733.6
 30
0.0
 40
1.0
 50
90.0
 51
180.0
  0
LINE
  5
B1
  8
DETAIL
  6
CONTINUOUS
 62
     5
 10
-3.5
 20
733.8
 30
0.0
 11
-2.181434
 21
733.8
 31
0.0
  0
LINE
  5
B2
  8
DETAIL
  6
CONTINUOUS
 62
     5
 10
-3.5
 20
734.6
 30
0.0
 11
-1.080912
 21
734.6
 31
0.0
  0
LINE
  5
B3
  8
DETAIL
  6
CONTINUOUS
 62
     5
 10
543.5
 20
205.6
 30
0.0
 11
543.5
 21
690.6
 31
0.0
  0
LINE
  5
B4
  8
DETAIL
  6
CONTINUOUS
 62
     5
 10
282.1
 20
187.270329
 30
0.0
 11
282.1
 21
708.929671
 31
0.0
  0
LINE
  5
B5
  8
DETAIL
  6
CONTINUOUS
 62
     5
 10
283.9
 20
187.270329
 30
0.0
 11
283.9
 21
708.929671
 31
0.0
  0
LINE
  5
B6
  8
DETAIL
  6
CONTINUOUS
 62
     5
 10
370.1
 20
187.270329
 30
0.0
 11
370.1
 21
708.929671
 31
0.0
  0
LINE
  5
B7
  8
DETAIL
  6
CONTINUOUS
 62
     5
 10
371.9
 20
187.270329
 30
0.0
 11
371.9
 21
708.929671
 31
0.0
  0
LINE
  5
B8
  8
DETAIL
  6
CONTINUOUS
 62
     5
 10
458.1
 20
187.270329
 30
0.0
 11
458.1
 21
708.929671
 31
0.0
  0
LINE
  5
B9
  8
DETAIL
  6
CONTINUOUS
 62
     5
 10
459.9
 20
187.270329
 30
0.0
 11
459.9
 21
708.929671
 31
0.0
  0
LINE
  5
BA
  8
DETAIL
  6
CONTINUOUS
 62
     5
 10
106.1
 20
187.270329
 30
0.0
 11
106.1
 21
708.929671
 31
0.0
  0
LINE
  5
BB
  8
DETAIL
  6
CONTINUOUS
 62
     5
 10
107.9
 20
187.270329
 30
0.0
 11
107.9
 21
708.929671
 31
0.0
  0
LINE
  5
BC
  8
DETAIL
  6
CONTINUOUS
 62
     5
 10
194.1
 20
187.270329
 30
0.0
 11
194.1
 21
708.929671
 31
0.0
  0
LINE
  5
BD
  8
DETAIL
  6
CONTINUOUS
 62
     5
 10
195.9
 20
187.270329
 30
0.0
 11
195.9
 21
708.929671
 31
0.0
  0
LINE
  5
BE
  8
DETAIL
  6
CONTINUOUS
 62
     5
 10
568.5
 20
205.6
 30
0.0
 11
568.5
 21
690.6
 31
0.0
  0
LINE
  5
BF
  8
DETAIL
  6
CONTINUOUS
 62
     5
 10
459.9
 20
378.6
 30
0.0
 11
543.5
 21
378.6
 31
0.0
  0
LINE
  5
C0
  8
DETAIL
  6
CONTINUOUS
 62
     5
 10
459.9
 20
384.978266
 30
0.0
 11
543.5
 21
384.978266
 31
0.0
  0
LINE
  5
C1
  8
DETAIL
  6
CONTINUOUS
 62
     5
 10
459.9
 20
426.6
 30
0.0
 11
543.5
 21
426.6
 31
0.0
  0
LINE
  5
C2
  8
DETAIL
  6
CONTINUOUS
 62
     5
 10
459.9
 20
432.978266
 30
0.0
 11
543.5
 21
432.978266
 31
0.0
  0
LINE
  5
C3
  8
DETAIL
  6
CONTINUOUS
 62
     5
 10
459.9
 20
282.6
 30
0.0
 11
543.5
 21
282.6
 31
0.0
  0
LINE
  5
C4
  8
DETAIL
  6
CONTINUOUS
 62
     5
 10
459.9
 20
288.978266
 30
0.0
 11
543.5
 21
288.978266
 31
0.0
  0
LINE
  5
C5
  8
DETAIL
  6
CONTINUOUS
 62
     5
 10
459.9
 20
330.6
 30
0.0
 11
543.5
 21
330.6
 31
0.0
  0
LINE
  5
C6
  8
DETAIL
  6
CONTINUOUS
 62
     5
 10
459.9
 20
336.978266
 30
0.0
 11
543.5
 21
336.978266
 31
0.0
  0
LINE
  5
C7
  8
DETAIL
  6
CONTINUOUS
 62
     5
 10
459.9
 20
234.6
 30
0.0
 11
543.5
 21
234.6
 31
0.0
  0
LINE
  5
C8
  8
DETAIL
  6
CONTINUOUS
 62
     5
 10
459.9
 20
240.978266
 30
0.0
 11
543.5
 21
240.978266
 31
0.0
  0
LINE
  5
C9
  8
DETAIL
  6
CONTINUOUS
 62
     5
 10
459.9
 20
187.6
 30
0.0
 11
525.5
 21
187.6
 31
0.0
  0
LINE
  5
CA
  8
DETAIL
  6
CONTINUOUS
 62
     5
 10
283.9
 20
282.6
 30
0.0
 11
370.1
 21
282.6
 31
0.0
  0
LINE
  5
CB
  8
DETAIL
  6
CONTINUOUS
 62
     5
 10
283.9
 20
288.978266
 30
0.0
 11
370.1
 21
288.978266
 31
0.0
  0
LINE
  5
CC
  8
DETAIL
  6
CONTINUOUS
 62
     5
 10
283.9
 20
234.6
 30
0.0
 11
370.1
 21
234.6
 31
0.0
  0
LINE
  5
CD
  8
DETAIL
  6
CONTINUOUS
 62
     5
 10
283.9
 20
240.978266
 30
0.0
 11
370.1
 21
240.978266
 31
0.0
  0
LINE
  5
CE
  8
DETAIL
  6
CONTINUOUS
 62
     5
 10
283.9
 20
187.6
 30
0.0
 11
370.1
 21
187.6
 31
0.0
  0
LINE
  5
CF
  8
DETAIL
  6
CONTINUOUS
 62
     5
 10
195.9
 20
282.6
 30
0.0
 11
282.1
 21
282.6
 31
0.0
  0
LINE
  5
D0
  8
DETAIL
  6
CONTINUOUS
 62
     5
 10
195.9
 20
288.978266
 30
0.0
 11
282.1
 21
288.978266
 31
0.0
  0
LINE
  5
D1
  8
DETAIL
  6
CONTINUOUS
 62
     5
 10
195.9
 20
234.6
 30
0.0
 11
282.1
 21
234.6
 31
0.0
  0
LINE
  5
D2
  8
DETAIL
  6
CONTINUOUS
 62
     5
 10
195.9
 20
240.978266
 30
0.0
 11
282.1
 21
240.978266
 31
0.0
  0
LINE
  5
D3
  8
DETAIL
  6
CONTINUOUS
 62
     5
 10
107.9
 20
282.6
 30
0.0
 11
194.1
 21
282.6
 31
0.0
  0
LINE
  5
D4
  8
DETAIL
  6
CONTINUOUS
 62
     5
 10
107.9
 20
288.978266
 30
0.0
 11
194.1
 21
288.978266
 31
0.0
  0
LINE
  5
D5
  8
DETAIL
  6
CONTINUOUS
 62
     5
 10
107.9
 20
234.6
 30
0.0
 11
194.1
 21
234.6
 31
0.0
  0
LINE
  5
D6
  8
DETAIL
  6
CONTINUOUS
 62
     5
 10
107.9
 20
240.978266
 30
0.0
 11
194.1
 21
240.978266
 31
0.0
  0
LINE
  5
D7
  8
DETAIL
  6
CONTINUOUS
 62
     5
 10
283.0
 20
185.6
 30
0.0
 11
283.229461
 21
185.943637
 31
0.0
  0
LINE
  5
D8
  8
DETAIL
  6
CONTINUOUS
 62
     5
 10
283.229461
 20
185.943637
 30
0.0
 11
283.436078
 21
186.2619
 31
0.0
  0
LINE
  5
D9
  8
DETAIL
  6
CONTINUOUS
 62
     5
 10
283.436078
 20
186.2619
 30
0.0
 11
283.608703
 21
186.544492
 31
0.0
  0
LINE
  5
DA
  8
DETAIL
  6
CONTINUOUS
 62
     5
 10
283.608703
 20
186.544492
 30
0.0
 11
283.740336
 21
186.784153
 31
0.0
  0
LINE
  5
DB
  8
DETAIL
  6
CONTINUOUS
 62
     5
 10
283.740336
 20
186.784153
 30
0.0
 11
283.830828
 21
186.981682
 31
0.0
  0
LINE
  5
DC
  8
DETAIL
  6
CONTINUOUS
 62
     5
 10
283.830828
 20
186.981682
 30
0.0
 11
283.883319
 21
187.142987
 31
0.0
  0
LINE
  5
DD
  8
DETAIL
  6
CONTINUOUS
 62
     5
 10
283.883319
 20
187.142987
 30
0.0
 11
283.9
 21
187.270329
 31
0.0
  0
LINE
  5
DE
  8
DETAIL
  6
CONTINUOUS
 62
     5
 10
282.1
 20
187.270329
 30
0.0
 11
282.112626
 21
187.161069
 31
0.0
  0
LINE
  5
DF
  8
DETAIL
  6
CONTINUOUS
 62
     5
 10
282.112626
 20
187.161069
 30
0.0
 11
282.152829
 21
187.02454
 31
0.0
  0
LINE
  5
E0
  8
DETAIL
  6
CONTINUOUS
 62
     5
 10
282.152829
 20
187.02454
 30
0.0
 11
282.222032
 21
186.860838
 31
0.0
  0
LINE
  5
E1
  8
DETAIL
  6
CONTINUOUS
 62
     5
 10
282.222032
 20
186.860838
 30
0.0
 11
282.321218
 21
186.667986
 31
0.0
  0
LINE
  5
E2
  8
DETAIL
  6
CONTINUOUS
 62
     5
 10
282.321218
 20
186.667986
 30
0.0
 11
282.451589
 21
186.443091
 31
0.0
  0
LINE
  5
E3
  8
DETAIL
  6
CONTINUOUS
 62
     5
 10
282.451589
 20
186.443091
 30
0.0
 11
282.611976
 21
186.186545
 31
0.0
  0
LINE
  5
E4
  8
DETAIL
  6
CONTINUOUS
 62
     5
 10
282.611976
 20
186.186545
 30
0.0
 11
282.797025
 21
185.903662
 31
0.0
  0
LINE
  5
E5
  8
DETAIL
  6
CONTINUOUS
 62
     5
 10
282.797025
 20
185.903662
 30
0.0
 11
283.0
 21
185.6
 31
0.0
  0
LINE
  5
E6
  8
DETAIL
  6
CONTINUOUS
 62
     5
 10
195.0
 20
185.6
 30
0.0
 11
195.229461
 21
185.943637
 31
0.0
  0
LINE
  5
E7
  8
DETAIL
  6
CONTINUOUS
 62
     5
 10
195.229461
 20
185.943637
 30
0.0
 11
195.436078
 21
186.2619
 31
0.0
  0
LINE
  5
E8
  8
DETAIL
  6
CONTINUOUS
 62
     5
 10
195.436078
 20
186.2619
 30
0.0
 11
195.608703
 21
186.544492
 31
0.0
  0
LINE
  5
E9
  8
DETAIL
  6
CONTINUOUS
 62
     5
 10
195.608703
 20
186.544492
 30
0.0
 11
195.740336
 21
186.784153
 31
0.0
  0
LINE
  5
EA
  8
DETAIL
  6
CONTINUOUS
 62
     5
 10
195.740336
 20
186.784153
 30
0.0
 11
195.830828
 21
186.981682
 31
0.0
  0
LINE
  5
EB
  8
DETAIL
  6
CONTINUOUS
 62
     5
 10
195.830828
 20
186.981682
 30
0.0
 11
195.883319
 21
187.142987
 31
0.0
  0
LINE
  5
EC
  8
DETAIL
  6
CONTINUOUS
 62
     5
 10
195.883319
 20
187.142987
 30
0.0
 11
195.9
 21
187.270329
 31
0.0
  0
LINE
  5
ED
  8
DETAIL
  6
CONTINUOUS
 62
     5
 10
194.1
 20
187.270329
 30
0.0
 11
194.112626
 21
187.161069
 31
0.0
  0
LINE
  5
EE
  8
DETAIL
  6
CONTINUOUS
 62
     5
 10
194.112626
 20
187.161069
 30
0.0
 11
194.152829
 21
187.02454
 31
0.0
  0
LINE
  5
EF
  8
DETAIL
  6
CONTINUOUS
 62
     5
 10
194.152829
 20
187.02454
 30
0.0
 11
194.222032
 21
186.860838
 31
0.0
  0
LINE
  5
F0
  8
DETAIL
  6
CONTINUOUS
 62
     5
 10
194.222032
 20
186.860838
 30
0.0
 11
194.321218
 21
186.667986
 31
0.0
  0
LINE
  5
F1
  8
DETAIL
  6
CONTINUOUS
 62
     5
 10
194.321218
 20
186.667986
 30
0.0
 11
194.451589
 21
186.443091
 31
0.0
  0
LINE
  5
F2
  8
DETAIL
  6
CONTINUOUS
 62
     5
 10
194.451589
 20
186.443091
 30
0.0
 11
194.611976
 21
186.186545
 31
0.0
  0
LINE
  5
F3
  8
DETAIL
  6
CONTINUOUS
 62
     5
 10
194.611976
 20
186.186545
 30
0.0
 11
194.797025
 21
185.903662
 31
0.0
  0
LINE
  5
F4
  8
DETAIL
  6
CONTINUOUS
 62
     5
 10
194.797025
 20
185.903662
 30
0.0
 11
195.0
 21
185.6
 31
0.0
  0
LINE
  5
F5
  8
DETAIL
  6
CONTINUOUS
 62
     5
 10
195.9
 20
187.6
 30
0.0
 11
282.1
 21
187.6
 31
0.0
  0
LINE
  5
F6
  8
DETAIL
  6
CONTINUOUS
 62
     5
 10
107.0
 20
185.6
 30
0.0
 11
107.229461
 21
185.943637
 31
0.0
  0
LINE
  5
F7
  8
DETAIL
  6
CONTINUOUS
 62
     5
 10
107.229461
 20
185.943637
 30
0.0
 11
107.436078
 21
186.2619
 31
0.0
  0
LINE
  5
F8
  8
DETAIL
  6
CONTINUOUS
 62
     5
 10
107.436078
 20
186.2619
 30
0.0
 11
107.608703
 21
186.544492
 31
0.0
  0
LINE
  5
F9
  8
DETAIL
  6
CONTINUOUS
 62
     5
 10
107.608703
 20
186.544492
 30
0.0
 11
107.740336
 21
186.784153
 31
0.0
  0
LINE
  5
FA
  8
DETAIL
  6
CONTINUOUS
 62
     5
 10
107.740336
 20
186.784153
 30
0.0
 11
107.830828
 21
186.981682
 31
0.0
  0
LINE
  5
FB
  8
DETAIL
  6
CONTINUOUS
 62
     5
 10
107.830828
 20
186.981682
 30
0.0
 11
107.883319
 21
187.142987
 31
0.0
  0
LINE
  5
FC
  8
DETAIL
  6
CONTINUOUS
 62
     5
 10
107.883319
 20
187.142987
 30
0.0
 11
107.9
 21
187.270329
 31
0.0
  0
LINE
  5
FD
  8
DETAIL
  6
CONTINUOUS
 62
     5
 10
106.1
 20
187.270329
 30
0.0
 11
106.112626
 21
187.161069
 31
0.0
  0
LINE
  5
FE
  8
DETAIL
  6
CONTINUOUS
 62
     5
 10
106.112626
 20
187.161069
 30
0.0
 11
106.152829
 21
187.02454
 31
0.0
  0
LINE
  5
FF
  8
DETAIL
  6
CONTINUOUS
 62
     5
 10
106.152829
 20
187.02454
 30
0.0
 11
106.222032
 21
186.860838
 31
0.0
  0
LINE
  5
100
  8
DETAIL
  6
CONTINUOUS
 62
     5
 10
106.222032
 20
186.860838
 30
0.0
 11
106.321218
 21
186.667986
 31
0.0
  0
LINE
  5
101
  8
DETAIL
  6
CONTINUOUS
 62
     5
 10
106.321218
 20
186.667986
 30
0.0
 11
106.451589
 21
186.443091
 31
0.0
  0
LINE
  5
102
  8
DETAIL
  6
CONTINUOUS
 62
     5
 10
106.451589
 20
186.443091
 30
0.0
 11
106.611976
 21
186.186545
 31
0.0
  0
LINE
  5
103
  8
DETAIL
  6
CONTINUOUS
 62
     5
 10
106.611976
 20
186.186545
 30
0.0
 11
106.797025
 21
185.903662
 31
0.0
  0
LINE
  5
104
  8
DETAIL
  6
CONTINUOUS
 62
     5
 10
106.797025
 20
185.903662
 30
0.0
 11
107.0
 21
185.6
 31
0.0
  0
LINE
  5
105
  8
DETAIL
  6
CONTINUOUS
 62
     5
 10
107.9
 20
187.6
 30
0.0
 11
194.1
 21
187.6
 31
0.0
  0
LINE
  5
106
  8
DETAIL
  6
CONTINUOUS
 62
     5
 10
371.9
 20
282.6
 30
0.0
 11
458.1
 21
282.6
 31
0.0
  0
LINE
  5
107
  8
DETAIL
  6
CONTINUOUS
 62
     5
 10
371.9
 20
288.978266
 30
0.0
 11
458.1
 21
288.978266
 31
0.0
  0
LINE
  5
108
  8
DETAIL
  6
CONTINUOUS
 62
     5
 10
371.9
 20
234.6
 30
0.0
 11
458.1
 21
234.6
 31
0.0
  0
LINE
  5
109
  8
DETAIL
  6
CONTINUOUS
 62
     5
 10
371.9
 20
240.978266
 30
0.0
 11
458.1
 21
240.978266
 31
0.0
  0
LINE
  5
10A
  8
DETAIL
  6
CONTINUOUS
 62
     5
 10
459.0
 20
185.6
 30
0.0
 11
459.229461
 21
185.943637
 31
0.0
  0
LINE
  5
10B
  8
DETAIL
  6
CONTINUOUS
 62
     5
 10
459.229461
 20
185.943637
 30
0.0
 11
459.436078
 21
186.2619
 31
0.0
  0
LINE
  5
10C
  8
DETAIL
  6
CONTINUOUS
 62
     5
 10
459.436078
 20
186.2619
 30
0.0
 11
459.608703
 21
186.544492
 31
0.0
  0
LINE
  5
10D
  8
DETAIL
  6
CONTINUOUS
 62
     5
 10
459.608703
 20
186.544492
 30
0.0
 11
459.740336
 21
186.784153
 31
0.0
  0
LINE
  5
10E
  8
DETAIL
  6
CONTINUOUS
 62
     5
 10
459.740336
 20
186.784153
 30
0.0
 11
459.830828
 21
186.981682
 31
0.0
  0
LINE
  5
10F
  8
DETAIL
  6
CONTINUOUS
 62
     5
 10
459.830828
 20
186.981682
 30
0.0
 11
459.883319
 21
187.142987
 31
0.0
  0
LINE
  5
110
  8
DETAIL
  6
CONTINUOUS
 62
     5
 10
459.883319
 20
187.142987
 30
0.0
 11
459.9
 21
187.270329
 31
0.0
  0
LINE
  5
111
  8
DETAIL
  6
CONTINUOUS
 62
     5
 10
458.1
 20
187.270329
 30
0.0
 11
458.112626
 21
187.161069
 31
0.0
  0
LINE
  5
112
  8
DETAIL
  6
CONTINUOUS
 62
     5
 10
458.112626
 20
187.161069
 30
0.0
 11
458.152829
 21
187.02454
 31
0.0
  0
LINE
  5
113
  8
DETAIL
  6
CONTINUOUS
 62
     5
 10
458.152829
 20
187.02454
 30
0.0
 11
458.222032
 21
186.860838
 31
0.0
  0
LINE
  5
114
  8
DETAIL
  6
CONTINUOUS
 62
     5
 10
458.222032
 20
186.860838
 30
0.0
 11
458.321218
 21
186.667986
 31
0.0
  0
LINE
  5
115
  8
DETAIL
  6
CONTINUOUS
 62
     5
 10
458.321218
 20
186.667986
 30
0.0
 11
458.451589
 21
186.443091
 31
0.0
  0
LINE
  5
116
  8
DETAIL
  6
CONTINUOUS
 62
     5
 10
458.451589
 20
186.443091
 30
0.0
 11
458.611976
 21
186.186545
 31
0.0
  0
LINE
  5
117
  8
DETAIL
  6
CONTINUOUS
 62
     5
 10
458.611976
 20
186.186545
 30
0.0
 11
458.797025
 21
185.903662
 31
0.0
  0
LINE
  5
118
  8
DETAIL
  6
CONTINUOUS
 62
     5
 10
458.797025
 20
185.903662
 30
0.0
 11
459.0
 21
185.6
 31
0.0
  0
LINE
  5
119
  8
DETAIL
  6
CONTINUOUS
 62
     5
 10
371.0
 20
185.6
 30
0.0
 11
371.229461
 21
185.943637
 31
0.0
  0
LINE
  5
11A
  8
DETAIL
  6
CONTINUOUS
 62
     5
 10
371.229461
 20
185.943637
 30
0.0
 11
371.436078
 21
186.2619
 31
0.0
  0
LINE
  5
11B
  8
DETAIL
  6
CONTINUOUS
 62
     5
 10
371.436078
 20
186.2619
 30
0.0
 11
371.608703
 21
186.544492
 31
0.0
  0
LINE
  5
11C
  8
DETAIL
  6
CONTINUOUS
 62
     5
 10
371.608703
 20
186.544492
 30
0.0
 11
371.740336
 21
186.784153
 31
0.0
  0
LINE
  5
11D
  8
DETAIL
  6
CONTINUOUS
 62
     5
 10
371.740336
 20
186.784153
 30
0.0
 11
371.830828
 21
186.981682
 31
0.0
  0
LINE
  5
11E
  8
DETAIL
  6
CONTINUOUS
 62
     5
 10
371.830828
 20
186.981682
 30
0.0
 11
371.883319
 21
187.142987
 31
0.0
  0
LINE
  5
11F
  8
DETAIL
  6
CONTINUOUS
 62
     5
 10
371.883319
 20
187.142987
 30
0.0
 11
371.9
 21
187.270329
 31
0.0
  0
LINE
  5
120
  8
DETAIL
  6
CONTINUOUS
 62
     5
 10
370.1
 20
187.270329
 30
0.0
 11
370.112626
 21
187.161069
 31
0.0
  0
LINE
  5
121
  8
DETAIL
  6
CONTINUOUS
 62
     5
 10
370.112626
 20
187.161069
 30
0.0
 11
370.152829
 21
187.02454
 31
0.0
  0
LINE
  5
122
  8
DETAIL
  6
CONTINUOUS
 62
     5
 10
370.152829
 20
187.02454
 30
0.0
 11
370.222032
 21
186.860838
 31
0.0
  0
LINE
  5
123
  8
DETAIL
  6
CONTINUOUS
 62
     5
 10
370.222032
 20
186.860838
 30
0.0
 11
370.321218
 21
186.667986
 31
0.0
  0
LINE
  5
124
  8
DETAIL
  6
CONTINUOUS
 62
     5
 10
370.321218
 20
186.667986
 30
0.0
 11
370.451589
 21
186.443091
 31
0.0
  0
LINE
  5
125
  8
DETAIL
  6
CONTINUOUS
 62
     5
 10
370.451589
 20
186.443091
 30
0.0
 11
370.611976
 21
186.186545
 31
0.0
  0
LINE
  5
126
  8
DETAIL
  6
CONTINUOUS
 62
     5
 10
370.611976
 20
186.186545
 30
0.0
 11
370.797025
 21
185.903662
 31
0.0
  0
LINE
  5
127
  8
DETAIL
  6
CONTINUOUS
 62
     5
 10
370.797025
 20
185.903662
 30
0.0
 11
371.0
 21
185.6
 31
0.0
  0
LINE
  5
128
  8
DETAIL
  6
CONTINUOUS
 62
     5
 10
371.9
 20
187.6
 30
0.0
 11
458.1
 21
187.6
 31
0.0
  0
LINE
  5
129
  8
DETAIL
  6
CONTINUOUS
 62
     5
 10
283.9
 20
378.6
 30
0.0
 11
370.1
 21
378.6
 31
0.0
  0
LINE
  5
12A
  8
DETAIL
  6
CONTINUOUS
 62
     5
 10
283.9
 20
384.978266
 30
0.0
 11
370.1
 21
384.978266
 31
0.0
  0
LINE
  5
12B
  8
DETAIL
  6
CONTINUOUS
 62
     5
 10
283.9
 20
426.6
 30
0.0
 11
370.1
 21
426.6
 31
0.0
  0
LINE
  5
12C
  8
DETAIL
  6
CONTINUOUS
 62
     5
 10
283.9
 20
432.978266
 30
0.0
 11
370.1
 21
432.978266
 31
0.0
  0
LINE
  5
12D
  8
DETAIL
  6
CONTINUOUS
 62
     5
 10
283.9
 20
330.6
 30
0.0
 11
370.1
 21
330.6
 31
0.0
  0
LINE
  5
12E
  8
DETAIL
  6
CONTINUOUS
 62
     5
 10
283.9
 20
336.978266
 30
0.0
 11
370.1
 21
336.978266
 31
0.0
  0
LINE
  5
12F
  8
DETAIL
  6
CONTINUOUS
 62
     5
 10
195.9
 20
378.6
 30
0.0
 11
282.1
 21
378.6
 31
0.0
  0
LINE
  5
130
  8
DETAIL
  6
CONTINUOUS
 62
     5
 10
195.9
 20
384.978266
 30
0.0
 11
282.1
 21
384.978266
 31
0.0
  0
LINE
  5
131
  8
DETAIL
  6
CONTINUOUS
 62
     5
 10
195.9
 20
426.6
 30
0.0
 11
282.1
 21
426.6
 31
0.0
  0
LINE
  5
132
  8
DETAIL
  6
CONTINUOUS
 62
     5
 10
195.9
 20
432.978266
 30
0.0
 11
282.1
 21
432.978266
 31
0.0
  0
LINE
  5
133
  8
DETAIL
  6
CONTINUOUS
 62
     5
 10
281.765029
 20
336.978266
 30
0.0
 11
282.1
 21
335.727161
 31
0.0
  0
LINE
  5
134
  8
DETAIL
  6
CONTINUOUS
 62
     5
 10
195.9
 20
330.6
 30
0.0
 11
282.1
 21
330.6
 31
0.0
  0
LINE
  5
135
  8
DETAIL
  6
CONTINUOUS
 62
     5
 10
195.9
 20
336.978266
 30
0.0
 11
282.1
 21
336.978266
 31
0.0
  0
LINE
  5
136
  8
DETAIL
  6
CONTINUOUS
 62
     5
 10
107.9
 20
378.6
 30
0.0
 11
194.1
 21
378.6
 31
0.0
  0
LINE
  5
137
  8
DETAIL
  6
CONTINUOUS
 62
     5
 10
107.9
 20
384.978266
 30
0.0
 11
194.1
 21
384.978266
 31
0.0
  0
LINE
  5
138
  8
DETAIL
  6
CONTINUOUS
 62
     5
 10
107.9
 20
426.6
 30
0.0
 11
194.1
 21
426.6
 31
0.0
  0
LINE
  5
139
  8
DETAIL
  6
CONTINUOUS
 62
     5
 10
107.9
 20
432.978266
 30
0.0
 11
194.1
 21
432.978266
 31
0.0
  0
LINE
  5
13A
  8
DETAIL
  6
CONTINUOUS
 62
     5
 10
107.9
 20
330.6
 30
0.0
 11
194.1
 21
330.6
 31
0.0
  0
LINE
  5
13B
  8
DETAIL
  6
CONTINUOUS
 62
     5
 10
107.9
 20
336.978266
 30
0.0
 11
194.1
 21
336.978266
 31
0.0
  0
LINE
  5
13C
  8
DETAIL
  6
CONTINUOUS
 62
     5
 10
371.9
 20
378.6
 30
0.0
 11
458.1
 21
378.6
 31
0.0
  0
LINE
  5
13D
  8
DETAIL
  6
CONTINUOUS
 62
     5
 10
371.9
 20
384.978266
 30
0.0
 11
458.1
 21
384.978266
 31
0.0
  0
LINE
  5
13E
  8
DETAIL
  6
CONTINUOUS
 62
     5
 10
371.9
 20
426.6
 30
0.0
 11
458.1
 21
426.6
 31
0.0
  0
LINE
  5
13F
  8
DETAIL
  6
CONTINUOUS
 62
     5
 10
371.9
 20
432.978266
 30
0.0
 11
458.1
 21
432.978266
 31
0.0
  0
LINE
  5
140
  8
DETAIL
  6
CONTINUOUS
 62
     5
 10
371.9
 20
330.6
 30
0.0
 11
458.1
 21
330.6
 31
0.0
  0
LINE
  5
141
  8
DETAIL
  6
CONTINUOUS
 62
     5
 10
371.9
 20
336.978266
 30
0.0
 11
458.1
 21
336.978266
 31
0.0
  0
ARC
  5
142
  8
DETAIL
  6
CONTINUOUS
 62
     5
 10
525.5
 20
205.6
 30
0.0
 40
18.0
 50
270.0
 51
0.0
  0
LINE
  5
143
  8
DETAIL
  6
CONTINUOUS
 62
     5
 10
459.9
 20
666.6
 30
0.0
 11
543.5
 21
666.6
 31
0.0
  0
LINE
  5
144
  8
DETAIL
  6
CONTINUOUS
 62
     5
 10
459.9
 20
672.978266
 30
0.0
 11
543.5
 21
672.978266
 31
0.0
  0
LINE
  5
145
  8
DETAIL
  6
CONTINUOUS
 62
     5
 10
525.5
 20
708.6
 30
0.0
 11
459.9
 21
708.6
 31
0.0
  0
LINE
  5
146
  8
DETAIL
  6
CONTINUOUS
 62
     5
 10
459.9
 20
618.6
 30
0.0
 11
543.5
 21
618.6
 31
0.0
  0
LINE
  5
147
  8
DETAIL
  6
CONTINUOUS
 62
     5
 10
459.9
 20
624.978266
 30
0.0
 11
543.5
 21
624.978266
 31
0.0
  0
LINE
  5
148
  8
DETAIL
  6
CONTINUOUS
 62
     5
 10
459.9
 20
522.6
 30
0.0
 11
543.5
 21
522.6
 31
0.0
  0
LINE
  5
149
  8
DETAIL
  6
CONTINUOUS
 62
     5
 10
459.9
 20
528.978266
 30
0.0
 11
543.5
 21
528.978266
 31
0.0
  0
LINE
  5
14A
  8
DETAIL
  6
CONTINUOUS
 62
     5
 10
459.9
 20
570.6
 30
0.0
 11
543.5
 21
570.6
 31
0.0
  0
LINE
  5
14B
  8
DETAIL
  6
CONTINUOUS
 62
     5
 10
459.9
 20
576.978266
 30
0.0
 11
543.5
 21
576.978266
 31
0.0
  0
LINE
  5
14C
  8
DETAIL
  6
CONTINUOUS
 62
     5
 10
459.9
 20
480.978266
 30
0.0
 11
543.5
 21
480.978266
 31
0.0
  0
LINE
  5
14D
  8
DETAIL
  6
CONTINUOUS
 62
     5
 10
459.9
 20
474.6
 30
0.0
 11
543.5
 21
474.6
 31
0.0
  0
LINE
  5
14E
  8
DETAIL
  6
CONTINUOUS
 62
     5
 10
283.9
 20
522.6
 30
0.0
 11
370.1
 21
522.6
 31
0.0
  0
LINE
  5
14F
  8
DETAIL
  6
CONTINUOUS
 62
     5
 10
283.9
 20
528.978266
 30
0.0
 11
370.1
 21
528.978266
 31
0.0
  0
LINE
  5
150
  8
DETAIL
  6
CONTINUOUS
 62
     5
 10
283.9
 20
570.6
 30
0.0
 11
370.1
 21
570.6
 31
0.0
  0
LINE
  5
151
  8
DETAIL
  6
CONTINUOUS
 62
     5
 10
283.9
 20
576.978266
 30
0.0
 11
370.1
 21
576.978266
 31
0.0
  0
LINE
  5
152
  8
DETAIL
  6
CONTINUOUS
 62
     5
 10
283.9
 20
480.978266
 30
0.0
 11
370.1
 21
480.978266
 31
0.0
  0
LINE
  5
153
  8
DETAIL
  6
CONTINUOUS
 62
     5
 10
283.9
 20
474.6
 30
0.0
 11
370.1
 21
474.6
 31
0.0
  0
LINE
  5
154
  8
DETAIL
  6
CONTINUOUS
 62
     5
 10
195.9
 20
480.978266
 30
0.0
 11
282.1
 21
480.978266
 31
0.0
  0
LINE
  5
155
  8
DETAIL
  6
CONTINUOUS
 62
     5
 10
195.9
 20
522.6
 30
0.0
 11
282.1
 21
522.6
 31
0.0
  0
LINE
  5
156
  8
DETAIL
  6
CONTINUOUS
 62
     5
 10
195.9
 20
528.978266
 30
0.0
 11
282.1
 21
528.978266
 31
0.0
  0
LINE
  5
157
  8
DETAIL
  6
CONTINUOUS
 62
     5
 10
195.9
 20
570.6
 30
0.0
 11
282.1
 21
570.6
 31
0.0
  0
LINE
  5
158
  8
DETAIL
  6
CONTINUOUS
 62
     5
 10
195.9
 20
576.978266
 30
0.0
 11
282.1
 21
576.978266
 31
0.0
  0
LINE
  5
159
  8
DETAIL
  6
CONTINUOUS
 62
     5
 10
107.9
 20
480.978266
 30
0.0
 11
194.1
 21
480.978266
 31
0.0
  0
LINE
  5
15A
  8
DETAIL
  6
CONTINUOUS
 62
     5
 10
107.9
 20
522.6
 30
0.0
 11
194.1
 21
522.6
 31
0.0
  0
LINE
  5
15B
  8
DETAIL
  6
CONTINUOUS
 62
     5
 10
107.9
 20
528.978266
 30
0.0
 11
194.1
 21
528.978266
 31
0.0
  0
LINE
  5
15C
  8
DETAIL
  6
CONTINUOUS
 62
     5
 10
107.9
 20
570.6
 30
0.0
 11
194.1
 21
570.6
 31
0.0
  0
LINE
  5
15D
  8
DETAIL
  6
CONTINUOUS
 62
     5
 10
107.9
 20
576.978266
 30
0.0
 11
194.1
 21
576.978266
 31
0.0
  0
LINE
  5
15E
  8
DETAIL
  6
CONTINUOUS
 62
     5
 10
195.9
 20
474.6
 30
0.0
 11
282.1
 21
474.6
 31
0.0
  0
LINE
  5
15F
  8
DETAIL
  6
CONTINUOUS
 62
     5
 10
107.9
 20
474.6
 30
0.0
 11
194.1
 21
474.6
 31
0.0
  0
LINE
  5
160
  8
DETAIL
  6
CONTINUOUS
 62
     5
 10
371.9
 20
480.978266
 30
0.0
 11
458.1
 21
480.978266
 31
0.0
  0
LINE
  5
161
  8
DETAIL
  6
CONTINUOUS
 62
     5
 10
371.9
 20
522.6
 30
0.0
 11
458.1
 21
522.6
 31
0.0
  0
LINE
  5
162
  8
DETAIL
  6
CONTINUOUS
 62
     5
 10
371.9
 20
528.978266
 30
0.0
 11
458.1
 21
528.978266
 31
0.0
  0
LINE
  5
163
  8
DETAIL
  6
CONTINUOUS
 62
     5
 10
371.9
 20
570.6
 30
0.0
 11
458.1
 21
570.6
 31
0.0
  0
LINE
  5
164
  8
DETAIL
  6
CONTINUOUS
 62
     5
 10
371.9
 20
576.978266
 30
0.0
 11
458.1
 21
576.978266
 31
0.0
  0
LINE
  5
165
  8
DETAIL
  6
CONTINUOUS
 62
     5
 10
371.9
 20
474.6
 30
0.0
 11
458.1
 21
474.6
 31
0.0
  0
LINE
  5
166
  8
DETAIL
  6
CONTINUOUS
 62
     5
 10
283.9
 20
666.6
 30
0.0
 11
370.1
 21
666.6
 31
0.0
  0
LINE
  5
167
  8
DETAIL
  6
CONTINUOUS
 62
     5
 10
283.9
 20
672.978266
 30
0.0
 11
370.1
 21
672.978266
 31
0.0
  0
LINE
  5
168
  8
DETAIL
  6
CONTINUOUS
 62
     5
 10
370.1
 20
708.6
 30
0.0
 11
283.9
 21
708.6
 31
0.0
  0
LINE
  5
169
  8
DETAIL
  6
CONTINUOUS
 62
     5
 10
283.9
 20
618.6
 30
0.0
 11
370.1
 21
618.6
 31
0.0
  0
LINE
  5
16A
  8
DETAIL
  6
CONTINUOUS
 62
     5
 10
283.9
 20
624.978266
 30
0.0
 11
370.1
 21
624.978266
 31
0.0
  0
LINE
  5
16B
  8
DETAIL
  6
CONTINUOUS
 62
     5
 10
283.0
 20
710.6
 30
0.0
 11
282.797025
 21
710.296338
 31
0.0
  0
LINE
  5
16C
  8
DETAIL
  6
CONTINUOUS
 62
     5
 10
282.797025
 20
710.296338
 30
0.0
 11
282.611976
 21
710.013455
 31
0.0
  0
LINE
  5
16D
  8
DETAIL
  6
CONTINUOUS
 62
     5
 10
282.611976
 20
710.013455
 30
0.0
 11
282.451589
 21
709.756909
 31
0.0
  0
LINE
  5
16E
  8
DETAIL
  6
CONTINUOUS
 62
     5
 10
282.451589
 20
709.756909
 30
0.0
 11
282.321218
 21
709.532014
 31
0.0
  0
LINE
  5
16F
  8
DETAIL
  6
CONTINUOUS
 62
     5
 10
282.321218
 20
709.532014
 30
0.0
 11
282.222032
 21
709.339162
 31
0.0
  0
LINE
  5
170
  8
DETAIL
  6
CONTINUOUS
 62
     5
 10
282.222032
 20
709.339162
 30
0.0
 11
282.152829
 21
709.17546
 31
0.0
  0
LINE
  5
171
  8
DETAIL
  6
CONTINUOUS
 62
     5
 10
282.152829
 20
709.17546
 30
0.0
 11
282.112626
 21
709.038931
 31
0.0
  0
LINE
  5
172
  8
DETAIL
  6
CONTINUOUS
 62
     5
 10
282.112626
 20
709.038931
 30
0.0
 11
282.1
 21
708.929671
 31
0.0
  0
LINE
  5
173
  8
DETAIL
  6
CONTINUOUS
 62
     5
 10
283.9
 20
708.929671
 30
0.0
 11
283.883319
 21
709.057013
 31
0.0
  0
LINE
  5
174
  8
DETAIL
  6
CONTINUOUS
 62
     5
 10
283.883319
 20
709.057013
 30
0.0
 11
283.830828
 21
709.218318
 31
0.0
  0
LINE
  5
175
  8
DETAIL
  6
CONTINUOUS
 62
     5
 10
283.830828
 20
709.218318
 30
0.0
 11
283.740336
 21
709.415847
 31
0.0
  0
LINE
  5
176
  8
DETAIL
  6
CONTINUOUS
 62
     5
 10
283.740336
 20
709.415847
 30
0.0
 11
283.608703
 21
709.655508
 31
0.0
  0
LINE
  5
177
  8
DETAIL
  6
CONTINUOUS
 62
     5
 10
283.608703
 20
709.655508
 30
0.0
 11
283.436078
 21
709.9381
 31
0.0
  0
LINE
  5
178
  8
DETAIL
  6
CONTINUOUS
 62
     5
 10
283.436078
 20
709.9381
 30
0.0
 11
283.229461
 21
710.256363
 31
0.0
  0
LINE
  5
179
  8
DETAIL
  6
CONTINUOUS
 62
     5
 10
283.229461
 20
710.256363
 30
0.0
 11
283.0
 21
710.6
 31
0.0
  0
LINE
  5
17A
  8
DETAIL
  6
CONTINUOUS
 62
     5
 10
195.0
 20
710.6
 30
0.0
 11
194.797025
 21
710.296338
 31
0.0
  0
LINE
  5
17B
  8
DETAIL
  6
CONTINUOUS
 62
     5
 10
194.797025
 20
710.296338
 30
0.0
 11
194.611976
 21
710.013455
 31
0.0
  0
LINE
  5
17C
  8
DETAIL
  6
CONTINUOUS
 62
     5
 10
194.611976
 20
710.013455
 30
0.0
 11
194.451589
 21
709.756909
 31
0.0
  0
LINE
  5
17D
  8
DETAIL
  6
CONTINUOUS
 62
     5
 10
194.451589
 20
709.756909
 30
0.0
 11
194.321218
 21
709.532014
 31
0.0
  0
LINE
  5
17E
  8
DETAIL
  6
CONTINUOUS
 62
     5
 10
194.321218
 20
709.532014
 30
0.0
 11
194.222032
 21
709.339162
 31
0.0
  0
LINE
  5
17F
  8
DETAIL
  6
CONTINUOUS
 62
     5
 10
194.222032
 20
709.339162
 30
0.0
 11
194.152829
 21
709.17546
 31
0.0
  0
LINE
  5
180
  8
DETAIL
  6
CONTINUOUS
 62
     5
 10
194.152829
 20
709.17546
 30
0.0
 11
194.112626
 21
709.038931
 31
0.0
  0
LINE
  5
181
  8
DETAIL
  6
CONTINUOUS
 62
     5
 10
194.112626
 20
709.038931
 30
0.0
 11
194.1
 21
708.929671
 31
0.0
  0
LINE
  5
182
  8
DETAIL
  6
CONTINUOUS
 62
     5
 10
195.9
 20
708.929671
 30
0.0
 11
195.883319
 21
709.057013
 31
0.0
  0
LINE
  5
183
  8
DETAIL
  6
CONTINUOUS
 62
     5
 10
195.883319
 20
709.057013
 30
0.0
 11
195.830828
 21
709.218318
 31
0.0
  0
LINE
  5
184
  8
DETAIL
  6
CONTINUOUS
 62
     5
 10
195.830828
 20
709.218318
 30
0.0
 11
195.740336
 21
709.415847
 31
0.0
  0
LINE
  5
185
  8
DETAIL
  6
CONTINUOUS
 62
     5
 10
195.740336
 20
709.415847
 30
0.0
 11
195.608703
 21
709.655508
 31
0.0
  0
LINE
  5
186
  8
DETAIL
  6
CONTINUOUS
 62
     5
 10
195.608703
 20
709.655508
 30
0.0
 11
195.436078
 21
709.9381
 31
0.0
  0
LINE
  5
187
  8
DETAIL
  6
CONTINUOUS
 62
     5
 10
195.436078
 20
709.9381
 30
0.0
 11
195.229461
 21
710.256363
 31
0.0
  0
LINE
  5
188
  8
DETAIL
  6
CONTINUOUS
 62
     5
 10
195.229461
 20
710.256363
 30
0.0
 11
195.0
 21
710.6
 31
0.0
  0
LINE
  5
189
  8
DETAIL
  6
CONTINUOUS
 62
     5
 10
195.9
 20
666.6
 30
0.0
 11
282.1
 21
666.6
 31
0.0
  0
LINE
  5
18A
  8
DETAIL
  6
CONTINUOUS
 62
     5
 10
195.9
 20
672.978266
 30
0.0
 11
282.1
 21
672.978266
 31
0.0
  0
LINE
  5
18B
  8
DETAIL
  6
CONTINUOUS
 62
     5
 10
282.1
 20
708.6
 30
0.0
 11
195.9
 21
708.6
 31
0.0
  0
LINE
  5
18C
  8
DETAIL
  6
CONTINUOUS
 62
     5
 10
195.9
 20
618.6
 30
0.0
 11
282.1
 21
618.6
 31
0.0
  0
LINE
  5
18D
  8
DETAIL
  6
CONTINUOUS
 62
     5
 10
195.9
 20
624.978266
 30
0.0
 11
282.1
 21
624.978266
 31
0.0
  0
LINE
  5
18E
  8
DETAIL
  6
CONTINUOUS
 62
     5
 10
107.0
 20
710.6
 30
0.0
 11
106.797025
 21
710.296338
 31
0.0
  0
LINE
  5
18F
  8
DETAIL
  6
CONTINUOUS
 62
     5
 10
106.797025
 20
710.296338
 30
0.0
 11
106.611976
 21
710.013455
 31
0.0
  0
LINE
  5
190
  8
DETAIL
  6
CONTINUOUS
 62
     5
 10
106.611976
 20
710.013455
 30
0.0
 11
106.451589
 21
709.756909
 31
0.0
  0
LINE
  5
191
  8
DETAIL
  6
CONTINUOUS
 62
     5
 10
106.451589
 20
709.756909
 30
0.0
 11
106.321218
 21
709.532014
 31
0.0
  0
LINE
  5
192
  8
DETAIL
  6
CONTINUOUS
 62
     5
 10
106.321218
 20
709.532014
 30
0.0
 11
106.222032
 21
709.339162
 31
0.0
  0
LINE
  5
193
  8
DETAIL
  6
CONTINUOUS
 62
     5
 10
106.222032
 20
709.339162
 30
0.0
 11
106.152829
 21
709.17546
 31
0.0
  0
LINE
  5
194
  8
DETAIL
  6
CONTINUOUS
 62
     5
 10
106.152829
 20
709.17546
 30
0.0
 11
106.112626
 21
709.038931
 31
0.0
  0
LINE
  5
195
  8
DETAIL
  6
CONTINUOUS
 62
     5
 10
106.112626
 20
709.038931
 30
0.0
 11
106.1
 21
708.929671
 31
0.0
  0
LINE
  5
196
  8
DETAIL
  6
CONTINUOUS
 62
     5
 10
107.9
 20
708.929671
 30
0.0
 11
107.883319
 21
709.057013
 31
0.0
  0
LINE
  5
197
  8
DETAIL
  6
CONTINUOUS
 62
     5
 10
107.883319
 20
709.057013
 30
0.0
 11
107.830828
 21
709.218318
 31
0.0
  0
LINE
  5
198
  8
DETAIL
  6
CONTINUOUS
 62
     5
 10
107.830828
 20
709.218318
 30
0.0
 11
107.740336
 21
709.415847
 31
0.0
  0
LINE
  5
199
  8
DETAIL
  6
CONTINUOUS
 62
     5
 10
107.740336
 20
709.415847
 30
0.0
 11
107.608703
 21
709.655508
 31
0.0
  0
LINE
  5
19A
  8
DETAIL
  6
CONTINUOUS
 62
     5
 10
107.608703
 20
709.655508
 30
0.0
 11
107.436078
 21
709.9381
 31
0.0
  0
LINE
  5
19B
  8
DETAIL
  6
CONTINUOUS
 62
     5
 10
107.436078
 20
709.9381
 30
0.0
 11
107.229461
 21
710.256363
 31
0.0
  0
LINE
  5
19C
  8
DETAIL
  6
CONTINUOUS
 62
     5
 10
107.229461
 20
710.256363
 30
0.0
 11
107.0
 21
710.6
 31
0.0
  0
LINE
  5
19D
  8
DETAIL
  6
CONTINUOUS
 62
     5
 10
107.9
 20
666.6
 30
0.0
 11
194.1
 21
666.6
 31
0.0
  0
LINE
  5
19E
  8
DETAIL
  6
CONTINUOUS
 62
     5
 10
107.9
 20
672.978266
 30
0.0
 11
194.1
 21
672.978266
 31
0.0
  0
LINE
  5
19F
  8
DETAIL
  6
CONTINUOUS
 62
     5
 10
194.1
 20
708.6
 30
0.0
 11
107.9
 21
708.6
 31
0.0
  0
LINE
  5
1A0
  8
DETAIL
  6
CONTINUOUS
 62
     5
 10
107.9
 20
618.6
 30
0.0
 11
194.1
 21
618.6
 31
0.0
  0
LINE
  5
1A1
  8
DETAIL
  6
CONTINUOUS
 62
     5
 10
107.9
 20
624.978266
 30
0.0
 11
194.1
 21
624.978266
 31
0.0
  0
LINE
  5
1A2
  8
DETAIL
  6
CONTINUOUS
 62
     5
 10
459.0
 20
710.6
 30
0.0
 11
458.797025
 21
710.296338
 31
0.0
  0
LINE
  5
1A3
  8
DETAIL
  6
CONTINUOUS
 62
     5
 10
458.797025
 20
710.296338
 30
0.0
 11
458.611976
 21
710.013455
 31
0.0
  0
LINE
  5
1A4
  8
DETAIL
  6
CONTINUOUS
 62
     5
 10
458.611976
 20
710.013455
 30
0.0
 11
458.451589
 21
709.756909
 31
0.0
  0
LINE
  5
1A5
  8
DETAIL
  6
CONTINUOUS
 62
     5
 10
458.451589
 20
709.756909
 30
0.0
 11
458.321218
 21
709.532014
 31
0.0
  0
LINE
  5
1A6
  8
DETAIL
  6
CONTINUOUS
 62
     5
 10
458.321218
 20
709.532014
 30
0.0
 11
458.222032
 21
709.339162
 31
0.0
  0
LINE
  5
1A7
  8
DETAIL
  6
CONTINUOUS
 62
     5
 10
458.222032
 20
709.339162
 30
0.0
 11
458.152829
 21
709.17546
 31
0.0
  0
LINE
  5
1A8
  8
DETAIL
  6
CONTINUOUS
 62
     5
 10
458.152829
 20
709.17546
 30
0.0
 11
458.112626
 21
709.038931
 31
0.0
  0
LINE
  5
1A9
  8
DETAIL
  6
CONTINUOUS
 62
     5
 10
458.112626
 20
709.038931
 30
0.0
 11
458.1
 21
708.929671
 31
0.0
  0
LINE
  5
1AA
  8
DETAIL
  6
CONTINUOUS
 62
     5
 10
459.9
 20
708.929671
 30
0.0
 11
459.883319
 21
709.057013
 31
0.0
  0
LINE
  5
1AB
  8
DETAIL
  6
CONTINUOUS
 62
     5
 10
459.883319
 20
709.057013
 30
0.0
 11
459.830828
 21
709.218318
 31
0.0
  0
LINE
  5
1AC
  8
DETAIL
  6
CONTINUOUS
 62
     5
 10
459.830828
 20
709.218318
 30
0.0
 11
459.740336
 21
709.415847
 31
0.0
  0
LINE
  5
1AD
  8
DETAIL
  6
CONTINUOUS
 62
     5
 10
459.740336
 20
709.415847
 30
0.0
 11
459.608703
 21
709.655508
 31
0.0
  0
LINE
  5
1AE
  8
DETAIL
  6
CONTINUOUS
 62
     5
 10
459.608703
 20
709.655508
 30
0.0
 11
459.436078
 21
709.9381
 31
0.0
  0
LINE
  5
1AF
  8
DETAIL
  6
CONTINUOUS
 62
     5
 10
459.436078
 20
709.9381
 30
0.0
 11
459.229461
 21
710.256363
 31
0.0
  0
LINE
  5
1B0
  8
DETAIL
  6
CONTINUOUS
 62
     5
 10
459.229461
 20
710.256363
 30
0.0
 11
459.0
 21
710.6
 31
0.0
  0
LINE
  5
1B1
  8
DETAIL
  6
CONTINUOUS
 62
     5
 10
371.0
 20
710.6
 30
0.0
 11
370.797025
 21
710.296338
 31
0.0
  0
LINE
  5
1B2
  8
DETAIL
  6
CONTINUOUS
 62
     5
 10
370.797025
 20
710.296338
 30
0.0
 11
370.611976
 21
710.013455
 31
0.0
  0
LINE
  5
1B3
  8
DETAIL
  6
CONTINUOUS
 62
     5
 10
370.611976
 20
710.013455
 30
0.0
 11
370.451589
 21
709.756909
 31
0.0
  0
LINE
  5
1B4
  8
DETAIL
  6
CONTINUOUS
 62
     5
 10
370.451589
 20
709.756909
 30
0.0
 11
370.321218
 21
709.532014
 31
0.0
  0
LINE
  5
1B5
  8
DETAIL
  6
CONTINUOUS
 62
     5
 10
370.321218
 20
709.532014
 30
0.0
 11
370.222032
 21
709.339162
 31
0.0
  0
LINE
  5
1B6
  8
DETAIL
  6
CONTINUOUS
 62
     5
 10
370.222032
 20
709.339162
 30
0.0
 11
370.152829
 21
709.17546
 31
0.0
  0
LINE
  5
1B7
  8
DETAIL
  6
CONTINUOUS
 62
     5
 10
370.152829
 20
709.17546
 30
0.0
 11
370.112626
 21
709.038931
 31
0.0
  0
LINE
  5
1B8
  8
DETAIL
  6
CONTINUOUS
 62
     5
 10
370.112626
 20
709.038931
 30
0.0
 11
370.1
 21
708.929671
 31
0.0
  0
LINE
  5
1B9
  8
DETAIL
  6
CONTINUOUS
 62
     5
 10
371.9
 20
708.929671
 30
0.0
 11
371.883319
 21
709.057013
 31
0.0
  0
LINE
  5
1BA
  8
DETAIL
  6
CONTINUOUS
 62
     5
 10
371.883319
 20
709.057013
 30
0.0
 11
371.830828
 21
709.218318
 31
0.0
  0
LINE
  5
1BB
  8
DETAIL
  6
CONTINUOUS
 62
     5
 10
371.830828
 20
709.218318
 30
0.0
 11
371.740336
 21
709.415847
 31
0.0
  0
LINE
  5
1BC
  8
DETAIL
  6
CONTINUOUS
 62
     5
 10
371.740336
 20
709.415847
 30
0.0
 11
371.608703
 21
709.655508
 31
0.0
  0
LINE
  5
1BD
  8
DETAIL
  6
CONTINUOUS
 62
     5
 10
371.608703
 20
709.655508
 30
0.0
 11
371.436078
 21
709.9381
 31
0.0
  0
LINE
  5
1BE
  8
DETAIL
  6
CONTINUOUS
 62
     5
 10
371.436078
 20
709.9381
 30
0.0
 11
371.229461
 21
710.256363
 31
0.0
  0
LINE
  5
1BF
  8
DETAIL
  6
CONTINUOUS
 62
     5
 10
371.229461
 20
710.256363
 30
0.0
 11
371.0
 21
710.6
 31
0.0
  0
LINE
  5
1C0
  8
DETAIL
  6
CONTINUOUS
 62
     5
 10
371.9
 20
666.6
 30
0.0
 11
458.1
 21
666.6
 31
0.0
  0
LINE
  5
1C1
  8
DETAIL
  6
CONTINUOUS
 62
     5
 10
371.9
 20
672.978266
 30
0.0
 11
458.1
 21
672.978266
 31
0.0
  0
LINE
  5
1C2
  8
DETAIL
  6
CONTINUOUS
 62
     5
 10
458.1
 20
708.6
 30
0.0
 11
371.9
 21
708.6
 31
0.0
  0
LINE
  5
1C3
  8
DETAIL
  6
CONTINUOUS
 62
     5
 10
371.9
 20
618.6
 30
0.0
 11
458.1
 21
618.6
 31
0.0
  0
LINE
  5
1C4
  8
DETAIL
  6
CONTINUOUS
 62
     5
 10
371.9
 20
624.978266
 30
0.0
 11
458.1
 21
624.978266
 31
0.0
  0
ARC
  5
1C5
  8
DETAIL
  6
CONTINUOUS
 62
     5
 10
525.5
 20
690.6
 30
0.0
 40
18.0
 50
0.0
 51
90.0
  0
LINE
  5
1C6
  8
DETAIL
  6
CONTINUOUS
 62
     5
 10
569.5
 20
734.6
 30
0.0
 11
569.5
 21
733.8
 31
0.0
  0
ARC
  5
1C7
  8
DETAIL
  6
CONTINUOUS
 62
     5
 10
569.5
 20
733.6
 30
0.0
 40
1.0
 50
0.0
 51
90.0
  0
CIRCLE
  5
1C8
  8
DETAIL
  6
CONTINUOUS
 62
     5
 10
562.5
 20
727.6
 30
0.0
 40
3.0
  0
CIRCLE
  5
1C9
  8
DETAIL
  6
CONTINUOUS
 62
     5
 10
562.5
 20
727.6
 30
0.0
 40
2.0
  0
LINE
  5
1CA
  8
DETAIL
  6
CONTINUOUS
 62
     5
 10
570.5
 20
733.6
 30
0.0
 11
570.5
 21
728.6
 31
0.0
  0
LINE
  5
1CB
  8
DETAIL
  6
CONTINUOUS
 62
     5
 10
568.181434
 20
733.8
 30
0.0
 11
569.5
 21
733.8
 31
0.0
  0
LINE
  5
1CC
  8
DETAIL
  6
CONTINUOUS
 62
     5
 10
569.69509
 20
733.775
 30
0.0
 11
569.5
 21
733.8
 31
0.0
  0
LINE
  5
1CD
  8
DETAIL
  6
CONTINUOUS
 62
     5
 10
570.5
 20
733.6
 30
0.0
 11
570.480785
 21
733.625
 31
0.0
  0
LINE
  5
1CE
  8
DETAIL
  6
CONTINUOUS
 62
     5
 10
570.480785
 20
733.625
 30
0.0
 11
570.42388
 21
733.65
 31
0.0
  0
LINE
  5
1CF
  8
DETAIL
  6
CONTINUOUS
 62
     5
 10
570.42388
 20
733.65
 30
0.0
 11
570.33147
 21
733.675
 31
0.0
  0
LINE
  5
1D0
  8
DETAIL
  6
CONTINUOUS
 62
     5
 10
570.33147
 20
733.675
 30
0.0
 11
570.207107
 21
733.7
 31
0.0
  0
LINE
  5
1D1
  8
DETAIL
  6
CONTINUOUS
 62
     5
 10
570.207107
 20
733.7
 30
0.0
 11
570.05557
 21
733.725
 31
0.0
  0
LINE
  5
1D2
  8
DETAIL
  6
CONTINUOUS
 62
     5
 10
570.05557
 20
733.725
 30
0.0
 11
569.882683
 21
733.75
 31
0.0
  0
LINE
  5
1D3
  8
DETAIL
  6
CONTINUOUS
 62
     5
 10
569.882683
 20
733.75
 30
0.0
 11
569.69509
 21
733.775
 31
0.0
  0
LINE
  5
1D4
  8
DETAIL
  6
CONTINUOUS
 62
     5
 10
567.080912
 20
734.6
 30
0.0
 11
569.5
 21
734.6
 31
0.0
  0
LINE
  5
1D5
  8
DETAIL
  6
CONTINUOUS
 62
     5
 10
282.1
 20
784.870329
 30
0.0
 11
282.1
 21
1306.529671
 31
0.0
  0
LINE
  5
1D6
  8
DETAIL
  6
CONTINUOUS
 62
     5
 10
283.9
 20
784.870329
 30
0.0
 11
283.9
 21
1306.529671
 31
0.0
  0
LINE
  5
1D7
  8
DETAIL
  6
CONTINUOUS
 62
     5
 10
370.1
 20
784.870329
 30
0.0
 11
370.1
 21
1306.529671
 31
0.0
  0
LINE
  5
1D8
  8
DETAIL
  6
CONTINUOUS
 62
     5
 10
371.9
 20
784.870329
 30
0.0
 11
371.9
 21
1306.529671
 31
0.0
  0
LINE
  5
1D9
  8
DETAIL
  6
CONTINUOUS
 62
     5
 10
458.1
 20
784.870329
 30
0.0
 11
458.1
 21
1306.529671
 31
0.0
  0
LINE
  5
1DA
  8
DETAIL
  6
CONTINUOUS
 62
     5
 10
459.9
 20
784.870329
 30
0.0
 11
459.9
 21
1306.529671
 31
0.0
  0
LINE
  5
1DB
  8
DETAIL
  6
CONTINUOUS
 62
     5
 10
543.5
 20
803.2
 30
0.0
 11
543.5
 21
1288.2
 31
0.0
  0
LINE
  5
1DC
  8
DETAIL
  6
CONTINUOUS
 62
     5
 10
568.5
 20
803.2
 30
0.0
 11
568.5
 21
1288.2
 31
0.0
  0
LINE
  5
1DD
  8
DETAIL
  6
CONTINUOUS
 62
     5
 10
570.5
 20
1326.2
 30
0.0
 11
570.5
 21
765.2
 31
0.0
  0
LINE
  5
1DE
  8
DETAIL
  6
CONTINUOUS
 62
     5
 10
-4.5
 20
765.2
 30
0.0
 11
-4.5
 21
1326.2
 31
0.0
  0
LINE
  5
1DF
  8
DETAIL
  6
CONTINUOUS
 62
     5
 10
-2.5
 20
1288.2
 30
0.0
 11
-2.5
 21
803.2
 31
0.0
  0
LINE
  5
1E0
  8
DETAIL
  6
CONTINUOUS
 62
     5
 10
22.5
 20
1288.2
 30
0.0
 11
22.5
 21
803.2
 31
0.0
  0
LINE
  5
1E1
  8
DETAIL
  6
CONTINUOUS
 62
     5
 10
106.1
 20
784.870329
 30
0.0
 11
106.1
 21
1306.529671
 31
0.0
  0
LINE
  5
1E2
  8
DETAIL
  6
CONTINUOUS
 62
     5
 10
107.9
 20
784.870329
 30
0.0
 11
107.9
 21
1306.529671
 31
0.0
  0
LINE
  5
1E3
  8
DETAIL
  6
CONTINUOUS
 62
     5
 10
194.1
 20
784.870329
 30
0.0
 11
194.1
 21
1306.529671
 31
0.0
  0
LINE
  5
1E4
  8
DETAIL
  6
CONTINUOUS
 62
     5
 10
195.9
 20
784.870329
 30
0.0
 11
195.9
 21
1306.529671
 31
0.0
  0
LINE
  5
1E5
  8
DETAIL
  6
CONTINUOUS
 62
     5
 10
22.5
 20
1264.2
 30
0.0
 11
106.1
 21
1264.2
 31
0.0
  0
LINE
  5
1E6
  8
DETAIL
  6
CONTINUOUS
 62
     5
 10
22.5
 20
1270.578266
 30
0.0
 11
106.1
 21
1270.578266
 31
0.0
  0
LINE
  5
1E7
  8
DETAIL
  6
CONTINUOUS
 62
     5
 10
22.5
 20
1120.2
 30
0.0
 11
106.1
 21
1120.2
 31
0.0
  0
LINE
  5
1E8
  8
DETAIL
  6
CONTINUOUS
 62
     5
 10
22.5
 20
1126.578266
 30
0.0
 11
106.1
 21
1126.578266
 31
0.0
  0
LINE
  5
1E9
  8
DETAIL
  6
CONTINUOUS
 62
     5
 10
22.5
 20
1168.2
 30
0.0
 11
106.1
 21
1168.2
 31
0.0
  0
LINE
  5
1EA
  8
DETAIL
  6
CONTINUOUS
 62
     5
 10
22.5
 20
1174.578266
 30
0.0
 11
106.1
 21
1174.578266
 31
0.0
  0
LINE
  5
1EB
  8
DETAIL
  6
CONTINUOUS
 62
     5
 10
22.5
 20
1216.2
 30
0.0
 11
106.1
 21
1216.2
 31
0.0
  0
LINE
  5
1EC
  8
DETAIL
  6
CONTINUOUS
 62
     5
 10
22.5
 20
1222.578266
 30
0.0
 11
106.1
 21
1222.578266
 31
0.0
  0
LINE
  5
1ED
  8
DETAIL
  6
CONTINUOUS
 62
     5
 10
22.5
 20
976.2
 30
0.0
 11
106.1
 21
976.2
 31
0.0
  0
LINE
  5
1EE
  8
DETAIL
  6
CONTINUOUS
 62
     5
 10
22.5
 20
982.578266
 30
0.0
 11
106.1
 21
982.578266
 31
0.0
  0
LINE
  5
1EF
  8
DETAIL
  6
CONTINUOUS
 62
     5
 10
22.5
 20
1024.2
 30
0.0
 11
106.1
 21
1024.2
 31
0.0
  0
LINE
  5
1F0
  8
DETAIL
  6
CONTINUOUS
 62
     5
 10
22.5
 20
1030.578266
 30
0.0
 11
106.1
 21
1030.578266
 31
0.0
  0
LINE
  5
1F1
  8
DETAIL
  6
CONTINUOUS
 62
     5
 10
22.5
 20
1072.2
 30
0.0
 11
106.1
 21
1072.2
 31
0.0
  0
LINE
  5
1F2
  8
DETAIL
  6
CONTINUOUS
 62
     5
 10
22.5
 20
1078.578266
 30
0.0
 11
106.1
 21
1078.578266
 31
0.0
  0
LINE
  5
1F3
  8
DETAIL
  6
CONTINUOUS
 62
     5
 10
22.5
 20
832.2
 30
0.0
 11
106.1
 21
832.2
 31
0.0
  0
LINE
  5
1F4
  8
DETAIL
  6
CONTINUOUS
 62
     5
 10
22.5
 20
838.578266
 30
0.0
 11
106.1
 21
838.578266
 31
0.0
  0
LINE
  5
1F5
  8
DETAIL
  6
CONTINUOUS
 62
     5
 10
22.5
 20
880.2
 30
0.0
 11
106.1
 21
880.2
 31
0.0
  0
LINE
  5
1F6
  8
DETAIL
  6
CONTINUOUS
 62
     5
 10
22.5
 20
886.578266
 30
0.0
 11
106.1
 21
886.578266
 31
0.0
  0
LINE
  5
1F7
  8
DETAIL
  6
CONTINUOUS
 62
     5
 10
22.5
 20
928.2
 30
0.0
 11
106.1
 21
928.2
 31
0.0
  0
LINE
  5
1F8
  8
DETAIL
  6
CONTINUOUS
 62
     5
 10
22.5
 20
934.578266
 30
0.0
 11
106.1
 21
934.578266
 31
0.0
  0
LINE
  5
1F9
  8
DETAIL
  6
CONTINUOUS
 62
     5
 10
40.5
 20
785.2
 30
0.0
 11
106.1
 21
785.2
 31
0.0
  0
LINE
  5
1FA
  8
DETAIL
  6
CONTINUOUS
 62
     5
 10
2.5
 20
735.6
 30
0.0
 11
563.5
 21
735.6
 31
0.0
  0
LINE
  5
1FB
  8
DETAIL
  6
CONTINUOUS
 62
     5
 10
-4.5
 20
749.7
 30
0.0
 11
570.5
 21
749.7
 31
0.0
  0
LINE
  5
1FC
  8
DETAIL
  6
CONTINUOUS
 62
     5
 10
563.5
 20
758.2
 30
0.0
 11
2.5
 21
758.2
 31
0.0
  0
LINE
  5
1FD
  8
DETAIL
  6
CONTINUOUS
 62
     5
 10
40.5
 20
760.2
 30
0.0
 11
525.5
 21
760.2
 31
0.0
  0
LINE
  5
1FE
  8
DETAIL
  6
CONTINUOUS
 62
     5
 10
11.5
 20
749.7
 30
0.0
 11
11.5
 21
758.2
 31
0.0
  0
LINE
  5
1FF
  8
DETAIL
  6
CONTINUOUS
 62
     5
 10
2.182336
 20
764.7
 30
0.0
 11
4.817664
 21
764.7
 31
0.0
  0
CIRCLE
  5
200
  8
DETAIL
  6
CONTINUOUS
 62
     5
 10
3.5
 20
766.2
 30
0.0
 40
3.0
  0
ARC
  5
201
  8
DETAIL
  6
CONTINUOUS
 62
     5
 10
40.5
 20
803.2
 30
0.0
 40
18.0
 50
180.0
 51
270.0
  0
CIRCLE
  5
202
  8
DETAIL
  6
CONTINUOUS
 62
     5
 10
3.5
 20
766.2
 30
0.0
 40
2.0
  0
LINE
  5
203
  8
DETAIL
  6
CONTINUOUS
 62
     5
 10
-4.5
 20
749.7
 30
0.0
 11
-4.5
 21
765.2
 31
0.0
  0
LINE
  5
204
  8
DETAIL
  6
CONTINUOUS
 62
     5
 10
-5.0
 20
735.6
 30
0.0
 11
-2.985606
 21
735.6
 31
0.0
  0
LINE
  5
205
  8
DETAIL
  6
CONTINUOUS
 62
     5
 10
-4.5
 20
775.605655
 30
0.0
 11
-5.0
 21
775.605655
 31
0.0
  0
LINE
  5
206
  8
DETAIL
  6
CONTINUOUS
 62
     5
 10
-4.5
 20
776.61974
 30
0.0
 11
-5.0
 21
776.61974
 31
0.0
  0
ARC
  5
207
  8
DETAIL
  6
CONTINUOUS
 62
     5
 10
2.5
 20
765.2
 30
0.0
 40
7.0
 50
180.0
 51
270.0
  0
ARC
  5
208
  8
DETAIL
  6
CONTINUOUS
 62
     5
 10
40.5
 20
803.2
 30
0.0
 40
43.0
 50
180.0
 51
270.0
  0
LINE
  5
209
  8
DETAIL
  6
CONTINUOUS
 62
     5
 10
459.9
 20
976.2
 30
0.0
 11
543.5
 21
976.2
 31
0.0
  0
LINE
  5
20A
  8
DETAIL
  6
CONTINUOUS
 62
     5
 10
459.9
 20
982.578266
 30
0.0
 11
543.5
 21
982.578266
 31
0.0
  0
LINE
  5
20B
  8
DETAIL
  6
CONTINUOUS
 62
     5
 10
459.9
 20
832.2
 30
0.0
 11
543.5
 21
832.2
 31
0.0
  0
LINE
  5
20C
  8
DETAIL
  6
CONTINUOUS
 62
     5
 10
459.9
 20
838.578266
 30
0.0
 11
543.5
 21
838.578266
 31
0.0
  0
LINE
  5
20D
  8
DETAIL
  6
CONTINUOUS
 62
     5
 10
459.9
 20
880.2
 30
0.0
 11
543.5
 21
880.2
 31
0.0
  0
LINE
  5
20E
  8
DETAIL
  6
CONTINUOUS
 62
     5
 10
459.9
 20
886.578266
 30
0.0
 11
543.5
 21
886.578266
 31
0.0
  0
LINE
  5
20F
  8
DETAIL
  6
CONTINUOUS
 62
     5
 10
459.9
 20
928.2
 30
0.0
 11
543.5
 21
928.2
 31
0.0
  0
LINE
  5
210
  8
DETAIL
  6
CONTINUOUS
 62
     5
 10
459.9
 20
934.578266
 30
0.0
 11
543.5
 21
934.578266
 31
0.0
  0
LINE
  5
211
  8
DETAIL
  6
CONTINUOUS
 62
     5
 10
459.9
 20
785.2
 30
0.0
 11
525.5
 21
785.2
 31
0.0
  0
LINE
  5
212
  8
DETAIL
  6
CONTINUOUS
 62
     5
 10
283.9
 20
832.2
 30
0.0
 11
370.1
 21
832.2
 31
0.0
  0
LINE
  5
213
  8
DETAIL
  6
CONTINUOUS
 62
     5
 10
283.9
 20
838.578266
 30
0.0
 11
370.1
 21
838.578266
 31
0.0
  0
LINE
  5
214
  8
DETAIL
  6
CONTINUOUS
 62
     5
 10
283.9
 20
785.2
 30
0.0
 11
370.1
 21
785.2
 31
0.0
  0
LINE
  5
215
  8
DETAIL
  6
CONTINUOUS
 62
     5
 10
283.0
 20
783.2
 30
0.0
 11
283.229461
 21
783.543637
 31
0.0
  0
LINE
  5
216
  8
DETAIL
  6
CONTINUOUS
 62
     5
 10
283.229461
 20
783.543637
 30
0.0
 11
283.436078
 21
783.8619
 31
0.0
  0
LINE
  5
217
  8
DETAIL
  6
CONTINUOUS
 62
     5
 10
283.436078
 20
783.8619
 30
0.0
 11
283.608703
 21
784.144492
 31
0.0
  0
LINE
  5
218
  8
DETAIL
  6
CONTINUOUS
 62
     5
 10
283.608703
 20
784.144492
 30
0.0
 11
283.740336
 21
784.384153
 31
0.0
  0
LINE
  5
219
  8
DETAIL
  6
CONTINUOUS
 62
     5
 10
283.740336
 20
784.384153
 30
0.0
 11
283.830828
 21
784.581682
 31
0.0
  0
LINE
  5
21A
  8
DETAIL
  6
CONTINUOUS
 62
     5
 10
283.830828
 20
784.581682
 30
0.0
 11
283.883319
 21
784.742987
 31
0.0
  0
LINE
  5
21B
  8
DETAIL
  6
CONTINUOUS
 62
     5
 10
283.883319
 20
784.742987
 30
0.0
 11
283.9
 21
784.870329
 31
0.0
  0
LINE
  5
21C
  8
DETAIL
  6
CONTINUOUS
 62
     5
 10
282.1
 20
784.870329
 30
0.0
 11
282.112626
 21
784.761069
 31
0.0
  0
LINE
  5
21D
  8
DETAIL
  6
CONTINUOUS
 62
     5
 10
282.112626
 20
784.761069
 30
0.0
 11
282.152829
 21
784.62454
 31
0.0
  0
LINE
  5
21E
  8
DETAIL
  6
CONTINUOUS
 62
     5
 10
282.152829
 20
784.62454
 30
0.0
 11
282.222032
 21
784.460838
 31
0.0
  0
LINE
  5
21F
  8
DETAIL
  6
CONTINUOUS
 62
     5
 10
282.222032
 20
784.460838
 30
0.0
 11
282.321218
 21
784.267986
 31
0.0
  0
LINE
  5
220
  8
DETAIL
  6
CONTINUOUS
 62
     5
 10
282.321218
 20
784.267986
 30
0.0
 11
282.451589
 21
784.043091
 31
0.0
  0
LINE
  5
221
  8
DETAIL
  6
CONTINUOUS
 62
     5
 10
282.451589
 20
784.043091
 30
0.0
 11
282.611976
 21
783.786545
 31
0.0
  0
LINE
  5
222
  8
DETAIL
  6
CONTINUOUS
 62
     5
 10
282.611976
 20
783.786545
 30
0.0
 11
282.797025
 21
783.503662
 31
0.0
  0
LINE
  5
223
  8
DETAIL
  6
CONTINUOUS
 62
     5
 10
282.797025
 20
783.503662
 30
0.0
 11
283.0
 21
783.2
 31
0.0
  0
LINE
  5
224
  8
DETAIL
  6
CONTINUOUS
 62
     5
 10
195.0
 20
783.2
 30
0.0
 11
195.229461
 21
783.543637
 31
0.0
  0
LINE
  5
225
  8
DETAIL
  6
CONTINUOUS
 62
     5
 10
195.229461
 20
783.543637
 30
0.0
 11
195.436078
 21
783.8619
 31
0.0
  0
LINE
  5
226
  8
DETAIL
  6
CONTINUOUS
 62
     5
 10
195.436078
 20
783.8619
 30
0.0
 11
195.608703
 21
784.144492
 31
0.0
  0
LINE
  5
227
  8
DETAIL
  6
CONTINUOUS
 62
     5
 10
195.608703
 20
784.144492
 30
0.0
 11
195.740336
 21
784.384153
 31
0.0
  0
LINE
  5
228
  8
DETAIL
  6
CONTINUOUS
 62
     5
 10
195.740336
 20
784.384153
 30
0.0
 11
195.830828
 21
784.581682
 31
0.0
  0
LINE
  5
229
  8
DETAIL
  6
CONTINUOUS
 62
     5
 10
195.830828
 20
784.581682
 30
0.0
 11
195.883319
 21
784.742987
 31
0.0
  0
LINE
  5
22A
  8
DETAIL
  6
CONTINUOUS
 62
     5
 10
195.883319
 20
784.742987
 30
0.0
 11
195.9
 21
784.870329
 31
0.0
  0
LINE
  5
22B
  8
DETAIL
  6
CONTINUOUS
 62
     5
 10
194.1
 20
784.870329
 30
0.0
 11
194.112626
 21
784.761069
 31
0.0
  0
LINE
  5
22C
  8
DETAIL
  6
CONTINUOUS
 62
     5
 10
194.112626
 20
784.761069
 30
0.0
 11
194.152829
 21
784.62454
 31
0.0
  0
LINE
  5
22D
  8
DETAIL
  6
CONTINUOUS
 62
     5
 10
194.152829
 20
784.62454
 30
0.0
 11
194.222032
 21
784.460838
 31
0.0
  0
LINE
  5
22E
  8
DETAIL
  6
CONTINUOUS
 62
     5
 10
194.222032
 20
784.460838
 30
0.0
 11
194.321218
 21
784.267986
 31
0.0
  0
LINE
  5
22F
  8
DETAIL
  6
CONTINUOUS
 62
     5
 10
194.321218
 20
784.267986
 30
0.0
 11
194.451589
 21
784.043091
 31
0.0
  0
LINE
  5
230
  8
DETAIL
  6
CONTINUOUS
 62
     5
 10
194.451589
 20
784.043091
 30
0.0
 11
194.611976
 21
783.786545
 31
0.0
  0
LINE
  5
231
  8
DETAIL
  6
CONTINUOUS
 62
     5
 10
194.611976
 20
783.786545
 30
0.0
 11
194.797025
 21
783.503662
 31
0.0
  0
LINE
  5
232
  8
DETAIL
  6
CONTINUOUS
 62
     5
 10
194.797025
 20
783.503662
 30
0.0
 11
195.0
 21
783.2
 31
0.0
  0
LINE
  5
233
  8
DETAIL
  6
CONTINUOUS
 62
     5
 10
107.0
 20
783.2
 30
0.0
 11
107.229461
 21
783.543637
 31
0.0
  0
LINE
  5
234
  8
DETAIL
  6
CONTINUOUS
 62
     5
 10
107.229461
 20
783.543637
 30
0.0
 11
107.436078
 21
783.8619
 31
0.0
  0
LINE
  5
235
  8
DETAIL
  6
CONTINUOUS
 62
     5
 10
107.436078
 20
783.8619
 30
0.0
 11
107.608703
 21
784.144492
 31
0.0
  0
LINE
  5
236
  8
DETAIL
  6
CONTINUOUS
 62
     5
 10
107.608703
 20
784.144492
 30
0.0
 11
107.740336
 21
784.384153
 31
0.0
  0
LINE
  5
237
  8
DETAIL
  6
CONTINUOUS
 62
     5
 10
107.740336
 20
784.384153
 30
0.0
 11
107.830828
 21
784.581682
 31
0.0
  0
LINE
  5
238
  8
DETAIL
  6
CONTINUOUS
 62
     5
 10
107.830828
 20
784.581682
 30
0.0
 11
107.883319
 21
784.742987
 31
0.0
  0
LINE
  5
239
  8
DETAIL
  6
CONTINUOUS
 62
     5
 10
107.883319
 20
784.742987
 30
0.0
 11
107.9
 21
784.870329
 31
0.0
  0
LINE
  5
23A
  8
DETAIL
  6
CONTINUOUS
 62
     5
 10
106.1
 20
784.870329
 30
0.0
 11
106.112626
 21
784.761069
 31
0.0
  0
LINE
  5
23B
  8
DETAIL
  6
CONTINUOUS
 62
     5
 10
106.112626
 20
784.761069
 30
0.0
 11
106.152829
 21
784.62454
 31
0.0
  0
LINE
  5
23C
  8
DETAIL
  6
CONTINUOUS
 62
     5
 10
106.152829
 20
784.62454
 30
0.0
 11
106.222032
 21
784.460838
 31
0.0
  0
LINE
  5
23D
  8
DETAIL
  6
CONTINUOUS
 62
     5
 10
106.222032
 20
784.460838
 30
0.0
 11
106.321218
 21
784.267986
 31
0.0
  0
LINE
  5
23E
  8
DETAIL
  6
CONTINUOUS
 62
     5
 10
106.321218
 20
784.267986
 30
0.0
 11
106.451589
 21
784.043091
 31
0.0
  0
LINE
  5
23F
  8
DETAIL
  6
CONTINUOUS
 62
     5
 10
106.451589
 20
784.043091
 30
0.0
 11
106.611976
 21
783.786545
 31
0.0
  0
LINE
  5
240
  8
DETAIL
  6
CONTINUOUS
 62
     5
 10
106.611976
 20
783.786545
 30
0.0
 11
106.797025
 21
783.503662
 31
0.0
  0
LINE
  5
241
  8
DETAIL
  6
CONTINUOUS
 62
     5
 10
106.797025
 20
783.503662
 30
0.0
 11
107.0
 21
783.2
 31
0.0
  0
LINE
  5
242
  8
DETAIL
  6
CONTINUOUS
 62
     5
 10
107.9
 20
785.2
 30
0.0
 11
194.1
 21
785.2
 31
0.0
  0
LINE
  5
243
  8
DETAIL
  6
CONTINUOUS
 62
     5
 10
107.9
 20
832.2
 30
0.0
 11
194.1
 21
832.2
 31
0.0
  0
LINE
  5
244
  8
DETAIL
  6
CONTINUOUS
 62
     5
 10
107.9
 20
838.578266
 30
0.0
 11
194.1
 21
838.578266
 31
0.0
  0
LINE
  5
245
  8
DETAIL
  6
CONTINUOUS
 62
     5
 10
195.9
 20
785.2
 30
0.0
 11
282.1
 21
785.2
 31
0.0
  0
LINE
  5
246
  8
DETAIL
  6
CONTINUOUS
 62
     5
 10
195.9
 20
832.2
 30
0.0
 11
282.1
 21
832.2
 31
0.0
  0
LINE
  5
247
  8
DETAIL
  6
CONTINUOUS
 62
     5
 10
195.9
 20
838.578266
 30
0.0
 11
282.1
 21
838.578266
 31
0.0
  0
LINE
  5
248
  8
DETAIL
  6
CONTINUOUS
 62
     5
 10
459.0
 20
783.2
 30
0.0
 11
459.229461
 21
783.543637
 31
0.0
  0
LINE
  5
249
  8
DETAIL
  6
CONTINUOUS
 62
     5
 10
459.229461
 20
783.543637
 30
0.0
 11
459.436078
 21
783.8619
 31
0.0
  0
LINE
  5
24A
  8
DETAIL
  6
CONTINUOUS
 62
     5
 10
459.436078
 20
783.8619
 30
0.0
 11
459.608703
 21
784.144492
 31
0.0
  0
LINE
  5
24B
  8
DETAIL
  6
CONTINUOUS
 62
     5
 10
459.608703
 20
784.144492
 30
0.0
 11
459.740336
 21
784.384153
 31
0.0
  0
LINE
  5
24C
  8
DETAIL
  6
CONTINUOUS
 62
     5
 10
459.740336
 20
784.384153
 30
0.0
 11
459.830828
 21
784.581682
 31
0.0
  0
LINE
  5
24D
  8
DETAIL
  6
CONTINUOUS
 62
     5
 10
459.830828
 20
784.581682
 30
0.0
 11
459.883319
 21
784.742987
 31
0.0
  0
LINE
  5
24E
  8
DETAIL
  6
CONTINUOUS
 62
     5
 10
459.883319
 20
784.742987
 30
0.0
 11
459.9
 21
784.870329
 31
0.0
  0
LINE
  5
24F
  8
DETAIL
  6
CONTINUOUS
 62
     5
 10
458.1
 20
784.870329
 30
0.0
 11
458.112626
 21
784.761069
 31
0.0
  0
LINE
  5
250
  8
DETAIL
  6
CONTINUOUS
 62
     5
 10
458.112626
 20
784.761069
 30
0.0
 11
458.152829
 21
784.62454
 31
0.0
  0
LINE
  5
251
  8
DETAIL
  6
CONTINUOUS
 62
     5
 10
458.152829
 20
784.62454
 30
0.0
 11
458.222032
 21
784.460838
 31
0.0
  0
LINE
  5
252
  8
DETAIL
  6
CONTINUOUS
 62
     5
 10
458.222032
 20
784.460838
 30
0.0
 11
458.321218
 21
784.267986
 31
0.0
  0
LINE
  5
253
  8
DETAIL
  6
CONTINUOUS
 62
     5
 10
458.321218
 20
784.267986
 30
0.0
 11
458.451589
 21
784.043091
 31
0.0
  0
LINE
  5
254
  8
DETAIL
  6
CONTINUOUS
 62
     5
 10
458.451589
 20
784.043091
 30
0.0
 11
458.611976
 21
783.786545
 31
0.0
  0
LINE
  5
255
  8
DETAIL
  6
CONTINUOUS
 62
     5
 10
458.611976
 20
783.786545
 30
0.0
 11
458.797025
 21
783.503662
 31
0.0
  0
LINE
  5
256
  8
DETAIL
  6
CONTINUOUS
 62
     5
 10
458.797025
 20
783.503662
 30
0.0
 11
459.0
 21
783.2
 31
0.0
  0
LINE
  5
257
  8
DETAIL
  6
CONTINUOUS
 62
     5
 10
371.0
 20
783.2
 30
0.0
 11
371.229461
 21
783.543637
 31
0.0
  0
LINE
  5
258
  8
DETAIL
  6
CONTINUOUS
 62
     5
 10
371.229461
 20
783.543637
 30
0.0
 11
371.436078
 21
783.8619
 31
0.0
  0
LINE
  5
259
  8
DETAIL
  6
CONTINUOUS
 62
     5
 10
371.436078
 20
783.8619
 30
0.0
 11
371.608703
 21
784.144492
 31
0.0
  0
LINE
  5
25A
  8
DETAIL
  6
CONTINUOUS
 62
     5
 10
371.608703
 20
784.144492
 30
0.0
 11
371.740336
 21
784.384153
 31
0.0
  0
LINE
  5
25B
  8
DETAIL
  6
CONTINUOUS
 62
     5
 10
371.740336
 20
784.384153
 30
0.0
 11
371.830828
 21
784.581682
 31
0.0
  0
LINE
  5
25C
  8
DETAIL
  6
CONTINUOUS
 62
     5
 10
371.830828
 20
784.581682
 30
0.0
 11
371.883319
 21
784.742987
 31
0.0
  0
LINE
  5
25D
  8
DETAIL
  6
CONTINUOUS
 62
     5
 10
371.883319
 20
784.742987
 30
0.0
 11
371.9
 21
784.870329
 31
0.0
  0
LINE
  5
25E
  8
DETAIL
  6
CONTINUOUS
 62
     5
 10
370.1
 20
784.870329
 30
0.0
 11
370.112626
 21
784.761069
 31
0.0
  0
LINE
  5
25F
  8
DETAIL
  6
CONTINUOUS
 62
     5
 10
370.112626
 20
784.761069
 30
0.0
 11
370.152829
 21
784.62454
 31
0.0
  0
LINE
  5
260
  8
DETAIL
  6
CONTINUOUS
 62
     5
 10
370.152829
 20
784.62454
 30
0.0
 11
370.222032
 21
784.460838
 31
0.0
  0
LINE
  5
261
  8
DETAIL
  6
CONTINUOUS
 62
     5
 10
370.222032
 20
784.460838
 30
0.0
 11
370.321218
 21
784.267986
 31
0.0
  0
LINE
  5
262
  8
DETAIL
  6
CONTINUOUS
 62
     5
 10
370.321218
 20
784.267986
 30
0.0
 11
370.451589
 21
784.043091
 31
0.0
  0
LINE
  5
263
  8
DETAIL
  6
CONTINUOUS
 62
     5
 10
370.451589
 20
784.043091
 30
0.0
 11
370.611976
 21
783.786545
 31
0.0
  0
LINE
  5
264
  8
DETAIL
  6
CONTINUOUS
 62
     5
 10
370.611976
 20
783.786545
 30
0.0
 11
370.797025
 21
783.503662
 31
0.0
  0
LINE
  5
265
  8
DETAIL
  6
CONTINUOUS
 62
     5
 10
370.797025
 20
783.503662
 30
0.0
 11
371.0
 21
783.2
 31
0.0
  0
LINE
  5
266
  8
DETAIL
  6
CONTINUOUS
 62
     5
 10
371.9
 20
785.2
 30
0.0
 11
458.1
 21
785.2
 31
0.0
  0
LINE
  5
267
  8
DETAIL
  6
CONTINUOUS
 62
     5
 10
371.9
 20
832.2
 30
0.0
 11
458.1
 21
832.2
 31
0.0
  0
LINE
  5
268
  8
DETAIL
  6
CONTINUOUS
 62
     5
 10
371.9
 20
838.578266
 30
0.0
 11
458.1
 21
838.578266
 31
0.0
  0
LINE
  5
269
  8
DETAIL
  6
CONTINUOUS
 62
     5
 10
283.9
 20
976.2
 30
0.0
 11
370.1
 21
976.2
 31
0.0
  0
LINE
  5
26A
  8
DETAIL
  6
CONTINUOUS
 62
     5
 10
283.9
 20
982.578266
 30
0.0
 11
370.1
 21
982.578266
 31
0.0
  0
LINE
  5
26B
  8
DETAIL
  6
CONTINUOUS
 62
     5
 10
283.9
 20
880.2
 30
0.0
 11
370.1
 21
880.2
 31
0.0
  0
LINE
  5
26C
  8
DETAIL
  6
CONTINUOUS
 62
     5
 10
283.9
 20
886.578266
 30
0.0
 11
370.1
 21
886.578266
 31
0.0
  0
LINE
  5
26D
  8
DETAIL
  6
CONTINUOUS
 62
     5
 10
283.9
 20
928.2
 30
0.0
 11
370.1
 21
928.2
 31
0.0
  0
LINE
  5
26E
  8
DETAIL
  6
CONTINUOUS
 62
     5
 10
283.9
 20
934.578266
 30
0.0
 11
370.1
 21
934.578266
 31
0.0
  0
LINE
  5
26F
  8
DETAIL
  6
CONTINUOUS
 62
     5
 10
281.765029
 20
934.578266
 30
0.0
 11
282.1
 21
933.327161
 31
0.0
  0
LINE
  5
270
  8
DETAIL
  6
CONTINUOUS
 62
     5
 10
107.9
 20
976.2
 30
0.0
 11
194.1
 21
976.2
 31
0.0
  0
LINE
  5
271
  8
DETAIL
  6
CONTINUOUS
 62
     5
 10
107.9
 20
982.578266
 30
0.0
 11
194.1
 21
982.578266
 31
0.0
  0
LINE
  5
272
  8
DETAIL
  6
CONTINUOUS
 62
     5
 10
107.9
 20
880.2
 30
0.0
 11
194.1
 21
880.2
 31
0.0
  0
LINE
  5
273
  8
DETAIL
  6
CONTINUOUS
 62
     5
 10
107.9
 20
886.578266
 30
0.0
 11
194.1
 21
886.578266
 31
0.0
  0
LINE
  5
274
  8
DETAIL
  6
CONTINUOUS
 62
     5
 10
107.9
 20
928.2
 30
0.0
 11
194.1
 21
928.2
 31
0.0
  0
LINE
  5
275
  8
DETAIL
  6
CONTINUOUS
 62
     5
 10
107.9
 20
934.578266
 30
0.0
 11
194.1
 21
934.578266
 31
0.0
  0
LINE
  5
276
  8
DETAIL
  6
CONTINUOUS
 62
     5
 10
195.9
 20
880.2
 30
0.0
 11
282.1
 21
880.2
 31
0.0
  0
LINE
  5
277
  8
DETAIL
  6
CONTINUOUS
 62
     5
 10
195.9
 20
886.578266
 30
0.0
 11
282.1
 21
886.578266
 31
0.0
  0
LINE
  5
278
  8
DETAIL
  6
CONTINUOUS
 62
     5
 10
195.9
 20
928.2
 30
0.0
 11
282.1
 21
928.2
 31
0.0
  0
LINE
  5
279
  8
DETAIL
  6
CONTINUOUS
 62
     5
 10
195.9
 20
934.578266
 30
0.0
 11
282.1
 21
934.578266
 31
0.0
  0
LINE
  5
27A
  8
DETAIL
  6
CONTINUOUS
 62
     5
 10
195.9
 20
976.2
 30
0.0
 11
282.1
 21
976.2
 31
0.0
  0
LINE
  5
27B
  8
DETAIL
  6
CONTINUOUS
 62
     5
 10
195.9
 20
982.578266
 30
0.0
 11
282.1
 21
982.578266
 31
0.0
  0
LINE
  5
27C
  8
DETAIL
  6
CONTINUOUS
 62
     5
 10
371.9
 20
976.2
 30
0.0
 11
458.1
 21
976.2
 31
0.0
  0
LINE
  5
27D
  8
DETAIL
  6
CONTINUOUS
 62
     5
 10
371.9
 20
982.578266
 30
0.0
 11
458.1
 21
982.578266
 31
0.0
  0
LINE
  5
27E
  8
DETAIL
  6
CONTINUOUS
 62
     5
 10
371.9
 20
880.2
 30
0.0
 11
458.1
 21
880.2
 31
0.0
  0
LINE
  5
27F
  8
DETAIL
  6
CONTINUOUS
 62
     5
 10
371.9
 20
886.578266
 30
0.0
 11
458.1
 21
886.578266
 31
0.0
  0
LINE
  5
280
  8
DETAIL
  6
CONTINUOUS
 62
     5
 10
371.9
 20
928.2
 30
0.0
 11
458.1
 21
928.2
 31
0.0
  0
LINE
  5
281
  8
DETAIL
  6
CONTINUOUS
 62
     5
 10
371.9
 20
934.578266
 30
0.0
 11
458.1
 21
934.578266
 31
0.0
  0
LINE
  5
282
  8
DETAIL
  6
CONTINUOUS
 62
     5
 10
570.5
 20
765.2
 30
0.0
 11
570.5
 21
749.7
 31
0.0
  0
LINE
  5
283
  8
DETAIL
  6
CONTINUOUS
 62
     5
 10
568.985606
 20
735.6
 30
0.0
 11
571.0
 21
735.6
 31
0.0
  0
ARC
  5
284
  8
DETAIL
  6
CONTINUOUS
 62
     5
 10
563.5
 20
765.2
 30
0.0
 40
7.0
 50
270.0
 51
0.0
  0
CIRCLE
  5
285
  8
DETAIL
  6
CONTINUOUS
 62
     5
 10
562.5
 20
766.2
 30
0.0
 40
3.0
  0
CIRCLE
  5
286
  8
DETAIL
  6
CONTINUOUS
 62
     5
 10
562.5
 20
766.2
 30
0.0
 40
2.0
  0
LINE
  5
287
  8
DETAIL
  6
CONTINUOUS
 62
     5
 10
561.182336
 20
764.7
 30
0.0
 11
563.817664
 21
764.7
 31
0.0
  0
LINE
  5
288
  8
DETAIL
  6
CONTINUOUS
 62
     5
 10
571.0
 20
775.605655
 30
0.0
 11
570.5
 21
775.605655
 31
0.0
  0
LINE
  5
289
  8
DETAIL
  6
CONTINUOUS
 62
     5
 10
571.0
 20
776.61974
 30
0.0
 11
570.5
 21
776.61974
 31
0.0
  0
ARC
  5
28A
  8
DETAIL
  6
CONTINUOUS
 62
     5
 10
525.5
 20
803.2
 30
0.0
 40
18.0
 50
270.0
 51
0.0
  0
LINE
  5
28B
  8
DETAIL
  6
CONTINUOUS
 62
     5
 10
554.5
 20
758.2
 30
0.0
 11
554.5
 21
749.7
 31
0.0
  0
ARC
  5
28C
  8
DETAIL
  6
CONTINUOUS
 62
     5
 10
525.5
 20
803.2
 30
0.0
 40
43.0
 50
270.0
 51
0.0
  0
LINE
  5
28D
  8
DETAIL
  6
CONTINUOUS
 62
     5
 10
459.9
 20
1264.2
 30
0.0
 11
543.5
 21
1264.2
 31
0.0
  0
LINE
  5
28E
  8
DETAIL
  6
CONTINUOUS
 62
     5
 10
459.9
 20
1270.578266
 30
0.0
 11
543.5
 21
1270.578266
 31
0.0
  0
LINE
  5
28F
  8
DETAIL
  6
CONTINUOUS
 62
     5
 10
459.9
 20
1120.2
 30
0.0
 11
543.5
 21
1120.2
 31
0.0
  0
LINE
  5
290
  8
DETAIL
  6
CONTINUOUS
 62
     5
 10
459.9
 20
1126.578266
 30
0.0
 11
543.5
 21
1126.578266
 31
0.0
  0
LINE
  5
291
  8
DETAIL
  6
CONTINUOUS
 62
     5
 10
459.9
 20
1168.2
 30
0.0
 11
543.5
 21
1168.2
 31
0.0
  0
LINE
  5
292
  8
DETAIL
  6
CONTINUOUS
 62
     5
 10
459.9
 20
1174.578266
 30
0.0
 11
543.5
 21
1174.578266
 31
0.0
  0
LINE
  5
293
  8
DETAIL
  6
CONTINUOUS
 62
     5
 10
459.9
 20
1216.2
 30
0.0
 11
543.5
 21
1216.2
 31
0.0
  0
LINE
  5
294
  8
DETAIL
  6
CONTINUOUS
 62
     5
 10
459.9
 20
1222.578266
 30
0.0
 11
543.5
 21
1222.578266
 31
0.0
  0
LINE
  5
295
  8
DETAIL
  6
CONTINUOUS
 62
     5
 10
459.9
 20
1024.2
 30
0.0
 11
543.5
 21
1024.2
 31
0.0
  0
LINE
  5
296
  8
DETAIL
  6
CONTINUOUS
 62
     5
 10
459.9
 20
1030.578266
 30
0.0
 11
543.5
 21
1030.578266
 31
0.0
  0
LINE
  5
297
  8
DETAIL
  6
CONTINUOUS
 62
     5
 10
459.9
 20
1072.2
 30
0.0
 11
543.5
 21
1072.2
 31
0.0
  0
LINE
  5
298
  8
DETAIL
  6
CONTINUOUS
 62
     5
 10
459.9
 20
1078.578266
 30
0.0
 11
543.5
 21
1078.578266
 31
0.0
  0
LINE
  5
299
  8
DETAIL
  6
CONTINUOUS
 62
     5
 10
283.9
 20
1120.2
 30
0.0
 11
370.1
 21
1120.2
 31
0.0
  0
LINE
  5
29A
  8
DETAIL
  6
CONTINUOUS
 62
     5
 10
283.9
 20
1126.578266
 30
0.0
 11
370.1
 21
1126.578266
 31
0.0
  0
LINE
  5
29B
  8
DETAIL
  6
CONTINUOUS
 62
     5
 10
283.9
 20
1024.2
 30
0.0
 11
370.1
 21
1024.2
 31
0.0
  0
LINE
  5
29C
  8
DETAIL
  6
CONTINUOUS
 62
     5
 10
283.9
 20
1030.578266
 30
0.0
 11
370.1
 21
1030.578266
 31
0.0
  0
LINE
  5
29D
  8
DETAIL
  6
CONTINUOUS
 62
     5
 10
283.9
 20
1072.2
 30
0.0
 11
370.1
 21
1072.2
 31
0.0
  0
LINE
  5
29E
  8
DETAIL
  6
CONTINUOUS
 62
     5
 10
283.9
 20
1078.578266
 30
0.0
 11
370.1
 21
1078.578266
 31
0.0
  0
LINE
  5
29F
  8
DETAIL
  6
CONTINUOUS
 62
     5
 10
107.9
 20
1024.2
 30
0.0
 11
194.1
 21
1024.2
 31
0.0
  0
LINE
  5
2A0
  8
DETAIL
  6
CONTINUOUS
 62
     5
 10
107.9
 20
1030.578266
 30
0.0
 11
194.1
 21
1030.578266
 31
0.0
  0
LINE
  5
2A1
  8
DETAIL
  6
CONTINUOUS
 62
     5
 10
107.9
 20
1072.2
 30
0.0
 11
194.1
 21
1072.2
 31
0.0
  0
LINE
  5
2A2
  8
DETAIL
  6
CONTINUOUS
 62
     5
 10
107.9
 20
1078.578266
 30
0.0
 11
194.1
 21
1078.578266
 31
0.0
  0
LINE
  5
2A3
  8
DETAIL
  6
CONTINUOUS
 62
     5
 10
107.9
 20
1120.2
 30
0.0
 11
194.1
 21
1120.2
 31
0.0
  0
LINE
  5
2A4
  8
DETAIL
  6
CONTINUOUS
 62
     5
 10
107.9
 20
1126.578266
 30
0.0
 11
194.1
 21
1126.578266
 31
0.0
  0
LINE
  5
2A5
  8
DETAIL
  6
CONTINUOUS
 62
     5
 10
195.9
 20
1024.2
 30
0.0
 11
282.1
 21
1024.2
 31
0.0
  0
LINE
  5
2A6
  8
DETAIL
  6
CONTINUOUS
 62
     5
 10
195.9
 20
1030.578266
 30
0.0
 11
282.1
 21
1030.578266
 31
0.0
  0
LINE
  5
2A7
  8
DETAIL
  6
CONTINUOUS
 62
     5
 10
195.9
 20
1072.2
 30
0.0
 11
282.1
 21
1072.2
 31
0.0
  0
LINE
  5
2A8
  8
DETAIL
  6
CONTINUOUS
 62
     5
 10
195.9
 20
1078.578266
 30
0.0
 11
282.1
 21
1078.578266
 31
0.0
  0
LINE
  5
2A9
  8
DETAIL
  6
CONTINUOUS
 62
     5
 10
195.9
 20
1120.2
 30
0.0
 11
282.1
 21
1120.2
 31
0.0
  0
LINE
  5
2AA
  8
DETAIL
  6
CONTINUOUS
 62
     5
 10
195.9
 20
1126.578266
 30
0.0
 11
282.1
 21
1126.578266
 31
0.0
  0
LINE
  5
2AB
  8
DETAIL
  6
CONTINUOUS
 62
     5
 10
371.9
 20
1024.2
 30
0.0
 11
458.1
 21
1024.2
 31
0.0
  0
LINE
  5
2AC
  8
DETAIL
  6
CONTINUOUS
 62
     5
 10
371.9
 20
1030.578266
 30
0.0
 11
458.1
 21
1030.578266
 31
0.0
  0
LINE
  5
2AD
  8
DETAIL
  6
CONTINUOUS
 62
     5
 10
371.9
 20
1072.2
 30
0.0
 11
458.1
 21
1072.2
 31
0.0
  0
LINE
  5
2AE
  8
DETAIL
  6
CONTINUOUS
 62
     5
 10
371.9
 20
1078.578266
 30
0.0
 11
458.1
 21
1078.578266
 31
0.0
  0
LINE
  5
2AF
  8
DETAIL
  6
CONTINUOUS
 62
     5
 10
371.9
 20
1120.2
 30
0.0
 11
458.1
 21
1120.2
 31
0.0
  0
LINE
  5
2B0
  8
DETAIL
  6
CONTINUOUS
 62
     5
 10
371.9
 20
1126.578266
 30
0.0
 11
458.1
 21
1126.578266
 31
0.0
  0
LINE
  5
2B1
  8
DETAIL
  6
CONTINUOUS
 62
     5
 10
283.9
 20
1264.2
 30
0.0
 11
370.1
 21
1264.2
 31
0.0
  0
LINE
  5
2B2
  8
DETAIL
  6
CONTINUOUS
 62
     5
 10
283.9
 20
1270.578266
 30
0.0
 11
370.1
 21
1270.578266
 31
0.0
  0
LINE
  5
2B3
  8
DETAIL
  6
CONTINUOUS
 62
     5
 10
283.9
 20
1168.2
 30
0.0
 11
370.1
 21
1168.2
 31
0.0
  0
LINE
  5
2B4
  8
DETAIL
  6
CONTINUOUS
 62
     5
 10
283.9
 20
1174.578266
 30
0.0
 11
370.1
 21
1174.578266
 31
0.0
  0
LINE
  5
2B5
  8
DETAIL
  6
CONTINUOUS
 62
     5
 10
283.9
 20
1216.2
 30
0.0
 11
370.1
 21
1216.2
 31
0.0
  0
LINE
  5
2B6
  8
DETAIL
  6
CONTINUOUS
 62
     5
 10
283.9
 20
1222.578266
 30
0.0
 11
370.1
 21
1222.578266
 31
0.0
  0
LINE
  5
2B7
  8
DETAIL
  6
CONTINUOUS
 62
     5
 10
107.9
 20
1264.2
 30
0.0
 11
194.1
 21
1264.2
 31
0.0
  0
LINE
  5
2B8
  8
DETAIL
  6
CONTINUOUS
 62
     5
 10
107.9
 20
1270.578266
 30
0.0
 11
194.1
 21
1270.578266
 31
0.0
  0
LINE
  5
2B9
  8
DETAIL
  6
CONTINUOUS
 62
     5
 10
107.9
 20
1168.2
 30
0.0
 11
194.1
 21
1168.2
 31
0.0
  0
LINE
  5
2BA
  8
DETAIL
  6
CONTINUOUS
 62
     5
 10
107.9
 20
1174.578266
 30
0.0
 11
194.1
 21
1174.578266
 31
0.0
  0
LINE
  5
2BB
  8
DETAIL
  6
CONTINUOUS
 62
     5
 10
107.9
 20
1216.2
 30
0.0
 11
194.1
 21
1216.2
 31
0.0
  0
LINE
  5
2BC
  8
DETAIL
  6
CONTINUOUS
 62
     5
 10
107.9
 20
1222.578266
 30
0.0
 11
194.1
 21
1222.578266
 31
0.0
  0
LINE
  5
2BD
  8
DETAIL
  6
CONTINUOUS
 62
     5
 10
195.9
 20
1168.2
 30
0.0
 11
282.1
 21
1168.2
 31
0.0
  0
LINE
  5
2BE
  8
DETAIL
  6
CONTINUOUS
 62
     5
 10
195.9
 20
1174.578266
 30
0.0
 11
282.1
 21
1174.578266
 31
0.0
  0
LINE
  5
2BF
  8
DETAIL
  6
CONTINUOUS
 62
     5
 10
195.9
 20
1216.2
 30
0.0
 11
282.1
 21
1216.2
 31
0.0
  0
LINE
  5
2C0
  8
DETAIL
  6
CONTINUOUS
 62
     5
 10
195.9
 20
1222.578266
 30
0.0
 11
282.1
 21
1222.578266
 31
0.0
  0
LINE
  5
2C1
  8
DETAIL
  6
CONTINUOUS
 62
     5
 10
195.9
 20
1264.2
 30
0.0
 11
282.1
 21
1264.2
 31
0.0
  0
LINE
  5
2C2
  8
DETAIL
  6
CONTINUOUS
 62
     5
 10
195.9
 20
1270.578266
 30
0.0
 11
282.1
 21
1270.578266
 31
0.0
  0
LINE
  5
2C3
  8
DETAIL
  6
CONTINUOUS
 62
     5
 10
371.9
 20
1264.2
 30
0.0
 11
458.1
 21
1264.2
 31
0.0
  0
LINE
  5
2C4
  8
DETAIL
  6
CONTINUOUS
 62
     5
 10
371.9
 20
1270.578266
 30
0.0
 11
458.1
 21
1270.578266
 31
0.0
  0
LINE
  5
2C5
  8
DETAIL
  6
CONTINUOUS
 62
     5
 10
371.9
 20
1168.2
 30
0.0
 11
458.1
 21
1168.2
 31
0.0
  0
LINE
  5
2C6
  8
DETAIL
  6
CONTINUOUS
 62
     5
 10
371.9
 20
1174.578266
 30
0.0
 11
458.1
 21
1174.578266
 31
0.0
  0
LINE
  5
2C7
  8
DETAIL
  6
CONTINUOUS
 62
     5
 10
371.9
 20
1216.2
 30
0.0
 11
458.1
 21
1216.2
 31
0.0
  0
LINE
  5
2C8
  8
DETAIL
  6
CONTINUOUS
 62
     5
 10
371.9
 20
1222.578266
 30
0.0
 11
458.1
 21
1222.578266
 31
0.0
  0
LINE
  5
2C9
  8
SIZE
  6
CONTINUOUS
 62
    30
 10
-595.0
 20
1395.0
 30
0.0
 11
-595.0
 21
1539.229375
 31
0.0
  0
LINE
  5
2CA
  8
SIZE
  6
CONTINUOUS
 62
    30
 10
595.029922
 20
1395.0
 30
0.0
 11
595.029922
 21
1539.229375
 31
0.0
  0
LINE
  5
2CB
  8
SIZE
  6
CONTINUOUS
 62
    30
 10
-585.0
 20
1509.229375
 30
0.0
 11
585.029922
 21
1509.229375
 31
0.0
  0
CIRCLE
  5
2CC
  8
SIZE
  6
CONTINUOUS
 62
    30
 10
-595.0
 20
1509.229375
 30
0.0
 40
5.0
  0
LINE
  5
2CD
  8
SIZE
  6
CONTINUOUS
 62
    30
 10
-590.0
 20
1509.229375
 30
0.0
 11
-585.0
 21
1509.229375
 31
0.0
  0
CIRCLE
  5
2CE
  8
SIZE
  6
CONTINUOUS
 62
    30
 10
595.029922
 20
1509.229375
 30
0.0
 40
5.0
  0
LINE
  5
2CF
  8
SIZE
  6
CONTINUOUS
 62
    30
 10
590.029922
 20
1509.229375
 30
0.0
 11
585.029922
 21
1509.229375
 31
0.0
  0
TEXT
  5
2D0
  8
SIZE
  6
CONTINUOUS
 62
    30
 10
-66.466149
 20
1529.229375
 30
0.0
 40
64.0
  1
1190
 41
0.9
 72
     1
 11
24.048137
 21
1529.229375
 31
0.0
  0
POINT
  5
2D1
  8
DEFPOINTS
  6
CONTINUOUS
 62
     7
 10
-595.0
 20
1375.0
 30
0.0
  0
POINT
  5
2D2
  8
DEFPOINTS
  6
CONTINUOUS
 62
     7
 10
595.029922
 20
1375.0
 30
0.0
  0
POINT
  5
2D3
  8
DEFPOINTS
  6
CONTINUOUS
 62
     7
 10
595.029922
 20
1509.229375
 30
0.0
  0
LINE
  5
2D4
  8
DETAIL
  6
CONTINUOUS
 62
     5
 10
106.1
 20
1306.2
 30
0.0
 11
40.5
 21
1306.2
 31
0.0
  0
LINE
  5
2D5
  8
DETAIL
  6
CONTINUOUS
 62
     5
 10
525.5
 20
1331.2
 30
0.0
 11
40.5
 21
1331.2
 31
0.0
  0
LINE
  5
2D6
  8
DETAIL
  6
CONTINUOUS
 62
     5
 10
-5.0
 20
1333.2
 30
0.0
 11
571.0
 21
1333.2
 31
0.0
  0
LINE
  5
2D7
  8
DETAIL
  6
CONTINUOUS
 62
     5
 10
-595.0
 20
1335.0
 30
0.0
 11
595.0
 21
1335.0
 31
0.0
  0
LINE
  5
2D8
  8
DETAIL
  6
CONTINUOUS
 62
     5
 10
595.0
 20
1375.0
 30
0.0
 11
-595.0
 21
1375.0
 31
0.0
  0
LINE
  5
2D9
  8
DETAIL
  6
CONTINUOUS
 62
     5
 10
-595.0
 20
1375.0
 30
0.0
 11
-595.0
 21
1335.0
 31
0.0
  0
ARC
  5
2DA
  8
DETAIL
  6
CONTINUOUS
 62
     5
 10
40.5
 20
1288.2
 30
0.0
 40
43.0
 50
90.0
 51
180.0
  0
CIRCLE
  5
2DB
  8
DETAIL
  6
CONTINUOUS
 62
     5
 10
3.5
 20
1325.2
 30
0.0
 40
3.0
  0
ARC
  5
2DC
  8
DETAIL
  6
CONTINUOUS
 62
     5
 10
40.5
 20
1288.2
 30
0.0
 40
18.0
 50
90.0
 51
180.0
  0
CIRCLE
  5
2DD
  8
DETAIL
  6
CONTINUOUS
 62
     5
 10
3.5
 20
1325.2
 30
0.0
 40
2.0
  0
LINE
  5
2DE
  8
DETAIL
  6
CONTINUOUS
 62
     5
 10
-4.5
 20
1326.2
 30
0.0
 11
-4.5
 21
1331.2
 31
0.0
  0
LINE
  5
2DF
  8
DETAIL
  6
CONTINUOUS
 62
     5
 10
-3.5
 20
1332.2
 30
0.0
 11
-3.5
 21
1331.4
 31
0.0
  0
LINE
  5
2E0
  8
DETAIL
  6
CONTINUOUS
 62
     5
 10
-3.722829
 20
1331.371303
 30
0.0
 11
-3.882683
 21
1331.35
 31
0.0
  0
LINE
  5
2E1
  8
DETAIL
  6
CONTINUOUS
 62
     5
 10
-3.882683
 20
1331.35
 30
0.0
 11
-4.05557
 21
1331.325
 31
0.0
  0
LINE
  5
2E2
  8
DETAIL
  6
CONTINUOUS
 62
     5
 10
-4.05557
 20
1331.325
 30
0.0
 11
-4.207107
 21
1331.3
 31
0.0
  0
LINE
  5
2E3
  8
DETAIL
  6
CONTINUOUS
 62
     5
 10
-4.207107
 20
1331.3
 30
0.0
 11
-4.33147
 21
1331.275
 31
0.0
  0
LINE
  5
2E4
  8
DETAIL
  6
CONTINUOUS
 62
     5
 10
-4.33147
 20
1331.275
 30
0.0
 11
-4.42388
 21
1331.25
 31
0.0
  0
LINE
  5
2E5
  8
DETAIL
  6
CONTINUOUS
 62
     5
 10
-4.42388
 20
1331.25
 30
0.0
 11
-4.480785
 21
1331.225
 31
0.0
  0
LINE
  5
2E6
  8
DETAIL
  6
CONTINUOUS
 62
     5
 10
-4.480785
 20
1331.225
 30
0.0
 11
-4.5
 21
1331.2
 31
0.0
  0
LINE
  5
2E7
  8
DETAIL
  6
CONTINUOUS
 62
     5
 10
-3.5
 20
1331.4
 30
0.0
 11
-3.722829
 21
1331.371303
 31
0.0
  0
ARC
  5
2E8
  8
DETAIL
  6
CONTINUOUS
 62
     5
 10
-3.5
 20
1331.2
 30
0.0
 40
1.0
 50
90.0
 51
180.0
  0
LINE
  5
2E9
  8
DETAIL
  6
CONTINUOUS
 62
     5
 10
-3.5
 20
1331.4
 30
0.0
 11
-2.181434
 21
1331.4
 31
0.0
  0
LINE
  5
2EA
  8
DETAIL
  6
CONTINUOUS
 62
     5
 10
-3.5
 20
1332.2
 30
0.0
 11
-1.080912
 21
1332.2
 31
0.0
  0
ARC
  5
2EB
  8
DETAIL
  6
CONTINUOUS
 62
     5
 10
2.5
 20
1326.2
 30
0.0
 40
7.0
 50
90.0
 51
180.0
  0
LINE
  5
2EC
  8
DETAIL
  6
CONTINUOUS
 62
     5
 10
525.5
 20
1306.2
 30
0.0
 11
459.9
 21
1306.2
 31
0.0
  0
LINE
  5
2ED
  8
DETAIL
  6
CONTINUOUS
 62
     5
 10
370.1
 20
1306.2
 30
0.0
 11
283.9
 21
1306.2
 31
0.0
  0
LINE
  5
2EE
  8
DETAIL
  6
CONTINUOUS
 62
     5
 10
283.0
 20
1308.2
 30
0.0
 11
282.797025
 21
1307.896338
 31
0.0
  0
LINE
  5
2EF
  8
DETAIL
  6
CONTINUOUS
 62
     5
 10
282.797025
 20
1307.896338
 30
0.0
 11
282.611976
 21
1307.613455
 31
0.0
  0
LINE
  5
2F0
  8
DETAIL
  6
CONTINUOUS
 62
     5
 10
282.611976
 20
1307.613455
 30
0.0
 11
282.451589
 21
1307.356909
 31
0.0
  0
LINE
  5
2F1
  8
DETAIL
  6
CONTINUOUS
 62
     5
 10
282.451589
 20
1307.356909
 30
0.0
 11
282.321218
 21
1307.132014
 31
0.0
  0
LINE
  5
2F2
  8
DETAIL
  6
CONTINUOUS
 62
     5
 10
282.321218
 20
1307.132014
 30
0.0
 11
282.222032
 21
1306.939162
 31
0.0
  0
LINE
  5
2F3
  8
DETAIL
  6
CONTINUOUS
 62
     5
 10
282.222032
 20
1306.939162
 30
0.0
 11
282.152829
 21
1306.77546
 31
0.0
  0
LINE
  5
2F4
  8
DETAIL
  6
CONTINUOUS
 62
     5
 10
282.152829
 20
1306.77546
 30
0.0
 11
282.112626
 21
1306.638931
 31
0.0
  0
LINE
  5
2F5
  8
DETAIL
  6
CONTINUOUS
 62
     5
 10
282.112626
 20
1306.638931
 30
0.0
 11
282.1
 21
1306.529671
 31
0.0
  0
LINE
  5
2F6
  8
DETAIL
  6
CONTINUOUS
 62
     5
 10
283.9
 20
1306.529671
 30
0.0
 11
283.883319
 21
1306.657013
 31
0.0
  0
LINE
  5
2F7
  8
DETAIL
  6
CONTINUOUS
 62
     5
 10
283.883319
 20
1306.657013
 30
0.0
 11
283.830828
 21
1306.818318
 31
0.0
  0
LINE
  5
2F8
  8
DETAIL
  6
CONTINUOUS
 62
     5
 10
283.830828
 20
1306.818318
 30
0.0
 11
283.740336
 21
1307.015847
 31
0.0
  0
LINE
  5
2F9
  8
DETAIL
  6
CONTINUOUS
 62
     5
 10
283.740336
 20
1307.015847
 30
0.0
 11
283.608703
 21
1307.255508
 31
0.0
  0
LINE
  5
2FA
  8
DETAIL
  6
CONTINUOUS
 62
     5
 10
283.608703
 20
1307.255508
 30
0.0
 11
283.436078
 21
1307.5381
 31
0.0
  0
LINE
  5
2FB
  8
DETAIL
  6
CONTINUOUS
 62
     5
 10
283.436078
 20
1307.5381
 30
0.0
 11
283.229461
 21
1307.856363
 31
0.0
  0
LINE
  5
2FC
  8
DETAIL
  6
CONTINUOUS
 62
     5
 10
283.229461
 20
1307.856363
 30
0.0
 11
283.0
 21
1308.2
 31
0.0
  0
LINE
  5
2FD
  8
DETAIL
  6
CONTINUOUS
 62
     5
 10
195.0
 20
1308.2
 30
0.0
 11
194.797025
 21
1307.896338
 31
0.0
  0
LINE
  5
2FE
  8
DETAIL
  6
CONTINUOUS
 62
     5
 10
194.797025
 20
1307.896338
 30
0.0
 11
194.611976
 21
1307.613455
 31
0.0
  0
LINE
  5
2FF
  8
DETAIL
  6
CONTINUOUS
 62
     5
 10
194.611976
 20
1307.613455
 30
0.0
 11
194.451589
 21
1307.356909
 31
0.0
  0
LINE
  5
300
  8
DETAIL
  6
CONTINUOUS
 62
     5
 10
194.451589
 20
1307.356909
 30
0.0
 11
194.321218
 21
1307.132014
 31
0.0
  0
LINE
  5
301
  8
DETAIL
  6
CONTINUOUS
 62
     5
 10
194.321218
 20
1307.132014
 30
0.0
 11
194.222032
 21
1306.939162
 31
0.0
  0
LINE
  5
302
  8
DETAIL
  6
CONTINUOUS
 62
     5
 10
194.222032
 20
1306.939162
 30
0.0
 11
194.152829
 21
1306.77546
 31
0.0
  0
LINE
  5
303
  8
DETAIL
  6
CONTINUOUS
 62
     5
 10
194.152829
 20
1306.77546
 30
0.0
 11
194.112626
 21
1306.638931
 31
0.0
  0
LINE
  5
304
  8
DETAIL
  6
CONTINUOUS
 62
     5
 10
194.112626
 20
1306.638931
 30
0.0
 11
194.1
 21
1306.529671
 31
0.0
  0
LINE
  5
305
  8
DETAIL
  6
CONTINUOUS
 62
     5
 10
195.9
 20
1306.529671
 30
0.0
 11
195.883319
 21
1306.657013
 31
0.0
  0
LINE
  5
306
  8
DETAIL
  6
CONTINUOUS
 62
     5
 10
195.883319
 20
1306.657013
 30
0.0
 11
195.830828
 21
1306.818318
 31
0.0
  0
LINE
  5
307
  8
DETAIL
  6
CONTINUOUS
 62
     5
 10
195.830828
 20
1306.818318
 30
0.0
 11
195.740336
 21
1307.015847
 31
0.0
  0
LINE
  5
308
  8
DETAIL
  6
CONTINUOUS
 62
     5
 10
195.740336
 20
1307.015847
 30
0.0
 11
195.608703
 21
1307.255508
 31
0.0
  0
LINE
  5
309
  8
DETAIL
  6
CONTINUOUS
 62
     5
 10
195.608703
 20
1307.255508
 30
0.0
 11
195.436078
 21
1307.5381
 31
0.0
  0
LINE
  5
30A
  8
DETAIL
  6
CONTINUOUS
 62
     5
 10
195.436078
 20
1307.5381
 30
0.0
 11
195.229461
 21
1307.856363
 31
0.0
  0
LINE
  5
30B
  8
DETAIL
  6
CONTINUOUS
 62
     5
 10
195.229461
 20
1307.856363
 30
0.0
 11
195.0
 21
1308.2
 31
0.0
  0
LINE
  5
30C
  8
DETAIL
  6
CONTINUOUS
 62
     5
 10
107.0
 20
1308.2
 30
0.0
 11
106.797025
 21
1307.896338
 31
0.0
  0
LINE
  5
30D
  8
DETAIL
  6
CONTINUOUS
 62
     5
 10
106.797025
 20
1307.896338
 30
0.0
 11
106.611976
 21
1307.613455
 31
0.0
  0
LINE
  5
30E
  8
DETAIL
  6
CONTINUOUS
 62
     5
 10
106.611976
 20
1307.613455
 30
0.0
 11
106.451589
 21
1307.356909
 31
0.0
  0
LINE
  5
30F
  8
DETAIL
  6
CONTINUOUS
 62
     5
 10
106.451589
 20
1307.356909
 30
0.0
 11
106.321218
 21
1307.132014
 31
0.0
  0
LINE
  5
310
  8
DETAIL
  6
CONTINUOUS
 62
     5
 10
106.321218
 20
1307.132014
 30
0.0
 11
106.222032
 21
1306.939162
 31
0.0
  0
LINE
  5
311
  8
DETAIL
  6
CONTINUOUS
 62
     5
 10
106.222032
 20
1306.939162
 30
0.0
 11
106.152829
 21
1306.77546
 31
0.0
  0
LINE
  5
312
  8
DETAIL
  6
CONTINUOUS
 62
     5
 10
106.152829
 20
1306.77546
 30
0.0
 11
106.112626
 21
1306.638931
 31
0.0
  0
LINE
  5
313
  8
DETAIL
  6
CONTINUOUS
 62
     5
 10
106.112626
 20
1306.638931
 30
0.0
 11
106.1
 21
1306.529671
 31
0.0
  0
LINE
  5
314
  8
DETAIL
  6
CONTINUOUS
 62
     5
 10
107.9
 20
1306.529671
 30
0.0
 11
107.883319
 21
1306.657013
 31
0.0
  0
LINE
  5
315
  8
DETAIL
  6
CONTINUOUS
 62
     5
 10
107.883319
 20
1306.657013
 30
0.0
 11
107.830828
 21
1306.818318
 31
0.0
  0
LINE
  5
316
  8
DETAIL
  6
CONTINUOUS
 62
     5
 10
107.830828
 20
1306.818318
 30
0.0
 11
107.740336
 21
1307.015847
 31
0.0
  0
LINE
  5
317
  8
DETAIL
  6
CONTINUOUS
 62
     5
 10
107.740336
 20
1307.015847
 30
0.0
 11
107.608703
 21
1307.255508
 31
0.0
  0
LINE
  5
318
  8
DETAIL
  6
CONTINUOUS
 62
     5
 10
107.608703
 20
1307.255508
 30
0.0
 11
107.436078
 21
1307.5381
 31
0.0
  0
LINE
  5
319
  8
DETAIL
  6
CONTINUOUS
 62
     5
 10
107.436078
 20
1307.5381
 30
0.0
 11
107.229461
 21
1307.856363
 31
0.0
  0
LINE
  5
31A
  8
DETAIL
  6
CONTINUOUS
 62
     5
 10
107.229461
 20
1307.856363
 30
0.0
 11
107.0
 21
1308.2
 31
0.0
  0
LINE
  5
31B
  8
DETAIL
  6
CONTINUOUS
 62
     5
 10
194.1
 20
1306.2
 30
0.0
 11
107.9
 21
1306.2
 31
0.0
  0
LINE
  5
31C
  8
DETAIL
  6
CONTINUOUS
 62
     5
 10
282.1
 20
1306.2
 30
0.0
 11
195.9
 21
1306.2
 31
0.0
  0
LINE
  5
31D
  8
DETAIL
  6
CONTINUOUS
 62
     5
 10
459.0
 20
1308.2
 30
0.0
 11
458.797025
 21
1307.896338
 31
0.0
  0
LINE
  5
31E
  8
DETAIL
  6
CONTINUOUS
 62
     5
 10
458.797025
 20
1307.896338
 30
0.0
 11
458.611976
 21
1307.613455
 31
0.0
  0
LINE
  5
31F
  8
DETAIL
  6
CONTINUOUS
 62
     5
 10
458.611976
 20
1307.613455
 30
0.0
 11
458.451589
 21
1307.356909
 31
0.0
  0
LINE
  5
320
  8
DETAIL
  6
CONTINUOUS
 62
     5
 10
458.451589
 20
1307.356909
 30
0.0
 11
458.321218
 21
1307.132014
 31
0.0
  0
LINE
  5
321
  8
DETAIL
  6
CONTINUOUS
 62
     5
 10
458.321218
 20
1307.132014
 30
0.0
 11
458.222032
 21
1306.939162
 31
0.0
  0
LINE
  5
322
  8
DETAIL
  6
CONTINUOUS
 62
     5
 10
458.222032
 20
1306.939162
 30
0.0
 11
458.152829
 21
1306.77546
 31
0.0
  0
LINE
  5
323
  8
DETAIL
  6
CONTINUOUS
 62
     5
 10
458.152829
 20
1306.77546
 30
0.0
 11
458.112626
 21
1306.638931
 31
0.0
  0
LINE
  5
324
  8
DETAIL
  6
CONTINUOUS
 62
     5
 10
458.112626
 20
1306.638931
 30
0.0
 11
458.1
 21
1306.529671
 31
0.0
  0
LINE
  5
325
  8
DETAIL
  6
CONTINUOUS
 62
     5
 10
459.9
 20
1306.529671
 30
0.0
 11
459.883319
 21
1306.657013
 31
0.0
  0
LINE
  5
326
  8
DETAIL
  6
CONTINUOUS
 62
     5
 10
459.883319
 20
1306.657013
 30
0.0
 11
459.830828
 21
1306.818318
 31
0.0
  0
LINE
  5
327
  8
DETAIL
  6
CONTINUOUS
 62
     5
 10
459.830828
 20
1306.818318
 30
0.0
 11
459.740336
 21
1307.015847
 31
0.0
  0
LINE
  5
328
  8
DETAIL
  6
CONTINUOUS
 62
     5
 10
459.740336
 20
1307.015847
 30
0.0
 11
459.608703
 21
1307.255508
 31
0.0
  0
LINE
  5
329
  8
DETAIL
  6
CONTINUOUS
 62
     5
 10
459.608703
 20
1307.255508
 30
0.0
 11
459.436078
 21
1307.5381
 31
0.0
  0
LINE
  5
32A
  8
DETAIL
  6
CONTINUOUS
 62
     5
 10
459.436078
 20
1307.5381
 30
0.0
 11
459.229461
 21
1307.856363
 31
0.0
  0
LINE
  5
32B
  8
DETAIL
  6
CONTINUOUS
 62
     5
 10
459.229461
 20
1307.856363
 30
0.0
 11
459.0
 21
1308.2
 31
0.0
  0
LINE
  5
32C
  8
DETAIL
  6
CONTINUOUS
 62
     5
 10
371.0
 20
1308.2
 30
0.0
 11
370.797025
 21
1307.896338
 31
0.0
  0
LINE
  5
32D
  8
DETAIL
  6
CONTINUOUS
 62
     5
 10
370.797025
 20
1307.896338
 30
0.0
 11
370.611976
 21
1307.613455
 31
0.0
  0
LINE
  5
32E
  8
DETAIL
  6
CONTINUOUS
 62
     5
 10
370.611976
 20
1307.613455
 30
0.0
 11
370.451589
 21
1307.356909
 31
0.0
  0
LINE
  5
32F
  8
DETAIL
  6
CONTINUOUS
 62
     5
 10
370.451589
 20
1307.356909
 30
0.0
 11
370.321218
 21
1307.132014
 31
0.0
  0
LINE
  5
330
  8
DETAIL
  6
CONTINUOUS
 62
     5
 10
370.321218
 20
1307.132014
 30
0.0
 11
370.222032
 21
1306.939162
 31
0.0
  0
LINE
  5
331
  8
DETAIL
  6
CONTINUOUS
 62
     5
 10
370.222032
 20
1306.939162
 30
0.0
 11
370.152829
 21
1306.77546
 31
0.0
  0
LINE
  5
332
  8
DETAIL
  6
CONTINUOUS
 62
     5
 10
370.152829
 20
1306.77546
 30
0.0
 11
370.112626
 21
1306.638931
 31
0.0
  0
LINE
  5
333
  8
DETAIL
  6
CONTINUOUS
 62
     5
 10
370.112626
 20
1306.638931
 30
0.0
 11
370.1
 21
1306.529671
 31
0.0
  0
LINE
  5
334
  8
DETAIL
  6
CONTINUOUS
 62
     5
 10
371.9
 20
1306.529671
 30
0.0
 11
371.883319
 21
1306.657013
 31
0.0
  0
LINE
  5
335
  8
DETAIL
  6
CONTINUOUS
 62
     5
 10
371.883319
 20
1306.657013
 30
0.0
 11
371.830828
 21
1306.818318
 31
0.0
  0
LINE
  5
336
  8
DETAIL
  6
CONTINUOUS
 62
     5
 10
371.830828
 20
1306.818318
 30
0.0
 11
371.740336
 21
1307.015847
 31
0.0
  0
LINE
  5
337
  8
DETAIL
  6
CONTINUOUS
 62
     5
 10
371.740336
 20
1307.015847
 30
0.0
 11
371.608703
 21
1307.255508
 31
0.0
  0
LINE
  5
338
  8
DETAIL
  6
CONTINUOUS
 62
     5
 10
371.608703
 20
1307.255508
 30
0.0
 11
371.436078
 21
1307.5381
 31
0.0
  0
LINE
  5
339
  8
DETAIL
  6
CONTINUOUS
 62
     5
 10
371.436078
 20
1307.5381
 30
0.0
 11
371.229461
 21
1307.856363
 31
0.0
  0
LINE
  5
33A
  8
DETAIL
  6
CONTINUOUS
 62
     5
 10
371.229461
 20
1307.856363
 30
0.0
 11
371.0
 21
1308.2
 31
0.0
  0
LINE
  5
33B
  8
DETAIL
  6
CONTINUOUS
 62
     5
 10
458.1
 20
1306.2
 30
0.0
 11
371.9
 21
1306.2
 31
0.0
  0
LINE
  5
33C
  8
DETAIL
  6
CONTINUOUS
 62
     5
 10
569.5
 20
1332.2
 30
0.0
 11
569.5
 21
1331.4
 31
0.0
  0
LINE
  5
33D
  8
DETAIL
  6
CONTINUOUS
 62
     5
 10
570.5
 20
1331.2
 30
0.0
 11
570.5
 21
1326.2
 31
0.0
  0
LINE
  5
33E
  8
DETAIL
  6
CONTINUOUS
 62
     5
 10
595.029922
 20
1335.0
 30
0.0
 11
595.029922
 21
1375.0
 31
0.0
  0
LINE
  5
33F
  8
DETAIL
  6
CONTINUOUS
 62
     5
 10
568.181434
 20
1331.4
 30
0.0
 11
569.5
 21
1331.4
 31
0.0
  0
LINE
  5
340
  8
DETAIL
  6
CONTINUOUS
 62
     5
 10
567.080912
 20
1332.2
 30
0.0
 11
569.5
 21
1332.2
 31
0.0
  0
LINE
  5
341
  8
DETAIL
  6
CONTINUOUS
 62
     5
 10
569.69509
 20
1331.375
 30
0.0
 11
569.5
 21
1331.4
 31
0.0
  0
LINE
  5
342
  8
DETAIL
  6
CONTINUOUS
 62
     5
 10
570.5
 20
1331.2
 30
0.0
 11
570.480785
 21
1331.225
 31
0.0
  0
LINE
  5
343
  8
DETAIL
  6
CONTINUOUS
 62
     5
 10
570.480785
 20
1331.225
 30
0.0
 11
570.42388
 21
1331.25
 31
0.0
  0
LINE
  5
344
  8
DETAIL
  6
CONTINUOUS
 62
     5
 10
570.42388
 20
1331.25
 30
0.0
 11
570.33147
 21
1331.275
 31
0.0
  0
LINE
  5
345
  8
DETAIL
  6
CONTINUOUS
 62
     5
 10
570.33147
 20
1331.275
 30
0.0
 11
570.207107
 21
1331.3
 31
0.0
  0
LINE
  5
346
  8
DETAIL
  6
CONTINUOUS
 62
     5
 10
570.207107
 20
1331.3
 30
0.0
 11
570.05557
 21
1331.325
 31
0.0
  0
LINE
  5
347
  8
DETAIL
  6
CONTINUOUS
 62
     5
 10
570.05557
 20
1331.325
 30
0.0
 11
569.882683
 21
1331.35
 31
0.0
  0
LINE
  5
348
  8
DETAIL
  6
CONTINUOUS
 62
     5
 10
569.882683
 20
1331.35
 30
0.0
 11
569.69509
 21
1331.375
 31
0.0
  0
ARC
  5
349
  8
DETAIL
  6
CONTINUOUS
 62
     5
 10
563.5
 20
1326.2
 30
0.0
 40
7.0
 50
0.0
 51
90.0
  0
CIRCLE
  5
34A
  8
DETAIL
  6
CONTINUOUS
 62
     5
 10
562.5
 20
1325.2
 30
0.0
 40
3.0
  0
ARC
  5
34B
  8
DETAIL
  6
CONTINUOUS
 62
     5
 10
569.5
 20
1331.2
 30
0.0
 40
1.0
 50
0.0
 51
90.0
  0
CIRCLE
  5
34C
  8
DETAIL
  6
CONTINUOUS
 62
     5
 10
562.5
 20
1325.2
 30
0.0
 40
2.0
  0
ARC
  5
34D
  8
DETAIL
  6
CONTINUOUS
 62
     5
 10
525.5
 20
1288.2
 30
0.0
 40
18.0
 50
0.0
 51
90.0
  0
ARC
  5
34E
  8
DETAIL
  6
CONTINUOUS
 62
     5
 10
525.5
 20
1288.2
 30
0.0
 40
43.0
 50
0.0
 51
90.0
  0
LINE
  5
34F
  8
NOTE
  6
CONTINUOUS
 62
     4
 10
-537.0
 20
290.169618
 30
0.0
 11
-773.566471
 21
398.953217
 31
0.0
  0
POLYLINE
  5
350
  8
NOTE
  6
CONTINUOUS
 62
     4
 66
     1
 10
0.0
 20
0.0
 30
0.0
  0
VERTEX
  5
351
  8
NOTE
  6
CONTINUOUS
 62
     4
 10
-567.090767
 20
316.410682
 30
0.0
  0
VERTEX
  5
352
  8
NOTE
  6
CONTINUOUS
 62
     4
 10
-536.916959
 20
290.151563
 30
0.0
  0
VERTEX
  5
353
  8
NOTE
  6
CONTINUOUS
 62
     4
 10
-576.177802
 20
297.805724
 30
0.0
  0
SEQEND
  5
354
  8
NOTE
  6
CONTINUOUS
 62
     4
  0
LINE
  5
355
  8
NOTE
  6
CONTINUOUS
 62
     4
 10
-469.0
 20
120.0
 30
0.0
 11
-999.010825
 21
291.487001
 31
0.0
  0
POLYLINE
  5
356
  8
NOTE
  6
CONTINUOUS
 62
     4
 66
     1
 10
0.0
 20
0.0
 30
0.0
  0
VERTEX
  5
357
  8
NOTE
  6
CONTINUOUS
 62
     4
 10
-490.513752
 20
170.291093
 30
0.0
  0
VERTEX
  5
358
  8
NOTE
  6
CONTINUOUS
 62
     4
 10
-469.0
 20
120.0
 30
0.0
  0
VERTEX
  5
359
  8
NOTE
  6
CONTINUOUS
 62
     4
 10
-504.653713
 20
155.676407
 30
0.0
  0
SEQEND
  5
35A
  8
NOTE
  6
CONTINUOUS
 62
     4
  0
LINE
  5
35B
  8
NOTE
  6
CONTINUOUS
 62
     4
 10
425.0
 20
0.0
 30
0.0
 11
643.86877
 21
-138.737067
 31
0.0
  0
POLYLINE
  5
35C
  8
NOTE
  6
CONTINUOUS
 62
     4
 66
     1
 10
0.0
 20
0.0
 30
0.0
  0
VERTEX
  5
35D
  8
NOTE
  6
CONTINUOUS
 62
     4
 10
451.473058
 20
-29.986283
 30
0.0
  0
VERTEX
  5
35E
  8
NOTE
  6
CONTINUOUS
 62
     4
 10
425.0
 20
0.0
 30
0.0
  0
VERTEX
  5
35F
  8
NOTE
  6
CONTINUOUS
 62
     4
 10
462.919482
 20
-12.732354
 30
0.0
  0
SEQEND
  5
360
  8
NOTE
  6
CONTINUOUS
 62
     4
  0
TEXT
  5
361
  8
ETC
  6
CONTINUOUS
 62
    61
 10
747.958478
 20
-500.461095
 30
0.0
 40
64.0
  1
空冷一体形コンデンシングユニット
 41
0.9
  0
TEXT
  5
362
  8
ETC
  6
CONTINUOUS
 62
    61
 10
747.958478
 20
-393.794428
 30
0.0
 40
64.0
  1
ERAV-EP45HA_2
 41
0.9
  0
LINE
  5
363
  8
OUTLINE
  6
CONTINUOUS
 62
     3
 10
595.0
 20
146.0
 30
0.0
 11
586.0
 21
146.0
 31
0.0
  0
LINE
  5
364
  8
OUTLINE
  6
CONTINUOUS
 62
     3
 10
595.0
 20
1375.0
 30
0.0
 11
595.0
 21
146.0
 31
0.0
  0
LINE
  5
365
  8
OUTLINE
  6
CONTINUOUS
 62
     3
 10
595.0
 20
1375.0
 30
0.0
 11
-595.0
 21
1375.0
 31
0.0
  0
LINE
  5
366
  8
OUTLINE
  6
CONTINUOUS
 62
     3
 10
-595.0
 20
146.0
 30
0.0
 11
-595.0
 21
1375.0
 31
0.0
  0
CIRCLE
  5
367
  8
ARRANGE
  6
CONTINUOUS
 62
     1
 10
0.0
 20
0.0
 30
0.0
 40
40.0
  0
POINT
  5
368
  8
ARRANGE
  6
CONTINUOUS
 62
     1
 10
0.0
 20
0.0
 30
0.0
  0
LINE
  5
369
  8
NOTE
  6
CONTINUOUS
 62
     4
 10
-999.010825
 20
291.487001
 30
0.0
 11
-1450.136427
 21
291.487001
 31
0.0
  0
TEXT
  5
36A
  8
NOTE
  6
CONTINUOUS
 62
     4
 10
-1414.707708
 20
310.365666
 30
0.0
 40
64.0
  1
RL %%C15.88
 41
0.9
  0
LINE
  5
36B
  8
NOTE
  6
CONTINUOUS
 62
     4
 10
-773.566471
 20
398.953217
 30
0.0
 11
-1188.261389
 21
398.953217
 31
0.0
  0
TEXT
  5
36C
  8
NOTE
  6
CONTINUOUS
 62
     4
 10
-1170.511292
 20
422.399254
 30
0.0
 40
64.0
  1
RG %%C25.4
 41
0.9
  0
LINE
  5
36D
  8
SIZE
  6
CONTINUOUS
 62
    30
 10
-517.0
 20
120.0
 30
0.0
 11
-761.901079
 21
120.0
 31
0.0
  0
LINE
  5
36E
  8
SIZE
  6
CONTINUOUS
 62
    30
 10
-604.0
 20
0.0
 30
0.0
 11
-761.901079
 21
0.0
 31
0.0
  0
LINE
  5
36F
  8
SIZE
  6
CONTINUOUS
 62
    30
 10
-731.901079
 20
110.0
 30
0.0
 11
-731.901079
 21
10.0
 31
0.0
  0
CIRCLE
  5
370
  8
SIZE
  6
CONTINUOUS
 62
    30
 10
-731.901079
 20
120.0
 30
0.0
 40
5.0
  0
LINE
  5
371
  8
SIZE
  6
CONTINUOUS
 62
    30
 10
-731.901079
 20
115.0
 30
0.0
 11
-731.901079
 21
110.0
 31
0.0
  0
CIRCLE
  5
372
  8
SIZE
  6
CONTINUOUS
 62
    30
 10
-731.901079
 20
0.0
 30
0.0
 40
5.0
  0
LINE
  5
373
  8
SIZE
  6
CONTINUOUS
 62
    30
 10
-731.901079
 20
5.0
 30
0.0
 11
-731.901079
 21
10.0
 31
0.0
  0
TEXT
  5
374
  8
SIZE
  6
CONTINUOUS
 62
    30
 10
-751.901079
 20
60.428571
 30
0.0
 40
64.0
  1
120
 50
90.0
 41
0.9
 72
     1
 11
-751.901079
 21
129.0
 31
0.0
  0
POINT
  5
375
  8
DEFPOINTS
  6
CONTINUOUS
 62
     7
 10
-497.0
 20
120.0
 30
0.0
  0
POINT
  5
376
  8
DEFPOINTS
  6
CONTINUOUS
 62
     7
 10
-584.0
 20
0.0
 30
0.0
  0
POINT
  5
377
  8
DEFPOINTS
  6
CONTINUOUS
 62
     7
 10
-731.901079
 20
0.0
 30
0.0
  0
LINE
  5
378
  8
SIZE
  6
CONTINUOUS
 62
    30
 10
-577.0
 20
289.969618
 30
0.0
 11
-925.956576
 21
289.969618
 31
0.0
  0
LINE
  5
379
  8
SIZE
  6
CONTINUOUS
 62
    30
 10
-604.0
 20
0.0
 30
0.0
 11
-925.956576
 21
0.0
 31
0.0
  0
LINE
  5
37A
  8
SIZE
  6
CONTINUOUS
 62
    30
 10
-895.956576
 20
279.969618
 30
0.0
 11
-895.956576
 21
10.0
 31
0.0
  0
CIRCLE
  5
37B
  8
SIZE
  6
CONTINUOUS
 62
    30
 10
-895.956576
 20
289.969618
 30
0.0
 40
5.0
  0
LINE
  5
37C
  8
SIZE
  6
CONTINUOUS
 62
    30
 10
-895.956576
 20
284.969618
 30
0.0
 11
-895.956576
 21
279.969618
 31
0.0
  0
CIRCLE
  5
37D
  8
SIZE
  6
CONTINUOUS
 62
    30
 10
-895.956576
 20
0.0
 30
0.0
 40
5.0
  0
LINE
  5
37E
  8
SIZE
  6
CONTINUOUS
 62
    30
 10
-895.956576
 20
5.0
 30
0.0
 11
-895.956576
 21
10.0
 31
0.0
  0
TEXT
  5
37F
  8
SIZE
  6
CONTINUOUS
 62
    30
 10
-915.956576
 20
70.927666
 30
0.0
 40
64.0
  1
290
 50
90.0
 41
0.9
 72
     1
 11
-915.956576
 21
144.984809
 31
0.0
  0
POINT
  5
380
  8
DEFPOINTS
  6
CONTINUOUS
 62
     7
 10
-557.0
 20
289.969618
 30
0.0
  0
POINT
  5
381
  8
DEFPOINTS
  6
CONTINUOUS
 62
     7
 10
-584.0
 20
0.0
 30
0.0
  0
POINT
  5
382
  8
DEFPOINTS
  6
CONTINUOUS
 62
     7
 10
-895.956576
 20
0.0
 30
0.0
  0
LINE
  5
383
  8
SIZE
  6
CONTINUOUS
 62
    30
 10
-425.0
 20
-37.7
 30
0.0
 11
-425.0
 21
-265.988163
 31
0.0
  0
LINE
  5
384
  8
SIZE
  6
CONTINUOUS
 62
    30
 10
0.0
 20
-95.251969
 30
0.0
 11
0.0
 21
-265.988163
 31
0.0
  0
LINE
  5
385
  8
SIZE
  6
CONTINUOUS
 62
    30
 10
-415.0
 20
-235.988163
 30
0.0
 11
-10.0
 21
-235.988163
 31
0.0
  0
CIRCLE
  5
386
  8
SIZE
  6
CONTINUOUS
 62
    30
 10
-425.0
 20
-235.988163
 30
0.0
 40
5.0
  0
LINE
  5
387
  8
SIZE
  6
CONTINUOUS
 62
    30
 10
-420.0
 20
-235.988163
 30
0.0
 11
-415.0
 21
-235.988163
 31
0.0
  0
CIRCLE
  5
388
  8
SIZE
  6
CONTINUOUS
 62
    30
 10
0.0
 20
-235.988163
 30
0.0
 40
5.0
  0
LINE
  5
389
  8
SIZE
  6
CONTINUOUS
 62
    30
 10
-5.0
 20
-235.988163
 30
0.0
 11
-10.0
 21
-235.988163
 31
0.0
  0
TEXT
  5
38A
  8
SIZE
  6
CONTINUOUS
 62
    30
 10
-286.557143
 20
-215.988163
 30
0.0
 40
64.0
  1
425
 41
0.9
 72
     1
 11
-212.5
 21
-215.988163
 31
0.0
  0
POINT
  5
38B
  8
DEFPOINTS
  6
CONTINUOUS
 62
     7
 10
-425.0
 20
-17.7
 30
0.0
  0
POINT
  5
38C
  8
DEFPOINTS
  6
CONTINUOUS
 62
     7
 10
0.0
 20
-75.251969
 30
0.0
  0
POINT
  5
38D
  8
DEFPOINTS
  6
CONTINUOUS
 62
     7
 10
0.0
 20
-235.988163
 30
0.0
  0
LINE
  5
38E
  8
SIZE
  6
CONTINUOUS
 62
    30
 10
-595.0
 20
126.0
 30
0.0
 11
-595.0
 21
-265.813624
 31
0.0
  0
LINE
  5
38F
  8
SIZE
  6
CONTINUOUS
 62
    30
 10
-425.0
 20
-40.0
 30
0.0
 11
-425.0
 21
-265.813624
 31
0.0
  0
LINE
  5
390
  8
SIZE
  6
CONTINUOUS
 62
    30
 10
-605.0
 20
-235.813624
 30
0.0
 11
-615.0
 21
-235.813624
 31
0.0
  0
LINE
  5
391
  8
SIZE
  6
CONTINUOUS
 62
    30
 10
-415.0
 20
-235.813624
 30
0.0
 11
-405.0
 21
-235.813624
 31
0.0
  0
LINE
  5
392
  8
SIZE
  6
CONTINUOUS
 62
    30
 10
-595.0
 20
-235.813624
 30
0.0
 11
-425.0
 21
-235.813624
 31
0.0
  0
CIRCLE
  5
393
  8
SIZE
  6
CONTINUOUS
 62
    30
 10
-595.0
 20
-235.813624
 30
0.0
 40
5.0
  0
LINE
  5
394
  8
SIZE
  6
CONTINUOUS
 62
    30
 10
-600.0
 20
-235.813624
 30
0.0
 11
-605.0
 21
-235.813624
 31
0.0
  0
CIRCLE
  5
395
  8
SIZE
  6
CONTINUOUS
 62
    30
 10
-425.0
 20
-235.813624
 30
0.0
 40
5.0
  0
LINE
  5
396
  8
SIZE
  6
CONTINUOUS
 62
    30
 10
-420.0
 20
-235.813624
 30
0.0
 11
-415.0
 21
-235.813624
 31
0.0
  0
TEXT
  5
397
  8
SIZE
  6
CONTINUOUS
 62
    30
 10
-578.571429
 20
-215.813624
 30
0.0
 40
64.0
  1
170
 41
0.9
 72
     1
 11
-510.0
 21
-215.813624
 31
0.0
  0
POINT
  5
398
  8
DEFPOINTS
  6
CONTINUOUS
 62
     7
 10
-595.0
 20
146.0
 30
0.0
  0
POINT
  5
399
  8
DEFPOINTS
  6
CONTINUOUS
 62
     7
 10
-425.0
 20
-20.0
 30
0.0
  0
POINT
  5
39A
  8
DEFPOINTS
  6
CONTINUOUS
 62
     7
 10
-425.0
 20
-235.813624
 30
0.0
  0
LINE
  5
39B
  8
SIZE
  6
CONTINUOUS
 62
    30
 10
0.0
 20
-95.251969
 30
0.0
 11
0.0
 21
-266.317927
 31
0.0
  0
LINE
  5
39C
  8
SIZE
  6
CONTINUOUS
 62
    30
 10
425.0
 20
-40.0
 30
0.0
 11
425.0
 21
-266.317927
 31
0.0
  0
LINE
  5
39D
  8
SIZE
  6
CONTINUOUS
 62
    30
 10
10.0
 20
-236.317927
 30
0.0
 11
415.0
 21
-236.317927
 31
0.0
  0
CIRCLE
  5
39E
  8
SIZE
  6
CONTINUOUS
 62
    30
 10
0.0
 20
-236.317927
 30
0.0
 40
5.0
  0
LINE
  5
39F
  8
SIZE
  6
CONTINUOUS
 62
    30
 10
5.0
 20
-236.317927
 30
0.0
 11
10.0
 21
-236.317927
 31
0.0
  0
CIRCLE
  5
3A0
  8
SIZE
  6
CONTINUOUS
 62
    30
 10
425.0
 20
-236.317927
 30
0.0
 40
5.0
  0
LINE
  5
3A1
  8
SIZE
  6
CONTINUOUS
 62
    30
 10
420.0
 20
-236.317927
 30
0.0
 11
415.0
 21
-236.317927
 31
0.0
  0
TEXT
  5
3A2
  8
SIZE
  6
CONTINUOUS
 62
    30
 10
138.442857
 20
-216.317927
 30
0.0
 40
64.0
  1
425
 41
0.9
 72
     1
 11
212.5
 21
-216.317927
 31
0.0
  0
POINT
  5
3A3
  8
DEFPOINTS
  6
CONTINUOUS
 62
     7
 10
0.0
 20
-75.251969
 30
0.0
  0
POINT
  5
3A4
  8
DEFPOINTS
  6
CONTINUOUS
 62
     7
 10
425.0
 20
-20.0
 30
0.0
  0
POINT
  5
3A5
  8
DEFPOINTS
  6
CONTINUOUS
 62
     7
 10
425.0
 20
-236.317927
 30
0.0
  0
LINE
  5
3A6
  8
SIZE
  6
CONTINUOUS
 62
    30
 10
425.0
 20
-40.0
 30
0.0
 11
425.0
 21
-266.583258
 31
0.0
  0
LINE
  5
3A7
  8
SIZE
  6
CONTINUOUS
 62
    30
 10
595.0
 20
126.0
 30
0.0
 11
595.0
 21
-266.583258
 31
0.0
  0
LINE
  5
3A8
  8
SIZE
  6
CONTINUOUS
 62
    30
 10
415.0
 20
-236.583258
 30
0.0
 11
405.0
 21
-236.583258
 31
0.0
  0
LINE
  5
3A9
  8
SIZE
  6
CONTINUOUS
 62
    30
 10
605.0
 20
-236.583258
 30
0.0
 11
615.0
 21
-236.583258
 31
0.0
  0
LINE
  5
3AA
  8
SIZE
  6
CONTINUOUS
 62
    30
 10
425.0
 20
-236.583258
 30
0.0
 11
595.0
 21
-236.583258
 31
0.0
  0
CIRCLE
  5
3AB
  8
SIZE
  6
CONTINUOUS
 62
    30
 10
425.0
 20
-236.583258
 30
0.0
 40
5.0
  0
LINE
  5
3AC
  8
SIZE
  6
CONTINUOUS
 62
    30
 10
420.0
 20
-236.583258
 30
0.0
 11
415.0
 21
-236.583258
 31
0.0
  0
CIRCLE
  5
3AD
  8
SIZE
  6
CONTINUOUS
 62
    30
 10
595.0
 20
-236.583258
 30
0.0
 40
5.0
  0
LINE
  5
3AE
  8
SIZE
  6
CONTINUOUS
 62
    30
 10
600.0
 20
-236.583258
 30
0.0
 11
605.0
 21
-236.583258
 31
0.0
  0
TEXT
  5
3AF
  8
SIZE
  6
CONTINUOUS
 62
    30
 10
441.428571
 20
-216.583258
 30
0.0
 40
64.0
  1
170
 41
0.9
 72
     1
 11
510.0
 21
-216.583258
 31
0.0
  0
POINT
  5
3B0
  8
DEFPOINTS
  6
CONTINUOUS
 62
     7
 10
425.0
 20
-20.0
 30
0.0
  0
POINT
  5
3B1
  8
DEFPOINTS
  6
CONTINUOUS
 62
     7
 10
595.0
 20
-236.583258
 30
0.0
  0
LINE
  5
3B2
  8
SIZE
  6
CONTINUOUS
 62
    30
 10
-595.0
 20
166.0
 30
0.0
 11
-595.0
 21
735.782914
 31
0.0
  0
LINE
  5
3B3
  8
SIZE
  6
CONTINUOUS
 62
    30
 10
-469.0
 20
300.0
 30
0.0
 11
-469.0
 21
735.782914
 31
0.0
  0
LINE
  5
3B4
  8
SIZE
  6
CONTINUOUS
 62
    30
 10
-585.0
 20
705.782914
 30
0.0
 11
-479.0
 21
705.782914
 31
0.0
  0
TEXT
  5
3B5
  8
SIZE
  6
CONTINUOUS
 62
    30
 10
-590.668659
 20
756.419983
 30
0.0
 40
64.0
  1
126
 41
0.9
 72
     1
 11
-523.468659
 21
756.419983
 31
0.0
  0
CIRCLE
  5
3B6
  8
SIZE
  6
CONTINUOUS
 62
    30
 10
-595.0
 20
705.782914
 30
0.0
 40
5.0
  0
LINE
  5
3B7
  8
SIZE
  6
CONTINUOUS
 62
    30
 10
-590.0
 20
705.782914
 30
0.0
 11
-585.0
 21
705.782914
 31
0.0
  0
CIRCLE
  5
3B8
  8
SIZE
  6
CONTINUOUS
 62
    30
 10
-469.0
 20
705.782914
 30
0.0
 40
5.0
  0
LINE
  5
3B9
  8
SIZE
  6
CONTINUOUS
 62
    30
 10
-474.0
 20
705.782914
 30
0.0
 11
-479.0
 21
705.782914
 31
0.0
  0
POINT
  5
3BA
  8
DEFPOINTS
  6
CONTINUOUS
 62
     7
 10
-595.0
 20
146.0
 30
0.0
  0
POINT
  5
3BB
  8
DEFPOINTS
  6
CONTINUOUS
 62
     7
 10
-469.0
 20
280.0
 30
0.0
  0
POINT
  5
3BC
  8
DEFPOINTS
  6
CONTINUOUS
 62
     7
 10
-469.0
 20
705.782914
 30
0.0
  0
LINE
  5
3BD
  8
SIZE
  6
CONTINUOUS
 62
    30
 10
-595.0
 20
166.0
 30
0.0
 11
-595.0
 21
597.309959
 31
0.0
  0
LINE
  5
3BE
  8
SIZE
  6
CONTINUOUS
 62
    30
 10
-537.0
 20
329.969618
 30
0.0
 11
-537.0
 21
597.309959
 31
0.0
  0
LINE
  5
3BF
  8
SIZE
  6
CONTINUOUS
 62
    30
 10
-605.0
 20
567.309959
 30
0.0
 11
-615.0
 21
567.309959
 31
0.0
  0
LINE
  5
3C0
  8
SIZE
  6
CONTINUOUS
 62
    30
 10
-527.0
 20
567.309959
 30
0.0
 11
-517.0
 21
567.309959
 31
0.0
  0
TEXT
  5
3C1
  8
SIZE
  6
CONTINUOUS
 62
    30
 10
-583.503129
 20
615.713604
 30
0.0
 40
64.0
  1
58
 41
0.9
 72
     1
 11
-536.874558
 21
615.713604
 31
0.0
  0
LINE
  5
3C2
  8
SIZE
  6
CONTINUOUS
 62
    30
 10
-595.0
 20
567.309959
 30
0.0
 11
-537.0
 21
567.309959
 31
0.0
  0
CIRCLE
  5
3C3
  8
SIZE
  6
CONTINUOUS
 62
    30
 10
-595.0
 20
567.309959
 30
0.0
 40
5.0
  0
LINE
  5
3C4
  8
SIZE
  6
CONTINUOUS
 62
    30
 10
-600.0
 20
567.309959
 30
0.0
 11
-605.0
 21
567.309959
 31
0.0
  0
CIRCLE
  5
3C5
  8
SIZE
  6
CONTINUOUS
 62
    30
 10
-537.0
 20
567.309959
 30
0.0
 40
5.0
  0
LINE
  5
3C6
  8
SIZE
  6
CONTINUOUS
 62
    30
 10
-532.0
 20
567.309959
 30
0.0
 11
-527.0
 21
567.309959
 31
0.0
  0
POINT
  5
3C7
  8
DEFPOINTS
  6
CONTINUOUS
 62
     7
 10
-595.0
 20
146.0
 30
0.0
  0
POINT
  5
3C8
  8
DEFPOINTS
  6
CONTINUOUS
 62
     7
 10
-537.0
 20
309.969618
 30
0.0
  0
POINT
  5
3C9
  8
DEFPOINTS
  6
CONTINUOUS
 62
     7
 10
-537.0
 20
567.309959
 30
0.0
  0
LINE
  5
3CA
  8
OUTLINE
  6
CONTINUOUS
 62
     3
 10
-584.0
 20
0.0
 30
0.0
 11
-584.0
 21
15.0
 31
0.0
  0
ARC
  5
3CB
  8
OUTLINE
  6
CONTINUOUS
 62
     3
 10
-503.0
 20
121.0
 30
0.0
 40
9.0
 50
0.0
 51
90.0
  0
ARC
  5
3CC
  8
OUTLINE
  6
CONTINUOUS
 62
     3
 10
-503.0
 20
34.0
 30
0.0
 40
9.0
 50
270.0
 51
0.0
  0
LINE
  5
3CD
  8
OUTLINE
  6
CONTINUOUS
 62
     3
 10
-494.0
 20
34.0
 30
0.0
 11
-494.0
 21
121.0
 31
0.0
  0
LINE
  5
3CE
  8
OUTLINE
  6
CONTINUOUS
 62
     3
 10
-584.0
 20
140.0
 30
0.0
 11
-584.0
 21
146.0
 31
0.0
  0
LINE
  5
3CF
  8
OUTLINE
  6
CONTINUOUS
 62
     3
 10
-574.0
 20
130.0
 30
0.0
 11
-584.0
 21
140.0
 31
0.0
  0
LINE
  5
3D0
  8
OUTLINE
  6
CONTINUOUS
 62
     3
 10
-584.0
 20
15.0
 30
0.0
 11
-574.0
 21
25.0
 31
0.0
  0
LINE
  5
3D1
  8
OUTLINE
  6
CONTINUOUS
 62
     3
 10
-574.0
 20
25.0
 30
0.0
 11
-503.0
 21
25.0
 31
0.0
  0
LINE
  5
3D2
  8
OUTLINE
  6
CONTINUOUS
 62
     3
 10
-574.0
 20
130.0
 30
0.0
 11
-503.0
 21
130.0
 31
0.0
  0
LINE
  5
3D3
  8
OUTLINE
  6
CONTINUOUS
 62
     3
 10
586.0
 20
0.0
 30
0.0
 11
-584.0
 21
0.0
 31
0.0
  0
LINE
  5
3D4
  8
OUTLINE
  6
CONTINUOUS
 62
     3
 10
586.0
 20
0.0
 30
0.0
 11
586.0
 21
15.0
 31
0.0
  0
LINE
  5
3D5
  8
OUTLINE
  6
CONTINUOUS
 62
     3
 10
576.0
 20
25.0
 30
0.0
 11
586.0
 21
15.0
 31
0.0
  0
ARC
  5
3D6
  8
OUTLINE
  6
CONTINUOUS
 62
     3
 10
505.0
 20
34.0
 30
0.0
 40
9.0
 50
180.0
 51
270.0
  0
LINE
  5
3D7
  8
OUTLINE
  6
CONTINUOUS
 62
     3
 10
496.0
 20
34.0
 30
0.0
 11
496.0
 21
121.0
 31
0.0
  0
LINE
  5
3D8
  8
OUTLINE
  6
CONTINUOUS
 62
     3
 10
576.0
 20
25.0
 30
0.0
 11
505.0
 21
25.0
 31
0.0
  0
ARC
  5
3D9
  8
DETAIL
  6
CONTINUOUS
 62
     5
 10
505.0
 20
121.0
 30
0.0
 40
9.0
 50
90.0
 51
180.0
  0
LINE
  5
3DA
  8
OUTLINE
  6
CONTINUOUS
 62
     3
 10
576.0
 20
130.0
 30
0.0
 11
505.0
 21
130.0
 31
0.0
  0
LINE
  5
3DB
  8
OUTLINE
  6
CONTINUOUS
 62
     3
 10
586.0
 20
140.0
 30
0.0
 11
576.0
 21
130.0
 31
0.0
  0
LINE
  5
3DC
  8
OUTLINE
  6
CONTINUOUS
 62
     3
 10
586.0
 20
140.0
 30
0.0
 11
586.0
 21
146.0
 31
0.0
  0
LINE
  5
3DD
  8
OUTLINE
  6
CONTINUOUS
 62
     3
 10
-584.0
 20
146.0
 30
0.0
 11
-595.0
 21
146.0
 31
0.0
  0
ENDSEC
  0
EOF
