  0
SECTION
  2
HEADER
  9
$ACADVER
  1
AC1015
  9
$ACADMAINTVER
 70
    20
  9
$DWGCODEPAGE
  3
ANSI_932
  9
$INSBASE
 10
0.0
 20
0.0
 30
0.0
  9
$EXTMIN
 10
-1860.624775
 20
-565.7730679999998
 30
0.0
  9
$EXTMAX
 10
2051.436252
 20
2193.184194849162
 30
0.0
  9
$LIMMIN
 10
-4267.152221
 20
-2696.083210000001
  9
$LIMMAX
 10
7190.717422999999
 20
5141.155364
  9
$ORTHOMODE
 70
     0
  9
$REGENMODE
 70
     1
  9
$FILLMODE
 70
     1
  9
$QTEXTMODE
 70
     0
  9
$MIRRTEXT
 70
     0
  9
$LTSCALE
 40
20.0
  9
$ATTMODE
 70
     1
  9
$TEXTSIZE
 40
64.0
  9
$TRACEWID
 40
0.05
  9
$TEXTSTYLE
  7
STANDARD
  9
$CLAYER
  8
OUTLINE
  9
$CELTYPE
  6
CONTINUOUS
  9
$CECOLOR
 62
     7
  9
$CELTSCALE
 40
1.0
  9
$DISPSILH
 70
     0
  9
$DIMSCALE
 40
1.0
  9
$DIMASZ
 40
10.0
  9
$DIMEXO
 40
20.0
  9
$DIMDLI
 40
200.0
  9
$DIMRND
 40
0.0
  9
$DIMDLE
 40
0.0
  9
$DIMEXE
 40
30.0
  9
$DIMTP
 40
0.0
  9
$DIMTM
 40
0.0
  9
$DIMTXT
 40
55.0
  9
$DIMCEN
 40
0.0
  9
$DIMTSZ
 40
0.0
  9
$DIMTOL
 70
     0
  9
$DIMLIM
 70
     0
  9
$DIMTIH
 70
     0
  9
$DIMTOH
 70
     0
  9
$DIMSE1
 70
     0
  9
$DIMSE2
 70
     0
  9
$DIMTAD
 70
     1
  9
$DIMZIN
 70
     8
  9
$DIMBLK
  1

  9
$DIMASO
 70
     1
  9
$DIMSHO
 70
     0
  9
$DIMPOST
  1

  9
$DIMAPOST
  1

  9
$DIMALT
 70
     0
  9
$DIMALTD
 70
     2
  9
$DIMALTF
 40
25.4
  9
$DIMLFAC
 40
1.0
  9
$DIMTOFL
 70
     1
  9
$DIMTVP
 40
0.0
  9
$DIMTIX
 70
     1
  9
$DIMSOXD
 70
     0
  9
$DIMSAH
 70
     1
  9
$DIMBLK1
  1
DOTBLANK
  9
$DIMBLK2
  1
DOTBLANK
  9
$DIMSTYLE
  2
STANDARD
  9
$DIMCLRD
 70
     0
  9
$DIMCLRE
 70
     0
  9
$DIMCLRT
 70
     0
  9
$DIMTFAC
 40
1.0
  9
$DIMGAP
 40
0.09
  9
$DIMJUST
 70
     0
  9
$DIMSD1
 70
     0
  9
$DIMSD2
 70
     0
  9
$DIMTOLJ
 70
     1
  9
$DIMTZIN
 70
     0
  9
$DIMALTZ
 70
     0
  9
$DIMALTTZ
 70
     0
  9
$DIMUPT
 70
     0
  9
$DIMDEC
 70
     4
  9
$DIMTDEC
 70
     4
  9
$DIMALTU
 70
     2
  9
$DIMALTTD
 70
     2
  9
$DIMTXSTY
  7
STANDARD
  9
$DIMAUNIT
 70
     0
  9
$DIMADEC
 70
     0
  9
$DIMALTRND
 40
0.0
  9
$DIMAZIN
 70
     0
  9
$DIMDSEP
 70
    46
  9
$DIMATFIT
 70
     3
  9
$DIMFRAC
 70
     0
  9
$DIMLDRBLK
  1
DOTBLANK
  9
$DIMLUNIT
 70
     2
  9
$DIMLWD
 70
    -2
  9
$DIMLWE
 70
    -2
  9
$DIMTMOVE
 70
     0
  9
$LUNITS
 70
     2
  9
$LUPREC
 70
     4
  9
$SKETCHINC
 40
0.1
  9
$FILLETRAD
 40
30.0
  9
$AUNITS
 70
     1
  9
$AUPREC
 70
     3
  9
$MENU
  1
ACAD
  9
$ELEVATION
 40
0.0
  9
$PELEVATION
 40
0.0
  9
$THICKNESS
 40
0.0
  9
$LIMCHECK
 70
     0
  9
$CHAMFERA
 40
0.0
  9
$CHAMFERB
 40
0.0
  9
$CHAMFERC
 40
0.0
  9
$CHAMFERD
 40
0.0
  9
$SKPOLY
 70
     0
  9
$TDCREATE
 40
2450330.481597662
  9
$TDUCREATE
 40
2450330.106597662
  9
$TDUPDATE
 40
2458150.665466192
  9
$TDUUPDATE
 40
2458150.290466192
  9
$TDINDWG
 40
3.6727156597
  9
$TDUSRTIMER
 40
3.6727145602
  9
$USRTIMER
 70
     1
  9
$ANGBASE
 50
0.0
  9
$ANGDIR
 70
     0
  9
$PDMODE
 70
     3
  9
$PDSIZE
 40
-2.0
  9
$PLINEWID
 40
0.0
  9
$SPLFRAME
 70
     0
  9
$SPLINETYPE
 70
     6
  9
$SPLINESEGS
 70
     8
  9
$HANDSEED
  5
72C
  9
$SURFTAB1
 70
     6
  9
$SURFTAB2
 70
     6
  9
$SURFTYPE
 70
     6
  9
$SURFU
 70
     6
  9
$SURFV
 70
     6
  9
$UCSBASE
  2

  9
$UCSNAME
  2

  9
$UCSORG
 10
0.0
 20
0.0
 30
0.0
  9
$UCSXDIR
 10
1.0
 20
0.0
 30
0.0
  9
$UCSYDIR
 10
0.0
 20
1.0
 30
0.0
  9
$UCSORTHOREF
  2

  9
$UCSORTHOVIEW
 70
     0
  9
$UCSORGTOP
 10
0.0
 20
0.0
 30
0.0
  9
$UCSORGBOTTOM
 10
0.0
 20
0.0
 30
0.0
  9
$UCSORGLEFT
 10
0.0
 20
0.0
 30
0.0
  9
$UCSORGRIGHT
 10
0.0
 20
0.0
 30
0.0
  9
$UCSORGFRONT
 10
0.0
 20
0.0
 30
0.0
  9
$UCSORGBACK
 10
0.0
 20
0.0
 30
0.0
  9
$PUCSBASE
  2

  9
$PUCSNAME
  2

  9
$PUCSORG
 10
0.0
 20
0.0
 30
0.0
  9
$PUCSXDIR
 10
1.0
 20
0.0
 30
0.0
  9
$PUCSYDIR
 10
0.0
 20
1.0
 30
0.0
  9
$PUCSORTHOREF
  2

  9
$PUCSORTHOVIEW
 70
     0
  9
$PUCSORGTOP
 10
0.0
 20
0.0
 30
0.0
  9
$PUCSORGBOTTOM
 10
0.0
 20
0.0
 30
0.0
  9
$PUCSORGLEFT
 10
0.0
 20
0.0
 30
0.0
  9
$PUCSORGRIGHT
 10
0.0
 20
0.0
 30
0.0
  9
$PUCSORGFRONT
 10
0.0
 20
0.0
 30
0.0
  9
$PUCSORGBACK
 10
0.0
 20
0.0
 30
0.0
  9
$USERI1
 70
     0
  9
$USERI2
 70
     0
  9
$USERI3
 70
     0
  9
$USERI4
 70
     0
  9
$USERI5
 70
     0
  9
$USERR1
 40
20.0
  9
$USERR2
 40
0.0
  9
$USERR3
 40
0.0
  9
$USERR4
 40
0.0
  9
$USERR5
 40
0.0
  9
$WORLDVIEW
 70
     1
  9
$SHADEDGE
 70
     3
  9
$SHADEDIF
 70
    70
  9
$TILEMODE
 70
     1
  9
$MAXACTVP
 70
    48
  9
$PINSBASE
 10
0.0
 20
0.0
 30
0.0
  9
$PLIMCHECK
 70
     0
  9
$PEXTMIN
 10
1.000000000000000E+20
 20
1.000000000000000E+20
 30
1.000000000000000E+20
  9
$PEXTMAX
 10
-1.000000000000000E+20
 20
-1.000000000000000E+20
 30
-1.000000000000000E+20
  9
$PLIMMIN
 10
0.0
 20
0.0
  9
$PLIMMAX
 10
12.0
 20
9.0
  9
$UNITMODE
 70
     0
  9
$VISRETAIN
 70
     1
  9
$PLINEGEN
 70
     0
  9
$PSLTSCALE
 70
     1
  9
$TREEDEPTH
 70
  3020
  9
$CMLSTYLE
  2
Standard
  9
$CMLJUST
 70
     0
  9
$CMLSCALE
 40
1.0
  9
$PROXYGRAPHICS
 70
     1
  9
$MEASUREMENT
 70
     0
  9
$CELWEIGHT
370
    -1
  9
$ENDCAPS
280
     0
  9
$JOINSTYLE
280
     0
  9
$LWDISPLAY
290
     0
  9
$INSUNITS
 70
     0
  9
$HYPERLINKBASE
  1

  9
$STYLESHEET
  1

  9
$XEDIT
290
     1
  9
$CEPSNTYPE
380
     0
  9
$PSTYLEMODE
290
     1
  9
$FINGERPRINTGUID
  2
{BB7F1E5C-956B-4F98-ABCE-1426B6196E82}
  9
$VERSIONGUID
  2
{30972FD9-F3A1-4A89-A3FD-238974575A33}
  9
$EXTNAMES
290
     1
  9
$PSVPSCALE
 40
0.0
  9
$OLESTARTUP
290
     0
  0
ENDSEC
  0
SECTION
  2
CLASSES
  0
CLASS
  1
ACDBDICTIONARYWDFLT
  2
AcDbDictionaryWithDefault
  3
ObjectDBX Classes
 90
        0
280
     0
281
     0
  0
CLASS
  1
MATERIAL
  2
AcDbMaterial
  3
ObjectDBX Classes
 90
     1153
280
     0
281
     0
  0
CLASS
  1
VISUALSTYLE
  2
AcDbVisualStyle
  3
ObjectDBX Classes
 90
     4095
280
     0
281
     0
  0
CLASS
  1
SCALE
  2
AcDbScale
  3
ObjectDBX Classes
 90
     1153
280
     0
281
     0
  0
CLASS
  1
TABLESTYLE
  2
AcDbTableStyle
  3
ObjectDBX Classes
 90
     4095
280
     0
281
     0
  0
CLASS
  1
MLEADERSTYLE
  2
AcDbMLeaderStyle
  3
ACDB_MLEADERSTYLE_CLASS
 90
     4095
280
     0
281
     0
  0
CLASS
  1
DICTIONARYVAR
  2
AcDbDictionaryVar
  3
ObjectDBX Classes
 90
        0
280
     0
281
     0
  0
CLASS
  1
CELLSTYLEMAP
  2
AcDbCellStyleMap
  3
ObjectDBX Classes
 90
     1152
280
     0
281
     0
  0
CLASS
  1
ACDBPLACEHOLDER
  2
AcDbPlaceHolder
  3
ObjectDBX Classes
 90
        0
280
     0
281
     0
  0
CLASS
  1
LAYOUT
  2
AcDbLayout
  3
ObjectDBX Classes
 90
        0
280
     0
281
     0
  0
ENDSEC
  0
SECTION
  2
TABLES
  0
TABLE
  2
VPORT
  5
626
330
0
100
AcDbSymbolTable
 70
     1
  0
VPORT
  5
697
330
626
100
AcDbSymbolTableRecord
100
AcDbViewportTableRecord
  2
*ACTIVE
 70
     0
 10
0.0
 20
0.0
 11
1.0
 21
1.0
 12
1710.038430614541
 22
194.4648203688675
 13
0.0
 23
0.0
 14
50.0
 24
50.0
 15
100.0
 25
100.0
 16
0.0
 26
0.0
 36
1.0
 17
0.0
 27
0.0
 37
0.0
 40
4302.164368512012
 41
2.211652794292509
 42
50.0
 43
0.0
 44
0.0
 50
0.0
 51
0.0
 71
     0
 72
  1000
 73
     1
 74
     0
 75
     0
 76
     0
 77
     0
 78
     0
281
     0
 65
     1
110
0.0
120
0.0
130
0.0
111
1.0
121
0.0
131
0.0
112
0.0
122
1.0
132
0.0
 79
     0
146
0.0
1001
ACAD_NAV_VCDISPLAY
1070
     3
  0
ENDTAB
  0
TABLE
  2
LTYPE
  5
623
330
0
100
AcDbSymbolTable
 70
     3
  0
LTYPE
  5
680
330
623
100
AcDbSymbolTableRecord
100
AcDbLinetypeTableRecord
  2
ByBlock
 70
     0
  3

 72
    65
 73
     0
 40
0.0
  0
LTYPE
  5
681
330
623
100
AcDbSymbolTableRecord
100
AcDbLinetypeTableRecord
  2
ByLayer
 70
     0
  3

 72
    65
 73
     0
 40
0.0
  0
LTYPE
  5
682
330
623
100
AcDbSymbolTableRecord
100
AcDbLinetypeTableRecord
  2
CONTINUOUS
 70
     0
  3
実線
 72
    65
 73
     0
 40
0.0
  0
LTYPE
  5
698
330
623
100
AcDbSymbolTableRecord
100
AcDbLinetypeTableRecord
  2
DASHDOT
 70
     0
  3
____ _ ____ _ ____ _ ____ _ ____ _ ____ _ ____
 72
    65
 73
     4
 40
5.5
 49
4.0
 74
     0
 49
-0.6
 74
     0
 49
0.3
 74
     0
 49
-0.6
 74
     0
  0
ENDTAB
  0
TABLE
  2
LAYER
  5
620
330
0
100
AcDbSymbolTable
 70
    12
  0
LAYER
  5
67A
102
{ACAD_XDICTIONARY
360
6B3
102
}
330
620
100
AcDbSymbolTableRecord
100
AcDbLayerTableRecord
  2
0
 70
     0
 62
     7
  6
CONTINUOUS
370
    -3
390
62D
  0
LAYER
  5
696
102
{ACAD_XDICTIONARY
360
6B5
102
}
330
620
100
AcDbSymbolTableRecord
100
AcDbLayerTableRecord
  2
OUTLINE
 70
     0
 62
     3
  6
CONTINUOUS
370
    -3
390
62D
  0
LAYER
  5
699
102
{ACAD_XDICTIONARY
360
6B7
102
}
330
620
100
AcDbSymbolTableRecord
100
AcDbLayerTableRecord
  2
DETAIL
 70
     0
 62
     5
  6
CONTINUOUS
370
    -3
390
62D
  0
LAYER
  5
69A
102
{ACAD_XDICTIONARY
360
6B9
102
}
330
620
100
AcDbSymbolTableRecord
100
AcDbLayerTableRecord
  2
BASIS
 70
     0
 62
     6
  6
DASHDOT
370
    -3
390
62D
  0
LAYER
  5
69B
102
{ACAD_XDICTIONARY
360
6BB
102
}
330
620
100
AcDbSymbolTableRecord
100
AcDbLayerTableRecord
  2
SIZE
 70
     0
 62
    30
  6
CONTINUOUS
370
    -3
390
62D
  0
LAYER
  5
69C
102
{ACAD_XDICTIONARY
360
6BD
102
}
330
620
100
AcDbSymbolTableRecord
100
AcDbLayerTableRecord
  2
NOTE
 70
     0
 62
     4
  6
CONTINUOUS
370
    -3
390
62D
  0
LAYER
  5
69D
102
{ACAD_XDICTIONARY
360
6BF
102
}
330
620
100
AcDbSymbolTableRecord
100
AcDbLayerTableRecord
  2
ARRANGE
 70
     0
 62
     1
  6
CONTINUOUS
370
    -3
390
62D
  0
LAYER
  5
69E
102
{ACAD_XDICTIONARY
360
6C1
102
}
330
620
100
AcDbSymbolTableRecord
100
AcDbLayerTableRecord
  2
FIX
 70
     0
 62
    11
  6
CONTINUOUS
370
    -3
390
62D
  0
LAYER
  5
69F
102
{ACAD_XDICTIONARY
360
6C3
102
}
330
620
100
AcDbSymbolTableRecord
100
AcDbLayerTableRecord
  2
SERVICESPACE
 70
     0
 62
     2
  6
DASHDOT
370
    -3
390
62D
  0
LAYER
  5
6A0
102
{ACAD_XDICTIONARY
360
6C5
102
}
330
620
100
AcDbSymbolTableRecord
100
AcDbLayerTableRecord
  2
ETC
 70
     0
 62
    61
  6
CONTINUOUS
370
    -3
390
62D
  0
LAYER
  5
6A1
102
{ACAD_XDICTIONARY
360
6C7
102
}
330
620
100
AcDbSymbolTableRecord
100
AcDbLayerTableRecord
  2
SYMBOLLINE
 70
     0
 62
    15
  6
CONTINUOUS
370
    -3
390
62D
  0
LAYER
  5
6A2
330
620
100
AcDbSymbolTableRecord
100
AcDbLayerTableRecord
  2
DEFPOINTS
 70
     0
 62
     7
  6
CONTINUOUS
290
     0
370
    -3
390
62D
  0
ENDTAB
  0
TABLE
  2
STYLE
  5
621
330
0
100
AcDbSymbolTable
 70
     3
  0
STYLE
  5
67B
330
621
100
AcDbSymbolTableRecord
100
AcDbTextStyleTableRecord
  2
STANDARD
 70
     0
 40
0.0
 41
0.9
 50
0.0
 71
     0
 42
64.0
  3
SIMPLEX
  4
BIGFONT
  0
STYLE
  5
67F
330
621
100
AcDbSymbolTableRecord
100
AcDbTextStyleTableRecord
  2
Annotative
 70
     0
 40
0.0
 41
1.0
 50
0.0
 71
     0
 42
0.2
  3
txt
  4

1001
AcadAnnotative
1000
AnnotativeData
1002
{
1070
     1
1070
     1
1002
}
  0
STYLE
  5
6A3
330
621
100
AcDbSymbolTableRecord
100
AcDbTextStyleTableRecord
  2
STANDARD1
 70
     0
 40
0.0
 41
1.0
 50
0.0
 71
     0
 42
64.0
  3
MONOTXT
  4
BIGFONT
  0
ENDTAB
  0
TABLE
  2
VIEW
  5
624
330
0
100
AcDbSymbolTable
 70
     1
  0
VIEW
  5
6A4
330
624
100
AcDbSymbolTableRecord
100
AcDbViewTableRecord
  2
ALL
 70
     0
 40
9000.0
 10
241.506647
 20
0.0
 41
12483.01
 11
0.0
 21
0.0
 31
1.0
 12
0.0
 22
0.0
 32
0.0
 42
50.0
 43
0.0
 44
0.0
 50
0.0
 71
     0
281
     0
 72
     1
110
0.0
120
0.0
130
0.0
111
1.0
121
0.0
131
0.0
112
0.0
122
1.0
132
0.0
 79
     0
146
0.0
  0
ENDTAB
  0
TABLE
  2
UCS
  5
625
330
0
100
AcDbSymbolTable
 70
     0
  0
ENDTAB
  0
TABLE
  2
APPID
  5
627
330
0
100
AcDbSymbolTable
 70
     5
  0
APPID
  5
67C
330
627
100
AcDbSymbolTableRecord
100
AcDbRegAppTableRecord
  2
ACAD
 70
     0
  0
APPID
  5
683
330
627
100
AcDbSymbolTableRecord
100
AcDbRegAppTableRecord
  2
AcadAnnotative
 70
     0
  0
APPID
  5
68D
330
627
100
AcDbSymbolTableRecord
100
AcDbRegAppTableRecord
  2
ACAD_MLEADERVER
 70
     0
  0
APPID
  5
6B1
330
627
100
AcDbSymbolTableRecord
100
AcDbRegAppTableRecord
  2
ACAD_EXEMPT_FROM_CAD_STANDARDS
 70
     0
  0
APPID
  5
6EE
330
627
100
AcDbSymbolTableRecord
100
AcDbRegAppTableRecord
  2
ACAD_NAV_VCDISPLAY
 70
     0
  0
ENDTAB
  0
TABLE
  2
DIMSTYLE
  5
628
330
0
100
AcDbSymbolTable
 70
     2
100
AcDbDimStyleTable
 71
     0
  0
DIMSTYLE
105
67D
330
628
100
AcDbSymbolTableRecord
100
AcDbDimStyleTableRecord
  2
STANDARD
 70
     0
275
     1
279
     2
284
     8
285
     8
286
     8
340
67B
  0
DIMSTYLE
105
67E
330
628
100
AcDbSymbolTableRecord
100
AcDbDimStyleTableRecord
  2
Annotative
 70
     0
340
67B
1001
AcadAnnotative
1000
AnnotativeData
1002
{
1070
     1
1070
     1
1002
}
  0
ENDTAB
  0
TABLE
  2
BLOCK_RECORD
  5
61F
330
0
100
AcDbSymbolTable
 70
     4
  0
BLOCK_RECORD
  5
692
330
61F
100
AcDbSymbolTableRecord
100
AcDbBlockTableRecord
  2
*Model_Space
340
695
  0
BLOCK_RECORD
  5
68E
330
61F
100
AcDbSymbolTableRecord
100
AcDbBlockTableRecord
  2
*Paper_Space
340
691
  0
BLOCK_RECORD
  5
6A9
330
61F
100
AcDbSymbolTableRecord
100
AcDbBlockTableRecord
  2
$MODEL_SPACE
340
0
  0
BLOCK_RECORD
  5
6AB
330
61F
100
AcDbSymbolTableRecord
100
AcDbBlockTableRecord
  2
$PAPER_SPACE
340
0
  0
BLOCK_RECORD
  5
6AD
330
61F
100
AcDbSymbolTableRecord
100
AcDbBlockTableRecord
  2
_DOTBLANK
340
0
  0
BLOCK_RECORD
  5
6AF
330
61F
100
AcDbSymbolTableRecord
100
AcDbBlockTableRecord
  2
A$C38A27F87
340
0
  0
ENDTAB
  0
ENDSEC
  0
SECTION
  2
BLOCKS
  0
BLOCK
  5
693
330
692
100
AcDbEntity
  8
0
100
AcDbBlockBegin
  2
*Model_Space
 70
     0
 10
0.0
 20
0.0
 30
0.0
  3
*Model_Space
  1

  0
ENDBLK
  5
694
330
692
100
AcDbEntity
  8
0
100
AcDbBlockEnd
  0
BLOCK
  5
68F
330
68E
100
AcDbEntity
 67
     1
  8
0
100
AcDbBlockBegin
  2
*Paper_Space
 70
     0
 10
0.0
 20
0.0
 30
0.0
  3
*Paper_Space
  1

  0
ENDBLK
  5
690
330
68E
100
AcDbEntity
 67
     1
  8
0
100
AcDbBlockEnd
  0
BLOCK
  5
6AA
330
6A9
100
AcDbEntity
  8
0
100
AcDbBlockBegin
  2
$MODEL_SPACE
 70
     0
 10
0.0
 20
0.0
 30
0.0
  3
$MODEL_SPACE
  1

  0
ENDBLK
  5
294
330
6A9
100
AcDbEntity
  8
0
100
AcDbBlockEnd
  0
BLOCK
  5
6AC
330
6AB
100
AcDbEntity
  8
0
100
AcDbBlockBegin
  2
$PAPER_SPACE
 70
     0
 10
0.0
 20
0.0
 30
0.0
  3
$PAPER_SPACE
  1

  0
ENDBLK
  5
291
330
6AB
100
AcDbEntity
  8
0
100
AcDbBlockEnd
  0
BLOCK
  5
6AE
330
6AD
100
AcDbEntity
  8
0
100
AcDbBlockBegin
  2
_DOTBLANK
 70
     0
 10
0.0
 20
0.0
 30
0.0
  3
_DOTBLANK
  1

  0
CIRCLE
  5
32
330
6AD
100
AcDbEntity
  8
0
  6
Continuous
 62
     7
100
AcDbCircle
 10
0.0
 20
0.0
 30
0.0
 40
0.5
  0
LINE
  5
33
330
6AD
100
AcDbEntity
  8
0
  6
Continuous
 62
     7
100
AcDbLine
 10
-0.5
 20
0.0
 30
0.0
 11
-1.0
 21
0.0
 31
0.0
  0
ENDBLK
  5
34
330
6AD
100
AcDbEntity
  8
0
100
AcDbBlockEnd
  0
BLOCK
  5
6B0
330
6AF
100
AcDbEntity
  8
0
 62
     7
100
AcDbBlockBegin
  2
A$C38A27F87
 70
     0
 10
0.0
 20
0.0
 30
0.0
  3
A$C38A27F87
  1

  0
LINE
  5
2B3
330
6AF
100
AcDbEntity
  8
SIZE
  6
Continuous
 62
    30
100
AcDbLine
 10
3273.781379000001
 20
808.273065
 30
0.0
 11
3416.903101
 21
750.891554
 31
0.0
  0
LINE
  5
2B4
330
6AF
100
AcDbEntity
  8
SIZE
  6
Continuous
 62
    30
100
AcDbLine
 10
2621.62478
 20
565.7730650000002
 30
0.0
 11
3575.628663000002
 21
565.7730650000002
 31
0.0
  0
LINE
  5
2B5
330
6AF
100
AcDbEntity
  8
SIZE
  6
Continuous
 62
    30
100
AcDbLine
 10
2606.231424000001
 20
1195.773065
 30
0.0
 11
3575.628663000002
 21
1195.773065
 31
0.0
  0
LINE
  5
2B6
330
6AF
100
AcDbEntity
  8
SIZE
  6
Continuous
 62
    30
100
AcDbLine
 10
2610.624758
 20
2565.773004
 30
0.0
 11
3912.061032
 21
2565.773004
 31
0.0
  0
LINE
  5
2B7
330
6AF
100
AcDbEntity
  8
SIZE
  6
Continuous
 62
    30
100
AcDbLine
 10
2621.62478
 20
565.7730650000002
 30
0.0
 11
3912.061032
 21
565.7730650000002
 31
0.0
  0
LINE
  5
2B8
330
6AF
100
AcDbEntity
  8
SIZE
  6
Continuous
 62
    30
100
AcDbLine
 10
2621.62478
 20
565.7730650000002
 30
0.0
 11
3763.649304
 21
565.7730650000002
 31
0.0
  0
LINE
  5
2B9
330
6AF
100
AcDbEntity
  8
SIZE
  6
Continuous
 62
    30
100
AcDbLine
 10
2590.624758
 20
2365.773010000001
 30
0.0
 11
3763.649304
 21
2365.773010000001
 31
0.0
  0
LINE
  5
2BA
330
6AF
100
AcDbEntity
  8
SIZE
  6
Continuous
 62
    30
100
AcDbLine
 10
2590.624758
 20
2565.773004
 30
0.0
 11
3758.649304
 21
2565.773004
 31
0.0
  0
LINE
  5
2BB
330
6AF
100
AcDbEntity
  8
SIZE
  6
Continuous
 62
    30
100
AcDbLine
 10
2590.624758
 20
2365.773004
 30
0.0
 11
3758.649304
 21
2365.773004
 31
0.0
  0
TEXT
  5
2BC
330
6AF
100
AcDbEntity
  8
NOTE
  6
Continuous
 62
     4
100
AcDbText
 10
2933.200031
 20
190.897359
 30
0.0
 40
64.0
  1
AH 4-%%C12
 41
0.9
100
AcDbText
  0
LINE
  5
2BD
330
6AF
100
AcDbEntity
  8
NOTE
  6
Continuous
 62
     4
100
AcDbLine
 10
3349.65199
 20
170.18011
 30
0.0
 11
2922.395874
 21
170.18011
 31
0.0
  0
LWPOLYLINE
  5
2BE
330
6AF
100
AcDbEntity
  8
OUTLINE
  6
Continuous
 62
     3
100
AcDbPolyline
 90
        4
 70
     1
 43
0.0
 10
2570.624758
 20
2565.773004
 10
1150.624802
 20
2565.773004
 10
1150.624802
 20
695.7730650000002
 10
2570.624758
 20
695.7730650000002
  0
LINE
  5
2C4
330
6AF
100
AcDbEntity
  8
NOTE
  6
Continuous
 62
     4
100
AcDbLine
 10
2670.267891
 20
1865.140962
 30
0.0
 11
2570.624758
 21
1195.773065
 31
0.0
  0
LINE
  5
2C5
330
6AF
100
AcDbEntity
  8
NOTE
  6
Continuous
 62
     4
100
AcDbLine
 10
1050.981669
 20
1865.140962
 30
0.0
 11
1150.624802
 21
1195.773065
 31
0.0
  0
LINE
  5
2C6
330
6AF
100
AcDbEntity
  8
BASIS
  6
DASHDOT
 62
     6
100
AcDbLine
 10
1860.62478
 20
2669.384006
 30
0.0
 11
1860.62478
 21
485.190157
 31
0.0
  0
LINE
  5
2C7
330
6AF
100
AcDbEntity
  8
DETAIL
  6
Continuous
 62
     5
100
AcDbLine
 10
1150.624802
 20
2565.773004
 30
0.0
 11
1150.624802
 21
695.7730650000002
 31
0.0
  0
LINE
  5
2C8
330
6AF
100
AcDbEntity
  8
DETAIL
  6
Continuous
 62
     5
100
AcDbLine
 10
2570.624758
 20
2365.773004
 30
0.0
 11
2570.624758
 21
695.7730650000002
 31
0.0
  0
LINE
  5
2C9
330
6AF
100
AcDbEntity
  8
DETAIL
  6
Continuous
 62
     5
100
AcDbLine
 10
1157.624801
 20
2364.97301
 30
0.0
 11
1157.624801
 21
1485.573037
 31
0.0
  0
LINE
  5
2CA
330
6AF
100
AcDbEntity
  8
DETAIL
  6
Continuous
 62
     5
100
AcDbLine
 10
2563.624759
 20
2364.97301
 30
0.0
 11
2563.624759
 21
1485.573037
 31
0.0
  0
LINE
  5
2CB
330
6AF
100
AcDbEntity
  8
OUTLINE
  6
Continuous
 62
     3
100
AcDbLine
 10
2556.62478
 20
565.7730650000002
 30
0.0
 11
1164.62478
 21
565.7730650000002
 31
0.0
  0
LINE
  5
2CC
330
6AF
100
AcDbEntity
  8
SIZE
  6
Continuous
 62
    30
100
AcDbLine
 10
2577.62478
 20
29.999997
 30
0.0
 11
1143.62478
 21
29.999997
 31
0.0
  0
LINE
  5
2CD
330
6AF
100
AcDbEntity
  8
SIZE
  6
Continuous
 62
    30
100
AcDbLine
 10
2560.624758
 20
198.508893
 30
0.0
 11
1160.624802
 21
198.508893
 31
0.0
  0
LINE
  5
2CE
330
6AF
100
AcDbEntity
  8
SIZE
  6
Continuous
 62
    30
100
AcDbLine
 10
2546.62478
 20
364.830025
 30
0.0
 11
1174.62478
 21
364.830025
 31
0.0
  0
LINE
  5
2CF
330
6AF
100
AcDbEntity
  8
DETAIL
  6
Continuous
 62
     5
100
AcDbLine
 10
1150.624802
 20
695.7730650000002
 30
0.0
 11
2570.624758
 21
695.7730650000002
 31
0.0
  0
LINE
  5
2D0
330
6AF
100
AcDbEntity
  8
DETAIL
  6
Continuous
 62
     5
100
AcDbLine
 10
2601.62478
 20
565.7730650000002
 30
0.0
 11
1119.62478
 21
565.7730650000002
 31
0.0
  0
LINE
  5
2D1
330
6AF
100
AcDbEntity
  8
DETAIL
  6
Continuous
 62
     5
100
AcDbLine
 10
1387.624794
 20
575.773065
 30
0.0
 11
1603.624788
 21
575.773065
 31
0.0
  0
LINE
  5
2D2
330
6AF
100
AcDbEntity
  8
DETAIL
  6
Continuous
 62
     5
100
AcDbLine
 10
1603.624788
 20
645.773063
 30
0.0
 11
1387.624794
 21
645.773063
 31
0.0
  0
LINE
  5
2D3
330
6AF
100
AcDbEntity
  8
DETAIL
  6
Continuous
 62
     5
100
AcDbLine
 10
1119.62478
 20
568.073065
 30
0.0
 11
2601.62478
 21
568.073065
 31
0.0
  0
LINE
  5
2D4
330
6AF
100
AcDbEntity
  8
DETAIL
  6
Continuous
 62
     5
100
AcDbLine
 10
1157.624801
 20
1693.073031
 30
0.0
 11
2563.624759
 21
1693.073031
 31
0.0
  0
LINE
  5
2D5
330
6AF
100
AcDbEntity
  8
DETAIL
  6
Continuous
 62
     5
100
AcDbLine
 10
1157.624801
 20
1698.47303
 30
0.0
 11
2563.624759
 21
1698.47303
 31
0.0
  0
LINE
  5
2D6
330
6AF
100
AcDbEntity
  8
DETAIL
  6
Continuous
 62
     5
100
AcDbLine
 10
1217.6248
 20
1474.773037
 30
0.0
 11
2503.624760000001
 21
1474.773037
 31
0.0
  0
LINE
  5
2D7
330
6AF
100
AcDbEntity
  8
DETAIL
  6
Continuous
 62
     5
100
AcDbLine
 10
1217.6248
 20
1239.773044
 30
0.0
 11
2503.624760000001
 21
1239.773044
 31
0.0
  0
LINE
  5
2D8
330
6AF
100
AcDbEntity
  8
DETAIL
  6
Continuous
 62
     5
100
AcDbLine
 10
2528.62476
 20
948.7730529999996
 30
0.0
 11
1192.6248
 21
948.7730529999996
 31
0.0
  0
LINE
  5
2D9
330
6AF
100
AcDbEntity
  8
DETAIL
  6
Continuous
 62
     5
100
AcDbLine
 10
2528.62476
 20
962.773053
 30
0.0
 11
1192.6248
 21
962.773053
 31
0.0
  0
LINE
  5
2DA
330
6AF
100
AcDbEntity
  8
DETAIL
  6
Continuous
 62
     5
100
AcDbLine
 10
1217.6248
 20
1224.773045
 30
0.0
 11
2503.624760000001
 21
1224.773045
 31
0.0
  0
CIRCLE
  5
2DB
330
6AF
100
AcDbEntity
  8
SIZE
  6
Continuous
 62
    30
100
AcDbCircle
 10
70.000005
 20
565.7730650000002
 30
0.0
 40
5.0
  0
CIRCLE
  5
2DC
330
6AF
100
AcDbEntity
  8
SIZE
  6
Continuous
 62
    30
100
AcDbCircle
 10
340.254573
 20
565.7730650000002
 30
0.0
 40
5.0
  0
CIRCLE
  5
2DD
330
6AF
100
AcDbEntity
  8
SIZE
  6
Continuous
 62
    30
100
AcDbCircle
 10
761.8346579999998
 20
565.7730650000002
 30
0.0
 40
5.0
  0
LINE
  5
2DE
330
6AF
100
AcDbEntity
  8
SIZE
  6
Continuous
 62
    30
100
AcDbLine
 10
761.8346579999998
 20
565.7730650000002
 30
0.0
 11
761.8346579999998
 21
407.915922
 31
0.0
  0
LINE
  5
2DF
330
6AF
100
AcDbEntity
  8
SIZE
  6
Continuous
 62
    30
100
AcDbLine
 10
1150.624802
 20
675.773065
 30
0.0
 11
1150.624802
 21
168.508893
 31
0.0
  0
CIRCLE
  5
2E0
330
6AF
100
AcDbEntity
  8
FIX
  6
Continuous
 62
    11
100
AcDbCircle
 10
1133.62478
 20
565.7730650000002
 30
0.0
 40
5.0
  0
LINE
  5
2E1
330
6AF
100
AcDbEntity
  8
NOTE
  6
Continuous
 62
     4
100
AcDbLine
 10
1133.62478
 20
545.7730650000002
 30
0.0
 11
1133.62478
 21
585.773065
 31
0.0
  0
LINE
  5
2E2
330
6AF
100
AcDbEntity
  8
NOTE
  6
Continuous
 62
     4
100
AcDbLine
 10
755.8214780000001
 20
198.954842
 30
0.0
 11
1164.192958
 21
667.3794159999999
 31
0.0
  0
LINE
  5
2E3
330
6AF
100
AcDbEntity
  8
NOTE
  6
Continuous
 62
     4
100
AcDbLine
 10
742.221499
 20
307.348177
 30
0.0
 11
1150.592979
 21
775.7727499999998
 31
0.0
  0
TEXT
  5
2E4
330
6AF
100
AcDbEntity
  8
NOTE
  6
Continuous
 62
     4
100
AcDbText
 10
403.145812
 20
329.864266
 30
0.0
 40
64.0
  1
EL2 %%C43
 41
0.9
100
AcDbText
  0
LINE
  5
2E5
330
6AF
100
AcDbEntity
  8
NOTE
  6
Continuous
 62
     4
100
AcDbLine
 10
742.221499
 20
307.348177
 30
0.0
 11
392.947823
 21
307.348177
 31
0.0
  0
TEXT
  5
2E6
330
6AF
100
AcDbEntity
  8
NOTE
  6
Continuous
 62
     4
100
AcDbText
 10
487.483804
 20
219.672091
 30
0.0
 40
64.0
  1
D2 Rc1
 41
0.9
100
AcDbText
  0
LINE
  5
2E7
330
6AF
100
AcDbEntity
  8
NOTE
  6
Continuous
 62
     4
100
AcDbLine
 10
755.8214780000001
 20
198.954842
 30
0.0
 11
474.617433
 21
198.954842
 31
0.0
  0
TEXT
  5
2E8
330
6AF
100
AcDbEntity
  8
SIZE
  6
Continuous
 62
    30
100
AcDbText
 10
746.834658
 20
422.9159225714286
 30
0.0
 40
55.0
  1
102
 50
90.0
 41
0.9
 72
     1
 11
746.834658
 21
481.844494
 31
0.0
100
AcDbText
  0
LINE
  5
2E9
330
6AF
100
AcDbEntity
  8
SIZE
  6
Continuous
 62
    30
100
AcDbLine
 10
1133.62478
 20
525.773065
 30
0.0
 11
1133.62478
 21
-0.000003
 31
0.0
  0
POINT
  5
2EA
330
6AF
100
AcDbEntity
  8
DEFPOINTS
  6
Continuous
 62
     7
100
AcDbPoint
 10
1133.62478
 20
29.999997
 30
0.0
  0
LINE
  5
2EB
330
6AF
100
AcDbEntity
  8
SIZE
  6
Continuous
 62
    30
100
AcDbLine
 10
1138.62478
 20
29.999997
 30
0.0
 11
1143.62478
 21
29.999997
 31
0.0
  0
CIRCLE
  5
2EC
330
6AF
100
AcDbEntity
  8
SIZE
  6
Continuous
 62
    30
100
AcDbCircle
 10
1133.62478
 20
29.999997
 30
0.0
 40
5.0
  0
POINT
  5
2ED
330
6AF
100
AcDbEntity
  8
DEFPOINTS
  6
Continuous
 62
     7
100
AcDbPoint
 10
1150.624802
 20
198.508893
 30
0.0
  0
LINE
  5
2EE
330
6AF
100
AcDbEntity
  8
SIZE
  6
Continuous
 62
    30
100
AcDbLine
 10
1155.624802
 20
198.508893
 30
0.0
 11
1160.624802
 21
198.508893
 31
0.0
  0
CIRCLE
  5
2EF
330
6AF
100
AcDbEntity
  8
SIZE
  6
Continuous
 62
    30
100
AcDbCircle
 10
1150.624802
 20
198.508893
 30
0.0
 40
5.0
  0
LINE
  5
2F0
330
6AF
100
AcDbEntity
  8
SIZE
  6
Continuous
 62
    30
100
AcDbLine
 10
1164.62478
 20
548.073065
 30
0.0
 11
1164.62478
 21
334.830025
 31
0.0
  0
POINT
  5
2F1
330
6AF
100
AcDbEntity
  8
DEFPOINTS
  6
Continuous
 62
     7
100
AcDbPoint
 10
1164.62478
 20
364.830025
 30
0.0
  0
LINE
  5
2F2
330
6AF
100
AcDbEntity
  8
SIZE
  6
Continuous
 62
    30
100
AcDbLine
 10
1169.62478
 20
364.830025
 30
0.0
 11
1174.62478
 21
364.830025
 31
0.0
  0
CIRCLE
  5
2F3
330
6AF
100
AcDbEntity
  8
SIZE
  6
Continuous
 62
    30
100
AcDbCircle
 10
1164.62478
 20
364.830025
 30
0.0
 40
5.0
  0
POINT
  5
2F4
330
6AF
100
AcDbEntity
  8
DEFPOINTS
  6
Continuous
 62
     7
100
AcDbPoint
 10
1133.62478
 20
545.7730650000002
 30
0.0
  0
TEXT
  5
2F5
330
6AF
100
AcDbEntity
  8
NOTE
  6
Continuous
 62
     4
100
AcDbText
 10
553.756194
 20
1502.703775
 30
0.0
 40
46.666665
  1
外気取込
 50
359.999997
 41
0.8404759999999999
  7
STANDARD1
100
AcDbText
  0
LINE
  5
2F6
330
6AF
100
AcDbEntity
  8
SIZE
  6
Continuous
 62
    30
100
AcDbLine
 10
1099.62478
 20
565.7730650000002
 30
0.0
 11
40.000005
 21
565.7730650000002
 31
0.0
  0
LINE
  5
2F7
330
6AF
100
AcDbEntity
  8
SIZE
  6
Continuous
 62
    30
100
AcDbLine
 10
1115.018136
 20
1195.773065
 30
0.0
 11
40.000005
 21
1195.773065
 31
0.0
  0
LINE
  5
2F8
330
6AF
100
AcDbEntity
  8
SIZE
  6
Continuous
 62
    30
100
AcDbLine
 10
1115.018136
 20
890.7730650000003
 30
0.0
 11
310.254573
 21
890.7730650000003
 31
0.0
  0
LINE
  5
2F9
330
6AF
100
AcDbEntity
  8
SIZE
  6
Continuous
 62
    30
100
AcDbLine
 10
1115.018136
 20
840.7730650000001
 30
0.0
 11
310.254573
 21
840.7730650000001
 31
0.0
  0
LINE
  5
2FA
330
6AF
100
AcDbEntity
  8
SIZE
  6
Continuous
 62
    30
100
AcDbLine
 10
1115.018136
 20
840.7730650000001
 30
0.0
 11
310.254573
 21
840.7730650000001
 31
0.0
  0
LINE
  5
2FB
330
6AF
100
AcDbEntity
  8
SIZE
  6
Continuous
 62
    30
100
AcDbLine
 10
1115.018136
 20
775.773065
 30
0.0
 11
310.254573
 21
775.773065
 31
0.0
  0
LINE
  5
2FC
330
6AF
100
AcDbEntity
  8
SIZE
  6
Continuous
 62
    30
100
AcDbLine
 10
1115.018136
 20
775.773065
 30
0.0
 11
310.254573
 21
775.773065
 31
0.0
  0
LINE
  5
2FD
330
6AF
100
AcDbEntity
  8
SIZE
  6
Continuous
 62
    30
100
AcDbLine
 10
1099.62478
 20
565.7730650000002
 30
0.0
 11
310.254573
 21
565.7730650000002
 31
0.0
  0
LINE
  5
2FE
330
6AF
100
AcDbEntity
  8
SIZE
  6
Continuous
 62
    30
100
AcDbLine
 10
1099.62478
 20
565.7730650000002
 30
0.0
 11
464.575892
 21
565.7730650000002
 31
0.0
  0
LINE
  5
2FF
330
6AF
100
AcDbEntity
  8
SIZE
  6
Continuous
 62
    30
100
AcDbLine
 10
1099.62478
 20
565.7730650000002
 30
0.0
 11
583.707599
 21
565.7730650000002
 31
0.0
  0
TEXT
  5
300
330
6AF
100
AcDbEntity
  8
NOTE
  6
Continuous
 62
     4
100
AcDbText
 10
577.185925
 20
1391.250745
 30
0.0
 40
64.0
  1
CL1 %%C27
 41
0.9
100
AcDbText
  0
LINE
  5
301
330
6AF
100
AcDbEntity
  8
NOTE
  6
Continuous
 62
     4
100
AcDbLine
 10
922.789256
 20
1370.533496
 30
0.0
 11
566.363819
 21
1370.533496
 31
0.0
  0
TEXT
  5
302
330
6AF
100
AcDbEntity
  8
NOTE
  6
Continuous
 62
     4
100
AcDbText
 10
598.130769
 20
1638.134152
 30
0.0
 40
64.0
  1
EL1 %%C27
 41
0.9
100
AcDbText
  0
LINE
  5
303
330
6AF
100
AcDbEntity
  8
NOTE
  6
Continuous
 62
     4
100
AcDbLine
 10
921.3255850000001
 20
1617.416903
 30
0.0
 11
579.068434
 21
1617.416903
 31
0.0
  0
LINE
  5
304
330
6AF
100
AcDbEntity
  8
SIZE
  6
Continuous
 62
    30
100
AcDbLine
 10
70.000005
 20
1185.773065
 30
0.0
 11
70.000005
 21
575.773065
 31
0.0
  0
TEXT
  5
305
330
6AF
100
AcDbEntity
  8
SIZE
  6
Continuous
 62
    30
100
AcDbText
 10
190.517201
 20
861.1331064285714
 30
0.0
 40
55.0
  1
65
 50
90.0
 41
0.9
 72
     1
 11
190.517201
 21
901.2045349999999
 31
0.0
100
AcDbText
  0
TEXT
  5
306
330
6AF
100
AcDbEntity
  8
SIZE
  6
Continuous
 62
    30
100
AcDbText
 10
55.00000499999999
 20
817.130207857143
 30
0.0
 40
55.0
  1
630
 50
90.0
 41
0.9
 72
     1
 11
55.000005
 21
880.7730650000001
 31
0.0
100
AcDbText
  0
POINT
  5
307
330
6AF
100
AcDbEntity
  8
DEFPOINTS
  6
Continuous
 62
     7
100
AcDbPoint
 10
70.000005
 20
565.7730650000002
 30
0.0
  0
LINE
  5
308
330
6AF
100
AcDbEntity
  8
SIZE
  6
Continuous
 62
    30
100
AcDbLine
 10
70.000005
 20
570.7730650000002
 30
0.0
 11
70.000005
 21
575.773065
 31
0.0
  0
LINE
  5
309
330
6AF
100
AcDbEntity
  8
SIZE
  6
Continuous
 62
    30
100
AcDbLine
 10
340.254573
 20
850.773065
 30
0.0
 11
340.254573
 21
880.7730650000001
 31
0.0
  0
LINE
  5
30A
330
6AF
100
AcDbEntity
  8
SIZE
  6
Continuous
 62
    30
100
AcDbLine
 10
205.517201
 20
846.133106
 30
0.0
 11
205.517201
 21
956.2759640000001
 31
0.0
  0
TEXT
  5
30B
330
6AF
100
AcDbEntity
  8
SIZE
  6
Continuous
 62
    30
100
AcDbText
 10
325.254573
 20
611.8444935714287
 30
0.0
 40
55.0
  1
210
 50
90.0
 41
0.9
 72
     1
 11
325.254573
 21
670.7730650000002
 31
0.0
100
AcDbText
  0
LINE
  5
30C
330
6AF
100
AcDbEntity
  8
SIZE
  6
Continuous
 62
    30
100
AcDbLine
 10
340.254573
 20
575.773065
 30
0.0
 11
340.254573
 21
765.7730650000002
 31
0.0
  0
LINE
  5
30D
330
6AF
100
AcDbEntity
  8
SIZE
  6
Continuous
 62
    30
100
AcDbLine
 10
340.254573
 20
570.7730650000002
 30
0.0
 11
340.254573
 21
575.773065
 31
0.0
  0
LINE
  5
30E
330
6AF
100
AcDbEntity
  8
SIZE
  6
Continuous
 62
    30
100
AcDbLine
 10
340.254573
 20
808.273065
 30
0.0
 11
205.517201
 21
846.133106
 31
0.0
  0
LINE
  5
30F
330
6AF
100
AcDbEntity
  8
SIZE
  6
Continuous
 62
    30
100
AcDbLine
 10
340.254573
 20
845.773065
 30
0.0
 11
340.254573
 21
850.773065
 31
0.0
  0
CIRCLE
  5
310
330
6AF
100
AcDbEntity
  8
SIZE
  6
Continuous
 62
    30
100
AcDbCircle
 10
340.254573
 20
840.7730650000001
 30
0.0
 40
5.0
  0
POINT
  5
311
330
6AF
100
AcDbEntity
  8
DEFPOINTS
  6
Continuous
 62
     7
100
AcDbPoint
 10
340.254573
 20
840.7730650000001
 30
0.0
  0
LINE
  5
312
330
6AF
100
AcDbEntity
  8
SIZE
  6
Continuous
 62
    30
100
AcDbLine
 10
340.254573
 20
835.773065
 30
0.0
 11
340.254573
 21
830.7730650000001
 31
0.0
  0
CIRCLE
  5
313
330
6AF
100
AcDbEntity
  8
SIZE
  6
Continuous
 62
    30
100
AcDbCircle
 10
340.254573
 20
840.7730650000001
 30
0.0
 40
5.0
  0
LINE
  5
314
330
6AF
100
AcDbEntity
  8
SIZE
  6
Continuous
 62
    30
100
AcDbLine
 10
340.254573
 20
780.773065
 30
0.0
 11
340.254573
 21
785.7730650000002
 31
0.0
  0
CIRCLE
  5
315
330
6AF
100
AcDbEntity
  8
SIZE
  6
Continuous
 62
    30
100
AcDbCircle
 10
340.254573
 20
775.773065
 30
0.0
 40
5.0
  0
LINE
  5
316
330
6AF
100
AcDbEntity
  8
SIZE
  6
Continuous
 62
    30
100
AcDbLine
 10
340.254573
 20
785.7730650000002
 30
0.0
 11
340.254573
 21
830.7730650000001
 31
0.0
  0
POINT
  5
317
330
6AF
100
AcDbEntity
  8
DEFPOINTS
  6
Continuous
 62
     7
100
AcDbPoint
 10
340.254573
 20
775.773065
 30
0.0
  0
LINE
  5
318
330
6AF
100
AcDbEntity
  8
SIZE
  6
Continuous
 62
    30
100
AcDbLine
 10
340.254573
 20
770.7730650000002
 30
0.0
 11
340.254573
 21
765.7730650000002
 31
0.0
  0
CIRCLE
  5
319
330
6AF
100
AcDbEntity
  8
SIZE
  6
Continuous
 62
    30
100
AcDbCircle
 10
340.254573
 20
775.773065
 30
0.0
 40
5.0
  0
TEXT
  5
31A
330
6AF
100
AcDbEntity
  8
SIZE
  6
Continuous
 62
    30
100
AcDbText
 10
325.254573
 20
926.4810694285714
 30
0.0
 40
55.0
  1
50
 50
90.0
 41
0.9
 72
     1
 11
325.254573
 21
966.552498
 31
0.0
100
AcDbText
  0
POINT
  5
31B
330
6AF
100
AcDbEntity
  8
DEFPOINTS
  6
Continuous
 62
     7
100
AcDbPoint
 10
340.254573
 20
890.7730650000003
 30
0.0
  0
LINE
  5
31C
330
6AF
100
AcDbEntity
  8
SIZE
  6
Continuous
 62
    30
100
AcDbLine
 10
340.254573
 20
885.773065
 30
0.0
 11
340.254573
 21
880.7730650000001
 31
0.0
  0
CIRCLE
  5
31D
330
6AF
100
AcDbEntity
  8
SIZE
  6
Continuous
 62
    30
100
AcDbCircle
 10
340.254573
 20
890.7730650000003
 30
0.0
 40
5.0
  0
LINE
  5
31E
330
6AF
100
AcDbEntity
  8
SIZE
  6
Continuous
 62
    30
100
AcDbLine
 10
340.254573
 20
1021.623927
 30
0.0
 11
340.254573
 21
890.7730650000003
 31
0.0
  0
LINE
  5
31F
330
6AF
100
AcDbEntity
  8
SIZE
  6
Continuous
 62
    30
100
AcDbLine
 10
70.000005
 20
1190.773065
 30
0.0
 11
70.000005
 21
1185.773065
 31
0.0
  0
CIRCLE
  5
320
330
6AF
100
AcDbEntity
  8
SIZE
  6
Continuous
 62
    30
100
AcDbCircle
 10
70.000005
 20
1195.773065
 30
0.0
 40
5.0
  0
LINE
  5
321
330
6AF
100
AcDbEntity
  8
NOTE
  6
Continuous
 62
     4
100
AcDbLine
 10
934.872277
 20
1617.416903
 30
0.0
 11
1150.624802
 21
890.7730650000003
 31
0.0
  0
LINE
  5
322
330
6AF
100
AcDbEntity
  8
NOTE
  6
Continuous
 62
     4
100
AcDbLine
 10
922.789256
 20
1370.533496
 30
0.0
 11
1150.624802
 21
840.7730650000001
 31
0.0
  0
LINE
  5
323
330
6AF
100
AcDbEntity
  8
DETAIL
  6
Continuous
 62
     5
100
AcDbLine
 10
1192.6248
 20
695.7730650000002
 30
0.0
 11
1192.6248
 21
1219.773045
 31
0.0
  0
LINE
  5
324
330
6AF
100
AcDbEntity
  8
SIZE
  6
Continuous
 62
    30
100
AcDbLine
 10
1104.224781
 20
667.773065
 30
0.0
 11
731.834658
 21
667.773065
 31
0.0
  0
LINE
  5
325
330
6AF
100
AcDbEntity
  8
SIZE
  6
Continuous
 62
    30
100
AcDbLine
 10
1099.62478
 20
565.7730650000002
 30
0.0
 11
731.834658
 21
565.7730650000002
 31
0.0
  0
POINT
  5
326
330
6AF
100
AcDbEntity
  8
DEFPOINTS
  6
Continuous
 62
     7
100
AcDbPoint
 10
761.8346579999998
 20
667.773065
 30
0.0
  0
LINE
  5
327
330
6AF
100
AcDbEntity
  8
SIZE
  6
Continuous
 62
    30
100
AcDbLine
 10
761.8346579999998
 20
570.7730650000002
 30
0.0
 11
761.8346579999998
 21
575.773065
 31
0.0
  0
LINE
  5
328
330
6AF
100
AcDbEntity
  8
SIZE
  6
Continuous
 62
    30
100
AcDbLine
 10
761.8346579999998
 20
662.7730650000001
 30
0.0
 11
761.8346579999998
 21
657.7730650000002
 31
0.0
  0
CIRCLE
  5
329
330
6AF
100
AcDbEntity
  8
SIZE
  6
Continuous
 62
    30
100
AcDbCircle
 10
761.8346579999998
 20
667.773065
 30
0.0
 40
5.0
  0
LINE
  5
32A
330
6AF
100
AcDbEntity
  8
SIZE
  6
Continuous
 62
    30
100
AcDbLine
 10
761.8346579999998
 20
657.7730650000002
 30
0.0
 11
761.8346579999998
 21
575.773065
 31
0.0
  0
LINE
  5
32B
330
6AF
100
AcDbEntity
  8
NOTE
  6
Continuous
 62
     4
100
AcDbLine
 10
1150.624802
 20
840.7730650000001
 30
0.0
 11
1145.829495
 21
873.7596699999997
 31
0.0
  0
POINT
  5
32C
330
6AF
100
AcDbEntity
  8
DEFPOINTS
  6
Continuous
 62
     7
100
AcDbPoint
 10
1119.62478
 20
565.7730650000002
 30
0.0
  0
POINT
  5
32D
330
6AF
100
AcDbEntity
  8
DEFPOINTS
  6
Continuous
 62
     7
100
AcDbPoint
 10
1119.62478
 20
565.7730650000002
 30
0.0
  0
POINT
  5
32E
330
6AF
100
AcDbEntity
  8
DEFPOINTS
  6
Continuous
 62
     7
100
AcDbPoint
 10
1119.62478
 20
565.7730650000002
 30
0.0
  0
POINT
  5
32F
330
6AF
100
AcDbEntity
  8
DEFPOINTS
  6
Continuous
 62
     7
100
AcDbPoint
 10
1119.62478
 20
565.7730650000002
 30
0.0
  0
POINT
  5
330
330
6AF
100
AcDbEntity
  8
DEFPOINTS
  6
Continuous
 62
     7
100
AcDbPoint
 10
1124.224781
 20
667.773065
 30
0.0
  0
POINT
  5
331
330
6AF
100
AcDbEntity
  8
DEFPOINTS
  6
Continuous
 62
     7
100
AcDbPoint
 10
1119.62478
 20
565.7730650000002
 30
0.0
  0
LINE
  5
332
330
6AF
100
AcDbEntity
  8
OUTLINE
  6
Continuous
 62
     3
100
AcDbLine
 10
1164.62478
 20
565.7730650000002
 30
0.0
 11
1164.62478
 21
695.7730650000002
 31
0.0
  0
POINT
  5
333
330
6AF
100
AcDbEntity
  8
DEFPOINTS
  6
Continuous
 62
     7
100
AcDbPoint
 10
1150.624802
 20
695.7730650000002
 30
0.0
  0
POINT
  5
334
330
6AF
100
AcDbEntity
  8
DEFPOINTS
  6
Continuous
 62
     7
100
AcDbPoint
 10
1164.62478
 20
568.073065
 30
0.0
  0
LINE
  5
335
330
6AF
100
AcDbEntity
  8
NOTE
  6
Continuous
 62
     4
100
AcDbLine
 10
1113.62478
 20
565.7730650000002
 30
0.0
 11
1153.62478
 21
565.7730650000002
 31
0.0
  0
LINE
  5
336
330
6AF
100
AcDbEntity
  8
NOTE
  6
Continuous
 62
     4
100
AcDbLine
 10
1164.192958
 20
667.3794159999999
 30
0.0
 11
1149.537806
 21
637.440519
 31
0.0
  0
LINE
  5
337
330
6AF
100
AcDbEntity
  8
NOTE
  6
Continuous
 62
     4
100
AcDbLine
 10
1164.192958
 20
667.3794159999999
 30
0.0
 11
1136.531775
 21
648.7791469999998
 31
0.0
  0
LINE
  5
338
330
6AF
100
AcDbEntity
  8
NOTE
  6
Continuous
 62
     4
100
AcDbLine
 10
1164.224781
 20
667.773065
 30
0.0
 11
1124.224781
 21
667.773065
 31
0.0
  0
LINE
  5
339
330
6AF
100
AcDbEntity
  8
NOTE
  6
Continuous
 62
     4
100
AcDbLine
 10
1144.224781
 20
647.773065
 30
0.0
 11
1144.224781
 21
687.7730650000001
 31
0.0
  0
LINE
  5
33A
330
6AF
100
AcDbEntity
  8
DETAIL
  6
Continuous
 62
     5
100
AcDbLine
 10
1164.62478
 20
568.073065
 30
0.0
 11
1164.62478
 21
695.7730650000002
 31
0.0
  0
LINE
  5
33B
330
6AF
100
AcDbEntity
  8
DETAIL
  6
Continuous
 62
     5
100
AcDbLine
 10
1144.224781
 20
648.7730659999998
 30
0.0
 11
1144.224781
 21
686.7730639999998
 31
0.0
  0
LINE
  5
33C
330
6AF
100
AcDbEntity
  8
DETAIL
  6
Continuous
 62
     5
100
AcDbLine
 10
1144.224781
 20
686.7730639999998
 30
0.0
 11
1164.62478
 21
686.7730639999998
 31
0.0
  0
LINE
  5
33D
330
6AF
100
AcDbEntity
  8
DETAIL
  6
Continuous
 62
     5
100
AcDbLine
 10
1164.62478
 20
648.7730659999998
 30
0.0
 11
1144.224781
 21
648.7730659999998
 31
0.0
  0
CIRCLE
  5
33E
330
6AF
100
AcDbEntity
  8
DETAIL
  6
Continuous
 62
     5
100
AcDbCircle
 10
1189.2248
 20
665.7730619999998
 30
0.0
 40
3.5
  0
LINE
  5
33F
330
6AF
100
AcDbEntity
  8
DETAIL
  6
Continuous
 62
     5
100
AcDbLine
 10
1119.62478
 20
565.7730650000002
 30
0.0
 11
1119.62478
 21
568.073065
 31
0.0
  0
CIRCLE
  5
340
330
6AF
100
AcDbEntity
  8
DETAIL
  6
Continuous
 62
     5
100
AcDbCircle
 10
1189.2248
 20
590.7730639999998
 30
0.0
 40
3.5
  0
LINE
  5
341
330
6AF
100
AcDbEntity
  8
DETAIL
  6
Continuous
 62
     5
100
AcDbLine
 10
1214.2248
 20
565.7730650000002
 30
0.0
 11
1214.2248
 21
695.7730650000002
 31
0.0
  0
POINT
  5
342
330
6AF
100
AcDbEntity
  8
DEFPOINTS
  6
Continuous
 62
     7
100
AcDbPoint
 10
1135.018136
 20
840.7730650000001
 30
0.0
  0
POINT
  5
343
330
6AF
100
AcDbEntity
  8
DEFPOINTS
  6
Continuous
 62
     7
100
AcDbPoint
 10
1135.018136
 20
840.7730650000001
 30
0.0
  0
POINT
  5
344
330
6AF
100
AcDbEntity
  8
DEFPOINTS
  6
Continuous
 62
     7
100
AcDbPoint
 10
1135.018136
 20
775.773065
 30
0.0
  0
POINT
  5
345
330
6AF
100
AcDbEntity
  8
DEFPOINTS
  6
Continuous
 62
     7
100
AcDbPoint
 10
1135.018136
 20
775.773065
 30
0.0
  0
LINE
  5
346
330
6AF
100
AcDbEntity
  8
NOTE
  6
Continuous
 62
     4
100
AcDbLine
 10
1150.624802
 20
840.7730650000001
 30
0.0
 11
1129.978642
 21
866.9426490000002
 31
0.0
  0
LINE
  5
347
330
6AF
100
AcDbEntity
  8
NOTE
  6
Continuous
 62
     4
100
AcDbLine
 10
1150.624802
 20
856.3797310000001
 30
0.0
 11
1150.624802
 21
825.166399
 31
0.0
  0
LINE
  5
348
330
6AF
100
AcDbEntity
  8
NOTE
  6
Continuous
 62
     4
100
AcDbLine
 10
1135.018136
 20
840.7730650000001
 30
0.0
 11
1166.231468
 21
840.7730650000001
 31
0.0
  0
LINE
  5
349
330
6AF
100
AcDbEntity
  8
NOTE
  6
Continuous
 62
     4
100
AcDbLine
 10
1150.592979
 20
775.7727499999998
 30
0.0
 11
1135.937827
 21
745.8338529999998
 31
0.0
  0
LINE
  5
34A
330
6AF
100
AcDbEntity
  8
NOTE
  6
Continuous
 62
     4
100
AcDbLine
 10
1150.624802
 20
791.379731
 30
0.0
 11
1150.624802
 21
760.166399
 31
0.0
  0
LINE
  5
34B
330
6AF
100
AcDbEntity
  8
NOTE
  6
Continuous
 62
     4
100
AcDbLine
 10
1150.592979
 20
775.7727499999998
 30
0.0
 11
1122.931796
 21
757.1724809999998
 31
0.0
  0
LINE
  5
34C
330
6AF
100
AcDbEntity
  8
NOTE
  6
Continuous
 62
     4
100
AcDbLine
 10
1135.018136
 20
775.773065
 30
0.0
 11
1166.231468
 21
775.773065
 31
0.0
  0
CIRCLE
  5
34D
330
6AF
100
AcDbEntity
  8
DETAIL
  6
Continuous
 62
     5
100
AcDbCircle
 10
1208.6248
 20
819.773057
 30
0.0
 40
2.5
  0
LINE
  5
34E
330
6AF
100
AcDbEntity
  8
DETAIL
  6
Continuous
 62
     5
100
AcDbLine
 10
1382.624795
 20
640.7730629999998
 30
0.0
 11
1387.624794
 21
645.773063
 31
0.0
  0
LINE
  5
34F
330
6AF
100
AcDbEntity
  8
DETAIL
  6
Continuous
 62
     5
100
AcDbLine
 10
1387.624794
 20
575.773065
 30
0.0
 11
1382.624795
 21
580.773065
 31
0.0
  0
LINE
  5
350
330
6AF
100
AcDbEntity
  8
DETAIL
  6
Continuous
 62
     5
100
AcDbLine
 10
1382.624795
 20
580.773065
 30
0.0
 11
1382.624795
 21
640.7730629999998
 31
0.0
  0
POINT
  5
351
330
6AF
100
AcDbEntity
  8
DEFPOINTS
  6
Continuous
 62
     7
100
AcDbPoint
 10
1135.018136
 20
890.7730650000003
 30
0.0
  0
LINE
  5
352
330
6AF
100
AcDbEntity
  8
NOTE
  6
Continuous
 62
     4
100
AcDbLine
 10
1150.624802
 20
890.7730650000003
 30
0.0
 11
1133.189822
 21
919.183143
 31
0.0
  0
LINE
  5
353
330
6AF
100
AcDbEntity
  8
NOTE
  6
Continuous
 62
     4
100
AcDbLine
 10
1150.624802
 20
906.3797309999999
 30
0.0
 11
1150.624802
 21
875.166399
 31
0.0
  0
LINE
  5
354
330
6AF
100
AcDbEntity
  8
NOTE
  6
Continuous
 62
     4
100
AcDbLine
 10
1150.624802
 20
890.7730650000003
 30
0.0
 11
1149.730706
 21
924.094404
 31
0.0
  0
LINE
  5
355
330
6AF
100
AcDbEntity
  8
NOTE
  6
Continuous
 62
     4
100
AcDbLine
 10
1135.018136
 20
890.7730650000003
 30
0.0
 11
1166.231468
 21
890.7730650000003
 31
0.0
  0
CIRCLE
  5
356
330
6AF
100
AcDbEntity
  8
DETAIL
  6
Continuous
 62
     5
100
AcDbCircle
 10
1208.6248
 20
1169.773047
 30
0.0
 40
2.5
  0
LINE
  5
357
330
6AF
100
AcDbEntity
  8
NOTE
  6
Continuous
 62
     4
100
AcDbLine
 10
840.6618680000001
 20
1499.07752
 30
0.0
 11
840.6618680000001
 21
1475.077521
 31
0.0
  0
LINE
  5
358
330
6AF
100
AcDbEntity
  8
NOTE
  6
Continuous
 62
     4
100
AcDbLine
 10
888.6618659999998
 20
1519.07752
 30
0.0
 11
840.6618680000001
 21
1475.077521
 31
0.0
  0
LINE
  5
359
330
6AF
100
AcDbEntity
  8
NOTE
  6
Continuous
 62
     4
100
AcDbLine
 10
888.6618659999998
 20
1519.07752
 30
0.0
 11
840.6618680000001
 21
1563.077518
 31
0.0
  0
LINE
  5
35A
330
6AF
100
AcDbEntity
  8
NOTE
  6
Continuous
 62
     4
100
AcDbLine
 10
840.6618680000001
 20
1563.077518
 30
0.0
 11
840.6618680000001
 21
1539.077519
 31
0.0
  0
LINE
  5
35B
330
6AF
100
AcDbEntity
  8
NOTE
  6
Continuous
 62
     4
100
AcDbLine
 10
840.6618680000001
 20
1539.077519
 30
0.0
 11
776.661869
 21
1539.077519
 31
0.0
  0
LINE
  5
35C
330
6AF
100
AcDbEntity
  8
NOTE
  6
Continuous
 62
     4
100
AcDbLine
 10
840.6618680000001
 20
1499.07752
 30
0.0
 11
776.661869
 21
1499.07752
 31
0.0
  0
LINE
  5
35D
330
6AF
100
AcDbEntity
  8
NOTE
  6
Continuous
 62
     4
100
AcDbLine
 10
776.661869
 20
1539.077519
 30
0.0
 11
776.661869
 21
1499.07752
 31
0.0
  0
LINE
  5
35E
330
6AF
100
AcDbEntity
  8
DETAIL
  6
Continuous
 62
     5
100
AcDbLine
 10
1217.6248
 20
1474.773037
 30
0.0
 11
1217.6248
 21
1485.573037
 31
0.0
  0
LINE
  5
35F
330
6AF
100
AcDbEntity
  8
DETAIL
  6
Continuous
 62
     5
100
AcDbLine
 10
1195.6248
 20
1485.573037
 30
0.0
 11
1195.6248
 21
1240.773044
 31
0.0
  0
LINE
  5
360
330
6AF
100
AcDbEntity
  8
DETAIL
  6
Continuous
 62
     5
100
AcDbLine
 10
1192.6248
 20
1219.773045
 30
0.0
 11
1197.6248
 21
1224.773045
 31
0.0
  0
POINT
  5
361
330
6AF
100
AcDbEntity
  8
DEFPOINTS
  6
Continuous
 62
     7
100
AcDbPoint
 10
1135.018136
 20
1195.773065
 30
0.0
  0
LINE
  5
362
330
6AF
100
AcDbEntity
  8
NOTE
  6
Continuous
 62
     4
100
AcDbLine
 10
1150.624802
 20
1195.773065
 30
0.0
 11
1137.350795
 21
1226.349392
 31
0.0
  0
LINE
  5
363
330
6AF
100
AcDbEntity
  8
NOTE
  6
Continuous
 62
     4
100
AcDbLine
 10
1150.624802
 20
1211.379731
 30
0.0
 11
1150.624802
 21
1180.166399
 31
0.0
  0
LINE
  5
364
330
6AF
100
AcDbEntity
  8
NOTE
  6
Continuous
 62
     4
100
AcDbLine
 10
1150.624802
 20
1195.773065
 30
0.0
 11
1154.417339
 21
1228.889944
 31
0.0
  0
LINE
  5
365
330
6AF
100
AcDbEntity
  8
NOTE
  6
Continuous
 62
     4
100
AcDbLine
 10
1135.018136
 20
1195.773065
 30
0.0
 11
1166.231468
 21
1195.773065
 31
0.0
  0
LINE
  5
366
330
6AF
100
AcDbEntity
  8
DETAIL
  6
Continuous
 62
     5
100
AcDbLine
 10
1195.212317
 20
1313.087804
 30
0.0
 11
1195.248763
 21
1313.004274
 31
0.0
  0
LINE
  5
367
330
6AF
100
AcDbEntity
  8
DETAIL
  6
Continuous
 62
     5
100
AcDbLine
 10
1195.6248
 20
1239.773044
 30
0.0
 11
1195.6248
 21
1222.773045
 31
0.0
  0
LINE
  5
368
330
6AF
100
AcDbEntity
  8
DETAIL
  6
Continuous
 62
     5
100
AcDbLine
 10
1217.6248
 20
1224.773045
 30
0.0
 11
1217.6248
 21
1239.773044
 31
0.0
  0
LINE
  5
369
330
6AF
100
AcDbEntity
  8
DETAIL
  6
Continuous
 62
     5
100
AcDbLine
 10
1197.6248
 20
1224.773045
 30
0.0
 11
1217.6248
 21
1224.773045
 31
0.0
  0
LINE
  5
36A
330
6AF
100
AcDbEntity
  8
DETAIL
  6
Continuous
 62
     5
100
AcDbLine
 10
1157.624801
 20
1485.573037
 30
0.0
 11
1217.6248
 21
1485.573037
 31
0.0
  0
CIRCLE
  5
36B
330
6AF
100
AcDbEntity
  8
DETAIL
  6
Continuous
 62
     5
100
AcDbCircle
 10
1172.624801
 20
1529.773036
 30
0.0
 40
2.5
  0
CIRCLE
  5
36C
330
6AF
100
AcDbEntity
  8
DETAIL
  6
Continuous
 62
     5
100
AcDbCircle
 10
1283.124798
 20
1494.773037
 30
0.0
 40
1.45
  0
CIRCLE
  5
36D
330
6AF
100
AcDbEntity
  8
ARRANGE
  6
Continuous
 62
     1
100
AcDbCircle
 10
1860.62478
 20
565.7730650000002
 30
0.0
 40
42.5
  0
CIRCLE
  5
36E
330
6AF
100
AcDbEntity
  8
SIZE
  6
Continuous
 62
    30
100
AcDbCircle
 10
3273.781379000001
 20
565.7730650000002
 30
0.0
 40
5.0
  0
CIRCLE
  5
36F
330
6AF
100
AcDbEntity
  8
SIZE
  6
Continuous
 62
    30
100
AcDbCircle
 10
3118.999164
 20
565.7730650000002
 30
0.0
 40
5.0
  0
CIRCLE
  5
370
330
6AF
100
AcDbEntity
  8
SIZE
  6
Continuous
 62
    30
100
AcDbCircle
 10
2963.404887
 20
565.7730650000002
 30
0.0
 40
5.0
  0
LINE
  5
371
330
6AF
100
AcDbEntity
  8
SIZE
  6
Continuous
 62
    30
100
AcDbLine
 10
2963.404887
 20
565.7730650000002
 30
0.0
 11
2963.404887
 21
407.915922
 31
0.0
  0
LINE
  5
372
330
6AF
100
AcDbEntity
  8
SIZE
  6
Continuous
 62
    30
100
AcDbLine
 10
2570.624758
 20
675.773065
 30
0.0
 11
2570.624758
 21
168.508893
 31
0.0
  0
LINE
  5
373
330
6AF
100
AcDbEntity
  8
SIZE
  6
Continuous
 62
    30
100
AcDbLine
 10
2570.624758
 20
675.773065
 30
0.0
 11
2570.624758
 21
168.508893
 31
0.0
  0
LINE
  5
374
330
6AF
100
AcDbEntity
  8
SIZE
  6
Continuous
 62
    30
100
AcDbLine
 10
2597.624758
 20
627.7730650000002
 30
0.0
 11
2597.624758
 21
168.508893
 31
0.0
  0
LINE
  5
375
330
6AF
100
AcDbEntity
  8
NOTE
  6
Continuous
 62
     4
100
AcDbLine
 10
2587.624812
 20
565.7730599999998
 30
0.0
 11
2601.838304
 21
535.6219789999999
 31
0.0
  0
LINE
  5
376
330
6AF
100
AcDbEntity
  8
NOTE
  6
Continuous
 62
     4
100
AcDbLine
 10
2587.624812
 20
565.7730599999998
 30
0.0
 11
2615.009598
 21
546.7682049999998
 31
0.0
  0
LINE
  5
377
330
6AF
100
AcDbEntity
  8
NOTE
  6
Continuous
 62
     4
100
AcDbLine
 10
2922.395874
 20
170.18011
 30
0.0
 11
2587.624806
 21
565.773056
 31
0.0
  0
CIRCLE
  5
378
330
6AF
100
AcDbEntity
  8
FIX
  6
Continuous
 62
    11
100
AcDbCircle
 10
2587.62478
 20
565.7730650000002
 30
0.0
 40
5.0
  0
LINE
  5
379
330
6AF
100
AcDbEntity
  8
NOTE
  6
Continuous
 62
     4
100
AcDbLine
 10
2587.62478
 20
545.7730650000002
 30
0.0
 11
2587.62478
 21
585.773065
 31
0.0
  0
LINE
  5
37A
330
6AF
100
AcDbEntity
  8
NOTE
  6
Continuous
 62
     4
100
AcDbLine
 10
2917.165775
 20
301.241924
 30
0.0
 11
2597.624758
 21
667.773065
 31
0.0
  0
LINE
  5
37B
330
6AF
100
AcDbEntity
  8
ARRANGE
  6
Continuous
 62
     1
100
AcDbLine
 10
1818.155581
 20
607.930171
 30
0.0
 11
1903.093979
 21
523.6159589999998
 31
0.0
  0
LINE
  5
37C
330
6AF
100
AcDbEntity
  8
ARRANGE
  6
Continuous
 62
     1
100
AcDbLine
 10
1818.093032
 20
523.679065
 30
0.0
 11
1903.156528
 21
607.867065
 31
0.0
  0
TEXT
  5
37D
330
6AF
100
AcDbEntity
  8
SIZE
  6
Continuous
 62
    30
100
AcDbText
 10
1778.12478
 20
213.508893
 30
0.0
 40
55.0
  1
1420
 41
0.9
 72
     1
 11
1860.62478
 21
213.508893
 31
0.0
100
AcDbText
  0
TEXT
  5
37E
330
6AF
100
AcDbEntity
  8
SIZE
  6
Continuous
 62
    30
100
AcDbText
 10
1776.946208571429
 20
44.999997
 30
0.0
 40
55.0
  1
1454
 41
0.9
 72
     1
 11
1860.62478
 21
44.999997
 31
0.0
100
AcDbText
  0
TEXT
  5
37F
330
6AF
100
AcDbEntity
  8
SIZE
  6
Continuous
 62
    30
100
AcDbText
 10
1778.12478
 20
379.830025
 30
0.0
 40
55.0
  1
1392
 41
0.9
 72
     1
 11
1860.62478
 21
379.830025
 31
0.0
100
AcDbText
  0
LINE
  5
380
330
6AF
100
AcDbEntity
  8
SIZE
  6
Continuous
 62
    30
100
AcDbLine
 10
2587.62478
 20
525.773065
 30
0.0
 11
2587.62478
 21
-0.000003
 31
0.0
  0
TEXT
  5
381
330
6AF
100
AcDbEntity
  8
SIZE
  6
Continuous
 62
    30
100
AcDbText
 10
2621.624757857143
 20
216.913655
 30
0.0
 40
55.0
  1
(27)
 41
0.9
 72
     1
 11
2693.517615
 21
216.913655
 31
0.0
100
AcDbText
  0
LINE
  5
382
330
6AF
100
AcDbEntity
  8
SIZE
  6
Continuous
 62
    30
100
AcDbLine
 10
2607.624758
 20
198.508893
 30
0.0
 11
2769.410472000001
 21
198.508893
 31
0.0
  0
LINE
  5
383
330
6AF
100
AcDbEntity
  8
SIZE
  6
Continuous
 62
    30
100
AcDbLine
 10
2582.62478
 20
29.999997
 30
0.0
 11
2577.62478
 21
29.999997
 31
0.0
  0
CIRCLE
  5
384
330
6AF
100
AcDbEntity
  8
SIZE
  6
Continuous
 62
    30
100
AcDbCircle
 10
2587.62478
 20
29.999997
 30
0.0
 40
5.0
  0
LINE
  5
385
330
6AF
100
AcDbEntity
  8
SIZE
  6
Continuous
 62
    30
100
AcDbLine
 10
2565.624758
 20
198.508893
 30
0.0
 11
2560.624758
 21
198.508893
 31
0.0
  0
CIRCLE
  5
386
330
6AF
100
AcDbEntity
  8
SIZE
  6
Continuous
 62
    30
100
AcDbCircle
 10
2570.624758
 20
198.508893
 30
0.0
 40
5.0
  0
POINT
  5
387
330
6AF
100
AcDbEntity
  8
DEFPOINTS
  6
Continuous
 62
     7
100
AcDbPoint
 10
2570.624758
 20
198.508893
 30
0.0
  0
LINE
  5
388
330
6AF
100
AcDbEntity
  8
SIZE
  6
Continuous
 62
    30
100
AcDbLine
 10
2602.624758
 20
198.508893
 30
0.0
 11
2607.624758
 21
198.508893
 31
0.0
  0
CIRCLE
  5
389
330
6AF
100
AcDbEntity
  8
SIZE
  6
Continuous
 62
    30
100
AcDbCircle
 10
2597.624758
 20
198.508893
 30
0.0
 40
5.0
  0
LINE
  5
38A
330
6AF
100
AcDbEntity
  8
SIZE
  6
Continuous
 62
    30
100
AcDbLine
 10
2565.624758
 20
198.508893
 30
0.0
 11
2560.624758
 21
198.508893
 31
0.0
  0
CIRCLE
  5
38B
330
6AF
100
AcDbEntity
  8
SIZE
  6
Continuous
 62
    30
100
AcDbCircle
 10
2570.624758
 20
198.508893
 30
0.0
 40
5.0
  0
LINE
  5
38C
330
6AF
100
AcDbEntity
  8
SIZE
  6
Continuous
 62
    30
100
AcDbLine
 10
2570.624758
 20
198.508893
 30
0.0
 11
2597.624758
 21
198.508893
 31
0.0
  0
LINE
  5
38D
330
6AF
100
AcDbEntity
  8
SIZE
  6
Continuous
 62
    30
100
AcDbLine
 10
2560.624758
 20
198.508893
 30
0.0
 11
2550.624758
 21
198.508893
 31
0.0
  0
LINE
  5
38E
330
6AF
100
AcDbEntity
  8
SIZE
  6
Continuous
 62
    30
100
AcDbLine
 10
2556.62478
 20
548.073065
 30
0.0
 11
2556.62478
 21
334.830025
 31
0.0
  0
LINE
  5
38F
330
6AF
100
AcDbEntity
  8
SIZE
  6
Continuous
 62
    30
100
AcDbLine
 10
2551.62478
 20
364.830025
 30
0.0
 11
2546.62478
 21
364.830025
 31
0.0
  0
CIRCLE
  5
390
330
6AF
100
AcDbEntity
  8
SIZE
  6
Continuous
 62
    30
100
AcDbCircle
 10
2556.62478
 20
364.830025
 30
0.0
 40
5.0
  0
POINT
  5
391
330
6AF
100
AcDbEntity
  8
DEFPOINTS
  6
Continuous
 62
     7
100
AcDbPoint
 10
2587.62478
 20
545.7730650000002
 30
0.0
  0
TEXT
  5
392
330
6AF
100
AcDbEntity
  8
NOTE
  6
Continuous
 62
     4
100
AcDbText
 10
2933.812505
 20
321.959173
 30
0.0
 40
64.0
  1
D4 Rc1
 41
0.9
100
AcDbText
  0
LINE
  5
393
330
6AF
100
AcDbEntity
  8
NOTE
  6
Continuous
 62
     4
100
AcDbLine
 10
2917.165775
 20
301.241924
 30
0.0
 11
3214.381734
 21
301.241924
 31
0.0
  0
TEXT
  5
394
330
6AF
100
AcDbEntity
  8
SIZE
  6
Continuous
 62
    30
100
AcDbText
 10
2948.404887
 20
422.9159225714286
 30
0.0
 40
55.0
  1
102
 50
90.0
 41
0.9
 72
     1
 11
2948.404887
 21
481.844494
 31
0.0
100
AcDbText
  0
LINE
  5
395
330
6AF
100
AcDbEntity
  8
DETAIL
  6
Continuous
 62
     5
100
AcDbLine
 10
1603.624788
 20
645.773063
 30
0.0
 11
1608.624788
 21
640.7730629999998
 31
0.0
  0
LINE
  5
396
330
6AF
100
AcDbEntity
  8
DETAIL
  6
Continuous
 62
     5
100
AcDbLine
 10
1608.624788
 20
580.773065
 30
0.0
 11
1603.624788
 21
575.773065
 31
0.0
  0
LINE
  5
397
330
6AF
100
AcDbEntity
  8
DETAIL
  6
Continuous
 62
     5
100
AcDbLine
 10
1608.624788
 20
580.773065
 30
0.0
 11
1608.624788
 21
640.7730629999998
 31
0.0
  0
LINE
  5
398
330
6AF
100
AcDbEntity
  8
DETAIL
  6
Continuous
 62
     5
100
AcDbLine
 10
2333.624766
 20
645.773063
 30
0.0
 11
2117.624772
 21
645.773063
 31
0.0
  0
LINE
  5
399
330
6AF
100
AcDbEntity
  8
DETAIL
  6
Continuous
 62
     5
100
AcDbLine
 10
2117.624772
 20
575.773065
 30
0.0
 11
2333.624766
 21
575.773065
 31
0.0
  0
LINE
  5
39A
330
6AF
100
AcDbEntity
  8
DETAIL
  6
Continuous
 62
     5
100
AcDbLine
 10
2112.624772
 20
640.7730629999998
 30
0.0
 11
2117.624772
 21
645.773063
 31
0.0
  0
LINE
  5
39B
330
6AF
100
AcDbEntity
  8
DETAIL
  6
Continuous
 62
     5
100
AcDbLine
 10
2117.624772
 20
575.773065
 30
0.0
 11
2112.624772
 21
580.773065
 31
0.0
  0
LINE
  5
39C
330
6AF
100
AcDbEntity
  8
DETAIL
  6
Continuous
 62
     5
100
AcDbLine
 10
2112.624772
 20
580.773065
 30
0.0
 11
2112.624772
 21
640.7730629999998
 31
0.0
  0
LINE
  5
39D
330
6AF
100
AcDbEntity
  8
DETAIL
  6
Continuous
 62
     5
100
AcDbLine
 10
2333.624766
 20
645.773063
 30
0.0
 11
2338.624765
 21
640.7730629999998
 31
0.0
  0
LINE
  5
39E
330
6AF
100
AcDbEntity
  8
DETAIL
  6
Continuous
 62
     5
100
AcDbLine
 10
2338.624765
 20
580.773065
 30
0.0
 11
2333.624766
 21
575.773065
 31
0.0
  0
LINE
  5
39F
330
6AF
100
AcDbEntity
  8
DETAIL
  6
Continuous
 62
     5
100
AcDbLine
 10
2338.624765
 20
580.773065
 30
0.0
 11
2338.624765
 21
640.7730629999998
 31
0.0
  0
CIRCLE
  5
3A0
330
6AF
100
AcDbEntity
  8
DETAIL
  6
Continuous
 62
     5
100
AcDbCircle
 10
1668.124786
 20
1494.773037
 30
0.0
 40
1.45
  0
CIRCLE
  5
3A1
330
6AF
100
AcDbEntity
  8
DETAIL
  6
Continuous
 62
     5
100
AcDbCircle
 10
2053.124774
 20
1494.773037
 30
0.0
 40
1.45
  0
LINE
  5
3A2
330
6AF
100
AcDbEntity
  8
NOTE
  6
Continuous
 62
     4
100
AcDbLine
 10
2781.251617000001
 20
1600.153913
 30
0.0
 11
2570.624758
 21
890.7730650000003
 31
0.0
  0
LINE
  5
3A3
330
6AF
100
AcDbEntity
  8
NOTE
  6
Continuous
 62
     4
100
AcDbLine
 10
2798.460304
 20
1370.533496
 30
0.0
 11
2570.624758
 21
840.7730650000001
 31
0.0
  0
LINE
  5
3A4
330
6AF
100
AcDbEntity
  8
DETAIL
  6
Continuous
 62
     5
100
AcDbLine
 10
2528.62476
 20
695.7730650000002
 30
0.0
 11
2528.62476
 21
1219.773045
 31
0.0
  0
LINE
  5
3A5
330
6AF
100
AcDbEntity
  8
SIZE
  6
Continuous
 62
    30
100
AcDbLine
 10
2606.231424000001
 20
890.7730650000003
 30
0.0
 11
3303.781379
 21
890.7730650000003
 31
0.0
  0
LINE
  5
3A6
330
6AF
100
AcDbEntity
  8
SIZE
  6
Continuous
 62
    30
100
AcDbLine
 10
2606.231424000001
 20
840.7730650000001
 30
0.0
 11
3303.781379
 21
840.7730650000001
 31
0.0
  0
LINE
  5
3A7
330
6AF
100
AcDbEntity
  8
SIZE
  6
Continuous
 62
    30
100
AcDbLine
 10
2606.231424000001
 20
840.7730650000001
 30
0.0
 11
3303.781379
 21
840.7730650000001
 31
0.0
  0
LINE
  5
3A8
330
6AF
100
AcDbEntity
  8
SIZE
  6
Continuous
 62
    30
100
AcDbLine
 10
2606.231424000001
 20
775.773065
 30
0.0
 11
3303.781379
 21
775.773065
 31
0.0
  0
LINE
  5
3A9
330
6AF
100
AcDbEntity
  8
SIZE
  6
Continuous
 62
    30
100
AcDbLine
 10
2606.231424000001
 20
775.773065
 30
0.0
 11
3303.781379
 21
775.773065
 31
0.0
  0
LINE
  5
3AA
330
6AF
100
AcDbEntity
  8
SIZE
  6
Continuous
 62
    30
100
AcDbLine
 10
2621.62478
 20
565.7730650000002
 30
0.0
 11
3303.781379
 21
565.7730650000002
 31
0.0
  0
LINE
  5
3AB
330
6AF
100
AcDbEntity
  8
SIZE
  6
Continuous
 62
    30
100
AcDbLine
 10
2621.62478
 20
565.7730650000002
 30
0.0
 11
3148.999164
 21
565.7730650000002
 31
0.0
  0
LINE
  5
3AC
330
6AF
100
AcDbEntity
  8
SIZE
  6
Continuous
 62
    30
100
AcDbLine
 10
2590.624758
 20
695.7730650000002
 30
0.0
 11
3148.999164
 21
695.7730650000002
 31
0.0
  0
LINE
  5
3AD
330
6AF
100
AcDbEntity
  8
SIZE
  6
Continuous
 62
    30
100
AcDbLine
 10
2637.624758
 20
667.773065
 30
0.0
 11
2993.404887
 21
667.773065
 31
0.0
  0
LINE
  5
3AE
330
6AF
100
AcDbEntity
  8
SIZE
  6
Continuous
 62
    30
100
AcDbLine
 10
2621.62478
 20
565.7730650000002
 30
0.0
 11
2993.404887
 21
565.7730650000002
 31
0.0
  0
TEXT
  5
3AF
330
6AF
100
AcDbEntity
  8
NOTE
  6
Continuous
 62
     4
100
AcDbText
 10
2742.184932000001
 20
1060.965898
 30
0.0
 40
64.0
  1
EL4 %%C43
 41
0.9
100
AcDbText
  0
LINE
  5
3B0
330
6AF
100
AcDbEntity
  8
NOTE
  6
Continuous
 62
     4
100
AcDbLine
 10
2736.640674
 20
1038.449808
 30
0.0
 11
3085.914351
 21
1038.449808
 31
0.0
  0
LINE
  5
3B1
330
6AF
100
AcDbEntity
  8
NOTE
  6
Continuous
 62
     4
100
AcDbLine
 10
2570.624758
 20
840.7730650000001
 30
0.0
 11
2575.420065
 21
873.7596699999997
 31
0.0
  0
LINE
  5
3B2
330
6AF
100
AcDbEntity
  8
NOTE
  6
Continuous
 62
     4
100
AcDbLine
 10
2736.640674
 20
1038.449808
 30
0.0
 11
2570.615958
 21
775.8036490000002
 31
0.0
  0
CIRCLE
  5
3B3
330
6AF
100
AcDbEntity
  8
DETAIL
  6
Continuous
 62
     5
100
AcDbCircle
 10
2532.02476
 20
665.7730619999998
 30
0.0
 40
3.5
  0
CIRCLE
  5
3B4
330
6AF
100
AcDbEntity
  8
DETAIL
  6
Continuous
 62
     5
100
AcDbCircle
 10
2532.02476
 20
590.7730639999998
 30
0.0
 40
3.5
  0
LINE
  5
3B5
330
6AF
100
AcDbEntity
  8
DETAIL
  6
Continuous
 62
     5
100
AcDbLine
 10
2507.02476
 20
565.7730650000002
 30
0.0
 11
2507.02476
 21
695.7730650000002
 31
0.0
  0
POINT
  5
3B6
330
6AF
100
AcDbEntity
  8
DEFPOINTS
  6
Continuous
 62
     7
100
AcDbPoint
 10
2601.62478
 20
565.7730650000002
 30
0.0
  0
POINT
  5
3B7
330
6AF
100
AcDbEntity
  8
DEFPOINTS
  6
Continuous
 62
     7
100
AcDbPoint
 10
2601.62478
 20
565.7730650000002
 30
0.0
  0
POINT
  5
3B8
330
6AF
100
AcDbEntity
  8
DEFPOINTS
  6
Continuous
 62
     7
100
AcDbPoint
 10
2570.624758
 20
695.7730650000002
 30
0.0
  0
POINT
  5
3B9
330
6AF
100
AcDbEntity
  8
DEFPOINTS
  6
Continuous
 62
     7
100
AcDbPoint
 10
2601.62478
 20
565.7730650000002
 30
0.0
  0
POINT
  5
3BA
330
6AF
100
AcDbEntity
  8
DEFPOINTS
  6
Continuous
 62
     7
100
AcDbPoint
 10
2617.624758
 20
667.773065
 30
0.0
  0
POINT
  5
3BB
330
6AF
100
AcDbEntity
  8
DEFPOINTS
  6
Continuous
 62
     7
100
AcDbPoint
 10
2601.62478
 20
565.7730650000002
 30
0.0
  0
POINT
  5
3BC
330
6AF
100
AcDbEntity
  8
DEFPOINTS
  6
Continuous
 62
     7
100
AcDbPoint
 10
2601.62478
 20
565.7730650000002
 30
0.0
  0
POINT
  5
3BD
330
6AF
100
AcDbEntity
  8
DEFPOINTS
  6
Continuous
 62
     7
100
AcDbPoint
 10
2601.62478
 20
565.7730650000002
 30
0.0
  0
LINE
  5
3BE
330
6AF
100
AcDbEntity
  8
OUTLINE
  6
Continuous
 62
     3
100
AcDbLine
 10
2556.62478
 20
695.7730650000002
 30
0.0
 11
2556.62478
 21
565.7730650000002
 31
0.0
  0
POINT
  5
3BF
330
6AF
100
AcDbEntity
  8
DEFPOINTS
  6
Continuous
 62
     7
100
AcDbPoint
 10
2570.624758
 20
695.7730650000002
 30
0.0
  0
POINT
  5
3C0
330
6AF
100
AcDbEntity
  8
DEFPOINTS
  6
Continuous
 62
     7
100
AcDbPoint
 10
2556.62478
 20
568.073065
 30
0.0
  0
POINT
  5
3C1
330
6AF
100
AcDbEntity
  8
DEFPOINTS
  6
Continuous
 62
     7
100
AcDbPoint
 10
2570.624758
 20
695.7730650000002
 30
0.0
  0
POINT
  5
3C2
330
6AF
100
AcDbEntity
  8
DEFPOINTS
  6
Continuous
 62
     7
100
AcDbPoint
 10
2597.624758
 20
647.773065
 30
0.0
  0
LINE
  5
3C3
330
6AF
100
AcDbEntity
  8
NOTE
  6
Continuous
 62
     4
100
AcDbLine
 10
2567.62478
 20
565.7730650000002
 30
0.0
 11
2607.62478
 21
565.7730650000002
 31
0.0
  0
LINE
  5
3C4
330
6AF
100
AcDbEntity
  8
NOTE
  6
Continuous
 62
     4
100
AcDbLine
 10
2597.624758
 20
667.773065
 30
0.0
 11
2612.27991
 21
637.834168
 31
0.0
  0
LINE
  5
3C5
330
6AF
100
AcDbEntity
  8
NOTE
  6
Continuous
 62
     4
100
AcDbLine
 10
2597.624758
 20
667.773065
 30
0.0
 11
2625.28594
 21
649.1727959999998
 31
0.0
  0
LINE
  5
3C6
330
6AF
100
AcDbEntity
  8
NOTE
  6
Continuous
 62
     4
100
AcDbLine
 10
2577.624758
 20
667.773065
 30
0.0
 11
2617.624758
 21
667.773065
 31
0.0
  0
LINE
  5
3C7
330
6AF
100
AcDbEntity
  8
NOTE
  6
Continuous
 62
     4
100
AcDbLine
 10
2597.624758
 20
647.773065
 30
0.0
 11
2597.624758
 21
687.7730650000001
 31
0.0
  0
LINE
  5
3C8
330
6AF
100
AcDbEntity
  8
DETAIL
  6
Continuous
 62
     5
100
AcDbLine
 10
2556.62478
 20
568.073065
 30
0.0
 11
2556.62478
 21
695.7730650000002
 31
0.0
  0
LINE
  5
3C9
330
6AF
100
AcDbEntity
  8
DETAIL
  6
Continuous
 62
     5
100
AcDbLine
 10
2577.424758
 20
648.7730659999998
 30
0.0
 11
2577.424758
 21
686.7730639999998
 31
0.0
  0
LINE
  5
3CA
330
6AF
100
AcDbEntity
  8
DETAIL
  6
Continuous
 62
     5
100
AcDbLine
 10
2587.624758
 20
681.7730650000002
 30
0.0
 11
2577.424758
 21
681.7730650000002
 31
0.0
  0
LINE
  5
3CB
330
6AF
100
AcDbEntity
  8
DETAIL
  6
Continuous
 62
     5
100
AcDbLine
 10
2597.624758
 20
678.7730650000002
 30
0.0
 11
2597.624758
 21
656.7730650000002
 31
0.0
  0
LINE
  5
3CC
330
6AF
100
AcDbEntity
  8
DETAIL
  6
Continuous
 62
     5
100
AcDbLine
 10
2597.624758
 20
678.7730650000002
 30
0.0
 11
2587.624758
 21
678.7730650000002
 31
0.0
  0
LINE
  5
3CD
330
6AF
100
AcDbEntity
  8
DETAIL
  6
Continuous
 62
     5
100
AcDbLine
 10
2587.624758
 20
656.7730650000002
 30
0.0
 11
2597.624758
 21
656.7730650000002
 31
0.0
  0
LINE
  5
3CE
330
6AF
100
AcDbEntity
  8
DETAIL
  6
Continuous
 62
     5
100
AcDbLine
 10
2587.624758
 20
681.7730650000002
 30
0.0
 11
2587.624758
 21
653.7730650000002
 31
0.0
  0
LINE
  5
3CF
330
6AF
100
AcDbEntity
  8
DETAIL
  6
Continuous
 62
     5
100
AcDbLine
 10
2577.424758
 20
653.7730650000002
 30
0.0
 11
2587.624758
 21
653.7730650000002
 31
0.0
  0
LINE
  5
3D0
330
6AF
100
AcDbEntity
  8
DETAIL
  6
Continuous
 62
     5
100
AcDbLine
 10
2601.62478
 20
565.7730650000002
 30
0.0
 11
2601.62478
 21
568.073065
 31
0.0
  0
LINE
  5
3D1
330
6AF
100
AcDbEntity
  8
DETAIL
  6
Continuous
 62
     5
100
AcDbLine
 10
2557.024759
 20
648.7730659999998
 30
0.0
 11
2577.424758
 21
648.7730659999998
 31
0.0
  0
LINE
  5
3D2
330
6AF
100
AcDbEntity
  8
DETAIL
  6
Continuous
 62
     5
100
AcDbLine
 10
2577.424758
 20
686.7730639999998
 30
0.0
 11
2557.024759
 21
686.7730639999998
 31
0.0
  0
CIRCLE
  5
3D3
330
6AF
100
AcDbEntity
  8
DETAIL
  6
Continuous
 62
     5
100
AcDbCircle
 10
2512.62476
 20
819.773057
 30
0.0
 40
2.5
  0
POINT
  5
3D4
330
6AF
100
AcDbEntity
  8
DEFPOINTS
  6
Continuous
 62
     7
100
AcDbPoint
 10
2586.231424
 20
840.7730650000001
 30
0.0
  0
POINT
  5
3D5
330
6AF
100
AcDbEntity
  8
DEFPOINTS
  6
Continuous
 62
     7
100
AcDbPoint
 10
2586.231424
 20
840.7730650000001
 30
0.0
  0
POINT
  5
3D6
330
6AF
100
AcDbEntity
  8
DEFPOINTS
  6
Continuous
 62
     7
100
AcDbPoint
 10
2586.231424
 20
775.773065
 30
0.0
  0
POINT
  5
3D7
330
6AF
100
AcDbEntity
  8
DEFPOINTS
  6
Continuous
 62
     7
100
AcDbPoint
 10
2586.231424
 20
775.773065
 30
0.0
  0
LINE
  5
3D8
330
6AF
100
AcDbEntity
  8
NOTE
  6
Continuous
 62
     4
100
AcDbLine
 10
2570.624758
 20
840.7730650000001
 30
0.0
 11
2591.270918000001
 21
866.9426490000002
 31
0.0
  0
LINE
  5
3D9
330
6AF
100
AcDbEntity
  8
NOTE
  6
Continuous
 62
     4
100
AcDbLine
 10
2570.624758
 20
856.3797310000001
 30
0.0
 11
2570.624758
 21
825.166399
 31
0.0
  0
LINE
  5
3DA
330
6AF
100
AcDbEntity
  8
NOTE
  6
Continuous
 62
     4
100
AcDbLine
 10
2586.231424
 20
840.7730650000001
 30
0.0
 11
2555.018092
 21
840.7730650000001
 31
0.0
  0
LINE
  5
3DB
330
6AF
100
AcDbEntity
  8
NOTE
  6
Continuous
 62
     4
100
AcDbLine
 10
2570.615958
 20
775.8036490000002
 30
0.0
 11
2595.112293
 21
798.409856
 31
0.0
  0
LINE
  5
3DC
330
6AF
100
AcDbEntity
  8
NOTE
  6
Continuous
 62
     4
100
AcDbLine
 10
2570.624758
 20
791.379731
 30
0.0
 11
2570.624758
 21
760.166399
 31
0.0
  0
LINE
  5
3DD
330
6AF
100
AcDbEntity
  8
NOTE
  6
Continuous
 62
     4
100
AcDbLine
 10
2570.615958
 20
775.8036490000002
 30
0.0
 11
2580.527303
 21
807.6293660000001
 31
0.0
  0
LINE
  5
3DE
330
6AF
100
AcDbEntity
  8
NOTE
  6
Continuous
 62
     4
100
AcDbLine
 10
2586.231424
 20
775.773065
 30
0.0
 11
2555.018092
 21
775.773065
 31
0.0
  0
POINT
  5
3DF
330
6AF
100
AcDbEntity
  8
DEFPOINTS
  6
Continuous
 62
     7
100
AcDbPoint
 10
2586.231424
 20
890.7730650000003
 30
0.0
  0
LINE
  5
3E0
330
6AF
100
AcDbEntity
  8
NOTE
  6
Continuous
 62
     4
100
AcDbLine
 10
2570.624758
 20
890.7730650000003
 30
0.0
 11
2588.059738
 21
919.183143
 31
0.0
  0
LINE
  5
3E1
330
6AF
100
AcDbEntity
  8
NOTE
  6
Continuous
 62
     4
100
AcDbLine
 10
2570.624758
 20
906.3797309999999
 30
0.0
 11
2570.624758
 21
875.166399
 31
0.0
  0
LINE
  5
3E2
330
6AF
100
AcDbEntity
  8
NOTE
  6
Continuous
 62
     4
100
AcDbLine
 10
2570.624758
 20
890.7730650000003
 30
0.0
 11
2571.518854
 21
924.094404
 31
0.0
  0
LINE
  5
3E3
330
6AF
100
AcDbEntity
  8
NOTE
  6
Continuous
 62
     4
100
AcDbLine
 10
2586.231424
 20
890.7730650000003
 30
0.0
 11
2555.018092
 21
890.7730650000003
 31
0.0
  0
CIRCLE
  5
3E4
330
6AF
100
AcDbEntity
  8
DETAIL
  6
Continuous
 62
     5
100
AcDbCircle
 10
2512.62476
 20
1169.773047
 30
0.0
 40
2.5
  0
LINE
  5
3E5
330
6AF
100
AcDbEntity
  8
SIZE
  6
Continuous
 62
    30
100
AcDbLine
 10
3273.781379000001
 20
850.773065
 30
0.0
 11
3273.781379000001
 21
880.7730650000001
 31
0.0
  0
TEXT
  5
3E6
330
6AF
100
AcDbEntity
  8
SIZE
  6
Continuous
 62
    30
100
AcDbText
 10
3103.999164
 20
571.8444935714286
 30
0.0
 40
55.0
  1
130
 50
90.0
 41
0.9
 72
     1
 11
3103.999164
 21
630.773065
 31
0.0
100
AcDbText
  0
POINT
  5
3E7
330
6AF
100
AcDbEntity
  8
DEFPOINTS
  6
Continuous
 62
     7
100
AcDbPoint
 10
2963.404887
 20
667.773065
 30
0.0
  0
LINE
  5
3E8
330
6AF
100
AcDbEntity
  8
SIZE
  6
Continuous
 62
    30
100
AcDbLine
 10
2963.404887
 20
570.7730650000002
 30
0.0
 11
2963.404887
 21
575.773065
 31
0.0
  0
LINE
  5
3E9
330
6AF
100
AcDbEntity
  8
SIZE
  6
Continuous
 62
    30
100
AcDbLine
 10
2963.404887
 20
662.7730650000001
 30
0.0
 11
2963.404887
 21
657.7730650000002
 31
0.0
  0
CIRCLE
  5
3EA
330
6AF
100
AcDbEntity
  8
SIZE
  6
Continuous
 62
    30
100
AcDbCircle
 10
2963.404887
 20
667.773065
 30
0.0
 40
5.0
  0
LINE
  5
3EB
330
6AF
100
AcDbEntity
  8
SIZE
  6
Continuous
 62
    30
100
AcDbLine
 10
2963.404887
 20
657.7730650000002
 30
0.0
 11
2963.404887
 21
575.773065
 31
0.0
  0
TEXT
  5
3EC
330
6AF
100
AcDbEntity
  8
SIZE
  6
Continuous
 62
    30
100
AcDbText
 10
3258.781379
 20
611.8444935714287
 30
0.0
 40
55.0
  1
210
 50
90.0
 41
0.9
 72
     1
 11
3258.781379
 21
670.7730650000002
 31
0.0
100
AcDbText
  0
LINE
  5
3ED
330
6AF
100
AcDbEntity
  8
SIZE
  6
Continuous
 62
    30
100
AcDbLine
 10
3273.781379000001
 20
575.773065
 30
0.0
 11
3273.781379000001
 21
765.7730650000002
 31
0.0
  0
POINT
  5
3EE
330
6AF
100
AcDbEntity
  8
DEFPOINTS
  6
Continuous
 62
     7
100
AcDbPoint
 10
3118.999164
 20
565.7730650000002
 30
0.0
  0
LINE
  5
3EF
330
6AF
100
AcDbEntity
  8
SIZE
  6
Continuous
 62
    30
100
AcDbLine
 10
3118.999164
 20
570.7730650000002
 30
0.0
 11
3118.999164
 21
575.773065
 31
0.0
  0
LINE
  5
3F0
330
6AF
100
AcDbEntity
  8
SIZE
  6
Continuous
 62
    30
100
AcDbLine
 10
3118.999164
 20
690.7730650000002
 30
0.0
 11
3118.999164
 21
685.773065
 31
0.0
  0
CIRCLE
  5
3F1
330
6AF
100
AcDbEntity
  8
SIZE
  6
Continuous
 62
    30
100
AcDbCircle
 10
3118.999164
 20
695.7730650000002
 30
0.0
 40
5.0
  0
LINE
  5
3F2
330
6AF
100
AcDbEntity
  8
SIZE
  6
Continuous
 62
    30
100
AcDbLine
 10
3118.999164
 20
685.773065
 30
0.0
 11
3118.999164
 21
575.773065
 31
0.0
  0
LINE
  5
3F3
330
6AF
100
AcDbEntity
  8
SIZE
  6
Continuous
 62
    30
100
AcDbLine
 10
3273.781379000001
 20
570.7730650000002
 30
0.0
 11
3273.781379000001
 21
575.773065
 31
0.0
  0
LINE
  5
3F4
330
6AF
100
AcDbEntity
  8
SIZE
  6
Continuous
 62
    30
100
AcDbLine
 10
3273.781379000001
 20
845.773065
 30
0.0
 11
3273.781379000001
 21
850.773065
 31
0.0
  0
CIRCLE
  5
3F5
330
6AF
100
AcDbEntity
  8
SIZE
  6
Continuous
 62
    30
100
AcDbCircle
 10
3273.781379000001
 20
840.7730650000001
 30
0.0
 40
5.0
  0
POINT
  5
3F6
330
6AF
100
AcDbEntity
  8
DEFPOINTS
  6
Continuous
 62
     7
100
AcDbPoint
 10
3273.781379000001
 20
840.7730650000001
 30
0.0
  0
LINE
  5
3F7
330
6AF
100
AcDbEntity
  8
SIZE
  6
Continuous
 62
    30
100
AcDbLine
 10
3273.781379000001
 20
835.773065
 30
0.0
 11
3273.781379000001
 21
830.7730650000001
 31
0.0
  0
CIRCLE
  5
3F8
330
6AF
100
AcDbEntity
  8
SIZE
  6
Continuous
 62
    30
100
AcDbCircle
 10
3273.781379000001
 20
840.7730650000001
 30
0.0
 40
5.0
  0
LINE
  5
3F9
330
6AF
100
AcDbEntity
  8
SIZE
  6
Continuous
 62
    30
100
AcDbLine
 10
3273.781379000001
 20
780.773065
 30
0.0
 11
3273.781379000001
 21
785.7730650000002
 31
0.0
  0
CIRCLE
  5
3FA
330
6AF
100
AcDbEntity
  8
SIZE
  6
Continuous
 62
    30
100
AcDbCircle
 10
3273.781379000001
 20
775.773065
 30
0.0
 40
5.0
  0
LINE
  5
3FB
330
6AF
100
AcDbEntity
  8
SIZE
  6
Continuous
 62
    30
100
AcDbLine
 10
3273.781379000001
 20
785.7730650000002
 30
0.0
 11
3273.781379000001
 21
830.7730650000001
 31
0.0
  0
POINT
  5
3FC
330
6AF
100
AcDbEntity
  8
DEFPOINTS
  6
Continuous
 62
     7
100
AcDbPoint
 10
3273.781379000001
 20
775.773065
 30
0.0
  0
LINE
  5
3FD
330
6AF
100
AcDbEntity
  8
SIZE
  6
Continuous
 62
    30
100
AcDbLine
 10
3273.781379000001
 20
770.7730650000002
 30
0.0
 11
3273.781379000001
 21
765.7730650000002
 31
0.0
  0
CIRCLE
  5
3FE
330
6AF
100
AcDbEntity
  8
SIZE
  6
Continuous
 62
    30
100
AcDbCircle
 10
3273.781379000001
 20
775.773065
 30
0.0
 40
5.0
  0
TEXT
  5
3FF
330
6AF
100
AcDbEntity
  8
SIZE
  6
Continuous
 62
    30
100
AcDbText
 10
3258.781379
 20
927.3601604285714
 30
0.0
 40
55.0
  1
50
 50
90.0
 41
0.9
 72
     1
 11
3258.781379
 21
967.431589
 31
0.0
100
AcDbText
  0
POINT
  5
400
330
6AF
100
AcDbEntity
  8
DEFPOINTS
  6
Continuous
 62
     7
100
AcDbPoint
 10
3273.781379000001
 20
890.7730650000003
 30
0.0
  0
LINE
  5
401
330
6AF
100
AcDbEntity
  8
SIZE
  6
Continuous
 62
    30
100
AcDbLine
 10
3273.781379000001
 20
885.773065
 30
0.0
 11
3273.781379000001
 21
880.7730650000001
 31
0.0
  0
CIRCLE
  5
402
330
6AF
100
AcDbEntity
  8
SIZE
  6
Continuous
 62
    30
100
AcDbCircle
 10
3273.781379000001
 20
890.7730650000003
 30
0.0
 40
5.0
  0
LINE
  5
403
330
6AF
100
AcDbEntity
  8
SIZE
  6
Continuous
 62
    30
100
AcDbLine
 10
3273.781379000001
 20
1022.503018
 30
0.0
 11
3273.781379000001
 21
890.7730650000003
 31
0.0
  0
LINE
  5
404
330
6AF
100
AcDbEntity
  8
NOTE
  6
Continuous
 62
     4
100
AcDbLine
 10
2841.204326
 20
1509.80666
 30
0.0
 11
2889.204324
 21
1465.806662
 31
0.0
  0
LINE
  5
405
330
6AF
100
AcDbEntity
  8
NOTE
  6
Continuous
 62
     4
100
AcDbLine
 10
2841.204326
 20
1509.80666
 30
0.0
 11
2889.204324
 21
1553.806659
 31
0.0
  0
TEXT
  5
406
330
6AF
100
AcDbEntity
  8
NOTE
  6
Continuous
 62
     4
100
AcDbText
 10
2805.046493
 20
1391.250745
 30
0.0
 40
64.0
  1
CL2 %%C27
 41
0.9
100
AcDbText
  0
LINE
  5
407
330
6AF
100
AcDbEntity
  8
NOTE
  6
Continuous
 62
     4
100
AcDbLine
 10
2798.460304
 20
1370.533496
 30
0.0
 11
3154.885741
 21
1370.533496
 31
0.0
  0
TEXT
  5
408
330
6AF
100
AcDbEntity
  8
NOTE
  6
Continuous
 62
     4
100
AcDbText
 10
2794.598626
 20
1613.490073
 30
0.0
 40
64.0
  1
EL3 %%C27
 41
0.9
100
AcDbText
  0
LINE
  5
409
330
6AF
100
AcDbEntity
  8
NOTE
  6
Continuous
 62
     4
100
AcDbLine
 10
2781.251617000001
 20
1600.153913
 30
0.0
 11
3123.508769
 21
1600.153913
 31
0.0
  0
LINE
  5
40A
330
6AF
100
AcDbEntity
  8
DETAIL
  6
Continuous
 62
     5
100
AcDbLine
 10
2503.624760000001
 20
1474.773037
 30
0.0
 11
2503.624760000001
 21
1485.573037
 31
0.0
  0
LINE
  5
40B
330
6AF
100
AcDbEntity
  8
DETAIL
  6
Continuous
 62
     5
100
AcDbLine
 10
2525.62476
 20
1485.573037
 30
0.0
 11
2525.62476
 21
1240.773044
 31
0.0
  0
LINE
  5
40C
330
6AF
100
AcDbEntity
  8
DETAIL
  6
Continuous
 62
     5
100
AcDbLine
 10
2525.62476
 20
1239.773044
 30
0.0
 11
2525.62476
 21
1222.773045
 31
0.0
  0
LINE
  5
40D
330
6AF
100
AcDbEntity
  8
DETAIL
  6
Continuous
 62
     5
100
AcDbLine
 10
2528.62476
 20
1219.773045
 30
0.0
 11
2523.624760000001
 21
1224.773045
 31
0.0
  0
LINE
  5
40E
330
6AF
100
AcDbEntity
  8
DETAIL
  6
Continuous
 62
     5
100
AcDbLine
 10
2503.624760000001
 20
1224.773045
 30
0.0
 11
2503.624760000001
 21
1239.773044
 31
0.0
  0
LINE
  5
40F
330
6AF
100
AcDbEntity
  8
DETAIL
  6
Continuous
 62
     5
100
AcDbLine
 10
2503.624760000001
 20
1224.773045
 30
0.0
 11
2523.624760000001
 21
1224.773045
 31
0.0
  0
POINT
  5
410
330
6AF
100
AcDbEntity
  8
DEFPOINTS
  6
Continuous
 62
     7
100
AcDbPoint
 10
2586.231424
 20
1195.773065
 30
0.0
  0
LINE
  5
411
330
6AF
100
AcDbEntity
  8
NOTE
  6
Continuous
 62
     4
100
AcDbLine
 10
2570.624758
 20
1195.773065
 30
0.0
 11
2583.898765
 21
1226.349392
 31
0.0
  0
LINE
  5
412
330
6AF
100
AcDbEntity
  8
NOTE
  6
Continuous
 62
     4
100
AcDbLine
 10
2570.624758
 20
1211.379731
 30
0.0
 11
2570.624758
 21
1180.166399
 31
0.0
  0
LINE
  5
413
330
6AF
100
AcDbEntity
  8
NOTE
  6
Continuous
 62
     4
100
AcDbLine
 10
2570.624758
 20
1195.773065
 30
0.0
 11
2566.832221
 21
1228.889944
 31
0.0
  0
LINE
  5
414
330
6AF
100
AcDbEntity
  8
NOTE
  6
Continuous
 62
     4
100
AcDbLine
 10
2586.231424
 20
1195.773065
 30
0.0
 11
2555.018092
 21
1195.773065
 31
0.0
  0
LINE
  5
415
330
6AF
100
AcDbEntity
  8
DETAIL
  6
Continuous
 62
     5
100
AcDbLine
 10
2503.624760000001
 20
1485.573037
 30
0.0
 11
2563.624759
 21
1485.573037
 31
0.0
  0
CIRCLE
  5
416
330
6AF
100
AcDbEntity
  8
DETAIL
  6
Continuous
 62
     5
100
AcDbCircle
 10
2438.124762
 20
1494.773037
 30
0.0
 40
1.45
  0
CIRCLE
  5
417
330
6AF
100
AcDbEntity
  8
DETAIL
  6
Continuous
 62
     5
100
AcDbCircle
 10
2548.624759
 20
1529.773036
 30
0.0
 40
2.5
  0
LINE
  5
418
330
6AF
100
AcDbEntity
  8
NOTE
  6
Continuous
 62
     4
100
AcDbLine
 10
2889.204324
 20
1489.806661
 30
0.0
 11
2889.204324
 21
1465.806662
 31
0.0
  0
TEXT
  5
419
330
6AF
100
AcDbEntity
  8
NOTE
  6
Continuous
 62
     4
100
AcDbText
 10
2998.302603
 20
1493.432908
 30
0.0
 40
46.666665
  1
外気取込
 50
0.000003
 41
0.8404759999999999
  7
STANDARD1
100
AcDbText
  0
LINE
  5
41A
330
6AF
100
AcDbEntity
  8
NOTE
  6
Continuous
 62
     4
100
AcDbLine
 10
2889.204324
 20
1553.806659
 30
0.0
 11
2889.204324
 21
1529.80666
 31
0.0
  0
LINE
  5
41B
330
6AF
100
AcDbEntity
  8
NOTE
  6
Continuous
 62
     4
100
AcDbLine
 10
2889.204324
 20
1529.80666
 30
0.0
 11
2953.204322
 21
1529.80666
 31
0.0
  0
LINE
  5
41C
330
6AF
100
AcDbEntity
  8
NOTE
  6
Continuous
 62
     4
100
AcDbLine
 10
2889.204324
 20
1489.806661
 30
0.0
 11
2953.204322
 21
1489.806661
 31
0.0
  0
LINE
  5
41D
330
6AF
100
AcDbEntity
  8
NOTE
  6
Continuous
 62
     4
100
AcDbLine
 10
2953.204322
 20
1529.80666
 30
0.0
 11
2953.204322
 21
1489.806661
 31
0.0
  0
LINE
  5
41E
330
6AF
100
AcDbEntity
  8
OUTLINE
  6
Continuous
 62
     3
100
AcDbLine
 10
1150.624802
 20
2365.773010000001
 30
0.0
 11
2570.624758
 21
2365.773010000001
 31
0.0
  0
LINE
  5
41F
330
6AF
100
AcDbEntity
  8
DETAIL
  6
Continuous
 62
     5
100
AcDbLine
 10
1150.624802
 20
2565.773004
 30
0.0
 11
2570.624758
 21
2565.773004
 31
0.0
  0
LINE
  5
420
330
6AF
100
AcDbEntity
  8
DETAIL
  6
Continuous
 62
     5
100
AcDbLine
 10
1187.624801
 20
2365.773010000001
 30
0.0
 11
2533.624759
 21
2365.773010000001
 31
0.0
  0
LINE
  5
421
330
6AF
100
AcDbEntity
  8
DETAIL
  6
Continuous
 62
     5
100
AcDbLine
 10
1192.6248
 20
2365.773010000001
 30
0.0
 11
2528.62476
 21
2365.773010000001
 31
0.0
  0
LINE
  5
422
330
6AF
100
AcDbEntity
  8
DETAIL
  6
Continuous
 62
     5
100
AcDbLine
 10
1157.624801
 20
2148.473017
 30
0.0
 11
2563.624759
 21
2148.473017
 31
0.0
  0
LINE
  5
423
330
6AF
100
AcDbEntity
  8
DETAIL
  6
Continuous
 62
     5
100
AcDbLine
 10
1157.624801
 20
2143.073017
 30
0.0
 11
2563.624759
 21
2143.073017
 31
0.0
  0
LINE
  5
424
330
6AF
100
AcDbEntity
  8
DETAIL
  6
Continuous
 62
     5
100
AcDbLine
 10
1157.624801
 20
1923.473024
 30
0.0
 11
2563.624759
 21
1923.473024
 31
0.0
  0
LINE
  5
425
330
6AF
100
AcDbEntity
  8
DETAIL
  6
Continuous
 62
     5
100
AcDbLine
 10
1157.624801
 20
1918.073024
 30
0.0
 11
2563.624759
 21
1918.073024
 31
0.0
  0
TEXT
  5
426
330
6AF
100
AcDbEntity
  8
ETC
  6
Continuous
 62
    61
100
AcDbText
 10
422.9374269999998
 20
2592.768083
 30
0.0
 40
64.0
  1
KFH-P10A_3
 41
0.9
100
AcDbText
  0
TEXT
  5
427
330
6AF
100
AcDbEntity
  8
NOTE
  6
Continuous
 62
     4
100
AcDbText
 10
634.516416
 20
1885.833863
 30
0.0
 40
64.0
  1
D1 Rc1-1/4
 41
0.9
100
AcDbText
  0
LINE
  5
428
330
6AF
100
AcDbEntity
  8
NOTE
  6
Continuous
 62
     4
100
AcDbLine
 10
1050.981669
 20
1865.015064999999
 30
0.0
 11
636.253099
 21
1865.015061
 31
0.0
  0
LINE
  5
429
330
6AF
100
AcDbEntity
  8
DETAIL
  6
Continuous
 62
     5
100
AcDbLine
 10
1187.624801
 20
2416.420616
 30
0.0
 11
1187.624801
 21
2315.125404
 31
0.0
  0
LINE
  5
42A
330
6AF
100
AcDbEntity
  8
DETAIL
  6
Continuous
 62
     5
100
AcDbLine
 10
1157.624801
 20
2416.420616
 30
0.0
 11
1157.624801
 21
2315.125404
 31
0.0
  0
CIRCLE
  5
42B
330
6AF
100
AcDbEntity
  8
DETAIL
  6
Continuous
 62
     5
100
AcDbCircle
 10
1172.624801
 20
1805.773027
 30
0.0
 40
2.5
  0
CIRCLE
  5
42C
330
6AF
100
AcDbEntity
  8
DETAIL
  6
Continuous
 62
     5
100
AcDbCircle
 10
1172.624801
 20
2030.77302
 30
0.0
 40
2.5
  0
LINE
  5
42D
330
6AF
100
AcDbEntity
  8
DETAIL
  6
Continuous
 62
     5
100
AcDbLine
 10
1187.624801
 20
2315.125404
 30
0.0
 11
1182.624801
 21
2310.125404
 31
0.0
  0
LINE
  5
42E
330
6AF
100
AcDbEntity
  8
DETAIL
  6
Continuous
 62
     5
100
AcDbLine
 10
1157.624801
 20
2315.125404
 30
0.0
 11
1162.624801
 21
2310.125404
 31
0.0
  0
LINE
  5
42F
330
6AF
100
AcDbEntity
  8
DETAIL
  6
Continuous
 62
     5
100
AcDbLine
 10
1182.624801
 20
2310.125404
 30
0.0
 11
1162.624801
 21
2310.125404
 31
0.0
  0
CIRCLE
  5
430
330
6AF
100
AcDbEntity
  8
DETAIL
  6
Continuous
 62
     5
100
AcDbCircle
 10
1172.624801
 20
2320.773010999999
 30
0.0
 40
2.5
  0
LINE
  5
431
330
6AF
100
AcDbEntity
  8
DETAIL
  6
Continuous
 62
     5
100
AcDbLine
 10
1187.624801
 20
2416.420616
 30
0.0
 11
1182.624801
 21
2421.420616
 31
0.0
  0
LINE
  5
432
330
6AF
100
AcDbEntity
  8
DETAIL
  6
Continuous
 62
     5
100
AcDbLine
 10
1157.624801
 20
2416.420616
 30
0.0
 11
1162.624801
 21
2421.420616
 31
0.0
  0
LINE
  5
433
330
6AF
100
AcDbEntity
  8
DETAIL
  6
Continuous
 62
     5
100
AcDbLine
 10
1182.624801
 20
2421.420616
 30
0.0
 11
1162.624801
 21
2421.420616
 31
0.0
  0
CIRCLE
  5
434
330
6AF
100
AcDbEntity
  8
DETAIL
  6
Continuous
 62
     5
100
AcDbCircle
 10
1172.624801
 20
2410.773009
 30
0.0
 40
2.5
  0
LINE
  5
435
330
6AF
100
AcDbEntity
  8
DETAIL
  6
Continuous
 62
     5
100
AcDbLine
 10
2570.624758
 20
2565.773004
 30
0.0
 11
2570.624758
 21
2365.773010000001
 31
0.0
  0
LINE
  5
436
330
6AF
100
AcDbEntity
  8
DETAIL
  6
Continuous
 62
     5
100
AcDbLine
 10
2533.624759
 20
2416.420616
 30
0.0
 11
2533.624759
 21
2315.125404
 31
0.0
  0
LINE
  5
437
330
6AF
100
AcDbEntity
  8
DETAIL
  6
Continuous
 62
     5
100
AcDbLine
 10
2563.624759
 20
2416.420616
 30
0.0
 11
2563.624759
 21
2315.125404
 31
0.0
  0
TEXT
  5
438
330
6AF
100
AcDbEntity
  8
NOTE
  6
Continuous
 62
     4
100
AcDbText
 10
2659.931279
 20
1885.858211
 30
0.0
 40
64.0
  1
D3 Rc1-1/4
 41
0.9
100
AcDbText
  0
LINE
  5
439
330
6AF
100
AcDbEntity
  8
NOTE
  6
Continuous
 62
     4
100
AcDbLine
 10
2670.267891
 20
1865.292465
 30
0.0
 11
3168.531068
 21
1865.292496
 31
0.0
  0
CIRCLE
  5
43A
330
6AF
100
AcDbEntity
  8
DETAIL
  6
Continuous
 62
     5
100
AcDbCircle
 10
2548.624759
 20
1805.773027
 30
0.0
 40
2.5
  0
CIRCLE
  5
43B
330
6AF
100
AcDbEntity
  8
DETAIL
  6
Continuous
 62
     5
100
AcDbCircle
 10
2548.624759
 20
2030.77302
 30
0.0
 40
2.5
  0
LINE
  5
43C
330
6AF
100
AcDbEntity
  8
DETAIL
  6
Continuous
 62
     5
100
AcDbLine
 10
2538.624759
 20
2310.125404
 30
0.0
 11
2558.624759
 21
2310.125404
 31
0.0
  0
LINE
  5
43D
330
6AF
100
AcDbEntity
  8
DETAIL
  6
Continuous
 62
     5
100
AcDbLine
 10
2533.624759
 20
2315.125404
 30
0.0
 11
2538.624759
 21
2310.125404
 31
0.0
  0
POINT
  5
43E
330
6AF
100
AcDbEntity
  8
DEFPOINTS
  6
Continuous
 62
     7
100
AcDbPoint
 10
2570.624758
 20
2365.773010000001
 30
0.0
  0
POINT
  5
43F
330
6AF
100
AcDbEntity
  8
DEFPOINTS
  6
Continuous
 62
     7
100
AcDbPoint
 10
2570.624758
 20
2365.773004
 30
0.0
  0
LINE
  5
440
330
6AF
100
AcDbEntity
  8
DETAIL
  6
Continuous
 62
     5
100
AcDbLine
 10
2563.624759
 20
2315.125404
 30
0.0
 11
2558.624759
 21
2310.125404
 31
0.0
  0
CIRCLE
  5
441
330
6AF
100
AcDbEntity
  8
DETAIL
  6
Continuous
 62
     5
100
AcDbCircle
 10
2548.624759
 20
2320.773010999999
 30
0.0
 40
2.5
  0
CIRCLE
  5
442
330
6AF
100
AcDbEntity
  8
DETAIL
  6
Continuous
 62
     5
100
AcDbCircle
 10
2548.624759
 20
2320.773010999999
 30
0.0
 40
2.5
  0
LINE
  5
443
330
6AF
100
AcDbEntity
  8
DETAIL
  6
Continuous
 62
     5
100
AcDbLine
 10
2538.624759
 20
2421.420616
 30
0.0
 11
2558.624759
 21
2421.420616
 31
0.0
  0
LINE
  5
444
330
6AF
100
AcDbEntity
  8
DETAIL
  6
Continuous
 62
     5
100
AcDbLine
 10
2533.624759
 20
2416.420616
 30
0.0
 11
2538.624759
 21
2421.420616
 31
0.0
  0
LINE
  5
445
330
6AF
100
AcDbEntity
  8
DETAIL
  6
Continuous
 62
     5
100
AcDbLine
 10
2563.624759
 20
2416.420616
 30
0.0
 11
2558.624759
 21
2421.420616
 31
0.0
  0
CIRCLE
  5
446
330
6AF
100
AcDbEntity
  8
DETAIL
  6
Continuous
 62
     5
100
AcDbCircle
 10
2548.624759
 20
2410.773009
 30
0.0
 40
2.5
  0
POINT
  5
447
330
6AF
100
AcDbEntity
  8
DEFPOINTS
  6
Continuous
 62
     7
100
AcDbPoint
 10
2590.624758
 20
2565.773004
 30
0.0
  0
POINT
  5
448
330
6AF
100
AcDbEntity
  8
DEFPOINTS
  6
Continuous
 62
     7
100
AcDbPoint
 10
2570.624758
 20
2565.773004
 30
0.0
  0
LINE
  5
449
330
6AF
100
AcDbEntity
  8
SIZE
  6
Continuous
 62
    30
100
AcDbLine
 10
3882.061032
 20
575.773065
 30
0.0
 11
3882.061032
 21
2555.773004000001
 31
0.0
  0
LINE
  5
44A
330
6AF
100
AcDbEntity
  8
SIZE
  6
Continuous
 62
    30
100
AcDbLine
 10
3733.649304
 20
2355.77301
 30
0.0
 11
3733.649304
 21
575.773065
 31
0.0
  0
CIRCLE
  5
44B
330
6AF
100
AcDbEntity
  8
SIZE
  6
Continuous
 62
    30
100
AcDbCircle
 10
3545.628663000002
 20
565.7730650000002
 30
0.0
 40
5.0
  0
CIRCLE
  5
44C
330
6AF
100
AcDbEntity
  8
SIZE
  6
Continuous
 62
    30
100
AcDbCircle
 10
3882.061032
 20
565.7730650000002
 30
0.0
 40
5.0
  0
CIRCLE
  5
44D
330
6AF
100
AcDbEntity
  8
SIZE
  6
Continuous
 62
    30
100
AcDbCircle
 10
3733.649304
 20
565.7730650000002
 30
0.0
 40
5.0
  0
LINE
  5
44E
330
6AF
100
AcDbEntity
  8
SIZE
  6
Continuous
 62
    30
100
AcDbLine
 10
3545.628663000002
 20
1185.773065
 30
0.0
 11
3545.628663000002
 21
575.773065
 31
0.0
  0
TEXT
  5
44F
330
6AF
100
AcDbEntity
  8
SIZE
  6
Continuous
 62
    30
100
AcDbText
 10
3530.628663
 20
800.8008578571427
 30
0.0
 40
55.0
  1
630
 50
90.0
 41
0.9
 72
     1
 11
3530.628663
 21
864.4437149999999
 31
0.0
100
AcDbText
  0
TEXT
  5
450
330
6AF
100
AcDbEntity
  8
SIZE
  6
Continuous
 62
    30
100
AcDbText
 10
3401.903101
 20
655.7486964285714
 30
0.0
 40
55.0
  1
65
 50
90.0
 41
0.9
 72
     1
 11
3401.903101
 21
695.820125
 31
0.0
100
AcDbText
  0
LINE
  5
451
330
6AF
100
AcDbEntity
  8
SIZE
  6
Continuous
 62
    30
100
AcDbLine
 10
3416.903101
 20
750.891554
 30
0.0
 11
3416.903101
 21
640.7486969999999
 31
0.0
  0
POINT
  5
452
330
6AF
100
AcDbEntity
  8
DEFPOINTS
  6
Continuous
 62
     7
100
AcDbPoint
 10
3545.628663000002
 20
565.7730650000002
 30
0.0
  0
LINE
  5
453
330
6AF
100
AcDbEntity
  8
SIZE
  6
Continuous
 62
    30
100
AcDbLine
 10
3545.628663000002
 20
570.7730650000002
 30
0.0
 11
3545.628663000002
 21
575.773065
 31
0.0
  0
POINT
  5
454
330
6AF
100
AcDbEntity
  8
DEFPOINTS
  6
Continuous
 62
     7
100
AcDbPoint
 10
3733.649304
 20
565.7730650000002
 30
0.0
  0
LINE
  5
455
330
6AF
100
AcDbEntity
  8
SIZE
  6
Continuous
 62
    30
100
AcDbLine
 10
3733.649304
 20
570.7730650000002
 30
0.0
 11
3733.649304
 21
575.773065
 31
0.0
  0
LINE
  5
456
330
6AF
100
AcDbEntity
  8
SIZE
  6
Continuous
 62
    30
100
AcDbLine
 10
3882.061032
 20
570.7730650000002
 30
0.0
 11
3882.061032
 21
575.773065
 31
0.0
  0
TEXT
  5
457
330
6AF
100
AcDbEntity
  8
SIZE
  6
Continuous
 62
    30
100
AcDbText
 10
3718.649304
 20
1383.273038
 30
0.0
 40
55.0
  1
1800
 50
90.0
 41
0.9
 72
     1
 11
3718.649304
 21
1465.773038
 31
0.0
100
AcDbText
  0
CIRCLE
  5
458
330
6AF
100
AcDbEntity
  8
SIZE
  6
Continuous
 62
    30
100
AcDbCircle
 10
3545.628663000002
 20
1195.773065
 30
0.0
 40
5.0
  0
LINE
  5
459
330
6AF
100
AcDbEntity
  8
SIZE
  6
Continuous
 62
    30
100
AcDbLine
 10
3545.628663000002
 20
1190.773065
 30
0.0
 11
3545.628663000002
 21
1185.773065
 31
0.0
  0
TEXT
  5
45A
330
6AF
100
AcDbEntity
  8
SIZE
  6
Continuous
 62
    30
100
AcDbText
 10
3867.061032
 20
1478.558748285714
 30
0.0
 40
55.0
  1
2000
 50
90.0
 41
0.9
 72
     1
 11
3867.061032
 21
1565.773034
 31
0.0
100
AcDbText
  0
TEXT
  5
45B
330
6AF
100
AcDbEntity
  8
SIZE
  6
Continuous
 62
    30
100
AcDbText
 10
3710.244542
 20
2370.308718285714
 30
0.0
 40
55.0
  1
(200)
 50
90.0
 41
0.9
 72
     1
 11
3710.244542
 21
2465.773004
 31
0.0
100
AcDbText
  0
LINE
  5
45C
330
6AF
100
AcDbEntity
  8
SIZE
  6
Continuous
 62
    30
100
AcDbLine
 10
3728.649304000002
 20
2375.773004
 30
0.0
 11
3728.649304000002
 21
2555.773004000001
 31
0.0
  0
LINE
  5
45D
330
6AF
100
AcDbEntity
  8
SIZE
  6
Continuous
 62
    30
100
AcDbLine
 10
3733.649304
 20
2360.77301
 30
0.0
 11
3733.649304
 21
2355.77301
 31
0.0
  0
CIRCLE
  5
45E
330
6AF
100
AcDbEntity
  8
SIZE
  6
Continuous
 62
    30
100
AcDbCircle
 10
3733.649304
 20
2365.773010000001
 30
0.0
 40
5.0
  0
LINE
  5
45F
330
6AF
100
AcDbEntity
  8
SIZE
  6
Continuous
 62
    30
100
AcDbLine
 10
3728.649304000002
 20
2370.773004
 30
0.0
 11
3728.649304000002
 21
2375.773004
 31
0.0
  0
CIRCLE
  5
460
330
6AF
100
AcDbEntity
  8
SIZE
  6
Continuous
 62
    30
100
AcDbCircle
 10
3728.649304000002
 20
2365.773004
 30
0.0
 40
5.0
  0
POINT
  5
461
330
6AF
100
AcDbEntity
  8
DEFPOINTS
  6
Continuous
 62
     7
100
AcDbPoint
 10
3728.649304000002
 20
2565.773004
 30
0.0
  0
LINE
  5
462
330
6AF
100
AcDbEntity
  8
SIZE
  6
Continuous
 62
    30
100
AcDbLine
 10
3728.649304000002
 20
2560.773004
 30
0.0
 11
3728.649304000002
 21
2555.773004000001
 31
0.0
  0
CIRCLE
  5
463
330
6AF
100
AcDbEntity
  8
SIZE
  6
Continuous
 62
    30
100
AcDbCircle
 10
3728.649304000002
 20
2565.773004
 30
0.0
 40
5.0
  0
CIRCLE
  5
464
330
6AF
100
AcDbEntity
  8
SIZE
  6
Continuous
 62
    30
100
AcDbCircle
 10
3882.061032
 20
2565.773004
 30
0.0
 40
5.0
  0
POINT
  5
465
330
6AF
100
AcDbEntity
  8
DEFPOINTS
  6
Continuous
 62
     7
100
AcDbPoint
 10
3882.061032
 20
2565.773004
 30
0.0
  0
LINE
  5
466
330
6AF
100
AcDbEntity
  8
SIZE
  6
Continuous
 62
    30
100
AcDbLine
 10
3882.061032
 20
2560.773004
 30
0.0
 11
3882.061032
 21
2555.773004000001
 31
0.0
  0
ENDBLK
  5
468
330
6AF
100
AcDbEntity
  8
0
 62
     7
100
AcDbBlockEnd
  0
ENDSEC
  0
SECTION
  2
ENTITIES
  0
LINE
  5
46A
330
692
100
AcDbEntity
  8
SIZE
100
AcDbLine
 10
1413.156599
 20
242.5
 30
0.0
 11
1556.278321
 21
185.118489
 31
0.0
  0
LINE
  5
46B
330
692
100
AcDbEntity
  8
SIZE
100
AcDbLine
 10
761.0
 20
0.0
 30
0.0
 11
1715.003883
 21
0.0
 31
0.0
  0
LINE
  5
46C
330
692
100
AcDbEntity
  8
SIZE
100
AcDbLine
 10
745.606644
 20
630.0
 30
0.0
 11
1715.003883
 21
630.0
 31
0.0
  0
LINE
  5
46D
330
692
100
AcDbEntity
  8
SIZE
100
AcDbLine
 10
749.999978
 20
1999.999939
 30
0.0
 11
2051.436252
 21
1999.999939
 31
0.0
  0
LINE
  5
46E
330
692
100
AcDbEntity
  8
SIZE
100
AcDbLine
 10
761.0
 20
0.0
 30
0.0
 11
2051.436252
 21
0.0
 31
0.0
  0
LINE
  5
46F
330
692
100
AcDbEntity
  8
SIZE
100
AcDbLine
 10
761.0
 20
0.0
 30
0.0
 11
1903.024524
 21
0.0
 31
0.0
  0
LINE
  5
470
330
692
100
AcDbEntity
  8
SIZE
100
AcDbLine
 10
729.999978
 20
1799.999945
 30
0.0
 11
1903.024524
 21
1799.999945
 31
0.0
  0
LINE
  5
471
330
692
100
AcDbEntity
  8
SIZE
100
AcDbLine
 10
729.999978
 20
1999.999939
 30
0.0
 11
1898.024524
 21
1999.999939
 31
0.0
  0
LINE
  5
472
330
692
100
AcDbEntity
  8
SIZE
100
AcDbLine
 10
729.999978
 20
1799.999939
 30
0.0
 11
1898.024524
 21
1799.999939
 31
0.0
  0
TEXT
  5
473
330
692
100
AcDbEntity
  8
NOTE
100
AcDbText
 10
1072.575251
 20
-374.875706
 30
0.0
 40
64.0
  1
AH 4-%%C12
 41
0.9
100
AcDbText
  0
LINE
  5
474
330
692
100
AcDbEntity
  8
NOTE
100
AcDbLine
 10
1489.02721
 20
-395.592955
 30
0.0
 11
1061.771094
 21
-395.592955
 31
0.0
  0
LWPOLYLINE
  5
475
330
692
100
AcDbEntity
  8
OUTLINE
100
AcDbPolyline
 90
        4
 70
     1
 43
0.0
 10
709.999978
 20
1999.999939
 10
-709.999978
 20
1999.999939
 10
-709.999978
 20
130.0
 10
709.999978
 20
130.0
  0
LINE
  5
47B
330
692
100
AcDbEntity
  8
NOTE
100
AcDbLine
 10
809.6431110000002
 20
1299.367897
 30
0.0
 11
709.999978
 21
630.0
 31
0.0
  0
LINE
  5
47C
330
692
100
AcDbEntity
  8
NOTE
100
AcDbLine
 10
-809.6431110000002
 20
1299.367897
 30
0.0
 11
-709.999978
 21
630.0
 31
0.0
  0
LINE
  5
47D
330
692
100
AcDbEntity
  8
BASIS
100
AcDbLine
 10
0.0
 20
2103.610941
 30
0.0
 11
0.0
 21
-80.58290799999998
 31
0.0
  0
LINE
  5
47E
330
692
100
AcDbEntity
  8
DETAIL
100
AcDbLine
 10
-709.999978
 20
1999.999939
 30
0.0
 11
-709.999978
 21
130.0
 31
0.0
  0
LINE
  5
47F
330
692
100
AcDbEntity
  8
DETAIL
100
AcDbLine
 10
709.999978
 20
1799.999939
 30
0.0
 11
709.999978
 21
130.0
 31
0.0
  0
LINE
  5
480
330
692
100
AcDbEntity
  8
DETAIL
100
AcDbLine
 10
-702.999979
 20
1799.199944999999
 30
0.0
 11
-702.999979
 21
919.799972
 31
0.0
  0
LINE
  5
481
330
692
100
AcDbEntity
  8
DETAIL
100
AcDbLine
 10
702.999979
 20
1799.199944999999
 30
0.0
 11
702.999979
 21
919.799972
 31
0.0
  0
LINE
  5
482
330
692
100
AcDbEntity
  8
OUTLINE
100
AcDbLine
 10
696.0
 20
0.0
 30
0.0
 11
-696.0
 21
0.0
 31
0.0
  0
LINE
  5
483
330
692
100
AcDbEntity
  8
SIZE
100
AcDbLine
 10
717.0
 20
-535.7730679999998
 30
0.0
 11
-717.0
 21
-535.7730679999998
 31
0.0
  0
LINE
  5
484
330
692
100
AcDbEntity
  8
SIZE
100
AcDbLine
 10
699.999978
 20
-367.264172
 30
0.0
 11
-699.999978
 21
-367.264172
 31
0.0
  0
LINE
  5
485
330
692
100
AcDbEntity
  8
SIZE
100
AcDbLine
 10
686.0
 20
-200.94304
 30
0.0
 11
-686.0
 21
-200.94304
 31
0.0
  0
LINE
  5
486
330
692
100
AcDbEntity
  8
DETAIL
100
AcDbLine
 10
-709.999978
 20
130.0
 30
0.0
 11
709.999978
 21
130.0
 31
0.0
  0
LINE
  5
487
330
692
100
AcDbEntity
  8
DETAIL
100
AcDbLine
 10
741.0
 20
0.0
 30
0.0
 11
-741.0
 21
0.0
 31
0.0
  0
LINE
  5
488
330
692
100
AcDbEntity
  8
DETAIL
100
AcDbLine
 10
-472.999986
 20
10.0
 30
0.0
 11
-256.999992
 21
10.0
 31
0.0
  0
LINE
  5
489
330
692
100
AcDbEntity
  8
DETAIL
100
AcDbLine
 10
-256.999992
 20
79.99999800000002
 30
0.0
 11
-472.999986
 21
79.99999800000002
 31
0.0
  0
LINE
  5
48A
330
692
100
AcDbEntity
  8
DETAIL
100
AcDbLine
 10
-741.0
 20
2.299999999999998
 30
0.0
 11
741.0
 21
2.299999999999998
 31
0.0
  0
LINE
  5
48B
330
692
100
AcDbEntity
  8
DETAIL
100
AcDbLine
 10
-702.999979
 20
1127.299966
 30
0.0
 11
702.999979
 21
1127.299966
 31
0.0
  0
LINE
  5
48C
330
692
100
AcDbEntity
  8
DETAIL
100
AcDbLine
 10
-702.999979
 20
1132.699965
 30
0.0
 11
702.999979
 21
1132.699965
 31
0.0
  0
LINE
  5
48D
330
692
100
AcDbEntity
  8
DETAIL
100
AcDbLine
 10
-642.9999799999998
 20
908.9999719999999
 30
0.0
 11
642.9999799999998
 21
908.9999719999999
 31
0.0
  0
LINE
  5
48E
330
692
100
AcDbEntity
  8
DETAIL
100
AcDbLine
 10
-642.9999799999998
 20
673.999979
 30
0.0
 11
642.9999799999998
 21
673.999979
 31
0.0
  0
LINE
  5
48F
330
692
100
AcDbEntity
  8
DETAIL
100
AcDbLine
 10
667.9999799999998
 20
382.999988
 30
0.0
 11
-667.9999799999998
 21
382.999988
 31
0.0
  0
LINE
  5
490
330
692
100
AcDbEntity
  8
DETAIL
100
AcDbLine
 10
667.9999799999998
 20
396.999988
 30
0.0
 11
-667.9999799999998
 21
396.999988
 31
0.0
  0
LINE
  5
491
330
692
100
AcDbEntity
  8
DETAIL
100
AcDbLine
 10
-642.9999799999998
 20
658.9999799999998
 30
0.0
 11
642.9999799999998
 21
658.9999799999998
 31
0.0
  0
CIRCLE
  5
492
330
692
100
AcDbEntity
  8
SIZE
100
AcDbCircle
 10
-1790.624775
 20
0.0
 30
0.0
 40
5.0
  0
CIRCLE
  5
493
330
692
100
AcDbEntity
  8
SIZE
100
AcDbCircle
 10
-1520.370207
 20
0.0
 30
0.0
 40
5.0
  0
CIRCLE
  5
494
330
692
100
AcDbEntity
  8
SIZE
100
AcDbCircle
 10
-1098.790122
 20
0.0
 30
0.0
 40
5.0
  0
LINE
  5
495
330
692
100
AcDbEntity
  8
SIZE
100
AcDbLine
 10
-1098.790122
 20
0.0
 30
0.0
 11
-1098.790122
 21
-157.857143
 31
0.0
  0
LINE
  5
496
330
692
100
AcDbEntity
  8
SIZE
100
AcDbLine
 10
-709.999978
 20
110.0
 30
0.0
 11
-709.999978
 21
-397.264172
 31
0.0
  0
CIRCLE
  5
497
330
692
100
AcDbEntity
  8
FIX
100
AcDbCircle
 10
-727.0
 20
0.0
 30
0.0
 40
5.0
  0
LINE
  5
498
330
692
100
AcDbEntity
  8
NOTE
100
AcDbLine
 10
-727.0
 20
-20.0
 30
0.0
 11
-727.0
 21
20.0
 31
0.0
  0
LINE
  5
499
330
692
100
AcDbEntity
  8
NOTE
100
AcDbLine
 10
-1104.803302
 20
-366.818223
 30
0.0
 11
-696.431822
 21
101.606351
 31
0.0
  0
LINE
  5
49A
330
692
100
AcDbEntity
  8
NOTE
100
AcDbLine
 10
-1118.403281
 20
-258.424888
 30
0.0
 11
-710.0318009999998
 21
209.999685
 31
0.0
  0
TEXT
  5
49B
330
692
100
AcDbEntity
  8
NOTE
100
AcDbText
 10
-1457.478968
 20
-235.908799
 30
0.0
 40
64.0
  1
EL2 %%C43
 41
0.9
100
AcDbText
  0
LINE
  5
49C
330
692
100
AcDbEntity
  8
NOTE
100
AcDbLine
 10
-1118.403281
 20
-258.424888
 30
0.0
 11
-1467.676957
 21
-258.424888
 31
0.0
  0
TEXT
  5
49D
330
692
100
AcDbEntity
  8
NOTE
100
AcDbText
 10
-1373.140976
 20
-346.100974
 30
0.0
 40
64.0
  1
D2 Rc1
 41
0.9
100
AcDbText
  0
LINE
  5
49E
330
692
100
AcDbEntity
  8
NOTE
100
AcDbLine
 10
-1104.803302
 20
-366.818223
 30
0.0
 11
-1386.007347
 21
-366.818223
 31
0.0
  0
TEXT
  5
49F
330
692
100
AcDbEntity
  8
SIZE
100
AcDbText
 10
-1113.790122
 20
-142.8571424285714
 30
0.0
 40
55.0
  1
102
 50
90.0
 41
0.9
 72
     1
 11
-1113.790122
 21
-83.92857099999998
 31
0.0
100
AcDbText
  0
LINE
  5
4A0
330
692
100
AcDbEntity
  8
SIZE
100
AcDbLine
 10
-727.0
 20
-40.0
 30
0.0
 11
-727.0
 21
-565.7730679999998
 31
0.0
  0
LINE
  5
4A2
330
692
100
AcDbEntity
  8
SIZE
100
AcDbLine
 10
-722.0
 20
-535.7730679999998
 30
0.0
 11
-717.0
 21
-535.7730679999998
 31
0.0
  0
CIRCLE
  5
4A3
330
692
100
AcDbEntity
  8
SIZE
100
AcDbCircle
 10
-727.0
 20
-535.7730679999998
 30
0.0
 40
5.0
  0
LINE
  5
4A5
330
692
100
AcDbEntity
  8
SIZE
100
AcDbLine
 10
-704.999978
 20
-367.264172
 30
0.0
 11
-699.999978
 21
-367.264172
 31
0.0
  0
CIRCLE
  5
4A6
330
692
100
AcDbEntity
  8
SIZE
100
AcDbCircle
 10
-709.999978
 20
-367.264172
 30
0.0
 40
5.0
  0
LINE
  5
4A7
330
692
100
AcDbEntity
  8
SIZE
100
AcDbLine
 10
-696.0
 20
-17.7
 30
0.0
 11
-696.0
 21
-230.94304
 31
0.0
  0
LINE
  5
4A9
330
692
100
AcDbEntity
  8
SIZE
100
AcDbLine
 10
-691.0
 20
-200.94304
 30
0.0
 11
-686.0
 21
-200.94304
 31
0.0
  0
CIRCLE
  5
4AA
330
692
100
AcDbEntity
  8
SIZE
100
AcDbCircle
 10
-696.0
 20
-200.94304
 30
0.0
 40
5.0
  0
TEXT
  5
4AC
330
692
100
AcDbEntity
  8
NOTE
100
AcDbText
 10
-1306.868586
 20
936.93071
 30
0.0
 40
46.666665
  1
外気取込
 50
359.999997
 41
0.8404759999999999
  7
STANDARD1
100
AcDbText
  0
LINE
  5
4AD
330
692
100
AcDbEntity
  8
SIZE
100
AcDbLine
 10
-761.0
 20
0.0
 30
0.0
 11
-1820.624775
 21
0.0
 31
0.0
  0
LINE
  5
4AE
330
692
100
AcDbEntity
  8
SIZE
100
AcDbLine
 10
-745.606644
 20
630.0
 30
0.0
 11
-1820.624775
 21
630.0
 31
0.0
  0
LINE
  5
4AF
330
692
100
AcDbEntity
  8
SIZE
100
AcDbLine
 10
-745.606644
 20
325.0
 30
0.0
 11
-1550.370207
 21
325.0
 31
0.0
  0
LINE
  5
4B0
330
692
100
AcDbEntity
  8
SIZE
100
AcDbLine
 10
-745.606644
 20
275.0
 30
0.0
 11
-1550.370207
 21
275.0
 31
0.0
  0
LINE
  5
4B1
330
692
100
AcDbEntity
  8
SIZE
100
AcDbLine
 10
-745.606644
 20
275.0
 30
0.0
 11
-1550.370207
 21
275.0
 31
0.0
  0
LINE
  5
4B2
330
692
100
AcDbEntity
  8
SIZE
100
AcDbLine
 10
-745.606644
 20
210.0
 30
0.0
 11
-1550.370207
 21
210.0
 31
0.0
  0
LINE
  5
4B3
330
692
100
AcDbEntity
  8
SIZE
100
AcDbLine
 10
-745.606644
 20
210.0
 30
0.0
 11
-1550.370207
 21
210.0
 31
0.0
  0
LINE
  5
4B4
330
692
100
AcDbEntity
  8
SIZE
100
AcDbLine
 10
-761.0
 20
0.0
 30
0.0
 11
-1550.370207
 21
0.0
 31
0.0
  0
LINE
  5
4B5
330
692
100
AcDbEntity
  8
SIZE
100
AcDbLine
 10
-761.0
 20
0.0
 30
0.0
 11
-1396.048888
 21
0.0
 31
0.0
  0
LINE
  5
4B6
330
692
100
AcDbEntity
  8
SIZE
100
AcDbLine
 10
-761.0
 20
0.0
 30
0.0
 11
-1276.917181
 21
0.0
 31
0.0
  0
TEXT
  5
4B7
330
692
100
AcDbEntity
  8
NOTE
100
AcDbText
 10
-1283.438855
 20
825.47768
 30
0.0
 40
64.0
  1
CL1 %%C27
 41
0.9
100
AcDbText
  0
LINE
  5
4B8
330
692
100
AcDbEntity
  8
NOTE
100
AcDbLine
 10
-937.8355239999999
 20
804.7604309999996
 30
0.0
 11
-1294.260961
 21
804.7604309999996
 31
0.0
  0
TEXT
  5
4B9
330
692
100
AcDbEntity
  8
NOTE
100
AcDbText
 10
-1262.494011
 20
1072.361087
 30
0.0
 40
64.0
  1
EL1 %%C27
 41
0.9
100
AcDbText
  0
LINE
  5
4BA
330
692
100
AcDbEntity
  8
NOTE
100
AcDbLine
 10
-939.2991949999997
 20
1051.643838
 30
0.0
 11
-1281.556346
 21
1051.643838
 31
0.0
  0
LINE
  5
4BB
330
692
100
AcDbEntity
  8
SIZE
100
AcDbLine
 10
-1790.624775
 20
620.0
 30
0.0
 11
-1790.624775
 21
10.0
 31
0.0
  0
TEXT
  5
4BC
330
692
100
AcDbEntity
  8
SIZE
100
AcDbText
 10
-1670.107579
 20
295.3600414285714
 30
0.0
 40
55.0
  1
65
 50
90.0
 41
0.9
 72
     1
 11
-1670.107579
 21
335.43147
 31
0.0
100
AcDbText
  0
TEXT
  5
4BD
330
692
100
AcDbEntity
  8
SIZE
100
AcDbText
 10
-1805.624775
 20
251.3571428571429
 30
0.0
 40
55.0
  1
630
 50
90.0
 41
0.9
 72
     1
 11
-1805.624775
 21
315.0
 31
0.0
100
AcDbText
  0
LINE
  5
4BF
330
692
100
AcDbEntity
  8
SIZE
100
AcDbLine
 10
-1790.624775
 20
5.0
 30
0.0
 11
-1790.624775
 21
10.0
 31
0.0
  0
LINE
  5
4C0
330
692
100
AcDbEntity
  8
SIZE
100
AcDbLine
 10
-1520.370207
 20
285.0
 30
0.0
 11
-1520.370207
 21
315.0
 31
0.0
  0
LINE
  5
4C1
330
692
100
AcDbEntity
  8
SIZE
100
AcDbLine
 10
-1655.107579
 20
280.3600410000001
 30
0.0
 11
-1655.107579
 21
390.502899
 31
0.0
  0
TEXT
  5
4C2
330
692
100
AcDbEntity
  8
SIZE
100
AcDbText
 10
-1535.370207
 20
46.07142857142858
 30
0.0
 40
55.0
  1
210
 50
90.0
 41
0.9
 72
     1
 11
-1535.370207
 21
105.0
 31
0.0
100
AcDbText
  0
LINE
  5
4C3
330
692
100
AcDbEntity
  8
SIZE
100
AcDbLine
 10
-1520.370207
 20
10.0
 30
0.0
 11
-1520.370207
 21
200.0
 31
0.0
  0
LINE
  5
4C4
330
692
100
AcDbEntity
  8
SIZE
100
AcDbLine
 10
-1520.370207
 20
5.0
 30
0.0
 11
-1520.370207
 21
10.0
 31
0.0
  0
LINE
  5
4C5
330
692
100
AcDbEntity
  8
SIZE
100
AcDbLine
 10
-1520.370207
 20
242.5
 30
0.0
 11
-1655.107579
 21
280.3600410000001
 31
0.0
  0
LINE
  5
4C6
330
692
100
AcDbEntity
  8
SIZE
100
AcDbLine
 10
-1520.370207
 20
280.0
 30
0.0
 11
-1520.370207
 21
285.0
 31
0.0
  0
CIRCLE
  5
4C7
330
692
100
AcDbEntity
  8
SIZE
100
AcDbCircle
 10
-1520.370207
 20
275.0
 30
0.0
 40
5.0
  0
LINE
  5
4C9
330
692
100
AcDbEntity
  8
SIZE
100
AcDbLine
 10
-1520.370207
 20
270.0
 30
0.0
 11
-1520.370207
 21
265.0
 31
0.0
  0
CIRCLE
  5
4CA
330
692
100
AcDbEntity
  8
SIZE
100
AcDbCircle
 10
-1520.370207
 20
275.0
 30
0.0
 40
5.0
  0
LINE
  5
4CB
330
692
100
AcDbEntity
  8
SIZE
100
AcDbLine
 10
-1520.370207
 20
215.0
 30
0.0
 11
-1520.370207
 21
220.0
 31
0.0
  0
CIRCLE
  5
4CC
330
692
100
AcDbEntity
  8
SIZE
100
AcDbCircle
 10
-1520.370207
 20
210.0
 30
0.0
 40
5.0
  0
LINE
  5
4CD
330
692
100
AcDbEntity
  8
SIZE
100
AcDbLine
 10
-1520.370207
 20
220.0
 30
0.0
 11
-1520.370207
 21
265.0
 31
0.0
  0
LINE
  5
4CF
330
692
100
AcDbEntity
  8
SIZE
100
AcDbLine
 10
-1520.370207
 20
205.0
 30
0.0
 11
-1520.370207
 21
200.0
 31
0.0
  0
CIRCLE
  5
4D0
330
692
100
AcDbEntity
  8
SIZE
100
AcDbCircle
 10
-1520.370207
 20
210.0
 30
0.0
 40
5.0
  0
TEXT
  5
4D1
330
692
100
AcDbEntity
  8
SIZE
100
AcDbText
 10
-1535.370207
 20
360.7080044285714
 30
0.0
 40
55.0
  1
50
 50
90.0
 41
0.9
 72
     1
 11
-1535.370207
 21
400.779433
 31
0.0
100
AcDbText
  0
LINE
  5
4D3
330
692
100
AcDbEntity
  8
SIZE
100
AcDbLine
 10
-1520.370207
 20
320.0
 30
0.0
 11
-1520.370207
 21
315.0
 31
0.0
  0
CIRCLE
  5
4D4
330
692
100
AcDbEntity
  8
SIZE
100
AcDbCircle
 10
-1520.370207
 20
325.0
 30
0.0
 40
5.0
  0
LINE
  5
4D5
330
692
100
AcDbEntity
  8
SIZE
100
AcDbLine
 10
-1520.370207
 20
455.850862
 30
0.0
 11
-1520.370207
 21
325.0
 31
0.0
  0
LINE
  5
4D6
330
692
100
AcDbEntity
  8
SIZE
100
AcDbLine
 10
-1790.624775
 20
625.0
 30
0.0
 11
-1790.624775
 21
620.0
 31
0.0
  0
CIRCLE
  5
4D7
330
692
100
AcDbEntity
  8
SIZE
100
AcDbCircle
 10
-1790.624775
 20
630.0
 30
0.0
 40
5.0
  0
LINE
  5
4D8
330
692
100
AcDbEntity
  8
NOTE
100
AcDbLine
 10
-925.752503
 20
1051.643838
 30
0.0
 11
-709.999978
 21
325.0
 31
0.0
  0
LINE
  5
4D9
330
692
100
AcDbEntity
  8
NOTE
100
AcDbLine
 10
-937.8355239999999
 20
804.7604309999996
 30
0.0
 11
-709.999978
 21
275.0
 31
0.0
  0
LINE
  5
4DA
330
692
100
AcDbEntity
  8
DETAIL
100
AcDbLine
 10
-667.9999799999998
 20
130.0
 30
0.0
 11
-667.9999799999998
 21
653.9999799999998
 31
0.0
  0
LINE
  5
4DB
330
692
100
AcDbEntity
  8
SIZE
100
AcDbLine
 10
-756.399999
 20
102.0
 30
0.0
 11
-1128.790122
 21
102.0
 31
0.0
  0
LINE
  5
4DC
330
692
100
AcDbEntity
  8
SIZE
100
AcDbLine
 10
-761.0
 20
0.0
 30
0.0
 11
-1128.790122
 21
0.0
 31
0.0
  0
LINE
  5
4DE
330
692
100
AcDbEntity
  8
SIZE
100
AcDbLine
 10
-1098.790122
 20
5.0
 30
0.0
 11
-1098.790122
 21
10.0
 31
0.0
  0
LINE
  5
4DF
330
692
100
AcDbEntity
  8
SIZE
100
AcDbLine
 10
-1098.790122
 20
97.0
 30
0.0
 11
-1098.790122
 21
92.0
 31
0.0
  0
CIRCLE
  5
4E0
330
692
100
AcDbEntity
  8
SIZE
100
AcDbCircle
 10
-1098.790122
 20
102.0
 30
0.0
 40
5.0
  0
LINE
  5
4E1
330
692
100
AcDbEntity
  8
SIZE
100
AcDbLine
 10
-1098.790122
 20
92.0
 30
0.0
 11
-1098.790122
 21
10.0
 31
0.0
  0
LINE
  5
4E2
330
692
100
AcDbEntity
  8
NOTE
100
AcDbLine
 10
-709.999978
 20
275.0
 30
0.0
 11
-714.7952849999998
 21
307.986605
 31
0.0
  0
LINE
  5
4E9
330
692
100
AcDbEntity
  8
OUTLINE
100
AcDbLine
 10
-696.0
 20
0.0
 30
0.0
 11
-696.0
 21
130.0
 31
0.0
  0
LINE
  5
4EC
330
692
100
AcDbEntity
  8
NOTE
100
AcDbLine
 10
-747.0
 20
0.0
 30
0.0
 11
-707.0
 21
0.0
 31
0.0
  0
LINE
  5
4ED
330
692
100
AcDbEntity
  8
NOTE
100
AcDbLine
 10
-696.431822
 20
101.606351
 30
0.0
 11
-711.086974
 21
71.667454
 31
0.0
  0
LINE
  5
4EE
330
692
100
AcDbEntity
  8
NOTE
100
AcDbLine
 10
-696.431822
 20
101.606351
 30
0.0
 11
-724.0930049999998
 21
83.00608199999997
 31
0.0
  0
LINE
  5
4EF
330
692
100
AcDbEntity
  8
NOTE
100
AcDbLine
 10
-696.3999989999998
 20
102.0
 30
0.0
 11
-736.3999989999999
 21
102.0
 31
0.0
  0
LINE
  5
4F0
330
692
100
AcDbEntity
  8
NOTE
100
AcDbLine
 10
-716.3999989999998
 20
82.0
 30
0.0
 11
-716.3999989999998
 21
122.0
 31
0.0
  0
LINE
  5
4F1
330
692
100
AcDbEntity
  8
DETAIL
100
AcDbLine
 10
-696.0
 20
2.299999999999998
 30
0.0
 11
-696.0
 21
130.0
 31
0.0
  0
LINE
  5
4F2
330
692
100
AcDbEntity
  8
DETAIL
100
AcDbLine
 10
-716.3999989999998
 20
83.000001
 30
0.0
 11
-716.3999989999998
 21
120.999999
 31
0.0
  0
LINE
  5
4F3
330
692
100
AcDbEntity
  8
DETAIL
100
AcDbLine
 10
-716.3999989999998
 20
120.999999
 30
0.0
 11
-696.0
 21
120.999999
 31
0.0
  0
LINE
  5
4F4
330
692
100
AcDbEntity
  8
DETAIL
100
AcDbLine
 10
-696.0
 20
83.000001
 30
0.0
 11
-716.3999989999998
 21
83.000001
 31
0.0
  0
CIRCLE
  5
4F5
330
692
100
AcDbEntity
  8
DETAIL
100
AcDbCircle
 10
-671.39998
 20
99.999997
 30
0.0
 40
3.5
  0
LINE
  5
4F6
330
692
100
AcDbEntity
  8
DETAIL
100
AcDbLine
 10
-741.0
 20
0.0
 30
0.0
 11
-741.0
 21
2.299999999999998
 31
0.0
  0
CIRCLE
  5
4F7
330
692
100
AcDbEntity
  8
DETAIL
100
AcDbCircle
 10
-671.39998
 20
24.999999
 30
0.0
 40
3.5
  0
LINE
  5
4F8
330
692
100
AcDbEntity
  8
DETAIL
100
AcDbLine
 10
-646.39998
 20
0.0
 30
0.0
 11
-646.39998
 21
130.0
 31
0.0
  0
LINE
  5
4FD
330
692
100
AcDbEntity
  8
NOTE
100
AcDbLine
 10
-709.999978
 20
275.0
 30
0.0
 11
-730.646138
 21
301.169584
 31
0.0
  0
LINE
  5
4FE
330
692
100
AcDbEntity
  8
NOTE
100
AcDbLine
 10
-709.999978
 20
290.606666
 30
0.0
 11
-709.999978
 21
259.393334
 31
0.0
  0
LINE
  5
4FF
330
692
100
AcDbEntity
  8
NOTE
100
AcDbLine
 10
-725.606644
 20
275.0
 30
0.0
 11
-694.393312
 21
275.0
 31
0.0
  0
LINE
  5
500
330
692
100
AcDbEntity
  8
NOTE
100
AcDbLine
 10
-710.0318009999998
 20
209.999685
 30
0.0
 11
-724.686953
 21
180.060788
 31
0.0
  0
LINE
  5
501
330
692
100
AcDbEntity
  8
NOTE
100
AcDbLine
 10
-709.999978
 20
225.606666
 30
0.0
 11
-709.999978
 21
194.393334
 31
0.0
  0
LINE
  5
502
330
692
100
AcDbEntity
  8
NOTE
100
AcDbLine
 10
-710.0318009999998
 20
209.999685
 30
0.0
 11
-737.692984
 21
191.399416
 31
0.0
  0
LINE
  5
503
330
692
100
AcDbEntity
  8
NOTE
100
AcDbLine
 10
-725.606644
 20
210.0
 30
0.0
 11
-694.393312
 21
210.0
 31
0.0
  0
CIRCLE
  5
504
330
692
100
AcDbEntity
  8
DETAIL
100
AcDbCircle
 10
-651.9999799999998
 20
253.999992
 30
0.0
 40
2.5
  0
LINE
  5
505
330
692
100
AcDbEntity
  8
DETAIL
100
AcDbLine
 10
-477.999985
 20
74.99999800000002
 30
0.0
 11
-472.999986
 21
79.99999800000002
 31
0.0
  0
LINE
  5
506
330
692
100
AcDbEntity
  8
DETAIL
100
AcDbLine
 10
-472.999986
 20
10.0
 30
0.0
 11
-477.999985
 21
15.0
 31
0.0
  0
LINE
  5
507
330
692
100
AcDbEntity
  8
DETAIL
100
AcDbLine
 10
-477.999985
 20
15.0
 30
0.0
 11
-477.999985
 21
74.99999800000002
 31
0.0
  0
LINE
  5
509
330
692
100
AcDbEntity
  8
NOTE
100
AcDbLine
 10
-709.999978
 20
325.0
 30
0.0
 11
-727.434958
 21
353.410078
 31
0.0
  0
LINE
  5
50A
330
692
100
AcDbEntity
  8
NOTE
100
AcDbLine
 10
-709.999978
 20
340.606666
 30
0.0
 11
-709.999978
 21
309.393334
 31
0.0
  0
LINE
  5
50B
330
692
100
AcDbEntity
  8
NOTE
100
AcDbLine
 10
-709.999978
 20
325.0
 30
0.0
 11
-710.894074
 21
358.321339
 31
0.0
  0
LINE
  5
50C
330
692
100
AcDbEntity
  8
NOTE
100
AcDbLine
 10
-725.606644
 20
325.0
 30
0.0
 11
-694.393312
 21
325.0
 31
0.0
  0
CIRCLE
  5
50D
330
692
100
AcDbEntity
  8
DETAIL
100
AcDbCircle
 10
-651.9999799999998
 20
603.999982
 30
0.0
 40
2.5
  0
LINE
  5
50E
330
692
100
AcDbEntity
  8
NOTE
100
AcDbLine
 10
-1019.962912
 20
933.304455
 30
0.0
 11
-1019.962912
 21
909.304456
 31
0.0
  0
LINE
  5
50F
330
692
100
AcDbEntity
  8
NOTE
100
AcDbLine
 10
-971.962914
 20
953.3044549999999
 30
0.0
 11
-1019.962912
 21
909.304456
 31
0.0
  0
LINE
  5
510
330
692
100
AcDbEntity
  8
NOTE
100
AcDbLine
 10
-971.962914
 20
953.3044549999999
 30
0.0
 11
-1019.962912
 21
997.3044529999999
 31
0.0
  0
LINE
  5
511
330
692
100
AcDbEntity
  8
NOTE
100
AcDbLine
 10
-1019.962912
 20
997.3044529999999
 30
0.0
 11
-1019.962912
 21
973.3044539999999
 31
0.0
  0
LINE
  5
512
330
692
100
AcDbEntity
  8
NOTE
100
AcDbLine
 10
-1019.962912
 20
973.3044539999999
 30
0.0
 11
-1083.962911
 21
973.3044539999999
 31
0.0
  0
LINE
  5
513
330
692
100
AcDbEntity
  8
NOTE
100
AcDbLine
 10
-1019.962912
 20
933.304455
 30
0.0
 11
-1083.962911
 21
933.304455
 31
0.0
  0
LINE
  5
514
330
692
100
AcDbEntity
  8
NOTE
100
AcDbLine
 10
-1083.962911
 20
973.3044539999999
 30
0.0
 11
-1083.962911
 21
933.304455
 31
0.0
  0
LINE
  5
515
330
692
100
AcDbEntity
  8
DETAIL
100
AcDbLine
 10
-642.9999799999998
 20
908.9999719999999
 30
0.0
 11
-642.9999799999998
 21
919.799972
 31
0.0
  0
LINE
  5
516
330
692
100
AcDbEntity
  8
DETAIL
100
AcDbLine
 10
-664.9999799999998
 20
919.799972
 30
0.0
 11
-664.9999799999998
 21
674.999979
 31
0.0
  0
LINE
  5
517
330
692
100
AcDbEntity
  8
DETAIL
100
AcDbLine
 10
-667.9999799999998
 20
653.9999799999998
 30
0.0
 11
-662.9999799999998
 21
658.9999799999998
 31
0.0
  0
LINE
  5
519
330
692
100
AcDbEntity
  8
NOTE
100
AcDbLine
 10
-709.999978
 20
630.0
 30
0.0
 11
-723.2739849999997
 21
660.5763269999998
 31
0.0
  0
LINE
  5
51A
330
692
100
AcDbEntity
  8
NOTE
100
AcDbLine
 10
-709.999978
 20
645.606666
 30
0.0
 11
-709.999978
 21
614.393334
 31
0.0
  0
LINE
  5
51B
330
692
100
AcDbEntity
  8
NOTE
100
AcDbLine
 10
-709.999978
 20
630.0
 30
0.0
 11
-706.207441
 21
663.116879
 31
0.0
  0
LINE
  5
51C
330
692
100
AcDbEntity
  8
NOTE
100
AcDbLine
 10
-725.606644
 20
630.0
 30
0.0
 11
-694.393312
 21
630.0
 31
0.0
  0
LINE
  5
51D
330
692
100
AcDbEntity
  8
DETAIL
100
AcDbLine
 10
-665.412463
 20
747.3147389999998
 30
0.0
 11
-665.376017
 21
747.231209
 31
0.0
  0
LINE
  5
51E
330
692
100
AcDbEntity
  8
DETAIL
100
AcDbLine
 10
-664.9999799999998
 20
673.999979
 30
0.0
 11
-664.9999799999998
 21
656.9999799999997
 31
0.0
  0
LINE
  5
51F
330
692
100
AcDbEntity
  8
DETAIL
100
AcDbLine
 10
-642.9999799999998
 20
658.9999799999998
 30
0.0
 11
-642.9999799999998
 21
673.999979
 31
0.0
  0
LINE
  5
520
330
692
100
AcDbEntity
  8
DETAIL
100
AcDbLine
 10
-662.9999799999998
 20
658.9999799999998
 30
0.0
 11
-642.9999799999998
 21
658.9999799999998
 31
0.0
  0
LINE
  5
521
330
692
100
AcDbEntity
  8
DETAIL
100
AcDbLine
 10
-702.999979
 20
919.799972
 30
0.0
 11
-642.9999799999998
 21
919.799972
 31
0.0
  0
CIRCLE
  5
522
330
692
100
AcDbEntity
  8
DETAIL
100
AcDbCircle
 10
-687.999979
 20
963.9999709999999
 30
0.0
 40
2.5
  0
CIRCLE
  5
523
330
692
100
AcDbEntity
  8
DETAIL
100
AcDbCircle
 10
-577.499982
 20
928.999972
 30
0.0
 40
1.45
  0
CIRCLE
  5
524
330
692
100
AcDbEntity
  8
ARRANGE
100
AcDbCircle
 10
0.0
 20
0.0
 30
0.0
 40
42.5
  0
CIRCLE
  5
525
330
692
100
AcDbEntity
  8
SIZE
100
AcDbCircle
 10
1413.156599
 20
0.0
 30
0.0
 40
5.0
  0
CIRCLE
  5
526
330
692
100
AcDbEntity
  8
SIZE
100
AcDbCircle
 10
1258.374384
 20
0.0
 30
0.0
 40
5.0
  0
CIRCLE
  5
527
330
692
100
AcDbEntity
  8
SIZE
100
AcDbCircle
 10
1102.780107
 20
0.0
 30
0.0
 40
5.0
  0
LINE
  5
528
330
692
100
AcDbEntity
  8
SIZE
100
AcDbLine
 10
1102.780107
 20
0.0
 30
0.0
 11
1102.780107
 21
-157.857143
 31
0.0
  0
LINE
  5
529
330
692
100
AcDbEntity
  8
SIZE
100
AcDbLine
 10
709.999978
 20
110.0
 30
0.0
 11
709.999978
 21
-397.264172
 31
0.0
  0
LINE
  5
52A
330
692
100
AcDbEntity
  8
SIZE
100
AcDbLine
 10
709.999978
 20
110.0
 30
0.0
 11
709.999978
 21
-397.264172
 31
0.0
  0
LINE
  5
52B
330
692
100
AcDbEntity
  8
SIZE
100
AcDbLine
 10
736.999978
 20
62.0
 30
0.0
 11
736.999978
 21
-397.264172
 31
0.0
  0
LINE
  5
52C
330
692
100
AcDbEntity
  8
NOTE
100
AcDbLine
 10
727.000032
 20
-0.000005
 30
0.0
 11
741.213524
 21
-30.151086
 31
0.0
  0
LINE
  5
52D
330
692
100
AcDbEntity
  8
NOTE
100
AcDbLine
 10
727.000032
 20
-0.000005
 30
0.0
 11
754.384818
 21
-19.00486
 31
0.0
  0
LINE
  5
52E
330
692
100
AcDbEntity
  8
NOTE
100
AcDbLine
 10
1061.771094
 20
-395.592955
 30
0.0
 11
727.0000259999997
 21
-0.000009
 31
0.0
  0
CIRCLE
  5
52F
330
692
100
AcDbEntity
  8
FIX
100
AcDbCircle
 10
727.0
 20
0.0
 30
0.0
 40
5.0
  0
LINE
  5
530
330
692
100
AcDbEntity
  8
NOTE
100
AcDbLine
 10
727.0
 20
-20.0
 30
0.0
 11
727.0
 21
20.0
 31
0.0
  0
LINE
  5
531
330
692
100
AcDbEntity
  8
NOTE
100
AcDbLine
 10
1056.540995
 20
-264.531141
 30
0.0
 11
736.999978
 21
102.0
 31
0.0
  0
LINE
  5
532
330
692
100
AcDbEntity
  8
ARRANGE
100
AcDbLine
 10
-42.46919899999999
 20
42.157106
 30
0.0
 11
42.46919899999999
 21
-42.157106
 31
0.0
  0
LINE
  5
533
330
692
100
AcDbEntity
  8
ARRANGE
100
AcDbLine
 10
-42.531748
 20
-42.09399999999998
 30
0.0
 11
42.531748
 21
42.09399999999998
 31
0.0
  0
TEXT
  5
534
330
692
100
AcDbEntity
  8
SIZE
100
AcDbText
 10
-82.50000000000001
 20
-352.264172
 30
0.0
 40
55.0
  1
1420
 41
0.9
 72
     1
 11
0.0
 21
-352.264172
 31
0.0
100
AcDbText
  0
TEXT
  5
535
330
692
100
AcDbEntity
  8
SIZE
100
AcDbText
 10
-83.6785714285714
 20
-520.773068
 30
0.0
 40
55.0
  1
1454
 41
0.9
 72
     1
 11
0.0
 21
-520.773068
 31
0.0
100
AcDbText
  0
TEXT
  5
536
330
692
100
AcDbEntity
  8
SIZE
100
AcDbText
 10
-82.5
 20
-185.94304
 30
0.0
 40
55.0
  1
1392
 41
0.9
 72
     1
 11
0.0
 21
-185.94304
 31
0.0
100
AcDbText
  0
LINE
  5
537
330
692
100
AcDbEntity
  8
SIZE
100
AcDbLine
 10
727.0
 20
-40.0
 30
0.0
 11
727.0
 21
-565.7730679999998
 31
0.0
  0
TEXT
  5
538
330
692
100
AcDbEntity
  8
SIZE
100
AcDbText
 10
760.9999778571427
 20
-348.85941
 30
0.0
 40
55.0
  1
(27)
 41
0.9
 72
     1
 11
832.8928349999998
 21
-348.85941
 31
0.0
100
AcDbText
  0
LINE
  5
539
330
692
100
AcDbEntity
  8
SIZE
100
AcDbLine
 10
746.9999780000001
 20
-367.264172
 30
0.0
 11
908.785692
 21
-367.264172
 31
0.0
  0
LINE
  5
53A
330
692
100
AcDbEntity
  8
SIZE
100
AcDbLine
 10
722.0
 20
-535.7730679999998
 30
0.0
 11
717.0
 21
-535.7730679999998
 31
0.0
  0
CIRCLE
  5
53B
330
692
100
AcDbEntity
  8
SIZE
100
AcDbCircle
 10
727.0
 20
-535.7730679999998
 30
0.0
 40
5.0
  0
LINE
  5
53C
330
692
100
AcDbEntity
  8
SIZE
100
AcDbLine
 10
704.999978
 20
-367.264172
 30
0.0
 11
699.999978
 21
-367.264172
 31
0.0
  0
CIRCLE
  5
53D
330
692
100
AcDbEntity
  8
SIZE
100
AcDbCircle
 10
709.999978
 20
-367.264172
 30
0.0
 40
5.0
  0
LINE
  5
53F
330
692
100
AcDbEntity
  8
SIZE
100
AcDbLine
 10
741.999978
 20
-367.264172
 30
0.0
 11
746.9999780000001
 21
-367.264172
 31
0.0
  0
CIRCLE
  5
540
330
692
100
AcDbEntity
  8
SIZE
100
AcDbCircle
 10
736.999978
 20
-367.264172
 30
0.0
 40
5.0
  0
LINE
  5
541
330
692
100
AcDbEntity
  8
SIZE
100
AcDbLine
 10
704.999978
 20
-367.264172
 30
0.0
 11
699.999978
 21
-367.264172
 31
0.0
  0
CIRCLE
  5
542
330
692
100
AcDbEntity
  8
SIZE
100
AcDbCircle
 10
709.999978
 20
-367.264172
 30
0.0
 40
5.0
  0
LINE
  5
543
330
692
100
AcDbEntity
  8
SIZE
100
AcDbLine
 10
709.999978
 20
-367.264172
 30
0.0
 11
736.999978
 21
-367.264172
 31
0.0
  0
LINE
  5
544
330
692
100
AcDbEntity
  8
SIZE
100
AcDbLine
 10
699.999978
 20
-367.264172
 30
0.0
 11
689.999978
 21
-367.264172
 31
0.0
  0
LINE
  5
545
330
692
100
AcDbEntity
  8
SIZE
100
AcDbLine
 10
696.0
 20
-17.7
 30
0.0
 11
696.0
 21
-230.94304
 31
0.0
  0
LINE
  5
546
330
692
100
AcDbEntity
  8
SIZE
100
AcDbLine
 10
691.0
 20
-200.94304
 30
0.0
 11
686.0
 21
-200.94304
 31
0.0
  0
CIRCLE
  5
547
330
692
100
AcDbEntity
  8
SIZE
100
AcDbCircle
 10
696.0
 20
-200.94304
 30
0.0
 40
5.0
  0
TEXT
  5
549
330
692
100
AcDbEntity
  8
NOTE
100
AcDbText
 10
1073.187725
 20
-243.813892
 30
0.0
 40
64.0
  1
D4 Rc1
 41
0.9
100
AcDbText
  0
LINE
  5
54A
330
692
100
AcDbEntity
  8
NOTE
100
AcDbLine
 10
1056.540995
 20
-264.531141
 30
0.0
 11
1353.756954
 21
-264.531141
 31
0.0
  0
TEXT
  5
54B
330
692
100
AcDbEntity
  8
SIZE
100
AcDbText
 10
1087.780107
 20
-142.8571424285714
 30
0.0
 40
55.0
  1
102
 50
90.0
 41
0.9
 72
     1
 11
1087.780107
 21
-83.92857099999998
 31
0.0
100
AcDbText
  0
LINE
  5
54C
330
692
100
AcDbEntity
  8
DETAIL
100
AcDbLine
 10
-256.999992
 20
79.99999800000002
 30
0.0
 11
-251.999992
 21
74.99999800000002
 31
0.0
  0
LINE
  5
54D
330
692
100
AcDbEntity
  8
DETAIL
100
AcDbLine
 10
-251.999992
 20
15.0
 30
0.0
 11
-256.999992
 21
10.0
 31
0.0
  0
LINE
  5
54E
330
692
100
AcDbEntity
  8
DETAIL
100
AcDbLine
 10
-251.999992
 20
15.0
 30
0.0
 11
-251.999992
 21
74.99999800000002
 31
0.0
  0
LINE
  5
54F
330
692
100
AcDbEntity
  8
DETAIL
100
AcDbLine
 10
472.999986
 20
79.99999800000002
 30
0.0
 11
256.999992
 21
79.99999800000002
 31
0.0
  0
LINE
  5
550
330
692
100
AcDbEntity
  8
DETAIL
100
AcDbLine
 10
256.999992
 20
10.0
 30
0.0
 11
472.999986
 21
10.0
 31
0.0
  0
LINE
  5
551
330
692
100
AcDbEntity
  8
DETAIL
100
AcDbLine
 10
251.999992
 20
74.99999800000002
 30
0.0
 11
256.999992
 21
79.99999800000002
 31
0.0
  0
LINE
  5
552
330
692
100
AcDbEntity
  8
DETAIL
100
AcDbLine
 10
256.999992
 20
10.0
 30
0.0
 11
251.999992
 21
15.0
 31
0.0
  0
LINE
  5
553
330
692
100
AcDbEntity
  8
DETAIL
100
AcDbLine
 10
251.999992
 20
15.0
 30
0.0
 11
251.999992
 21
74.99999800000002
 31
0.0
  0
LINE
  5
554
330
692
100
AcDbEntity
  8
DETAIL
100
AcDbLine
 10
472.999986
 20
79.99999800000002
 30
0.0
 11
477.999985
 21
74.99999800000002
 31
0.0
  0
LINE
  5
555
330
692
100
AcDbEntity
  8
DETAIL
100
AcDbLine
 10
477.999985
 20
15.0
 30
0.0
 11
472.999986
 21
10.0
 31
0.0
  0
LINE
  5
556
330
692
100
AcDbEntity
  8
DETAIL
100
AcDbLine
 10
477.999985
 20
15.0
 30
0.0
 11
477.999985
 21
74.99999800000002
 31
0.0
  0
CIRCLE
  5
557
330
692
100
AcDbEntity
  8
DETAIL
100
AcDbCircle
 10
-192.499994
 20
928.999972
 30
0.0
 40
1.45
  0
CIRCLE
  5
558
330
692
100
AcDbEntity
  8
DETAIL
100
AcDbCircle
 10
192.499994
 20
928.999972
 30
0.0
 40
1.45
  0
LINE
  5
559
330
692
100
AcDbEntity
  8
NOTE
100
AcDbLine
 10
920.626837
 20
1034.380848
 30
0.0
 11
709.999978
 21
325.0
 31
0.0
  0
LINE
  5
55A
330
692
100
AcDbEntity
  8
NOTE
100
AcDbLine
 10
937.8355239999999
 20
804.7604309999996
 30
0.0
 11
709.999978
 21
275.0
 31
0.0
  0
LINE
  5
55B
330
692
100
AcDbEntity
  8
DETAIL
100
AcDbLine
 10
667.9999799999998
 20
130.0
 30
0.0
 11
667.9999799999998
 21
653.9999799999998
 31
0.0
  0
LINE
  5
55C
330
692
100
AcDbEntity
  8
SIZE
100
AcDbLine
 10
745.606644
 20
325.0
 30
0.0
 11
1443.156599
 21
325.0
 31
0.0
  0
LINE
  5
55D
330
692
100
AcDbEntity
  8
SIZE
100
AcDbLine
 10
745.606644
 20
275.0
 30
0.0
 11
1443.156599
 21
275.0
 31
0.0
  0
LINE
  5
55E
330
692
100
AcDbEntity
  8
SIZE
100
AcDbLine
 10
745.606644
 20
275.0
 30
0.0
 11
1443.156599
 21
275.0
 31
0.0
  0
LINE
  5
55F
330
692
100
AcDbEntity
  8
SIZE
100
AcDbLine
 10
745.606644
 20
210.0
 30
0.0
 11
1443.156599
 21
210.0
 31
0.0
  0
LINE
  5
560
330
692
100
AcDbEntity
  8
SIZE
100
AcDbLine
 10
745.606644
 20
210.0
 30
0.0
 11
1443.156599
 21
210.0
 31
0.0
  0
LINE
  5
561
330
692
100
AcDbEntity
  8
SIZE
100
AcDbLine
 10
761.0
 20
0.0
 30
0.0
 11
1443.156599
 21
0.0
 31
0.0
  0
LINE
  5
562
330
692
100
AcDbEntity
  8
SIZE
100
AcDbLine
 10
761.0
 20
0.0
 30
0.0
 11
1288.374384
 21
0.0
 31
0.0
  0
LINE
  5
563
330
692
100
AcDbEntity
  8
SIZE
100
AcDbLine
 10
729.999978
 20
130.0
 30
0.0
 11
1288.374384
 21
130.0
 31
0.0
  0
LINE
  5
564
330
692
100
AcDbEntity
  8
SIZE
100
AcDbLine
 10
776.999978
 20
102.0
 30
0.0
 11
1132.780107
 21
102.0
 31
0.0
  0
LINE
  5
565
330
692
100
AcDbEntity
  8
SIZE
100
AcDbLine
 10
761.0
 20
0.0
 30
0.0
 11
1132.780107
 21
0.0
 31
0.0
  0
TEXT
  5
566
330
692
100
AcDbEntity
  8
NOTE
100
AcDbText
 10
881.5601519999999
 20
495.192833
 30
0.0
 40
64.0
  1
EL4 %%C43
 41
0.9
100
AcDbText
  0
LINE
  5
567
330
692
100
AcDbEntity
  8
NOTE
100
AcDbLine
 10
876.015894
 20
472.6767429999998
 30
0.0
 11
1225.289571
 21
472.6767429999998
 31
0.0
  0
LINE
  5
568
330
692
100
AcDbEntity
  8
NOTE
100
AcDbLine
 10
709.999978
 20
275.0
 30
0.0
 11
714.7952849999998
 21
307.986605
 31
0.0
  0
LINE
  5
569
330
692
100
AcDbEntity
  8
NOTE
100
AcDbLine
 10
876.015894
 20
472.6767429999998
 30
0.0
 11
709.991178
 21
210.030584
 31
0.0
  0
CIRCLE
  5
56A
330
692
100
AcDbEntity
  8
DETAIL
100
AcDbCircle
 10
671.39998
 20
99.999997
 30
0.0
 40
3.5
  0
CIRCLE
  5
56B
330
692
100
AcDbEntity
  8
DETAIL
100
AcDbCircle
 10
671.39998
 20
24.999999
 30
0.0
 40
3.5
  0
LINE
  5
56C
330
692
100
AcDbEntity
  8
DETAIL
100
AcDbLine
 10
646.39998
 20
0.0
 30
0.0
 11
646.39998
 21
130.0
 31
0.0
  0
LINE
  5
575
330
692
100
AcDbEntity
  8
OUTLINE
100
AcDbLine
 10
696.0
 20
130.0
 30
0.0
 11
696.0
 21
0.0
 31
0.0
  0
LINE
  5
57A
330
692
100
AcDbEntity
  8
NOTE
100
AcDbLine
 10
707.0
 20
0.0
 30
0.0
 11
747.0
 21
0.0
 31
0.0
  0
LINE
  5
57B
330
692
100
AcDbEntity
  8
NOTE
100
AcDbLine
 10
736.999978
 20
102.0
 30
0.0
 11
751.6551299999998
 21
72.061103
 31
0.0
  0
LINE
  5
57C
330
692
100
AcDbEntity
  8
NOTE
100
AcDbLine
 10
736.999978
 20
102.0
 30
0.0
 11
764.6611599999999
 21
83.39973099999998
 31
0.0
  0
LINE
  5
57D
330
692
100
AcDbEntity
  8
NOTE
100
AcDbLine
 10
716.999978
 20
102.0
 30
0.0
 11
756.999978
 21
102.0
 31
0.0
  0
LINE
  5
57E
330
692
100
AcDbEntity
  8
NOTE
100
AcDbLine
 10
736.999978
 20
82.0
 30
0.0
 11
736.999978
 21
122.0
 31
0.0
  0
LINE
  5
57F
330
692
100
AcDbEntity
  8
DETAIL
100
AcDbLine
 10
696.0
 20
2.299999999999998
 30
0.0
 11
696.0
 21
130.0
 31
0.0
  0
LINE
  5
580
330
692
100
AcDbEntity
  8
DETAIL
100
AcDbLine
 10
716.799978
 20
83.000001
 30
0.0
 11
716.799978
 21
120.999999
 31
0.0
  0
LINE
  5
581
330
692
100
AcDbEntity
  8
DETAIL
100
AcDbLine
 10
726.999978
 20
116.0
 30
0.0
 11
716.799978
 21
116.0
 31
0.0
  0
LINE
  5
582
330
692
100
AcDbEntity
  8
DETAIL
100
AcDbLine
 10
736.999978
 20
113.0
 30
0.0
 11
736.999978
 21
91.0
 31
0.0
  0
LINE
  5
583
330
692
100
AcDbEntity
  8
DETAIL
100
AcDbLine
 10
736.999978
 20
113.0
 30
0.0
 11
726.999978
 21
113.0
 31
0.0
  0
LINE
  5
584
330
692
100
AcDbEntity
  8
DETAIL
100
AcDbLine
 10
726.999978
 20
91.0
 30
0.0
 11
736.999978
 21
91.0
 31
0.0
  0
LINE
  5
585
330
692
100
AcDbEntity
  8
DETAIL
100
AcDbLine
 10
726.999978
 20
116.0
 30
0.0
 11
726.999978
 21
88.0
 31
0.0
  0
LINE
  5
586
330
692
100
AcDbEntity
  8
DETAIL
100
AcDbLine
 10
716.799978
 20
88.0
 30
0.0
 11
726.999978
 21
88.0
 31
0.0
  0
LINE
  5
587
330
692
100
AcDbEntity
  8
DETAIL
100
AcDbLine
 10
741.0
 20
0.0
 30
0.0
 11
741.0
 21
2.299999999999998
 31
0.0
  0
LINE
  5
588
330
692
100
AcDbEntity
  8
DETAIL
100
AcDbLine
 10
696.399979
 20
83.000001
 30
0.0
 11
716.799978
 21
83.000001
 31
0.0
  0
LINE
  5
589
330
692
100
AcDbEntity
  8
DETAIL
100
AcDbLine
 10
716.799978
 20
120.999999
 30
0.0
 11
696.399979
 21
120.999999
 31
0.0
  0
CIRCLE
  5
58A
330
692
100
AcDbEntity
  8
DETAIL
100
AcDbCircle
 10
651.9999799999998
 20
253.999992
 30
0.0
 40
2.5
  0
LINE
  5
58F
330
692
100
AcDbEntity
  8
NOTE
100
AcDbLine
 10
709.999978
 20
275.0
 30
0.0
 11
730.646138
 21
301.169584
 31
0.0
  0
LINE
  5
590
330
692
100
AcDbEntity
  8
NOTE
100
AcDbLine
 10
709.999978
 20
290.606666
 30
0.0
 11
709.999978
 21
259.393334
 31
0.0
  0
LINE
  5
591
330
692
100
AcDbEntity
  8
NOTE
100
AcDbLine
 10
725.606644
 20
275.0
 30
0.0
 11
694.393312
 21
275.0
 31
0.0
  0
LINE
  5
592
330
692
100
AcDbEntity
  8
NOTE
100
AcDbLine
 10
709.991178
 20
210.030584
 30
0.0
 11
734.487513
 21
232.636791
 31
0.0
  0
LINE
  5
593
330
692
100
AcDbEntity
  8
NOTE
100
AcDbLine
 10
709.999978
 20
225.606666
 30
0.0
 11
709.999978
 21
194.393334
 31
0.0
  0
LINE
  5
594
330
692
100
AcDbEntity
  8
NOTE
100
AcDbLine
 10
709.991178
 20
210.030584
 30
0.0
 11
719.9025230000001
 21
241.856301
 31
0.0
  0
LINE
  5
595
330
692
100
AcDbEntity
  8
NOTE
100
AcDbLine
 10
725.606644
 20
210.0
 30
0.0
 11
694.393312
 21
210.0
 31
0.0
  0
LINE
  5
597
330
692
100
AcDbEntity
  8
NOTE
100
AcDbLine
 10
709.999978
 20
325.0
 30
0.0
 11
727.434958
 21
353.410078
 31
0.0
  0
LINE
  5
598
330
692
100
AcDbEntity
  8
NOTE
100
AcDbLine
 10
709.999978
 20
340.606666
 30
0.0
 11
709.999978
 21
309.393334
 31
0.0
  0
LINE
  5
599
330
692
100
AcDbEntity
  8
NOTE
100
AcDbLine
 10
709.999978
 20
325.0
 30
0.0
 11
710.894074
 21
358.321339
 31
0.0
  0
LINE
  5
59A
330
692
100
AcDbEntity
  8
NOTE
100
AcDbLine
 10
725.606644
 20
325.0
 30
0.0
 11
694.393312
 21
325.0
 31
0.0
  0
CIRCLE
  5
59B
330
692
100
AcDbEntity
  8
DETAIL
100
AcDbCircle
 10
651.9999799999998
 20
603.999982
 30
0.0
 40
2.5
  0
LINE
  5
59C
330
692
100
AcDbEntity
  8
SIZE
100
AcDbLine
 10
1413.156599
 20
285.0
 30
0.0
 11
1413.156599
 21
315.0
 31
0.0
  0
TEXT
  5
59D
330
692
100
AcDbEntity
  8
SIZE
100
AcDbText
 10
1243.374384
 20
6.071428571428576
 30
0.0
 40
55.0
  1
130
 50
90.0
 41
0.9
 72
     1
 11
1243.374384
 21
65.0
 31
0.0
100
AcDbText
  0
LINE
  5
59F
330
692
100
AcDbEntity
  8
SIZE
100
AcDbLine
 10
1102.780107
 20
5.0
 30
0.0
 11
1102.780107
 21
10.0
 31
0.0
  0
LINE
  5
5A0
330
692
100
AcDbEntity
  8
SIZE
100
AcDbLine
 10
1102.780107
 20
97.0
 30
0.0
 11
1102.780107
 21
92.0
 31
0.0
  0
CIRCLE
  5
5A1
330
692
100
AcDbEntity
  8
SIZE
100
AcDbCircle
 10
1102.780107
 20
102.0
 30
0.0
 40
5.0
  0
LINE
  5
5A2
330
692
100
AcDbEntity
  8
SIZE
100
AcDbLine
 10
1102.780107
 20
92.0
 30
0.0
 11
1102.780107
 21
10.0
 31
0.0
  0
TEXT
  5
5A3
330
692
100
AcDbEntity
  8
SIZE
100
AcDbText
 10
1398.156599
 20
46.07142857142858
 30
0.0
 40
55.0
  1
210
 50
90.0
 41
0.9
 72
     1
 11
1398.156599
 21
105.0
 31
0.0
100
AcDbText
  0
LINE
  5
5A4
330
692
100
AcDbEntity
  8
SIZE
100
AcDbLine
 10
1413.156599
 20
10.0
 30
0.0
 11
1413.156599
 21
200.0
 31
0.0
  0
LINE
  5
5A6
330
692
100
AcDbEntity
  8
SIZE
100
AcDbLine
 10
1258.374384
 20
5.0
 30
0.0
 11
1258.374384
 21
10.0
 31
0.0
  0
LINE
  5
5A7
330
692
100
AcDbEntity
  8
SIZE
100
AcDbLine
 10
1258.374384
 20
125.0
 30
0.0
 11
1258.374384
 21
120.0
 31
0.0
  0
CIRCLE
  5
5A8
330
692
100
AcDbEntity
  8
SIZE
100
AcDbCircle
 10
1258.374384
 20
130.0
 30
0.0
 40
5.0
  0
LINE
  5
5A9
330
692
100
AcDbEntity
  8
SIZE
100
AcDbLine
 10
1258.374384
 20
120.0
 30
0.0
 11
1258.374384
 21
10.0
 31
0.0
  0
LINE
  5
5AA
330
692
100
AcDbEntity
  8
SIZE
100
AcDbLine
 10
1413.156599
 20
5.0
 30
0.0
 11
1413.156599
 21
10.0
 31
0.0
  0
LINE
  5
5AB
330
692
100
AcDbEntity
  8
SIZE
100
AcDbLine
 10
1413.156599
 20
280.0
 30
0.0
 11
1413.156599
 21
285.0
 31
0.0
  0
CIRCLE
  5
5AC
330
692
100
AcDbEntity
  8
SIZE
100
AcDbCircle
 10
1413.156599
 20
275.0
 30
0.0
 40
5.0
  0
LINE
  5
5AE
330
692
100
AcDbEntity
  8
SIZE
100
AcDbLine
 10
1413.156599
 20
270.0
 30
0.0
 11
1413.156599
 21
265.0
 31
0.0
  0
CIRCLE
  5
5AF
330
692
100
AcDbEntity
  8
SIZE
100
AcDbCircle
 10
1413.156599
 20
275.0
 30
0.0
 40
5.0
  0
LINE
  5
5B0
330
692
100
AcDbEntity
  8
SIZE
100
AcDbLine
 10
1413.156599
 20
215.0
 30
0.0
 11
1413.156599
 21
220.0
 31
0.0
  0
CIRCLE
  5
5B1
330
692
100
AcDbEntity
  8
SIZE
100
AcDbCircle
 10
1413.156599
 20
210.0
 30
0.0
 40
5.0
  0
LINE
  5
5B2
330
692
100
AcDbEntity
  8
SIZE
100
AcDbLine
 10
1413.156599
 20
220.0
 30
0.0
 11
1413.156599
 21
265.0
 31
0.0
  0
LINE
  5
5B4
330
692
100
AcDbEntity
  8
SIZE
100
AcDbLine
 10
1413.156599
 20
205.0
 30
0.0
 11
1413.156599
 21
200.0
 31
0.0
  0
CIRCLE
  5
5B5
330
692
100
AcDbEntity
  8
SIZE
100
AcDbCircle
 10
1413.156599
 20
210.0
 30
0.0
 40
5.0
  0
TEXT
  5
5B6
330
692
100
AcDbEntity
  8
SIZE
100
AcDbText
 10
1398.156599
 20
361.5870954285715
 30
0.0
 40
55.0
  1
50
 50
90.0
 41
0.9
 72
     1
 11
1398.156599
 21
401.658524
 31
0.0
100
AcDbText
  0
LINE
  5
5B8
330
692
100
AcDbEntity
  8
SIZE
100
AcDbLine
 10
1413.156599
 20
320.0
 30
0.0
 11
1413.156599
 21
315.0
 31
0.0
  0
CIRCLE
  5
5B9
330
692
100
AcDbEntity
  8
SIZE
100
AcDbCircle
 10
1413.156599
 20
325.0
 30
0.0
 40
5.0
  0
LINE
  5
5BA
330
692
100
AcDbEntity
  8
SIZE
100
AcDbLine
 10
1413.156599
 20
456.729953
 30
0.0
 11
1413.156599
 21
325.0
 31
0.0
  0
LINE
  5
5BB
330
692
100
AcDbEntity
  8
NOTE
100
AcDbLine
 10
980.579546
 20
944.0335949999999
 30
0.0
 11
1028.579544
 21
900.0335970000001
 31
0.0
  0
LINE
  5
5BC
330
692
100
AcDbEntity
  8
NOTE
100
AcDbLine
 10
980.579546
 20
944.0335949999999
 30
0.0
 11
1028.579544
 21
988.033594
 31
0.0
  0
TEXT
  5
5BD
330
692
100
AcDbEntity
  8
NOTE
100
AcDbText
 10
944.421713
 20
825.47768
 30
0.0
 40
64.0
  1
CL2 %%C27
 41
0.9
100
AcDbText
  0
LINE
  5
5BE
330
692
100
AcDbEntity
  8
NOTE
100
AcDbLine
 10
937.8355239999999
 20
804.7604309999996
 30
0.0
 11
1294.260961
 21
804.7604309999996
 31
0.0
  0
TEXT
  5
5BF
330
692
100
AcDbEntity
  8
NOTE
100
AcDbText
 10
933.9738459999999
 20
1047.717008
 30
0.0
 40
64.0
  1
EL3 %%C27
 41
0.9
100
AcDbText
  0
LINE
  5
5C0
330
692
100
AcDbEntity
  8
NOTE
100
AcDbLine
 10
920.626837
 20
1034.380848
 30
0.0
 11
1262.883989
 21
1034.380848
 31
0.0
  0
LINE
  5
5C1
330
692
100
AcDbEntity
  8
DETAIL
100
AcDbLine
 10
642.9999799999998
 20
908.9999719999999
 30
0.0
 11
642.9999799999998
 21
919.799972
 31
0.0
  0
LINE
  5
5C2
330
692
100
AcDbEntity
  8
DETAIL
100
AcDbLine
 10
664.9999799999998
 20
919.799972
 30
0.0
 11
664.9999799999998
 21
674.999979
 31
0.0
  0
LINE
  5
5C3
330
692
100
AcDbEntity
  8
DETAIL
100
AcDbLine
 10
664.9999799999998
 20
673.999979
 30
0.0
 11
664.9999799999998
 21
656.9999799999997
 31
0.0
  0
LINE
  5
5C4
330
692
100
AcDbEntity
  8
DETAIL
100
AcDbLine
 10
667.9999799999998
 20
653.9999799999998
 30
0.0
 11
662.9999799999998
 21
658.9999799999998
 31
0.0
  0
LINE
  5
5C5
330
692
100
AcDbEntity
  8
DETAIL
100
AcDbLine
 10
642.9999799999998
 20
658.9999799999998
 30
0.0
 11
642.9999799999998
 21
673.999979
 31
0.0
  0
LINE
  5
5C6
330
692
100
AcDbEntity
  8
DETAIL
100
AcDbLine
 10
642.9999799999998
 20
658.9999799999998
 30
0.0
 11
662.9999799999998
 21
658.9999799999998
 31
0.0
  0
LINE
  5
5C8
330
692
100
AcDbEntity
  8
NOTE
100
AcDbLine
 10
709.999978
 20
630.0
 30
0.0
 11
723.2739849999997
 21
660.5763269999998
 31
0.0
  0
LINE
  5
5C9
330
692
100
AcDbEntity
  8
NOTE
100
AcDbLine
 10
709.999978
 20
645.606666
 30
0.0
 11
709.999978
 21
614.393334
 31
0.0
  0
LINE
  5
5CA
330
692
100
AcDbEntity
  8
NOTE
100
AcDbLine
 10
709.999978
 20
630.0
 30
0.0
 11
706.207441
 21
663.116879
 31
0.0
  0
LINE
  5
5CB
330
692
100
AcDbEntity
  8
NOTE
100
AcDbLine
 10
725.606644
 20
630.0
 30
0.0
 11
694.393312
 21
630.0
 31
0.0
  0
LINE
  5
5CC
330
692
100
AcDbEntity
  8
DETAIL
100
AcDbLine
 10
642.9999799999998
 20
919.799972
 30
0.0
 11
702.999979
 21
919.799972
 31
0.0
  0
CIRCLE
  5
5CD
330
692
100
AcDbEntity
  8
DETAIL
100
AcDbCircle
 10
577.499982
 20
928.999972
 30
0.0
 40
1.45
  0
CIRCLE
  5
5CE
330
692
100
AcDbEntity
  8
DETAIL
100
AcDbCircle
 10
687.999979
 20
963.9999709999999
 30
0.0
 40
2.5
  0
LINE
  5
5CF
330
692
100
AcDbEntity
  8
NOTE
100
AcDbLine
 10
1028.579544
 20
924.0335959999999
 30
0.0
 11
1028.579544
 21
900.0335970000001
 31
0.0
  0
TEXT
  5
5D0
330
692
100
AcDbEntity
  8
NOTE
100
AcDbText
 10
1137.677823
 20
927.6598429999999
 30
0.0
 40
46.666665
  1
外気取込
 50
0.000003
 41
0.8404759999999999
  7
STANDARD1
100
AcDbText
  0
LINE
  5
5D1
330
692
100
AcDbEntity
  8
NOTE
100
AcDbLine
 10
1028.579544
 20
988.033594
 30
0.0
 11
1028.579544
 21
964.0335949999997
 31
0.0
  0
LINE
  5
5D2
330
692
100
AcDbEntity
  8
NOTE
100
AcDbLine
 10
1028.579544
 20
964.0335949999997
 30
0.0
 11
1092.579542
 21
964.0335949999997
 31
0.0
  0
LINE
  5
5D3
330
692
100
AcDbEntity
  8
NOTE
100
AcDbLine
 10
1028.579544
 20
924.0335959999999
 30
0.0
 11
1092.579542
 21
924.0335959999999
 31
0.0
  0
LINE
  5
5D4
330
692
100
AcDbEntity
  8
NOTE
100
AcDbLine
 10
1092.579542
 20
964.0335949999997
 30
0.0
 11
1092.579542
 21
924.0335959999999
 31
0.0
  0
LINE
  5
5D5
330
692
100
AcDbEntity
  8
OUTLINE
100
AcDbLine
 10
-709.999978
 20
1799.999945
 30
0.0
 11
709.999978
 21
1799.999945
 31
0.0
  0
LINE
  5
5D6
330
692
100
AcDbEntity
  8
DETAIL
100
AcDbLine
 10
-709.999978
 20
1999.999939
 30
0.0
 11
709.999978
 21
1999.999939
 31
0.0
  0
LINE
  5
5D7
330
692
100
AcDbEntity
  8
DETAIL
100
AcDbLine
 10
-672.999979
 20
1799.999945
 30
0.0
 11
672.999979
 21
1799.999945
 31
0.0
  0
LINE
  5
5D8
330
692
100
AcDbEntity
  8
DETAIL
100
AcDbLine
 10
-667.9999799999998
 20
1799.999945
 30
0.0
 11
667.9999799999998
 21
1799.999945
 31
0.0
  0
LINE
  5
5D9
330
692
100
AcDbEntity
  8
DETAIL
100
AcDbLine
 10
-702.999979
 20
1582.699952
 30
0.0
 11
702.999979
 21
1582.699952
 31
0.0
  0
LINE
  5
5DA
330
692
100
AcDbEntity
  8
DETAIL
100
AcDbLine
 10
-702.999979
 20
1577.299952
 30
0.0
 11
702.999979
 21
1577.299952
 31
0.0
  0
LINE
  5
5DB
330
692
100
AcDbEntity
  8
DETAIL
100
AcDbLine
 10
-702.999979
 20
1357.699959
 30
0.0
 11
702.999979
 21
1357.699959
 31
0.0
  0
LINE
  5
5DC
330
692
100
AcDbEntity
  8
DETAIL
100
AcDbLine
 10
-702.999979
 20
1352.299959
 30
0.0
 11
702.999979
 21
1352.299959
 31
0.0
  0
TEXT
  5
5DD
330
692
100
AcDbEntity
  8
ETC
100
AcDbText
 10
-1539.943075667329
 20
2129.184194849162
 30
0.0
 40
64.0
  1
KFH-P10A1_PLENUM_3
 41
0.9
100
AcDbText
  0
TEXT
  5
5DE
330
692
100
AcDbEntity
  8
NOTE
100
AcDbText
 10
-1226.108364
 20
1320.060798
 30
0.0
 40
64.0
  1
D1 Rc1-1/4
 41
0.9
100
AcDbText
  0
LINE
  5
5DF
330
692
100
AcDbEntity
  8
NOTE
100
AcDbLine
 10
-809.6431110000002
 20
1299.242
 30
0.0
 11
-1224.371681
 21
1299.241996
 31
0.0
  0
LINE
  5
5E0
330
692
100
AcDbEntity
  8
DETAIL
100
AcDbLine
 10
-672.999979
 20
1850.647551
 30
0.0
 11
-672.999979
 21
1749.352339
 31
0.0
  0
LINE
  5
5E1
330
692
100
AcDbEntity
  8
DETAIL
100
AcDbLine
 10
-702.999979
 20
1850.647551
 30
0.0
 11
-702.999979
 21
1749.352339
 31
0.0
  0
CIRCLE
  5
5E2
330
692
100
AcDbEntity
  8
DETAIL
100
AcDbCircle
 10
-687.999979
 20
1239.999962
 30
0.0
 40
2.5
  0
CIRCLE
  5
5E3
330
692
100
AcDbEntity
  8
DETAIL
100
AcDbCircle
 10
-687.999979
 20
1464.999955
 30
0.0
 40
2.5
  0
LINE
  5
5E4
330
692
100
AcDbEntity
  8
DETAIL
100
AcDbLine
 10
-672.999979
 20
1749.352339
 30
0.0
 11
-677.999979
 21
1744.352339
 31
0.0
  0
LINE
  5
5E5
330
692
100
AcDbEntity
  8
DETAIL
100
AcDbLine
 10
-702.999979
 20
1749.352339
 30
0.0
 11
-697.999979
 21
1744.352339
 31
0.0
  0
LINE
  5
5E6
330
692
100
AcDbEntity
  8
DETAIL
100
AcDbLine
 10
-677.999979
 20
1744.352339
 30
0.0
 11
-697.999979
 21
1744.352339
 31
0.0
  0
CIRCLE
  5
5E7
330
692
100
AcDbEntity
  8
DETAIL
100
AcDbCircle
 10
-687.999979
 20
1754.999946
 30
0.0
 40
2.5
  0
LINE
  5
5E8
330
692
100
AcDbEntity
  8
DETAIL
100
AcDbLine
 10
-672.999979
 20
1850.647551
 30
0.0
 11
-677.999979
 21
1855.647551
 31
0.0
  0
LINE
  5
5E9
330
692
100
AcDbEntity
  8
DETAIL
100
AcDbLine
 10
-702.999979
 20
1850.647551
 30
0.0
 11
-697.999979
 21
1855.647551
 31
0.0
  0
LINE
  5
5EA
330
692
100
AcDbEntity
  8
DETAIL
100
AcDbLine
 10
-677.999979
 20
1855.647551
 30
0.0
 11
-697.999979
 21
1855.647551
 31
0.0
  0
CIRCLE
  5
5EB
330
692
100
AcDbEntity
  8
DETAIL
100
AcDbCircle
 10
-687.999979
 20
1844.999944
 30
0.0
 40
2.5
  0
LINE
  5
5EC
330
692
100
AcDbEntity
  8
DETAIL
100
AcDbLine
 10
709.999978
 20
1999.999939
 30
0.0
 11
709.999978
 21
1799.999945
 31
0.0
  0
LINE
  5
5ED
330
692
100
AcDbEntity
  8
DETAIL
100
AcDbLine
 10
672.999979
 20
1850.647551
 30
0.0
 11
672.999979
 21
1749.352339
 31
0.0
  0
LINE
  5
5EE
330
692
100
AcDbEntity
  8
DETAIL
100
AcDbLine
 10
702.999979
 20
1850.647551
 30
0.0
 11
702.999979
 21
1749.352339
 31
0.0
  0
TEXT
  5
5EF
330
692
100
AcDbEntity
  8
NOTE
100
AcDbText
 10
799.306499
 20
1320.085146
 30
0.0
 40
64.0
  1
D3 Rc1-1/4
 41
0.9
100
AcDbText
  0
LINE
  5
5F0
330
692
100
AcDbEntity
  8
NOTE
100
AcDbLine
 10
809.6431110000002
 20
1299.5194
 30
0.0
 11
1307.906288
 21
1299.519431
 31
0.0
  0
CIRCLE
  5
5F1
330
692
100
AcDbEntity
  8
DETAIL
100
AcDbCircle
 10
687.999979
 20
1239.999962
 30
0.0
 40
2.5
  0
CIRCLE
  5
5F2
330
692
100
AcDbEntity
  8
DETAIL
100
AcDbCircle
 10
687.999979
 20
1464.999955
 30
0.0
 40
2.5
  0
LINE
  5
5F3
330
692
100
AcDbEntity
  8
DETAIL
100
AcDbLine
 10
677.999979
 20
1744.352339
 30
0.0
 11
697.999979
 21
1744.352339
 31
0.0
  0
LINE
  5
5F4
330
692
100
AcDbEntity
  8
DETAIL
100
AcDbLine
 10
672.999979
 20
1749.352339
 30
0.0
 11
677.999979
 21
1744.352339
 31
0.0
  0
LINE
  5
5F7
330
692
100
AcDbEntity
  8
DETAIL
100
AcDbLine
 10
702.999979
 20
1749.352339
 30
0.0
 11
697.999979
 21
1744.352339
 31
0.0
  0
CIRCLE
  5
5F8
330
692
100
AcDbEntity
  8
DETAIL
100
AcDbCircle
 10
687.999979
 20
1754.999946
 30
0.0
 40
2.5
  0
CIRCLE
  5
5F9
330
692
100
AcDbEntity
  8
DETAIL
100
AcDbCircle
 10
687.999979
 20
1754.999946
 30
0.0
 40
2.5
  0
LINE
  5
5FA
330
692
100
AcDbEntity
  8
DETAIL
100
AcDbLine
 10
677.999979
 20
1855.647551
 30
0.0
 11
697.999979
 21
1855.647551
 31
0.0
  0
LINE
  5
5FB
330
692
100
AcDbEntity
  8
DETAIL
100
AcDbLine
 10
672.999979
 20
1850.647551
 30
0.0
 11
677.999979
 21
1855.647551
 31
0.0
  0
LINE
  5
5FC
330
692
100
AcDbEntity
  8
DETAIL
100
AcDbLine
 10
702.999979
 20
1850.647551
 30
0.0
 11
697.999979
 21
1855.647551
 31
0.0
  0
CIRCLE
  5
5FD
330
692
100
AcDbEntity
  8
DETAIL
100
AcDbCircle
 10
687.999979
 20
1844.999944
 30
0.0
 40
2.5
  0
LINE
  5
600
330
692
100
AcDbEntity
  8
SIZE
100
AcDbLine
 10
2021.436252
 20
10.0
 30
0.0
 11
2021.436252
 21
1989.999939
 31
0.0
  0
LINE
  5
601
330
692
100
AcDbEntity
  8
SIZE
100
AcDbLine
 10
1873.024524
 20
1789.999945
 30
0.0
 11
1873.024524
 21
10.0
 31
0.0
  0
CIRCLE
  5
602
330
692
100
AcDbEntity
  8
SIZE
100
AcDbCircle
 10
1685.003883
 20
0.0
 30
0.0
 40
5.0
  0
CIRCLE
  5
603
330
692
100
AcDbEntity
  8
SIZE
100
AcDbCircle
 10
2021.436252
 20
0.0
 30
0.0
 40
5.0
  0
CIRCLE
  5
604
330
692
100
AcDbEntity
  8
SIZE
100
AcDbCircle
 10
1873.024524
 20
0.0
 30
0.0
 40
5.0
  0
LINE
  5
605
330
692
100
AcDbEntity
  8
SIZE
100
AcDbLine
 10
1685.003883
 20
620.0
 30
0.0
 11
1685.003883
 21
10.0
 31
0.0
  0
TEXT
  5
606
330
692
100
AcDbEntity
  8
SIZE
100
AcDbText
 10
1670.003883
 20
235.0277928571429
 30
0.0
 40
55.0
  1
630
 50
90.0
 41
0.9
 72
     1
 11
1670.003883
 21
298.67065
 31
0.0
100
AcDbText
  0
TEXT
  5
607
330
692
100
AcDbEntity
  8
SIZE
100
AcDbText
 10
1541.278321
 20
89.97563142857146
 30
0.0
 40
55.0
  1
65
 50
90.0
 41
0.9
 72
     1
 11
1541.278321
 21
130.04706
 31
0.0
100
AcDbText
  0
LINE
  5
608
330
692
100
AcDbEntity
  8
SIZE
100
AcDbLine
 10
1556.278321
 20
185.118489
 30
0.0
 11
1556.278321
 21
74.97563199999998
 31
0.0
  0
LINE
  5
60A
330
692
100
AcDbEntity
  8
SIZE
100
AcDbLine
 10
1685.003883
 20
5.0
 30
0.0
 11
1685.003883
 21
10.0
 31
0.0
  0
LINE
  5
60C
330
692
100
AcDbEntity
  8
SIZE
100
AcDbLine
 10
1873.024524
 20
5.0
 30
0.0
 11
1873.024524
 21
10.0
 31
0.0
  0
LINE
  5
60D
330
692
100
AcDbEntity
  8
SIZE
100
AcDbLine
 10
2021.436252
 20
5.0
 30
0.0
 11
2021.436252
 21
10.0
 31
0.0
  0
TEXT
  5
60E
330
692
100
AcDbEntity
  8
SIZE
100
AcDbText
 10
1858.024524
 20
817.4999730000001
 30
0.0
 40
55.0
  1
1800
 50
90.0
 41
0.9
 72
     1
 11
1858.024524
 21
899.999973
 31
0.0
100
AcDbText
  0
CIRCLE
  5
60F
330
692
100
AcDbEntity
  8
SIZE
100
AcDbCircle
 10
1685.003883
 20
630.0
 30
0.0
 40
5.0
  0
LINE
  5
610
330
692
100
AcDbEntity
  8
SIZE
100
AcDbLine
 10
1685.003883
 20
625.0
 30
0.0
 11
1685.003883
 21
620.0
 31
0.0
  0
TEXT
  5
611
330
692
100
AcDbEntity
  8
SIZE
100
AcDbText
 10
2006.436252
 20
912.7856832857142
 30
0.0
 40
55.0
  1
2000
 50
90.0
 41
0.9
 72
     1
 11
2006.436252
 21
999.9999689999999
 31
0.0
100
AcDbText
  0
TEXT
  5
612
330
692
100
AcDbEntity
  8
SIZE
100
AcDbText
 10
1849.619762
 20
1804.535653285714
 30
0.0
 40
55.0
  1
(200)
 50
90.0
 41
0.9
 72
     1
 11
1849.619762
 21
1899.999939
 31
0.0
100
AcDbText
  0
LINE
  5
613
330
692
100
AcDbEntity
  8
SIZE
100
AcDbLine
 10
1868.024524
 20
1809.999939
 30
0.0
 11
1868.024524
 21
1989.999939
 31
0.0
  0
LINE
  5
614
330
692
100
AcDbEntity
  8
SIZE
100
AcDbLine
 10
1873.024524
 20
1794.999945
 30
0.0
 11
1873.024524
 21
1789.999945
 31
0.0
  0
CIRCLE
  5
615
330
692
100
AcDbEntity
  8
SIZE
100
AcDbCircle
 10
1873.024524
 20
1799.999945
 30
0.0
 40
5.0
  0
LINE
  5
616
330
692
100
AcDbEntity
  8
SIZE
100
AcDbLine
 10
1868.024524
 20
1804.999939
 30
0.0
 11
1868.024524
 21
1809.999939
 31
0.0
  0
CIRCLE
  5
617
330
692
100
AcDbEntity
  8
SIZE
100
AcDbCircle
 10
1868.024524
 20
1799.999939
 30
0.0
 40
5.0
  0
LINE
  5
619
330
692
100
AcDbEntity
  8
SIZE
100
AcDbLine
 10
1868.024524
 20
1994.999939
 30
0.0
 11
1868.024524
 21
1989.999939
 31
0.0
  0
CIRCLE
  5
61A
330
692
100
AcDbEntity
  8
SIZE
100
AcDbCircle
 10
1868.024524
 20
1999.999939
 30
0.0
 40
5.0
  0
CIRCLE
  5
61B
330
692
100
AcDbEntity
  8
SIZE
100
AcDbCircle
 10
2021.436252
 20
1999.999939
 30
0.0
 40
5.0
  0
LINE
  5
61D
330
692
100
AcDbEntity
  8
SIZE
100
AcDbLine
 10
2021.436252
 20
1994.999939
 30
0.0
 11
2021.436252
 21
1989.999939
 31
0.0
  0
ENDSEC
  0
SECTION
  2
OBJECTS
  0
DICTIONARY
  5
62A
330
0
100
AcDbDictionary
281
     1
  3
ACAD_CIP_PREVIOUS_PRODUCT_INFO
350
6EC
  3
ACAD_COLOR
350
688
  3
ACAD_GROUP
350
62B
  3
ACAD_LAYOUT
350
687
  3
ACAD_MATERIAL
350
62E
  3
ACAD_MLEADERSTYLE
350
68B
  3
ACAD_MLINESTYLE
350
684
  3
ACAD_PLOTSETTINGS
350
686
  3
ACAD_PLOTSTYLENAME
350
62C
  3
ACAD_SCALELIST
350
658
  3
ACAD_TABLESTYLE
350
689
  3
ACAD_VISUALSTYLE
350
647
  3
ACDB_RECOMPOSE_DATA
350
6F1
  3
AcDbVariableDictionary
350
6C9
  3
DWGPROPS
350
6F2
  0
DICTIONARY
  5
6B3
330
67A
100
AcDbDictionary
280
     1
281
     1
  3
ADSK_XREC_LAYER_RECONCILED
360
6B4
  0
DICTIONARY
  5
6B5
330
696
100
AcDbDictionary
280
     1
281
     1
  3
ADSK_XREC_LAYER_RECONCILED
360
6B6
  0
DICTIONARY
  5
6B7
330
699
100
AcDbDictionary
280
     1
281
     1
  3
ADSK_XREC_LAYER_RECONCILED
360
6B8
  0
DICTIONARY
  5
6B9
330
69A
100
AcDbDictionary
280
     1
281
     1
  3
ADSK_XREC_LAYER_RECONCILED
360
6BA
  0
DICTIONARY
  5
6BB
330
69B
100
AcDbDictionary
280
     1
281
     1
  3
ADSK_XREC_LAYER_RECONCILED
360
6BC
  0
DICTIONARY
  5
6BD
330
69C
100
AcDbDictionary
280
     1
281
     1
  3
ADSK_XREC_LAYER_RECONCILED
360
6BE
  0
DICTIONARY
  5
6BF
330
69D
100
AcDbDictionary
280
     1
281
     1
  3
ADSK_XREC_LAYER_RECONCILED
360
6C0
  0
DICTIONARY
  5
6C1
330
69E
100
AcDbDictionary
280
     1
281
     1
  3
ADSK_XREC_LAYER_RECONCILED
360
6C2
  0
DICTIONARY
  5
6C3
330
69F
100
AcDbDictionary
280
     1
281
     1
  3
ADSK_XREC_LAYER_RECONCILED
360
6C4
  0
DICTIONARY
  5
6C5
330
6A0
100
AcDbDictionary
280
     1
281
     1
  3
ADSK_XREC_LAYER_RECONCILED
360
6C6
  0
DICTIONARY
  5
6C7
330
6A1
100
AcDbDictionary
280
     1
281
     1
  3
ADSK_XREC_LAYER_RECONCILED
360
6C8
  0
XRECORD
  5
6EC
102
{ACAD_REACTORS
330
62A
102
}
330
62A
100
AcDbXrecord
280
     1
300
ACD
300
2012
300
BDSPRM_F_S
  0
DICTIONARY
  5
688
102
{ACAD_REACTORS
330
62A
102
}
330
62A
100
AcDbDictionary
281
     1
  0
DICTIONARY
  5
62B
102
{ACAD_REACTORS
330
62A
102
}
330
62A
100
AcDbDictionary
281
     1
  0
DICTIONARY
  5
687
102
{ACAD_REACTORS
330
62A
102
}
330
62A
100
AcDbDictionary
281
     1
  3
Layout1
350
691
  3
Model
350
695
  0
DICTIONARY
  5
62E
102
{ACAD_REACTORS
330
62A
102
}
330
62A
100
AcDbDictionary
281
     1
  3
ByBlock
350
637
  3
ByLayer
350
62F
  3
Global
350
63F
  0
DICTIONARY
  5
68B
102
{ACAD_REACTORS
330
62A
102
}
330
62A
100
AcDbDictionary
281
     1
  3
Standard
350
68C
  0
DICTIONARY
  5
684
102
{ACAD_REACTORS
330
62A
102
}
330
62A
100
AcDbDictionary
281
     1
  3
Standard
350
685
  0
DICTIONARY
  5
686
102
{ACAD_REACTORS
330
62A
102
}
330
62A
100
AcDbDictionary
281
     1
  0
ACDBDICTIONARYWDFLT
  5
62C
102
{ACAD_REACTORS
330
62A
102
}
330
62A
100
AcDbDictionary
281
     1
  3
Normal
350
62D
100
AcDbDictionaryWithDefault
340
62D
  0
DICTIONARY
  5
658
102
{ACAD_REACTORS
330
62A
102
}
330
62A
100
AcDbDictionary
281
     1
  3
A0
350
659
  3
A1
350
65A
  3
A2
350
65B
  3
A3
350
65C
  3
A4
350
65D
  3
A5
350
65E
  3
A6
350
65F
  3
A7
350
660
  3
A8
350
661
  3
A9
350
662
  3
B0
350
663
  3
B1
350
664
  3
B2
350
665
  3
B3
350
666
  3
B4
350
667
  3
B5
350
668
  3
B6
350
669
  3
B7
350
66A
  3
B8
350
66B
  3
B9
350
66C
  3
C0
350
66D
  3
C1
350
66E
  3
C2
350
66F
  3
C3
350
670
  3
C4
350
671
  3
C5
350
672
  3
C6
350
673
  3
C7
350
674
  3
C8
350
675
  3
C9
350
676
  3
D0
350
677
  3
D1
350
678
  3
D2
350
679
  0
DICTIONARY
  5
689
102
{ACAD_REACTORS
330
62A
102
}
330
62A
100
AcDbDictionary
281
     1
  3
Standard
350
68A
  0
DICTIONARY
  5
647
102
{ACAD_REACTORS
330
62A
102
}
330
62A
100
AcDbDictionary
281
     1
  3
2dWireframe
350
64D
  3
3D Hidden
350
64F
  3
3dWireframe
350
64E
  3
Basic
350
64C
  3
Brighten
350
653
  3
ColorChange
350
657
  3
Conceptual
350
650
  3
Dim
350
652
  3
EdgeColorOff
350
6EA
  3
Facepattern
350
656
  3
Flat
350
648
  3
FlatWithEdges
350
649
  3
Gouraud
350
64A
  3
GouraudWithEdges
350
64B
  3
Hidden
350
6E2
  3
JitterOff
350
6E8
  3
Linepattern
350
655
  3
OverhangOff
350
6E9
  3
Realistic
350
651
  3
Shaded
350
6E7
  3
Shaded with edges
350
6E6
  3
Shades of Gray
350
6E3
  3
Sketchy
350
6E4
  3
Thicken
350
654
  3
Wireframe
350
6E1
  3
X-Ray
350
6E5
  0
XRECORD
  5
6F1
102
{ACAD_REACTORS
330
62A
102
}
330
62A
100
AcDbXrecord
280
     1
 90
        1
330
68A
  0
DICTIONARY
  5
6C9
102
{ACAD_REACTORS
330
62A
102
}
330
62A
100
AcDbDictionary
281
     1
  3
CANNOSCALE
350
6CC
  3
CMLEADERSTYLE
350
6CB
  3
CTABLESTYLE
350
6CA
  3
DIMASSOC
350
6CF
  3
INDEXCTL
350
6CE
  3
SORTENTS
350
6CD
  3
XCLIPFRAME
350
6EF
  0
XRECORD
  5
6F2
102
{ACAD_REACTORS
330
62A
102
}
330
62A
100
AcDbXrecord
280
     1
  1
DWGPROPS COOKIE
  2

  3

  4

  6

  7

  8
prohiokamot
  9

300
=
301
=
302
=
303
=
304
=
305
=
306
=
307
=
308
=
309
=
 40
3.672715034722222
 41
2450330.481597662
 42
2458150.665466192
  1

 90
        0
  0
XRECORD
  5
6B4
102
{ACAD_REACTORS
330
6B3
102
}
330
6B3
100
AcDbXrecord
280
     1
290
     1
  0
XRECORD
  5
6B6
102
{ACAD_REACTORS
330
6B5
102
}
330
6B5
100
AcDbXrecord
280
     1
290
     1
  0
XRECORD
  5
6B8
102
{ACAD_REACTORS
330
6B7
102
}
330
6B7
100
AcDbXrecord
280
     1
290
     1
  0
XRECORD
  5
6BA
102
{ACAD_REACTORS
330
6B9
102
}
330
6B9
100
AcDbXrecord
280
     1
290
     1
  0
XRECORD
  5
6BC
102
{ACAD_REACTORS
330
6BB
102
}
330
6BB
100
AcDbXrecord
280
     1
290
     1
  0
XRECORD
  5
6BE
102
{ACAD_REACTORS
330
6BD
102
}
330
6BD
100
AcDbXrecord
280
     1
290
     1
  0
XRECORD
  5
6C0
102
{ACAD_REACTORS
330
6BF
102
}
330
6BF
100
AcDbXrecord
280
     1
290
     1
  0
XRECORD
  5
6C2
102
{ACAD_REACTORS
330
6C1
102
}
330
6C1
100
AcDbXrecord
280
     1
290
     1
  0
XRECORD
  5
6C4
102
{ACAD_REACTORS
330
6C3
102
}
330
6C3
100
AcDbXrecord
280
     1
290
     1
  0
XRECORD
  5
6C6
102
{ACAD_REACTORS
330
6C5
102
}
330
6C5
100
AcDbXrecord
280
     1
290
     1
  0
XRECORD
  5
6C8
102
{ACAD_REACTORS
330
6C7
102
}
330
6C7
100
AcDbXrecord
280
     1
290
     1
  0
LAYOUT
  5
691
102
{ACAD_XDICTIONARY
360
714
102
}
102
{ACAD_REACTORS
330
687
102
}
330
687
100
AcDbPlotSettings
  1

  2
FX DocuWide 2050
  4

  6

 40
0.0
 41
0.0
 42
0.0
 43
0.0
 44
0.0
 45
0.0
 46
0.0
 47
0.0
 48
0.0
 49
0.0
140
0.0
141
0.0
142
1.0
143
1.0
 70
   688
 72
     0
 73
     0
 74
     5
  7

 75
    16
147
1.0
148
0.0
149
0.0
100
AcDbLayout
  1
Layout1
 70
     1
 71
     1
 10
0.0
 20
0.0
 11
12.0
 21
9.0
 12
0.0
 22
0.0
 32
0.0
 14
1.000000000000000E+20
 24
1.000000000000000E+20
 34
1.000000000000000E+20
 15
-1.000000000000000E+20
 25
-1.000000000000000E+20
 35
-1.000000000000000E+20
146
0.0
 13
0.0
 23
0.0
 33
0.0
 16
1.0
 26
0.0
 36
0.0
 17
0.0
 27
1.0
 37
0.0
 76
     0
330
68E
  0
LAYOUT
  5
695
102
{ACAD_XDICTIONARY
360
716
102
}
102
{ACAD_REACTORS
330
687
102
}
330
687
100
AcDbPlotSettings
  1

  2
FX DocuWide 2050
  4

  6

 40
0.0
 41
0.0
 42
0.0
 43
0.0
 44
0.0
 45
0.0
 46
0.0
 47
0.0
 48
0.0
 49
0.0
140
0.0
141
0.0
142
1.0
143
1.0
 70
  1712
 72
     0
 73
     0
 74
     0
  7

 75
     0
147
1.0
148
0.0
149
0.0
100
AcDbLayout
  1
Model
 70
     1
 71
     0
 10
0.0
 20
0.0
 11
12.0
 21
9.0
 12
0.0
 22
0.0
 32
0.0
 14
0.0
 24
0.0
 34
0.0
 15
0.0
 25
0.0
 35
0.0
146
0.0
 13
0.0
 23
0.0
 33
0.0
 16
1.0
 26
0.0
 36
0.0
 17
0.0
 27
1.0
 37
0.0
 76
     0
330
692
331
697
  0
MATERIAL
  5
637
102
{ACAD_XDICTIONARY
360
638
102
}
102
{ACAD_REACTORS
330
62E
102
}
330
62E
100
AcDbMaterial
  1
ByBlock
 72
     0
 43
0.0208333333333333
 43
0.0
 43
0.0
 43
0.0
 43
0.0
 43
0.0208333333333333
 43
0.0
 43
0.0
 43
0.0
 43
0.0
 43
1.0
 43
0.0
 43
0.0
 43
0.0
 43
0.0
 43
1.0
 77
     0
 47
0.0208333333333333
 47
0.0
 47
0.0
 47
0.0
 47
0.0
 47
0.0208333333333333
 47
0.0
 47
0.0
 47
0.0
 47
0.0
 47
1.0
 47
0.0
 47
0.0
 47
0.0
 47
0.0
 47
1.0
171
     0
 49
0.0208333333333333
 49
0.0
 49
0.0
 49
0.0
 49
0.0
 49
0.0208333333333333
 49
0.0
 49
0.0
 49
0.0
 49
0.0
 49
1.0
 49
0.0
 49
0.0
 49
0.0
 49
0.0
 49
1.0
175
     0
142
0.0208333333333333
142
0.0
142
0.0
142
0.0
142
0.0
142
0.0208333333333333
142
0.0
142
0.0
142
0.0
142
0.0
142
1.0
142
0.0
142
0.0
142
0.0
142
0.0
142
1.0
179
     0
144
0.0208333333333333
144
0.0
144
0.0
144
0.0
144
0.0
144
0.0208333333333333
144
0.0
144
0.0
144
0.0
144
0.0
144
1.0
144
0.0
144
0.0
144
0.0
144
0.0
144
1.0
147
0.0208333333333333
147
0.0
147
0.0
147
0.0
147
0.0
147
0.0208333333333333
147
0.0
147
0.0
147
0.0
147
0.0
147
1.0
147
0.0
147
0.0
147
0.0
147
0.0
147
1.0
  0
MATERIAL
  5
62F
102
{ACAD_XDICTIONARY
360
630
102
}
102
{ACAD_REACTORS
330
62E
102
}
330
62E
100
AcDbMaterial
  1
ByLayer
 72
     0
 43
0.0208333333333333
 43
0.0
 43
0.0
 43
0.0
 43
0.0
 43
0.0208333333333333
 43
0.0
 43
0.0
 43
0.0
 43
0.0
 43
1.0
 43
0.0
 43
0.0
 43
0.0
 43
0.0
 43
1.0
 77
     0
 47
0.0208333333333333
 47
0.0
 47
0.0
 47
0.0
 47
0.0
 47
0.0208333333333333
 47
0.0
 47
0.0
 47
0.0
 47
0.0
 47
1.0
 47
0.0
 47
0.0
 47
0.0
 47
0.0
 47
1.0
171
     0
 49
0.0208333333333333
 49
0.0
 49
0.0
 49
0.0
 49
0.0
 49
0.0208333333333333
 49
0.0
 49
0.0
 49
0.0
 49
0.0
 49
1.0
 49
0.0
 49
0.0
 49
0.0
 49
0.0
 49
1.0
175
     0
142
0.0208333333333333
142
0.0
142
0.0
142
0.0
142
0.0
142
0.0208333333333333
142
0.0
142
0.0
142
0.0
142
0.0
142
1.0
142
0.0
142
0.0
142
0.0
142
0.0
142
1.0
179
     0
144
0.0208333333333333
144
0.0
144
0.0
144
0.0
144
0.0
144
0.0208333333333333
144
0.0
144
0.0
144
0.0
144
0.0
144
1.0
144
0.0
144
0.0
144
0.0
144
0.0
144
1.0
147
0.0208333333333333
147
0.0
147
0.0
147
0.0
147
0.0
147
0.0208333333333333
147
0.0
147
0.0
147
0.0
147
0.0
147
1.0
147
0.0
147
0.0
147
0.0
147
0.0
147
1.0
  0
MATERIAL
  5
63F
102
{ACAD_XDICTIONARY
360
640
102
}
102
{ACAD_REACTORS
330
62E
102
}
330
62E
100
AcDbMaterial
  1
Global
 72
     0
 43
0.0208333333333333
 43
0.0
 43
0.0
 43
0.0
 43
0.0
 43
0.0208333333333333
 43
0.0
 43
0.0
 43
0.0
 43
0.0
 43
1.0
 43
0.0
 43
0.0
 43
0.0
 43
0.0
 43
1.0
 77
     0
 47
0.0208333333333333
 47
0.0
 47
0.0
 47
0.0
 47
0.0
 47
0.0208333333333333
 47
0.0
 47
0.0
 47
0.0
 47
0.0
 47
1.0
 47
0.0
 47
0.0
 47
0.0
 47
0.0
 47
1.0
171
     0
 49
0.0208333333333333
 49
0.0
 49
0.0
 49
0.0
 49
0.0
 49
0.0208333333333333
 49
0.0
 49
0.0
 49
0.0
 49
0.0
 49
1.0
 49
0.0
 49
0.0
 49
0.0
 49
0.0
 49
1.0
175
     0
142
0.0208333333333333
142
0.0
142
0.0
142
0.0
142
0.0
142
0.0208333333333333
142
0.0
142
0.0
142
0.0
142
0.0
142
1.0
142
0.0
142
0.0
142
0.0
142
0.0
142
1.0
179
     0
144
0.0208333333333333
144
0.0
144
0.0
144
0.0
144
0.0
144
0.0208333333333333
144
0.0
144
0.0
144
0.0
144
0.0
144
1.0
144
0.0
144
0.0
144
0.0
144
0.0
144
1.0
147
0.0208333333333333
147
0.0
147
0.0
147
0.0
147
0.0
147
0.0208333333333333
147
0.0
147
0.0
147
0.0
147
0.0
147
1.0
147
0.0
147
0.0
147
0.0
147
0.0
147
1.0
  0
MLEADERSTYLE
  5
68C
102
{ACAD_REACTORS
330
68B
102
}
330
68B
100
AcDbMLeaderStyle
170
     2
171
     1
172
     0
 90
        2
 40
0.0
 41
0.0
173
     1
 91
-1056964608
340
680
 92
       -2
290
     1
 42
0.09
291
     1
 43
0.36
  3
Standard
 44
0.18
300

342
67B
174
     1
178
     6
175
     1
176
     0
 93
-1056964608
 45
0.18
292
     0
297
     0
 46
0.18
 94
-1056964608
 47
1.0
 49
1.0
140
1.0
293
     1
141
0.0
294
     1
177
     0
142
1.0
295
     0
296
     0
143
0.125
1001
ACAD_MLEADERVER
1070
     2
  0
MLINESTYLE
  5
685
102
{ACAD_REACTORS
330
684
102
}
330
684
100
AcDbMlineStyle
  2
STANDARD
 70
     0
  3

 62
   256
 51
90.0
 52
90.0
 71
     2
 49
0.5
 62
   256
  6
BYLAYER
 49
-0.5
 62
   256
  6
BYLAYER
  0
ACDBPLACEHOLDER
  5
62D
102
{ACAD_REACTORS
330
62C
102
}
330
62C
  0
SCALE
  5
659
102
{ACAD_REACTORS
330
658
102
}
330
658
100
AcDbScale
 70
     0
300
1:1
140
1.0
141
1.0
290
     1
  0
SCALE
  5
65A
102
{ACAD_REACTORS
330
658
102
}
330
658
100
AcDbScale
 70
     0
300
1:2
140
1.0
141
2.0
290
     0
  0
SCALE
  5
65B
102
{ACAD_REACTORS
330
658
102
}
330
658
100
AcDbScale
 70
     0
300
1:4
140
1.0
141
4.0
290
     0
  0
SCALE
  5
65C
102
{ACAD_REACTORS
330
658
102
}
330
658
100
AcDbScale
 70
     0
300
1:5
140
1.0
141
5.0
290
     0
  0
SCALE
  5
65D
102
{ACAD_REACTORS
330
658
102
}
330
658
100
AcDbScale
 70
     0
300
1:8
140
1.0
141
8.0
290
     0
  0
SCALE
  5
65E
102
{ACAD_REACTORS
330
658
102
}
330
658
100
AcDbScale
 70
     0
300
1:10
140
1.0
141
10.0
290
     0
  0
SCALE
  5
65F
102
{ACAD_REACTORS
330
658
102
}
330
658
100
AcDbScale
 70
     0
300
1:16
140
1.0
141
16.0
290
     0
  0
SCALE
  5
660
102
{ACAD_REACTORS
330
658
102
}
330
658
100
AcDbScale
 70
     0
300
1:20
140
1.0
141
20.0
290
     0
  0
SCALE
  5
661
102
{ACAD_REACTORS
330
658
102
}
330
658
100
AcDbScale
 70
     0
300
1:30
140
1.0
141
30.0
290
     0
  0
SCALE
  5
662
102
{ACAD_REACTORS
330
658
102
}
330
658
100
AcDbScale
 70
     0
300
1:40
140
1.0
141
40.0
290
     0
  0
SCALE
  5
663
102
{ACAD_REACTORS
330
658
102
}
330
658
100
AcDbScale
 70
     0
300
1:50
140
1.0
141
50.0
290
     0
  0
SCALE
  5
664
102
{ACAD_REACTORS
330
658
102
}
330
658
100
AcDbScale
 70
     0
300
1:100
140
1.0
141
100.0
290
     0
  0
SCALE
  5
665
102
{ACAD_REACTORS
330
658
102
}
330
658
100
AcDbScale
 70
     0
300
2:1
140
2.0
141
1.0
290
     0
  0
SCALE
  5
666
102
{ACAD_REACTORS
330
658
102
}
330
658
100
AcDbScale
 70
     0
300
4:1
140
4.0
141
1.0
290
     0
  0
SCALE
  5
667
102
{ACAD_REACTORS
330
658
102
}
330
658
100
AcDbScale
 70
     0
300
8:1
140
8.0
141
1.0
290
     0
  0
SCALE
  5
668
102
{ACAD_REACTORS
330
658
102
}
330
658
100
AcDbScale
 70
     0
300
10:1
140
10.0
141
1.0
290
     0
  0
SCALE
  5
669
102
{ACAD_REACTORS
330
658
102
}
330
658
100
AcDbScale
 70
     0
300
100:1
140
100.0
141
1.0
290
     0
  0
SCALE
  5
66A
102
{ACAD_REACTORS
330
658
102
}
330
658
100
AcDbScale
 70
     0
300
1/128" = 1'-0"
140
0.0078125
141
12.0
290
     0
  0
SCALE
  5
66B
102
{ACAD_REACTORS
330
658
102
}
330
658
100
AcDbScale
 70
     0
300
1/64" = 1'-0"
140
0.015625
141
12.0
290
     0
  0
SCALE
  5
66C
102
{ACAD_REACTORS
330
658
102
}
330
658
100
AcDbScale
 70
     0
300
1/32" = 1'-0"
140
0.03125
141
12.0
290
     0
  0
SCALE
  5
66D
102
{ACAD_REACTORS
330
658
102
}
330
658
100
AcDbScale
 70
     0
300
1/16" = 1'-0"
140
0.0625
141
12.0
290
     0
  0
SCALE
  5
66E
102
{ACAD_REACTORS
330
658
102
}
330
658
100
AcDbScale
 70
     0
300
3/32" = 1'-0"
140
0.09375
141
12.0
290
     0
  0
SCALE
  5
66F
102
{ACAD_REACTORS
330
658
102
}
330
658
100
AcDbScale
 70
     0
300
1/8" = 1'-0"
140
0.125
141
12.0
290
     0
  0
SCALE
  5
670
102
{ACAD_REACTORS
330
658
102
}
330
658
100
AcDbScale
 70
     0
300
3/16" = 1'-0"
140
0.1875
141
12.0
290
     0
  0
SCALE
  5
671
102
{ACAD_REACTORS
330
658
102
}
330
658
100
AcDbScale
 70
     0
300
1/4" = 1'-0"
140
0.25
141
12.0
290
     0
  0
SCALE
  5
672
102
{ACAD_REACTORS
330
658
102
}
330
658
100
AcDbScale
 70
     0
300
3/8" = 1'-0"
140
0.375
141
12.0
290
     0
  0
SCALE
  5
673
102
{ACAD_REACTORS
330
658
102
}
330
658
100
AcDbScale
 70
     0
300
1/2" = 1'-0"
140
0.5
141
12.0
290
     0
  0
SCALE
  5
674
102
{ACAD_REACTORS
330
658
102
}
330
658
100
AcDbScale
 70
     0
300
3/4" = 1'-0"
140
0.75
141
12.0
290
     0
  0
SCALE
  5
675
102
{ACAD_REACTORS
330
658
102
}
330
658
100
AcDbScale
 70
     0
300
1" = 1'-0"
140
1.0
141
12.0
290
     0
  0
SCALE
  5
676
102
{ACAD_REACTORS
330
658
102
}
330
658
100
AcDbScale
 70
     0
300
1-1/2" = 1'-0"
140
1.5
141
12.0
290
     0
  0
SCALE
  5
677
102
{ACAD_REACTORS
330
658
102
}
330
658
100
AcDbScale
 70
     0
300
3" = 1'-0"
140
3.0
141
12.0
290
     0
  0
SCALE
  5
678
102
{ACAD_REACTORS
330
658
102
}
330
658
100
AcDbScale
 70
     0
300
6" = 1'-0"
140
6.0
141
12.0
290
     0
  0
SCALE
  5
679
102
{ACAD_REACTORS
330
658
102
}
330
658
100
AcDbScale
 70
     0
300
1'-0" = 1'-0"
140
12.0
141
12.0
290
     0
  0
TABLESTYLE
  5
68A
102
{ACAD_XDICTIONARY
360
6D0
102
}
102
{ACAD_REACTORS
330
689
102
}
330
689
100
AcDbTableStyle
  3
Standard
 70
     0
 71
     0
 40
0.06
 41
0.06
280
     0
281
     0
  7
STANDARD
140
0.18
170
     2
 62
     0
 63
     7
283
     0
274
    -2
284
     1
 64
     0
275
    -2
285
     1
 65
     0
276
    -2
286
     1
 66
     0
277
    -2
287
     1
 67
     0
278
    -2
288
     1
 68
     0
279
    -2
289
     1
 69
     0
  7
STANDARD
140
0.25
170
     5
 62
     0
 63
     7
283
     0
274
    -2
284
     1
 64
     0
275
    -2
285
     1
 65
     0
276
    -2
286
     1
 66
     0
277
    -2
287
     1
 67
     0
278
    -2
288
     1
 68
     0
279
    -2
289
     1
 69
     0
  7
STANDARD
140
0.18
170
     5
 62
     0
 63
     7
283
     0
274
    -2
284
     1
 64
     0
275
    -2
285
     1
 65
     0
276
    -2
286
     1
 66
     0
277
    -2
287
     1
 67
     0
278
    -2
288
     1
 68
     0
279
    -2
289
     1
 69
     0
  0
VISUALSTYLE
  5
64D
102
{ACAD_XDICTIONARY
360
6FD
102
}
102
{ACAD_REACTORS
330
647
102
}
330
647
100
AcDbVisualStyle
  2

 70
     4
 71
     0
 72
     2
 73
     0
 90
        0
 40
-0.6
 41
-30.0
 62
     5
 63
     7
 74
     1
 91
        4
 64
     7
 65
   257
 75
     1
175
     1
 42
1.0
 92
        0
 66
   257
 43
1.0
 76
     1
 77
     6
 78
     2
 67
     7
 79
     5
170
     0
171
     0
290
     0
174
     0
 93
        1
 44
0.0
173
     0
291
     0
 45
0.0
1001
ACAD
1000
AcDbSavedByObjectVersion
1070
     0
  0
VISUALSTYLE
  5
64F
102
{ACAD_XDICTIONARY
360
701
102
}
102
{ACAD_REACTORS
330
647
102
}
330
647
100
AcDbVisualStyle
  2

 70
     6
 71
     1
 72
     2
 73
     2
 90
        0
 40
-0.6
 41
-30.0
 62
     5
 63
     7
 74
     2
 91
        2
 64
     7
 65
   257
 75
     2
175
     1
 42
40.0
 92
        0
 66
   257
 43
1.0
 76
     1
 77
     6
 78
     2
 67
     7
 79
     3
170
     0
171
     0
290
     0
174
     0
 93
        1
 44
0.0
173
     0
291
     0
 45
0.0
1001
ACAD
1000
AcDbSavedByObjectVersion
1070
     0
  0
VISUALSTYLE
  5
64E
102
{ACAD_XDICTIONARY
360
6FF
102
}
102
{ACAD_REACTORS
330
647
102
}
330
647
100
AcDbVisualStyle
  2

 70
     5
 71
     0
 72
     2
 73
     0
 90
        0
 40
-0.6
 41
-30.0
 62
     5
 63
     7
 74
     1
 91
        4
 64
     7
 65
   257
 75
     1
175
     1
 42
1.0
 92
        0
 66
   257
 43
1.0
 76
     1
 77
     6
 78
     2
 67
     7
 79
     5
170
     0
171
     0
290
     0
174
     0
 93
        1
 44
0.0
173
     0
291
     0
 45
0.0
1001
ACAD
1000
AcDbSavedByObjectVersion
1070
     0
  0
VISUALSTYLE
  5
64C
102
{ACAD_XDICTIONARY
360
6FB
102
}
102
{ACAD_REACTORS
330
647
102
}
330
647
100
AcDbVisualStyle
  2

 70
     7
 71
     1
 72
     0
 73
     1
 90
        0
 40
-0.6
 41
-30.0
 62
     5
 63
     7
 74
     0
 91
        4
 64
     7
 65
   257
 75
     1
175
     1
 42
1.0
 92
        8
 66
     7
 43
1.0
 76
     1
 77
     6
 78
     2
 67
     7
 79
     5
170
     0
171
     0
290
     0
174
     0
 93
        1
 44
0.0
173
     0
291
     1
 45
0.0
1001
ACAD
1000
AcDbSavedByObjectVersion
1070
     0
  0
VISUALSTYLE
  5
653
102
{ACAD_XDICTIONARY
360
709
102
}
102
{ACAD_REACTORS
330
647
102
}
330
647
100
AcDbVisualStyle
  2

 70
    12
 71
     2
 72
     2
 73
     0
 90
        0
 40
-0.6
 41
-30.0
 62
     5
 63
     7
 74
     1
 91
        4
 64
     7
 65
   257
 75
     1
175
     1
 42
1.0
 92
        8
 66
     7
 43
1.0
 76
     1
 77
     6
 78
     2
 67
     7
 79
     5
170
     0
171
     0
290
     0
174
     0
 93
        1
 44
50.0
173
     0
291
     1
 45
0.0
1001
ACAD
1000
AcDbSavedByObjectVersion
1070
     0
  0
VISUALSTYLE
  5
657
102
{ACAD_XDICTIONARY
360
711
102
}
102
{ACAD_REACTORS
330
647
102
}
330
647
100
AcDbVisualStyle
  2

 70
    16
 71
     2
 72
     2
 73
     3
 90
        0
 40
-0.6
 41
-30.0
 62
     5
 63
     8
 74
     1
 91
        4
 64
     7
 65
   257
 75
     1
175
     1
 42
1.0
 92
        8
 66
     8
 43
1.0
 76
     1
 77
     6
 78
     2
 67
     7
 79
     5
170
     0
171
     0
290
     0
174
     0
 93
        1
 44
0.0
173
     0
291
     1
 45
0.0
1001
ACAD
1000
AcDbSavedByObjectVersion
1070
     0
  0
VISUALSTYLE
  5
650
102
{ACAD_XDICTIONARY
360
703
102
}
102
{ACAD_REACTORS
330
647
102
}
330
647
100
AcDbVisualStyle
  2

 70
     9
 71
     3
 72
     2
 73
     0
 90
        0
 40
-0.6
 41
-30.0
 62
     5
 63
     7
 74
     2
 91
        2
 64
     7
 65
   257
 75
     1
175
     1
 42
40.0
 92
        8
 66
     7
 43
1.0
 76
     1
 77
     6
 78
     2
 67
     7
 79
     3
170
     0
171
     0
290
     0
174
     0
 93
        1
 44
0.0
173
     0
291
     0
 45
0.0
1001
ACAD
1000
AcDbSavedByObjectVersion
1070
     0
  0
VISUALSTYLE
  5
652
102
{ACAD_XDICTIONARY
360
707
102
}
102
{ACAD_REACTORS
330
647
102
}
330
647
100
AcDbVisualStyle
  2

 70
    11
 71
     2
 72
     2
 73
     0
 90
        0
 40
-0.6
 41
-30.0
 62
     5
 63
     7
 74
     1
 91
        4
 64
     7
 65
   257
 75
     1
175
     1
 42
1.0
 92
        8
 66
     7
 43
1.0
 76
     1
 77
     6
 78
     2
 67
     7
 79
     5
170
     0
171
     0
290
     0
174
     0
 93
        1
 44
-50.0
173
     0
291
     1
 45
0.0
1001
ACAD
1000
AcDbSavedByObjectVersion
1070
     0
  0
VISUALSTYLE
  5
6EA
102
{ACAD_XDICTIONARY
360
72A
102
}
102
{ACAD_REACTORS
330
647
102
}
330
647
100
AcDbVisualStyle
  2
EdgeColorOff
 70
    22
 71
     2
 72
     2
 73
     0
 90
        0
 40
-0.6
 41
-30.0
 62
     5
 63
     7
 74
     1
 91
        4
 64
     7
 65
   257
 75
     1
175
     1
 42
1.0
 92
        8
 66
     7
 43
1.0
 76
     1
 77
     6
 78
     2
 67
     7
 79
     5
170
     0
171
     0
290
     0
174
     0
 93
        1
 44
0.0
173
     0
291
     1
 45
0.0
1001
ACAD
1000
AcDbSavedByObjectVersion
1070
     0
  0
VISUALSTYLE
  5
656
102
{ACAD_XDICTIONARY
360
70F
102
}
102
{ACAD_REACTORS
330
647
102
}
330
647
100
AcDbVisualStyle
  2

 70
    15
 71
     2
 72
     2
 73
     0
 90
        0
 40
-0.6
 41
-30.0
 62
     5
 63
     7
 74
     1
 91
        4
 64
     7
 65
   257
 75
     1
175
     1
 42
1.0
 92
        8
 66
     7
 43
1.0
 76
     1
 77
     6
 78
     2
 67
     7
 79
     5
170
     0
171
     0
290
     0
174
     0
 93
        1
 44
0.0
173
     0
291
     1
 45
0.0
1001
ACAD
1000
AcDbSavedByObjectVersion
1070
     0
  0
VISUALSTYLE
  5
648
102
{ACAD_XDICTIONARY
360
6F3
102
}
102
{ACAD_REACTORS
330
647
102
}
330
647
100
AcDbVisualStyle
  2

 70
     0
 71
     2
 72
     1
 73
     1
 90
        2
 40
-0.6
 41
30.0
 62
     5
 63
     7
 74
     0
 91
        4
 64
     7
 65
   257
 75
     1
175
     1
 42
1.0
 92
        8
 66
     7
 43
1.0
 76
     1
 77
     6
 78
     2
 67
     7
 79
     5
170
     0
171
     0
290
     0
174
     0
 93
       13
 44
0.0
173
     0
291
     1
 45
0.0
1001
ACAD
1000
AcDbSavedByObjectVersion
1070
     0
  0
VISUALSTYLE
  5
649
102
{ACAD_XDICTIONARY
360
6F5
102
}
102
{ACAD_REACTORS
330
647
102
}
330
647
100
AcDbVisualStyle
  2

 70
     1
 71
     2
 72
     1
 73
     1
 90
        2
 40
-0.6
 41
30.0
 62
     5
 63
     7
 74
     1
 91
        4
 64
     7
 65
   257
 75
     1
175
     1
 42
1.0
 92
        0
 66
   257
 43
1.0
 76
     1
 77
     6
 78
     2
 67
     7
 79
     5
170
     0
171
     0
290
     0
174
     0
 93
       13
 44
0.0
173
     0
291
     1
 45
0.0
1001
ACAD
1000
AcDbSavedByObjectVersion
1070
     0
  0
VISUALSTYLE
  5
64A
102
{ACAD_XDICTIONARY
360
6F7
102
}
102
{ACAD_REACTORS
330
647
102
}
330
647
100
AcDbVisualStyle
  2

 70
     2
 71
     2
 72
     2
 73
     1
 90
        2
 40
-0.6
 41
30.0
 62
     5
 63
     7
 74
     0
 91
        4
 64
     7
 65
   257
 75
     1
175
     1
 42
1.0
 92
        0
 66
     7
 43
1.0
 76
     1
 77
     6
 78
     2
 67
     7
 79
     5
170
     0
171
     0
290
     0
174
     0
 93
       13
 44
0.0
173
     0
291
     1
 45
0.0
1001
ACAD
1000
AcDbSavedByObjectVersion
1070
     0
  0
VISUALSTYLE
  5
64B
102
{ACAD_XDICTIONARY
360
6F9
102
}
102
{ACAD_REACTORS
330
647
102
}
330
647
100
AcDbVisualStyle
  2

 70
     3
 71
     2
 72
     2
 73
     1
 90
        2
 40
-0.6
 41
30.0
 62
     5
 63
     7
 74
     1
 91
        4
 64
     7
 65
   257
 75
     1
175
     1
 42
1.0
 92
        0
 66
   257
 43
1.0
 76
     1
 77
     6
 78
     2
 67
     7
 79
     5
170
     0
171
     0
290
     0
174
     0
 93
       13
 44
0.0
173
     0
291
     1
 45
0.0
1001
ACAD
1000
AcDbSavedByObjectVersion
1070
     0
  0
VISUALSTYLE
  5
6E2
102
{ACAD_XDICTIONARY
360
71A
102
}
102
{ACAD_REACTORS
330
647
102
}
330
647
100
AcDbVisualStyle
  2
Hidden
 70
     6
 71
     1
 72
     2
 73
     2
 90
        0
 40
-0.6
 41
-30.0
 62
     5
 63
     7
 74
     2
 91
        2
 64
     7
 65
   257
 75
     2
175
     1
 42
40.0
 92
        0
 66
   257
 43
1.0
 76
     1
 77
     6
 78
     2
 67
     7
 79
     3
170
     0
171
     0
290
     0
174
     0
 93
        1
 44
0.0
173
     0
291
     0
 45
0.0
1001
ACAD
1000
AcDbSavedByObjectVersion
1070
     0
  0
VISUALSTYLE
  5
6E8
102
{ACAD_XDICTIONARY
360
726
102
}
102
{ACAD_REACTORS
330
647
102
}
330
647
100
AcDbVisualStyle
  2
JitterOff
 70
    20
 71
     2
 72
     2
 73
     0
 90
        0
 40
-0.6
 41
-30.0
 62
     5
 63
     7
 74
     1
 91
        4
 64
     7
 65
   257
 75
     1
175
     1
 42
1.0
 92
       10
 66
     7
 43
1.0
 76
     1
 77
     6
 78
     2
 67
     7
 79
     5
170
     0
171
     0
290
     0
174
     0
 93
        1
 44
0.0
173
     0
291
     1
 45
0.0
1001
ACAD
1000
AcDbSavedByObjectVersion
1070
     0
  0
VISUALSTYLE
  5
655
102
{ACAD_XDICTIONARY
360
70D
102
}
102
{ACAD_REACTORS
330
647
102
}
330
647
100
AcDbVisualStyle
  2

 70
    14
 71
     2
 72
     2
 73
     0
 90
        0
 40
-0.6
 41
-30.0
 62
     5
 63
     7
 74
     1
 91
        4
 64
     7
 65
   257
 75
     7
175
     7
 42
1.0
 92
        8
 66
     7
 43
1.0
 76
     1
 77
     6
 78
     2
 67
     7
 79
     5
170
     0
171
     0
290
     0
174
     0
 93
        1
 44
0.0
173
     0
291
     1
 45
0.0
1001
ACAD
1000
AcDbSavedByObjectVersion
1070
     0
  0
VISUALSTYLE
  5
6E9
102
{ACAD_XDICTIONARY
360
728
102
}
102
{ACAD_REACTORS
330
647
102
}
330
647
100
AcDbVisualStyle
  2
OverhangOff
 70
    21
 71
     2
 72
     2
 73
     0
 90
        0
 40
-0.6
 41
-30.0
 62
     5
 63
     7
 74
     1
 91
        4
 64
     7
 65
   257
 75
     1
175
     1
 42
1.0
 92
        9
 66
     7
 43
1.0
 76
     1
 77
     6
 78
     2
 67
     7
 79
     5
170
     0
171
     0
290
     0
174
     0
 93
        1
 44
0.0
173
     0
291
     1
 45
0.0
1001
ACAD
1000
AcDbSavedByObjectVersion
1070
     0
  0
VISUALSTYLE
  5
651
102
{ACAD_XDICTIONARY
360
705
102
}
102
{ACAD_REACTORS
330
647
102
}
330
647
100
AcDbVisualStyle
  2

 70
     8
 71
     2
 72
     2
 73
     0
 90
        0
 40
-0.6
 41
-30.0
 62
     5
 63
     7
 74
     1
 91
        0
 64
     7
 65
   257
 75
     1
175
     1
 42
1.0
 92
        8
 66
     8
 43
1.0
 76
     1
 77
     6
 78
     2
 67
     7
 79
     5
170
     0
171
     0
290
     0
174
     0
 93
       13
 44
0.0
173
     0
291
     0
 45
0.0
1001
ACAD
1000
AcDbSavedByObjectVersion
1070
     0
  0
VISUALSTYLE
  5
6E7
102
{ACAD_XDICTIONARY
360
724
102
}
102
{ACAD_REACTORS
330
647
102
}
330
647
100
AcDbVisualStyle
  2
Shaded
 70
    27
 71
     2
 72
     2
 73
     1
 90
        2
 40
-0.6
 41
30.0
 62
     5
 63
     7
 74
     0
 91
        4
 64
     7
 65
   257
 75
     1
175
     1
 42
1.0
 92
        8
 66
   257
 43
1.0
 76
     1
 77
     6
 78
     2
 67
     8
 79
     3
170
     0
171
     0
290
     0
174
     0
 93
        5
 44
0.0
173
     0
291
     0
 45
0.0
1001
ACAD
1000
AcDbSavedByObjectVersion
1070
     0
  0
VISUALSTYLE
  5
6E6
102
{ACAD_XDICTIONARY
360
722
102
}
102
{ACAD_REACTORS
330
647
102
}
330
647
100
AcDbVisualStyle
  2
Shaded with edges
 70
    26
 71
     2
 72
     2
 73
     1
 90
        2
 40
-0.6
 41
30.0
 62
     5
 63
     7
 74
     1
 91
       10
 64
     7
 65
   257
 75
     2
175
     1
 42
1.0
 92
        8
 66
   257
 43
1.0
 76
     1
 77
     6
 78
     2
 67
     7
 79
     3
170
     0
171
     0
290
     0
174
     0
 93
        5
 44
0.0
173
     0
291
     0
 45
0.0
1001
ACAD
1000
AcDbSavedByObjectVersion
1070
     0
  0
VISUALSTYLE
  5
6E3
102
{ACAD_XDICTIONARY
360
71C
102
}
102
{ACAD_REACTORS
330
647
102
}
330
647
100
AcDbVisualStyle
  2
Shades of Gray
 70
    23
 71
     2
 72
     2
 73
     3
 90
        0
 40
-0.6
 41
-30.0
 62
     5
 63
     7
 74
     2
 91
        2
 64
     7
 65
     7
 75
     1
175
     1
 42
40.0
 92
        8
 66
     7
 43
1.0
 76
     1
 77
     6
 78
     2
 67
     7
 79
     3
170
     0
171
     0
290
     0
174
     0
 93
        1
 44
0.0
173
     0
291
     0
 45
0.0
1001
ACAD
1000
AcDbSavedByObjectVersion
1070
     0
  0
VISUALSTYLE
  5
6E4
102
{ACAD_XDICTIONARY
360
71E
102
}
102
{ACAD_REACTORS
330
647
102
}
330
647
100
AcDbVisualStyle
  2
Sketchy
 70
    24
 71
     1
 72
     2
 73
     2
 90
        0
 40
-0.6
 41
-30.0
 62
     5
 63
     7
 74
     2
 91
        2
 64
     7
 65
     7
 75
     1
175
     1
 42
40.0
 92
       11
 66
     7
 43
1.0
 76
     1
 77
     6
 78
     2
 67
     7
 79
     6
170
     0
171
     0
290
     0
174
     0
 93
        1
 44
0.0
173
     0
291
     0
 45
0.0
1001
ACAD
1000
AcDbSavedByObjectVersion
1070
     0
  0
VISUALSTYLE
  5
654
102
{ACAD_XDICTIONARY
360
70B
102
}
102
{ACAD_REACTORS
330
647
102
}
330
647
100
AcDbVisualStyle
  2

 70
    13
 71
     2
 72
     2
 73
     0
 90
        0
 40
-0.6
 41
-30.0
 62
     5
 63
     7
 74
     1
 91
        4
 64
     7
 65
   257
 75
     1
175
     1
 42
1.0
 92
       12
 66
     7
 43
1.0
 76
     1
 77
     6
 78
     2
 67
     7
 79
     5
170
     0
171
     0
290
     0
174
     0
 93
        1
 44
0.0
173
     0
291
     1
 45
0.0
1001
ACAD
1000
AcDbSavedByObjectVersion
1070
     0
  0
VISUALSTYLE
  5
6E1
102
{ACAD_XDICTIONARY
360
718
102
}
102
{ACAD_REACTORS
330
647
102
}
330
647
100
AcDbVisualStyle
  2
Wireframe
 70
     5
 71
     0
 72
     2
 73
     0
 90
        0
 40
-0.6
 41
-30.0
 62
     5
 63
     7
 74
     1
 91
        4
 64
     7
 65
   257
 75
     1
175
     1
 42
1.0
 92
        0
 66
   257
 43
1.0
 76
     1
 77
     6
 78
     2
 67
     7
 79
     3
170
     0
171
     0
290
     0
174
     0
 93
        1
 44
0.0
173
     0
291
     0
 45
0.0
1001
ACAD
1000
AcDbSavedByObjectVersion
1070
     0
  0
VISUALSTYLE
  5
6E5
102
{ACAD_XDICTIONARY
360
720
102
}
102
{ACAD_REACTORS
330
647
102
}
330
647
100
AcDbVisualStyle
  2
X-Ray
 70
    25
 71
     2
 72
     2
 73
     1
 90
        1
 40
0.5
 41
-30.0
 62
     5
 63
     7
 74
     1
 91
        0
 64
     7
 65
   257
 75
     1
175
     1
 42
1.0
 92
        8
 66
     7
 43
1.0
 76
     1
 77
     6
 78
     2
 67
     7
 79
     3
170
     0
171
     0
290
     0
174
     0
 93
       13
 44
0.0
173
     0
291
     0
 45
0.0
1001
ACAD
1000
AcDbSavedByObjectVersion
1070
     0
  0
DICTIONARYVAR
  5
6CC
102
{ACAD_REACTORS
330
6C9
102
}
330
6C9
100
DictionaryVariables
280
     0
  1
1:1
  0
DICTIONARYVAR
  5
6CB
102
{ACAD_REACTORS
330
6C9
102
}
330
6C9
100
DictionaryVariables
280
     0
  1
STANDARD
  0
DICTIONARYVAR
  5
6CA
102
{ACAD_REACTORS
330
6C9
102
}
330
6C9
100
DictionaryVariables
280
     0
  1
STANDARD
  0
DICTIONARYVAR
  5
6CF
102
{ACAD_REACTORS
330
6C9
102
}
330
6C9
100
DictionaryVariables
280
     0
  1
1
  0
DICTIONARYVAR
  5
6CE
102
{ACAD_REACTORS
330
6C9
102
}
330
6C9
100
DictionaryVariables
280
     0
  1
0
  0
DICTIONARYVAR
  5
6CD
102
{ACAD_REACTORS
330
6C9
102
}
330
6C9
100
DictionaryVariables
280
     0
  1
127
  0
DICTIONARYVAR
  5
6EF
102
{ACAD_REACTORS
330
6C9
102
}
330
6C9
100
DictionaryVariables
280
     0
  1
2
  0
DICTIONARY
  5
714
330
691
100
AcDbDictionary
280
     1
281
     1
  3
ACAD_XREC_ROUNDTRIP
360
715
  0
DICTIONARY
  5
716
330
695
100
AcDbDictionary
280
     1
281
     1
  3
ACAD_XREC_ROUNDTRIP
360
717
  0
DICTIONARY
  5
638
330
637
100
AcDbDictionary
280
     1
281
     1
  3
ACAD_XREC_ROUNDTRIP
360
6D5
  3
BUMPTILE
360
63A
  3
DIFFUSETILE
360
639
  3
OPACITYTILE
360
63D
  3
REFLECTIONTILE
360
63C
  3
REFRACTIONTILE
360
63E
  3
SPECULARTILE
360
63B
  0
DICTIONARY
  5
630
330
62F
100
AcDbDictionary
280
     1
281
     1
  3
ACAD_XREC_ROUNDTRIP
360
6D4
  3
BUMPTILE
360
632
  3
DIFFUSETILE
360
631
  3
OPACITYTILE
360
635
  3
REFLECTIONTILE
360
634
  3
REFRACTIONTILE
360
636
  3
SPECULARTILE
360
633
  0
DICTIONARY
  5
640
330
63F
100
AcDbDictionary
280
     1
281
     1
  3
ACAD_XREC_ROUNDTRIP
360
6D6
  3
BUMPTILE
360
642
  3
DIFFUSETILE
360
641
  3
OPACITYTILE
360
645
  3
REFLECTIONTILE
360
644
  3
REFRACTIONTILE
360
646
  3
SPECULARTILE
360
643
  0
DICTIONARY
  5
6D0
330
68A
100
AcDbDictionary
280
     1
281
     1
  3
ACAD_ROUNDTRIP_2008_TABLESTYLE_CELLSTYLEMAP
360
6F0
  3
ACAD_XREC_ROUNDTRIP
360
713
  0
DICTIONARY
  5
6FD
330
64D
100
AcDbDictionary
280
     1
281
     1
  3
ACAD_XREC_ROUNDTRIP
360
6FE
  0
DICTIONARY
  5
701
330
64F
100
AcDbDictionary
280
     1
281
     1
  3
ACAD_XREC_ROUNDTRIP
360
702
  0
DICTIONARY
  5
6FF
330
64E
100
AcDbDictionary
280
     1
281
     1
  3
ACAD_XREC_ROUNDTRIP
360
700
  0
DICTIONARY
  5
6FB
330
64C
100
AcDbDictionary
280
     1
281
     1
  3
ACAD_XREC_ROUNDTRIP
360
6FC
  0
DICTIONARY
  5
709
330
653
100
AcDbDictionary
280
     1
281
     1
  3
ACAD_XREC_ROUNDTRIP
360
70A
  0
DICTIONARY
  5
711
330
657
100
AcDbDictionary
280
     1
281
     1
  3
ACAD_XREC_ROUNDTRIP
360
712
  0
DICTIONARY
  5
703
330
650
100
AcDbDictionary
280
     1
281
     1
  3
ACAD_XREC_ROUNDTRIP
360
704
  0
DICTIONARY
  5
707
330
652
100
AcDbDictionary
280
     1
281
     1
  3
ACAD_XREC_ROUNDTRIP
360
708
  0
DICTIONARY
  5
72A
330
6EA
100
AcDbDictionary
280
     1
281
     1
  3
ACAD_XREC_ROUNDTRIP
360
72B
  0
DICTIONARY
  5
70F
330
656
100
AcDbDictionary
280
     1
281
     1
  3
ACAD_XREC_ROUNDTRIP
360
710
  0
DICTIONARY
  5
6F3
330
648
100
AcDbDictionary
280
     1
281
     1
  3
ACAD_XREC_ROUNDTRIP
360
6F4
  0
DICTIONARY
  5
6F5
330
649
100
AcDbDictionary
280
     1
281
     1
  3
ACAD_XREC_ROUNDTRIP
360
6F6
  0
DICTIONARY
  5
6F7
330
64A
100
AcDbDictionary
280
     1
281
     1
  3
ACAD_XREC_ROUNDTRIP
360
6F8
  0
DICTIONARY
  5
6F9
330
64B
100
AcDbDictionary
280
     1
281
     1
  3
ACAD_XREC_ROUNDTRIP
360
6FA
  0
DICTIONARY
  5
71A
330
6E2
100
AcDbDictionary
280
     1
281
     1
  3
ACAD_XREC_ROUNDTRIP
360
71B
  0
DICTIONARY
  5
726
330
6E8
100
AcDbDictionary
280
     1
281
     1
  3
ACAD_XREC_ROUNDTRIP
360
727
  0
DICTIONARY
  5
70D
330
655
100
AcDbDictionary
280
     1
281
     1
  3
ACAD_XREC_ROUNDTRIP
360
70E
  0
DICTIONARY
  5
728
330
6E9
100
AcDbDictionary
280
     1
281
     1
  3
ACAD_XREC_ROUNDTRIP
360
729
  0
DICTIONARY
  5
705
330
651
100
AcDbDictionary
280
     1
281
     1
  3
ACAD_XREC_ROUNDTRIP
360
706
  0
DICTIONARY
  5
724
330
6E7
100
AcDbDictionary
280
     1
281
     1
  3
ACAD_XREC_ROUNDTRIP
360
725
  0
DICTIONARY
  5
722
330
6E6
100
AcDbDictionary
280
     1
281
     1
  3
ACAD_XREC_ROUNDTRIP
360
723
  0
DICTIONARY
  5
71C
330
6E3
100
AcDbDictionary
280
     1
281
     1
  3
ACAD_XREC_ROUNDTRIP
360
71D
  0
DICTIONARY
  5
71E
330
6E4
100
AcDbDictionary
280
     1
281
     1
  3
ACAD_XREC_ROUNDTRIP
360
71F
  0
DICTIONARY
  5
70B
330
654
100
AcDbDictionary
280
     1
281
     1
  3
ACAD_XREC_ROUNDTRIP
360
70C
  0
DICTIONARY
  5
718
330
6E1
100
AcDbDictionary
280
     1
281
     1
  3
ACAD_XREC_ROUNDTRIP
360
719
  0
DICTIONARY
  5
720
330
6E5
100
AcDbDictionary
280
     1
281
     1
  3
ACAD_XREC_ROUNDTRIP
360
721
  0
XRECORD
  5
715
102
{ACAD_REACTORS
330
714
102
}
330
714
100
AcDbXrecord
280
     1
102
SHADEPLOT
 70
     0
102
SHADEPLOTRESLEVEL
 70
     2
102
SHADEPLOTCUSTOMDPI
 70
   300
  0
XRECORD
  5
717
102
{ACAD_REACTORS
330
716
102
}
330
716
100
AcDbXrecord
280
     1
102
SHADEPLOT
 70
     0
102
SHADEPLOTRESLEVEL
 70
     2
102
SHADEPLOTCUSTOMDPI
 70
   300
  0
XRECORD
  5
6D5
102
{ACAD_REACTORS
330
638
102
}
330
638
100
AcDbXrecord
280
     1
102
MATERIAL
148
0.0
149
0.0
149
0.0
 93
        0
 94
      127
282
     0
 72
     0
 77
     0
171
     0
175
     0
179
     0
273
     0
  0
XRECORD
  5
63A
102
{ACAD_REACTORS
330
638
102
}
330
638
100
AcDbXrecord
280
     1
270
     1
271
     1
  0
XRECORD
  5
639
102
{ACAD_REACTORS
330
638
102
}
330
638
100
AcDbXrecord
280
     1
270
     1
271
     1
  0
XRECORD
  5
63D
102
{ACAD_REACTORS
330
638
102
}
330
638
100
AcDbXrecord
280
     1
270
     1
271
     1
  0
XRECORD
  5
63C
102
{ACAD_REACTORS
330
638
102
}
330
638
100
AcDbXrecord
280
     1
270
     1
271
     1
  0
XRECORD
  5
63E
102
{ACAD_REACTORS
330
638
102
}
330
638
100
AcDbXrecord
280
     1
270
     1
271
     1
  0
XRECORD
  5
63B
102
{ACAD_REACTORS
330
638
102
}
330
638
100
AcDbXrecord
280
     1
270
     1
271
     1
  0
XRECORD
  5
6D4
102
{ACAD_REACTORS
330
630
102
}
330
630
100
AcDbXrecord
280
     1
102
MATERIAL
148
0.0
149
0.0
149
0.0
 93
        0
 94
      127
282
     0
 72
     0
 77
     0
171
     0
175
     0
179
     0
273
     0
  0
XRECORD
  5
632
102
{ACAD_REACTORS
330
630
102
}
330
630
100
AcDbXrecord
280
     1
270
     1
271
     1
  0
XRECORD
  5
631
102
{ACAD_REACTORS
330
630
102
}
330
630
100
AcDbXrecord
280
     1
270
     1
271
     1
  0
XRECORD
  5
635
102
{ACAD_REACTORS
330
630
102
}
330
630
100
AcDbXrecord
280
     1
270
     1
271
     1
  0
XRECORD
  5
634
102
{ACAD_REACTORS
330
630
102
}
330
630
100
AcDbXrecord
280
     1
270
     1
271
     1
  0
XRECORD
  5
636
102
{ACAD_REACTORS
330
630
102
}
330
630
100
AcDbXrecord
280
     1
270
     1
271
     1
  0
XRECORD
  5
633
102
{ACAD_REACTORS
330
630
102
}
330
630
100
AcDbXrecord
280
     1
270
     1
271
     1
  0
XRECORD
  5
6D6
102
{ACAD_REACTORS
330
640
102
}
330
640
100
AcDbXrecord
280
     1
102
MATERIAL
148
0.0
149
0.0
149
0.0
 93
        0
 94
      127
282
     0
 72
     0
 77
     0
171
     0
175
     0
179
     0
273
     0
  0
XRECORD
  5
642
102
{ACAD_REACTORS
330
640
102
}
330
640
100
AcDbXrecord
280
     1
270
     1
271
     1
  0
XRECORD
  5
641
102
{ACAD_REACTORS
330
640
102
}
330
640
100
AcDbXrecord
280
     1
270
     1
271
     1
  0
XRECORD
  5
645
102
{ACAD_REACTORS
330
640
102
}
330
640
100
AcDbXrecord
280
     1
270
     1
271
     1
  0
XRECORD
  5
644
102
{ACAD_REACTORS
330
640
102
}
330
640
100
AcDbXrecord
280
     1
270
     1
271
     1
  0
XRECORD
  5
646
102
{ACAD_REACTORS
330
640
102
}
330
640
100
AcDbXrecord
280
     1
270
     1
271
     1
  0
XRECORD
  5
643
102
{ACAD_REACTORS
330
640
102
}
330
640
100
AcDbXrecord
280
     1
270
     1
271
     1
  0
CELLSTYLEMAP
  5
6F0
102
{ACAD_REACTORS
330
6D0
102
}
330
6D0
100
AcDbCellStyleMap
 90
        3
300
CELLSTYLE
  1
TABLEFORMAT_BEGIN
 90
        5
170
     1
 91
        0
 92
    32768
 62
   257
 93
        1
300
CONTENTFORMAT
  1
CONTENTFORMAT_BEGIN
 90
        0
 91
        0
 92
      512
 93
        0
300

 40
0.0
140
1.0
 94
        5
 62
     0
340
67B
144
0.25
309
CONTENTFORMAT_END
171
     1
301
MARGIN
  1
CELLMARGIN_BEGIN
 40
0.06
 40
0.06
 40
0.06
 40
0.06
 40
0.18
 40
0.18
309
CELLMARGIN_END
 94
        6
 95
        1
302
GRIDFORMAT
  1
GRIDFORMAT_BEGIN
 90
        0
 91
        1
 62
     0
 92
       -2
340
0
 93
        0
 40
0.045
309
GRIDFORMAT_END
 95
        2
302
GRIDFORMAT
  1
GRIDFORMAT_BEGIN
 90
        0
 91
        1
 62
     0
 92
       -2
340
0
 93
        0
 40
0.045
309
GRIDFORMAT_END
 95
        4
302
GRIDFORMAT
  1
GRIDFORMAT_BEGIN
 90
        0
 91
        1
 62
     0
 92
       -2
340
0
 93
        0
 40
0.045
309
GRIDFORMAT_END
 95
        8
302
GRIDFORMAT
  1
GRIDFORMAT_BEGIN
 90
        0
 91
        1
 62
     0
 92
       -2
340
0
 93
        0
 40
0.045
309
GRIDFORMAT_END
 95
       16
302
GRIDFORMAT
  1
GRIDFORMAT_BEGIN
 90
        0
 91
        1
 62
     0
 92
       -2
340
0
 93
        0
 40
0.045
309
GRIDFORMAT_END
 95
       32
302
GRIDFORMAT
  1
GRIDFORMAT_BEGIN
 90
        0
 91
        1
 62
     0
 92
       -2
340
0
 93
        0
 40
0.045
309
GRIDFORMAT_END
309
TABLEFORMAT_END
  1
CELLSTYLE_BEGIN
 90
        1
 91
        1
300
_TITLE
309
CELLSTYLE_END
300
CELLSTYLE
  1
TABLEFORMAT_BEGIN
 90
        5
170
     1
 91
        0
 92
        0
 62
   257
 93
        1
300
CONTENTFORMAT
  1
CONTENTFORMAT_BEGIN
 90
        0
 91
        0
 92
      512
 93
        0
300

 40
0.0
140
1.0
 94
        5
 62
     0
340
67B
144
0.18
309
CONTENTFORMAT_END
171
     1
301
MARGIN
  1
CELLMARGIN_BEGIN
 40
0.06
 40
0.06
 40
0.06
 40
0.06
 40
0.18
 40
0.18
309
CELLMARGIN_END
 94
        6
 95
        1
302
GRIDFORMAT
  1
GRIDFORMAT_BEGIN
 90
        0
 91
        1
 62
     0
 92
       -2
340
0
 93
        0
 40
0.045
309
GRIDFORMAT_END
 95
        2
302
GRIDFORMAT
  1
GRIDFORMAT_BEGIN
 90
        0
 91
        1
 62
     0
 92
       -2
340
0
 93
        0
 40
0.045
309
GRIDFORMAT_END
 95
        4
302
GRIDFORMAT
  1
GRIDFORMAT_BEGIN
 90
        0
 91
        1
 62
     0
 92
       -2
340
0
 93
        0
 40
0.045
309
GRIDFORMAT_END
 95
        8
302
GRIDFORMAT
  1
GRIDFORMAT_BEGIN
 90
        0
 91
        1
 62
     0
 92
       -2
340
0
 93
        0
 40
0.045
309
GRIDFORMAT_END
 95
       16
302
GRIDFORMAT
  1
GRIDFORMAT_BEGIN
 90
        0
 91
        1
 62
     0
 92
       -2
340
0
 93
        0
 40
0.045
309
GRIDFORMAT_END
 95
       32
302
GRIDFORMAT
  1
GRIDFORMAT_BEGIN
 90
        0
 91
        1
 62
     0
 92
       -2
340
0
 93
        0
 40
0.045
309
GRIDFORMAT_END
309
TABLEFORMAT_END
  1
CELLSTYLE_BEGIN
 90
        2
 91
        1
300
_HEADER
309
CELLSTYLE_END
300
CELLSTYLE
  1
TABLEFORMAT_BEGIN
 90
        5
170
     1
 91
        0
 92
        0
 62
   257
 93
        1
300
CONTENTFORMAT
  1
CONTENTFORMAT_BEGIN
 90
        0
 91
        0
 92
      512
 93
        0
300

 40
0.0
140
1.0
 94
        2
 62
     0
340
67B
144
0.18
309
CONTENTFORMAT_END
171
     1
301
MARGIN
  1
CELLMARGIN_BEGIN
 40
0.06
 40
0.06
 40
0.06
 40
0.06
 40
0.18
 40
0.18
309
CELLMARGIN_END
 94
        6
 95
        1
302
GRIDFORMAT
  1
GRIDFORMAT_BEGIN
 90
        0
 91
        1
 62
     0
 92
       -2
340
0
 93
        0
 40
0.045
309
GRIDFORMAT_END
 95
        2
302
GRIDFORMAT
  1
GRIDFORMAT_BEGIN
 90
        0
 91
        1
 62
     0
 92
       -2
340
0
 93
        0
 40
0.045
309
GRIDFORMAT_END
 95
        4
302
GRIDFORMAT
  1
GRIDFORMAT_BEGIN
 90
        0
 91
        1
 62
     0
 92
       -2
340
0
 93
        0
 40
0.045
309
GRIDFORMAT_END
 95
        8
302
GRIDFORMAT
  1
GRIDFORMAT_BEGIN
 90
        0
 91
        1
 62
     0
 92
       -2
340
0
 93
        0
 40
0.045
309
GRIDFORMAT_END
 95
       16
302
GRIDFORMAT
  1
GRIDFORMAT_BEGIN
 90
        0
 91
        1
 62
     0
 92
       -2
340
0
 93
        0
 40
0.045
309
GRIDFORMAT_END
 95
       32
302
GRIDFORMAT
  1
GRIDFORMAT_BEGIN
 90
        0
 91
        1
 62
     0
 92
       -2
340
0
 93
        0
 40
0.045
309
GRIDFORMAT_END
309
TABLEFORMAT_END
  1
CELLSTYLE_BEGIN
 90
        3
 91
        2
300
_DATA
309
CELLSTYLE_END
  0
XRECORD
  5
713
102
{ACAD_REACTORS
330
6D0
102
}
330
6D0
100
AcDbXrecord
280
     1
102
ACAD_ROUNDTRIP_PRE2007_TABLESTYLE
 90
      512
 91
        0
  1

 92
      512
 93
        0
  2

 94
      512
 95
        0
  3

  0
XRECORD
  5
6FE
102
{ACAD_REACTORS
330
6FD
102
}
330
6FD
100
AcDbXrecord
280
     1
102
RTVSPropertyOp0
 70
     1
102
RTVSPropertyOp1
 70
     1
102
RTVSPropertyOp2
 70
     1
102
RTVSPropertyOp3
 70
     1
102
RTVSPropertyOp4
 70
     1
102
RTVSPropertyOp5
 70
     1
102
RTVSPropertyOp6
 70
     1
102
RTVSPropertyOp7
 70
     1
102
RTVSPropertyOp8
 70
     1
102
RTVSPropertyOp9
 70
     1
102
RTVSPropertyOp10
 70
     1
102
RTVSPropertyOp11
 70
     1
102
RTVSPropertyOp12
 70
     1
102
RTVSPropertyOp13
 70
     1
102
RTVSPropertyOp14
 70
     1
102
RTVSPropertyOp15
 70
     1
102
RTVSPropertyOp16
 70
     1
102
RTVSPropertyOp17
 70
     1
102
RTVSPropertyOp18
 70
     1
102
RTVSPropertyOp19
 70
     1
102
RTVSPropertyOp20
 70
     1
102
RTVSPropertyOp21
 70
     1
102
RTVSPropertyOp22
 70
     1
102
RTVSPropertyOp23
 70
     1
102
RTVSPropertyOp24
 70
     1
102
RTVSPropertyOp25
 70
     1
102
RTVSPropertyOp26
 70
     1
102
RTVSPropertyOp27
 70
     1
102
RTVSPropertyOp28
 70
     1
102
RTVSPropertyOp29
 70
     1
102
RTVSPropertyOp30
 70
     1
102
RTVSPropertyOp31
 70
     1
102
RTVSPropertyOp32
 70
     1
  0
XRECORD
  5
702
102
{ACAD_REACTORS
330
701
102
}
330
701
100
AcDbXrecord
280
     1
102
RTVSPropertyOp0
 70
     1
102
RTVSPropertyOp1
 70
     1
102
RTVSPropertyOp2
 70
     1
102
RTVSPropertyOp3
 70
     1
102
RTVSPropertyOp4
 70
     1
102
RTVSPropertyOp5
 70
     1
102
RTVSPropertyOp6
 70
     1
102
RTVSPropertyOp7
 70
     1
102
RTVSPropertyOp8
 70
     1
102
RTVSPropertyOp9
 70
     1
102
RTVSPropertyOp10
 70
     1
102
RTVSPropertyOp11
 70
     1
102
RTVSPropertyOp12
 70
     1
102
RTVSPropertyOp13
 70
     1
102
RTVSPropertyOp14
 70
     1
102
RTVSPropertyOp15
 70
     1
102
RTVSPropertyOp16
 70
     1
102
RTVSPropertyOp17
 70
     1
102
RTVSPropertyOp18
 70
     1
102
RTVSPropertyOp19
 70
     1
102
RTVSPropertyOp20
 70
     1
102
RTVSPropertyOp21
 70
     1
102
RTVSPropertyOp22
 70
     1
102
RTVSPropertyOp23
 70
     1
102
RTVSPropertyOp24
 70
     1
102
RTVSPropertyOp25
 70
     1
102
RTVSPropertyOp26
 70
     1
102
RTVSPropertyOp27
 70
     1
102
RTVSPropertyOp28
 70
     1
102
RTVSPropertyOp29
 70
     1
102
RTVSPropertyOp30
 70
     1
102
RTVSPropertyOp31
 70
     1
102
RTVSPropertyOp32
 70
     1
  0
XRECORD
  5
700
102
{ACAD_REACTORS
330
6FF
102
}
330
6FF
100
AcDbXrecord
280
     1
102
RTVSPropertyOp0
 70
     1
102
RTVSPropertyOp1
 70
     1
102
RTVSPropertyOp2
 70
     1
102
RTVSPropertyOp3
 70
     1
102
RTVSPropertyOp4
 70
     1
102
RTVSPropertyOp5
 70
     1
102
RTVSPropertyOp6
 70
     1
102
RTVSPropertyOp7
 70
     1
102
RTVSPropertyOp8
 70
     1
102
RTVSPropertyOp9
 70
     1
102
RTVSPropertyOp10
 70
     1
102
RTVSPropertyOp11
 70
     1
102
RTVSPropertyOp12
 70
     1
102
RTVSPropertyOp13
 70
     1
102
RTVSPropertyOp14
 70
     1
102
RTVSPropertyOp15
 70
     1
102
RTVSPropertyOp16
 70
     1
102
RTVSPropertyOp17
 70
     1
102
RTVSPropertyOp18
 70
     1
102
RTVSPropertyOp19
 70
     1
102
RTVSPropertyOp20
 70
     1
102
RTVSPropertyOp21
 70
     1
102
RTVSPropertyOp22
 70
     1
102
RTVSPropertyOp23
 70
     1
102
RTVSPropertyOp24
 70
     1
102
RTVSPropertyOp25
 70
     1
102
RTVSPropertyOp26
 70
     1
102
RTVSPropertyOp27
 70
     1
102
RTVSPropertyOp28
 70
     1
102
RTVSPropertyOp29
 70
     1
102
RTVSPropertyOp30
 70
     1
102
RTVSPropertyOp31
 70
     1
102
RTVSPropertyOp32
 70
     1
  0
XRECORD
  5
6FC
102
{ACAD_REACTORS
330
6FB
102
}
330
6FB
100
AcDbXrecord
280
     1
102
RTVSPropertyOp0
 70
     1
102
RTVSPropertyOp1
 70
     1
102
RTVSPropertyOp2
 70
     1
102
RTVSPropertyOp3
 70
     1
102
RTVSPropertyOp4
 70
     1
102
RTVSPropertyOp5
 70
     1
102
RTVSPropertyOp6
 70
     1
102
RTVSPropertyOp7
 70
     1
102
RTVSPropertyOp8
 70
     1
102
RTVSPropertyOp9
 70
     1
102
RTVSPropertyOp10
 70
     1
102
RTVSPropertyOp11
 70
     1
102
RTVSPropertyOp12
 70
     1
102
RTVSPropertyOp13
 70
     1
102
RTVSPropertyOp14
 70
     1
102
RTVSPropertyOp15
 70
     1
102
RTVSPropertyOp16
 70
     1
102
RTVSPropertyOp17
 70
     1
102
RTVSPropertyOp18
 70
     1
102
RTVSPropertyOp19
 70
     1
102
RTVSPropertyOp20
 70
     1
102
RTVSPropertyOp21
 70
     1
102
RTVSPropertyOp22
 70
     1
102
RTVSPropertyOp23
 70
     1
102
RTVSPropertyOp24
 70
     1
102
RTVSPropertyOp25
 70
     1
102
RTVSPropertyOp26
 70
     1
102
RTVSPropertyOp27
 70
     1
102
RTVSPropertyOp28
 70
     1
102
RTVSPropertyOp29
 70
     1
102
RTVSPropertyOp30
 70
     1
102
RTVSPropertyOp31
 70
     1
102
RTVSPropertyOp32
 70
     1
  0
XRECORD
  5
70A
102
{ACAD_REACTORS
330
709
102
}
330
709
100
AcDbXrecord
280
     1
102
RTVSPropertyOp0
 70
     1
102
RTVSPropertyOp1
 70
     1
102
RTVSPropertyOp2
 70
     1
102
RTVSPropertyOp3
 70
     1
102
RTVSPropertyOp4
 70
     1
102
RTVSPropertyOp5
 70
     1
102
RTVSPropertyOp6
 70
     1
102
RTVSPropertyOp7
 70
     1
102
RTVSPropertyOp8
 70
     1
102
RTVSPropertyOp9
 70
     1
102
RTVSPropertyOp10
 70
     1
102
RTVSPropertyOp11
 70
     1
102
RTVSPropertyOp12
 70
     1
102
RTVSPropertyOp13
 70
     1
102
RTVSPropertyOp14
 70
     1
102
RTVSPropertyOp15
 70
     1
102
RTVSPropertyOp16
 70
     1
102
RTVSPropertyOp17
 70
     1
102
RTVSPropertyOp18
 70
     1
102
RTVSPropertyOp19
 70
     1
102
RTVSPropertyOp20
 70
     1
102
RTVSPropertyOp21
 70
     1
102
RTVSPropertyOp22
 70
     1
102
RTVSPropertyOp23
 70
     1
102
RTVSPropertyOp24
 70
     1
102
RTVSPropertyOp25
 70
     1
102
RTVSPropertyOp26
 70
     1
102
RTVSPropertyOp27
 70
     1
102
RTVSPropertyOp28
 70
     1
102
RTVSPropertyOp29
 70
     1
102
RTVSPropertyOp30
 70
     1
102
RTVSPropertyOp31
 70
     1
102
RTVSPropertyOp32
 70
     1
  0
XRECORD
  5
712
102
{ACAD_REACTORS
330
711
102
}
330
711
100
AcDbXrecord
280
     1
102
RTVSPropertyOp0
 70
     1
102
RTVSPropertyOp1
 70
     1
102
RTVSPropertyOp2
 70
     1
102
RTVSPropertyOp3
 70
     1
102
RTVSPropertyOp4
 70
     1
102
RTVSPropertyOp5
 70
     1
102
RTVSPropertyOp6
 70
     1
102
RTVSPropertyOp7
 70
     1
102
RTVSPropertyOp8
 70
     1
102
RTVSPropertyOp9
 70
     1
102
RTVSPropertyOp10
 70
     1
102
RTVSPropertyOp11
 70
     1
102
RTVSPropertyOp12
 70
     1
102
RTVSPropertyOp13
 70
     1
102
RTVSPropertyOp14
 70
     1
102
RTVSPropertyOp15
 70
     1
102
RTVSPropertyOp16
 70
     1
102
RTVSPropertyOp17
 70
     1
102
RTVSPropertyOp18
 70
     1
102
RTVSPropertyOp19
 70
     1
102
RTVSPropertyOp20
 70
     1
102
RTVSPropertyOp21
 70
     1
102
RTVSPropertyOp22
 70
     1
102
RTVSPropertyOp23
 70
     1
102
RTVSPropertyOp24
 70
     1
102
RTVSPropertyOp25
 70
     1
102
RTVSPropertyOp26
 70
     1
102
RTVSPropertyOp27
 70
     1
102
RTVSPropertyOp28
 70
     1
102
RTVSPropertyOp29
 70
     1
102
RTVSPropertyOp30
 70
     1
102
RTVSPropertyOp31
 70
     1
102
RTVSPropertyOp32
 70
     1
  0
XRECORD
  5
704
102
{ACAD_REACTORS
330
703
102
}
330
703
100
AcDbXrecord
280
     1
102
RTVSPropertyOp0
 70
     1
102
RTVSPropertyOp1
 70
     1
102
RTVSPropertyOp2
 70
     1
102
RTVSPropertyOp3
 70
     1
102
RTVSPropertyOp4
 70
     1
102
RTVSPropertyOp5
 70
     1
102
RTVSPropertyOp6
 70
     1
102
RTVSPropertyOp7
 70
     1
102
RTVSPropertyOp8
 70
     1
102
RTVSPropertyOp9
 70
     1
102
RTVSPropertyOp10
 70
     1
102
RTVSPropertyOp11
 70
     1
102
RTVSPropertyOp12
 70
     1
102
RTVSPropertyOp13
 70
     1
102
RTVSPropertyOp14
 70
     1
102
RTVSPropertyOp15
 70
     1
102
RTVSPropertyOp16
 70
     1
102
RTVSPropertyOp17
 70
     1
102
RTVSPropertyOp18
 70
     1
102
RTVSPropertyOp19
 70
     1
102
RTVSPropertyOp20
 70
     1
102
RTVSPropertyOp21
 70
     1
102
RTVSPropertyOp22
 70
     1
102
RTVSPropertyOp23
 70
     1
102
RTVSPropertyOp24
 70
     1
102
RTVSPropertyOp25
 70
     1
102
RTVSPropertyOp26
 70
     1
102
RTVSPropertyOp27
 70
     1
102
RTVSPropertyOp28
 70
     1
102
RTVSPropertyOp29
 70
     1
102
RTVSPropertyOp30
 70
     1
102
RTVSPropertyOp31
 70
     1
102
RTVSPropertyOp32
 70
     1
  0
XRECORD
  5
708
102
{ACAD_REACTORS
330
707
102
}
330
707
100
AcDbXrecord
280
     1
102
RTVSPropertyOp0
 70
     1
102
RTVSPropertyOp1
 70
     1
102
RTVSPropertyOp2
 70
     1
102
RTVSPropertyOp3
 70
     1
102
RTVSPropertyOp4
 70
     1
102
RTVSPropertyOp5
 70
     1
102
RTVSPropertyOp6
 70
     1
102
RTVSPropertyOp7
 70
     1
102
RTVSPropertyOp8
 70
     1
102
RTVSPropertyOp9
 70
     1
102
RTVSPropertyOp10
 70
     1
102
RTVSPropertyOp11
 70
     1
102
RTVSPropertyOp12
 70
     1
102
RTVSPropertyOp13
 70
     1
102
RTVSPropertyOp14
 70
     1
102
RTVSPropertyOp15
 70
     1
102
RTVSPropertyOp16
 70
     1
102
RTVSPropertyOp17
 70
     1
102
RTVSPropertyOp18
 70
     1
102
RTVSPropertyOp19
 70
     1
102
RTVSPropertyOp20
 70
     1
102
RTVSPropertyOp21
 70
     1
102
RTVSPropertyOp22
 70
     1
102
RTVSPropertyOp23
 70
     1
102
RTVSPropertyOp24
 70
     1
102
RTVSPropertyOp25
 70
     1
102
RTVSPropertyOp26
 70
     1
102
RTVSPropertyOp27
 70
     1
102
RTVSPropertyOp28
 70
     1
102
RTVSPropertyOp29
 70
     1
102
RTVSPropertyOp30
 70
     1
102
RTVSPropertyOp31
 70
     1
102
RTVSPropertyOp32
 70
     1
  0
XRECORD
  5
72B
102
{ACAD_REACTORS
330
72A
102
}
330
72A
100
AcDbXrecord
280
     1
102
RTVSPropertyOp0
 70
     0
102
RTVSPropertyOp1
 70
     0
102
RTVSPropertyOp2
 70
     0
102
RTVSPropertyOp3
 70
     0
102
RTVSPropertyOp4
 70
     0
102
RTVSPropertyOp5
 70
     0
102
RTVSPropertyOp6
 70
     0
102
RTVSPropertyOp7
 70
     0
102
RTVSPropertyOp8
 70
     0
102
RTVSPropertyOp9
 70
     0
102
RTVSPropertyOp10
 70
     0
102
RTVSPropertyOp11
 70
     0
102
RTVSPropertyOp12
 70
     0
102
RTVSPropertyOp13
 70
     0
102
RTVSPropertyOp14
 70
     2
102
RTVSPropertyOp15
 70
     0
102
RTVSPropertyOp16
 70
     0
102
RTVSPropertyOp17
 70
     0
102
RTVSPropertyOp18
 70
     0
102
RTVSPropertyOp19
 70
     0
102
RTVSPropertyOp20
 70
     0
102
RTVSPropertyOp21
 70
     0
102
RTVSPropertyOp22
 70
     0
102
RTVSPropertyOp23
 70
     0
102
RTVSPropertyOp24
 70
     0
102
RTVSPropertyOp25
 70
     0
102
RTVSPropertyOp26
 70
     0
102
RTVSPropertyOp27
 70
     0
102
RTVSPropertyOp28
 70
     0
102
RTVSPropertyOp29
 70
     0
102
RTVSPropertyOp30
 70
     0
102
RTVSPropertyOp31
 70
     0
102
RTVSPropertyOp32
 70
     0
  0
XRECORD
  5
710
102
{ACAD_REACTORS
330
70F
102
}
330
70F
100
AcDbXrecord
280
     1
102
RTVSPropertyOp0
 70
     1
102
RTVSPropertyOp1
 70
     1
102
RTVSPropertyOp2
 70
     1
102
RTVSPropertyOp3
 70
     1
102
RTVSPropertyOp4
 70
     1
102
RTVSPropertyOp5
 70
     1
102
RTVSPropertyOp6
 70
     1
102
RTVSPropertyOp7
 70
     1
102
RTVSPropertyOp8
 70
     1
102
RTVSPropertyOp9
 70
     1
102
RTVSPropertyOp10
 70
     1
102
RTVSPropertyOp11
 70
     1
102
RTVSPropertyOp12
 70
     1
102
RTVSPropertyOp13
 70
     1
102
RTVSPropertyOp14
 70
     1
102
RTVSPropertyOp15
 70
     1
102
RTVSPropertyOp16
 70
     1
102
RTVSPropertyOp17
 70
     1
102
RTVSPropertyOp18
 70
     1
102
RTVSPropertyOp19
 70
     1
102
RTVSPropertyOp20
 70
     1
102
RTVSPropertyOp21
 70
     1
102
RTVSPropertyOp22
 70
     1
102
RTVSPropertyOp23
 70
     1
102
RTVSPropertyOp24
 70
     1
102
RTVSPropertyOp25
 70
     1
102
RTVSPropertyOp26
 70
     1
102
RTVSPropertyOp27
 70
     1
102
RTVSPropertyOp28
 70
     1
102
RTVSPropertyOp29
 70
     1
102
RTVSPropertyOp30
 70
     1
102
RTVSPropertyOp31
 70
     1
102
RTVSPropertyOp32
 70
     1
  0
XRECORD
  5
6F4
102
{ACAD_REACTORS
330
6F3
102
}
330
6F3
100
AcDbXrecord
280
     1
102
RTVSPropertyOp0
 70
     1
102
RTVSPropertyOp1
 70
     1
102
RTVSPropertyOp2
 70
     1
102
RTVSPropertyOp3
 70
     1
102
RTVSPropertyOp4
 70
     1
102
RTVSPropertyOp5
 70
     1
102
RTVSPropertyOp6
 70
     1
102
RTVSPropertyOp7
 70
     1
102
RTVSPropertyOp8
 70
     1
102
RTVSPropertyOp9
 70
     1
102
RTVSPropertyOp10
 70
     1
102
RTVSPropertyOp11
 70
     1
102
RTVSPropertyOp12
 70
     1
102
RTVSPropertyOp13
 70
     1
102
RTVSPropertyOp14
 70
     1
102
RTVSPropertyOp15
 70
     1
102
RTVSPropertyOp16
 70
     1
102
RTVSPropertyOp17
 70
     1
102
RTVSPropertyOp18
 70
     1
102
RTVSPropertyOp19
 70
     1
102
RTVSPropertyOp20
 70
     1
102
RTVSPropertyOp21
 70
     1
102
RTVSPropertyOp22
 70
     1
102
RTVSPropertyOp23
 70
     1
102
RTVSPropertyOp24
 70
     1
102
RTVSPropertyOp25
 70
     1
102
RTVSPropertyOp26
 70
     1
102
RTVSPropertyOp27
 70
     1
102
RTVSPropertyOp28
 70
     1
102
RTVSPropertyOp29
 70
     1
102
RTVSPropertyOp30
 70
     1
102
RTVSPropertyOp31
 70
     1
102
RTVSPropertyOp32
 70
     1
  0
XRECORD
  5
6F6
102
{ACAD_REACTORS
330
6F5
102
}
330
6F5
100
AcDbXrecord
280
     1
102
RTVSPropertyOp0
 70
     1
102
RTVSPropertyOp1
 70
     1
102
RTVSPropertyOp2
 70
     1
102
RTVSPropertyOp3
 70
     1
102
RTVSPropertyOp4
 70
     1
102
RTVSPropertyOp5
 70
     1
102
RTVSPropertyOp6
 70
     1
102
RTVSPropertyOp7
 70
     1
102
RTVSPropertyOp8
 70
     1
102
RTVSPropertyOp9
 70
     1
102
RTVSPropertyOp10
 70
     1
102
RTVSPropertyOp11
 70
     1
102
RTVSPropertyOp12
 70
     1
102
RTVSPropertyOp13
 70
     1
102
RTVSPropertyOp14
 70
     1
102
RTVSPropertyOp15
 70
     1
102
RTVSPropertyOp16
 70
     1
102
RTVSPropertyOp17
 70
     1
102
RTVSPropertyOp18
 70
     1
102
RTVSPropertyOp19
 70
     1
102
RTVSPropertyOp20
 70
     1
102
RTVSPropertyOp21
 70
     1
102
RTVSPropertyOp22
 70
     1
102
RTVSPropertyOp23
 70
     1
102
RTVSPropertyOp24
 70
     1
102
RTVSPropertyOp25
 70
     1
102
RTVSPropertyOp26
 70
     1
102
RTVSPropertyOp27
 70
     1
102
RTVSPropertyOp28
 70
     1
102
RTVSPropertyOp29
 70
     1
102
RTVSPropertyOp30
 70
     1
102
RTVSPropertyOp31
 70
     1
102
RTVSPropertyOp32
 70
     1
  0
XRECORD
  5
6F8
102
{ACAD_REACTORS
330
6F7
102
}
330
6F7
100
AcDbXrecord
280
     1
102
RTVSPropertyOp0
 70
     1
102
RTVSPropertyOp1
 70
     1
102
RTVSPropertyOp2
 70
     1
102
RTVSPropertyOp3
 70
     1
102
RTVSPropertyOp4
 70
     1
102
RTVSPropertyOp5
 70
     1
102
RTVSPropertyOp6
 70
     1
102
RTVSPropertyOp7
 70
     1
102
RTVSPropertyOp8
 70
     1
102
RTVSPropertyOp9
 70
     1
102
RTVSPropertyOp10
 70
     1
102
RTVSPropertyOp11
 70
     1
102
RTVSPropertyOp12
 70
     1
102
RTVSPropertyOp13
 70
     1
102
RTVSPropertyOp14
 70
     1
102
RTVSPropertyOp15
 70
     1
102
RTVSPropertyOp16
 70
     1
102
RTVSPropertyOp17
 70
     1
102
RTVSPropertyOp18
 70
     1
102
RTVSPropertyOp19
 70
     1
102
RTVSPropertyOp20
 70
     1
102
RTVSPropertyOp21
 70
     1
102
RTVSPropertyOp22
 70
     1
102
RTVSPropertyOp23
 70
     1
102
RTVSPropertyOp24
 70
     1
102
RTVSPropertyOp25
 70
     1
102
RTVSPropertyOp26
 70
     1
102
RTVSPropertyOp27
 70
     1
102
RTVSPropertyOp28
 70
     1
102
RTVSPropertyOp29
 70
     1
102
RTVSPropertyOp30
 70
     1
102
RTVSPropertyOp31
 70
     1
102
RTVSPropertyOp32
 70
     1
  0
XRECORD
  5
6FA
102
{ACAD_REACTORS
330
6F9
102
}
330
6F9
100
AcDbXrecord
280
     1
102
RTVSPropertyOp0
 70
     1
102
RTVSPropertyOp1
 70
     1
102
RTVSPropertyOp2
 70
     1
102
RTVSPropertyOp3
 70
     1
102
RTVSPropertyOp4
 70
     1
102
RTVSPropertyOp5
 70
     1
102
RTVSPropertyOp6
 70
     1
102
RTVSPropertyOp7
 70
     1
102
RTVSPropertyOp8
 70
     1
102
RTVSPropertyOp9
 70
     1
102
RTVSPropertyOp10
 70
     1
102
RTVSPropertyOp11
 70
     1
102
RTVSPropertyOp12
 70
     1
102
RTVSPropertyOp13
 70
     1
102
RTVSPropertyOp14
 70
     1
102
RTVSPropertyOp15
 70
     1
102
RTVSPropertyOp16
 70
     1
102
RTVSPropertyOp17
 70
     1
102
RTVSPropertyOp18
 70
     1
102
RTVSPropertyOp19
 70
     1
102
RTVSPropertyOp20
 70
     1
102
RTVSPropertyOp21
 70
     1
102
RTVSPropertyOp22
 70
     1
102
RTVSPropertyOp23
 70
     1
102
RTVSPropertyOp24
 70
     1
102
RTVSPropertyOp25
 70
     1
102
RTVSPropertyOp26
 70
     1
102
RTVSPropertyOp27
 70
     1
102
RTVSPropertyOp28
 70
     1
102
RTVSPropertyOp29
 70
     1
102
RTVSPropertyOp30
 70
     1
102
RTVSPropertyOp31
 70
     1
102
RTVSPropertyOp32
 70
     1
  0
XRECORD
  5
71B
102
{ACAD_REACTORS
330
71A
102
}
330
71A
100
AcDbXrecord
280
     1
102
RTVSPropertyOp0
 70
     1
102
RTVSPropertyOp1
 70
     1
102
RTVSPropertyOp2
 70
     1
102
RTVSPropertyOp3
 70
     1
102
RTVSPropertyOp4
 70
     1
102
RTVSPropertyOp5
 70
     1
102
RTVSPropertyOp6
 70
     1
102
RTVSPropertyOp7
 70
     1
102
RTVSPropertyOp8
 70
     1
102
RTVSPropertyOp9
 70
     1
102
RTVSPropertyOp10
 70
     1
102
RTVSPropertyOp11
 70
     1
102
RTVSPropertyOp12
 70
     1
102
RTVSPropertyOp13
 70
     1
102
RTVSPropertyOp14
 70
     1
102
RTVSPropertyOp15
 70
     1
102
RTVSPropertyOp16
 70
     1
102
RTVSPropertyOp17
 70
     1
102
RTVSPropertyOp18
 70
     1
102
RTVSPropertyOp19
 70
     1
102
RTVSPropertyOp20
 70
     1
102
RTVSPropertyOp21
 70
     1
102
RTVSPropertyOp22
 70
     1
102
RTVSPropertyOp23
 70
     1
102
RTVSPropertyOp24
 70
     1
102
RTVSPropertyOp25
 70
     1
102
RTVSPropertyOp26
 70
     1
102
RTVSPropertyOp27
 70
     1
102
RTVSPropertyOp28
 70
     1
102
RTVSPropertyOp29
 70
     1
102
RTVSPropertyOp30
 70
     1
102
RTVSPropertyOp31
 70
     1
102
RTVSPropertyOp32
 70
     1
  0
XRECORD
  5
727
102
{ACAD_REACTORS
330
726
102
}
330
726
100
AcDbXrecord
280
     1
102
RTVSPropertyOp0
 70
     0
102
RTVSPropertyOp1
 70
     0
102
RTVSPropertyOp2
 70
     0
102
RTVSPropertyOp3
 70
     0
102
RTVSPropertyOp4
 70
     0
102
RTVSPropertyOp5
 70
     0
102
RTVSPropertyOp6
 70
     0
102
RTVSPropertyOp7
 70
     0
102
RTVSPropertyOp8
 70
     0
102
RTVSPropertyOp9
 70
     0
102
RTVSPropertyOp10
 70
     0
102
RTVSPropertyOp11
 70
     0
102
RTVSPropertyOp12
 70
     0
102
RTVSPropertyOp13
 70
     0
102
RTVSPropertyOp14
 70
     2
102
RTVSPropertyOp15
 70
     0
102
RTVSPropertyOp16
 70
     0
102
RTVSPropertyOp17
 70
     0
102
RTVSPropertyOp18
 70
     0
102
RTVSPropertyOp19
 70
     0
102
RTVSPropertyOp20
 70
     0
102
RTVSPropertyOp21
 70
     0
102
RTVSPropertyOp22
 70
     0
102
RTVSPropertyOp23
 70
     0
102
RTVSPropertyOp24
 70
     0
102
RTVSPropertyOp25
 70
     0
102
RTVSPropertyOp26
 70
     0
102
RTVSPropertyOp27
 70
     0
102
RTVSPropertyOp28
 70
     0
102
RTVSPropertyOp29
 70
     0
102
RTVSPropertyOp30
 70
     0
102
RTVSPropertyOp31
 70
     0
102
RTVSPropertyOp32
 70
     0
  0
XRECORD
  5
70E
102
{ACAD_REACTORS
330
70D
102
}
330
70D
100
AcDbXrecord
280
     1
102
RTVSPropertyOp0
 70
     1
102
RTVSPropertyOp1
 70
     1
102
RTVSPropertyOp2
 70
     1
102
RTVSPropertyOp3
 70
     1
102
RTVSPropertyOp4
 70
     1
102
RTVSPropertyOp5
 70
     1
102
RTVSPropertyOp6
 70
     1
102
RTVSPropertyOp7
 70
     1
102
RTVSPropertyOp8
 70
     1
102
RTVSPropertyOp9
 70
     1
102
RTVSPropertyOp10
 70
     1
102
RTVSPropertyOp11
 70
     1
102
RTVSPropertyOp12
 70
     1
102
RTVSPropertyOp13
 70
     1
102
RTVSPropertyOp14
 70
     1
102
RTVSPropertyOp15
 70
     1
102
RTVSPropertyOp16
 70
     1
102
RTVSPropertyOp17
 70
     1
102
RTVSPropertyOp18
 70
     1
102
RTVSPropertyOp19
 70
     1
102
RTVSPropertyOp20
 70
     1
102
RTVSPropertyOp21
 70
     1
102
RTVSPropertyOp22
 70
     1
102
RTVSPropertyOp23
 70
     1
102
RTVSPropertyOp24
 70
     1
102
RTVSPropertyOp25
 70
     1
102
RTVSPropertyOp26
 70
     1
102
RTVSPropertyOp27
 70
     1
102
RTVSPropertyOp28
 70
     1
102
RTVSPropertyOp29
 70
     1
102
RTVSPropertyOp30
 70
     1
102
RTVSPropertyOp31
 70
     1
102
RTVSPropertyOp32
 70
     1
  0
XRECORD
  5
729
102
{ACAD_REACTORS
330
728
102
}
330
728
100
AcDbXrecord
280
     1
102
RTVSPropertyOp0
 70
     0
102
RTVSPropertyOp1
 70
     0
102
RTVSPropertyOp2
 70
     0
102
RTVSPropertyOp3
 70
     0
102
RTVSPropertyOp4
 70
     0
102
RTVSPropertyOp5
 70
     0
102
RTVSPropertyOp6
 70
     0
102
RTVSPropertyOp7
 70
     0
102
RTVSPropertyOp8
 70
     0
102
RTVSPropertyOp9
 70
     0
102
RTVSPropertyOp10
 70
     0
102
RTVSPropertyOp11
 70
     0
102
RTVSPropertyOp12
 70
     0
102
RTVSPropertyOp13
 70
     0
102
RTVSPropertyOp14
 70
     2
102
RTVSPropertyOp15
 70
     0
102
RTVSPropertyOp16
 70
     0
102
RTVSPropertyOp17
 70
     0
102
RTVSPropertyOp18
 70
     0
102
RTVSPropertyOp19
 70
     0
102
RTVSPropertyOp20
 70
     0
102
RTVSPropertyOp21
 70
     0
102
RTVSPropertyOp22
 70
     0
102
RTVSPropertyOp23
 70
     0
102
RTVSPropertyOp24
 70
     0
102
RTVSPropertyOp25
 70
     0
102
RTVSPropertyOp26
 70
     0
102
RTVSPropertyOp27
 70
     0
102
RTVSPropertyOp28
 70
     0
102
RTVSPropertyOp29
 70
     0
102
RTVSPropertyOp30
 70
     0
102
RTVSPropertyOp31
 70
     0
102
RTVSPropertyOp32
 70
     0
  0
XRECORD
  5
706
102
{ACAD_REACTORS
330
705
102
}
330
705
100
AcDbXrecord
280
     1
102
RTVSPropertyOp0
 70
     1
102
RTVSPropertyOp1
 70
     1
102
RTVSPropertyOp2
 70
     1
102
RTVSPropertyOp3
 70
     1
102
RTVSPropertyOp4
 70
     1
102
RTVSPropertyOp5
 70
     1
102
RTVSPropertyOp6
 70
     1
102
RTVSPropertyOp7
 70
     1
102
RTVSPropertyOp8
 70
     1
102
RTVSPropertyOp9
 70
     1
102
RTVSPropertyOp10
 70
     1
102
RTVSPropertyOp11
 70
     1
102
RTVSPropertyOp12
 70
     1
102
RTVSPropertyOp13
 70
     1
102
RTVSPropertyOp14
 70
     1
102
RTVSPropertyOp15
 70
     1
102
RTVSPropertyOp16
 70
     1
102
RTVSPropertyOp17
 70
     1
102
RTVSPropertyOp18
 70
     1
102
RTVSPropertyOp19
 70
     1
102
RTVSPropertyOp20
 70
     1
102
RTVSPropertyOp21
 70
     1
102
RTVSPropertyOp22
 70
     1
102
RTVSPropertyOp23
 70
     1
102
RTVSPropertyOp24
 70
     1
102
RTVSPropertyOp25
 70
     1
102
RTVSPropertyOp26
 70
     1
102
RTVSPropertyOp27
 70
     1
102
RTVSPropertyOp28
 70
     1
102
RTVSPropertyOp29
 70
     1
102
RTVSPropertyOp30
 70
     1
102
RTVSPropertyOp31
 70
     1
102
RTVSPropertyOp32
 70
     1
  0
XRECORD
  5
725
102
{ACAD_REACTORS
330
724
102
}
330
724
100
AcDbXrecord
280
     1
102
RTVSPropertyOp0
 70
     1
102
RTVSPropertyOp1
 70
     1
102
RTVSPropertyOp2
 70
     1
102
RTVSPropertyOp3
 70
     1
102
RTVSPropertyOp4
 70
     1
102
RTVSPropertyOp5
 70
     1
102
RTVSPropertyOp6
 70
     1
102
RTVSPropertyOp7
 70
     1
102
RTVSPropertyOp8
 70
     1
102
RTVSPropertyOp9
 70
     1
102
RTVSPropertyOp10
 70
     1
102
RTVSPropertyOp11
 70
     1
102
RTVSPropertyOp12
 70
     1
102
RTVSPropertyOp13
 70
     1
102
RTVSPropertyOp14
 70
     1
102
RTVSPropertyOp15
 70
     1
102
RTVSPropertyOp16
 70
     1
102
RTVSPropertyOp17
 70
     1
102
RTVSPropertyOp18
 70
     1
102
RTVSPropertyOp19
 70
     1
102
RTVSPropertyOp20
 70
     1
102
RTVSPropertyOp21
 70
     1
102
RTVSPropertyOp22
 70
     1
102
RTVSPropertyOp23
 70
     1
102
RTVSPropertyOp24
 70
     1
102
RTVSPropertyOp25
 70
     1
102
RTVSPropertyOp26
 70
     1
102
RTVSPropertyOp27
 70
     1
102
RTVSPropertyOp28
 70
     1
102
RTVSPropertyOp29
 70
     1
102
RTVSPropertyOp30
 70
     1
102
RTVSPropertyOp31
 70
     1
102
RTVSPropertyOp32
 70
     1
  0
XRECORD
  5
723
102
{ACAD_REACTORS
330
722
102
}
330
722
100
AcDbXrecord
280
     1
102
RTVSPropertyOp0
 70
     1
102
RTVSPropertyOp1
 70
     1
102
RTVSPropertyOp2
 70
     1
102
RTVSPropertyOp3
 70
     1
102
RTVSPropertyOp4
 70
     1
102
RTVSPropertyOp5
 70
     1
102
RTVSPropertyOp6
 70
     1
102
RTVSPropertyOp7
 70
     1
102
RTVSPropertyOp8
 70
     1
102
RTVSPropertyOp9
 70
     1
102
RTVSPropertyOp10
 70
     1
102
RTVSPropertyOp11
 70
     1
102
RTVSPropertyOp12
 70
     1
102
RTVSPropertyOp13
 70
     1
102
RTVSPropertyOp14
 70
     1
102
RTVSPropertyOp15
 70
     1
102
RTVSPropertyOp16
 70
     1
102
RTVSPropertyOp17
 70
     1
102
RTVSPropertyOp18
 70
     1
102
RTVSPropertyOp19
 70
     1
102
RTVSPropertyOp20
 70
     1
102
RTVSPropertyOp21
 70
     1
102
RTVSPropertyOp22
 70
     1
102
RTVSPropertyOp23
 70
     1
102
RTVSPropertyOp24
 70
     1
102
RTVSPropertyOp25
 70
     1
102
RTVSPropertyOp26
 70
     1
102
RTVSPropertyOp27
 70
     1
102
RTVSPropertyOp28
 70
     1
102
RTVSPropertyOp29
 70
     1
102
RTVSPropertyOp30
 70
     1
102
RTVSPropertyOp31
 70
     1
102
RTVSPropertyOp32
 70
     1
  0
XRECORD
  5
71D
102
{ACAD_REACTORS
330
71C
102
}
330
71C
100
AcDbXrecord
280
     1
102
RTVSPropertyOp0
 70
     1
102
RTVSPropertyOp1
 70
     1
102
RTVSPropertyOp2
 70
     1
102
RTVSPropertyOp3
 70
     1
102
RTVSPropertyOp4
 70
     1
102
RTVSPropertyOp5
 70
     1
102
RTVSPropertyOp6
 70
     1
102
RTVSPropertyOp7
 70
     1
102
RTVSPropertyOp8
 70
     1
102
RTVSPropertyOp9
 70
     1
102
RTVSPropertyOp10
 70
     1
102
RTVSPropertyOp11
 70
     1
102
RTVSPropertyOp12
 70
     1
102
RTVSPropertyOp13
 70
     1
102
RTVSPropertyOp14
 70
     1
102
RTVSPropertyOp15
 70
     1
102
RTVSPropertyOp16
 70
     1
102
RTVSPropertyOp17
 70
     1
102
RTVSPropertyOp18
 70
     1
102
RTVSPropertyOp19
 70
     1
102
RTVSPropertyOp20
 70
     1
102
RTVSPropertyOp21
 70
     1
102
RTVSPropertyOp22
 70
     1
102
RTVSPropertyOp23
 70
     1
102
RTVSPropertyOp24
 70
     1
102
RTVSPropertyOp25
 70
     1
102
RTVSPropertyOp26
 70
     1
102
RTVSPropertyOp27
 70
     1
102
RTVSPropertyOp28
 70
     1
102
RTVSPropertyOp29
 70
     1
102
RTVSPropertyOp30
 70
     1
102
RTVSPropertyOp31
 70
     1
102
RTVSPropertyOp32
 70
     1
  0
XRECORD
  5
71F
102
{ACAD_REACTORS
330
71E
102
}
330
71E
100
AcDbXrecord
280
     1
102
RTVSPropertyOp0
 70
     1
102
RTVSPropertyOp1
 70
     1
102
RTVSPropertyOp2
 70
     1
102
RTVSPropertyOp3
 70
     1
102
RTVSPropertyOp4
 70
     1
102
RTVSPropertyOp5
 70
     1
102
RTVSPropertyOp6
 70
     1
102
RTVSPropertyOp7
 70
     1
102
RTVSPropertyOp8
 70
     1
102
RTVSPropertyOp9
 70
     1
102
RTVSPropertyOp10
 70
     1
102
RTVSPropertyOp11
 70
     1
102
RTVSPropertyOp12
 70
     1
102
RTVSPropertyOp13
 70
     1
102
RTVSPropertyOp14
 70
     1
102
RTVSPropertyOp15
 70
     1
102
RTVSPropertyOp16
 70
     1
102
RTVSPropertyOp17
 70
     1
102
RTVSPropertyOp18
 70
     1
102
RTVSPropertyOp19
 70
     1
102
RTVSPropertyOp20
 70
     1
102
RTVSPropertyOp21
 70
     1
102
RTVSPropertyOp22
 70
     1
102
RTVSPropertyOp23
 70
     1
102
RTVSPropertyOp24
 70
     1
102
RTVSPropertyOp25
 70
     1
102
RTVSPropertyOp26
 70
     1
102
RTVSPropertyOp27
 70
     1
102
RTVSPropertyOp28
 70
     1
102
RTVSPropertyOp29
 70
     1
102
RTVSPropertyOp30
 70
     1
102
RTVSPropertyOp31
 70
     1
102
RTVSPropertyOp32
 70
     1
  0
XRECORD
  5
70C
102
{ACAD_REACTORS
330
70B
102
}
330
70B
100
AcDbXrecord
280
     1
102
RTVSPropertyOp0
 70
     1
102
RTVSPropertyOp1
 70
     1
102
RTVSPropertyOp2
 70
     1
102
RTVSPropertyOp3
 70
     1
102
RTVSPropertyOp4
 70
     1
102
RTVSPropertyOp5
 70
     1
102
RTVSPropertyOp6
 70
     1
102
RTVSPropertyOp7
 70
     1
102
RTVSPropertyOp8
 70
     1
102
RTVSPropertyOp9
 70
     1
102
RTVSPropertyOp10
 70
     1
102
RTVSPropertyOp11
 70
     1
102
RTVSPropertyOp12
 70
     1
102
RTVSPropertyOp13
 70
     1
102
RTVSPropertyOp14
 70
     1
102
RTVSPropertyOp15
 70
     1
102
RTVSPropertyOp16
 70
     1
102
RTVSPropertyOp17
 70
     1
102
RTVSPropertyOp18
 70
     1
102
RTVSPropertyOp19
 70
     1
102
RTVSPropertyOp20
 70
     1
102
RTVSPropertyOp21
 70
     1
102
RTVSPropertyOp22
 70
     1
102
RTVSPropertyOp23
 70
     1
102
RTVSPropertyOp24
 70
     1
102
RTVSPropertyOp25
 70
     1
102
RTVSPropertyOp26
 70
     1
102
RTVSPropertyOp27
 70
     1
102
RTVSPropertyOp28
 70
     1
102
RTVSPropertyOp29
 70
     1
102
RTVSPropertyOp30
 70
     1
102
RTVSPropertyOp31
 70
     1
102
RTVSPropertyOp32
 70
     1
  0
XRECORD
  5
719
102
{ACAD_REACTORS
330
718
102
}
330
718
100
AcDbXrecord
280
     1
102
RTVSPropertyOp0
 70
     1
102
RTVSPropertyOp1
 70
     1
102
RTVSPropertyOp2
 70
     1
102
RTVSPropertyOp3
 70
     1
102
RTVSPropertyOp4
 70
     1
102
RTVSPropertyOp5
 70
     1
102
RTVSPropertyOp6
 70
     1
102
RTVSPropertyOp7
 70
     1
102
RTVSPropertyOp8
 70
     1
102
RTVSPropertyOp9
 70
     1
102
RTVSPropertyOp10
 70
     1
102
RTVSPropertyOp11
 70
     1
102
RTVSPropertyOp12
 70
     1
102
RTVSPropertyOp13
 70
     1
102
RTVSPropertyOp14
 70
     1
102
RTVSPropertyOp15
 70
     1
102
RTVSPropertyOp16
 70
     1
102
RTVSPropertyOp17
 70
     1
102
RTVSPropertyOp18
 70
     1
102
RTVSPropertyOp19
 70
     1
102
RTVSPropertyOp20
 70
     1
102
RTVSPropertyOp21
 70
     1
102
RTVSPropertyOp22
 70
     1
102
RTVSPropertyOp23
 70
     1
102
RTVSPropertyOp24
 70
     1
102
RTVSPropertyOp25
 70
     1
102
RTVSPropertyOp26
 70
     1
102
RTVSPropertyOp27
 70
     1
102
RTVSPropertyOp28
 70
     1
102
RTVSPropertyOp29
 70
     1
102
RTVSPropertyOp30
 70
     1
102
RTVSPropertyOp31
 70
     1
102
RTVSPropertyOp32
 70
     1
  0
XRECORD
  5
721
102
{ACAD_REACTORS
330
720
102
}
330
720
100
AcDbXrecord
280
     1
102
RTVSPropertyOp0
 70
     1
102
RTVSPropertyOp1
 70
     1
102
RTVSPropertyOp2
 70
     1
102
RTVSPropertyOp3
 70
     1
102
RTVSPropertyOp4
 70
     1
102
RTVSPropertyOp5
 70
     1
102
RTVSPropertyOp6
 70
     1
102
RTVSPropertyOp7
 70
     1
102
RTVSPropertyOp8
 70
     1
102
RTVSPropertyOp9
 70
     1
102
RTVSPropertyOp10
 70
     1
102
RTVSPropertyOp11
 70
     1
102
RTVSPropertyOp12
 70
     1
102
RTVSPropertyOp13
 70
     1
102
RTVSPropertyOp14
 70
     1
102
RTVSPropertyOp15
 70
     1
102
RTVSPropertyOp16
 70
     1
102
RTVSPropertyOp17
 70
     1
102
RTVSPropertyOp18
 70
     1
102
RTVSPropertyOp19
 70
     1
102
RTVSPropertyOp20
 70
     1
102
RTVSPropertyOp21
 70
     1
102
RTVSPropertyOp22
 70
     1
102
RTVSPropertyOp23
 70
     1
102
RTVSPropertyOp24
 70
     1
102
RTVSPropertyOp25
 70
     1
102
RTVSPropertyOp26
 70
     1
102
RTVSPropertyOp27
 70
     1
102
RTVSPropertyOp28
 70
     1
102
RTVSPropertyOp29
 70
     1
102
RTVSPropertyOp30
 70
     1
102
RTVSPropertyOp31
 70
     1
102
RTVSPropertyOp32
 70
     1
  0
ENDSEC
  0
EOF
