  0
SECTION
  2
HEADER
  9
$ACADVER
  1
AC1015
  9
$ACADMAINTVER
 70
    20
  9
$DWGCODEPAGE
  3
ANSI_932
  9
$INSBASE
 10
0.0
 20
0.0
 30
0.0
  9
$EXTMIN
 10
-1633.575416907639
 20
-742.3187091624368
 30
-0.0015258207003583
  9
$EXTMAX
 10
1101.654068685198
 20
2599.475111055042
 30
0.0000000349246037
  9
$LIMMIN
 10
-4200.0
 20
-2970.0
  9
$LIMMAX
 10
4200.0
 20
2970.0
  9
$ORTHOMODE
 70
     0
  9
$REGENMODE
 70
     1
  9
$FILLMODE
 70
     1
  9
$QTEXTMODE
 70
     0
  9
$MIRRTEXT
 70
     0
  9
$LTSCALE
 40
20.0
  9
$ATTMODE
 70
     1
  9
$TEXTSIZE
 40
64.0
  9
$TRACEWID
 40
0.05
  9
$TEXTSTYLE
  7
STANDARD
  9
$CLAYER
  8
SIZE
  9
$CELTYPE
  6
CONTINUOUS
  9
$CECOLOR
 62
     7
  9
$CELTSCALE
 40
1.0
  9
$DISPSILH
 70
     0
  9
$DIMSCALE
 40
1.0
  9
$DIMASZ
 40
10.0
  9
$DIMEXO
 40
20.0
  9
$DIMDLI
 40
200.0
  9
$DIMRND
 40
0.0
  9
$DIMDLE
 40
0.0
  9
$DIMEXE
 40
30.0
  9
$DIMTP
 40
0.0
  9
$DIMTM
 40
0.0
  9
$DIMTXT
 40
64.0
  9
$DIMCEN
 40
0.0
  9
$DIMTSZ
 40
0.0
  9
$DIMTOL
 70
     0
  9
$DIMLIM
 70
     0
  9
$DIMTIH
 70
     0
  9
$DIMTOH
 70
     0
  9
$DIMSE1
 70
     0
  9
$DIMSE2
 70
     0
  9
$DIMTAD
 70
     1
  9
$DIMZIN
 70
     8
  9
$DIMBLK
  1
DOTBLANK
  9
$DIMASO
 70
     1
  9
$DIMSHO
 70
     0
  9
$DIMPOST
  1

  9
$DIMAPOST
  1

  9
$DIMALT
 70
     0
  9
$DIMALTD
 70
     2
  9
$DIMALTF
 40
25.4
  9
$DIMLFAC
 40
1.0
  9
$DIMTOFL
 70
     1
  9
$DIMTVP
 40
0.0
  9
$DIMTIX
 70
     1
  9
$DIMSOXD
 70
     0
  9
$DIMSAH
 70
     0
  9
$DIMBLK1
  1

  9
$DIMBLK2
  1

  9
$DIMSTYLE
  2
STANDARD
  9
$DIMCLRD
 70
     0
  9
$DIMCLRE
 70
     0
  9
$DIMCLRT
 70
     0
  9
$DIMTFAC
 40
1.0
  9
$DIMGAP
 40
0.09
  9
$DIMJUST
 70
     0
  9
$DIMSD1
 70
     0
  9
$DIMSD2
 70
     0
  9
$DIMTOLJ
 70
     1
  9
$DIMTZIN
 70
     0
  9
$DIMALTZ
 70
     0
  9
$DIMALTTZ
 70
     0
  9
$DIMUPT
 70
     0
  9
$DIMDEC
 70
     4
  9
$DIMTDEC
 70
     4
  9
$DIMALTU
 70
     2
  9
$DIMALTTD
 70
     2
  9
$DIMTXSTY
  7
STANDARD
  9
$DIMAUNIT
 70
     0
  9
$DIMADEC
 70
     0
  9
$DIMALTRND
 40
0.0
  9
$DIMAZIN
 70
     0
  9
$DIMDSEP
 70
    46
  9
$DIMATFIT
 70
     3
  9
$DIMFRAC
 70
     0
  9
$DIMLDRBLK
  1
DOTBLANK
  9
$DIMLUNIT
 70
     2
  9
$DIMLWD
 70
    -2
  9
$DIMLWE
 70
    -2
  9
$DIMTMOVE
 70
     0
  9
$LUNITS
 70
     2
  9
$LUPREC
 70
     4
  9
$SKETCHINC
 40
0.1
  9
$FILLETRAD
 40
0.0
  9
$AUNITS
 70
     1
  9
$AUPREC
 70
     3
  9
$MENU
  1
ACAD
  9
$ELEVATION
 40
0.0
  9
$PELEVATION
 40
0.0
  9
$THICKNESS
 40
0.0
  9
$LIMCHECK
 70
     0
  9
$CHAMFERA
 40
0.0
  9
$CHAMFERB
 40
0.0
  9
$CHAMFERC
 40
0.0
  9
$CHAMFERD
 40
0.0
  9
$SKPOLY
 70
     0
  9
$TDCREATE
 40
2449761.493622998
  9
$TDUCREATE
 40
2449761.160289664
  9
$TDUPDATE
 40
2457977.583453136
  9
$TDUUPDATE
 40
2457977.250119804
  9
$TDINDWG
 40
4.2308474653
  9
$TDUSRTIMER
 40
4.2308464699
  9
$USRTIMER
 70
     1
  9
$ANGBASE
 50
0.0
  9
$ANGDIR
 70
     0
  9
$PDMODE
 70
    35
  9
$PDSIZE
 40
100.0
  9
$PLINEWID
 40
0.0
  9
$SPLFRAME
 70
     0
  9
$SPLINETYPE
 70
     6
  9
$SPLINESEGS
 70
     8
  9
$HANDSEED
  5
646
  9
$SURFTAB1
 70
     6
  9
$SURFTAB2
 70
     6
  9
$SURFTYPE
 70
     6
  9
$SURFU
 70
     6
  9
$SURFV
 70
     6
  9
$UCSBASE
  2

  9
$UCSNAME
  2

  9
$UCSORG
 10
0.0
 20
0.0
 30
0.0
  9
$UCSXDIR
 10
1.0
 20
0.0
 30
0.0
  9
$UCSYDIR
 10
0.0
 20
1.0
 30
0.0
  9
$UCSORTHOREF
  2

  9
$UCSORTHOVIEW
 70
     0
  9
$UCSORGTOP
 10
0.0
 20
0.0
 30
0.0
  9
$UCSORGBOTTOM
 10
0.0
 20
0.0
 30
0.0
  9
$UCSORGLEFT
 10
0.0
 20
0.0
 30
0.0
  9
$UCSORGRIGHT
 10
0.0
 20
0.0
 30
0.0
  9
$UCSORGFRONT
 10
0.0
 20
0.0
 30
0.0
  9
$UCSORGBACK
 10
0.0
 20
0.0
 30
0.0
  9
$PUCSBASE
  2

  9
$PUCSNAME
  2

  9
$PUCSORG
 10
0.0
 20
0.0
 30
0.0
  9
$PUCSXDIR
 10
1.0
 20
0.0
 30
0.0
  9
$PUCSYDIR
 10
0.0
 20
1.0
 30
0.0
  9
$PUCSORTHOREF
  2

  9
$PUCSORTHOVIEW
 70
     0
  9
$PUCSORGTOP
 10
0.0
 20
0.0
 30
0.0
  9
$PUCSORGBOTTOM
 10
0.0
 20
0.0
 30
0.0
  9
$PUCSORGLEFT
 10
0.0
 20
0.0
 30
0.0
  9
$PUCSORGRIGHT
 10
0.0
 20
0.0
 30
0.0
  9
$PUCSORGFRONT
 10
0.0
 20
0.0
 30
0.0
  9
$PUCSORGBACK
 10
0.0
 20
0.0
 30
0.0
  9
$USERI1
 70
     0
  9
$USERI2
 70
     0
  9
$USERI3
 70
     0
  9
$USERI4
 70
     0
  9
$USERI5
 70
     0
  9
$USERR1
 40
20.0
  9
$USERR2
 40
0.0
  9
$USERR3
 40
0.0
  9
$USERR4
 40
0.0
  9
$USERR5
 40
0.0
  9
$WORLDVIEW
 70
     1
  9
$SHADEDGE
 70
     3
  9
$SHADEDIF
 70
    70
  9
$TILEMODE
 70
     1
  9
$MAXACTVP
 70
    48
  9
$PINSBASE
 10
0.0
 20
0.0
 30
0.0
  9
$PLIMCHECK
 70
     0
  9
$PEXTMIN
 10
1.000000000000000E+20
 20
1.000000000000000E+20
 30
1.000000000000000E+20
  9
$PEXTMAX
 10
-1.000000000000000E+20
 20
-1.000000000000000E+20
 30
-1.000000000000000E+20
  9
$PLIMMIN
 10
0.0
 20
0.0
  9
$PLIMMAX
 10
12.0
 20
9.0
  9
$UNITMODE
 70
     0
  9
$VISRETAIN
 70
     1
  9
$PLINEGEN
 70
     0
  9
$PSLTSCALE
 70
     1
  9
$TREEDEPTH
 70
  3020
  9
$CMLSTYLE
  2
Standard
  9
$CMLJUST
 70
     0
  9
$CMLSCALE
 40
1.0
  9
$PROXYGRAPHICS
 70
     1
  9
$MEASUREMENT
 70
     0
  9
$CELWEIGHT
370
    -1
  9
$ENDCAPS
280
     0
  9
$JOINSTYLE
280
     0
  9
$LWDISPLAY
290
     0
  9
$INSUNITS
 70
     0
  9
$HYPERLINKBASE
  1

  9
$STYLESHEET
  1

  9
$XEDIT
290
     1
  9
$CEPSNTYPE
380
     0
  9
$PSTYLEMODE
290
     1
  9
$FINGERPRINTGUID
  2
{DBDC56D4-2B72-45FD-8A31-EE00D7B48D70}
  9
$VERSIONGUID
  2
{27BD1B92-4F75-442E-8E58-746E5DC86C6F}
  9
$EXTNAMES
290
     1
  9
$PSVPSCALE
 40
0.0
  9
$OLESTARTUP
290
     0
  0
ENDSEC
  0
SECTION
  2
CLASSES
  0
CLASS
  1
ACDBDICTIONARYWDFLT
  2
AcDbDictionaryWithDefault
  3
ObjectDBX Classes
 90
        0
280
     0
281
     0
  0
CLASS
  1
MATERIAL
  2
AcDbMaterial
  3
ObjectDBX Classes
 90
     1153
280
     0
281
     0
  0
CLASS
  1
VISUALSTYLE
  2
AcDbVisualStyle
  3
ObjectDBX Classes
 90
     4095
280
     0
281
     0
  0
CLASS
  1
SCALE
  2
AcDbScale
  3
ObjectDBX Classes
 90
     1153
280
     0
281
     0
  0
CLASS
  1
TABLESTYLE
  2
AcDbTableStyle
  3
ObjectDBX Classes
 90
     4095
280
     0
281
     0
  0
CLASS
  1
MLEADERSTYLE
  2
AcDbMLeaderStyle
  3
ACDB_MLEADERSTYLE_CLASS
 90
     4095
280
     0
281
     0
  0
CLASS
  1
DICTIONARYVAR
  2
AcDbDictionaryVar
  3
ObjectDBX Classes
 90
        0
280
     0
281
     0
  0
CLASS
  1
CELLSTYLEMAP
  2
AcDbCellStyleMap
  3
ObjectDBX Classes
 90
     1152
280
     0
281
     0
  0
CLASS
  1
ACDBPLACEHOLDER
  2
AcDbPlaceHolder
  3
ObjectDBX Classes
 90
        0
280
     0
281
     0
  0
CLASS
  1
LAYOUT
  2
AcDbLayout
  3
ObjectDBX Classes
 90
        0
280
     0
281
     0
  0
ENDSEC
  0
SECTION
  2
TABLES
  0
TABLE
  2
VPORT
  5
557
330
0
100
AcDbSymbolTable
 70
     1
  0
VPORT
  5
5C8
330
557
100
AcDbSymbolTableRecord
100
AcDbViewportTableRecord
  2
*ACTIVE
 70
     0
 10
0.0
 20
0.0
 11
1.0
 21
1.0
 12
-265.9606741112202
 22
928.5782009463025
 13
0.0
 23
0.0
 14
50.0
 24
50.0
 15
100.0
 25
100.0
 16
0.0
 26
0.0
 36
1.0
 17
0.0
 27
0.0
 37
0.0
 40
3365.466503713707
 41
1.802600472813238
 42
50.0
 43
0.0
 44
0.0
 50
0.0
 51
0.0
 71
     0
 72
  1000
 73
     1
 74
     0
 75
     0
 76
     0
 77
     0
 78
     0
281
     0
 65
     1
110
0.0
120
0.0
130
0.0
111
1.0
121
0.0
131
0.0
112
0.0
122
1.0
132
0.0
 79
     0
146
0.0
  0
ENDTAB
  0
TABLE
  2
LTYPE
  5
554
330
0
100
AcDbSymbolTable
 70
     3
  0
LTYPE
  5
5B1
330
554
100
AcDbSymbolTableRecord
100
AcDbLinetypeTableRecord
  2
ByBlock
 70
     0
  3

 72
    65
 73
     0
 40
0.0
  0
LTYPE
  5
5B2
330
554
100
AcDbSymbolTableRecord
100
AcDbLinetypeTableRecord
  2
ByLayer
 70
     0
  3

 72
    65
 73
     0
 40
0.0
  0
LTYPE
  5
5B3
330
554
100
AcDbSymbolTableRecord
100
AcDbLinetypeTableRecord
  2
CONTINUOUS
 70
     0
  3
実線
 72
    65
 73
     0
 40
0.0
  0
LTYPE
  5
5C9
330
554
100
AcDbSymbolTableRecord
100
AcDbLinetypeTableRecord
  2
DASHDOT
 70
     0
  3
____ _ ____ _ ____ _ ____ _ ____ _ ____ _ ____
 72
    65
 73
     4
 40
5.5
 49
4.0
 74
     0
 49
-0.6
 74
     0
 49
0.3
 74
     0
 49
-0.6
 74
     0
  0
ENDTAB
  0
TABLE
  2
LAYER
  5
551
330
0
100
AcDbSymbolTable
 70
    12
  0
LAYER
  5
5AB
102
{ACAD_XDICTIONARY
360
5E2
102
}
330
551
100
AcDbSymbolTableRecord
100
AcDbLayerTableRecord
  2
0
 70
     0
 62
     7
  6
CONTINUOUS
370
    -3
390
55E
  0
LAYER
  5
5C7
102
{ACAD_XDICTIONARY
360
5E4
102
}
330
551
100
AcDbSymbolTableRecord
100
AcDbLayerTableRecord
  2
SIZE
 70
     0
 62
    30
  6
CONTINUOUS
370
    -3
390
55E
  0
LAYER
  5
5CA
102
{ACAD_XDICTIONARY
360
5E6
102
}
330
551
100
AcDbSymbolTableRecord
100
AcDbLayerTableRecord
  2
OUTLINE
 70
     0
 62
     3
  6
CONTINUOUS
370
    -3
390
55E
  0
LAYER
  5
5CB
102
{ACAD_XDICTIONARY
360
5E8
102
}
330
551
100
AcDbSymbolTableRecord
100
AcDbLayerTableRecord
  2
DETAIL
 70
     0
 62
     5
  6
CONTINUOUS
370
    -3
390
55E
  0
LAYER
  5
5CC
102
{ACAD_XDICTIONARY
360
5EA
102
}
330
551
100
AcDbSymbolTableRecord
100
AcDbLayerTableRecord
  2
BASIS
 70
     0
 62
     6
  6
DASHDOT
370
    -3
390
55E
  0
LAYER
  5
5CD
102
{ACAD_XDICTIONARY
360
5EC
102
}
330
551
100
AcDbSymbolTableRecord
100
AcDbLayerTableRecord
  2
NOTE
 70
     0
 62
     4
  6
CONTINUOUS
370
    -3
390
55E
  0
LAYER
  5
5CE
102
{ACAD_XDICTIONARY
360
5EE
102
}
330
551
100
AcDbSymbolTableRecord
100
AcDbLayerTableRecord
  2
ARRANGE
 70
     0
 62
     1
  6
CONTINUOUS
370
    -3
390
55E
  0
LAYER
  5
5CF
102
{ACAD_XDICTIONARY
360
5F0
102
}
330
551
100
AcDbSymbolTableRecord
100
AcDbLayerTableRecord
  2
FIX
 70
     0
 62
    11
  6
CONTINUOUS
370
    -3
390
55E
  0
LAYER
  5
5D0
102
{ACAD_XDICTIONARY
360
5F2
102
}
330
551
100
AcDbSymbolTableRecord
100
AcDbLayerTableRecord
  2
SERVICESPACE
 70
     0
 62
     2
  6
DASHDOT
370
    -3
390
55E
  0
LAYER
  5
5D1
102
{ACAD_XDICTIONARY
360
5F4
102
}
330
551
100
AcDbSymbolTableRecord
100
AcDbLayerTableRecord
  2
ETC
 70
     0
 62
    61
  6
CONTINUOUS
370
    -3
390
55E
  0
LAYER
  5
5D2
102
{ACAD_XDICTIONARY
360
5F6
102
}
330
551
100
AcDbSymbolTableRecord
100
AcDbLayerTableRecord
  2
SYMBOLLINE
 70
     0
 62
    15
  6
CONTINUOUS
370
    -3
390
55E
  0
LAYER
  5
5D3
330
551
100
AcDbSymbolTableRecord
100
AcDbLayerTableRecord
  2
DEFPOINTS
 70
     0
 62
     7
  6
CONTINUOUS
290
     0
370
    -3
390
55E
  0
ENDTAB
  0
TABLE
  2
STYLE
  5
552
330
0
100
AcDbSymbolTable
 70
     3
  0
STYLE
  5
5AC
330
552
100
AcDbSymbolTableRecord
100
AcDbTextStyleTableRecord
  2
STANDARD
 70
     0
 40
0.0
 41
0.9
 50
0.0
 71
     0
 42
64.0
  3
SIMPLEX
  4
BIGFONT
  0
STYLE
  5
5B0
330
552
100
AcDbSymbolTableRecord
100
AcDbTextStyleTableRecord
  2
Annotative
 70
     0
 40
0.0
 41
1.0
 50
0.0
 71
     0
 42
0.2
  3
txt
  4

1001
AcadAnnotative
1000
AnnotativeData
1002
{
1070
     1
1070
     1
1002
}
  0
STYLE
  5
5D4
330
552
100
AcDbSymbolTableRecord
100
AcDbTextStyleTableRecord
  2
STANDARD1
 70
     0
 40
0.0
 41
1.0
 50
0.0
 71
     0
 42
3.5
  3
MONOTXT
  4
BIGFONT
  0
ENDTAB
  0
TABLE
  2
VIEW
  5
555
330
0
100
AcDbSymbolTable
 70
     1
  0
VIEW
  5
5D5
330
555
100
AcDbSymbolTableRecord
100
AcDbViewTableRecord
  2
ALL
 70
     0
 40
6056.230032000001
 10
0.0
 20
58.115016
 41
8400.0
 11
0.0
 21
0.0
 31
1.0
 12
0.0
 22
0.0
 32
0.0
 42
50.0
 43
0.0
 44
0.0
 50
0.0
 71
     0
281
     0
 72
     1
110
0.0
120
0.0
130
0.0
111
1.0
121
0.0
131
0.0
112
0.0
122
1.0
132
0.0
 79
     0
146
0.0
  0
ENDTAB
  0
TABLE
  2
UCS
  5
556
330
0
100
AcDbSymbolTable
 70
     0
  0
ENDTAB
  0
TABLE
  2
APPID
  5
558
330
0
100
AcDbSymbolTable
 70
     4
  0
APPID
  5
5AD
330
558
100
AcDbSymbolTableRecord
100
AcDbRegAppTableRecord
  2
ACAD
 70
     0
  0
APPID
  5
5B4
330
558
100
AcDbSymbolTableRecord
100
AcDbRegAppTableRecord
  2
AcadAnnotative
 70
     0
  0
APPID
  5
5BE
330
558
100
AcDbSymbolTableRecord
100
AcDbRegAppTableRecord
  2
ACAD_MLEADERVER
 70
     0
  0
APPID
  5
5E0
330
558
100
AcDbSymbolTableRecord
100
AcDbRegAppTableRecord
  2
ACAD_EXEMPT_FROM_CAD_STANDARDS
 70
     0
  0
ENDTAB
  0
TABLE
  2
DIMSTYLE
  5
559
330
0
100
AcDbSymbolTable
 70
     2
100
AcDbDimStyleTable
 71
     0
  0
DIMSTYLE
105
5AE
330
559
100
AcDbSymbolTableRecord
100
AcDbDimStyleTableRecord
  2
STANDARD
 70
     0
275
     1
279
     2
284
     8
285
     8
286
     8
340
5AC
  0
DIMSTYLE
105
5AF
330
559
100
AcDbSymbolTableRecord
100
AcDbDimStyleTableRecord
  2
Annotative
 70
     0
340
5AC
1001
AcadAnnotative
1000
AnnotativeData
1002
{
1070
     1
1070
     1
1002
}
  0
ENDTAB
  0
TABLE
  2
BLOCK_RECORD
  5
550
330
0
100
AcDbSymbolTable
 70
     3
  0
BLOCK_RECORD
  5
5C3
330
550
100
AcDbSymbolTableRecord
100
AcDbBlockTableRecord
  2
*Model_Space
340
5C6
  0
BLOCK_RECORD
  5
5BF
330
550
100
AcDbSymbolTableRecord
100
AcDbBlockTableRecord
  2
*Paper_Space
340
5C2
  0
BLOCK_RECORD
  5
5DA
330
550
100
AcDbSymbolTableRecord
100
AcDbBlockTableRecord
  2
$MODEL_SPACE
340
0
  0
BLOCK_RECORD
  5
5DC
330
550
100
AcDbSymbolTableRecord
100
AcDbBlockTableRecord
  2
$PAPER_SPACE
340
0
  0
BLOCK_RECORD
  5
5DE
330
550
100
AcDbSymbolTableRecord
100
AcDbBlockTableRecord
  2
_DOTBLANK
340
0
  0
ENDTAB
  0
ENDSEC
  0
SECTION
  2
BLOCKS
  0
BLOCK
  5
5C4
330
5C3
100
AcDbEntity
  8
0
100
AcDbBlockBegin
  2
*Model_Space
 70
     0
 10
0.0
 20
0.0
 30
0.0
  3
*Model_Space
  1

  0
ENDBLK
  5
5C5
330
5C3
100
AcDbEntity
  8
0
100
AcDbBlockEnd
  0
BLOCK
  5
5C0
330
5BF
100
AcDbEntity
 67
     1
  8
0
100
AcDbBlockBegin
  2
*Paper_Space
 70
     0
 10
0.0
 20
0.0
 30
0.0
  3
*Paper_Space
  1

  0
ENDBLK
  5
5C1
330
5BF
100
AcDbEntity
 67
     1
  8
0
100
AcDbBlockEnd
  0
BLOCK
  5
5DB
330
5DA
100
AcDbEntity
  8
0
100
AcDbBlockBegin
  2
$MODEL_SPACE
 70
     0
 10
0.0
 20
0.0
 30
0.0
  3
$MODEL_SPACE
  1

  0
ENDBLK
  5
532
330
5DA
100
AcDbEntity
  8
0
100
AcDbBlockEnd
  0
BLOCK
  5
5DD
330
5DC
100
AcDbEntity
  8
0
100
AcDbBlockBegin
  2
$PAPER_SPACE
 70
     0
 10
0.0
 20
0.0
 30
0.0
  3
$PAPER_SPACE
  1

  0
ENDBLK
  5
52F
330
5DC
100
AcDbEntity
  8
0
100
AcDbBlockEnd
  0
BLOCK
  5
5DF
330
5DE
100
AcDbEntity
  8
0
100
AcDbBlockBegin
  2
_DOTBLANK
 70
     0
 10
0.0
 20
0.0
 30
0.0
  3
_DOTBLANK
  1

  0
CIRCLE
  5
32
330
5DE
100
AcDbEntity
  8
0
  6
Continuous
 62
     7
100
AcDbCircle
 10
0.0
 20
0.0
 30
0.0
 40
0.5
  0
LINE
  5
33
330
5DE
100
AcDbEntity
  8
0
  6
Continuous
 62
     7
100
AcDbLine
 10
-0.5
 20
0.0
 30
0.0
 11
-1.0
 21
0.0
 31
0.0
  0
ENDBLK
  5
34
330
5DE
100
AcDbEntity
  8
0
100
AcDbBlockEnd
  0
ENDSEC
  0
SECTION
  2
ENTITIES
  0
LINE
  5
35
330
5C3
100
AcDbEntity
  8
DETAIL
  6
Continuous
 62
     5
100
AcDbLine
 10
320.000024
 20
261.918171
 30
0.0
 11
320.000024
 21
80.0
 31
0.0
  0
LINE
  5
36
330
5C3
100
AcDbEntity
  8
DETAIL
  6
Continuous
 62
     5
100
AcDbLine
 10
270.015641
 20
593.9613009999998
 30
0.0
 11
270.015641
 21
80.0
 31
0.0
  0
LINE
  5
37
330
5C3
100
AcDbEntity
  8
DETAIL
  6
Continuous
 62
     5
100
AcDbLine
 10
-269.815703
 20
593.9613009999998
 30
0.0
 11
-269.815703
 21
80.0
 31
0.0
  0
LINE
  5
38
330
5C3
100
AcDbEntity
  8
DETAIL
  6
Continuous
 62
     5
100
AcDbLine
 10
275.014079
 20
1550.0
 30
0.0
 11
275.014079
 21
80.0
 31
0.0
  0
LINE
  5
39
330
5C3
100
AcDbEntity
  8
DETAIL
  6
Continuous
 62
     5
100
AcDbLine
 10
-274.814142
 20
1550.0
 30
0.0
 11
-274.814142
 21
80.0
 31
0.0
  0
LINE
  5
3A
330
5C3
100
AcDbEntity
  8
DETAIL
  6
Continuous
 62
     5
100
AcDbLine
 10
310.802898
 20
0.0
 30
0.0
 11
-310.60296
 21
0.0
 31
0.0
  0
LINE
  5
3B
330
5C3
100
AcDbEntity
  8
DETAIL
  6
Continuous
 62
     5
100
AcDbLine
 10
320.000024
 20
80.0
 30
0.0
 11
-320.000024
 21
80.0
 31
0.0
  0
LINE
  5
3C
330
5C3
100
AcDbEntity
  8
DETAIL
  6
Continuous
 62
     5
100
AcDbLine
 10
-311.0
 20
0.0
 30
0.0
 11
-311.0
 21
79.975014
 31
0.0
  0
LINE
  5
3D
330
5C3
100
AcDbEntity
  8
DETAIL
  6
Continuous
 62
     5
100
AcDbLine
 10
-315.101555
 20
34.989069
 30
0.0
 11
-315.101555
 21
4.498594999999999
 31
0.0
  0
LINE
  5
3E
330
5C3
100
AcDbEntity
  8
DETAIL
  6
Continuous
 62
     5
100
AcDbLine
 10
-315.101555
 20
4.498594999999999
 30
0.0
 11
-351.0
 21
4.498594999999999
 31
0.0
  0
LINE
  5
3F
330
5C3
100
AcDbEntity
  8
DETAIL
  6
Continuous
 62
     5
100
AcDbLine
 10
-310.60296
 20
0.0
 30
0.0
 11
-351.0
 21
0.0
 31
0.0
  0
LINE
  5
40
330
5C3
100
AcDbEntity
  8
DETAIL
  6
Continuous
 62
     5
100
AcDbLine
 10
-351.0
 20
4.498594999999999
 30
0.0
 11
-351.0
 21
0.0
 31
0.0
  0
LINE
  5
41
330
5C3
100
AcDbEntity
  8
DETAIL
  6
Continuous
 62
     5
100
AcDbLine
 10
-311.0
 20
34.989069
 30
0.0
 11
-315.101555
 21
34.989069
 31
0.0
  0
LINE
  5
42
330
5C3
100
AcDbEntity
  8
DETAIL
  6
Continuous
 62
     5
100
AcDbLine
 10
-332.806333
 20
48.984696
 30
0.0
 11
-332.806333
 21
10.996564
 31
0.0
  0
LINE
  5
43
330
5C3
100
AcDbEntity
  8
DETAIL
  6
Continuous
 62
     5
100
AcDbLine
 10
-315.101555
 20
10.996564
 30
0.0
 11
-332.806333
 21
10.996564
 31
0.0
  0
LINE
  5
44
330
5C3
100
AcDbEntity
  8
DETAIL
  6
Continuous
 62
     5
100
AcDbLine
 10
-311.0
 20
48.984696
 30
0.0
 11
-332.806333
 21
48.984696
 31
0.0
  0
LINE
  5
45
330
5C3
100
AcDbEntity
  8
DETAIL
  6
Continuous
 62
     5
100
AcDbLine
 10
-332.806333
 20
43.986258
 30
0.0
 11
-342.80321
 21
43.986258
 31
0.0
  0
LINE
  5
46
330
5C3
100
AcDbEntity
  8
DETAIL
  6
Continuous
 62
     5
100
AcDbLine
 10
-332.806333
 20
15.995003
 30
0.0
 11
-342.80321
 21
15.995003
 31
0.0
  0
LINE
  5
47
330
5C3
100
AcDbEntity
  8
DETAIL
  6
Continuous
 62
     5
100
AcDbLine
 10
-342.80321
 20
43.986258
 30
0.0
 11
-342.80321
 21
15.995003
 31
0.0
  0
LINE
  5
48
330
5C3
100
AcDbEntity
  8
DETAIL
  6
Continuous
 62
     5
100
AcDbLine
 10
-353.000024
 20
37.488288
 30
0.0
 11
-353.000024
 21
22.492973
 31
0.0
  0
LINE
  5
49
330
5C3
100
AcDbEntity
  8
DETAIL
  6
Continuous
 62
     5
100
AcDbLine
 10
-353.000024
 20
37.488288
 30
0.0
 11
-342.80321
 21
37.488288
 31
0.0
  0
LINE
  5
4A
330
5C3
100
AcDbEntity
  8
DETAIL
  6
Continuous
 62
     5
100
AcDbLine
 10
-353.000024
 20
22.492973
 30
0.0
 11
-342.80321
 21
22.492973
 31
0.0
  0
LINE
  5
4B
330
5C3
100
AcDbEntity
  8
DETAIL
  6
Continuous
 62
     5
100
AcDbLine
 10
311.0
 20
0.0
 30
0.0
 11
311.0
 21
80.0
 31
0.0
  0
LINE
  5
4C
330
5C3
100
AcDbEntity
  8
DETAIL
  6
Continuous
 62
     5
100
AcDbLine
 10
310.802898
 20
0.0
 30
0.0
 11
351.0
 21
0.0
 31
0.0
  0
LINE
  5
4D
330
5C3
100
AcDbEntity
  8
DETAIL
  6
Continuous
 62
     5
100
AcDbLine
 10
315.301492
 20
4.498594999999999
 30
0.0
 11
351.0
 21
4.498594999999999
 31
0.0
  0
LINE
  5
4E
330
5C3
100
AcDbEntity
  8
DETAIL
  6
Continuous
 62
     5
100
AcDbLine
 10
315.301492
 20
10.996564
 30
0.0
 11
332.796027
 21
10.996564
 31
0.0
  0
LINE
  5
4F
330
5C3
100
AcDbEntity
  8
DETAIL
  6
Continuous
 62
     5
100
AcDbLine
 10
311.0
 20
48.984696
 30
0.0
 11
332.796027
 21
48.984696
 31
0.0
  0
LINE
  5
50
330
5C3
100
AcDbEntity
  8
DETAIL
  6
Continuous
 62
     5
100
AcDbLine
 10
311.0
 20
34.989069
 30
0.0
 11
315.301492
 21
34.989069
 31
0.0
  0
LINE
  5
51
330
5C3
100
AcDbEntity
  8
DETAIL
  6
Continuous
 62
     5
100
AcDbLine
 10
315.301492
 20
34.989069
 30
0.0
 11
315.301492
 21
4.498594999999999
 31
0.0
  0
LINE
  5
52
330
5C3
100
AcDbEntity
  8
DETAIL
  6
Continuous
 62
     5
100
AcDbLine
 10
351.0
 20
4.498594999999999
 30
0.0
 11
351.0
 21
0.0
 31
0.0
  0
LINE
  5
53
330
5C3
100
AcDbEntity
  8
DETAIL
  6
Continuous
 62
     5
100
AcDbLine
 10
332.796027
 20
48.984696
 30
0.0
 11
332.796027
 21
10.996564
 31
0.0
  0
LINE
  5
54
330
5C3
100
AcDbEntity
  8
DETAIL
  6
Continuous
 62
     5
100
AcDbLine
 10
269.515797
 20
1105.654567
 30
0.0
 11
-268.316172
 21
1105.654567
 31
0.0
  0
LINE
  5
55
330
5C3
100
AcDbEntity
  8
DETAIL
  6
Continuous
 62
     5
100
AcDbLine
 10
269.515797
 20
594.814166
 30
0.0
 11
-268.316172
 21
594.814166
 31
0.0
  0
LINE
  5
56
330
5C3
100
AcDbEntity
  8
DETAIL
  6
Continuous
 62
     5
100
AcDbLine
 10
-269.015953
 20
594.7610509999998
 30
0.0
 11
269.215891
 21
594.7610509999998
 31
0.0
  0
LINE
  5
57
330
5C3
100
AcDbEntity
  8
DETAIL
  6
Continuous
 62
     5
100
AcDbLine
 10
-269.015953
 20
1125.648321
 30
0.0
 11
269.215891
 21
1125.648321
 31
0.0
  0
LINE
  5
58
330
5C3
100
AcDbEntity
  8
DETAIL
  6
Continuous
 62
     5
100
AcDbLine
 10
25.092161
 20
1016.002677
 30
0.0
 11
223.03032
 21
1016.002677
 31
0.0
  0
LINE
  5
59
330
5C3
100
AcDbEntity
  8
DETAIL
  6
Continuous
 62
     5
100
AcDbLine
 10
35.089037
 20
1035.99643
 30
0.0
 11
213.033443
 21
1035.99643
 31
0.0
  0
LINE
  5
5A
330
5C3
100
AcDbEntity
  8
DETAIL
  6
Continuous
 62
     5
100
AcDbLine
 10
213.033443
 20
1030.140395
 30
0.0
 11
35.089037
 21
1030.140395
 31
0.0
  0
LINE
  5
5B
330
5C3
100
AcDbEntity
  8
DETAIL
  6
Continuous
 62
     5
100
AcDbLine
 10
25.092161
 20
975.8851700000001
 30
0.0
 11
223.03032
 21
975.8851700000001
 31
0.0
  0
LINE
  5
5C
330
5C3
100
AcDbEntity
  8
DETAIL
  6
Continuous
 62
     5
100
AcDbLine
 10
35.089037
 20
995.878923
 30
0.0
 11
213.033443
 21
995.878923
 31
0.0
  0
LINE
  5
5D
330
5C3
100
AcDbEntity
  8
DETAIL
  6
Continuous
 62
     5
100
AcDbLine
 10
213.033443
 20
990.022888
 30
0.0
 11
35.089037
 21
990.022888
 31
0.0
  0
LINE
  5
5E
330
5C3
100
AcDbEntity
  8
DETAIL
  6
Continuous
 62
     5
100
AcDbLine
 10
25.092161
 20
935.897663
 30
0.0
 11
223.03032
 21
935.897663
 31
0.0
  0
LINE
  5
5F
330
5C3
100
AcDbEntity
  8
DETAIL
  6
Continuous
 62
     5
100
AcDbLine
 10
35.089037
 20
955.891416
 30
0.0
 11
213.033443
 21
955.891416
 31
0.0
  0
LINE
  5
60
330
5C3
100
AcDbEntity
  8
DETAIL
  6
Continuous
 62
     5
100
AcDbLine
 10
213.033443
 20
950.035381
 30
0.0
 11
35.089037
 21
950.035381
 31
0.0
  0
LINE
  5
61
330
5C3
100
AcDbEntity
  8
DETAIL
  6
Continuous
 62
     5
100
AcDbLine
 10
25.092161
 20
895.910156
 30
0.0
 11
223.03032
 21
895.910156
 31
0.0
  0
LINE
  5
62
330
5C3
100
AcDbEntity
  8
DETAIL
  6
Continuous
 62
     5
100
AcDbLine
 10
35.089037
 20
915.903909
 30
0.0
 11
213.033443
 21
915.903909
 31
0.0
  0
LINE
  5
63
330
5C3
100
AcDbEntity
  8
DETAIL
  6
Continuous
 62
     5
100
AcDbLine
 10
213.033443
 20
910.0478739999999
 30
0.0
 11
35.089037
 21
910.0478739999999
 31
0.0
  0
LINE
  5
64
330
5C3
100
AcDbEntity
  8
DETAIL
  6
Continuous
 62
     5
100
AcDbLine
 10
25.092161
 20
855.922649
 30
0.0
 11
223.03032
 21
855.922649
 31
0.0
  0
LINE
  5
65
330
5C3
100
AcDbEntity
  8
DETAIL
  6
Continuous
 62
     5
100
AcDbLine
 10
35.089037
 20
875.916402
 30
0.0
 11
213.033443
 21
875.916402
 31
0.0
  0
LINE
  5
66
330
5C3
100
AcDbEntity
  8
DETAIL
  6
Continuous
 62
     5
100
AcDbLine
 10
213.033443
 20
870.0603670000001
 30
0.0
 11
35.089037
 21
870.0603670000001
 31
0.0
  0
LINE
  5
67
330
5C3
100
AcDbEntity
  8
DETAIL
  6
Continuous
 62
     5
100
AcDbLine
 10
25.092161
 20
815.935142
 30
0.0
 11
223.03032
 21
815.935142
 31
0.0
  0
LINE
  5
68
330
5C3
100
AcDbEntity
  8
DETAIL
  6
Continuous
 62
     5
100
AcDbLine
 10
35.089037
 20
835.9288949999999
 30
0.0
 11
213.033443
 21
835.9288949999999
 31
0.0
  0
LINE
  5
69
330
5C3
100
AcDbEntity
  8
DETAIL
  6
Continuous
 62
     5
100
AcDbLine
 10
213.033443
 20
830.072861
 30
0.0
 11
35.089037
 21
830.072861
 31
0.0
  0
LINE
  5
6A
330
5C3
100
AcDbEntity
  8
DETAIL
  6
Continuous
 62
     5
100
AcDbLine
 10
25.092161
 20
775.9476349999999
 30
0.0
 11
223.03032
 21
775.9476349999999
 31
0.0
  0
LINE
  5
6B
330
5C3
100
AcDbEntity
  8
DETAIL
  6
Continuous
 62
     5
100
AcDbLine
 10
35.089037
 20
795.9413879999998
 30
0.0
 11
213.033443
 21
795.9413879999998
 31
0.0
  0
LINE
  5
6C
330
5C3
100
AcDbEntity
  8
DETAIL
  6
Continuous
 62
     5
100
AcDbLine
 10
213.033443
 20
790.085354
 30
0.0
 11
35.089037
 21
790.085354
 31
0.0
  0
LINE
  5
6D
330
5C3
100
AcDbEntity
  8
DETAIL
  6
Continuous
 62
     5
100
AcDbLine
 10
25.092161
 20
735.960128
 30
0.0
 11
223.03032
 21
735.960128
 31
0.0
  0
LINE
  5
6E
330
5C3
100
AcDbEntity
  8
DETAIL
  6
Continuous
 62
     5
100
AcDbLine
 10
35.089037
 20
755.9538809999998
 30
0.0
 11
213.033443
 21
755.9538809999998
 31
0.0
  0
LINE
  5
6F
330
5C3
100
AcDbEntity
  8
DETAIL
  6
Continuous
 62
     5
100
AcDbLine
 10
213.033443
 20
750.0978469999998
 30
0.0
 11
35.089037
 21
750.0978469999998
 31
0.0
  0
LINE
  5
70
330
5C3
100
AcDbEntity
  8
DETAIL
  6
Continuous
 62
     5
100
AcDbLine
 10
25.092161
 20
695.972621
 30
0.0
 11
223.03032
 21
695.972621
 31
0.0
  0
LINE
  5
71
330
5C3
100
AcDbEntity
  8
DETAIL
  6
Continuous
 62
     5
100
AcDbLine
 10
35.089037
 20
715.966374
 30
0.0
 11
213.033443
 21
715.966374
 31
0.0
  0
LINE
  5
72
330
5C3
100
AcDbEntity
  8
DETAIL
  6
Continuous
 62
     5
100
AcDbLine
 10
213.033443
 20
710.11034
 30
0.0
 11
35.089037
 21
710.11034
 31
0.0
  0
LINE
  5
73
330
5C3
100
AcDbEntity
  8
DETAIL
  6
Continuous
 62
     5
100
AcDbLine
 10
25.092161
 20
655.9851139999998
 30
0.0
 11
223.03032
 21
655.9851139999998
 31
0.0
  0
LINE
  5
74
330
5C3
100
AcDbEntity
  8
DETAIL
  6
Continuous
 62
     5
100
AcDbLine
 10
35.089037
 20
675.9788679999997
 30
0.0
 11
213.033443
 21
675.9788679999997
 31
0.0
  0
LINE
  5
75
330
5C3
100
AcDbEntity
  8
DETAIL
  6
Continuous
 62
     5
100
AcDbLine
 10
213.033443
 20
670.122833
 30
0.0
 11
35.089037
 21
670.122833
 31
0.0
  0
LINE
  5
76
330
5C3
100
AcDbEntity
  8
DETAIL
  6
Continuous
 62
     5
100
AcDbLine
 10
25.092161
 20
615.9976069999999
 30
0.0
 11
223.03032
 21
615.9976069999999
 31
0.0
  0
LINE
  5
77
330
5C3
100
AcDbEntity
  8
DETAIL
  6
Continuous
 62
     5
100
AcDbLine
 10
35.089037
 20
635.9913609999998
 30
0.0
 11
213.033443
 21
635.9913609999998
 31
0.0
  0
LINE
  5
78
330
5C3
100
AcDbEntity
  8
DETAIL
  6
Continuous
 62
     5
100
AcDbLine
 10
213.033443
 20
630.1353259999999
 30
0.0
 11
35.089037
 21
630.1353259999999
 31
0.0
  0
LINE
  5
79
330
5C3
100
AcDbEntity
  8
DETAIL
  6
Continuous
 62
     5
100
AcDbLine
 10
-320.000024
 20
1550.0
 30
0.0
 11
320.000024
 21
1550.0
 31
0.0
  0
LINE
  5
7A
330
5C3
100
AcDbEntity
  8
DETAIL
  6
Continuous
 62
     5
100
AcDbLine
 10
-269.815703
 20
1550.0
 30
0.0
 11
-269.815703
 21
1126.448071
 31
0.0
  0
LINE
  5
7B
330
5C3
100
AcDbEntity
  8
DETAIL
  6
Continuous
 62
     5
100
AcDbLine
 10
-269.315859
 20
595.813854
 30
0.0
 11
-269.315859
 21
1104.65488
 31
0.0
  0
LINE
  5
7C
330
5C3
100
AcDbEntity
  8
DETAIL
  6
Continuous
 62
     5
100
AcDbLine
 10
-222.830383
 20
825.932019
 30
0.0
 11
-222.830383
 21
815.935142
 31
0.0
  0
LINE
  5
7D
330
5C3
100
AcDbEntity
  8
DETAIL
  6
Continuous
 62
     5
100
AcDbLine
 10
-24.892223
 20
825.932019
 30
0.0
 11
-24.892223
 21
815.935142
 31
0.0
  0
LINE
  5
7E
330
5C3
100
AcDbEntity
  8
DETAIL
  6
Continuous
 62
     5
100
AcDbLine
 10
25.092161
 20
825.932019
 30
0.0
 11
25.092161
 21
815.935142
 31
0.0
  0
LINE
  5
7F
330
5C3
100
AcDbEntity
  8
DETAIL
  6
Continuous
 62
     5
100
AcDbLine
 10
-222.830383
 20
815.935142
 30
0.0
 11
-24.892223
 21
815.935142
 31
0.0
  0
LINE
  5
80
330
5C3
100
AcDbEntity
  8
DETAIL
  6
Continuous
 62
     5
100
AcDbLine
 10
-222.830383
 20
775.9476349999999
 30
0.0
 11
-24.892223
 21
775.9476349999999
 31
0.0
  0
LINE
  5
81
330
5C3
100
AcDbEntity
  8
DETAIL
  6
Continuous
 62
     5
100
AcDbLine
 10
-212.833506
 20
795.9413879999998
 30
0.0
 11
-34.8891
 21
795.9413879999998
 31
0.0
  0
LINE
  5
82
330
5C3
100
AcDbEntity
  8
DETAIL
  6
Continuous
 62
     5
100
AcDbLine
 10
-34.8891
 20
790.085354
 30
0.0
 11
-212.833506
 21
790.085354
 31
0.0
  0
LINE
  5
83
330
5C3
100
AcDbEntity
  8
DETAIL
  6
Continuous
 62
     5
100
AcDbLine
 10
-222.830383
 20
735.960128
 30
0.0
 11
-24.892223
 21
735.960128
 31
0.0
  0
LINE
  5
84
330
5C3
100
AcDbEntity
  8
DETAIL
  6
Continuous
 62
     5
100
AcDbLine
 10
-212.833506
 20
755.9538809999998
 30
0.0
 11
-34.8891
 21
755.9538809999998
 31
0.0
  0
LINE
  5
85
330
5C3
100
AcDbEntity
  8
DETAIL
  6
Continuous
 62
     5
100
AcDbLine
 10
-34.8891
 20
750.0978469999998
 30
0.0
 11
-212.833506
 21
750.0978469999998
 31
0.0
  0
LINE
  5
86
330
5C3
100
AcDbEntity
  8
DETAIL
  6
Continuous
 62
     5
100
AcDbLine
 10
-222.830383
 20
695.972621
 30
0.0
 11
-24.892223
 21
695.972621
 31
0.0
  0
LINE
  5
87
330
5C3
100
AcDbEntity
  8
DETAIL
  6
Continuous
 62
     5
100
AcDbLine
 10
-212.833506
 20
715.966374
 30
0.0
 11
-34.8891
 21
715.966374
 31
0.0
  0
LINE
  5
88
330
5C3
100
AcDbEntity
  8
DETAIL
  6
Continuous
 62
     5
100
AcDbLine
 10
-34.8891
 20
710.11034
 30
0.0
 11
-212.833506
 21
710.11034
 31
0.0
  0
LINE
  5
89
330
5C3
100
AcDbEntity
  8
DETAIL
  6
Continuous
 62
     5
100
AcDbLine
 10
-222.830383
 20
655.9851139999998
 30
0.0
 11
-24.892223
 21
655.9851139999998
 31
0.0
  0
LINE
  5
8A
330
5C3
100
AcDbEntity
  8
DETAIL
  6
Continuous
 62
     5
100
AcDbLine
 10
-212.833506
 20
675.9788679999997
 30
0.0
 11
-34.8891
 21
675.9788679999997
 31
0.0
  0
LINE
  5
8B
330
5C3
100
AcDbEntity
  8
DETAIL
  6
Continuous
 62
     5
100
AcDbLine
 10
-34.8891
 20
670.122833
 30
0.0
 11
-212.833506
 21
670.122833
 31
0.0
  0
LINE
  5
8C
330
5C3
100
AcDbEntity
  8
DETAIL
  6
Continuous
 62
     5
100
AcDbLine
 10
-222.830383
 20
615.9976069999999
 30
0.0
 11
-24.892223
 21
615.9976069999999
 31
0.0
  0
LINE
  5
8D
330
5C3
100
AcDbEntity
  8
DETAIL
  6
Continuous
 62
     5
100
AcDbLine
 10
-212.833506
 20
635.9913609999998
 30
0.0
 11
-34.8891
 21
635.9913609999998
 31
0.0
  0
LINE
  5
8E
330
5C3
100
AcDbEntity
  8
DETAIL
  6
Continuous
 62
     5
100
AcDbLine
 10
-34.8891
 20
630.1353259999999
 30
0.0
 11
-212.833506
 21
630.1353259999999
 31
0.0
  0
ARC
  5
8F
330
5C3
100
AcDbEntity
  8
DETAIL
  6
Continuous
 62
     5
100
AcDbCircle
 10
-212.833506
 20
665.981991
 30
0.0
 40
9.996876999999999
100
AcDbArc
 50
90.0
 51
180.0
  0
LINE
  5
90
330
5C3
100
AcDbEntity
  8
DETAIL
  6
Continuous
 62
     5
100
AcDbLine
 10
-268.316172
 20
595.813854
 30
0.0
 11
-269.315859
 21
595.813854
 31
0.0
  0
LINE
  5
91
330
5C3
100
AcDbEntity
  8
DETAIL
  6
Continuous
 62
     5
100
AcDbLine
 10
-268.316172
 20
595.813854
 30
0.0
 11
-268.316172
 21
594.814166
 31
0.0
  0
LINE
  5
92
330
5C3
100
AcDbEntity
  8
DETAIL
  6
Continuous
 62
     5
100
AcDbLine
 10
-269.015953
 20
593.9613009999998
 30
0.0
 11
-269.815703
 21
593.9613009999998
 31
0.0
  0
LINE
  5
93
330
5C3
100
AcDbEntity
  8
DETAIL
  6
Continuous
 62
     5
100
AcDbLine
 10
-269.015953
 20
594.7610509999998
 30
0.0
 11
-269.015953
 21
593.9613009999998
 31
0.0
  0
LINE
  5
94
330
5C3
100
AcDbEntity
  8
DETAIL
  6
Continuous
 62
     5
100
AcDbLine
 10
-222.830383
 20
665.981991
 30
0.0
 11
-222.830383
 21
655.9851139999998
 31
0.0
  0
LWPOLYLINE
  5
95
330
5C3
100
AcDbEntity
  8
DETAIL
  6
Continuous
 62
     5
100
AcDbPolyline
 90
        9
 70
     0
 43
0.0
 10
-212.833506
 20
670.122833
 10
-214.7838
 20
669.9870070000002
 10
-216.659145
 20
669.584748
 10
-218.387473
 20
668.9315149999998
 10
-219.902365
 20
668.052412
 10
-221.145605
 20
666.9812209999999
 10
-222.069416
 20
665.7591089999998
 10
-222.638295
 20
664.433039
 10
-222.830383
 20
663.053973
  0
LINE
  5
A0
330
5C3
100
AcDbEntity
  8
DETAIL
  6
Continuous
 62
     5
100
AcDbLine
 10
-222.830383
 20
625.9944839999998
 30
0.0
 11
-222.830383
 21
615.9976069999999
 31
0.0
  0
ARC
  5
A1
330
5C3
100
AcDbEntity
  8
DETAIL
  6
Continuous
 62
     5
100
AcDbCircle
 10
-212.833506
 20
625.9944839999998
 30
0.0
 40
9.996876999999999
100
AcDbArc
 50
90.0
 51
180.0
  0
LWPOLYLINE
  5
A2
330
5C3
100
AcDbEntity
  8
DETAIL
  6
Continuous
 62
     5
100
AcDbPolyline
 90
        9
 70
     0
 43
0.0
 10
-212.833506
 20
630.1353259999999
 10
-214.7838
 20
629.9995
 10
-216.659145
 20
629.597241
 10
-218.387473
 20
628.944008
 10
-219.902365
 20
628.064905
 10
-221.145605
 20
626.9937139999998
 10
-222.069416
 20
625.7716019999998
 10
-222.638295
 20
624.4455320000001
 10
-222.830383
 20
623.066466
  0
LINE
  5
AD
330
5C3
100
AcDbEntity
  8
DETAIL
  6
Continuous
 62
     5
100
AcDbLine
 10
-222.830383
 20
785.944512
 30
0.0
 11
-222.830383
 21
775.9476349999999
 31
0.0
  0
ARC
  5
AE
330
5C3
100
AcDbEntity
  8
DETAIL
  6
Continuous
 62
     5
100
AcDbCircle
 10
-212.833506
 20
785.944512
 30
0.0
 40
9.996876999999999
100
AcDbArc
 50
90.0
 51
180.0
  0
LWPOLYLINE
  5
AF
330
5C3
100
AcDbEntity
  8
DETAIL
  6
Continuous
 62
     5
100
AcDbPolyline
 90
        9
 70
     0
 43
0.0
 10
-212.833506
 20
790.085354
 10
-214.7838
 20
789.949527
 10
-216.659145
 20
789.547269
 10
-218.387473
 20
788.894036
 10
-219.902365
 20
788.014933
 10
-221.145605
 20
786.943742
 10
-222.069416
 20
785.72163
 10
-222.638295
 20
784.3955599999998
 10
-222.830383
 20
783.0164940000002
  0
LINE
  5
BA
330
5C3
100
AcDbEntity
  8
DETAIL
  6
Continuous
 62
     5
100
AcDbLine
 10
-222.830383
 20
745.9570049999999
 30
0.0
 11
-222.830383
 21
735.960128
 31
0.0
  0
ARC
  5
BB
330
5C3
100
AcDbEntity
  8
DETAIL
  6
Continuous
 62
     5
100
AcDbCircle
 10
-212.833506
 20
745.9570049999999
 30
0.0
 40
9.996876999999999
100
AcDbArc
 50
90.0
 51
180.0
  0
LWPOLYLINE
  5
BC
330
5C3
100
AcDbEntity
  8
DETAIL
  6
Continuous
 62
     5
100
AcDbPolyline
 90
        9
 70
     0
 43
0.0
 10
-212.833506
 20
750.0978469999998
 10
-214.7838
 20
749.96202
 10
-216.659145
 20
749.5597619999998
 10
-218.387473
 20
748.906529
 10
-219.902365
 20
748.0274259999998
 10
-221.145605
 20
746.956235
 10
-222.069416
 20
745.734123
 10
-222.638295
 20
744.4080529999999
 10
-222.830383
 20
743.028987
  0
LINE
  5
C7
330
5C3
100
AcDbEntity
  8
DETAIL
  6
Continuous
 62
     5
100
AcDbLine
 10
-222.830383
 20
705.969498
 30
0.0
 11
-222.830383
 21
695.972621
 31
0.0
  0
ARC
  5
C8
330
5C3
100
AcDbEntity
  8
DETAIL
  6
Continuous
 62
     5
100
AcDbCircle
 10
-212.833506
 20
705.969498
 30
0.0
 40
9.996876999999999
100
AcDbArc
 50
90.0
 51
180.0
  0
LWPOLYLINE
  5
C9
330
5C3
100
AcDbEntity
  8
DETAIL
  6
Continuous
 62
     5
100
AcDbPolyline
 90
        9
 70
     0
 43
0.0
 10
-212.833506
 20
710.11034
 10
-214.7838
 20
709.974514
 10
-216.659145
 20
709.5722549999997
 10
-218.387473
 20
708.9190219999997
 10
-219.902365
 20
708.039919
 10
-221.145605
 20
706.9687280000001
 10
-222.069416
 20
705.746616
 10
-222.638295
 20
704.4205459999998
 10
-222.830383
 20
703.0414799999999
  0
ARC
  5
D4
330
5C3
100
AcDbEntity
  8
DETAIL
  6
Continuous
 62
     5
100
AcDbCircle
 10
-34.8891
 20
665.981991
 30
0.0
 40
9.996876999999999
100
AcDbArc
 50
0.0
 51
90.0
  0
ARC
  5
D5
330
5C3
100
AcDbEntity
  8
DETAIL
  6
Continuous
 62
     5
100
AcDbCircle
 10
35.089037
 20
665.981991
 30
0.0
 40
9.996876999999999
100
AcDbArc
 50
90.0
 51
180.0
  0
LWPOLYLINE
  5
D6
330
5C3
100
AcDbEntity
  8
DETAIL
  6
Continuous
 62
     5
100
AcDbPolyline
 90
        9
 70
     0
 43
0.0
 10
35.089037
 20
670.122833
 10
33.138743
 20
669.9870070000002
 10
31.263398
 20
669.584748
 10
29.53507
 20
668.9315149999998
 10
28.020178
 20
668.052412
 10
26.776938
 20
666.9812209999999
 10
25.853128
 20
665.7591089999998
 10
25.284248
 20
664.433039
 10
25.092161
 20
663.053973
  0
ARC
  5
E1
330
5C3
100
AcDbEntity
  8
DETAIL
  6
Continuous
 62
     5
100
AcDbCircle
 10
35.089037
 20
625.9944839999998
 30
0.0
 40
9.996876999999999
100
AcDbArc
 50
90.0
 51
180.0
  0
LWPOLYLINE
  5
E2
330
5C3
100
AcDbEntity
  8
DETAIL
  6
Continuous
 62
     5
100
AcDbPolyline
 90
        9
 70
     0
 43
0.0
 10
35.089037
 20
630.1353259999999
 10
33.138743
 20
629.9995
 10
31.263398
 20
629.597241
 10
29.53507
 20
628.944008
 10
28.020178
 20
628.064905
 10
26.776938
 20
626.9937139999998
 10
25.853128
 20
625.7716019999998
 10
25.284248
 20
624.4455320000001
 10
25.092161
 20
623.066466
  0
LINE
  5
ED
330
5C3
100
AcDbEntity
  8
DETAIL
  6
Continuous
 62
     5
100
AcDbLine
 10
-24.892223
 20
665.981991
 30
0.0
 11
-24.892223
 21
655.9851139999998
 31
0.0
  0
LWPOLYLINE
  5
EE
330
5C3
100
AcDbEntity
  8
DETAIL
  6
Continuous
 62
     5
100
AcDbPolyline
 90
        9
 70
     0
 43
0.0
 10
-24.892223
 20
663.053973
 10
-25.08431
 20
664.433039
 10
-25.65319
 20
665.7591089999998
 10
-26.577001
 20
666.9812209999999
 10
-27.82024
 20
668.052412
 10
-29.335133
 20
668.9315149999998
 10
-31.063461
 20
669.584748
 10
-32.938806
 20
669.9870070000002
 10
-34.8891
 20
670.122833
  0
LINE
  5
F9
330
5C3
100
AcDbEntity
  8
DETAIL
  6
Continuous
 62
     5
100
AcDbLine
 10
-24.892223
 20
625.9944839999998
 30
0.0
 11
-24.892223
 21
615.9976069999999
 31
0.0
  0
ARC
  5
FA
330
5C3
100
AcDbEntity
  8
DETAIL
  6
Continuous
 62
     5
100
AcDbCircle
 10
-34.8891
 20
625.9944839999998
 30
0.0
 40
9.996876999999999
100
AcDbArc
 50
0.0
 51
90.0
  0
LWPOLYLINE
  5
FB
330
5C3
100
AcDbEntity
  8
DETAIL
  6
Continuous
 62
     5
100
AcDbPolyline
 90
        9
 70
     0
 43
0.0
 10
-24.892223
 20
623.066466
 10
-25.08431
 20
624.4455320000001
 10
-25.65319
 20
625.7716019999998
 10
-26.577001
 20
626.9937139999998
 10
-27.82024
 20
628.064905
 10
-29.335133
 20
628.944008
 10
-31.063461
 20
629.597241
 10
-32.938806
 20
629.9995
 10
-34.8891
 20
630.1353259999999
  0
LINE
  5
106
330
5C3
100
AcDbEntity
  8
DETAIL
  6
Continuous
 62
     5
100
AcDbLine
 10
25.092161
 20
665.981991
 30
0.0
 11
25.092161
 21
655.9851139999998
 31
0.0
  0
LINE
  5
107
330
5C3
100
AcDbEntity
  8
DETAIL
  6
Continuous
 62
     5
100
AcDbLine
 10
25.092161
 20
625.9944839999998
 30
0.0
 11
25.092161
 21
615.9976069999999
 31
0.0
  0
ARC
  5
108
330
5C3
100
AcDbEntity
  8
DETAIL
  6
Continuous
 62
     5
100
AcDbCircle
 10
35.089037
 20
785.944512
 30
0.0
 40
9.996876999999999
100
AcDbArc
 50
90.0
 51
180.0
  0
LWPOLYLINE
  5
109
330
5C3
100
AcDbEntity
  8
DETAIL
  6
Continuous
 62
     5
100
AcDbPolyline
 90
        9
 70
     0
 43
0.0
 10
35.089037
 20
790.085354
 10
33.138743
 20
789.949527
 10
31.263398
 20
789.547269
 10
29.53507
 20
788.894036
 10
28.020178
 20
788.014933
 10
26.776938
 20
786.943742
 10
25.853128
 20
785.72163
 10
25.284248
 20
784.3955599999998
 10
25.092161
 20
783.0164940000002
  0
ARC
  5
114
330
5C3
100
AcDbEntity
  8
DETAIL
  6
Continuous
 62
     5
100
AcDbCircle
 10
35.089037
 20
745.9570049999999
 30
0.0
 40
9.996876999999999
100
AcDbArc
 50
90.0
 51
180.0
  0
LWPOLYLINE
  5
115
330
5C3
100
AcDbEntity
  8
DETAIL
  6
Continuous
 62
     5
100
AcDbPolyline
 90
        9
 70
     0
 43
0.0
 10
35.089037
 20
750.0978469999998
 10
33.138743
 20
749.96202
 10
31.263398
 20
749.5597619999998
 10
29.53507
 20
748.906529
 10
28.020178
 20
748.0274259999998
 10
26.776938
 20
746.956235
 10
25.853128
 20
745.734123
 10
25.284248
 20
744.4080529999999
 10
25.092161
 20
743.028987
  0
ARC
  5
120
330
5C3
100
AcDbEntity
  8
DETAIL
  6
Continuous
 62
     5
100
AcDbCircle
 10
35.089037
 20
705.969498
 30
0.0
 40
9.996876999999999
100
AcDbArc
 50
90.0
 51
180.0
  0
LWPOLYLINE
  5
121
330
5C3
100
AcDbEntity
  8
DETAIL
  6
Continuous
 62
     5
100
AcDbPolyline
 90
        9
 70
     0
 43
0.0
 10
35.089037
 20
710.11034
 10
33.138743
 20
709.974514
 10
31.263398
 20
709.5722549999997
 10
29.53507
 20
708.9190219999997
 10
28.020178
 20
708.039919
 10
26.776938
 20
706.9687280000001
 10
25.853128
 20
705.746616
 10
25.284248
 20
704.4205459999998
 10
25.092161
 20
703.0414799999999
  0
LINE
  5
12C
330
5C3
100
AcDbEntity
  8
DETAIL
  6
Continuous
 62
     5
100
AcDbLine
 10
-24.892223
 20
785.944512
 30
0.0
 11
-24.892223
 21
775.9476349999999
 31
0.0
  0
ARC
  5
12D
330
5C3
100
AcDbEntity
  8
DETAIL
  6
Continuous
 62
     5
100
AcDbCircle
 10
-34.8891
 20
785.944512
 30
0.0
 40
9.996876999999999
100
AcDbArc
 50
0.0
 51
90.0
  0
LWPOLYLINE
  5
12E
330
5C3
100
AcDbEntity
  8
DETAIL
  6
Continuous
 62
     5
100
AcDbPolyline
 90
        9
 70
     0
 43
0.0
 10
-24.892223
 20
783.0164940000002
 10
-25.08431
 20
784.3955599999998
 10
-25.65319
 20
785.72163
 10
-26.577001
 20
786.943742
 10
-27.82024
 20
788.014933
 10
-29.335133
 20
788.894036
 10
-31.063461
 20
789.547269
 10
-32.938806
 20
789.949527
 10
-34.8891
 20
790.085354
  0
LINE
  5
139
330
5C3
100
AcDbEntity
  8
DETAIL
  6
Continuous
 62
     5
100
AcDbLine
 10
-24.892223
 20
745.9570049999999
 30
0.0
 11
-24.892223
 21
735.960128
 31
0.0
  0
ARC
  5
13A
330
5C3
100
AcDbEntity
  8
DETAIL
  6
Continuous
 62
     5
100
AcDbCircle
 10
-34.8891
 20
745.9570049999999
 30
0.0
 40
9.996876999999999
100
AcDbArc
 50
0.0
 51
90.0
  0
LWPOLYLINE
  5
13B
330
5C3
100
AcDbEntity
  8
DETAIL
  6
Continuous
 62
     5
100
AcDbPolyline
 90
        9
 70
     0
 43
0.0
 10
-24.892223
 20
743.028987
 10
-25.08431
 20
744.4080529999999
 10
-25.65319
 20
745.734123
 10
-26.577001
 20
746.956235
 10
-27.82024
 20
748.0274259999998
 10
-29.335133
 20
748.906529
 10
-31.063461
 20
749.5597619999998
 10
-32.938806
 20
749.96202
 10
-34.8891
 20
750.0978469999998
  0
LINE
  5
146
330
5C3
100
AcDbEntity
  8
DETAIL
  6
Continuous
 62
     5
100
AcDbLine
 10
-24.892223
 20
705.969498
 30
0.0
 11
-24.892223
 21
695.972621
 31
0.0
  0
ARC
  5
147
330
5C3
100
AcDbEntity
  8
DETAIL
  6
Continuous
 62
     5
100
AcDbCircle
 10
-34.8891
 20
705.969498
 30
0.0
 40
9.996876999999999
100
AcDbArc
 50
0.0
 51
90.0
  0
LWPOLYLINE
  5
148
330
5C3
100
AcDbEntity
  8
DETAIL
  6
Continuous
 62
     5
100
AcDbPolyline
 90
        9
 70
     0
 43
0.0
 10
-24.892223
 20
703.0414799999999
 10
-25.08431
 20
704.4205459999998
 10
-25.65319
 20
705.746616
 10
-26.577001
 20
706.9687280000001
 10
-27.82024
 20
708.039919
 10
-29.335133
 20
708.9190219999997
 10
-31.063461
 20
709.5722549999997
 10
-32.938806
 20
709.974514
 10
-34.8891
 20
710.11034
  0
LINE
  5
153
330
5C3
100
AcDbEntity
  8
DETAIL
  6
Continuous
 62
     5
100
AcDbLine
 10
25.092161
 20
785.944512
 30
0.0
 11
25.092161
 21
775.9476349999999
 31
0.0
  0
LINE
  5
154
330
5C3
100
AcDbEntity
  8
DETAIL
  6
Continuous
 62
     5
100
AcDbLine
 10
25.092161
 20
745.9570049999999
 30
0.0
 11
25.092161
 21
735.960128
 31
0.0
  0
LINE
  5
155
330
5C3
100
AcDbEntity
  8
DETAIL
  6
Continuous
 62
     5
100
AcDbLine
 10
25.092161
 20
705.969498
 30
0.0
 11
25.092161
 21
695.972621
 31
0.0
  0
LINE
  5
156
330
5C3
100
AcDbEntity
  8
DETAIL
  6
Continuous
 62
     5
100
AcDbLine
 10
-253.8207
 20
1125.648321
 30
0.0
 11
-253.8207
 21
1105.654567
 31
0.0
  0
LINE
  5
157
330
5C3
100
AcDbEntity
  8
DETAIL
  6
Continuous
 62
     5
100
AcDbLine
 10
-222.830383
 20
1016.002677
 30
0.0
 11
-24.892223
 21
1016.002677
 31
0.0
  0
LINE
  5
158
330
5C3
100
AcDbEntity
  8
DETAIL
  6
Continuous
 62
     5
100
AcDbLine
 10
-212.833506
 20
1035.99643
 30
0.0
 11
-34.8891
 21
1035.99643
 31
0.0
  0
LINE
  5
159
330
5C3
100
AcDbEntity
  8
DETAIL
  6
Continuous
 62
     5
100
AcDbLine
 10
-34.8891
 20
1030.140395
 30
0.0
 11
-212.833506
 21
1030.140395
 31
0.0
  0
LINE
  5
15A
330
5C3
100
AcDbEntity
  8
DETAIL
  6
Continuous
 62
     5
100
AcDbLine
 10
-222.830383
 20
975.8851700000001
 30
0.0
 11
-24.892223
 21
975.8851700000001
 31
0.0
  0
LINE
  5
15B
330
5C3
100
AcDbEntity
  8
DETAIL
  6
Continuous
 62
     5
100
AcDbLine
 10
-212.833506
 20
995.878923
 30
0.0
 11
-34.8891
 21
995.878923
 31
0.0
  0
LINE
  5
15C
330
5C3
100
AcDbEntity
  8
DETAIL
  6
Continuous
 62
     5
100
AcDbLine
 10
-34.8891
 20
990.022888
 30
0.0
 11
-212.833506
 21
990.022888
 31
0.0
  0
LINE
  5
15D
330
5C3
100
AcDbEntity
  8
DETAIL
  6
Continuous
 62
     5
100
AcDbLine
 10
-222.830383
 20
935.897663
 30
0.0
 11
-24.892223
 21
935.897663
 31
0.0
  0
LINE
  5
15E
330
5C3
100
AcDbEntity
  8
DETAIL
  6
Continuous
 62
     5
100
AcDbLine
 10
-212.833506
 20
955.891416
 30
0.0
 11
-34.8891
 21
955.891416
 31
0.0
  0
LINE
  5
15F
330
5C3
100
AcDbEntity
  8
DETAIL
  6
Continuous
 62
     5
100
AcDbLine
 10
-34.8891
 20
950.035381
 30
0.0
 11
-212.833506
 21
950.035381
 31
0.0
  0
LINE
  5
160
330
5C3
100
AcDbEntity
  8
DETAIL
  6
Continuous
 62
     5
100
AcDbLine
 10
-222.830383
 20
895.910156
 30
0.0
 11
-24.892223
 21
895.910156
 31
0.0
  0
LINE
  5
161
330
5C3
100
AcDbEntity
  8
DETAIL
  6
Continuous
 62
     5
100
AcDbLine
 10
-212.833506
 20
915.903909
 30
0.0
 11
-34.8891
 21
915.903909
 31
0.0
  0
LINE
  5
162
330
5C3
100
AcDbEntity
  8
DETAIL
  6
Continuous
 62
     5
100
AcDbLine
 10
-34.8891
 20
910.0478739999999
 30
0.0
 11
-212.833506
 21
910.0478739999999
 31
0.0
  0
LINE
  5
163
330
5C3
100
AcDbEntity
  8
DETAIL
  6
Continuous
 62
     5
100
AcDbLine
 10
-222.830383
 20
855.922649
 30
0.0
 11
-24.892223
 21
855.922649
 31
0.0
  0
LINE
  5
164
330
5C3
100
AcDbEntity
  8
DETAIL
  6
Continuous
 62
     5
100
AcDbLine
 10
-212.833506
 20
875.916402
 30
0.0
 11
-34.8891
 21
875.916402
 31
0.0
  0
LINE
  5
165
330
5C3
100
AcDbEntity
  8
DETAIL
  6
Continuous
 62
     5
100
AcDbLine
 10
-34.8891
 20
870.0603670000001
 30
0.0
 11
-212.833506
 21
870.0603670000001
 31
0.0
  0
LINE
  5
166
330
5C3
100
AcDbEntity
  8
DETAIL
  6
Continuous
 62
     5
100
AcDbLine
 10
-212.833506
 20
835.9288949999999
 30
0.0
 11
-34.8891
 21
835.9288949999999
 31
0.0
  0
LINE
  5
167
330
5C3
100
AcDbEntity
  8
DETAIL
  6
Continuous
 62
     5
100
AcDbLine
 10
-34.8891
 20
830.072861
 30
0.0
 11
-212.833506
 21
830.072861
 31
0.0
  0
LINE
  5
168
330
5C3
100
AcDbEntity
  8
DETAIL
  6
Continuous
 62
     5
100
AcDbLine
 10
-222.830383
 20
945.894539
 30
0.0
 11
-222.830383
 21
935.897663
 31
0.0
  0
ARC
  5
169
330
5C3
100
AcDbEntity
  8
DETAIL
  6
Continuous
 62
     5
100
AcDbCircle
 10
-212.833506
 20
945.894539
 30
0.0
 40
9.996876999999999
100
AcDbArc
 50
90.0
 51
180.0
  0
LWPOLYLINE
  5
16A
330
5C3
100
AcDbEntity
  8
DETAIL
  6
Continuous
 62
     5
100
AcDbPolyline
 90
        9
 70
     0
 43
0.0
 10
-212.833506
 20
950.035381
 10
-214.7838
 20
949.899555
 10
-216.659145
 20
949.497297
 10
-218.387473
 20
948.844064
 10
-219.902365
 20
947.96496
 10
-221.145605
 20
946.8937699999999
 10
-222.069416
 20
945.6716569999999
 10
-222.638295
 20
944.345588
 10
-222.830383
 20
942.966522
  0
LINE
  5
175
330
5C3
100
AcDbEntity
  8
DETAIL
  6
Continuous
 62
     5
100
AcDbLine
 10
-222.830383
 20
905.9070329999999
 30
0.0
 11
-222.830383
 21
895.910156
 31
0.0
  0
ARC
  5
176
330
5C3
100
AcDbEntity
  8
DETAIL
  6
Continuous
 62
     5
100
AcDbCircle
 10
-212.833506
 20
905.9070329999999
 30
0.0
 40
9.996876999999999
100
AcDbArc
 50
90.0
 51
180.0
  0
LWPOLYLINE
  5
177
330
5C3
100
AcDbEntity
  8
DETAIL
  6
Continuous
 62
     5
100
AcDbPolyline
 90
        9
 70
     0
 43
0.0
 10
-212.833506
 20
910.0478739999999
 10
-214.7838
 20
909.9120479999999
 10
-216.659145
 20
909.50979
 10
-218.387473
 20
908.856557
 10
-219.902365
 20
907.9774529999999
 10
-221.145605
 20
906.9062629999999
 10
-222.069416
 20
905.68415
 10
-222.638295
 20
904.3580809999999
 10
-222.830383
 20
902.979015
  0
LINE
  5
182
330
5C3
100
AcDbEntity
  8
DETAIL
  6
Continuous
 62
     5
100
AcDbLine
 10
-222.830383
 20
865.919526
 30
0.0
 11
-222.830383
 21
855.922649
 31
0.0
  0
ARC
  5
183
330
5C3
100
AcDbEntity
  8
DETAIL
  6
Continuous
 62
     5
100
AcDbCircle
 10
-212.833506
 20
865.919526
 30
0.0
 40
9.996876999999999
100
AcDbArc
 50
90.0
 51
180.0
  0
LWPOLYLINE
  5
184
330
5C3
100
AcDbEntity
  8
DETAIL
  6
Continuous
 62
     5
100
AcDbPolyline
 90
        9
 70
     0
 43
0.0
 10
-212.833506
 20
870.0603670000001
 10
-214.7838
 20
869.9245409999999
 10
-216.659145
 20
869.522283
 10
-218.387473
 20
868.8690499999999
 10
-219.902365
 20
867.989947
 10
-221.145605
 20
866.9187560000001
 10
-222.069416
 20
865.6966439999999
 10
-222.638295
 20
864.3705739999997
 10
-222.830383
 20
862.9915079999998
  0
ARC
  5
18F
330
5C3
100
AcDbEntity
  8
DETAIL
  6
Continuous
 62
     5
100
AcDbCircle
 10
-212.833506
 20
825.932019
 30
0.0
 40
9.996876999999999
100
AcDbArc
 50
90.0
 51
180.0
  0
LWPOLYLINE
  5
190
330
5C3
100
AcDbEntity
  8
DETAIL
  6
Continuous
 62
     5
100
AcDbPolyline
 90
        9
 70
     0
 43
0.0
 10
-212.833506
 20
830.072861
 10
-214.7838
 20
829.9370340000001
 10
-216.659145
 20
829.534776
 10
-218.387473
 20
828.8815429999997
 10
-219.902365
 20
828.00244
 10
-221.145605
 20
826.931249
 10
-222.069416
 20
825.7091370000001
 10
-222.638295
 20
824.3830669999999
 10
-222.830383
 20
823.0040009999999
  0
LINE
  5
19B
330
5C3
100
AcDbEntity
  8
DETAIL
  6
Continuous
 62
     5
100
AcDbLine
 10
-268.316172
 20
1104.65488
 30
0.0
 11
-268.316172
 21
1105.654567
 31
0.0
  0
LINE
  5
19C
330
5C3
100
AcDbEntity
  8
DETAIL
  6
Continuous
 62
     5
100
AcDbLine
 10
-268.316172
 20
1104.65488
 30
0.0
 11
-269.315859
 21
1104.65488
 31
0.0
  0
LINE
  5
19D
330
5C3
100
AcDbEntity
  8
DETAIL
  6
Continuous
 62
     5
100
AcDbLine
 10
-222.830383
 20
1025.999553
 30
0.0
 11
-222.830383
 21
1016.002677
 31
0.0
  0
ARC
  5
19E
330
5C3
100
AcDbEntity
  8
DETAIL
  6
Continuous
 62
     5
100
AcDbCircle
 10
-212.833506
 20
1025.999553
 30
0.0
 40
9.996876999999999
100
AcDbArc
 50
90.0
 51
180.0
  0
LWPOLYLINE
  5
19F
330
5C3
100
AcDbEntity
  8
DETAIL
  6
Continuous
 62
     5
100
AcDbPolyline
 90
        9
 70
     0
 43
0.0
 10
-212.833506
 20
1030.140395
 10
-214.7838
 20
1030.004569
 10
-216.659145
 20
1029.60231
 10
-218.387473
 20
1028.949078
 10
-219.902365
 20
1028.069974
 10
-221.145605
 20
1026.998784
 10
-222.069416
 20
1025.776671
 10
-222.638295
 20
1024.450602
 10
-222.830383
 20
1023.071536
  0
LINE
  5
1AA
330
5C3
100
AcDbEntity
  8
DETAIL
  6
Continuous
 62
     5
100
AcDbLine
 10
-222.830383
 20
985.882046
 30
0.0
 11
-222.830383
 21
975.8851700000001
 31
0.0
  0
ARC
  5
1AB
330
5C3
100
AcDbEntity
  8
DETAIL
  6
Continuous
 62
     5
100
AcDbCircle
 10
-212.833506
 20
985.882046
 30
0.0
 40
9.996876999999999
100
AcDbArc
 50
90.0
 51
180.0
  0
LWPOLYLINE
  5
1AC
330
5C3
100
AcDbEntity
  8
DETAIL
  6
Continuous
 62
     5
100
AcDbPolyline
 90
        9
 70
     0
 43
0.0
 10
-212.833506
 20
990.022888
 10
-214.7838
 20
989.8870619999996
 10
-216.659145
 20
989.484803
 10
-218.387473
 20
988.831571
 10
-219.902365
 20
987.952467
 10
-221.145605
 20
986.8812769999999
 10
-222.069416
 20
985.6591640000001
 10
-222.638295
 20
984.333095
 10
-222.830383
 20
982.9540289999997
  0
ARC
  5
1B7
330
5C3
100
AcDbEntity
  8
DETAIL
  6
Continuous
 62
     5
100
AcDbCircle
 10
35.089037
 20
945.894539
 30
0.0
 40
9.996876999999999
100
AcDbArc
 50
90.0
 51
180.0
  0
LWPOLYLINE
  5
1B8
330
5C3
100
AcDbEntity
  8
DETAIL
  6
Continuous
 62
     5
100
AcDbPolyline
 90
        9
 70
     0
 43
0.0
 10
35.089037
 20
950.035381
 10
33.138743
 20
949.899555
 10
31.263398
 20
949.497297
 10
29.53507
 20
948.844064
 10
28.020178
 20
947.96496
 10
26.776938
 20
946.8937699999999
 10
25.853128
 20
945.6716569999999
 10
25.284248
 20
944.345588
 10
25.092161
 20
942.966522
  0
ARC
  5
1C3
330
5C3
100
AcDbEntity
  8
DETAIL
  6
Continuous
 62
     5
100
AcDbCircle
 10
35.089037
 20
905.9070329999999
 30
0.0
 40
9.996876999999999
100
AcDbArc
 50
90.0
 51
180.0
  0
LWPOLYLINE
  5
1C4
330
5C3
100
AcDbEntity
  8
DETAIL
  6
Continuous
 62
     5
100
AcDbPolyline
 90
        9
 70
     0
 43
0.0
 10
35.089037
 20
910.0478739999999
 10
33.138743
 20
909.9120479999999
 10
31.263398
 20
909.50979
 10
29.53507
 20
908.856557
 10
28.020178
 20
907.9774529999999
 10
26.776938
 20
906.9062629999999
 10
25.853128
 20
905.68415
 10
25.284248
 20
904.3580809999999
 10
25.092161
 20
902.979015
  0
ARC
  5
1CF
330
5C3
100
AcDbEntity
  8
DETAIL
  6
Continuous
 62
     5
100
AcDbCircle
 10
35.089037
 20
865.919526
 30
0.0
 40
9.996876999999999
100
AcDbArc
 50
90.0
 51
180.0
  0
LWPOLYLINE
  5
1D0
330
5C3
100
AcDbEntity
  8
DETAIL
  6
Continuous
 62
     5
100
AcDbPolyline
 90
        9
 70
     0
 43
0.0
 10
35.089037
 20
870.0603670000001
 10
33.138743
 20
869.9245409999999
 10
31.263398
 20
869.522283
 10
29.53507
 20
868.8690499999999
 10
28.020178
 20
867.989947
 10
26.776938
 20
866.9187560000001
 10
25.853128
 20
865.6966439999999
 10
25.284248
 20
864.3705739999997
 10
25.092161
 20
862.9915079999998
  0
ARC
  5
1DB
330
5C3
100
AcDbEntity
  8
DETAIL
  6
Continuous
 62
     5
100
AcDbCircle
 10
35.089037
 20
825.932019
 30
0.0
 40
9.996876999999999
100
AcDbArc
 50
90.0
 51
180.0
  0
LWPOLYLINE
  5
1DC
330
5C3
100
AcDbEntity
  8
DETAIL
  6
Continuous
 62
     5
100
AcDbPolyline
 90
        9
 70
     0
 43
0.0
 10
35.089037
 20
830.072861
 10
33.138743
 20
829.9370340000001
 10
31.263398
 20
829.534776
 10
29.53507
 20
828.8815429999997
 10
28.020178
 20
828.00244
 10
26.776938
 20
826.931249
 10
25.853128
 20
825.7091370000001
 10
25.284248
 20
824.3830669999999
 10
25.092161
 20
823.0040009999999
  0
LINE
  5
1E7
330
5C3
100
AcDbEntity
  8
DETAIL
  6
Continuous
 62
     5
100
AcDbLine
 10
-24.892223
 20
945.894539
 30
0.0
 11
-24.892223
 21
935.897663
 31
0.0
  0
ARC
  5
1E8
330
5C3
100
AcDbEntity
  8
DETAIL
  6
Continuous
 62
     5
100
AcDbCircle
 10
-34.8891
 20
945.894539
 30
0.0
 40
9.996876999999999
100
AcDbArc
 50
0.0
 51
90.0
  0
LWPOLYLINE
  5
1E9
330
5C3
100
AcDbEntity
  8
DETAIL
  6
Continuous
 62
     5
100
AcDbPolyline
 90
        9
 70
     0
 43
0.0
 10
-24.892223
 20
942.966522
 10
-25.08431
 20
944.345588
 10
-25.65319
 20
945.6716569999999
 10
-26.577001
 20
946.8937699999999
 10
-27.82024
 20
947.96496
 10
-29.335133
 20
948.844064
 10
-31.063461
 20
949.497297
 10
-32.938806
 20
949.899555
 10
-34.8891
 20
950.035381
  0
LINE
  5
1F4
330
5C3
100
AcDbEntity
  8
DETAIL
  6
Continuous
 62
     5
100
AcDbLine
 10
-24.892223
 20
905.9070329999999
 30
0.0
 11
-24.892223
 21
895.910156
 31
0.0
  0
ARC
  5
1F5
330
5C3
100
AcDbEntity
  8
DETAIL
  6
Continuous
 62
     5
100
AcDbCircle
 10
-34.8891
 20
905.9070329999999
 30
0.0
 40
9.996876999999999
100
AcDbArc
 50
0.0
 51
90.0
  0
LWPOLYLINE
  5
1F6
330
5C3
100
AcDbEntity
  8
DETAIL
  6
Continuous
 62
     5
100
AcDbPolyline
 90
        9
 70
     0
 43
0.0
 10
-24.892223
 20
902.979015
 10
-25.08431
 20
904.3580809999999
 10
-25.65319
 20
905.68415
 10
-26.577001
 20
906.9062629999999
 10
-27.82024
 20
907.9774529999999
 10
-29.335133
 20
908.856557
 10
-31.063461
 20
909.50979
 10
-32.938806
 20
909.9120479999999
 10
-34.8891
 20
910.0478739999999
  0
LINE
  5
201
330
5C3
100
AcDbEntity
  8
DETAIL
  6
Continuous
 62
     5
100
AcDbLine
 10
-24.892223
 20
865.919526
 30
0.0
 11
-24.892223
 21
855.922649
 31
0.0
  0
ARC
  5
202
330
5C3
100
AcDbEntity
  8
DETAIL
  6
Continuous
 62
     5
100
AcDbCircle
 10
-34.8891
 20
865.919526
 30
0.0
 40
9.996876999999999
100
AcDbArc
 50
0.0
 51
90.0
  0
LWPOLYLINE
  5
203
330
5C3
100
AcDbEntity
  8
DETAIL
  6
Continuous
 62
     5
100
AcDbPolyline
 90
        9
 70
     0
 43
0.0
 10
-24.892223
 20
862.9915079999998
 10
-25.08431
 20
864.3705739999997
 10
-25.65319
 20
865.6966439999999
 10
-26.577001
 20
866.9187560000001
 10
-27.82024
 20
867.989947
 10
-29.335133
 20
868.8690499999999
 10
-31.063461
 20
869.522283
 10
-32.938806
 20
869.9245409999999
 10
-34.8891
 20
870.0603670000001
  0
ARC
  5
20E
330
5C3
100
AcDbEntity
  8
DETAIL
  6
Continuous
 62
     5
100
AcDbCircle
 10
-34.8891
 20
825.932019
 30
0.0
 40
9.996876999999999
100
AcDbArc
 50
0.0
 51
90.0
  0
LWPOLYLINE
  5
20F
330
5C3
100
AcDbEntity
  8
DETAIL
  6
Continuous
 62
     5
100
AcDbPolyline
 90
        9
 70
     0
 43
0.0
 10
-24.892223
 20
823.0040009999999
 10
-25.08431
 20
824.3830669999999
 10
-25.65319
 20
825.7091370000001
 10
-26.577001
 20
826.931249
 10
-27.82024
 20
828.00244
 10
-29.335133
 20
828.8815429999997
 10
-31.063461
 20
829.534776
 10
-32.938806
 20
829.9370340000001
 10
-34.8891
 20
830.072861
  0
LINE
  5
21A
330
5C3
100
AcDbEntity
  8
DETAIL
  6
Continuous
 62
     5
100
AcDbLine
 10
25.092161
 20
945.894539
 30
0.0
 11
25.092161
 21
935.897663
 31
0.0
  0
LINE
  5
21B
330
5C3
100
AcDbEntity
  8
DETAIL
  6
Continuous
 62
     5
100
AcDbLine
 10
25.092161
 20
905.9070329999999
 30
0.0
 11
25.092161
 21
895.910156
 31
0.0
  0
LINE
  5
21C
330
5C3
100
AcDbEntity
  8
DETAIL
  6
Continuous
 62
     5
100
AcDbLine
 10
25.092161
 20
865.919526
 30
0.0
 11
25.092161
 21
855.922649
 31
0.0
  0
ARC
  5
21D
330
5C3
100
AcDbEntity
  8
DETAIL
  6
Continuous
 62
     5
100
AcDbCircle
 10
35.089037
 20
1025.999553
 30
0.0
 40
9.996876999999999
100
AcDbArc
 50
90.0
 51
180.0
  0
LWPOLYLINE
  5
21E
330
5C3
100
AcDbEntity
  8
DETAIL
  6
Continuous
 62
     5
100
AcDbPolyline
 90
        9
 70
     0
 43
0.0
 10
35.089037
 20
1030.140395
 10
33.138743
 20
1030.004569
 10
31.263398
 20
1029.60231
 10
29.53507
 20
1028.949078
 10
28.020178
 20
1028.069974
 10
26.776938
 20
1026.998784
 10
25.853128
 20
1025.776671
 10
25.284248
 20
1024.450602
 10
25.092161
 20
1023.071536
  0
ARC
  5
229
330
5C3
100
AcDbEntity
  8
DETAIL
  6
Continuous
 62
     5
100
AcDbCircle
 10
35.089037
 20
985.882046
 30
0.0
 40
9.996876999999999
100
AcDbArc
 50
90.0
 51
180.0
  0
LWPOLYLINE
  5
22A
330
5C3
100
AcDbEntity
  8
DETAIL
  6
Continuous
 62
     5
100
AcDbPolyline
 90
        9
 70
     0
 43
0.0
 10
35.089037
 20
990.022888
 10
33.138743
 20
989.8870619999996
 10
31.263398
 20
989.484803
 10
29.53507
 20
988.831571
 10
28.020178
 20
987.952467
 10
26.776938
 20
986.8812769999999
 10
25.853128
 20
985.6591640000001
 10
25.284248
 20
984.333095
 10
25.092161
 20
982.9540289999997
  0
LINE
  5
235
330
5C3
100
AcDbEntity
  8
DETAIL
  6
Continuous
 62
     5
100
AcDbLine
 10
-24.892223
 20
1025.999553
 30
0.0
 11
-24.892223
 21
1016.002677
 31
0.0
  0
ARC
  5
236
330
5C3
100
AcDbEntity
  8
DETAIL
  6
Continuous
 62
     5
100
AcDbCircle
 10
-34.8891
 20
1025.999553
 30
0.0
 40
9.996876999999999
100
AcDbArc
 50
0.0
 51
90.0
  0
LWPOLYLINE
  5
237
330
5C3
100
AcDbEntity
  8
DETAIL
  6
Continuous
 62
     5
100
AcDbPolyline
 90
        9
 70
     0
 43
0.0
 10
-24.892223
 20
1023.071536
 10
-25.08431
 20
1024.450602
 10
-25.65319
 20
1025.776671
 10
-26.577001
 20
1026.998784
 10
-27.82024
 20
1028.069974
 10
-29.335133
 20
1028.949078
 10
-31.063461
 20
1029.60231
 10
-32.938806
 20
1030.004569
 10
-34.8891
 20
1030.140395
  0
LINE
  5
242
330
5C3
100
AcDbEntity
  8
DETAIL
  6
Continuous
 62
     5
100
AcDbLine
 10
-24.892223
 20
985.882046
 30
0.0
 11
-24.892223
 21
975.8851700000001
 31
0.0
  0
ARC
  5
243
330
5C3
100
AcDbEntity
  8
DETAIL
  6
Continuous
 62
     5
100
AcDbCircle
 10
-34.8891
 20
985.882046
 30
0.0
 40
9.996876999999999
100
AcDbArc
 50
0.0
 51
90.0
  0
LWPOLYLINE
  5
244
330
5C3
100
AcDbEntity
  8
DETAIL
  6
Continuous
 62
     5
100
AcDbPolyline
 90
        9
 70
     0
 43
0.0
 10
-24.892223
 20
982.9540289999997
 10
-25.08431
 20
984.333095
 10
-25.65319
 20
985.6591640000001
 10
-26.577001
 20
986.8812769999999
 10
-27.82024
 20
987.952467
 10
-29.335133
 20
988.831571
 10
-31.063461
 20
989.484803
 10
-32.938806
 20
989.8870619999996
 10
-34.8891
 20
990.022888
  0
LINE
  5
24F
330
5C3
100
AcDbEntity
  8
DETAIL
  6
Continuous
 62
     5
100
AcDbLine
 10
25.092161
 20
1025.999553
 30
0.0
 11
25.092161
 21
1016.002677
 31
0.0
  0
LINE
  5
250
330
5C3
100
AcDbEntity
  8
DETAIL
  6
Continuous
 62
     5
100
AcDbLine
 10
25.092161
 20
985.882046
 30
0.0
 11
25.092161
 21
975.8851700000001
 31
0.0
  0
LINE
  5
251
330
5C3
100
AcDbEntity
  8
DETAIL
  6
Continuous
 62
     5
100
AcDbLine
 10
-269.015953
 20
1126.448071
 30
0.0
 11
-269.815703
 21
1126.448071
 31
0.0
  0
LINE
  5
252
330
5C3
100
AcDbEntity
  8
DETAIL
  6
Continuous
 62
     5
100
AcDbLine
 10
-269.015953
 20
1126.448071
 30
0.0
 11
-269.015953
 21
1125.648321
 31
0.0
  0
LINE
  5
253
330
5C3
100
AcDbEntity
  8
DETAIL
  6
Continuous
 62
     5
100
AcDbLine
 10
-320.000024
 20
80.0
 30
0.0
 11
-320.000024
 21
1550.0
 31
0.0
  0
LINE
  5
254
330
5C3
100
AcDbEntity
  8
DETAIL
  6
Continuous
 62
     5
100
AcDbLine
 10
270.015641
 20
1550.0
 30
0.0
 11
270.015641
 21
1126.448071
 31
0.0
  0
LINE
  5
255
330
5C3
100
AcDbEntity
  8
DETAIL
  6
Continuous
 62
     5
100
AcDbLine
 10
270.515485
 20
1104.65488
 30
0.0
 11
270.515485
 21
595.813854
 31
0.0
  0
LINE
  5
256
330
5C3
100
AcDbEntity
  8
DETAIL
  6
Continuous
 62
     5
100
AcDbLine
 10
223.03032
 20
825.932019
 30
0.0
 11
223.03032
 21
815.935142
 31
0.0
  0
ARC
  5
257
330
5C3
100
AcDbEntity
  8
DETAIL
  6
Continuous
 62
     5
100
AcDbCircle
 10
213.033443
 20
665.981991
 30
0.0
 40
9.996876999999999
100
AcDbArc
 50
0.0
 51
90.0
  0
LINE
  5
258
330
5C3
100
AcDbEntity
  8
DETAIL
  6
Continuous
 62
     5
100
AcDbLine
 10
269.515797
 20
595.813854
 30
0.0
 11
269.515797
 21
594.814166
 31
0.0
  0
LINE
  5
259
330
5C3
100
AcDbEntity
  8
DETAIL
  6
Continuous
 62
     5
100
AcDbLine
 10
269.515797
 20
595.813854
 30
0.0
 11
270.515485
 21
595.813854
 31
0.0
  0
LINE
  5
25A
330
5C3
100
AcDbEntity
  8
DETAIL
  6
Continuous
 62
     5
100
AcDbLine
 10
269.215891
 20
593.9613009999998
 30
0.0
 11
269.215891
 21
594.7610509999998
 31
0.0
  0
LINE
  5
25B
330
5C3
100
AcDbEntity
  8
DETAIL
  6
Continuous
 62
     5
100
AcDbLine
 10
269.215891
 20
593.9613009999998
 30
0.0
 11
270.015641
 21
593.9613009999998
 31
0.0
  0
LINE
  5
25C
330
5C3
100
AcDbEntity
  8
DETAIL
  6
Continuous
 62
     5
100
AcDbLine
 10
223.03032
 20
665.981991
 30
0.0
 11
223.03032
 21
655.9851139999998
 31
0.0
  0
LWPOLYLINE
  5
25D
330
5C3
100
AcDbEntity
  8
DETAIL
  6
Continuous
 62
     5
100
AcDbPolyline
 90
        9
 70
     0
 43
0.0
 10
223.03032
 20
663.053973
 10
222.838233
 20
664.433039
 10
222.269353
 20
665.7591089999998
 10
221.345543
 20
666.9812209999999
 10
220.102303
 20
668.052412
 10
218.58741
 20
668.9315149999998
 10
216.859082
 20
669.584748
 10
214.983737
 20
669.9870070000002
 10
213.033443
 20
670.122833
  0
LINE
  5
268
330
5C3
100
AcDbEntity
  8
DETAIL
  6
Continuous
 62
     5
100
AcDbLine
 10
223.03032
 20
625.9944839999998
 30
0.0
 11
223.03032
 21
615.9976069999999
 31
0.0
  0
ARC
  5
269
330
5C3
100
AcDbEntity
  8
DETAIL
  6
Continuous
 62
     5
100
AcDbCircle
 10
213.033443
 20
625.9944839999998
 30
0.0
 40
9.996876999999999
100
AcDbArc
 50
0.0
 51
90.0
  0
LWPOLYLINE
  5
26A
330
5C3
100
AcDbEntity
  8
DETAIL
  6
Continuous
 62
     5
100
AcDbPolyline
 90
        9
 70
     0
 43
0.0
 10
223.03032
 20
623.066466
 10
222.838233
 20
624.4455320000001
 10
222.269353
 20
625.7716019999998
 10
221.345543
 20
626.9937139999998
 10
220.102303
 20
628.064905
 10
218.58741
 20
628.944008
 10
216.859082
 20
629.597241
 10
214.983737
 20
629.9995
 10
213.033443
 20
630.1353259999999
  0
LINE
  5
275
330
5C3
100
AcDbEntity
  8
DETAIL
  6
Continuous
 62
     5
100
AcDbLine
 10
223.03032
 20
785.944512
 30
0.0
 11
223.03032
 21
775.9476349999999
 31
0.0
  0
ARC
  5
276
330
5C3
100
AcDbEntity
  8
DETAIL
  6
Continuous
 62
     5
100
AcDbCircle
 10
213.033443
 20
785.944512
 30
0.0
 40
9.996876999999999
100
AcDbArc
 50
0.0
 51
90.0
  0
LWPOLYLINE
  5
277
330
5C3
100
AcDbEntity
  8
DETAIL
  6
Continuous
 62
     5
100
AcDbPolyline
 90
        9
 70
     0
 43
0.0
 10
223.03032
 20
783.0164940000002
 10
222.838233
 20
784.3955599999998
 10
222.269353
 20
785.72163
 10
221.345543
 20
786.943742
 10
220.102303
 20
788.014933
 10
218.58741
 20
788.894036
 10
216.859082
 20
789.547269
 10
214.983737
 20
789.949527
 10
213.033443
 20
790.085354
  0
LINE
  5
282
330
5C3
100
AcDbEntity
  8
DETAIL
  6
Continuous
 62
     5
100
AcDbLine
 10
223.03032
 20
745.9570049999999
 30
0.0
 11
223.03032
 21
735.960128
 31
0.0
  0
ARC
  5
283
330
5C3
100
AcDbEntity
  8
DETAIL
  6
Continuous
 62
     5
100
AcDbCircle
 10
213.033443
 20
745.9570049999999
 30
0.0
 40
9.996876999999999
100
AcDbArc
 50
0.0
 51
90.0
  0
LWPOLYLINE
  5
284
330
5C3
100
AcDbEntity
  8
DETAIL
  6
Continuous
 62
     5
100
AcDbPolyline
 90
        9
 70
     0
 43
0.0
 10
223.03032
 20
743.028987
 10
222.838233
 20
744.4080529999999
 10
222.269353
 20
745.734123
 10
221.345543
 20
746.956235
 10
220.102303
 20
748.0274259999998
 10
218.58741
 20
748.906529
 10
216.859082
 20
749.5597619999998
 10
214.983737
 20
749.96202
 10
213.033443
 20
750.0978469999998
  0
LINE
  5
28F
330
5C3
100
AcDbEntity
  8
DETAIL
  6
Continuous
 62
     5
100
AcDbLine
 10
223.03032
 20
705.969498
 30
0.0
 11
223.03032
 21
695.972621
 31
0.0
  0
ARC
  5
290
330
5C3
100
AcDbEntity
  8
DETAIL
  6
Continuous
 62
     5
100
AcDbCircle
 10
213.033443
 20
705.969498
 30
0.0
 40
9.996876999999999
100
AcDbArc
 50
0.0
 51
90.0
  0
LWPOLYLINE
  5
291
330
5C3
100
AcDbEntity
  8
DETAIL
  6
Continuous
 62
     5
100
AcDbPolyline
 90
        9
 70
     0
 43
0.0
 10
223.03032
 20
703.0414799999999
 10
222.838233
 20
704.4205459999998
 10
222.269353
 20
705.746616
 10
221.345543
 20
706.9687280000001
 10
220.102303
 20
708.039919
 10
218.58741
 20
708.9190219999997
 10
216.859082
 20
709.5722549999997
 10
214.983737
 20
709.974514
 10
213.033443
 20
710.11034
  0
LINE
  5
29C
330
5C3
100
AcDbEntity
  8
DETAIL
  6
Continuous
 62
     5
100
AcDbLine
 10
254.020638
 20
1125.648321
 30
0.0
 11
254.020638
 21
1105.654567
 31
0.0
  0
LINE
  5
29D
330
5C3
100
AcDbEntity
  8
DETAIL
  6
Continuous
 62
     5
100
AcDbLine
 10
223.03032
 20
945.894539
 30
0.0
 11
223.03032
 21
935.897663
 31
0.0
  0
ARC
  5
29E
330
5C3
100
AcDbEntity
  8
DETAIL
  6
Continuous
 62
     5
100
AcDbCircle
 10
213.033443
 20
945.894539
 30
0.0
 40
9.996876999999999
100
AcDbArc
 50
0.0
 51
90.0
  0
LWPOLYLINE
  5
29F
330
5C3
100
AcDbEntity
  8
DETAIL
  6
Continuous
 62
     5
100
AcDbPolyline
 90
        9
 70
     0
 43
0.0
 10
223.03032
 20
942.966522
 10
222.838233
 20
944.345588
 10
222.269353
 20
945.6716569999999
 10
221.345543
 20
946.8937699999999
 10
220.102303
 20
947.96496
 10
218.58741
 20
948.844064
 10
216.859082
 20
949.497297
 10
214.983737
 20
949.899555
 10
213.033443
 20
950.035381
  0
LINE
  5
2AA
330
5C3
100
AcDbEntity
  8
DETAIL
  6
Continuous
 62
     5
100
AcDbLine
 10
223.03032
 20
905.9070329999999
 30
0.0
 11
223.03032
 21
895.910156
 31
0.0
  0
ARC
  5
2AB
330
5C3
100
AcDbEntity
  8
DETAIL
  6
Continuous
 62
     5
100
AcDbCircle
 10
213.033443
 20
905.9070329999999
 30
0.0
 40
9.996876999999999
100
AcDbArc
 50
0.0
 51
90.0
  0
LWPOLYLINE
  5
2AC
330
5C3
100
AcDbEntity
  8
DETAIL
  6
Continuous
 62
     5
100
AcDbPolyline
 90
        9
 70
     0
 43
0.0
 10
223.03032
 20
902.979015
 10
222.838233
 20
904.3580809999999
 10
222.269353
 20
905.68415
 10
221.345543
 20
906.9062629999999
 10
220.102303
 20
907.9774529999999
 10
218.58741
 20
908.856557
 10
216.859082
 20
909.50979
 10
214.983737
 20
909.9120479999999
 10
213.033443
 20
910.0478739999999
  0
LINE
  5
2B7
330
5C3
100
AcDbEntity
  8
DETAIL
  6
Continuous
 62
     5
100
AcDbLine
 10
223.03032
 20
865.919526
 30
0.0
 11
223.03032
 21
855.922649
 31
0.0
  0
ARC
  5
2B8
330
5C3
100
AcDbEntity
  8
DETAIL
  6
Continuous
 62
     5
100
AcDbCircle
 10
213.033443
 20
865.919526
 30
0.0
 40
9.996876999999999
100
AcDbArc
 50
0.0
 51
90.0
  0
LWPOLYLINE
  5
2B9
330
5C3
100
AcDbEntity
  8
DETAIL
  6
Continuous
 62
     5
100
AcDbPolyline
 90
        9
 70
     0
 43
0.0
 10
223.03032
 20
862.9915079999998
 10
222.838233
 20
864.3705739999997
 10
222.269353
 20
865.6966439999999
 10
221.345543
 20
866.9187560000001
 10
220.102303
 20
867.989947
 10
218.58741
 20
868.8690499999999
 10
216.859082
 20
869.522283
 10
214.983737
 20
869.9245409999999
 10
213.033443
 20
870.0603670000001
  0
ARC
  5
2C4
330
5C3
100
AcDbEntity
  8
DETAIL
  6
Continuous
 62
     5
100
AcDbCircle
 10
213.033443
 20
825.932019
 30
0.0
 40
9.996876999999999
100
AcDbArc
 50
0.0
 51
90.0
  0
LWPOLYLINE
  5
2C5
330
5C3
100
AcDbEntity
  8
DETAIL
  6
Continuous
 62
     5
100
AcDbPolyline
 90
        9
 70
     0
 43
0.0
 10
223.03032
 20
823.0040009999999
 10
222.838233
 20
824.3830669999999
 10
222.269353
 20
825.7091370000001
 10
221.345543
 20
826.931249
 10
220.102303
 20
828.00244
 10
218.58741
 20
828.8815429999997
 10
216.859082
 20
829.534776
 10
214.983737
 20
829.9370340000001
 10
213.033443
 20
830.072861
  0
LINE
  5
2D0
330
5C3
100
AcDbEntity
  8
DETAIL
  6
Continuous
 62
     5
100
AcDbLine
 10
269.515797
 20
1104.65488
 30
0.0
 11
269.515797
 21
1105.654567
 31
0.0
  0
LINE
  5
2D1
330
5C3
100
AcDbEntity
  8
DETAIL
  6
Continuous
 62
     5
100
AcDbLine
 10
269.515797
 20
1104.65488
 30
0.0
 11
270.515485
 21
1104.65488
 31
0.0
  0
LINE
  5
2D2
330
5C3
100
AcDbEntity
  8
DETAIL
  6
Continuous
 62
     5
100
AcDbLine
 10
223.03032
 20
1025.999553
 30
0.0
 11
223.03032
 21
1016.002677
 31
0.0
  0
ARC
  5
2D3
330
5C3
100
AcDbEntity
  8
DETAIL
  6
Continuous
 62
     5
100
AcDbCircle
 10
213.033443
 20
1025.999553
 30
0.0
 40
9.996876999999999
100
AcDbArc
 50
0.0
 51
90.0
  0
LWPOLYLINE
  5
2D4
330
5C3
100
AcDbEntity
  8
DETAIL
  6
Continuous
 62
     5
100
AcDbPolyline
 90
        9
 70
     0
 43
0.0
 10
223.03032
 20
1023.071536
 10
222.838233
 20
1024.450602
 10
222.269353
 20
1025.776671
 10
221.345543
 20
1026.998784
 10
220.102303
 20
1028.069974
 10
218.58741
 20
1028.949078
 10
216.859082
 20
1029.60231
 10
214.983737
 20
1030.004569
 10
213.033443
 20
1030.140395
  0
LINE
  5
2DF
330
5C3
100
AcDbEntity
  8
DETAIL
  6
Continuous
 62
     5
100
AcDbLine
 10
223.03032
 20
985.882046
 30
0.0
 11
223.03032
 21
975.8851700000001
 31
0.0
  0
ARC
  5
2E0
330
5C3
100
AcDbEntity
  8
DETAIL
  6
Continuous
 62
     5
100
AcDbCircle
 10
213.033443
 20
985.882046
 30
0.0
 40
9.996876999999999
100
AcDbArc
 50
0.0
 51
90.0
  0
LWPOLYLINE
  5
2E1
330
5C3
100
AcDbEntity
  8
DETAIL
  6
Continuous
 62
     5
100
AcDbPolyline
 90
        9
 70
     0
 43
0.0
 10
223.03032
 20
982.9540289999997
 10
222.838233
 20
984.333095
 10
222.269353
 20
985.6591640000001
 10
221.345543
 20
986.8812769999999
 10
220.102303
 20
987.952467
 10
218.58741
 20
988.831571
 10
216.859082
 20
989.484803
 10
214.983737
 20
989.8870619999996
 10
213.033443
 20
990.022888
  0
LINE
  5
2EC
330
5C3
100
AcDbEntity
  8
DETAIL
  6
Continuous
 62
     5
100
AcDbLine
 10
269.215891
 20
1126.448071
 30
0.0
 11
270.015641
 21
1126.448071
 31
0.0
  0
LINE
  5
2ED
330
5C3
100
AcDbEntity
  8
DETAIL
  6
Continuous
 62
     5
100
AcDbLine
 10
269.215891
 20
1126.448071
 30
0.0
 11
269.215891
 21
1125.648321
 31
0.0
  0
LINE
  5
2EE
330
5C3
100
AcDbEntity
  8
DETAIL
  6
Continuous
 62
     5
100
AcDbLine
 10
320.000024
 20
1550.0
 30
0.0
 11
320.000024
 21
80.774764
 31
0.0
  0
LINE
  5
2EF
330
5C3
100
AcDbEntity
  8
DETAIL
  6
Continuous
 62
     5
100
AcDbLine
 10
-320.000024
 20
1345.0
 30
0.0
 11
-320.000024
 21
1550.0
 31
0.0
  0
LINE
  5
2F0
330
5C3
100
AcDbEntity
  8
OUTLINE
  6
Continuous
 62
     3
100
AcDbLine
 10
320.000024
 20
1550.0
 30
0.0
 11
320.000024
 21
241.124667
 31
0.0
  0
LINE
  5
2F1
330
5C3
100
AcDbEntity
  8
OUTLINE
  6
Continuous
 62
     3
100
AcDbLine
 10
-320.000024
 20
80.0
 30
0.0
 11
-320.000024
 21
1550.0
 31
0.0
  0
LINE
  5
2F2
330
5C3
100
AcDbEntity
  8
OUTLINE
  6
Continuous
 62
     3
100
AcDbLine
 10
-311.0
 20
80.0
 30
0.0
 11
-320.000024
 21
80.0
 31
0.0
  0
LINE
  5
2F3
330
5C3
100
AcDbEntity
  8
OUTLINE
  6
Continuous
 62
     3
100
AcDbLine
 10
310.802898
 20
0.0
 30
0.0
 11
-310.60296
 21
0.0
 31
0.0
  0
LINE
  5
2F4
330
5C3
100
AcDbEntity
  8
OUTLINE
  6
Continuous
 62
     3
100
AcDbLine
 10
-315.101555
 20
4.498594999999999
 30
0.0
 11
-351.0
 21
4.498594999999999
 31
0.0
  0
LINE
  5
2F5
330
5C3
100
AcDbEntity
  8
OUTLINE
  6
Continuous
 62
     3
100
AcDbLine
 10
-351.0
 20
4.498594999999999
 30
0.0
 11
-351.0
 21
0.0
 31
0.0
  0
LINE
  5
2F6
330
5C3
100
AcDbEntity
  8
OUTLINE
  6
Continuous
 62
     3
100
AcDbLine
 10
-310.60296
 20
0.0
 30
0.0
 11
-351.0
 21
0.0
 31
0.0
  0
LINE
  5
2F7
330
5C3
100
AcDbEntity
  8
OUTLINE
  6
Continuous
 62
     3
100
AcDbLine
 10
320.000024
 20
261.918171
 30
0.0
 11
320.000024
 21
241.124667
 31
0.0
  0
LINE
  5
2F8
330
5C3
100
AcDbEntity
  8
OUTLINE
  6
Continuous
 62
     3
100
AcDbLine
 10
351.0
 20
4.498594999999999
 30
0.0
 11
351.0
 21
0.0
 31
0.0
  0
LINE
  5
2F9
330
5C3
100
AcDbEntity
  8
OUTLINE
  6
Continuous
 62
     3
100
AcDbLine
 10
340.793528
 20
4.498594999999999
 30
0.0
 11
351.0
 21
4.498594999999999
 31
0.0
  0
LINE
  5
2FA
330
5C3
100
AcDbEntity
  8
OUTLINE
  6
Continuous
 62
     3
100
AcDbLine
 10
310.802898
 20
0.0
 30
0.0
 11
351.0
 21
0.0
 31
0.0
  0
LINE
  5
2FB
330
5C3
100
AcDbEntity
  8
OUTLINE
  6
Continuous
 62
     3
100
AcDbLine
 10
-320.000024
 20
1345.0
 30
0.0
 11
-320.000024
 21
1550.0
 31
0.0
  0
LINE
  5
2FC
330
5C3
100
AcDbEntity
  8
OUTLINE
  6
Continuous
 62
     3
100
AcDbLine
 10
-320.000024
 20
1550.0
 30
0.0
 11
320.000024
 21
1550.0
 31
0.0
  0
LINE
  5
2FD
330
5C3
100
AcDbEntity
  8
OUTLINE
  6
Continuous
 62
     3
100
AcDbLine
 10
-315.101555
 20
10.996564
 30
0.0
 11
-315.101555
 21
4.498594999999999
 31
0.0
  0
LINE
  5
2FE
330
5C3
100
AcDbEntity
  8
OUTLINE
  6
Continuous
 62
     3
100
AcDbLine
 10
-311.0
 20
48.984696
 30
0.0
 11
-311.0
 21
79.975014
 31
0.0
  0
CIRCLE
  5
2FF
330
5C3
100
AcDbEntity
  8
FIX
  6
Continuous
 62
    11
100
AcDbCircle
 10
-337.0
 20
0.0
 30
0.0
 40
9.858928999999999
  0
LINE
  5
300
330
5C3
100
AcDbEntity
  8
NOTE
  6
Continuous
 62
     4
100
AcDbLine
 10
-337.0
 20
13.138752
 30
0.0
 11
-337.0
 21
-13.138752
 31
0.0
  0
LINE
  5
301
330
5C3
100
AcDbEntity
  8
NOTE
  6
Continuous
 62
     4
100
AcDbLine
 10
-323.861248
 20
0.0
 30
0.0
 11
-350.138752
 21
0.0
 31
0.0
  0
LINE
  5
302
330
5C3
100
AcDbEntity
  8
NOTE
  6
Continuous
 62
     4
100
AcDbLine
 10
320.000024
 20
158.633911
 30
0.0
 11
320.000024
 21
101.366089
 31
0.0
  0
LINE
  5
303
330
5C3
100
AcDbEntity
  8
NOTE
  6
Continuous
 62
     4
100
AcDbLine
 10
348.633936
 20
130.0
 30
0.0
 11
291.366113
 21
130.0
 31
0.0
  0
CIRCLE
  5
304
330
5C3
100
AcDbEntity
  8
FIX
  6
Continuous
 62
    11
100
AcDbCircle
 10
337.0
 20
0.0
 30
0.0
 40
9.858928999999999
  0
LINE
  5
305
330
5C3
100
AcDbEntity
  8
NOTE
  6
Continuous
 62
     4
100
AcDbLine
 10
350.138752
 20
0.0
 30
0.0
 11
323.861248
 21
0.0
 31
0.0
  0
LINE
  5
306
330
5C3
100
AcDbEntity
  8
NOTE
  6
Continuous
 62
     4
100
AcDbLine
 10
337.0
 20
13.138752
 30
0.0
 11
337.0
 21
-13.138752
 31
0.0
  0
LINE
  5
307
330
5C3
100
AcDbEntity
  8
NOTE
  6
Continuous
 62
     4
100
AcDbLine
 10
332.796027
 20
56.125322
 30
0.0
 11
332.796027
 21
3.855937999999998
 31
0.0
  0
LINE
  5
308
330
5C3
100
AcDbEntity
  8
NOTE
  6
Continuous
 62
     4
100
AcDbLine
 10
358.930719
 20
30.0
 30
0.0
 11
306.661335
 21
30.0
 31
0.0
  0
LINE
  5
309
330
5C3
100
AcDbEntity
  8
NOTE
  6
Continuous
 62
     4
100
AcDbLine
 10
-353.000024
 20
56.125322
 30
0.0
 11
-353.000024
 21
3.855937999999998
 31
0.0
  0
LINE
  5
30A
330
5C3
100
AcDbEntity
  8
NOTE
  6
Continuous
 62
     4
100
AcDbLine
 10
-326.865332
 20
30.0
 30
0.0
 11
-379.134716
 21
30.0
 31
0.0
  0
LINE
  5
30B
330
5C3
100
AcDbEntity
  8
NOTE
  6
Continuous
 62
     4
100
AcDbLine
 10
-320.000024
 20
270.63641
 30
0.0
 11
-320.000024
 21
229.36359
 31
0.0
  0
LINE
  5
30C
330
5C3
100
AcDbEntity
  8
NOTE
  6
Continuous
 62
     4
100
AcDbLine
 10
-340.636434
 20
250.0
 30
0.0
 11
-299.363615
 21
250.0
 31
0.0
  0
LINE
  5
30D
330
5C3
100
AcDbEntity
  8
NOTE
  6
Continuous
 62
     4
100
AcDbLine
 10
-320.000024
 20
210.63641
 30
0.0
 11
-320.000024
 21
169.36359
 31
0.0
  0
LINE
  5
30E
330
5C3
100
AcDbEntity
  8
NOTE
  6
Continuous
 62
     4
100
AcDbLine
 10
-340.636434
 20
190.0
 30
0.0
 11
-299.363615
 21
190.0
 31
0.0
  0
LINE
  5
30F
330
5C3
100
AcDbEntity
  8
NOTE
  6
Continuous
 62
     4
100
AcDbLine
 10
-348.633936
 20
130.0
 30
0.0
 11
-291.366113
 21
130.0
 31
0.0
  0
LINE
  5
310
330
5C3
100
AcDbEntity
  8
NOTE
  6
Continuous
 62
     4
100
AcDbLine
 10
-320.000024
 20
538.276499
 30
0.0
 11
-320.000024
 21
471.7258629999998
 31
0.0
  0
LINE
  5
311
330
5C3
100
AcDbEntity
  8
NOTE
  6
Continuous
 62
     4
100
AcDbLine
 10
-286.724706
 20
505.0011809999999
 30
0.0
 11
-353.275343
 21
505.0011809999999
 31
0.0
  0
LINE
  5
312
330
5C3
100
AcDbEntity
  8
NOTE
  6
Continuous
 62
     4
100
AcDbLine
 10
-502.5821579999997
 20
900.424096
 30
0.0
 11
-320.000024
 21
505.0011809999999
 31
0.0
  0
LINE
  5
313
330
5C3
100
AcDbEntity
  8
NOTE
  6
Continuous
 62
     4
100
AcDbLine
 10
-320.000024
 20
505.0011809999999
 30
0.0
 11
-324.833116
 21
533.1518099999998
 31
0.0
  0
LINE
  5
314
330
5C3
100
AcDbEntity
  8
NOTE
  6
Continuous
 62
     4
100
AcDbLine
 10
-320.000024
 20
505.0011809999999
 30
0.0
 11
-338.26092
 21
526.9637949999999
 31
0.0
  0
TEXT
  5
315
330
5C3
100
AcDbEntity
  8
NOTE
  6
Continuous
 62
     4
100
AcDbText
 10
-756.4217079999998
 20
912.5678629999999
 30
0.0
 40
50.0
  1
D1　Rc1
 50
0.000003
 41
0.6310000000000002
  7
STANDARD1
100
AcDbText
  0
LINE
  5
316
330
5C3
100
AcDbEntity
  8
NOTE
  6
Continuous
 62
     4
100
AcDbLine
 10
-848.970158
 20
900.424096
 30
0.0
 11
-502.5821579999997
 21
900.424096
 31
0.0
  0
TEXT
  5
317
330
5C3
100
AcDbEntity
  8
NOTE
  6
Continuous
 62
     4
100
AcDbText
 10
-818.7544719999998
 20
912.167739
 30
0.0
 40
50.0
  1
※
 50
0.000003
 41
0.6310000000000002
  7
STANDARD1
100
AcDbText
  0
LINE
  5
318
330
5C3
100
AcDbEntity
  8
NOTE
  6
Continuous
 62
     4
100
AcDbLine
 10
-1066.076711
 20
-532.1911899999999
 30
0.0
 11
-536.704323
 21
-532.1911899999999
 31
0.0
  0
TEXT
  5
319
330
5C3
100
AcDbEntity
  8
NOTE
  6
Continuous
 62
     4
100
AcDbText
 10
-1047.826488
 20
-517.909886
 30
0.0
 40
50.0
  1
AH　2×2-φ12（M10）
 50
0.000003
 41
0.6310000000000002
  7
STANDARD1
100
AcDbText
  0
LINE
  5
31A
330
5C3
100
AcDbEntity
  8
NOTE
  6
Continuous
 62
     4
100
AcDbLine
 10
-536.704323
 20
-532.1911899999999
 30
0.0
 11
-337.0
 21
0.0
 31
0.0
  0
LINE
  5
31B
330
5C3
100
AcDbEntity
  8
NOTE
  6
Continuous
 62
     4
100
AcDbLine
 10
-337.0
 20
0.0
 30
0.0
 11
-339.557624
 21
-28.44776400000001
 31
0.0
  0
LINE
  5
31C
330
5C3
100
AcDbEntity
  8
NOTE
  6
Continuous
 62
     4
100
AcDbLine
 10
-337.0
 20
0.0
 30
0.0
 11
-353.438849
 21
-23.357674
 31
0.0
  0
LINE
  5
31D
330
5C3
100
AcDbEntity
  8
NOTE
  6
Continuous
 62
     4
100
AcDbLine
 10
-556.9128789999998
 20
433.2116019999999
 30
0.0
 11
-850.0055429999999
 21
433.2116019999999
 31
0.0
  0
LINE
  5
31E
330
5C3
100
AcDbEntity
  8
NOTE
  6
Continuous
 62
     4
100
AcDbLine
 10
-568.681338
 20
-133.370092
 30
0.0
 11
-831.7398779999999
 21
-133.370092
 31
0.0
  0
TEXT
  5
31F
330
5C3
100
AcDbEntity
  8
NOTE
  6
Continuous
 62
     4
100
AcDbText
 10
-734.986589
 20
-119.088848
 30
0.0
 40
50.0
  1
EL3
 50
0.000003
 41
0.6310000000000002
  7
STANDARD1
100
AcDbText
  0
TEXT
  5
320
330
5C3
100
AcDbEntity
  8
NOTE
  6
Continuous
 62
     4
100
AcDbText
 10
-799.953223
 20
-192.953351
 30
0.0
 40
50.0
  1
ﾉｯｸｱｳﾄφ43
 50
0.000003
 41
0.6310000000000002
  7
STANDARD1
100
AcDbText
  0
TEXT
  5
321
330
5C3
100
AcDbEntity
  8
NOTE
  6
Continuous
 62
     4
100
AcDbText
 10
-840.7277539999999
 20
439.9779269999998
 30
0.0
 40
50.0
  1
EL2
 50
0.000003
 41
0.6310000000000002
  7
STANDARD1
100
AcDbText
  0
TEXT
  5
322
330
5C3
100
AcDbEntity
  8
NOTE
  6
Continuous
 62
     4
100
AcDbText
 10
-743.4715169999998
 20
439.6567959999998
 30
0.0
 40
50.0
  1
ﾉｯｸｱｳﾄφ27
 50
0.000003
 41
0.6310000000000002
  7
STANDARD1
100
AcDbText
  0
LINE
  5
323
330
5C3
100
AcDbEntity
  8
NOTE
  6
Continuous
 62
     4
100
AcDbLine
 10
-554.7345009999998
 20
719.018909
 30
0.0
 11
-846.537299
 21
719.018909
 31
0.0
  0
TEXT
  5
324
330
5C3
100
AcDbEntity
  8
NOTE
  6
Continuous
 62
     4
100
AcDbText
 10
-812.044625
 20
659.318558
 30
0.0
 40
50.0
  1
ﾉｯｸｱｳﾄφ27
 50
0.000003
 41
0.6310000000000002
  7
STANDARD1
100
AcDbText
  0
TEXT
  5
325
330
5C3
100
AcDbEntity
  8
NOTE
  6
Continuous
 62
     4
100
AcDbText
 10
-750.057423
 20
727.8613599999999
 30
0.0
 40
50.0
  1
EL1
 50
0.000003
 41
0.6310000000000002
  7
STANDARD1
100
AcDbText
  0
LINE
  5
326
330
5C3
100
AcDbEntity
  8
NOTE
  6
Continuous
 62
     4
100
AcDbLine
 10
-554.7345009999998
 20
719.018909
 30
0.0
 11
-319.952393
 21
249.943764
 31
0.0
  0
LINE
  5
327
330
5C3
100
AcDbEntity
  8
NOTE
  6
Continuous
 62
     4
100
AcDbLine
 10
-568.681338
 20
-133.370092
 30
0.0
 11
-320.000024
 21
130.0
 31
0.0
  0
LINE
  5
328
330
5C3
100
AcDbEntity
  8
NOTE
  6
Continuous
 62
     4
100
AcDbLine
 10
-556.9128789999998
 20
433.2116019999999
 30
0.0
 11
-319.881558
 21
189.987853
 31
0.0
  0
LINE
  5
329
330
5C3
100
AcDbEntity
  8
NOTE
  6
Continuous
 62
     4
100
AcDbLine
 10
-319.952393
 20
249.943764
 30
0.0
 11
-325.690281
 21
277.923995
 31
0.0
  0
LINE
  5
32A
330
5C3
100
AcDbEntity
  8
NOTE
  6
Continuous
 62
     4
100
AcDbLine
 10
-319.952393
 20
249.943764
 30
0.0
 11
-338.911666
 21
271.30641
 31
0.0
  0
LINE
  5
32B
330
5C3
100
AcDbEntity
  8
NOTE
  6
Continuous
 62
     4
100
AcDbLine
 10
-319.881558
 20
189.987853
 30
0.0
 11
-333.846346
 21
214.90374
 31
0.0
  0
LINE
  5
32C
330
5C3
100
AcDbEntity
  8
NOTE
  6
Continuous
 62
     4
100
AcDbLine
 10
-319.881558
 20
189.987853
 30
0.0
 11
-344.433363
 21
204.583249
 31
0.0
  0
LINE
  5
32D
330
5C3
100
AcDbEntity
  8
NOTE
  6
Continuous
 62
     4
100
AcDbLine
 10
-320.000024
 20
130.0
 30
0.0
 11
-333.56612
 21
104.864811
 31
0.0
  0
LINE
  5
32E
330
5C3
100
AcDbEntity
  8
NOTE
  6
Continuous
 62
     4
100
AcDbLine
 10
-320.000024
 20
130.0
 30
0.0
 11
-344.316203
 21
115.015336
 31
0.0
  0
LINE
  5
32F
330
5C3
100
AcDbEntity
  8
NOTE
  6
Continuous
 62
     4
100
AcDbLine
 10
-599.1665669999998
 20
-343.846781
 30
0.0
 11
-882.367525
 21
-343.846781
 31
0.0
  0
TEXT
  5
330
330
5C3
100
AcDbEntity
  8
NOTE
  6
Continuous
 62
     4
100
AcDbText
 10
-802.4177789999999
 20
-332.313515
 30
0.0
 40
50.0
  1
D2　Rc1
 50
0.000003
 41
0.6310000000000002
  7
STANDARD1
100
AcDbText
  0
TEXT
  5
331
330
5C3
100
AcDbEntity
  8
NOTE
  6
Continuous
 62
     4
100
AcDbText
 10
-862.401833
 20
-334.974964
 30
0.0
 40
50.0
  1
※
 50
0.000003
 41
0.6310000000000002
  7
STANDARD1
100
AcDbText
  0
LINE
  5
332
330
5C3
100
AcDbEntity
  8
NOTE
  6
Continuous
 62
     4
100
AcDbLine
 10
-599.1665669999998
 20
-343.837412
 30
0.0
 11
-353.000024
 21
30.0
 31
0.0
  0
LINE
  5
333
330
5C3
100
AcDbEntity
  8
NOTE
  6
Continuous
 62
     4
100
AcDbLine
 10
-353.000024
 20
30.0
 30
0.0
 11
-374.174027
 21
10.830277
 31
0.0
  0
LINE
  5
334
330
5C3
100
AcDbEntity
  8
NOTE
  6
Continuous
 62
     4
100
AcDbLine
 10
-353.000024
 20
30.0
 30
0.0
 11
-361.752387
 21
2.811531
 31
0.0
  0
LINE
  5
335
330
5C3
100
AcDbEntity
  8
NOTE
  6
Continuous
 62
     4
100
AcDbLine
 10
461.890481
 20
-327.428988
 30
0.0
 11
722.3766379999998
 21
-327.428988
 31
0.0
  0
TEXT
  5
336
330
5C3
100
AcDbEntity
  8
NOTE
  6
Continuous
 62
     4
100
AcDbText
 10
492.3809269999998
 20
-315.895721
 30
0.0
 40
50.0
  1
D4　Rc1
 50
0.000003
 41
0.6310000000000002
  7
STANDARD1
100
AcDbText
  0
LINE
  5
337
330
5C3
100
AcDbEntity
  8
NOTE
  6
Continuous
 62
     4
100
AcDbLine
 10
461.890481
 20
-327.428988
 30
0.0
 11
332.798552
 21
29.999653
 31
0.0
  0
LINE
  5
338
330
5C3
100
AcDbEntity
  8
NOTE
  6
Continuous
 62
     4
100
AcDbLine
 10
332.798552
 20
29.999653
 30
0.0
 11
348.868337
 21
6.386548
 31
0.0
  0
LINE
  5
339
330
5C3
100
AcDbEntity
  8
NOTE
  6
Continuous
 62
     4
100
AcDbLine
 10
332.798552
 20
29.999653
 30
0.0
 11
334.908841
 21
1.515212
 31
0.0
  0
LINE
  5
33A
330
5C3
100
AcDbEntity
  8
NOTE
  6
Continuous
 62
     4
100
AcDbLine
 10
340.636434
 20
250.0
 30
0.0
 11
299.363615
 21
250.0
 31
0.0
  0
LINE
  5
33B
330
5C3
100
AcDbEntity
  8
NOTE
  6
Continuous
 62
     4
100
AcDbLine
 10
320.000024
 20
270.63641
 30
0.0
 11
320.000024
 21
229.36359
 31
0.0
  0
LINE
  5
33C
330
5C3
100
AcDbEntity
  8
NOTE
  6
Continuous
 62
     4
100
AcDbLine
 10
340.636434
 20
190.0
 30
0.0
 11
299.363615
 21
190.0
 31
0.0
  0
LINE
  5
33D
330
5C3
100
AcDbEntity
  8
NOTE
  6
Continuous
 62
     4
100
AcDbLine
 10
320.000024
 20
210.63641
 30
0.0
 11
320.000024
 21
169.36359
 31
0.0
  0
TEXT
  5
33E
330
5C3
100
AcDbEntity
  8
NOTE
  6
Continuous
 62
     4
100
AcDbText
 10
754.410825
 20
619.190149
 30
0.0
 40
50.0
  1
EL6
 50
0.000003
 41
0.6310000000000002
  7
STANDARD1
100
AcDbText
  0
LINE
  5
33F
330
5C3
100
AcDbEntity
  8
NOTE
  6
Continuous
 62
     4
100
AcDbLine
 10
663.05642
 20
612.0539919999998
 30
0.0
 11
934.049511
 21
612.0539919999998
 31
0.0
  0
TEXT
  5
340
330
5C3
100
AcDbEntity
  8
NOTE
  6
Continuous
 62
     4
100
AcDbText
 10
696.8571759999998
 20
547.1355919999998
 30
0.0
 40
50.0
  1
ﾉｯｸｱｳﾄφ43
 50
0.000003
 41
0.6310000000000002
  7
STANDARD1
100
AcDbText
  0
LINE
  5
341
330
5C3
100
AcDbEntity
  8
NOTE
  6
Continuous
 62
     4
100
AcDbLine
 10
677.740298
 20
777.052133
 30
0.0
 11
933.149144
 21
777.052133
 31
0.0
  0
TEXT
  5
342
330
5C3
100
AcDbEntity
  8
NOTE
  6
Continuous
 62
     4
100
AcDbText
 10
701.7284179999997
 20
712.8452129999998
 30
0.0
 40
50.0
  1
ﾉｯｸｱｳﾄφ27
 50
0.000003
 41
0.6310000000000002
  7
STANDARD1
100
AcDbText
  0
TEXT
  5
343
330
5C3
100
AcDbEntity
  8
NOTE
  6
Continuous
 62
     4
100
AcDbText
 10
747.1762949999998
 20
787.646687
 30
0.0
 40
50.0
  1
EL5
 50
0.000003
 41
0.6310000000000002
  7
STANDARD1
100
AcDbText
  0
LINE
  5
344
330
5C3
100
AcDbEntity
  8
NOTE
  6
Continuous
 62
     4
100
AcDbLine
 10
682.010307
 20
939.671651
 30
0.0
 11
931.693324
 21
939.671651
 31
0.0
  0
TEXT
  5
345
330
5C3
100
AcDbEntity
  8
NOTE
  6
Continuous
 62
     4
100
AcDbText
 10
698.2000059999997
 20
876.5245769999998
 30
0.0
 40
50.0
  1
ﾉｯｸｱｳﾄφ27
 50
0.000003
 41
0.6310000000000002
  7
STANDARD1
100
AcDbText
  0
TEXT
  5
346
330
5C3
100
AcDbEntity
  8
NOTE
  6
Continuous
 62
     4
100
AcDbText
 10
748.1776940000002
 20
948.514102
 30
0.0
 40
50.0
  1
EL4
 50
0.000003
 41
0.6310000000000002
  7
STANDARD1
100
AcDbText
  0
LINE
  5
347
330
5C3
100
AcDbEntity
  8
NOTE
  6
Continuous
 62
     4
100
AcDbLine
 10
677.740298
 20
777.052133
 30
0.0
 11
320.000024
 21
189.95268
 31
0.0
  0
LINE
  5
348
330
5C3
100
AcDbEntity
  8
NOTE
  6
Continuous
 62
     4
100
AcDbLine
 10
663.05642
 20
612.0539919999998
 30
0.0
 11
320.000024
 21
130.0
 31
0.0
  0
LINE
  5
349
330
5C3
100
AcDbEntity
  8
NOTE
  6
Continuous
 62
     4
100
AcDbLine
 10
682.010307
 20
939.671651
 30
0.0
 11
320.000024
 21
250.0
 31
0.0
  0
LINE
  5
34A
330
5C3
100
AcDbEntity
  8
NOTE
  6
Continuous
 62
     4
100
AcDbLine
 10
320.000024
 20
250.0
 30
0.0
 11
326.251526
 21
277.869973
 31
0.0
  0
LINE
  5
34B
330
5C3
100
AcDbEntity
  8
NOTE
  6
Continuous
 62
     4
100
AcDbLine
 10
320.000024
 20
250.0
 30
0.0
 11
339.34897
 21
271.010354
 31
0.0
  0
LINE
  5
34C
330
5C3
100
AcDbEntity
  8
NOTE
  6
Continuous
 62
     4
100
AcDbLine
 10
320.000024
 20
189.95268
 30
0.0
 11
327.96765
 21
217.381381
 31
0.0
  0
LINE
  5
34D
330
5C3
100
AcDbEntity
  8
NOTE
  6
Continuous
 62
     4
100
AcDbLine
 10
320.000024
 20
189.95268
 30
0.0
 11
340.6145410000001
 21
209.722818
 31
0.0
  0
LINE
  5
34E
330
5C3
100
AcDbEntity
  8
NOTE
  6
Continuous
 62
     4
100
AcDbLine
 10
320.000024
 20
130.0
 30
0.0
 11
330.080264
 21
156.724623
 31
0.0
  0
LINE
  5
34F
330
5C3
100
AcDbEntity
  8
NOTE
  6
Continuous
 62
     4
100
AcDbLine
 10
320.000024
 20
130.0
 30
0.0
 11
342.09208
 21
148.104082
 31
0.0
  0
LINE
  5
350
330
5C3
100
AcDbEntity
  8
NOTE
  6
Continuous
 62
     4
100
AcDbLine
 10
353.275343
 20
505.0
 30
0.0
 11
286.724706
 21
505.0
 31
0.0
  0
LINE
  5
351
330
5C3
100
AcDbEntity
  8
NOTE
  6
Continuous
 62
     4
100
AcDbLine
 10
320.000024
 20
538.2753179999999
 30
0.0
 11
320.000024
 21
471.724682
 31
0.0
  0
LINE
  5
352
330
5C3
100
AcDbEntity
  8
NOTE
  6
Continuous
 62
     4
100
AcDbLine
 10
686.8854989999999
 20
1106.461256
 30
0.0
 11
320.000024
 21
505.0
 31
0.0
  0
TEXT
  5
353
330
5C3
100
AcDbEntity
  8
NOTE
  6
Continuous
 62
     4
100
AcDbText
 10
714.273409
 20
1117.902972
 30
0.0
 40
50.0
  1
D3　Rc1
 50
359.999997
 41
0.6310000000000002
  7
STANDARD1
100
AcDbText
  0
LINE
  5
354
330
5C3
100
AcDbEntity
  8
NOTE
  6
Continuous
 62
     4
100
AcDbLine
 10
320.000024
 20
505.0
 30
0.0
 11
328.049356
 21
532.4048349999998
 31
0.0
  0
LINE
  5
355
330
5C3
100
AcDbEntity
  8
NOTE
  6
Continuous
 62
     4
100
AcDbLine
 10
320.000024
 20
505.0
 30
0.0
 11
340.673367
 21
524.708617
 31
0.0
  0
LINE
  5
356
330
5C3
100
AcDbEntity
  8
NOTE
  6
Continuous
 62
     4
100
AcDbLine
 10
686.8854989999999
 20
1106.461256
 30
0.0
 11
925.8396989999999
 21
1106.461256
 31
0.0
  0
LINE
  5
357
330
5C3
100
AcDbEntity
  8
SIZE
  6
Continuous
 62
    30
100
AcDbLine
 10
-311.0
 20
-20.0
 30
0.0
 11
-311.0
 21
-384.505689
 31
0.0
  0
LINE
  5
358
330
5C3
100
AcDbEntity
  8
SIZE
  6
Continuous
 62
    30
100
AcDbLine
 10
311.0
 20
-20.0
 30
0.0
 11
311.0
 21
-384.505689
 31
0.0
  0
LINE
  5
359
330
5C3
100
AcDbEntity
  8
SIZE
  6
Continuous
 62
    30
100
AcDbLine
 10
-301.0
 20
-354.505689
 30
0.0
 11
301.0
 21
-354.505689
 31
0.0
  0
CIRCLE
  5
35A
330
5C3
100
AcDbEntity
  8
SIZE
  6
Continuous
 62
    30
100
AcDbCircle
 10
-311.0
 20
-354.505689
 30
0.0
 40
5.0
  0
LINE
  5
35B
330
5C3
100
AcDbEntity
  8
SIZE
  6
Continuous
 62
    30
100
AcDbLine
 10
-306.0
 20
-354.505689
 30
0.0
 11
-301.0
 21
-354.505689
 31
0.0
  0
CIRCLE
  5
35C
330
5C3
100
AcDbEntity
  8
SIZE
  6
Continuous
 62
    30
100
AcDbCircle
 10
311.0
 20
-354.505689
 30
0.0
 40
5.0
  0
LINE
  5
35D
330
5C3
100
AcDbEntity
  8
SIZE
  6
Continuous
 62
    30
100
AcDbLine
 10
306.0
 20
-354.505689
 30
0.0
 11
301.0
 21
-354.505689
 31
0.0
  0
TEXT
  5
35E
330
5C3
100
AcDbEntity
  8
SIZE
  6
Continuous
 62
    30
100
AcDbText
 10
-74.05714285714283
 20
-334.505689
 30
0.0
 40
64.0
  1
622
 41
0.9
 72
     1
 11
0.0
 21
-334.505689
 31
0.0
100
AcDbText
  0
POINT
  5
35F
330
5C3
100
AcDbEntity
  8
DEFPOINTS
  6
Continuous
 62
     7
100
AcDbPoint
 10
-311.0
 20
0.0
 30
0.0
  0
POINT
  5
360
330
5C3
100
AcDbEntity
  8
DEFPOINTS
  6
Continuous
 62
     7
100
AcDbPoint
 10
311.0
 20
0.0
 30
0.0
  0
POINT
  5
361
330
5C3
100
AcDbEntity
  8
DEFPOINTS
  6
Continuous
 62
     7
100
AcDbPoint
 10
311.0
 20
-354.505689
 30
0.0
  0
LINE
  5
362
330
5C3
100
AcDbEntity
  8
NOTE
  6
Continuous
 62
     4
100
AcDbLine
 10
-320.000024
 20
158.633911
 30
0.0
 11
-320.000024
 21
101.366089
 31
0.0
  0
LINE
  5
363
330
5C3
100
AcDbEntity
  8
SIZE
  6
Continuous
 62
    30
100
AcDbLine
 10
330.802898
 20
0.0
 30
0.0
 11
771.340414
 21
0.0
 31
0.0
  0
LINE
  5
364
330
5C3
100
AcDbEntity
  8
SIZE
  6
Continuous
 62
    30
100
AcDbLine
 10
340.000024
 20
130.0
 30
0.0
 11
771.340414
 21
130.0
 31
0.0
  0
LINE
  5
365
330
5C3
100
AcDbEntity
  8
SIZE
  6
Continuous
 62
    30
100
AcDbLine
 10
741.3404139999999
 20
120.0
 30
0.0
 11
741.3404139999999
 21
10.0
 31
0.0
  0
LINE
  5
366
330
5C3
100
AcDbEntity
  8
SIZE
  6
Continuous
 62
    30
100
AcDbLine
 10
741.3404139999999
 20
0.0
 30
0.0
 11
741.3404139999999
 21
-187.142857
 31
0.0
  0
CIRCLE
  5
367
330
5C3
100
AcDbEntity
  8
SIZE
  6
Continuous
 62
    30
100
AcDbCircle
 10
741.3404139999999
 20
130.0
 30
0.0
 40
5.0
  0
LINE
  5
368
330
5C3
100
AcDbEntity
  8
SIZE
  6
Continuous
 62
    30
100
AcDbLine
 10
741.3404139999999
 20
125.0
 30
0.0
 11
741.3404139999999
 21
120.0
 31
0.0
  0
CIRCLE
  5
369
330
5C3
100
AcDbEntity
  8
SIZE
  6
Continuous
 62
    30
100
AcDbCircle
 10
741.3404139999999
 20
0.0
 30
0.0
 40
5.0
  0
LINE
  5
36A
330
5C3
100
AcDbEntity
  8
SIZE
  6
Continuous
 62
    30
100
AcDbLine
 10
741.3404139999999
 20
5.0
 30
0.0
 11
741.3404139999999
 21
10.0
 31
0.0
  0
TEXT
  5
36B
330
5C3
100
AcDbEntity
  8
SIZE
  6
Continuous
 62
    30
100
AcDbText
 10
721.340414
 20
-167.1428575714285
 30
0.0
 40
64.0
  1
130
 50
90.0
 41
0.9
 72
     1
 11
721.340414
 21
-98.57142899999999
 31
0.0
100
AcDbText
  0
POINT
  5
36C
330
5C3
100
AcDbEntity
  8
DEFPOINTS
  6
Continuous
 62
     7
100
AcDbPoint
 10
310.802898
 20
0.0
 30
0.0
  0
POINT
  5
36D
330
5C3
100
AcDbEntity
  8
DEFPOINTS
  6
Continuous
 62
     7
100
AcDbPoint
 10
320.000024
 20
130.0
 30
0.0
  0
POINT
  5
36E
330
5C3
100
AcDbEntity
  8
DEFPOINTS
  6
Continuous
 62
     7
100
AcDbPoint
 10
741.3404139999999
 20
130.0
 30
0.0
  0
LINE
  5
36F
330
5C3
100
AcDbEntity
  8
SIZE
  6
Continuous
 62
    30
100
AcDbLine
 10
340.000024
 20
130.0
 30
0.0
 11
771.340414
 21
130.0
 31
0.0
  0
LINE
  5
370
330
5C3
100
AcDbEntity
  8
SIZE
  6
Continuous
 62
    30
100
AcDbLine
 10
340.000024
 20
190.0
 30
0.0
 11
771.340414
 21
190.0
 31
0.0
  0
LINE
  5
371
330
5C3
100
AcDbEntity
  8
SIZE
  6
Continuous
 62
    30
100
AcDbLine
 10
741.3404139999999
 20
120.0
 30
0.0
 11
741.3404139999999
 21
110.0
 31
0.0
  0
LINE
  5
372
330
5C3
100
AcDbEntity
  8
SIZE
  6
Continuous
 62
    30
100
AcDbLine
 10
741.3404139999999
 20
200.0
 30
0.0
 11
741.3404139999999
 21
210.0
 31
0.0
  0
LINE
  5
373
330
5C3
100
AcDbEntity
  8
SIZE
  6
Continuous
 62
    30
100
AcDbLine
 10
741.3404139999999
 20
160.0
 30
0.0
 11
904.92003
 21
216.440519
 31
0.0
  0
LINE
  5
374
330
5C3
100
AcDbEntity
  8
SIZE
  6
Continuous
 62
    30
100
AcDbLine
 10
904.92003
 20
216.440519
 30
0.0
 11
904.92003
 21
349.697662
 31
0.0
  0
TEXT
  5
375
330
5C3
100
AcDbEntity
  8
SIZE
  6
Continuous
 62
    30
100
AcDbText
 10
884.9200300000001
 20
236.4405185714286
 30
0.0
 40
64.0
  1
60
 50
90.0
 41
0.9
 72
     1
 11
884.9200300000001
 21
283.06909
 31
0.0
100
AcDbText
  0
LINE
  5
376
330
5C3
100
AcDbEntity
  8
SIZE
  6
Continuous
 62
    30
100
AcDbLine
 10
741.3404139999999
 20
130.0
 30
0.0
 11
741.3404139999999
 21
190.0
 31
0.0
  0
LINE
  5
377
330
5C3
100
AcDbEntity
  8
SIZE
  6
Continuous
 62
    30
100
AcDbLine
 10
741.3404139999999
 20
130.0
 30
0.0
 11
741.3404139999999
 21
190.0
 31
0.0
  0
CIRCLE
  5
378
330
5C3
100
AcDbEntity
  8
SIZE
  6
Continuous
 62
    30
100
AcDbCircle
 10
741.3404139999999
 20
130.0
 30
0.0
 40
5.0
  0
LINE
  5
379
330
5C3
100
AcDbEntity
  8
SIZE
  6
Continuous
 62
    30
100
AcDbLine
 10
741.3404139999999
 20
125.0
 30
0.0
 11
741.3404139999999
 21
120.0
 31
0.0
  0
CIRCLE
  5
37A
330
5C3
100
AcDbEntity
  8
SIZE
  6
Continuous
 62
    30
100
AcDbCircle
 10
741.3404139999999
 20
190.0
 30
0.0
 40
5.0
  0
LINE
  5
37B
330
5C3
100
AcDbEntity
  8
SIZE
  6
Continuous
 62
    30
100
AcDbLine
 10
741.3404139999999
 20
195.0
 30
0.0
 11
741.3404139999999
 21
200.0
 31
0.0
  0
POINT
  5
37C
330
5C3
100
AcDbEntity
  8
DEFPOINTS
  6
Continuous
 62
     7
100
AcDbPoint
 10
320.000024
 20
130.0
 30
0.0
  0
POINT
  5
37D
330
5C3
100
AcDbEntity
  8
DEFPOINTS
  6
Continuous
 62
     7
100
AcDbPoint
 10
320.000024
 20
190.0
 30
0.0
  0
POINT
  5
37E
330
5C3
100
AcDbEntity
  8
DEFPOINTS
  6
Continuous
 62
     7
100
AcDbPoint
 10
741.3404139999999
 20
190.0
 30
0.0
  0
LINE
  5
37F
330
5C3
100
AcDbEntity
  8
SIZE
  6
Continuous
 62
    30
100
AcDbLine
 10
340.000024
 20
190.0
 30
0.0
 11
771.340414
 21
190.0
 31
0.0
  0
LINE
  5
380
330
5C3
100
AcDbEntity
  8
SIZE
  6
Continuous
 62
    30
100
AcDbLine
 10
341.18687
 20
250.0
 30
0.0
 11
771.340414
 21
250.0
 31
0.0
  0
LINE
  5
381
330
5C3
100
AcDbEntity
  8
SIZE
  6
Continuous
 62
    30
100
AcDbLine
 10
741.3404139999999
 20
200.0
 30
0.0
 11
741.3404139999999
 21
240.0
 31
0.0
  0
LINE
  5
382
330
5C3
100
AcDbEntity
  8
SIZE
  6
Continuous
 62
    30
100
AcDbLine
 10
741.3404139999999
 20
401.2883569999998
 30
0.0
 11
741.3404139999999
 21
250.0
 31
0.0
  0
TEXT
  5
383
330
5C3
100
AcDbEntity
  8
SIZE
  6
Continuous
 62
    30
100
AcDbText
 10
721.340414
 20
288.0312135714286
 30
0.0
 40
64.0
  1
60
 50
90.0
 41
0.9
 72
     1
 11
721.340414
 21
334.659785
 31
0.0
100
AcDbText
  0
CIRCLE
  5
384
330
5C3
100
AcDbEntity
  8
SIZE
  6
Continuous
 62
    30
100
AcDbCircle
 10
741.3404139999999
 20
190.0
 30
0.0
 40
5.0
  0
LINE
  5
385
330
5C3
100
AcDbEntity
  8
SIZE
  6
Continuous
 62
    30
100
AcDbLine
 10
741.3404139999999
 20
195.0
 30
0.0
 11
741.3404139999999
 21
200.0
 31
0.0
  0
CIRCLE
  5
386
330
5C3
100
AcDbEntity
  8
SIZE
  6
Continuous
 62
    30
100
AcDbCircle
 10
741.3404139999999
 20
250.0
 30
0.0
 40
5.0
  0
LINE
  5
387
330
5C3
100
AcDbEntity
  8
SIZE
  6
Continuous
 62
    30
100
AcDbLine
 10
741.3404139999999
 20
245.0
 30
0.0
 11
741.3404139999999
 21
240.0
 31
0.0
  0
POINT
  5
388
330
5C3
100
AcDbEntity
  8
DEFPOINTS
  6
Continuous
 62
     7
100
AcDbPoint
 10
320.000024
 20
190.0
 30
0.0
  0
POINT
  5
389
330
5C3
100
AcDbEntity
  8
DEFPOINTS
  6
Continuous
 62
     7
100
AcDbPoint
 10
321.18687
 20
250.0
 30
0.0
  0
POINT
  5
38A
330
5C3
100
AcDbEntity
  8
DEFPOINTS
  6
Continuous
 62
     7
100
AcDbPoint
 10
741.3404139999999
 20
250.0
 30
0.0
  0
LINE
  5
38B
330
5C3
100
AcDbEntity
  8
SIZE
  6
Continuous
 62
    30
100
AcDbLine
 10
330.802898
 20
0.0
 30
0.0
 11
1101.607932
 21
0.0
 31
0.0
  0
LINE
  5
38C
330
5C3
100
AcDbEntity
  8
SIZE
  6
Continuous
 62
    30
100
AcDbLine
 10
340.000024
 20
505.0
 30
0.0
 11
1101.607932
 21
505.0
 31
0.0
  0
LINE
  5
38D
330
5C3
100
AcDbEntity
  8
SIZE
  6
Continuous
 62
    30
100
AcDbLine
 10
1071.607932
 20
10.0
 30
0.0
 11
1071.607932
 21
495.0
 31
0.0
  0
CIRCLE
  5
38E
330
5C3
100
AcDbEntity
  8
SIZE
  6
Continuous
 62
    30
100
AcDbCircle
 10
1071.607932
 20
0.0
 30
0.0
 40
5.0
  0
LINE
  5
38F
330
5C3
100
AcDbEntity
  8
SIZE
  6
Continuous
 62
    30
100
AcDbLine
 10
1071.607932
 20
5.0
 30
0.0
 11
1071.607932
 21
10.0
 31
0.0
  0
CIRCLE
  5
390
330
5C3
100
AcDbEntity
  8
SIZE
  6
Continuous
 62
    30
100
AcDbCircle
 10
1071.607932
 20
505.0
 30
0.0
 40
5.0
  0
LINE
  5
391
330
5C3
100
AcDbEntity
  8
SIZE
  6
Continuous
 62
    30
100
AcDbLine
 10
1071.607932
 20
500.0
 30
0.0
 11
1071.607932
 21
495.0
 31
0.0
  0
TEXT
  5
392
330
5C3
100
AcDbEntity
  8
SIZE
  6
Continuous
 62
    30
100
AcDbText
 10
1051.607932
 20
178.4428571428571
 30
0.0
 40
64.0
  1
505
 50
90.0
 41
0.9
 72
     1
 11
1051.607932
 21
252.5
 31
0.0
100
AcDbText
  0
POINT
  5
393
330
5C3
100
AcDbEntity
  8
DEFPOINTS
  6
Continuous
 62
     7
100
AcDbPoint
 10
310.802898
 20
0.0
 30
0.0
  0
POINT
  5
394
330
5C3
100
AcDbEntity
  8
DEFPOINTS
  6
Continuous
 62
     7
100
AcDbPoint
 10
320.000024
 20
505.0
 30
0.0
  0
POINT
  5
395
330
5C3
100
AcDbEntity
  8
DEFPOINTS
  6
Continuous
 62
     7
100
AcDbPoint
 10
1071.607932
 20
505.0
 30
0.0
  0
LINE
  5
396
330
5C3
100
AcDbEntity
  8
BASIS
  6
DASHDOT
 62
     6
100
AcDbLine
 10
0.0
 20
1692.52787
 30
0.0
 11
0.0
 21
-97.727388
 31
0.0
  0
TEXT
  5
397
330
5C3
100
AcDbEntity
  8
ETC
  6
Continuous
 62
    61
100
AcDbText
 10
-1580.080364
 20
2097.901559
 30
0.0
 40
90.0
  1
KFH-P2_3A1_DUCT_2
 50
359.999997
 41
0.6030590000000001
  7
STANDARD1
100
AcDbText
  0
LINE
  5
39A
330
5C3
100
AcDbEntity
  8
SIZE
  6
Continuous
 62
    30
100
AcDbLine
 10
-337.0
 20
-20.0
 30
0.0
 11
-337.0
 21
-559.1698389999997
 31
0.0
  0
LINE
  5
39B
330
5C3
100
AcDbEntity
  8
SIZE
  6
Continuous
 62
    30
100
AcDbLine
 10
337.0
 20
-20.0
 30
0.0
 11
337.0
 21
-559.1698389999997
 31
0.0
  0
LINE
  5
39C
330
5C3
100
AcDbEntity
  8
SIZE
  6
Continuous
 62
    30
100
AcDbLine
 10
-327.0
 20
-529.1698389999997
 30
0.0
 11
327.0
 21
-529.1698389999997
 31
0.0
  0
CIRCLE
  5
39D
330
5C3
100
AcDbEntity
  8
SIZE
  6
Continuous
 62
    30
100
AcDbCircle
 10
-337.0
 20
-529.1698389999997
 30
0.0
 40
5.0
  0
LINE
  5
39E
330
5C3
100
AcDbEntity
  8
SIZE
  6
Continuous
 62
    30
100
AcDbLine
 10
-332.0
 20
-529.1698389999997
 30
0.0
 11
-327.0
 21
-529.1698389999997
 31
0.0
  0
CIRCLE
  5
39F
330
5C3
100
AcDbEntity
  8
SIZE
  6
Continuous
 62
    30
100
AcDbCircle
 10
337.0
 20
-529.1698389999997
 30
0.0
 40
5.0
  0
LINE
  5
3A0
330
5C3
100
AcDbEntity
  8
SIZE
  6
Continuous
 62
    30
100
AcDbLine
 10
332.0
 20
-529.1698389999997
 30
0.0
 11
327.0
 21
-529.1698389999997
 31
0.0
  0
TEXT
  5
3A1
330
5C3
100
AcDbEntity
  8
SIZE
  6
Continuous
 62
    30
100
AcDbText
 10
-75.42857142857141
 20
-509.1698389999998
 30
0.0
 40
64.0
  1
674
 41
0.9
 72
     1
 11
0.0
 21
-509.1698389999998
 31
0.0
100
AcDbText
  0
POINT
  5
3A2
330
5C3
100
AcDbEntity
  8
DEFPOINTS
  6
Continuous
 62
     7
100
AcDbPoint
 10
-337.0
 20
0.0
 30
0.0
  0
POINT
  5
3A3
330
5C3
100
AcDbEntity
  8
DEFPOINTS
  6
Continuous
 62
     7
100
AcDbPoint
 10
337.0
 20
0.0
 30
0.0
  0
POINT
  5
3A4
330
5C3
100
AcDbEntity
  8
DEFPOINTS
  6
Continuous
 62
     7
100
AcDbPoint
 10
337.0
 20
-529.1698389999997
 30
0.0
  0
LINE
  5
3A5
330
5C3
100
AcDbEntity
  8
SIZE
  6
Continuous
 62
    30
100
AcDbLine
 10
-351.0
 20
-20.0
 30
0.0
 11
-351.0
 21
-742.169793
 31
0.0
  0
LINE
  5
3A6
330
5C3
100
AcDbEntity
  8
SIZE
  6
Continuous
 62
    30
100
AcDbLine
 10
351.0
 20
-20.0
 30
0.0
 11
351.0
 21
-742.169793
 31
0.0
  0
LINE
  5
3A7
330
5C3
100
AcDbEntity
  8
SIZE
  6
Continuous
 62
    30
100
AcDbLine
 10
-341.0
 20
-712.169793
 30
0.0
 11
341.0
 21
-712.169793
 31
0.0
  0
CIRCLE
  5
3A8
330
5C3
100
AcDbEntity
  8
SIZE
  6
Continuous
 62
    30
100
AcDbCircle
 10
-351.0
 20
-712.169793
 30
0.0
 40
5.0
  0
LINE
  5
3A9
330
5C3
100
AcDbEntity
  8
SIZE
  6
Continuous
 62
    30
100
AcDbLine
 10
-346.0
 20
-712.169793
 30
0.0
 11
-341.0
 21
-712.169793
 31
0.0
  0
CIRCLE
  5
3AA
330
5C3
100
AcDbEntity
  8
SIZE
  6
Continuous
 62
    30
100
AcDbCircle
 10
351.0
 20
-712.169793
 30
0.0
 40
5.0
  0
LINE
  5
3AB
330
5C3
100
AcDbEntity
  8
SIZE
  6
Continuous
 62
    30
100
AcDbLine
 10
346.0
 20
-712.169793
 30
0.0
 11
341.0
 21
-712.169793
 31
0.0
  0
TEXT
  5
3AC
330
5C3
100
AcDbEntity
  8
SIZE
  6
Continuous
 62
    30
100
AcDbText
 10
-74.05714285714285
 20
-692.169793
 30
0.0
 40
64.0
  1
702
 41
0.9
 72
     1
 11
0.0
 21
-692.169793
 31
0.0
100
AcDbText
  0
POINT
  5
3AD
330
5C3
100
AcDbEntity
  8
DEFPOINTS
  6
Continuous
 62
     7
100
AcDbPoint
 10
-351.0
 20
0.0
 30
0.0
  0
POINT
  5
3AE
330
5C3
100
AcDbEntity
  8
DEFPOINTS
  6
Continuous
 62
     7
100
AcDbPoint
 10
351.0
 20
0.0
 30
0.0
  0
POINT
  5
3AF
330
5C3
100
AcDbEntity
  8
DEFPOINTS
  6
Continuous
 62
     7
100
AcDbPoint
 10
351.0
 20
-712.169793
 30
0.0
  0
TEXT
  5
3B0
330
5C3
100
AcDbEntity
  8
NOTE
  6
Continuous
 62
     4
100
AcDbText
 10
-179.939132
 20
1658.257664
 30
0.0
 40
50.0
  1
空気吹出
 50
359.999997
 41
0.6310000000000002
  7
STANDARD1
100
AcDbText
  0
LINE
  5
3B1
330
5C3
100
AcDbEntity
  8
NOTE
  6
Continuous
 62
     4
100
AcDbLine
 10
54.672855
 20
1649.808241
 30
0.0
 11
94.66036200000001
 21
1649.808241
 31
0.0
  0
LINE
  5
3B2
330
5C3
100
AcDbEntity
  8
NOTE
  6
Continuous
 62
     4
100
AcDbLine
 10
74.66660899999998
 20
1729.783255
 30
0.0
 11
30.680351
 21
1681.798247
 31
0.0
  0
LINE
  5
3B3
330
5C3
100
AcDbEntity
  8
NOTE
  6
Continuous
 62
     4
100
AcDbLine
 10
74.66660899999998
 20
1729.783255
 30
0.0
 11
118.652866
 21
1681.798247
 31
0.0
  0
LINE
  5
3B4
330
5C3
100
AcDbEntity
  8
NOTE
  6
Continuous
 62
     4
100
AcDbLine
 10
30.680351
 20
1681.798247
 30
0.0
 11
54.672855
 21
1681.798247
 31
0.0
  0
LINE
  5
3B5
330
5C3
100
AcDbEntity
  8
NOTE
  6
Continuous
 62
     4
100
AcDbLine
 10
94.66036200000001
 20
1681.798247
 30
0.0
 11
118.652866
 21
1681.798247
 31
0.0
  0
LINE
  5
3B6
330
5C3
100
AcDbEntity
  8
NOTE
  6
Continuous
 62
     4
100
AcDbLine
 10
54.672855
 20
1681.798247
 30
0.0
 11
54.672855
 21
1649.808241
 31
0.0
  0
LINE
  5
3B7
330
5C3
100
AcDbEntity
  8
NOTE
  6
Continuous
 62
     4
100
AcDbLine
 10
94.66036200000001
 20
1681.798247
 30
0.0
 11
94.66036200000001
 21
1649.808241
 31
0.0
  0
TEXT
  5
3B8
330
5C3
100
AcDbEntity
  8
NOTE
  6
Continuous
 62
     4
100
AcDbText
 10
-881.6305960000002
 20
-399.274436
 30
0.0
 40
50.0
  1
【※はプラグ付】
 50
359.999997
 41
0.6310000000000002
  7
STANDARD1
100
AcDbText
  0
LINE
  5
3B9
330
5C3
100
AcDbEntity
  8
OUTLINE
  6
Continuous
 62
     3
100
AcDbLine
 10
320.000024
 20
80.0
 30
0.0
 11
320.000024
 21
241.124667
 31
0.0
  0
LINE
  5
3BA
330
5C3
100
AcDbEntity
  8
OUTLINE
  6
Continuous
 62
     3
100
AcDbLine
 10
311.0
 20
80.0
 30
0.0
 11
311.0
 21
34.989069
 31
0.0
  0
LINE
  5
3BB
330
5C3
100
AcDbEntity
  8
OUTLINE
  6
Continuous
 62
     3
100
AcDbLine
 10
311.0
 20
34.989069
 30
0.0
 11
315.301492
 21
34.989069
 31
0.0
  0
LINE
  5
3BC
330
5C3
100
AcDbEntity
  8
OUTLINE
  6
Continuous
 62
     3
100
AcDbLine
 10
315.301492
 20
34.989069
 30
0.0
 11
315.301492
 21
4.498594999999999
 31
0.0
  0
LINE
  5
3BD
330
5C3
100
AcDbEntity
  8
OUTLINE
  6
Continuous
 62
     3
100
AcDbLine
 10
315.301492
 20
4.498594999999999
 30
0.0
 11
340.793528
 21
4.498594999999999
 31
0.0
  0
LINE
  5
3BE
330
5C3
100
AcDbEntity
  8
OUTLINE
  6
Continuous
 62
     3
100
AcDbLine
 10
-311.0
 20
48.984696
 30
0.0
 11
-311.0
 21
34.989069
 31
0.0
  0
LINE
  5
3BF
330
5C3
100
AcDbEntity
  8
OUTLINE
  6
Continuous
 62
     3
100
AcDbLine
 10
-311.0
 20
34.989069
 30
0.0
 11
-315.101555
 21
34.989069
 31
0.0
  0
LINE
  5
3C0
330
5C3
100
AcDbEntity
  8
OUTLINE
  6
Continuous
 62
     3
100
AcDbLine
 10
-315.101555
 20
34.989069
 30
0.0
 11
-315.101555
 21
10.996564
 31
0.0
  0
TEXT
  5
3C1
330
5C3
100
AcDbEntity
  8
NOTE
  6
Continuous
 62
     4
100
AcDbText
 10
-842.1349259999997
 20
832.7333239999997
 30
0.0
 40
50.0
  1
【※はプラグ付】
 50
359.999997
 41
0.6310000000000002
  7
STANDARD1
100
AcDbText
  0
LINE
  5
3C2
330
5C3
100
AcDbEntity
  8
DETAIL
  6
Continuous
 62
     5
100
AcDbLine
 10
190.000024
 20
1625.0
 30
0.0
 11
-279.999976
 21
1625.0
 31
0.0
  0
LINE
  5
3C3
330
5C3
100
AcDbEntity
  8
DETAIL
  6
Continuous
 62
     5
100
AcDbLine
 10
-259.999976
 20
1625.0
 30
0.0
 11
-259.999976
 21
1550.0
 31
0.0
  0
LINE
  5
3C4
330
5C3
100
AcDbEntity
  8
DETAIL
  6
Continuous
 62
     5
100
AcDbLine
 10
170.000024
 20
1625.0
 30
0.0
 11
170.000024
 21
1550.0
 31
0.0
  0
LINE
  5
3C5
330
5C3
100
AcDbEntity
  8
SIZE
  6
Continuous
 62
    30
100
AcDbLine
 10
-371.0
 20
0.0
 30
0.0
 11
-1579.016823
 21
0.0
 31
0.0
  0
LINE
  5
3C6
330
5C3
100
AcDbEntity
  8
SIZE
  6
Continuous
 62
    30
100
AcDbLine
 10
-340.000024
 20
1550.0
 30
0.0
 11
-1579.016823
 21
1550.0
 31
0.0
  0
LINE
  5
3C7
330
5C3
100
AcDbEntity
  8
SIZE
  6
Continuous
 62
    30
100
AcDbLine
 10
-1549.016823
 20
10.0
 30
0.0
 11
-1549.016823
 21
1540.0
 31
0.0
  0
CIRCLE
  5
3C8
330
5C3
100
AcDbEntity
  8
SIZE
  6
Continuous
 62
    30
100
AcDbCircle
 10
-1549.016823
 20
0.0
 30
0.0
 40
5.0
  0
LINE
  5
3C9
330
5C3
100
AcDbEntity
  8
SIZE
  6
Continuous
 62
    30
100
AcDbLine
 10
-1549.016823
 20
5.0
 30
0.0
 11
-1549.016823
 21
10.0
 31
0.0
  0
CIRCLE
  5
3CA
330
5C3
100
AcDbEntity
  8
SIZE
  6
Continuous
 62
    30
100
AcDbCircle
 10
-1549.016823
 20
1550.0
 30
0.0
 40
5.0
  0
LINE
  5
3CB
330
5C3
100
AcDbEntity
  8
SIZE
  6
Continuous
 62
    30
100
AcDbLine
 10
-1549.016823
 20
1545.0
 30
0.0
 11
-1549.016823
 21
1540.0
 31
0.0
  0
TEXT
  5
3CC
330
5C3
100
AcDbEntity
  8
SIZE
  6
Continuous
 62
    30
100
AcDbText
 10
-1569.016823
 20
679.0
 30
0.0
 40
64.0
  1
1550
 50
90.0
 41
0.9
 72
     1
 11
-1569.016823
 21
775.0
 31
0.0
100
AcDbText
  0
POINT
  5
3CD
330
5C3
100
AcDbEntity
  8
DEFPOINTS
  6
Continuous
 62
     7
100
AcDbPoint
 10
-351.0
 20
0.0
 30
0.0
  0
POINT
  5
3CE
330
5C3
100
AcDbEntity
  8
DEFPOINTS
  6
Continuous
 62
     7
100
AcDbPoint
 10
-320.000024
 20
1550.0
 30
0.0
  0
POINT
  5
3CF
330
5C3
100
AcDbEntity
  8
DEFPOINTS
  6
Continuous
 62
     7
100
AcDbPoint
 10
-1549.016823
 20
1550.0
 30
0.0
  0
LINE
  5
3D0
330
5C3
100
AcDbEntity
  8
SIZE
  6
Continuous
 62
    30
100
AcDbLine
 10
-340.000024
 20
1550.0
 30
0.0
 11
-1579.016823
 21
1550.0
 31
0.0
  0
LINE
  5
3D1
330
5C3
100
AcDbEntity
  8
SIZE
  6
Continuous
 62
    30
100
AcDbLine
 10
-299.999976
 20
1625.0
 30
0.0
 11
-1579.016823
 21
1625.0
 31
0.0
  0
LINE
  5
3D2
330
5C3
100
AcDbEntity
  8
SIZE
  6
Continuous
 62
    30
100
AcDbLine
 10
-1549.016823
 20
1560.0
 30
0.0
 11
-1549.016823
 21
1615.0
 31
0.0
  0
LINE
  5
3D3
330
5C3
100
AcDbEntity
  8
SIZE
  6
Continuous
 62
    30
100
AcDbLine
 10
-1549.016823
 20
1771.996678
 30
0.0
 11
-1549.016823
 21
1625.0
 31
0.0
  0
TEXT
  5
3D4
330
5C3
100
AcDbEntity
  8
SIZE
  6
Continuous
 62
    30
100
AcDbText
 10
-1569.016823
 20
1658.739535571428
 30
0.0
 40
64.0
  1
75
 50
90.0
 41
0.9
 72
     1
 11
-1569.016823
 21
1705.368107
 31
0.0
100
AcDbText
  0
CIRCLE
  5
3D5
330
5C3
100
AcDbEntity
  8
SIZE
  6
Continuous
 62
    30
100
AcDbCircle
 10
-1549.016823
 20
1550.0
 30
0.0
 40
5.0
  0
LINE
  5
3D6
330
5C3
100
AcDbEntity
  8
SIZE
  6
Continuous
 62
    30
100
AcDbLine
 10
-1549.016823
 20
1555.0
 30
0.0
 11
-1549.016823
 21
1560.0
 31
0.0
  0
CIRCLE
  5
3D7
330
5C3
100
AcDbEntity
  8
SIZE
  6
Continuous
 62
    30
100
AcDbCircle
 10
-1549.016823
 20
1625.0
 30
0.0
 40
5.0
  0
LINE
  5
3D8
330
5C3
100
AcDbEntity
  8
SIZE
  6
Continuous
 62
    30
100
AcDbLine
 10
-1549.016823
 20
1620.0
 30
0.0
 11
-1549.016823
 21
1615.0
 31
0.0
  0
POINT
  5
3D9
330
5C3
100
AcDbEntity
  8
DEFPOINTS
  6
Continuous
 62
     7
100
AcDbPoint
 10
-320.000024
 20
1550.0
 30
0.0
  0
POINT
  5
3DA
330
5C3
100
AcDbEntity
  8
DEFPOINTS
  6
Continuous
 62
     7
100
AcDbPoint
 10
-279.999976
 20
1625.0
 30
0.0
  0
POINT
  5
3DB
330
5C3
100
AcDbEntity
  8
DEFPOINTS
  6
Continuous
 62
     7
100
AcDbPoint
 10
-1549.016823
 20
1625.0
 30
0.0
  0
LINE
  5
3DC
330
5C3
100
AcDbEntity
  8
OUTLINE
  6
Continuous
 62
     3
100
AcDbLine
 10
-259.999976
 20
1550.0
 30
0.0
 11
-259.999976
 21
1625.0
 31
0.0
  0
LINE
  5
3DD
330
5C3
100
AcDbEntity
  8
OUTLINE
  6
Continuous
 62
     3
100
AcDbLine
 10
-259.999976
 20
1625.0
 30
0.0
 11
-279.999976
 21
1625.0
 31
0.0
  0
LINE
  5
3DE
330
5C3
100
AcDbEntity
  8
OUTLINE
  6
Continuous
 62
     3
100
AcDbLine
 10
190.000024
 20
1625.0
 30
0.0
 11
170.000024
 21
1625.0
 31
0.0
  0
LINE
  5
3DF
330
5C3
100
AcDbEntity
  8
OUTLINE
  6
Continuous
 62
     3
100
AcDbLine
 10
170.000024
 20
1625.0
 30
0.0
 11
170.000024
 21
1550.0
 31
0.0
  0
LINE
  5
3E0
330
5C3
100
AcDbEntity
  8
SIZE
  6
Continuous
 62
    30
100
AcDbLine
 10
-371.0
 20
0.0
 30
0.0
 11
-878.9415469999999
 21
0.0
 31
0.0
  0
LINE
  5
3E1
330
5C3
100
AcDbEntity
  8
SIZE
  6
Continuous
 62
    30
100
AcDbLine
 10
-399.1347160000001
 20
30.0
 30
0.0
 11
-878.9415469999999
 21
30.0
 31
0.0
  0
LINE
  5
3E2
330
5C3
100
AcDbEntity
  8
SIZE
  6
Continuous
 62
    30
100
AcDbLine
 10
-848.941547
 20
40.0
 30
0.0
 11
-848.941547
 21
50.0
 31
0.0
  0
LINE
  5
3E3
330
5C3
100
AcDbEntity
  8
SIZE
  6
Continuous
 62
    30
100
AcDbLine
 10
-848.941547
 20
-10.0
 30
0.0
 11
-848.941547
 21
-153.257143
 31
0.0
  0
LINE
  5
3E4
330
5C3
100
AcDbEntity
  8
SIZE
  6
Continuous
 62
    30
100
AcDbLine
 10
-848.941547
 20
30.0
 30
0.0
 11
-848.941547
 21
0.0
 31
0.0
  0
CIRCLE
  5
3E5
330
5C3
100
AcDbEntity
  8
SIZE
  6
Continuous
 62
    30
100
AcDbCircle
 10
-848.941547
 20
30.0
 30
0.0
 40
5.0
  0
LINE
  5
3E6
330
5C3
100
AcDbEntity
  8
SIZE
  6
Continuous
 62
    30
100
AcDbLine
 10
-848.941547
 20
35.0
 30
0.0
 11
-848.941547
 21
40.0
 31
0.0
  0
CIRCLE
  5
3E7
330
5C3
100
AcDbEntity
  8
SIZE
  6
Continuous
 62
    30
100
AcDbCircle
 10
-848.941547
 20
0.0
 30
0.0
 40
5.0
  0
LINE
  5
3E8
330
5C3
100
AcDbEntity
  8
SIZE
  6
Continuous
 62
    30
100
AcDbLine
 10
-848.941547
 20
-5.0
 30
0.0
 11
-848.941547
 21
-10.0
 31
0.0
  0
TEXT
  5
3E9
330
5C3
100
AcDbEntity
  8
SIZE
  6
Continuous
 62
    30
100
AcDbText
 10
-868.941547
 20
-133.2571424285714
 30
0.0
 40
64.0
  1
30
 50
90.0
 41
0.9
 72
     1
 11
-868.941547
 21
-86.628571
 31
0.0
100
AcDbText
  0
POINT
  5
3EA
330
5C3
100
AcDbEntity
  8
DEFPOINTS
  6
Continuous
 62
     7
100
AcDbPoint
 10
-351.0
 20
0.0
 30
0.0
  0
POINT
  5
3EB
330
5C3
100
AcDbEntity
  8
DEFPOINTS
  6
Continuous
 62
     7
100
AcDbPoint
 10
-379.134716
 20
30.0
 30
0.0
  0
POINT
  5
3EC
330
5C3
100
AcDbEntity
  8
DEFPOINTS
  6
Continuous
 62
     7
100
AcDbPoint
 10
-848.941547
 20
30.0
 30
0.0
  0
LINE
  5
3ED
330
5C3
100
AcDbEntity
  8
SIZE
  6
Continuous
 62
    30
100
AcDbLine
 10
-371.0
 20
0.0
 30
0.0
 11
-1006.958154
 21
0.0
 31
0.0
  0
LINE
  5
3EE
330
5C3
100
AcDbEntity
  8
SIZE
  6
Continuous
 62
    30
100
AcDbLine
 10
-368.633936
 20
130.0
 30
0.0
 11
-1006.958154
 21
130.0
 31
0.0
  0
LINE
  5
3EF
330
5C3
100
AcDbEntity
  8
SIZE
  6
Continuous
 62
    30
100
AcDbLine
 10
-976.958154
 20
120.0
 30
0.0
 11
-976.958154
 21
10.0
 31
0.0
  0
LINE
  5
3F0
330
5C3
100
AcDbEntity
  8
SIZE
  6
Continuous
 62
    30
100
AcDbLine
 10
-976.958154
 20
0.0
 30
0.0
 11
-976.958154
 21
-187.142857
 31
0.0
  0
CIRCLE
  5
3F1
330
5C3
100
AcDbEntity
  8
SIZE
  6
Continuous
 62
    30
100
AcDbCircle
 10
-976.958154
 20
130.0
 30
0.0
 40
5.0
  0
LINE
  5
3F2
330
5C3
100
AcDbEntity
  8
SIZE
  6
Continuous
 62
    30
100
AcDbLine
 10
-976.958154
 20
125.0
 30
0.0
 11
-976.958154
 21
120.0
 31
0.0
  0
CIRCLE
  5
3F3
330
5C3
100
AcDbEntity
  8
SIZE
  6
Continuous
 62
    30
100
AcDbCircle
 10
-976.958154
 20
0.0
 30
0.0
 40
5.0
  0
LINE
  5
3F4
330
5C3
100
AcDbEntity
  8
SIZE
  6
Continuous
 62
    30
100
AcDbLine
 10
-976.958154
 20
5.0
 30
0.0
 11
-976.958154
 21
10.0
 31
0.0
  0
TEXT
  5
3F5
330
5C3
100
AcDbEntity
  8
SIZE
  6
Continuous
 62
    30
100
AcDbText
 10
-996.958154
 20
-167.1428575714285
 30
0.0
 40
64.0
  1
130
 50
90.0
 41
0.9
 72
     1
 11
-996.958154
 21
-98.57142899999999
 31
0.0
100
AcDbText
  0
POINT
  5
3F6
330
5C3
100
AcDbEntity
  8
DEFPOINTS
  6
Continuous
 62
     7
100
AcDbPoint
 10
-351.0
 20
0.0
 30
0.0
  0
POINT
  5
3F7
330
5C3
100
AcDbEntity
  8
DEFPOINTS
  6
Continuous
 62
     7
100
AcDbPoint
 10
-348.633936
 20
130.0
 30
0.0
  0
POINT
  5
3F8
330
5C3
100
AcDbEntity
  8
DEFPOINTS
  6
Continuous
 62
     7
100
AcDbPoint
 10
-976.958154
 20
130.0
 30
0.0
  0
LINE
  5
3F9
330
5C3
100
AcDbEntity
  8
SIZE
  6
Continuous
 62
    30
100
AcDbLine
 10
-368.633936
 20
130.0
 30
0.0
 11
-1006.958154
 21
130.0
 31
0.0
  0
LINE
  5
3FA
330
5C3
100
AcDbEntity
  8
SIZE
  6
Continuous
 62
    30
100
AcDbLine
 10
-360.636434
 20
190.0
 30
0.0
 11
-1006.958154
 21
190.0
 31
0.0
  0
LINE
  5
3FB
330
5C3
100
AcDbEntity
  8
SIZE
  6
Continuous
 62
    30
100
AcDbLine
 10
-976.958154
 20
120.0
 30
0.0
 11
-976.958154
 21
110.0
 31
0.0
  0
LINE
  5
3FC
330
5C3
100
AcDbEntity
  8
SIZE
  6
Continuous
 62
    30
100
AcDbLine
 10
-976.958154
 20
200.0
 30
0.0
 11
-976.958154
 21
210.0
 31
0.0
  0
LINE
  5
3FD
330
5C3
100
AcDbEntity
  8
SIZE
  6
Continuous
 62
    30
100
AcDbLine
 10
-976.958154
 20
130.0
 30
0.0
 11
-976.958154
 21
190.0
 31
0.0
  0
CIRCLE
  5
3FE
330
5C3
100
AcDbEntity
  8
SIZE
  6
Continuous
 62
    30
100
AcDbCircle
 10
-976.958154
 20
130.0
 30
0.0
 40
5.0
  0
LINE
  5
3FF
330
5C3
100
AcDbEntity
  8
SIZE
  6
Continuous
 62
    30
100
AcDbLine
 10
-976.958154
 20
125.0
 30
0.0
 11
-976.958154
 21
120.0
 31
0.0
  0
CIRCLE
  5
400
330
5C3
100
AcDbEntity
  8
SIZE
  6
Continuous
 62
    30
100
AcDbCircle
 10
-976.958154
 20
190.0
 30
0.0
 40
5.0
  0
LINE
  5
401
330
5C3
100
AcDbEntity
  8
SIZE
  6
Continuous
 62
    30
100
AcDbLine
 10
-976.958154
 20
195.0
 30
0.0
 11
-976.958154
 21
200.0
 31
0.0
  0
TEXT
  5
402
330
5C3
100
AcDbEntity
  8
SIZE
  6
Continuous
 62
    30
100
AcDbText
 10
-996.958154
 20
113.3714285714286
 30
0.0
 40
64.0
  1
60
 50
90.0
 41
0.9
 72
     1
 11
-996.958154
 21
160.0
 31
0.0
100
AcDbText
  0
POINT
  5
403
330
5C3
100
AcDbEntity
  8
DEFPOINTS
  6
Continuous
 62
     7
100
AcDbPoint
 10
-348.633936
 20
130.0
 30
0.0
  0
POINT
  5
404
330
5C3
100
AcDbEntity
  8
DEFPOINTS
  6
Continuous
 62
     7
100
AcDbPoint
 10
-340.636434
 20
190.0
 30
0.0
  0
POINT
  5
405
330
5C3
100
AcDbEntity
  8
DEFPOINTS
  6
Continuous
 62
     7
100
AcDbPoint
 10
-976.958154
 20
190.0
 30
0.0
  0
LINE
  5
406
330
5C3
100
AcDbEntity
  8
SIZE
  6
Continuous
 62
    30
100
AcDbLine
 10
-360.636434
 20
190.0
 30
0.0
 11
-1006.958154
 21
190.0
 31
0.0
  0
LINE
  5
407
330
5C3
100
AcDbEntity
  8
SIZE
  6
Continuous
 62
    30
100
AcDbLine
 10
-360.636434
 20
250.0
 30
0.0
 11
-1006.958154
 21
250.0
 31
0.0
  0
LINE
  5
408
330
5C3
100
AcDbEntity
  8
SIZE
  6
Continuous
 62
    30
100
AcDbLine
 10
-976.958154
 20
200.0
 30
0.0
 11
-976.958154
 21
240.0
 31
0.0
  0
LINE
  5
409
330
5C3
100
AcDbEntity
  8
SIZE
  6
Continuous
 62
    30
100
AcDbLine
 10
-976.958154
 20
413.9864049999998
 30
0.0
 11
-976.958154
 21
250.0
 31
0.0
  0
TEXT
  5
40A
330
5C3
100
AcDbEntity
  8
SIZE
  6
Continuous
 62
    30
100
AcDbText
 10
-996.958154
 20
300.7292625714284
 30
0.0
 40
64.0
  1
60
 50
90.0
 41
0.9
 72
     1
 11
-996.958154
 21
347.3578339999999
 31
0.0
100
AcDbText
  0
CIRCLE
  5
40B
330
5C3
100
AcDbEntity
  8
SIZE
  6
Continuous
 62
    30
100
AcDbCircle
 10
-976.958154
 20
190.0
 30
0.0
 40
5.0
  0
LINE
  5
40C
330
5C3
100
AcDbEntity
  8
SIZE
  6
Continuous
 62
    30
100
AcDbLine
 10
-976.958154
 20
195.0
 30
0.0
 11
-976.958154
 21
200.0
 31
0.0
  0
CIRCLE
  5
40D
330
5C3
100
AcDbEntity
  8
SIZE
  6
Continuous
 62
    30
100
AcDbCircle
 10
-976.958154
 20
250.0
 30
0.0
 40
5.0
  0
LINE
  5
40E
330
5C3
100
AcDbEntity
  8
SIZE
  6
Continuous
 62
    30
100
AcDbLine
 10
-976.958154
 20
245.0
 30
0.0
 11
-976.958154
 21
240.0
 31
0.0
  0
POINT
  5
40F
330
5C3
100
AcDbEntity
  8
DEFPOINTS
  6
Continuous
 62
     7
100
AcDbPoint
 10
-340.636434
 20
190.0
 30
0.0
  0
POINT
  5
410
330
5C3
100
AcDbEntity
  8
DEFPOINTS
  6
Continuous
 62
     7
100
AcDbPoint
 10
-340.636434
 20
250.0
 30
0.0
  0
POINT
  5
411
330
5C3
100
AcDbEntity
  8
DEFPOINTS
  6
Continuous
 62
     7
100
AcDbPoint
 10
-976.958154
 20
250.0
 30
0.0
  0
LINE
  5
412
330
5C3
100
AcDbEntity
  8
SIZE
  6
Continuous
 62
    30
100
AcDbLine
 10
-373.275343
 20
505.0011809999999
 30
0.0
 11
-1188.341879
 21
505.0011809999999
 31
0.0
  0
LINE
  5
413
330
5C3
100
AcDbEntity
  8
SIZE
  6
Continuous
 62
    30
100
AcDbLine
 10
-371.0
 20
0.0
 30
0.0
 11
-1188.341879
 21
0.0
 31
0.0
  0
LINE
  5
414
330
5C3
100
AcDbEntity
  8
SIZE
  6
Continuous
 62
    30
100
AcDbLine
 10
-1158.341878999999
 20
495.0011809999998
 30
0.0
 11
-1158.341878999999
 21
10.0
 31
0.0
  0
CIRCLE
  5
415
330
5C3
100
AcDbEntity
  8
SIZE
  6
Continuous
 62
    30
100
AcDbCircle
 10
-1158.341878999999
 20
505.0011809999999
 30
0.0
 40
5.0
  0
LINE
  5
416
330
5C3
100
AcDbEntity
  8
SIZE
  6
Continuous
 62
    30
100
AcDbLine
 10
-1158.341878999999
 20
500.001181
 30
0.0
 11
-1158.341878999999
 21
495.0011809999998
 31
0.0
  0
CIRCLE
  5
417
330
5C3
100
AcDbEntity
  8
SIZE
  6
Continuous
 62
    30
100
AcDbCircle
 10
-1158.341878999999
 20
0.0
 30
0.0
 40
5.0
  0
LINE
  5
418
330
5C3
100
AcDbEntity
  8
SIZE
  6
Continuous
 62
    30
100
AcDbLine
 10
-1158.341878999999
 20
5.0
 30
0.0
 11
-1158.341878999999
 21
10.0
 31
0.0
  0
TEXT
  5
419
330
5C3
100
AcDbEntity
  8
SIZE
  6
Continuous
 62
    30
100
AcDbText
 10
-1178.341879
 20
178.4434481428571
 30
0.0
 40
64.0
  1
505
 50
90.0
 41
0.9
 72
     1
 11
-1178.341879
 21
252.500591
 31
0.0
100
AcDbText
  0
POINT
  5
41A
330
5C3
100
AcDbEntity
  8
DEFPOINTS
  6
Continuous
 62
     7
100
AcDbPoint
 10
-353.275343
 20
505.0011809999999
 30
0.0
  0
POINT
  5
41B
330
5C3
100
AcDbEntity
  8
DEFPOINTS
  6
Continuous
 62
     7
100
AcDbPoint
 10
-351.0
 20
0.0
 30
0.0
  0
POINT
  5
41C
330
5C3
100
AcDbEntity
  8
DEFPOINTS
  6
Continuous
 62
     7
100
AcDbPoint
 10
-1158.341878999999
 20
0.0
 30
0.0
  0
LINE
  5
41D
330
5C3
100
AcDbEntity
  8
SIZE
  6
Continuous
 62
    30
100
AcDbLine
 10
-370.138752
 20
0.0
 30
0.0
 11
-1374.905256
 21
0.0
 31
0.0
  0
LINE
  5
41E
330
5C3
100
AcDbEntity
  8
SIZE
  6
Continuous
 62
    30
100
AcDbLine
 10
-340.000024
 20
80.0
 30
0.0
 11
-1374.905256
 21
80.0
 31
0.0
  0
LINE
  5
41F
330
5C3
100
AcDbEntity
  8
SIZE
  6
Continuous
 62
    30
100
AcDbLine
 10
-1344.905256
 20
70.0
 30
0.0
 11
-1344.905256
 21
10.0
 31
0.0
  0
LINE
  5
420
330
5C3
100
AcDbEntity
  8
SIZE
  6
Continuous
 62
    30
100
AcDbLine
 10
-1344.905256
 20
0.0
 30
0.0
 11
-1344.905256
 21
-143.257143
 31
0.0
  0
CIRCLE
  5
421
330
5C3
100
AcDbEntity
  8
SIZE
  6
Continuous
 62
    30
100
AcDbCircle
 10
-1344.905256
 20
80.0
 30
0.0
 40
5.0
  0
LINE
  5
422
330
5C3
100
AcDbEntity
  8
SIZE
  6
Continuous
 62
    30
100
AcDbLine
 10
-1344.905256
 20
75.0
 30
0.0
 11
-1344.905256
 21
70.0
 31
0.0
  0
CIRCLE
  5
423
330
5C3
100
AcDbEntity
  8
SIZE
  6
Continuous
 62
    30
100
AcDbCircle
 10
-1344.905256
 20
0.0
 30
0.0
 40
5.0
  0
LINE
  5
424
330
5C3
100
AcDbEntity
  8
SIZE
  6
Continuous
 62
    30
100
AcDbLine
 10
-1344.905256
 20
5.0
 30
0.0
 11
-1344.905256
 21
10.0
 31
0.0
  0
TEXT
  5
425
330
5C3
100
AcDbEntity
  8
SIZE
  6
Continuous
 62
    30
100
AcDbText
 10
-1364.905256
 20
-123.2571424285714
 30
0.0
 40
64.0
  1
80
 50
90.0
 41
0.9
 72
     1
 11
-1364.905256
 21
-76.628571
 31
0.0
100
AcDbText
  0
POINT
  5
426
330
5C3
100
AcDbEntity
  8
DEFPOINTS
  6
Continuous
 62
     7
100
AcDbPoint
 10
-350.138752
 20
0.0
 30
0.0
  0
POINT
  5
427
330
5C3
100
AcDbEntity
  8
DEFPOINTS
  6
Continuous
 62
     7
100
AcDbPoint
 10
-320.000024
 20
80.0
 30
0.0
  0
POINT
  5
428
330
5C3
100
AcDbEntity
  8
DEFPOINTS
  6
Continuous
 62
     7
100
AcDbPoint
 10
-1344.905256
 20
80.0
 30
0.0
  0
LINE
  5
429
330
5C3
100
AcDbEntity
  8
SIZE
  6
Continuous
 62
    30
100
AcDbLine
 10
-340.000024
 20
80.0
 30
0.0
 11
-1374.905256
 21
80.0
 31
0.0
  0
LINE
  5
42A
330
5C3
100
AcDbEntity
  8
SIZE
  6
Continuous
 62
    30
100
AcDbLine
 10
-242.830383
 20
615.9976069999999
 30
0.0
 11
-1374.905256
 21
615.9976069999999
 31
0.0
  0
LINE
  5
42B
330
5C3
100
AcDbEntity
  8
SIZE
  6
Continuous
 62
    30
100
AcDbLine
 10
-1344.905256
 20
90.0
 30
0.0
 11
-1344.905256
 21
605.997607
 31
0.0
  0
CIRCLE
  5
42C
330
5C3
100
AcDbEntity
  8
SIZE
  6
Continuous
 62
    30
100
AcDbCircle
 10
-1344.905256
 20
80.0
 30
0.0
 40
5.0
  0
LINE
  5
42D
330
5C3
100
AcDbEntity
  8
SIZE
  6
Continuous
 62
    30
100
AcDbLine
 10
-1344.905256
 20
85.0
 30
0.0
 11
-1344.905256
 21
90.0
 31
0.0
  0
CIRCLE
  5
42E
330
5C3
100
AcDbEntity
  8
SIZE
  6
Continuous
 62
    30
100
AcDbCircle
 10
-1344.905256
 20
615.9976069999999
 30
0.0
 40
5.0
  0
LINE
  5
42F
330
5C3
100
AcDbEntity
  8
SIZE
  6
Continuous
 62
    30
100
AcDbLine
 10
-1344.905256
 20
610.997607
 30
0.0
 11
-1344.905256
 21
605.997607
 31
0.0
  0
TEXT
  5
430
330
5C3
100
AcDbEntity
  8
SIZE
  6
Continuous
 62
    30
100
AcDbText
 10
-1364.905256
 20
275.3130897142857
 30
0.0
 40
64.0
  1
536
 50
90.0
 41
0.9
 72
     1
 11
-1364.905256
 21
347.998804
 31
0.0
100
AcDbText
  0
POINT
  5
431
330
5C3
100
AcDbEntity
  8
DEFPOINTS
  6
Continuous
 62
     7
100
AcDbPoint
 10
-320.000024
 20
80.0
 30
0.0
  0
POINT
  5
432
330
5C3
100
AcDbEntity
  8
DEFPOINTS
  6
Continuous
 62
     7
100
AcDbPoint
 10
-222.830383
 20
615.9976069999999
 30
0.0
  0
POINT
  5
433
330
5C3
100
AcDbEntity
  8
DEFPOINTS
  6
Continuous
 62
     7
100
AcDbPoint
 10
-1344.905256
 20
615.9976069999999
 30
0.0
  0
LINE
  5
434
330
5C3
100
AcDbEntity
  8
SIZE
  6
Continuous
 62
    30
100
AcDbLine
 10
-242.830383
 20
615.9976069999999
 30
0.0
 11
-1374.905256
 21
615.9976069999999
 31
0.0
  0
LINE
  5
435
330
5C3
100
AcDbEntity
  8
SIZE
  6
Continuous
 62
    30
100
AcDbLine
 10
-232.833506
 20
1035.99643
 30
0.0
 11
-1374.905256
 21
1035.99643
 31
0.0
  0
LINE
  5
436
330
5C3
100
AcDbEntity
  8
SIZE
  6
Continuous
 62
    30
100
AcDbLine
 10
-1344.905256
 20
625.997607
 30
0.0
 11
-1344.905256
 21
1025.99643
 31
0.0
  0
CIRCLE
  5
437
330
5C3
100
AcDbEntity
  8
SIZE
  6
Continuous
 62
    30
100
AcDbCircle
 10
-1344.905256
 20
615.9976069999999
 30
0.0
 40
5.0
  0
LINE
  5
438
330
5C3
100
AcDbEntity
  8
SIZE
  6
Continuous
 62
    30
100
AcDbLine
 10
-1344.905256
 20
620.997607
 30
0.0
 11
-1344.905256
 21
625.997607
 31
0.0
  0
CIRCLE
  5
439
330
5C3
100
AcDbEntity
  8
SIZE
  6
Continuous
 62
    30
100
AcDbCircle
 10
-1344.905256
 20
1035.99643
 30
0.0
 40
5.0
  0
LINE
  5
43A
330
5C3
100
AcDbEntity
  8
SIZE
  6
Continuous
 62
    30
100
AcDbLine
 10
-1344.905256
 20
1030.99643
 30
0.0
 11
-1344.905256
 21
1025.99643
 31
0.0
  0
TEXT
  5
43B
330
5C3
100
AcDbEntity
  8
SIZE
  6
Continuous
 62
    30
100
AcDbText
 10
-1364.905256
 20
751.9398761428572
 30
0.0
 40
64.0
  1
420
 50
90.0
 41
0.9
 72
     1
 11
-1364.905256
 21
825.997019
 31
0.0
100
AcDbText
  0
POINT
  5
43C
330
5C3
100
AcDbEntity
  8
DEFPOINTS
  6
Continuous
 62
     7
100
AcDbPoint
 10
-222.830383
 20
615.9976069999999
 30
0.0
  0
POINT
  5
43D
330
5C3
100
AcDbEntity
  8
DEFPOINTS
  6
Continuous
 62
     7
100
AcDbPoint
 10
-212.833506
 20
1035.99643
 30
0.0
  0
POINT
  5
43E
330
5C3
100
AcDbEntity
  8
DEFPOINTS
  6
Continuous
 62
     7
100
AcDbPoint
 10
-1344.905256
 20
1035.99643
 30
0.0
  0
LINE
  5
43F
330
5C3
100
AcDbEntity
  8
SIZE
  6
Continuous
 62
    30
100
AcDbLine
 10
378.930719
 20
30.0
 30
0.0
 11
597.049104
 21
30.0
 31
0.0
  0
LINE
  5
440
330
5C3
100
AcDbEntity
  8
SIZE
  6
Continuous
 62
    30
100
AcDbLine
 10
371.0
 20
0.0
 30
0.0
 11
597.049104
 21
0.0
 31
0.0
  0
LINE
  5
441
330
5C3
100
AcDbEntity
  8
SIZE
  6
Continuous
 62
    30
100
AcDbLine
 10
567.049104
 20
40.0
 30
0.0
 11
567.049104
 21
50.0
 31
0.0
  0
LINE
  5
442
330
5C3
100
AcDbEntity
  8
SIZE
  6
Continuous
 62
    30
100
AcDbLine
 10
567.049104
 20
-10.0
 30
0.0
 11
567.049104
 21
-172.12103
 31
0.0
  0
LINE
  5
443
330
5C3
100
AcDbEntity
  8
SIZE
  6
Continuous
 62
    30
100
AcDbLine
 10
567.049104
 20
30.0
 30
0.0
 11
567.049104
 21
0.0
 31
0.0
  0
CIRCLE
  5
444
330
5C3
100
AcDbEntity
  8
SIZE
  6
Continuous
 62
    30
100
AcDbCircle
 10
567.049104
 20
30.0
 30
0.0
 40
5.0
  0
LINE
  5
445
330
5C3
100
AcDbEntity
  8
SIZE
  6
Continuous
 62
    30
100
AcDbLine
 10
567.049104
 20
35.0
 30
0.0
 11
567.049104
 21
40.0
 31
0.0
  0
CIRCLE
  5
446
330
5C3
100
AcDbEntity
  8
SIZE
  6
Continuous
 62
    30
100
AcDbCircle
 10
567.049104
 20
0.0
 30
0.0
 40
5.0
  0
LINE
  5
447
330
5C3
100
AcDbEntity
  8
SIZE
  6
Continuous
 62
    30
100
AcDbLine
 10
567.049104
 20
-5.0
 30
0.0
 11
567.049104
 21
-10.0
 31
0.0
  0
TEXT
  5
448
330
5C3
100
AcDbEntity
  8
SIZE
  6
Continuous
 62
    30
100
AcDbText
 10
547.049104
 20
-152.1210294285714
 30
0.0
 40
64.0
  1
30
 50
90.0
 41
0.9
 72
     1
 11
547.049104
 21
-105.492458
 31
0.0
100
AcDbText
  0
POINT
  5
449
330
5C3
100
AcDbEntity
  8
DEFPOINTS
  6
Continuous
 62
     7
100
AcDbPoint
 10
358.930719
 20
30.0
 30
0.0
  0
POINT
  5
44A
330
5C3
100
AcDbEntity
  8
DEFPOINTS
  6
Continuous
 62
     7
100
AcDbPoint
 10
351.0
 20
0.0
 30
0.0
  0
POINT
  5
44B
330
5C3
100
AcDbEntity
  8
DEFPOINTS
  6
Continuous
 62
     7
100
AcDbPoint
 10
567.049104
 20
0.0
 30
0.0
  0
LINE
  5
44C
330
5C3
100
AcDbEntity
  8
OUTLINE
  6
Continuous
 62
     3
100
AcDbLine
 10
-259.999976
 20
1625.0
 30
0.0
 11
170.000024
 21
1625.0
 31
0.0
  0
LINE
  5
44D
330
5C3
100
AcDbEntity
  8
SIZE
  6
Continuous
 62
    30
100
AcDbLine
 10
20.000024
 20
1645.0
 30
0.0
 11
20.000024
 21
1801.50315
 31
0.0
  0
LINE
  5
44E
330
5C3
100
AcDbEntity
  8
SIZE
  6
Continuous
 62
    30
100
AcDbLine
 10
150.000024
 20
1645.0
 30
0.0
 11
150.000024
 21
1801.50315
 31
0.0
  0
LINE
  5
44F
330
5C3
100
AcDbEntity
  8
SIZE
  6
Continuous
 62
    30
100
AcDbLine
 10
140.000024
 20
1771.50315
 30
0.0
 11
30.000024
 21
1771.50315
 31
0.0
  0
LINE
  5
450
330
5C3
100
AcDbEntity
  8
SIZE
  6
Continuous
 62
    30
100
AcDbLine
 10
20.000024
 20
1771.50315
 30
0.0
 11
-167.142833
 21
1771.50315
 31
0.0
  0
CIRCLE
  5
451
330
5C3
100
AcDbEntity
  8
SIZE
  6
Continuous
 62
    30
100
AcDbCircle
 10
150.000024
 20
1771.50315
 30
0.0
 40
5.0
  0
LINE
  5
452
330
5C3
100
AcDbEntity
  8
SIZE
  6
Continuous
 62
    30
100
AcDbLine
 10
145.000024
 20
1771.50315
 30
0.0
 11
140.000024
 21
1771.50315
 31
0.0
  0
CIRCLE
  5
453
330
5C3
100
AcDbEntity
  8
SIZE
  6
Continuous
 62
    30
100
AcDbCircle
 10
20.000024
 20
1771.50315
 30
0.0
 40
5.0
  0
LINE
  5
454
330
5C3
100
AcDbEntity
  8
SIZE
  6
Continuous
 62
    30
100
AcDbLine
 10
25.000024
 20
1771.50315
 30
0.0
 11
30.000024
 21
1771.50315
 31
0.0
  0
TEXT
  5
455
330
5C3
100
AcDbEntity
  8
SIZE
  6
Continuous
 62
    30
100
AcDbText
 10
-147.1428325714286
 20
1791.50315
 30
0.0
 40
64.0
  1
130
 41
0.9
 72
     1
 11
-78.571404
 21
1791.50315
 31
0.0
100
AcDbText
  0
POINT
  5
456
330
5C3
100
AcDbEntity
  8
DEFPOINTS
  6
Continuous
 62
     7
100
AcDbPoint
 10
20.000024
 20
1625.0
 30
0.0
  0
POINT
  5
457
330
5C3
100
AcDbEntity
  8
DEFPOINTS
  6
Continuous
 62
     7
100
AcDbPoint
 10
150.000024
 20
1625.0
 30
0.0
  0
POINT
  5
458
330
5C3
100
AcDbEntity
  8
DEFPOINTS
  6
Continuous
 62
     7
100
AcDbPoint
 10
150.000024
 20
1771.50315
 30
0.0
  0
LINE
  5
459
330
5C3
100
AcDbEntity
  8
SIZE
  6
Continuous
 62
    30
100
AcDbLine
 10
-259.999976
 20
1645.0
 30
0.0
 11
-259.999976
 21
2115.87099
 31
0.0
  0
LINE
  5
45A
330
5C3
100
AcDbEntity
  8
SIZE
  6
Continuous
 62
    30
100
AcDbLine
 10
170.000024
 20
1645.0
 30
0.0
 11
170.000024
 21
2115.87099
 31
0.0
  0
LINE
  5
45B
330
5C3
100
AcDbEntity
  8
SIZE
  6
Continuous
 62
    30
100
AcDbLine
 10
-249.999976
 20
2085.87099
 30
0.0
 11
160.000024
 21
2085.87099
 31
0.0
  0
CIRCLE
  5
45C
330
5C3
100
AcDbEntity
  8
SIZE
  6
Continuous
 62
    30
100
AcDbCircle
 10
-259.999976
 20
2085.87099
 30
0.0
 40
5.0
  0
LINE
  5
45D
330
5C3
100
AcDbEntity
  8
SIZE
  6
Continuous
 62
    30
100
AcDbLine
 10
-254.999976
 20
2085.87099
 30
0.0
 11
-249.999976
 21
2085.87099
 31
0.0
  0
CIRCLE
  5
45E
330
5C3
100
AcDbEntity
  8
SIZE
  6
Continuous
 62
    30
100
AcDbCircle
 10
170.000024
 20
2085.87099
 30
0.0
 40
5.0
  0
LINE
  5
45F
330
5C3
100
AcDbEntity
  8
SIZE
  6
Continuous
 62
    30
100
AcDbLine
 10
165.000024
 20
2085.87099
 30
0.0
 11
160.000024
 21
2085.87099
 31
0.0
  0
TEXT
  5
460
330
5C3
100
AcDbEntity
  8
SIZE
  6
Continuous
 62
    30
100
AcDbText
 10
-129.8493778571428
 20
2105.87099
 30
0.0
 40
64.0
  1
430
 41
0.9
 72
     1
 11
-55.792235
 21
2105.87099
 31
0.0
100
AcDbText
  0
POINT
  5
461
330
5C3
100
AcDbEntity
  8
DEFPOINTS
  6
Continuous
 62
     7
100
AcDbPoint
 10
-259.999976
 20
1625.0
 30
0.0
  0
POINT
  5
462
330
5C3
100
AcDbEntity
  8
DEFPOINTS
  6
Continuous
 62
     7
100
AcDbPoint
 10
170.000024
 20
1625.0
 30
0.0
  0
POINT
  5
463
330
5C3
100
AcDbEntity
  8
DEFPOINTS
  6
Continuous
 62
     7
100
AcDbPoint
 10
170.000024
 20
2085.87099
 30
0.0
  0
LINE
  5
464
330
5C3
100
AcDbEntity
  8
SIZE
  6
Continuous
 62
    30
100
AcDbLine
 10
-279.999976
 20
1645.0
 30
0.0
 11
-279.999976
 21
2393.302974
 31
0.0
  0
LINE
  5
465
330
5C3
100
AcDbEntity
  8
SIZE
  6
Continuous
 62
    30
100
AcDbLine
 10
190.000024
 20
1645.0
 30
0.0
 11
190.000024
 21
2393.302974
 31
0.0
  0
LINE
  5
466
330
5C3
100
AcDbEntity
  8
SIZE
  6
Continuous
 62
    30
100
AcDbLine
 10
-269.999976
 20
2363.302974
 30
0.0
 11
180.000024
 21
2363.302974
 31
0.0
  0
CIRCLE
  5
467
330
5C3
100
AcDbEntity
  8
SIZE
  6
Continuous
 62
    30
100
AcDbCircle
 10
-279.999976
 20
2363.302974
 30
0.0
 40
5.0
  0
LINE
  5
468
330
5C3
100
AcDbEntity
  8
SIZE
  6
Continuous
 62
    30
100
AcDbLine
 10
-274.999976
 20
2363.302974
 30
0.0
 11
-269.999976
 21
2363.302974
 31
0.0
  0
CIRCLE
  5
469
330
5C3
100
AcDbEntity
  8
SIZE
  6
Continuous
 62
    30
100
AcDbCircle
 10
190.000024
 20
2363.302974
 30
0.0
 40
5.0
  0
LINE
  5
46A
330
5C3
100
AcDbEntity
  8
SIZE
  6
Continuous
 62
    30
100
AcDbLine
 10
185.000024
 20
2363.302974
 30
0.0
 11
180.000024
 21
2363.302974
 31
0.0
  0
TEXT
  5
46B
330
5C3
100
AcDbEntity
  8
SIZE
  6
Continuous
 62
    30
100
AcDbText
 10
-105.4256118571428
 20
2383.302974
 30
0.0
 40
64.0
  1
470
 41
0.9
 72
     1
 11
-31.368469
 21
2383.302974
 31
0.0
100
AcDbText
  0
POINT
  5
46C
330
5C3
100
AcDbEntity
  8
DEFPOINTS
  6
Continuous
 62
     7
100
AcDbPoint
 10
-279.999976
 20
1625.0
 30
0.0
  0
POINT
  5
46D
330
5C3
100
AcDbEntity
  8
DEFPOINTS
  6
Continuous
 62
     7
100
AcDbPoint
 10
190.000024
 20
1625.0
 30
0.0
  0
POINT
  5
46E
330
5C3
100
AcDbEntity
  8
DEFPOINTS
  6
Continuous
 62
     7
100
AcDbPoint
 10
190.000024
 20
2363.302974
 30
0.0
  0
LINE
  5
46F
330
5C3
100
AcDbEntity
  8
NOTE
  6
Continuous
 62
     4
100
AcDbLine
 10
-271.999976
 20
1628.878594999999
 30
0.0
 11
-271.999976
 21
1621.121405
 31
0.0
  0
LINE
  5
470
330
5C3
100
AcDbEntity
  8
NOTE
  6
Continuous
 62
     4
100
AcDbLine
 10
-275.878571
 20
1625.0
 30
0.0
 11
-268.121381
 21
1625.0
 31
0.0
  0
LINE
  5
471
330
5C3
100
AcDbEntity
  8
NOTE
  6
Continuous
 62
     4
100
AcDbLine
 10
-239.999976
 20
1628.878594999999
 30
0.0
 11
-239.999976
 21
1621.121405
 31
0.0
  0
LINE
  5
472
330
5C3
100
AcDbEntity
  8
NOTE
  6
Continuous
 62
     4
100
AcDbLine
 10
-243.878571
 20
1625.0
 30
0.0
 11
-236.121381
 21
1625.0
 31
0.0
  0
LINE
  5
473
330
5C3
100
AcDbEntity
  8
NOTE
  6
Continuous
 62
     4
100
AcDbLine
 10
20.000024
 20
1628.878594999999
 30
0.0
 11
20.000024
 21
1621.121405
 31
0.0
  0
LINE
  5
474
330
5C3
100
AcDbEntity
  8
NOTE
  6
Continuous
 62
     4
100
AcDbLine
 10
16.121429
 20
1625.0
 30
0.0
 11
23.878619
 21
1625.0
 31
0.0
  0
LINE
  5
475
330
5C3
100
AcDbEntity
  8
NOTE
  6
Continuous
 62
     4
100
AcDbLine
 10
150.000024
 20
1628.878594999999
 30
0.0
 11
150.000024
 21
1621.121405
 31
0.0
  0
LINE
  5
476
330
5C3
100
AcDbEntity
  8
NOTE
  6
Continuous
 62
     4
100
AcDbLine
 10
146.121429
 20
1625.0
 30
0.0
 11
153.878619
 21
1625.0
 31
0.0
  0
LINE
  5
477
330
5C3
100
AcDbEntity
  8
NOTE
  6
Continuous
 62
     4
100
AcDbLine
 10
182.000024
 20
1628.878594999999
 30
0.0
 11
182.000024
 21
1621.121405
 31
0.0
  0
LINE
  5
478
330
5C3
100
AcDbEntity
  8
NOTE
  6
Continuous
 62
     4
100
AcDbLine
 10
178.121429
 20
1625.0
 30
0.0
 11
185.878619
 21
1625.0
 31
0.0
  0
LINE
  5
479
330
5C3
100
AcDbEntity
  8
NOTE
  6
Continuous
 62
     4
100
AcDbLine
 10
-113.878571
 20
1625.0
 30
0.0
 11
-106.121381
 21
1625.0
 31
0.0
  0
LINE
  5
47A
330
5C3
100
AcDbEntity
  8
NOTE
  6
Continuous
 62
     4
100
AcDbLine
 10
-109.999976
 20
1628.878594999999
 30
0.0
 11
-109.999976
 21
1621.121405
 31
0.0
  0
LINE
  5
47B
330
5C3
100
AcDbEntity
  8
SIZE
  6
Continuous
 62
    30
100
AcDbLine
 10
190.000024
 20
1645.0
 30
0.0
 11
190.000024
 21
1903.257518
 31
0.0
  0
LINE
  5
47C
330
5C3
100
AcDbEntity
  8
SIZE
  6
Continuous
 62
    30
100
AcDbLine
 10
182.000024
 20
1648.878595
 30
0.0
 11
182.000024
 21
1903.257518
 31
0.0
  0
LINE
  5
47D
330
5C3
100
AcDbEntity
  8
SIZE
  6
Continuous
 62
    30
100
AcDbLine
 10
172.000024
 20
1873.257518
 30
0.0
 11
162.000024
 21
1873.257518
 31
0.0
  0
LINE
  5
47E
330
5C3
100
AcDbEntity
  8
SIZE
  6
Continuous
 62
    30
100
AcDbLine
 10
200.000024
 20
1873.257518
 30
0.0
 11
288.400024
 21
1873.257518
 31
0.0
  0
LINE
  5
47F
330
5C3
100
AcDbEntity
  8
SIZE
  6
Continuous
 62
    30
100
AcDbLine
 10
182.000024
 20
1873.257518
 30
0.0
 11
190.000024
 21
1873.257518
 31
0.0
  0
CIRCLE
  5
480
330
5C3
100
AcDbEntity
  8
SIZE
  6
Continuous
 62
    30
100
AcDbCircle
 10
182.000024
 20
1873.257518
 30
0.0
 40
5.0
  0
LINE
  5
481
330
5C3
100
AcDbEntity
  8
SIZE
  6
Continuous
 62
    30
100
AcDbLine
 10
177.000024
 20
1873.257518
 30
0.0
 11
172.000024
 21
1873.257518
 31
0.0
  0
CIRCLE
  5
482
330
5C3
100
AcDbEntity
  8
SIZE
  6
Continuous
 62
    30
100
AcDbCircle
 10
190.000024
 20
1873.257518
 30
0.0
 40
5.0
  0
LINE
  5
483
330
5C3
100
AcDbEntity
  8
SIZE
  6
Continuous
 62
    30
100
AcDbLine
 10
195.000024
 20
1873.257518
 30
0.0
 11
200.000024
 21
1873.257518
 31
0.0
  0
TEXT
  5
484
330
5C3
100
AcDbEntity
  8
SIZE
  6
Continuous
 62
    30
100
AcDbText
 10
230.000024
 20
1893.257518
 30
0.0
 40
64.0
  1
8
 41
0.9
 72
     1
 11
249.200024
 21
1893.257518
 31
0.0
100
AcDbText
  0
POINT
  5
485
330
5C3
100
AcDbEntity
  8
DEFPOINTS
  6
Continuous
 62
     7
100
AcDbPoint
 10
190.000024
 20
1625.0
 30
0.0
  0
POINT
  5
486
330
5C3
100
AcDbEntity
  8
DEFPOINTS
  6
Continuous
 62
     7
100
AcDbPoint
 10
182.000024
 20
1628.878594999999
 30
0.0
  0
POINT
  5
487
330
5C3
100
AcDbEntity
  8
DEFPOINTS
  6
Continuous
 62
     7
100
AcDbPoint
 10
182.000024
 20
1873.257518
 30
0.0
  0
LINE
  5
488
330
5C3
100
AcDbEntity
  8
SIZE
  6
Continuous
 62
    30
100
AcDbLine
 10
182.000024
 20
1648.878595
 30
0.0
 11
182.000024
 21
1903.257518
 31
0.0
  0
LINE
  5
489
330
5C3
100
AcDbEntity
  8
SIZE
  6
Continuous
 62
    30
100
AcDbLine
 10
150.000024
 20
1648.878595
 30
0.0
 11
150.000024
 21
1903.257518
 31
0.0
  0
LINE
  5
48A
330
5C3
100
AcDbEntity
  8
SIZE
  6
Continuous
 62
    30
100
AcDbLine
 10
192.000024
 20
1873.257518
 30
0.0
 11
202.000024
 21
1873.257518
 31
0.0
  0
LINE
  5
48B
330
5C3
100
AcDbEntity
  8
SIZE
  6
Continuous
 62
    30
100
AcDbLine
 10
140.000024
 20
1873.257518
 30
0.0
 11
130.000024
 21
1873.257518
 31
0.0
  0
LINE
  5
48C
330
5C3
100
AcDbEntity
  8
SIZE
  6
Continuous
 62
    30
100
AcDbLine
 10
166.000024
 20
1873.257518
 30
0.0
 11
113.510365
 21
1959.679328
 31
0.0
  0
LINE
  5
48D
330
5C3
100
AcDbEntity
  8
SIZE
  6
Continuous
 62
    30
100
AcDbLine
 10
113.510365
 20
1959.679328
 30
0.0
 11
-19.746778
 21
1959.679328
 31
0.0
  0
TEXT
  5
48E
330
5C3
100
AcDbEntity
  8
SIZE
  6
Continuous
 62
    30
100
AcDbText
 10
0.2532225714285801
 20
1979.679328
 30
0.0
 40
64.0
  1
32
 41
0.9
 72
     1
 11
46.881794
 21
1979.679328
 31
0.0
100
AcDbText
  0
LINE
  5
48F
330
5C3
100
AcDbEntity
  8
SIZE
  6
Continuous
 62
    30
100
AcDbLine
 10
182.000024
 20
1873.257518
 30
0.0
 11
150.000024
 21
1873.257518
 31
0.0
  0
LINE
  5
490
330
5C3
100
AcDbEntity
  8
SIZE
  6
Continuous
 62
    30
100
AcDbLine
 10
182.000024
 20
1873.257518
 30
0.0
 11
150.000024
 21
1873.257518
 31
0.0
  0
CIRCLE
  5
491
330
5C3
100
AcDbEntity
  8
SIZE
  6
Continuous
 62
    30
100
AcDbCircle
 10
182.000024
 20
1873.257518
 30
0.0
 40
5.0
  0
LINE
  5
492
330
5C3
100
AcDbEntity
  8
SIZE
  6
Continuous
 62
    30
100
AcDbLine
 10
187.000024
 20
1873.257518
 30
0.0
 11
192.000024
 21
1873.257518
 31
0.0
  0
CIRCLE
  5
493
330
5C3
100
AcDbEntity
  8
SIZE
  6
Continuous
 62
    30
100
AcDbCircle
 10
150.000024
 20
1873.257518
 30
0.0
 40
5.0
  0
LINE
  5
494
330
5C3
100
AcDbEntity
  8
SIZE
  6
Continuous
 62
    30
100
AcDbLine
 10
145.000024
 20
1873.257518
 30
0.0
 11
140.000024
 21
1873.257518
 31
0.0
  0
POINT
  5
495
330
5C3
100
AcDbEntity
  8
DEFPOINTS
  6
Continuous
 62
     7
100
AcDbPoint
 10
182.000024
 20
1628.878594999999
 30
0.0
  0
POINT
  5
496
330
5C3
100
AcDbEntity
  8
DEFPOINTS
  6
Continuous
 62
     7
100
AcDbPoint
 10
150.000024
 20
1628.878594999999
 30
0.0
  0
POINT
  5
497
330
5C3
100
AcDbEntity
  8
DEFPOINTS
  6
Continuous
 62
     7
100
AcDbPoint
 10
150.000024
 20
1873.257518
 30
0.0
  0
LINE
  5
498
330
5C3
100
AcDbEntity
  8
SIZE
  6
Continuous
 62
    30
100
AcDbLine
 10
150.000024
 20
1648.878595
 30
0.0
 11
150.000024
 21
1903.257518
 31
0.0
  0
LINE
  5
499
330
5C3
100
AcDbEntity
  8
SIZE
  6
Continuous
 62
    30
100
AcDbLine
 10
-239.999976
 20
1645.0
 30
0.0
 11
-239.999976
 21
1903.257518
 31
0.0
  0
LINE
  5
49A
330
5C3
100
AcDbEntity
  8
SIZE
  6
Continuous
 62
    30
100
AcDbLine
 10
140.000024
 20
1873.257518
 30
0.0
 11
-229.999976
 21
1873.257518
 31
0.0
  0
LINE
  5
49B
330
5C3
100
AcDbEntity
  8
SIZE
  6
Continuous
 62
    30
100
AcDbLine
 10
-955.8312349999999
 20
1873.257518
 30
0.0
 11
-239.999976
 21
1873.257518
 31
0.0
  0
TEXT
  5
49C
330
5C3
100
AcDbEntity
  8
SIZE
  6
Continuous
 62
    30
100
AcDbText
 10
-947.8312349999999
 20
1898.019423
 30
0.0
 40
64.0
  1
3X130(=390)
 41
0.9
 72
     1
 11
-669.431235
 21
1898.019423
 31
0.0
100
AcDbText
  0
CIRCLE
  5
49D
330
5C3
100
AcDbEntity
  8
SIZE
  6
Continuous
 62
    30
100
AcDbCircle
 10
150.000024
 20
1873.257518
 30
0.0
 40
5.0
  0
LINE
  5
49E
330
5C3
100
AcDbEntity
  8
SIZE
  6
Continuous
 62
    30
100
AcDbLine
 10
145.000024
 20
1873.257518
 30
0.0
 11
140.000024
 21
1873.257518
 31
0.0
  0
CIRCLE
  5
49F
330
5C3
100
AcDbEntity
  8
SIZE
  6
Continuous
 62
    30
100
AcDbCircle
 10
-239.999976
 20
1873.257518
 30
0.0
 40
5.0
  0
LINE
  5
4A0
330
5C3
100
AcDbEntity
  8
SIZE
  6
Continuous
 62
    30
100
AcDbLine
 10
-234.999976
 20
1873.257518
 30
0.0
 11
-229.999976
 21
1873.257518
 31
0.0
  0
POINT
  5
4A1
330
5C3
100
AcDbEntity
  8
DEFPOINTS
  6
Continuous
 62
     7
100
AcDbPoint
 10
150.000024
 20
1628.878594999999
 30
0.0
  0
POINT
  5
4A2
330
5C3
100
AcDbEntity
  8
DEFPOINTS
  6
Continuous
 62
     7
100
AcDbPoint
 10
-239.999976
 20
1625.0
 30
0.0
  0
POINT
  5
4A3
330
5C3
100
AcDbEntity
  8
DEFPOINTS
  6
Continuous
 62
     7
100
AcDbPoint
 10
-239.999976
 20
1873.257518
 30
0.0
  0
LINE
  5
4A4
330
5C3
100
AcDbEntity
  8
SIZE
  6
Continuous
 62
    30
100
AcDbLine
 10
-271.999976
 20
1648.878595
 30
0.0
 11
-271.999976
 21
2258.410728000001
 31
0.0
  0
LINE
  5
4A5
330
5C3
100
AcDbEntity
  8
SIZE
  6
Continuous
 62
    30
100
AcDbLine
 10
182.000024
 20
1648.878595
 30
0.0
 11
182.000024
 21
2258.410728000001
 31
0.0
  0
LINE
  5
4A6
330
5C3
100
AcDbEntity
  8
SIZE
  6
Continuous
 62
    30
100
AcDbLine
 10
-261.999976
 20
2228.410728
 30
0.0
 11
172.000024
 21
2228.410728
 31
0.0
  0
CIRCLE
  5
4A7
330
5C3
100
AcDbEntity
  8
SIZE
  6
Continuous
 62
    30
100
AcDbCircle
 10
-271.999976
 20
2228.410728
 30
0.0
 40
5.0
  0
LINE
  5
4A8
330
5C3
100
AcDbEntity
  8
SIZE
  6
Continuous
 62
    30
100
AcDbLine
 10
-266.999976
 20
2228.410728
 30
0.0
 11
-261.999976
 21
2228.410728
 31
0.0
  0
CIRCLE
  5
4A9
330
5C3
100
AcDbEntity
  8
SIZE
  6
Continuous
 62
    30
100
AcDbCircle
 10
182.000024
 20
2228.410728
 30
0.0
 40
5.0
  0
LINE
  5
4AA
330
5C3
100
AcDbEntity
  8
SIZE
  6
Continuous
 62
    30
100
AcDbLine
 10
177.000024
 20
2228.410728
 30
0.0
 11
172.000024
 21
2228.410728
 31
0.0
  0
TEXT
  5
4AB
330
5C3
100
AcDbEntity
  8
SIZE
  6
Continuous
 62
    30
100
AcDbText
 10
-120.4285474285714
 20
2248.410728
 30
0.0
 40
64.0
  1
454
 41
0.9
 72
     1
 11
-44.999976
 21
2248.410728
 31
0.0
100
AcDbText
  0
POINT
  5
4AC
330
5C3
100
AcDbEntity
  8
DEFPOINTS
  6
Continuous
 62
     7
100
AcDbPoint
 10
-271.999976
 20
1628.878594999999
 30
0.0
  0
POINT
  5
4AD
330
5C3
100
AcDbEntity
  8
DEFPOINTS
  6
Continuous
 62
     7
100
AcDbPoint
 10
182.000024
 20
1628.878594999999
 30
0.0
  0
POINT
  5
4AE
330
5C3
100
AcDbEntity
  8
DEFPOINTS
  6
Continuous
 62
     7
100
AcDbPoint
 10
182.000024
 20
2228.410728
 30
0.0
  0
LINE
  5
4AF
330
5C3
100
AcDbEntity
  8
SIZE
  6
Continuous
 62
    30
100
AcDbLine
 10
182.000024
 20
1648.878595
 30
0.0
 11
182.000024
 21
2258.410728000001
 31
0.0
  0
LINE
  5
4B0
330
5C3
100
AcDbEntity
  8
SIZE
  6
Continuous
 62
    30
100
AcDbLine
 10
320.000024
 20
1570.0
 30
0.0
 11
320.000024
 21
2258.410728000001
 31
0.0
  0
LINE
  5
4B1
330
5C3
100
AcDbEntity
  8
SIZE
  6
Continuous
 62
    30
100
AcDbLine
 10
192.000024
 20
2228.410728
 30
0.0
 11
310.000024
 21
2228.410728
 31
0.0
  0
LINE
  5
4B2
330
5C3
100
AcDbEntity
  8
SIZE
  6
Continuous
 62
    30
100
AcDbLine
 10
508.0435549999998
 20
2228.410728
 30
0.0
 11
320.000024
 21
2228.410728
 31
0.0
  0
TEXT
  5
4B3
330
5C3
100
AcDbEntity
  8
SIZE
  6
Continuous
 62
    30
100
AcDbText
 10
350.9006984285713
 20
2248.410728
 30
0.0
 40
64.0
  1
138
 41
0.9
 72
     1
 11
419.4721269999998
 21
2248.410728
 31
0.0
100
AcDbText
  0
CIRCLE
  5
4B4
330
5C3
100
AcDbEntity
  8
SIZE
  6
Continuous
 62
    30
100
AcDbCircle
 10
182.000024
 20
2228.410728
 30
0.0
 40
5.0
  0
LINE
  5
4B5
330
5C3
100
AcDbEntity
  8
SIZE
  6
Continuous
 62
    30
100
AcDbLine
 10
187.000024
 20
2228.410728
 30
0.0
 11
192.000024
 21
2228.410728
 31
0.0
  0
CIRCLE
  5
4B6
330
5C3
100
AcDbEntity
  8
SIZE
  6
Continuous
 62
    30
100
AcDbCircle
 10
320.000024
 20
2228.410728
 30
0.0
 40
5.0
  0
LINE
  5
4B7
330
5C3
100
AcDbEntity
  8
SIZE
  6
Continuous
 62
    30
100
AcDbLine
 10
315.000024
 20
2228.410728
 30
0.0
 11
310.000024
 21
2228.410728
 31
0.0
  0
POINT
  5
4B8
330
5C3
100
AcDbEntity
  8
DEFPOINTS
  6
Continuous
 62
     7
100
AcDbPoint
 10
182.000024
 20
1628.878594999999
 30
0.0
  0
POINT
  5
4B9
330
5C3
100
AcDbEntity
  8
DEFPOINTS
  6
Continuous
 62
     7
100
AcDbPoint
 10
320.000024
 20
1550.0
 30
0.0
  0
POINT
  5
4BA
330
5C3
100
AcDbEntity
  8
DEFPOINTS
  6
Continuous
 62
     7
100
AcDbPoint
 10
320.000024
 20
2228.410728
 30
0.0
  0
LINE
  5
4BB
330
5C3
100
AcDbEntity
  8
NOTE
  6
Continuous
 62
     4
100
AcDbLine
 10
-423.1916209999998
 20
1780.141517
 30
0.0
 11
-271.999976
 21
1625.0
 31
0.0
  0
LINE
  5
4BC
330
5C3
100
AcDbEntity
  8
NOTE
  6
Continuous
 62
     4
100
AcDbLine
 10
-271.999976
 20
1625.0
 30
0.0
 11
-285.964764
 21
1649.915886
 31
0.0
  0
LINE
  5
4BD
330
5C3
100
AcDbEntity
  8
NOTE
  6
Continuous
 62
     4
100
AcDbLine
 10
-271.999976
 20
1625.0
 30
0.0
 11
-296.55178
 21
1639.595396
 31
0.0
  0
LINE
  5
4BE
330
5C3
100
AcDbEntity
  8
NOTE
  6
Continuous
 62
     4
100
AcDbLine
 10
-423.1916209999998
 20
1780.141517
 30
0.0
 11
-608.0780099999998
 21
1780.141517
 31
0.0
  0
TEXT
  5
4BF
330
5C3
100
AcDbEntity
  8
NOTE
  6
Continuous
 62
     4
100
AcDbText
 10
-586.2964269999999
 20
1789.544749
 30
0.0
 40
50.0
  1
14-%%C3
 50
0.000003
 41
0.6310000000000002
  7
STANDARD1
100
AcDbText
  0
LINE
  5
4C0
330
5C3
100
AcDbEntity
  8
SIZE
  6
Continuous
 62
    30
100
AcDbLine
 10
320.000024
 20
1570.0
 30
0.0
 11
320.000024
 21
2528.188418
 31
0.0
  0
LINE
  5
4C1
330
5C3
100
AcDbEntity
  8
SIZE
  6
Continuous
 62
    30
100
AcDbLine
 10
-320.000024
 20
1570.0
 30
0.0
 11
-320.000024
 21
2528.188418
 31
0.0
  0
LINE
  5
4C2
330
5C3
100
AcDbEntity
  8
SIZE
  6
Continuous
 62
    30
100
AcDbLine
 10
310.000024
 20
2498.188418
 30
0.0
 11
-310.000024
 21
2498.188418
 31
0.0
  0
CIRCLE
  5
4C3
330
5C3
100
AcDbEntity
  8
SIZE
  6
Continuous
 62
    30
100
AcDbCircle
 10
320.000024
 20
2498.188418
 30
0.0
 40
5.0
  0
LINE
  5
4C4
330
5C3
100
AcDbEntity
  8
SIZE
  6
Continuous
 62
    30
100
AcDbLine
 10
315.000024
 20
2498.188418
 30
0.0
 11
310.000024
 21
2498.188418
 31
0.0
  0
CIRCLE
  5
4C5
330
5C3
100
AcDbEntity
  8
SIZE
  6
Continuous
 62
    30
100
AcDbCircle
 10
-320.000024
 20
2498.188418
 30
0.0
 40
5.0
  0
LINE
  5
4C6
330
5C3
100
AcDbEntity
  8
SIZE
  6
Continuous
 62
    30
100
AcDbLine
 10
-315.000024
 20
2498.188418
 30
0.0
 11
-310.000024
 21
2498.188418
 31
0.0
  0
TEXT
  5
4C7
330
5C3
100
AcDbEntity
  8
SIZE
  6
Continuous
 62
    30
100
AcDbText
 10
-74.05714285714285
 20
2518.188418
 30
0.0
 40
64.0
  1
640
 41
0.9
 72
     1
 11
0.0
 21
2518.188418
 31
0.0
100
AcDbText
  0
POINT
  5
4C8
330
5C3
100
AcDbEntity
  8
DEFPOINTS
  6
Continuous
 62
     7
100
AcDbPoint
 10
320.000024
 20
1550.0
 30
0.0
  0
POINT
  5
4C9
330
5C3
100
AcDbEntity
  8
DEFPOINTS
  6
Continuous
 62
     7
100
AcDbPoint
 10
-320.000024
 20
1550.0
 30
0.0
  0
POINT
  5
4CA
330
5C3
100
AcDbEntity
  8
DEFPOINTS
  6
Continuous
 62
     7
100
AcDbPoint
 10
-320.000024
 20
2498.188418
 30
0.0
  0
LINE
  5
4CB
330
5C3
100
AcDbEntity
  8
SIZE
  6
Continuous
 62
    30
100
AcDbLine
 10
-320.000024
 20
1570.0
 30
0.0
 11
-320.000024
 21
2528.188418
 31
0.0
  0
LINE
  5
4CC
330
5C3
100
AcDbEntity
  8
SIZE
  6
Continuous
 62
    30
100
AcDbLine
 10
-353.000024
 20
76.125322
 30
0.0
 11
-353.000024
 21
2528.188418
 31
0.0
  0
LINE
  5
4CD
330
5C3
100
AcDbEntity
  8
SIZE
  6
Continuous
 62
    30
100
AcDbLine
 10
-310.000024
 20
2498.188418
 30
0.0
 11
-300.000024
 21
2498.188418
 31
0.0
  0
LINE
  5
4CE
330
5C3
100
AcDbEntity
  8
SIZE
  6
Continuous
 62
    30
100
AcDbLine
 10
-363.000024
 20
2498.188418
 30
0.0
 11
-373.000024
 21
2498.188418
 31
0.0
  0
LINE
  5
4CF
330
5C3
100
AcDbEntity
  8
SIZE
  6
Continuous
 62
    30
100
AcDbLine
 10
-606.919229
 20
2498.188418
 30
0.0
 11
-353.000024
 21
2498.188418
 31
0.0
  0
TEXT
  5
4D0
330
5C3
100
AcDbEntity
  8
SIZE
  6
Continuous
 62
    30
100
AcDbText
 10
-598.9192288571429
 20
2522.950323
 30
0.0
 40
64.0
  1
(33)
 41
0.9
 72
     1
 11
-515.262086
 21
2522.950323
 31
0.0
100
AcDbText
  0
LINE
  5
4D1
330
5C3
100
AcDbEntity
  8
SIZE
  6
Continuous
 62
    30
100
AcDbLine
 10
-320.000024
 20
2498.188418
 30
0.0
 11
-353.000024
 21
2498.188418
 31
0.0
  0
LINE
  5
4D2
330
5C3
100
AcDbEntity
  8
SIZE
  6
Continuous
 62
    30
100
AcDbLine
 10
-320.000024
 20
2498.188418
 30
0.0
 11
-353.000024
 21
2498.188418
 31
0.0
  0
CIRCLE
  5
4D3
330
5C3
100
AcDbEntity
  8
SIZE
  6
Continuous
 62
    30
100
AcDbCircle
 10
-320.000024
 20
2498.188418
 30
0.0
 40
5.0
  0
LINE
  5
4D4
330
5C3
100
AcDbEntity
  8
SIZE
  6
Continuous
 62
    30
100
AcDbLine
 10
-315.000024
 20
2498.188418
 30
0.0
 11
-310.000024
 21
2498.188418
 31
0.0
  0
CIRCLE
  5
4D5
330
5C3
100
AcDbEntity
  8
SIZE
  6
Continuous
 62
    30
100
AcDbCircle
 10
-353.000024
 20
2498.188418
 30
0.0
 40
5.0
  0
LINE
  5
4D6
330
5C3
100
AcDbEntity
  8
SIZE
  6
Continuous
 62
    30
100
AcDbLine
 10
-358.000024
 20
2498.188418
 30
0.0
 11
-363.000024
 21
2498.188418
 31
0.0
  0
POINT
  5
4D7
330
5C3
100
AcDbEntity
  8
DEFPOINTS
  6
Continuous
 62
     7
100
AcDbPoint
 10
-320.000024
 20
1550.0
 30
0.0
  0
POINT
  5
4D8
330
5C3
100
AcDbEntity
  8
DEFPOINTS
  6
Continuous
 62
     7
100
AcDbPoint
 10
-353.000024
 20
56.125322
 30
0.0
  0
POINT
  5
4D9
330
5C3
100
AcDbEntity
  8
DEFPOINTS
  6
Continuous
 62
     7
100
AcDbPoint
 10
-353.000024
 20
2498.188418
 30
0.0
  0
LINE
  5
4DA
330
5C3
100
AcDbEntity
  8
OUTLINE
  6
Continuous
 62
     3
100
AcDbLine
 10
311.0
 20
80.0
 30
0.0
 11
320.000024
 21
80.0
 31
0.0
  0
LINE
  5
4DB
330
5C3
100
AcDbEntity
  8
ARRANGE
  6
Continuous
 62
     1
100
AcDbLine
 10
-59.86223999999999
 20
59.86223999999999
 30
0.0
 11
59.86223999999999
 21
-59.86223999999999
 31
0.0
  0
LINE
  5
4DC
330
5C3
100
AcDbEntity
  8
ARRANGE
  6
Continuous
 62
     1
100
AcDbLine
 10
59.86223999999999
 20
59.86223999999999
 30
0.0
 11
-59.86223999999999
 21
-59.86223999999999
 31
0.0
  0
CIRCLE
  5
4DD
330
5C3
100
AcDbEntity
  8
ARRANGE
  6
Continuous
 62
     1
100
AcDbCircle
 10
0.0
 20
0.0
 30
0.0
 40
47.47290699999999
  0
ENDSEC
  0
SECTION
  2
OBJECTS
  0
DICTIONARY
  5
55B
330
0
100
AcDbDictionary
281
     1
  3
ACAD_COLOR
350
5B9
  3
ACAD_GROUP
350
55C
  3
ACAD_LAYOUT
350
5B8
  3
ACAD_MATERIAL
350
55F
  3
ACAD_MLEADERSTYLE
350
5BC
  3
ACAD_MLINESTYLE
350
5B5
  3
ACAD_PLOTSETTINGS
350
5B7
  3
ACAD_PLOTSTYLENAME
350
55D
  3
ACAD_SCALELIST
350
589
  3
ACAD_TABLESTYLE
350
5BA
  3
ACAD_VISUALSTYLE
350
578
  3
ACDB_RECOMPOSE_DATA
350
601
  3
AcDbVariableDictionary
350
5F8
  3
DWGPROPS
350
640
  0
DICTIONARY
  5
5E2
330
5AB
100
AcDbDictionary
280
     1
281
     1
  3
ADSK_XREC_LAYER_RECONCILED
360
5E3
  0
DICTIONARY
  5
5E4
330
5C7
100
AcDbDictionary
280
     1
281
     1
  3
ADSK_XREC_LAYER_RECONCILED
360
5E5
  0
DICTIONARY
  5
5E6
330
5CA
100
AcDbDictionary
280
     1
281
     1
  3
ADSK_XREC_LAYER_RECONCILED
360
5E7
  0
DICTIONARY
  5
5E8
330
5CB
100
AcDbDictionary
280
     1
281
     1
  3
ADSK_XREC_LAYER_RECONCILED
360
5E9
  0
DICTIONARY
  5
5EA
330
5CC
100
AcDbDictionary
280
     1
281
     1
  3
ADSK_XREC_LAYER_RECONCILED
360
5EB
  0
DICTIONARY
  5
5EC
330
5CD
100
AcDbDictionary
280
     1
281
     1
  3
ADSK_XREC_LAYER_RECONCILED
360
5ED
  0
DICTIONARY
  5
5EE
330
5CE
100
AcDbDictionary
280
     1
281
     1
  3
ADSK_XREC_LAYER_RECONCILED
360
5EF
  0
DICTIONARY
  5
5F0
330
5CF
100
AcDbDictionary
280
     1
281
     1
  3
ADSK_XREC_LAYER_RECONCILED
360
5F1
  0
DICTIONARY
  5
5F2
330
5D0
100
AcDbDictionary
280
     1
281
     1
  3
ADSK_XREC_LAYER_RECONCILED
360
5F3
  0
DICTIONARY
  5
5F4
330
5D1
100
AcDbDictionary
280
     1
281
     1
  3
ADSK_XREC_LAYER_RECONCILED
360
5F5
  0
DICTIONARY
  5
5F6
330
5D2
100
AcDbDictionary
280
     1
281
     1
  3
ADSK_XREC_LAYER_RECONCILED
360
5F7
  0
DICTIONARY
  5
5B9
102
{ACAD_REACTORS
330
55B
102
}
330
55B
100
AcDbDictionary
281
     1
  0
DICTIONARY
  5
55C
102
{ACAD_REACTORS
330
55B
102
}
330
55B
100
AcDbDictionary
281
     1
  0
DICTIONARY
  5
5B8
102
{ACAD_REACTORS
330
55B
102
}
330
55B
100
AcDbDictionary
281
     1
  3
Layout1
350
5C2
  3
Model
350
5C6
  0
DICTIONARY
  5
55F
102
{ACAD_REACTORS
330
55B
102
}
330
55B
100
AcDbDictionary
281
     1
  3
ByBlock
350
568
  3
ByLayer
350
560
  3
Global
350
570
  0
DICTIONARY
  5
5BC
102
{ACAD_REACTORS
330
55B
102
}
330
55B
100
AcDbDictionary
281
     1
  3
Standard
350
5BD
  0
DICTIONARY
  5
5B5
102
{ACAD_REACTORS
330
55B
102
}
330
55B
100
AcDbDictionary
281
     1
  3
Standard
350
5B6
  0
DICTIONARY
  5
5B7
102
{ACAD_REACTORS
330
55B
102
}
330
55B
100
AcDbDictionary
281
     1
  0
ACDBDICTIONARYWDFLT
  5
55D
102
{ACAD_REACTORS
330
55B
102
}
330
55B
100
AcDbDictionary
281
     1
  3
Normal
350
55E
100
AcDbDictionaryWithDefault
340
55E
  0
DICTIONARY
  5
589
102
{ACAD_REACTORS
330
55B
102
}
330
55B
100
AcDbDictionary
281
     1
  3
A0
350
58A
  3
A1
350
58B
  3
A2
350
58C
  3
A3
350
58D
  3
A4
350
58E
  3
A5
350
58F
  3
A6
350
590
  3
A7
350
591
  3
A8
350
592
  3
A9
350
593
  3
B0
350
594
  3
B1
350
595
  3
B2
350
596
  3
B3
350
597
  3
B4
350
598
  3
B5
350
599
  3
B6
350
59A
  3
B7
350
59B
  3
B8
350
59C
  3
B9
350
59D
  3
C0
350
59E
  3
C1
350
59F
  3
C2
350
5A0
  3
C3
350
5A1
  3
C4
350
5A2
  3
C5
350
5A3
  3
C6
350
5A4
  3
C7
350
5A5
  3
C8
350
5A6
  3
C9
350
5A7
  3
D0
350
5A8
  3
D1
350
5A9
  3
D2
350
5AA
  0
DICTIONARY
  5
5BA
102
{ACAD_REACTORS
330
55B
102
}
330
55B
100
AcDbDictionary
281
     1
  3
Standard
350
5BB
  0
DICTIONARY
  5
578
102
{ACAD_REACTORS
330
55B
102
}
330
55B
100
AcDbDictionary
281
     1
  3
2dWireframe
350
57E
  3
3D Hidden
350
580
  3
3dWireframe
350
57F
  3
Basic
350
57D
  3
Brighten
350
584
  3
ColorChange
350
588
  3
Conceptual
350
581
  3
Dim
350
583
  3
Facepattern
350
587
  3
Flat
350
579
  3
FlatWithEdges
350
57A
  3
Gouraud
350
57B
  3
GouraudWithEdges
350
57C
  3
Linepattern
350
586
  3
Realistic
350
582
  3
Thicken
350
585
  0
XRECORD
  5
601
102
{ACAD_REACTORS
330
55B
102
}
330
55B
100
AcDbXrecord
280
     1
 90
        1
330
5BB
  0
DICTIONARY
  5
5F8
102
{ACAD_REACTORS
330
55B
102
}
330
55B
100
AcDbDictionary
281
     1
  3
CANNOSCALE
350
5FB
  3
CMLEADERSTYLE
350
5FA
  3
CTABLESTYLE
350
5F9
  3
DIMASSOC
350
5FE
  3
INDEXCTL
350
5FD
  3
SORTENTS
350
5FC
  0
XRECORD
  5
640
102
{ACAD_REACTORS
330
55B
102
}
330
55B
100
AcDbXrecord
280
     1
  1
DWGPROPS COOKIE
  2

  3

  4

  6

  7

  8
lijl
  9

300
=
301
=
302
=
303
=
304
=
305
=
306
=
307
=
308
=
309
=
 40
4.230847291666666
 41
2449761.493622998
 42
2457977.583453136
  1

 90
        0
  0
XRECORD
  5
5E3
102
{ACAD_REACTORS
330
5E2
102
}
330
5E2
100
AcDbXrecord
280
     1
290
     1
  0
XRECORD
  5
5E5
102
{ACAD_REACTORS
330
5E4
102
}
330
5E4
100
AcDbXrecord
280
     1
290
     1
  0
XRECORD
  5
5E7
102
{ACAD_REACTORS
330
5E6
102
}
330
5E6
100
AcDbXrecord
280
     1
290
     1
  0
XRECORD
  5
5E9
102
{ACAD_REACTORS
330
5E8
102
}
330
5E8
100
AcDbXrecord
280
     1
290
     1
  0
XRECORD
  5
5EB
102
{ACAD_REACTORS
330
5EA
102
}
330
5EA
100
AcDbXrecord
280
     1
290
     1
  0
XRECORD
  5
5ED
102
{ACAD_REACTORS
330
5EC
102
}
330
5EC
100
AcDbXrecord
280
     1
290
     1
  0
XRECORD
  5
5EF
102
{ACAD_REACTORS
330
5EE
102
}
330
5EE
100
AcDbXrecord
280
     1
290
     1
  0
XRECORD
  5
5F1
102
{ACAD_REACTORS
330
5F0
102
}
330
5F0
100
AcDbXrecord
280
     1
290
     1
  0
XRECORD
  5
5F3
102
{ACAD_REACTORS
330
5F2
102
}
330
5F2
100
AcDbXrecord
280
     1
290
     1
  0
XRECORD
  5
5F5
102
{ACAD_REACTORS
330
5F4
102
}
330
5F4
100
AcDbXrecord
280
     1
290
     1
  0
XRECORD
  5
5F7
102
{ACAD_REACTORS
330
5F6
102
}
330
5F6
100
AcDbXrecord
280
     1
290
     1
  0
LAYOUT
  5
5C2
102
{ACAD_XDICTIONARY
360
642
102
}
102
{ACAD_REACTORS
330
5B8
102
}
330
5B8
100
AcDbPlotSettings
  1

  2
FX DocuWide 2050
  4

  6

 40
0.0
 41
0.0
 42
0.0
 43
0.0
 44
0.0
 45
0.0
 46
0.0
 47
0.0
 48
0.0
 49
0.0
140
0.0
141
0.0
142
1.0
143
1.0
 70
   688
 72
     0
 73
     0
 74
     5
  7

 75
    16
147
1.0
148
0.0
149
0.0
100
AcDbLayout
  1
Layout1
 70
     1
 71
     1
 10
0.0
 20
0.0
 11
12.0
 21
9.0
 12
0.0
 22
0.0
 32
0.0
 14
1.000000000000000E+20
 24
1.000000000000000E+20
 34
1.000000000000000E+20
 15
-1.000000000000000E+20
 25
-1.000000000000000E+20
 35
-1.000000000000000E+20
146
0.0
 13
0.0
 23
0.0
 33
0.0
 16
1.0
 26
0.0
 36
0.0
 17
0.0
 27
1.0
 37
0.0
 76
     0
330
5BF
  0
LAYOUT
  5
5C6
102
{ACAD_XDICTIONARY
360
644
102
}
102
{ACAD_REACTORS
330
5B8
102
}
330
5B8
100
AcDbPlotSettings
  1

  2
FX DocuWide 2050
  4

  6

 40
0.0
 41
0.0
 42
0.0
 43
0.0
 44
0.0
 45
0.0
 46
0.0
 47
0.0
 48
0.0
 49
0.0
140
0.0
141
0.0
142
1.0
143
1.0
 70
  1712
 72
     0
 73
     0
 74
     0
  7

 75
     0
147
1.0
148
0.0
149
0.0
100
AcDbLayout
  1
Model
 70
     1
 71
     0
 10
0.0
 20
0.0
 11
12.0
 21
9.0
 12
0.0
 22
0.0
 32
0.0
 14
0.0
 24
0.0
 34
0.0
 15
0.0
 25
0.0
 35
0.0
146
0.0
 13
0.0
 23
0.0
 33
0.0
 16
1.0
 26
0.0
 36
0.0
 17
0.0
 27
1.0
 37
0.0
 76
     0
330
5C3
331
5C8
  0
MATERIAL
  5
568
102
{ACAD_XDICTIONARY
360
569
102
}
102
{ACAD_REACTORS
330
55F
102
}
330
55F
100
AcDbMaterial
  1
ByBlock
 72
     0
 43
0.0208333333333333
 43
0.0
 43
0.0
 43
0.0
 43
0.0
 43
0.0208333333333333
 43
0.0
 43
0.0
 43
0.0
 43
0.0
 43
1.0
 43
0.0
 43
0.0
 43
0.0
 43
0.0
 43
1.0
 77
     0
 47
0.0208333333333333
 47
0.0
 47
0.0
 47
0.0
 47
0.0
 47
0.0208333333333333
 47
0.0
 47
0.0
 47
0.0
 47
0.0
 47
1.0
 47
0.0
 47
0.0
 47
0.0
 47
0.0
 47
1.0
171
     0
 49
0.0208333333333333
 49
0.0
 49
0.0
 49
0.0
 49
0.0
 49
0.0208333333333333
 49
0.0
 49
0.0
 49
0.0
 49
0.0
 49
1.0
 49
0.0
 49
0.0
 49
0.0
 49
0.0
 49
1.0
175
     0
142
0.0208333333333333
142
0.0
142
0.0
142
0.0
142
0.0
142
0.0208333333333333
142
0.0
142
0.0
142
0.0
142
0.0
142
1.0
142
0.0
142
0.0
142
0.0
142
0.0
142
1.0
179
     0
144
0.0208333333333333
144
0.0
144
0.0
144
0.0
144
0.0
144
0.0208333333333333
144
0.0
144
0.0
144
0.0
144
0.0
144
1.0
144
0.0
144
0.0
144
0.0
144
0.0
144
1.0
147
0.0208333333333333
147
0.0
147
0.0
147
0.0
147
0.0
147
0.0208333333333333
147
0.0
147
0.0
147
0.0
147
0.0
147
1.0
147
0.0
147
0.0
147
0.0
147
0.0
147
1.0
  0
MATERIAL
  5
560
102
{ACAD_XDICTIONARY
360
561
102
}
102
{ACAD_REACTORS
330
55F
102
}
330
55F
100
AcDbMaterial
  1
ByLayer
 72
     0
 43
0.0208333333333333
 43
0.0
 43
0.0
 43
0.0
 43
0.0
 43
0.0208333333333333
 43
0.0
 43
0.0
 43
0.0
 43
0.0
 43
1.0
 43
0.0
 43
0.0
 43
0.0
 43
0.0
 43
1.0
 77
     0
 47
0.0208333333333333
 47
0.0
 47
0.0
 47
0.0
 47
0.0
 47
0.0208333333333333
 47
0.0
 47
0.0
 47
0.0
 47
0.0
 47
1.0
 47
0.0
 47
0.0
 47
0.0
 47
0.0
 47
1.0
171
     0
 49
0.0208333333333333
 49
0.0
 49
0.0
 49
0.0
 49
0.0
 49
0.0208333333333333
 49
0.0
 49
0.0
 49
0.0
 49
0.0
 49
1.0
 49
0.0
 49
0.0
 49
0.0
 49
0.0
 49
1.0
175
     0
142
0.0208333333333333
142
0.0
142
0.0
142
0.0
142
0.0
142
0.0208333333333333
142
0.0
142
0.0
142
0.0
142
0.0
142
1.0
142
0.0
142
0.0
142
0.0
142
0.0
142
1.0
179
     0
144
0.0208333333333333
144
0.0
144
0.0
144
0.0
144
0.0
144
0.0208333333333333
144
0.0
144
0.0
144
0.0
144
0.0
144
1.0
144
0.0
144
0.0
144
0.0
144
0.0
144
1.0
147
0.0208333333333333
147
0.0
147
0.0
147
0.0
147
0.0
147
0.0208333333333333
147
0.0
147
0.0
147
0.0
147
0.0
147
1.0
147
0.0
147
0.0
147
0.0
147
0.0
147
1.0
  0
MATERIAL
  5
570
102
{ACAD_XDICTIONARY
360
571
102
}
102
{ACAD_REACTORS
330
55F
102
}
330
55F
100
AcDbMaterial
  1
Global
 72
     0
 43
0.0208333333333333
 43
0.0
 43
0.0
 43
0.0
 43
0.0
 43
0.0208333333333333
 43
0.0
 43
0.0
 43
0.0
 43
0.0
 43
1.0
 43
0.0
 43
0.0
 43
0.0
 43
0.0
 43
1.0
 77
     0
 47
0.0208333333333333
 47
0.0
 47
0.0
 47
0.0
 47
0.0
 47
0.0208333333333333
 47
0.0
 47
0.0
 47
0.0
 47
0.0
 47
1.0
 47
0.0
 47
0.0
 47
0.0
 47
0.0
 47
1.0
171
     0
 49
0.0208333333333333
 49
0.0
 49
0.0
 49
0.0
 49
0.0
 49
0.0208333333333333
 49
0.0
 49
0.0
 49
0.0
 49
0.0
 49
1.0
 49
0.0
 49
0.0
 49
0.0
 49
0.0
 49
1.0
175
     0
142
0.0208333333333333
142
0.0
142
0.0
142
0.0
142
0.0
142
0.0208333333333333
142
0.0
142
0.0
142
0.0
142
0.0
142
1.0
142
0.0
142
0.0
142
0.0
142
0.0
142
1.0
179
     0
144
0.0208333333333333
144
0.0
144
0.0
144
0.0
144
0.0
144
0.0208333333333333
144
0.0
144
0.0
144
0.0
144
0.0
144
1.0
144
0.0
144
0.0
144
0.0
144
0.0
144
1.0
147
0.0208333333333333
147
0.0
147
0.0
147
0.0
147
0.0
147
0.0208333333333333
147
0.0
147
0.0
147
0.0
147
0.0
147
1.0
147
0.0
147
0.0
147
0.0
147
0.0
147
1.0
  0
MLEADERSTYLE
  5
5BD
102
{ACAD_REACTORS
330
5BC
102
}
330
5BC
100
AcDbMLeaderStyle
170
     2
171
     1
172
     0
 90
        2
 40
0.0
 41
0.0
173
     1
 91
-1056964608
340
5B1
 92
       -2
290
     1
 42
0.09
291
     1
 43
0.36
  3
Standard
 44
0.18
300

342
5AC
174
     1
178
     6
175
     1
176
     0
 93
-1056964608
 45
0.18
292
     0
297
     0
 46
0.18
 94
-1056964608
 47
1.0
 49
1.0
140
1.0
293
     1
141
0.0
294
     1
177
     0
142
1.0
295
     0
296
     0
143
0.125
1001
ACAD_MLEADERVER
1070
     2
  0
MLINESTYLE
  5
5B6
102
{ACAD_REACTORS
330
5B5
102
}
330
5B5
100
AcDbMlineStyle
  2
STANDARD
 70
     0
  3

 62
   256
 51
90.0
 52
90.0
 71
     2
 49
0.5
 62
   256
  6
BYLAYER
 49
-0.5
 62
   256
  6
BYLAYER
  0
ACDBPLACEHOLDER
  5
55E
102
{ACAD_REACTORS
330
55D
102
}
330
55D
  0
SCALE
  5
58A
102
{ACAD_REACTORS
330
589
102
}
330
589
100
AcDbScale
 70
     0
300
1:1
140
1.0
141
1.0
290
     1
  0
SCALE
  5
58B
102
{ACAD_REACTORS
330
589
102
}
330
589
100
AcDbScale
 70
     0
300
1:2
140
1.0
141
2.0
290
     0
  0
SCALE
  5
58C
102
{ACAD_REACTORS
330
589
102
}
330
589
100
AcDbScale
 70
     0
300
1:4
140
1.0
141
4.0
290
     0
  0
SCALE
  5
58D
102
{ACAD_REACTORS
330
589
102
}
330
589
100
AcDbScale
 70
     0
300
1:5
140
1.0
141
5.0
290
     0
  0
SCALE
  5
58E
102
{ACAD_REACTORS
330
589
102
}
330
589
100
AcDbScale
 70
     0
300
1:8
140
1.0
141
8.0
290
     0
  0
SCALE
  5
58F
102
{ACAD_REACTORS
330
589
102
}
330
589
100
AcDbScale
 70
     0
300
1:10
140
1.0
141
10.0
290
     0
  0
SCALE
  5
590
102
{ACAD_REACTORS
330
589
102
}
330
589
100
AcDbScale
 70
     0
300
1:16
140
1.0
141
16.0
290
     0
  0
SCALE
  5
591
102
{ACAD_REACTORS
330
589
102
}
330
589
100
AcDbScale
 70
     0
300
1:20
140
1.0
141
20.0
290
     0
  0
SCALE
  5
592
102
{ACAD_REACTORS
330
589
102
}
330
589
100
AcDbScale
 70
     0
300
1:30
140
1.0
141
30.0
290
     0
  0
SCALE
  5
593
102
{ACAD_REACTORS
330
589
102
}
330
589
100
AcDbScale
 70
     0
300
1:40
140
1.0
141
40.0
290
     0
  0
SCALE
  5
594
102
{ACAD_REACTORS
330
589
102
}
330
589
100
AcDbScale
 70
     0
300
1:50
140
1.0
141
50.0
290
     0
  0
SCALE
  5
595
102
{ACAD_REACTORS
330
589
102
}
330
589
100
AcDbScale
 70
     0
300
1:100
140
1.0
141
100.0
290
     0
  0
SCALE
  5
596
102
{ACAD_REACTORS
330
589
102
}
330
589
100
AcDbScale
 70
     0
300
2:1
140
2.0
141
1.0
290
     0
  0
SCALE
  5
597
102
{ACAD_REACTORS
330
589
102
}
330
589
100
AcDbScale
 70
     0
300
4:1
140
4.0
141
1.0
290
     0
  0
SCALE
  5
598
102
{ACAD_REACTORS
330
589
102
}
330
589
100
AcDbScale
 70
     0
300
8:1
140
8.0
141
1.0
290
     0
  0
SCALE
  5
599
102
{ACAD_REACTORS
330
589
102
}
330
589
100
AcDbScale
 70
     0
300
10:1
140
10.0
141
1.0
290
     0
  0
SCALE
  5
59A
102
{ACAD_REACTORS
330
589
102
}
330
589
100
AcDbScale
 70
     0
300
100:1
140
100.0
141
1.0
290
     0
  0
SCALE
  5
59B
102
{ACAD_REACTORS
330
589
102
}
330
589
100
AcDbScale
 70
     0
300
1/128" = 1'-0"
140
0.0078125
141
12.0
290
     0
  0
SCALE
  5
59C
102
{ACAD_REACTORS
330
589
102
}
330
589
100
AcDbScale
 70
     0
300
1/64" = 1'-0"
140
0.015625
141
12.0
290
     0
  0
SCALE
  5
59D
102
{ACAD_REACTORS
330
589
102
}
330
589
100
AcDbScale
 70
     0
300
1/32" = 1'-0"
140
0.03125
141
12.0
290
     0
  0
SCALE
  5
59E
102
{ACAD_REACTORS
330
589
102
}
330
589
100
AcDbScale
 70
     0
300
1/16" = 1'-0"
140
0.0625
141
12.0
290
     0
  0
SCALE
  5
59F
102
{ACAD_REACTORS
330
589
102
}
330
589
100
AcDbScale
 70
     0
300
3/32" = 1'-0"
140
0.09375
141
12.0
290
     0
  0
SCALE
  5
5A0
102
{ACAD_REACTORS
330
589
102
}
330
589
100
AcDbScale
 70
     0
300
1/8" = 1'-0"
140
0.125
141
12.0
290
     0
  0
SCALE
  5
5A1
102
{ACAD_REACTORS
330
589
102
}
330
589
100
AcDbScale
 70
     0
300
3/16" = 1'-0"
140
0.1875
141
12.0
290
     0
  0
SCALE
  5
5A2
102
{ACAD_REACTORS
330
589
102
}
330
589
100
AcDbScale
 70
     0
300
1/4" = 1'-0"
140
0.25
141
12.0
290
     0
  0
SCALE
  5
5A3
102
{ACAD_REACTORS
330
589
102
}
330
589
100
AcDbScale
 70
     0
300
3/8" = 1'-0"
140
0.375
141
12.0
290
     0
  0
SCALE
  5
5A4
102
{ACAD_REACTORS
330
589
102
}
330
589
100
AcDbScale
 70
     0
300
1/2" = 1'-0"
140
0.5
141
12.0
290
     0
  0
SCALE
  5
5A5
102
{ACAD_REACTORS
330
589
102
}
330
589
100
AcDbScale
 70
     0
300
3/4" = 1'-0"
140
0.75
141
12.0
290
     0
  0
SCALE
  5
5A6
102
{ACAD_REACTORS
330
589
102
}
330
589
100
AcDbScale
 70
     0
300
1" = 1'-0"
140
1.0
141
12.0
290
     0
  0
SCALE
  5
5A7
102
{ACAD_REACTORS
330
589
102
}
330
589
100
AcDbScale
 70
     0
300
1-1/2" = 1'-0"
140
1.5
141
12.0
290
     0
  0
SCALE
  5
5A8
102
{ACAD_REACTORS
330
589
102
}
330
589
100
AcDbScale
 70
     0
300
3" = 1'-0"
140
3.0
141
12.0
290
     0
  0
SCALE
  5
5A9
102
{ACAD_REACTORS
330
589
102
}
330
589
100
AcDbScale
 70
     0
300
6" = 1'-0"
140
6.0
141
12.0
290
     0
  0
SCALE
  5
5AA
102
{ACAD_REACTORS
330
589
102
}
330
589
100
AcDbScale
 70
     0
300
1'-0" = 1'-0"
140
12.0
141
12.0
290
     0
  0
TABLESTYLE
  5
5BB
102
{ACAD_XDICTIONARY
360
5FF
102
}
102
{ACAD_REACTORS
330
5BA
102
}
330
5BA
100
AcDbTableStyle
  3
Standard
 70
     0
 71
     0
 40
0.06
 41
0.06
280
     0
281
     0
  7
STANDARD
140
0.18
170
     2
 62
     0
 63
     7
283
     0
274
    -2
284
     1
 64
     0
275
    -2
285
     1
 65
     0
276
    -2
286
     1
 66
     0
277
    -2
287
     1
 67
     0
278
    -2
288
     1
 68
     0
279
    -2
289
     1
 69
     0
  7
STANDARD
140
0.25
170
     5
 62
     0
 63
     7
283
     0
274
    -2
284
     1
 64
     0
275
    -2
285
     1
 65
     0
276
    -2
286
     1
 66
     0
277
    -2
287
     1
 67
     0
278
    -2
288
     1
 68
     0
279
    -2
289
     1
 69
     0
  7
STANDARD
140
0.18
170
     5
 62
     0
 63
     7
283
     0
274
    -2
284
     1
 64
     0
275
    -2
285
     1
 65
     0
276
    -2
286
     1
 66
     0
277
    -2
287
     1
 67
     0
278
    -2
288
     1
 68
     0
279
    -2
289
     1
 69
     0
  0
VISUALSTYLE
  5
57E
102
{ACAD_REACTORS
330
578
102
}
330
578
100
AcDbVisualStyle
  2
2dWireframe
 70
     4
 71
     0
 72
     2
 73
     0
 90
        0
 40
-0.6
 41
-30.0
 62
     5
 63
     7
 74
     1
 91
        4
 64
     7
 65
   257
 75
     1
175
     1
 42
1.0
 92
        0
 66
   257
 43
1.0
 76
     1
 77
     6
 78
     2
 67
     7
 79
     5
170
     0
171
     0
290
     0
174
     0
 93
        1
 44
0.0
173
     0
291
     0
 45
0.0
1001
ACAD
1000
AcDbSavedByObjectVersion
1070
     0
1000
AcDbSavedByObjectVersion
1070
     0
  0
VISUALSTYLE
  5
580
102
{ACAD_REACTORS
330
578
102
}
330
578
100
AcDbVisualStyle
  2
3D Hidden
 70
     6
 71
     1
 72
     2
 73
     2
 90
        0
 40
-0.6
 41
-30.0
 62
     5
 63
     7
 74
     2
 91
        2
 64
     7
 65
   257
 75
     2
175
     1
 42
40.0
 92
        0
 66
   257
 43
1.0
 76
     1
 77
     6
 78
     2
 67
     7
 79
     3
170
     0
171
     0
290
     0
174
     0
 93
        1
 44
0.0
173
     0
291
     0
 45
0.0
1001
ACAD
1000
AcDbSavedByObjectVersion
1070
     0
1000
AcDbSavedByObjectVersion
1070
     0
  0
VISUALSTYLE
  5
57F
102
{ACAD_REACTORS
330
578
102
}
330
578
100
AcDbVisualStyle
  2
3dWireframe
 70
     5
 71
     0
 72
     2
 73
     0
 90
        0
 40
-0.6
 41
-30.0
 62
     5
 63
     7
 74
     1
 91
        4
 64
     7
 65
   257
 75
     1
175
     1
 42
1.0
 92
        0
 66
   257
 43
1.0
 76
     1
 77
     6
 78
     2
 67
     7
 79
     5
170
     0
171
     0
290
     0
174
     0
 93
        1
 44
0.0
173
     0
291
     0
 45
0.0
1001
ACAD
1000
AcDbSavedByObjectVersion
1070
     0
1000
AcDbSavedByObjectVersion
1070
     0
  0
VISUALSTYLE
  5
57D
102
{ACAD_REACTORS
330
578
102
}
330
578
100
AcDbVisualStyle
  2
Basic
 70
     7
 71
     1
 72
     0
 73
     1
 90
        0
 40
-0.6
 41
-30.0
 62
     5
 63
     7
 74
     0
 91
        4
 64
     7
 65
   257
 75
     1
175
     1
 42
1.0
 92
        8
 66
     7
 43
1.0
 76
     1
 77
     6
 78
     2
 67
     7
 79
     5
170
     0
171
     0
290
     0
174
     0
 93
        1
 44
0.0
173
     0
291
     1
 45
0.0
1001
ACAD
1000
AcDbSavedByObjectVersion
1070
     0
1000
AcDbSavedByObjectVersion
1070
     0
  0
VISUALSTYLE
  5
584
102
{ACAD_REACTORS
330
578
102
}
330
578
100
AcDbVisualStyle
  2
Brighten
 70
    12
 71
     2
 72
     2
 73
     0
 90
        0
 40
-0.6
 41
-30.0
 62
     5
 63
     7
 74
     1
 91
        4
 64
     7
 65
   257
 75
     1
175
     1
 42
1.0
 92
        8
 66
     7
 43
1.0
 76
     1
 77
     6
 78
     2
 67
     7
 79
     5
170
     0
171
     0
290
     0
174
     0
 93
        1
 44
50.0
173
     0
291
     1
 45
0.0
1001
ACAD
1000
AcDbSavedByObjectVersion
1070
     0
1000
AcDbSavedByObjectVersion
1070
     0
  0
VISUALSTYLE
  5
588
102
{ACAD_REACTORS
330
578
102
}
330
578
100
AcDbVisualStyle
  2
ColorChange
 70
    16
 71
     2
 72
     2
 73
     3
 90
        0
 40
-0.6
 41
-30.0
 62
     5
 63
     8
 74
     1
 91
        4
 64
     7
 65
   257
 75
     1
175
     1
 42
1.0
 92
        8
 66
     8
 43
1.0
 76
     1
 77
     6
 78
     2
 67
     7
 79
     5
170
     0
171
     0
290
     0
174
     0
 93
        1
 44
0.0
173
     0
291
     1
 45
0.0
1001
ACAD
1000
AcDbSavedByObjectVersion
1070
     0
1000
AcDbSavedByObjectVersion
1070
     0
  0
VISUALSTYLE
  5
581
102
{ACAD_REACTORS
330
578
102
}
330
578
100
AcDbVisualStyle
  2
Conceptual
 70
     9
 71
     3
 72
     2
 73
     0
 90
        0
 40
-0.6
 41
-30.0
 62
     5
 63
     7
 74
     2
 91
        2
 64
     7
 65
   257
 75
     1
175
     1
 42
40.0
 92
        8
 66
     7
 43
1.0
 76
     1
 77
     6
 78
     2
 67
     7
 79
     3
170
     0
171
     0
290
     0
174
     0
 93
        1
 44
0.0
173
     0
291
     0
 45
0.0
1001
ACAD
1000
AcDbSavedByObjectVersion
1070
     0
1000
AcDbSavedByObjectVersion
1070
     0
  0
VISUALSTYLE
  5
583
102
{ACAD_REACTORS
330
578
102
}
330
578
100
AcDbVisualStyle
  2
Dim
 70
    11
 71
     2
 72
     2
 73
     0
 90
        0
 40
-0.6
 41
-30.0
 62
     5
 63
     7
 74
     1
 91
        4
 64
     7
 65
   257
 75
     1
175
     1
 42
1.0
 92
        8
 66
     7
 43
1.0
 76
     1
 77
     6
 78
     2
 67
     7
 79
     5
170
     0
171
     0
290
     0
174
     0
 93
        1
 44
-50.0
173
     0
291
     1
 45
0.0
1001
ACAD
1000
AcDbSavedByObjectVersion
1070
     0
1000
AcDbSavedByObjectVersion
1070
     0
  0
VISUALSTYLE
  5
587
102
{ACAD_REACTORS
330
578
102
}
330
578
100
AcDbVisualStyle
  2
Facepattern
 70
    15
 71
     2
 72
     2
 73
     0
 90
        0
 40
-0.6
 41
-30.0
 62
     5
 63
     7
 74
     1
 91
        4
 64
     7
 65
   257
 75
     1
175
     1
 42
1.0
 92
        8
 66
     7
 43
1.0
 76
     1
 77
     6
 78
     2
 67
     7
 79
     5
170
     0
171
     0
290
     0
174
     0
 93
        1
 44
0.0
173
     0
291
     1
 45
0.0
1001
ACAD
1000
AcDbSavedByObjectVersion
1070
     0
1000
AcDbSavedByObjectVersion
1070
     0
  0
VISUALSTYLE
  5
579
102
{ACAD_REACTORS
330
578
102
}
330
578
100
AcDbVisualStyle
  2
Flat
 70
     0
 71
     2
 72
     1
 73
     1
 90
        2
 40
-0.6
 41
30.0
 62
     5
 63
     7
 74
     0
 91
        4
 64
     7
 65
   257
 75
     1
175
     1
 42
1.0
 92
        8
 66
     7
 43
1.0
 76
     1
 77
     6
 78
     2
 67
     7
 79
     5
170
     0
171
     0
290
     0
174
     0
 93
       13
 44
0.0
173
     0
291
     1
 45
0.0
1001
ACAD
1000
AcDbSavedByObjectVersion
1070
     0
1000
AcDbSavedByObjectVersion
1070
     0
  0
VISUALSTYLE
  5
57A
102
{ACAD_REACTORS
330
578
102
}
330
578
100
AcDbVisualStyle
  2
FlatWithEdges
 70
     1
 71
     2
 72
     1
 73
     1
 90
        2
 40
-0.6
 41
30.0
 62
     5
 63
     7
 74
     1
 91
        4
 64
     7
 65
   257
 75
     1
175
     1
 42
1.0
 92
        0
 66
   257
 43
1.0
 76
     1
 77
     6
 78
     2
 67
     7
 79
     5
170
     0
171
     0
290
     0
174
     0
 93
       13
 44
0.0
173
     0
291
     1
 45
0.0
1001
ACAD
1000
AcDbSavedByObjectVersion
1070
     0
1000
AcDbSavedByObjectVersion
1070
     0
  0
VISUALSTYLE
  5
57B
102
{ACAD_REACTORS
330
578
102
}
330
578
100
AcDbVisualStyle
  2
Gouraud
 70
     2
 71
     2
 72
     2
 73
     1
 90
        2
 40
-0.6
 41
30.0
 62
     5
 63
     7
 74
     0
 91
        4
 64
     7
 65
   257
 75
     1
175
     1
 42
1.0
 92
        0
 66
     7
 43
1.0
 76
     1
 77
     6
 78
     2
 67
     7
 79
     5
170
     0
171
     0
290
     0
174
     0
 93
       13
 44
0.0
173
     0
291
     1
 45
0.0
1001
ACAD
1000
AcDbSavedByObjectVersion
1070
     0
1000
AcDbSavedByObjectVersion
1070
     0
  0
VISUALSTYLE
  5
57C
102
{ACAD_REACTORS
330
578
102
}
330
578
100
AcDbVisualStyle
  2
GouraudWithEdges
 70
     3
 71
     2
 72
     2
 73
     1
 90
        2
 40
-0.6
 41
30.0
 62
     5
 63
     7
 74
     1
 91
        4
 64
     7
 65
   257
 75
     1
175
     1
 42
1.0
 92
        0
 66
   257
 43
1.0
 76
     1
 77
     6
 78
     2
 67
     7
 79
     5
170
     0
171
     0
290
     0
174
     0
 93
       13
 44
0.0
173
     0
291
     1
 45
0.0
1001
ACAD
1000
AcDbSavedByObjectVersion
1070
     0
1000
AcDbSavedByObjectVersion
1070
     0
  0
VISUALSTYLE
  5
586
102
{ACAD_REACTORS
330
578
102
}
330
578
100
AcDbVisualStyle
  2
Linepattern
 70
    14
 71
     2
 72
     2
 73
     0
 90
        0
 40
-0.6
 41
-30.0
 62
     5
 63
     7
 74
     1
 91
        4
 64
     7
 65
   257
 75
     7
175
     7
 42
1.0
 92
        8
 66
     7
 43
1.0
 76
     1
 77
     6
 78
     2
 67
     7
 79
     5
170
     0
171
     0
290
     0
174
     0
 93
        1
 44
0.0
173
     0
291
     1
 45
0.0
1001
ACAD
1000
AcDbSavedByObjectVersion
1070
     0
1000
AcDbSavedByObjectVersion
1070
     0
  0
VISUALSTYLE
  5
582
102
{ACAD_REACTORS
330
578
102
}
330
578
100
AcDbVisualStyle
  2
Realistic
 70
     8
 71
     2
 72
     2
 73
     0
 90
        0
 40
-0.6
 41
-30.0
 62
     5
 63
     7
 74
     1
 91
        0
 64
     7
 65
   257
 75
     1
175
     1
 42
1.0
 92
        8
 66
     8
 43
1.0
 76
     1
 77
     6
 78
     2
 67
     7
 79
     5
170
     0
171
     0
290
     0
174
     0
 93
       13
 44
0.0
173
     0
291
     0
 45
0.0
1001
ACAD
1000
AcDbSavedByObjectVersion
1070
     0
1000
AcDbSavedByObjectVersion
1070
     0
  0
VISUALSTYLE
  5
585
102
{ACAD_REACTORS
330
578
102
}
330
578
100
AcDbVisualStyle
  2
Thicken
 70
    13
 71
     2
 72
     2
 73
     0
 90
        0
 40
-0.6
 41
-30.0
 62
     5
 63
     7
 74
     1
 91
        4
 64
     7
 65
   257
 75
     1
175
     1
 42
1.0
 92
       12
 66
     7
 43
1.0
 76
     1
 77
     6
 78
     2
 67
     7
 79
     5
170
     0
171
     0
290
     0
174
     0
 93
        1
 44
0.0
173
     0
291
     1
 45
0.0
1001
ACAD
1000
AcDbSavedByObjectVersion
1070
     0
1000
AcDbSavedByObjectVersion
1070
     0
  0
DICTIONARYVAR
  5
5FB
102
{ACAD_REACTORS
330
5F8
102
}
330
5F8
100
DictionaryVariables
280
     0
  1
1:1
  0
DICTIONARYVAR
  5
5FA
102
{ACAD_REACTORS
330
5F8
102
}
330
5F8
100
DictionaryVariables
280
     0
  1
STANDARD
  0
DICTIONARYVAR
  5
5F9
102
{ACAD_REACTORS
330
5F8
102
}
330
5F8
100
DictionaryVariables
280
     0
  1
STANDARD
  0
DICTIONARYVAR
  5
5FE
102
{ACAD_REACTORS
330
5F8
102
}
330
5F8
100
DictionaryVariables
280
     0
  1
1
  0
DICTIONARYVAR
  5
5FD
102
{ACAD_REACTORS
330
5F8
102
}
330
5F8
100
DictionaryVariables
280
     0
  1
0
  0
DICTIONARYVAR
  5
5FC
102
{ACAD_REACTORS
330
5F8
102
}
330
5F8
100
DictionaryVariables
280
     0
  1
127
  0
DICTIONARY
  5
642
330
5C2
100
AcDbDictionary
280
     1
281
     1
  3
ACAD_XREC_ROUNDTRIP
360
643
  0
DICTIONARY
  5
644
330
5C6
100
AcDbDictionary
280
     1
281
     1
  3
ACAD_XREC_ROUNDTRIP
360
645
  0
DICTIONARY
  5
569
330
568
100
AcDbDictionary
280
     1
281
     1
  3
ACAD_XREC_ROUNDTRIP
360
604
  3
BUMPTILE
360
56B
  3
DIFFUSETILE
360
56A
  3
OPACITYTILE
360
56E
  3
REFLECTIONTILE
360
56D
  3
REFRACTIONTILE
360
56F
  3
SPECULARTILE
360
56C
  0
DICTIONARY
  5
561
330
560
100
AcDbDictionary
280
     1
281
     1
  3
ACAD_XREC_ROUNDTRIP
360
603
  3
BUMPTILE
360
563
  3
DIFFUSETILE
360
562
  3
OPACITYTILE
360
566
  3
REFLECTIONTILE
360
565
  3
REFRACTIONTILE
360
567
  3
SPECULARTILE
360
564
  0
DICTIONARY
  5
571
330
570
100
AcDbDictionary
280
     1
281
     1
  3
ACAD_XREC_ROUNDTRIP
360
605
  3
BUMPTILE
360
573
  3
DIFFUSETILE
360
572
  3
OPACITYTILE
360
576
  3
REFLECTIONTILE
360
575
  3
REFRACTIONTILE
360
577
  3
SPECULARTILE
360
574
  0
DICTIONARY
  5
5FF
330
5BB
100
AcDbDictionary
280
     1
281
     1
  3
ACAD_ROUNDTRIP_2008_TABLESTYLE_CELLSTYLEMAP
360
63F
  3
ACAD_XREC_ROUNDTRIP
360
641
  0
XRECORD
  5
643
102
{ACAD_REACTORS
330
642
102
}
330
642
100
AcDbXrecord
280
     1
102
SHADEPLOT
 70
     0
102
SHADEPLOTRESLEVEL
 70
     2
102
SHADEPLOTCUSTOMDPI
 70
   300
  0
XRECORD
  5
645
102
{ACAD_REACTORS
330
644
102
}
330
644
100
AcDbXrecord
280
     1
102
SHADEPLOT
 70
     0
102
SHADEPLOTRESLEVEL
 70
     2
102
SHADEPLOTCUSTOMDPI
 70
   300
  0
XRECORD
  5
604
102
{ACAD_REACTORS
330
569
102
}
330
569
100
AcDbXrecord
280
     1
102
MATERIAL
148
0.0
149
0.0
149
0.0
 93
        0
 94
      127
282
     0
 72
     0
 77
     0
171
     0
175
     0
179
     0
273
     0
  0
XRECORD
  5
56B
102
{ACAD_REACTORS
330
569
102
}
330
569
100
AcDbXrecord
280
     1
270
     1
271
     1
  0
XRECORD
  5
56A
102
{ACAD_REACTORS
330
569
102
}
330
569
100
AcDbXrecord
280
     1
270
     1
271
     1
  0
XRECORD
  5
56E
102
{ACAD_REACTORS
330
569
102
}
330
569
100
AcDbXrecord
280
     1
270
     1
271
     1
  0
XRECORD
  5
56D
102
{ACAD_REACTORS
330
569
102
}
330
569
100
AcDbXrecord
280
     1
270
     1
271
     1
  0
XRECORD
  5
56F
102
{ACAD_REACTORS
330
569
102
}
330
569
100
AcDbXrecord
280
     1
270
     1
271
     1
  0
XRECORD
  5
56C
102
{ACAD_REACTORS
330
569
102
}
330
569
100
AcDbXrecord
280
     1
270
     1
271
     1
  0
XRECORD
  5
603
102
{ACAD_REACTORS
330
561
102
}
330
561
100
AcDbXrecord
280
     1
102
MATERIAL
148
0.0
149
0.0
149
0.0
 93
        0
 94
      127
282
     0
 72
     0
 77
     0
171
     0
175
     0
179
     0
273
     0
  0
XRECORD
  5
563
102
{ACAD_REACTORS
330
561
102
}
330
561
100
AcDbXrecord
280
     1
270
     1
271
     1
  0
XRECORD
  5
562
102
{ACAD_REACTORS
330
561
102
}
330
561
100
AcDbXrecord
280
     1
270
     1
271
     1
  0
XRECORD
  5
566
102
{ACAD_REACTORS
330
561
102
}
330
561
100
AcDbXrecord
280
     1
270
     1
271
     1
  0
XRECORD
  5
565
102
{ACAD_REACTORS
330
561
102
}
330
561
100
AcDbXrecord
280
     1
270
     1
271
     1
  0
XRECORD
  5
567
102
{ACAD_REACTORS
330
561
102
}
330
561
100
AcDbXrecord
280
     1
270
     1
271
     1
  0
XRECORD
  5
564
102
{ACAD_REACTORS
330
561
102
}
330
561
100
AcDbXrecord
280
     1
270
     1
271
     1
  0
XRECORD
  5
605
102
{ACAD_REACTORS
330
571
102
}
330
571
100
AcDbXrecord
280
     1
102
MATERIAL
148
0.0
149
0.0
149
0.0
 93
        0
 94
      127
282
     0
 72
     0
 77
     0
171
     0
175
     0
179
     0
273
     0
  0
XRECORD
  5
573
102
{ACAD_REACTORS
330
571
102
}
330
571
100
AcDbXrecord
280
     1
270
     1
271
     1
  0
XRECORD
  5
572
102
{ACAD_REACTORS
330
571
102
}
330
571
100
AcDbXrecord
280
     1
270
     1
271
     1
  0
XRECORD
  5
576
102
{ACAD_REACTORS
330
571
102
}
330
571
100
AcDbXrecord
280
     1
270
     1
271
     1
  0
XRECORD
  5
575
102
{ACAD_REACTORS
330
571
102
}
330
571
100
AcDbXrecord
280
     1
270
     1
271
     1
  0
XRECORD
  5
577
102
{ACAD_REACTORS
330
571
102
}
330
571
100
AcDbXrecord
280
     1
270
     1
271
     1
  0
XRECORD
  5
574
102
{ACAD_REACTORS
330
571
102
}
330
571
100
AcDbXrecord
280
     1
270
     1
271
     1
  0
CELLSTYLEMAP
  5
63F
102
{ACAD_REACTORS
330
5FF
102
}
330
5FF
100
AcDbCellStyleMap
 90
        3
300
CELLSTYLE
  1
TABLEFORMAT_BEGIN
 90
        5
170
     1
 91
        0
 92
    32768
 62
   257
 93
        1
300
CONTENTFORMAT
  1
CONTENTFORMAT_BEGIN
 90
        0
 91
        0
 92
      512
 93
        0
300

 40
0.0
140
1.0
 94
        5
 62
     0
340
5AC
144
0.25
309
CONTENTFORMAT_END
171
     1
301
MARGIN
  1
CELLMARGIN_BEGIN
 40
0.06
 40
0.06
 40
0.06
 40
0.06
 40
0.18
 40
0.18
309
CELLMARGIN_END
 94
        6
 95
        1
302
GRIDFORMAT
  1
GRIDFORMAT_BEGIN
 90
        0
 91
        1
 62
     0
 92
       -2
340
0
 93
        0
 40
0.045
309
GRIDFORMAT_END
 95
        2
302
GRIDFORMAT
  1
GRIDFORMAT_BEGIN
 90
        0
 91
        1
 62
     0
 92
       -2
340
0
 93
        0
 40
0.045
309
GRIDFORMAT_END
 95
        4
302
GRIDFORMAT
  1
GRIDFORMAT_BEGIN
 90
        0
 91
        1
 62
     0
 92
       -2
340
0
 93
        0
 40
0.045
309
GRIDFORMAT_END
 95
        8
302
GRIDFORMAT
  1
GRIDFORMAT_BEGIN
 90
        0
 91
        1
 62
     0
 92
       -2
340
0
 93
        0
 40
0.045
309
GRIDFORMAT_END
 95
       16
302
GRIDFORMAT
  1
GRIDFORMAT_BEGIN
 90
        0
 91
        1
 62
     0
 92
       -2
340
0
 93
        0
 40
0.045
309
GRIDFORMAT_END
 95
       32
302
GRIDFORMAT
  1
GRIDFORMAT_BEGIN
 90
        0
 91
        1
 62
     0
 92
       -2
340
0
 93
        0
 40
0.045
309
GRIDFORMAT_END
309
TABLEFORMAT_END
  1
CELLSTYLE_BEGIN
 90
        1
 91
        1
300
_TITLE
309
CELLSTYLE_END
300
CELLSTYLE
  1
TABLEFORMAT_BEGIN
 90
        5
170
     1
 91
        0
 92
        0
 62
   257
 93
        1
300
CONTENTFORMAT
  1
CONTENTFORMAT_BEGIN
 90
        0
 91
        0
 92
      512
 93
        0
300

 40
0.0
140
1.0
 94
        5
 62
     0
340
5AC
144
0.18
309
CONTENTFORMAT_END
171
     1
301
MARGIN
  1
CELLMARGIN_BEGIN
 40
0.06
 40
0.06
 40
0.06
 40
0.06
 40
0.18
 40
0.18
309
CELLMARGIN_END
 94
        6
 95
        1
302
GRIDFORMAT
  1
GRIDFORMAT_BEGIN
 90
        0
 91
        1
 62
     0
 92
       -2
340
0
 93
        0
 40
0.045
309
GRIDFORMAT_END
 95
        2
302
GRIDFORMAT
  1
GRIDFORMAT_BEGIN
 90
        0
 91
        1
 62
     0
 92
       -2
340
0
 93
        0
 40
0.045
309
GRIDFORMAT_END
 95
        4
302
GRIDFORMAT
  1
GRIDFORMAT_BEGIN
 90
        0
 91
        1
 62
     0
 92
       -2
340
0
 93
        0
 40
0.045
309
GRIDFORMAT_END
 95
        8
302
GRIDFORMAT
  1
GRIDFORMAT_BEGIN
 90
        0
 91
        1
 62
     0
 92
       -2
340
0
 93
        0
 40
0.045
309
GRIDFORMAT_END
 95
       16
302
GRIDFORMAT
  1
GRIDFORMAT_BEGIN
 90
        0
 91
        1
 62
     0
 92
       -2
340
0
 93
        0
 40
0.045
309
GRIDFORMAT_END
 95
       32
302
GRIDFORMAT
  1
GRIDFORMAT_BEGIN
 90
        0
 91
        1
 62
     0
 92
       -2
340
0
 93
        0
 40
0.045
309
GRIDFORMAT_END
309
TABLEFORMAT_END
  1
CELLSTYLE_BEGIN
 90
        2
 91
        1
300
_HEADER
309
CELLSTYLE_END
300
CELLSTYLE
  1
TABLEFORMAT_BEGIN
 90
        5
170
     1
 91
        0
 92
        0
 62
   257
 93
        1
300
CONTENTFORMAT
  1
CONTENTFORMAT_BEGIN
 90
        0
 91
        0
 92
      512
 93
        0
300

 40
0.0
140
1.0
 94
        2
 62
     0
340
5AC
144
0.18
309
CONTENTFORMAT_END
171
     1
301
MARGIN
  1
CELLMARGIN_BEGIN
 40
0.06
 40
0.06
 40
0.06
 40
0.06
 40
0.18
 40
0.18
309
CELLMARGIN_END
 94
        6
 95
        1
302
GRIDFORMAT
  1
GRIDFORMAT_BEGIN
 90
        0
 91
        1
 62
     0
 92
       -2
340
0
 93
        0
 40
0.045
309
GRIDFORMAT_END
 95
        2
302
GRIDFORMAT
  1
GRIDFORMAT_BEGIN
 90
        0
 91
        1
 62
     0
 92
       -2
340
0
 93
        0
 40
0.045
309
GRIDFORMAT_END
 95
        4
302
GRIDFORMAT
  1
GRIDFORMAT_BEGIN
 90
        0
 91
        1
 62
     0
 92
       -2
340
0
 93
        0
 40
0.045
309
GRIDFORMAT_END
 95
        8
302
GRIDFORMAT
  1
GRIDFORMAT_BEGIN
 90
        0
 91
        1
 62
     0
 92
       -2
340
0
 93
        0
 40
0.045
309
GRIDFORMAT_END
 95
       16
302
GRIDFORMAT
  1
GRIDFORMAT_BEGIN
 90
        0
 91
        1
 62
     0
 92
       -2
340
0
 93
        0
 40
0.045
309
GRIDFORMAT_END
 95
       32
302
GRIDFORMAT
  1
GRIDFORMAT_BEGIN
 90
        0
 91
        1
 62
     0
 92
       -2
340
0
 93
        0
 40
0.045
309
GRIDFORMAT_END
309
TABLEFORMAT_END
  1
CELLSTYLE_BEGIN
 90
        3
 91
        2
300
_DATA
309
CELLSTYLE_END
  0
XRECORD
  5
641
102
{ACAD_REACTORS
330
5FF
102
}
330
5FF
100
AcDbXrecord
280
     1
102
ACAD_ROUNDTRIP_PRE2007_TABLESTYLE
 90
      512
 91
        0
  1

 92
      512
 93
        0
  2

 94
      512
 95
        0
  3

  0
ENDSEC
  0
EOF
