  0
SECTION
  2
HEADER
  9
$ACADVER
  1
AC1015
  9
$ACADMAINTVER
 70
    20
  9
$DWGCODEPAGE
  3
ANSI_932
  9
$INSBASE
 10
0.0
 20
0.0
 30
0.0
  9
$EXTMIN
 10
-660.7360603063571
 20
-929.4845418998574
 30
-0.0015258207003583
  9
$EXTMAX
 10
1233.673111807638
 20
2433.155835959075
 30
0.0000000349246037
  9
$LIMMIN
 10
-4200.0
 20
-2970.0
  9
$LIMMAX
 10
4200.0
 20
2970.0
  9
$ORTHOMODE
 70
     0
  9
$REGENMODE
 70
     1
  9
$FILLMODE
 70
     1
  9
$QTEXTMODE
 70
     0
  9
$MIRRTEXT
 70
     0
  9
$LTSCALE
 40
20.0
  9
$ATTMODE
 70
     1
  9
$TEXTSIZE
 40
64.0
  9
$TRACEWID
 40
0.05
  9
$TEXTSTYLE
  7
STANDARD
  9
$CLAYER
  8
SIZE
  9
$CELTYPE
  6
CONTINUOUS
  9
$CECOLOR
 62
     7
  9
$CELTSCALE
 40
1.0
  9
$DISPSILH
 70
     0
  9
$DIMSCALE
 40
1.0
  9
$DIMASZ
 40
10.0
  9
$DIMEXO
 40
20.0
  9
$DIMDLI
 40
200.0
  9
$DIMRND
 40
0.0
  9
$DIMDLE
 40
0.0
  9
$DIMEXE
 40
30.0
  9
$DIMTP
 40
0.0
  9
$DIMTM
 40
0.0
  9
$DIMTXT
 40
64.0
  9
$DIMCEN
 40
0.0
  9
$DIMTSZ
 40
0.0
  9
$DIMTOL
 70
     0
  9
$DIMLIM
 70
     0
  9
$DIMTIH
 70
     0
  9
$DIMTOH
 70
     0
  9
$DIMSE1
 70
     0
  9
$DIMSE2
 70
     0
  9
$DIMTAD
 70
     1
  9
$DIMZIN
 70
     8
  9
$DIMBLK
  1
DOTBLANK
  9
$DIMASO
 70
     1
  9
$DIMSHO
 70
     0
  9
$DIMPOST
  1

  9
$DIMAPOST
  1

  9
$DIMALT
 70
     0
  9
$DIMALTD
 70
     2
  9
$DIMALTF
 40
25.4
  9
$DIMLFAC
 40
1.0
  9
$DIMTOFL
 70
     1
  9
$DIMTVP
 40
0.0
  9
$DIMTIX
 70
     1
  9
$DIMSOXD
 70
     0
  9
$DIMSAH
 70
     0
  9
$DIMBLK1
  1

  9
$DIMBLK2
  1

  9
$DIMSTYLE
  2
STANDARD
  9
$DIMCLRD
 70
     0
  9
$DIMCLRE
 70
     0
  9
$DIMCLRT
 70
     0
  9
$DIMTFAC
 40
1.0
  9
$DIMGAP
 40
0.09
  9
$DIMJUST
 70
     0
  9
$DIMSD1
 70
     0
  9
$DIMSD2
 70
     0
  9
$DIMTOLJ
 70
     1
  9
$DIMTZIN
 70
     0
  9
$DIMALTZ
 70
     0
  9
$DIMALTTZ
 70
     0
  9
$DIMUPT
 70
     0
  9
$DIMDEC
 70
     4
  9
$DIMTDEC
 70
     4
  9
$DIMALTU
 70
     2
  9
$DIMALTTD
 70
     2
  9
$DIMTXSTY
  7
STANDARD
  9
$DIMAUNIT
 70
     0
  9
$DIMADEC
 70
     0
  9
$DIMALTRND
 40
0.0
  9
$DIMAZIN
 70
     0
  9
$DIMDSEP
 70
    46
  9
$DIMATFIT
 70
     3
  9
$DIMFRAC
 70
     0
  9
$DIMLDRBLK
  1
DOTBLANK
  9
$DIMLUNIT
 70
     2
  9
$DIMLWD
 70
    -2
  9
$DIMLWE
 70
    -2
  9
$DIMTMOVE
 70
     0
  9
$LUNITS
 70
     2
  9
$LUPREC
 70
     4
  9
$SKETCHINC
 40
0.1
  9
$FILLETRAD
 40
0.0
  9
$AUNITS
 70
     1
  9
$AUPREC
 70
     3
  9
$MENU
  1
ACAD
  9
$ELEVATION
 40
0.0
  9
$PELEVATION
 40
0.0
  9
$THICKNESS
 40
0.0
  9
$LIMCHECK
 70
     0
  9
$CHAMFERA
 40
0.0
  9
$CHAMFERB
 40
0.0
  9
$CHAMFERC
 40
0.0
  9
$CHAMFERD
 40
0.0
  9
$SKPOLY
 70
     0
  9
$TDCREATE
 40
2449761.493622998
  9
$TDUCREATE
 40
2449761.160289664
  9
$TDUPDATE
 40
2457977.583372975
  9
$TDUUPDATE
 40
2457977.250039641
  9
$TDINDWG
 40
4.2311697338
  9
$TDUSRTIMER
 40
4.2311696181
  9
$USRTIMER
 70
     1
  9
$ANGBASE
 50
0.0
  9
$ANGDIR
 70
     0
  9
$PDMODE
 70
    35
  9
$PDSIZE
 40
100.0
  9
$PLINEWID
 40
0.0
  9
$SPLFRAME
 70
     0
  9
$SPLINETYPE
 70
     6
  9
$SPLINESEGS
 70
     8
  9
$HANDSEED
  5
385
  9
$SURFTAB1
 70
     6
  9
$SURFTAB2
 70
     6
  9
$SURFTYPE
 70
     6
  9
$SURFU
 70
     6
  9
$SURFV
 70
     6
  9
$UCSBASE
  2

  9
$UCSNAME
  2

  9
$UCSORG
 10
0.0
 20
0.0
 30
0.0
  9
$UCSXDIR
 10
1.0
 20
0.0
 30
0.0
  9
$UCSYDIR
 10
0.0
 20
1.0
 30
0.0
  9
$UCSORTHOREF
  2

  9
$UCSORTHOVIEW
 70
     0
  9
$UCSORGTOP
 10
0.0
 20
0.0
 30
0.0
  9
$UCSORGBOTTOM
 10
0.0
 20
0.0
 30
0.0
  9
$UCSORGLEFT
 10
0.0
 20
0.0
 30
0.0
  9
$UCSORGRIGHT
 10
0.0
 20
0.0
 30
0.0
  9
$UCSORGFRONT
 10
0.0
 20
0.0
 30
0.0
  9
$UCSORGBACK
 10
0.0
 20
0.0
 30
0.0
  9
$PUCSBASE
  2

  9
$PUCSNAME
  2

  9
$PUCSORG
 10
0.0
 20
0.0
 30
0.0
  9
$PUCSXDIR
 10
1.0
 20
0.0
 30
0.0
  9
$PUCSYDIR
 10
0.0
 20
1.0
 30
0.0
  9
$PUCSORTHOREF
  2

  9
$PUCSORTHOVIEW
 70
     0
  9
$PUCSORGTOP
 10
0.0
 20
0.0
 30
0.0
  9
$PUCSORGBOTTOM
 10
0.0
 20
0.0
 30
0.0
  9
$PUCSORGLEFT
 10
0.0
 20
0.0
 30
0.0
  9
$PUCSORGRIGHT
 10
0.0
 20
0.0
 30
0.0
  9
$PUCSORGFRONT
 10
0.0
 20
0.0
 30
0.0
  9
$PUCSORGBACK
 10
0.0
 20
0.0
 30
0.0
  9
$USERI1
 70
     0
  9
$USERI2
 70
     0
  9
$USERI3
 70
     0
  9
$USERI4
 70
     0
  9
$USERI5
 70
     0
  9
$USERR1
 40
20.0
  9
$USERR2
 40
0.0
  9
$USERR3
 40
0.0
  9
$USERR4
 40
0.0
  9
$USERR5
 40
0.0
  9
$WORLDVIEW
 70
     1
  9
$SHADEDGE
 70
     3
  9
$SHADEDIF
 70
    70
  9
$TILEMODE
 70
     1
  9
$MAXACTVP
 70
    48
  9
$PINSBASE
 10
0.0
 20
0.0
 30
0.0
  9
$PLIMCHECK
 70
     0
  9
$PEXTMIN
 10
1.000000000000000E+20
 20
1.000000000000000E+20
 30
1.000000000000000E+20
  9
$PEXTMAX
 10
-1.000000000000000E+20
 20
-1.000000000000000E+20
 30
-1.000000000000000E+20
  9
$PLIMMIN
 10
0.0
 20
0.0
  9
$PLIMMAX
 10
12.0
 20
9.0
  9
$UNITMODE
 70
     0
  9
$VISRETAIN
 70
     1
  9
$PLINEGEN
 70
     0
  9
$PSLTSCALE
 70
     1
  9
$TREEDEPTH
 70
  3020
  9
$CMLSTYLE
  2
Standard
  9
$CMLJUST
 70
     0
  9
$CMLSCALE
 40
1.0
  9
$PROXYGRAPHICS
 70
     1
  9
$MEASUREMENT
 70
     0
  9
$CELWEIGHT
370
    -1
  9
$ENDCAPS
280
     0
  9
$JOINSTYLE
280
     0
  9
$LWDISPLAY
290
     0
  9
$INSUNITS
 70
     0
  9
$HYPERLINKBASE
  1

  9
$STYLESHEET
  1

  9
$XEDIT
290
     1
  9
$CEPSNTYPE
380
     0
  9
$PSTYLEMODE
290
     1
  9
$FINGERPRINTGUID
  2
{AF67B24A-581D-4F5A-9CA5-DEDA185BEFCF}
  9
$VERSIONGUID
  2
{6F9438D9-B64F-4BAD-802C-20981944172E}
  9
$EXTNAMES
290
     1
  9
$PSVPSCALE
 40
0.0
  9
$OLESTARTUP
290
     0
  0
ENDSEC
  0
SECTION
  2
CLASSES
  0
CLASS
  1
ACDBDICTIONARYWDFLT
  2
AcDbDictionaryWithDefault
  3
ObjectDBX Classes
 90
        0
280
     0
281
     0
  0
CLASS
  1
MATERIAL
  2
AcDbMaterial
  3
ObjectDBX Classes
 90
     1153
280
     0
281
     0
  0
CLASS
  1
VISUALSTYLE
  2
AcDbVisualStyle
  3
ObjectDBX Classes
 90
     4095
280
     0
281
     0
  0
CLASS
  1
SCALE
  2
AcDbScale
  3
ObjectDBX Classes
 90
     1153
280
     0
281
     0
  0
CLASS
  1
TABLESTYLE
  2
AcDbTableStyle
  3
ObjectDBX Classes
 90
     4095
280
     0
281
     0
  0
CLASS
  1
MLEADERSTYLE
  2
AcDbMLeaderStyle
  3
ACDB_MLEADERSTYLE_CLASS
 90
     4095
280
     0
281
     0
  0
CLASS
  1
DICTIONARYVAR
  2
AcDbDictionaryVar
  3
ObjectDBX Classes
 90
        0
280
     0
281
     0
  0
CLASS
  1
CELLSTYLEMAP
  2
AcDbCellStyleMap
  3
ObjectDBX Classes
 90
     1152
280
     0
281
     0
  0
CLASS
  1
ACDBPLACEHOLDER
  2
AcDbPlaceHolder
  3
ObjectDBX Classes
 90
        0
280
     0
281
     0
  0
CLASS
  1
LAYOUT
  2
AcDbLayout
  3
ObjectDBX Classes
 90
        0
280
     0
281
     0
  0
ENDSEC
  0
SECTION
  2
TABLES
  0
TABLE
  2
VPORT
  5
2B7
330
0
100
AcDbSymbolTable
 70
     1
  0
VPORT
  5
328
330
2B7
100
AcDbSymbolTableRecord
100
AcDbViewportTableRecord
  2
*ACTIVE
 70
     0
 10
0.0
 20
0.0
 11
1.0
 21
1.0
 12
-68.41143042851036
 22
9.523835364077058
 13
0.0
 23
0.0
 14
50.0
 24
50.0
 15
100.0
 25
100.0
 16
0.0
 26
0.0
 36
1.0
 17
0.0
 27
0.0
 37
0.0
 40
319.9018012932593
 41
1.802600472813238
 42
50.0
 43
0.0
 44
0.0
 50
0.0
 51
0.0
 71
     0
 72
  1000
 73
     1
 74
     0
 75
     0
 76
     0
 77
     0
 78
     0
281
     0
 65
     1
110
0.0
120
0.0
130
0.0
111
1.0
121
0.0
131
0.0
112
0.0
122
1.0
132
0.0
 79
     0
146
0.0
  0
ENDTAB
  0
TABLE
  2
LTYPE
  5
2B4
330
0
100
AcDbSymbolTable
 70
     3
  0
LTYPE
  5
311
330
2B4
100
AcDbSymbolTableRecord
100
AcDbLinetypeTableRecord
  2
ByBlock
 70
     0
  3

 72
    65
 73
     0
 40
0.0
  0
LTYPE
  5
312
330
2B4
100
AcDbSymbolTableRecord
100
AcDbLinetypeTableRecord
  2
ByLayer
 70
     0
  3

 72
    65
 73
     0
 40
0.0
  0
LTYPE
  5
313
330
2B4
100
AcDbSymbolTableRecord
100
AcDbLinetypeTableRecord
  2
CONTINUOUS
 70
     0
  3
実線
 72
    65
 73
     0
 40
0.0
  0
LTYPE
  5
329
330
2B4
100
AcDbSymbolTableRecord
100
AcDbLinetypeTableRecord
  2
DASHDOT
 70
     0
  3
____ _ ____ _ ____ _ ____ _ ____ _ ____ _ ____
 72
    65
 73
     4
 40
5.5
 49
4.0
 74
     0
 49
-0.6
 74
     0
 49
0.3
 74
     0
 49
-0.6
 74
     0
  0
ENDTAB
  0
TABLE
  2
LAYER
  5
2B1
330
0
100
AcDbSymbolTable
 70
    12
  0
LAYER
  5
30B
102
{ACAD_XDICTIONARY
360
342
102
}
330
2B1
100
AcDbSymbolTableRecord
100
AcDbLayerTableRecord
  2
0
 70
     0
 62
     7
  6
CONTINUOUS
370
    -3
390
2BE
  0
LAYER
  5
327
102
{ACAD_XDICTIONARY
360
344
102
}
330
2B1
100
AcDbSymbolTableRecord
100
AcDbLayerTableRecord
  2
SIZE
 70
     0
 62
    30
  6
CONTINUOUS
370
    -3
390
2BE
  0
LAYER
  5
32A
102
{ACAD_XDICTIONARY
360
346
102
}
330
2B1
100
AcDbSymbolTableRecord
100
AcDbLayerTableRecord
  2
OUTLINE
 70
     0
 62
     3
  6
CONTINUOUS
370
    -3
390
2BE
  0
LAYER
  5
32B
102
{ACAD_XDICTIONARY
360
348
102
}
330
2B1
100
AcDbSymbolTableRecord
100
AcDbLayerTableRecord
  2
DETAIL
 70
     0
 62
     5
  6
CONTINUOUS
370
    -3
390
2BE
  0
LAYER
  5
32C
102
{ACAD_XDICTIONARY
360
34A
102
}
330
2B1
100
AcDbSymbolTableRecord
100
AcDbLayerTableRecord
  2
BASIS
 70
     0
 62
     6
  6
DASHDOT
370
    -3
390
2BE
  0
LAYER
  5
32D
102
{ACAD_XDICTIONARY
360
34C
102
}
330
2B1
100
AcDbSymbolTableRecord
100
AcDbLayerTableRecord
  2
NOTE
 70
     0
 62
     4
  6
CONTINUOUS
370
    -3
390
2BE
  0
LAYER
  5
32E
102
{ACAD_XDICTIONARY
360
34E
102
}
330
2B1
100
AcDbSymbolTableRecord
100
AcDbLayerTableRecord
  2
ARRANGE
 70
     0
 62
     1
  6
CONTINUOUS
370
    -3
390
2BE
  0
LAYER
  5
32F
102
{ACAD_XDICTIONARY
360
350
102
}
330
2B1
100
AcDbSymbolTableRecord
100
AcDbLayerTableRecord
  2
FIX
 70
     0
 62
    11
  6
CONTINUOUS
370
    -3
390
2BE
  0
LAYER
  5
330
102
{ACAD_XDICTIONARY
360
352
102
}
330
2B1
100
AcDbSymbolTableRecord
100
AcDbLayerTableRecord
  2
SERVICESPACE
 70
     0
 62
     2
  6
DASHDOT
370
    -3
390
2BE
  0
LAYER
  5
331
102
{ACAD_XDICTIONARY
360
354
102
}
330
2B1
100
AcDbSymbolTableRecord
100
AcDbLayerTableRecord
  2
ETC
 70
     0
 62
    61
  6
CONTINUOUS
370
    -3
390
2BE
  0
LAYER
  5
332
102
{ACAD_XDICTIONARY
360
356
102
}
330
2B1
100
AcDbSymbolTableRecord
100
AcDbLayerTableRecord
  2
SYMBOLLINE
 70
     0
 62
    15
  6
CONTINUOUS
370
    -3
390
2BE
  0
LAYER
  5
333
330
2B1
100
AcDbSymbolTableRecord
100
AcDbLayerTableRecord
  2
DEFPOINTS
 70
     0
 62
     7
  6
CONTINUOUS
290
     0
370
    -3
390
2BE
  0
ENDTAB
  0
TABLE
  2
STYLE
  5
2B2
330
0
100
AcDbSymbolTable
 70
     3
  0
STYLE
  5
30C
330
2B2
100
AcDbSymbolTableRecord
100
AcDbTextStyleTableRecord
  2
STANDARD
 70
     0
 40
0.0
 41
0.9
 50
0.0
 71
     0
 42
64.0
  3
SIMPLEX
  4
BIGFONT
  0
STYLE
  5
310
330
2B2
100
AcDbSymbolTableRecord
100
AcDbTextStyleTableRecord
  2
Annotative
 70
     0
 40
0.0
 41
1.0
 50
0.0
 71
     0
 42
0.2
  3
txt
  4

1001
AcadAnnotative
1000
AnnotativeData
1002
{
1070
     1
1070
     1
1002
}
  0
STYLE
  5
334
330
2B2
100
AcDbSymbolTableRecord
100
AcDbTextStyleTableRecord
  2
STANDARD1
 70
     0
 40
0.0
 41
1.0
 50
0.0
 71
     0
 42
3.5
  3
MONOTXT
  4
BIGFONT
  0
ENDTAB
  0
TABLE
  2
VIEW
  5
2B5
330
0
100
AcDbSymbolTable
 70
     1
  0
VIEW
  5
335
330
2B5
100
AcDbSymbolTableRecord
100
AcDbViewTableRecord
  2
ALL
 70
     0
 40
6056.230032000001
 10
0.0
 20
58.115016
 41
8400.0
 11
0.0
 21
0.0
 31
1.0
 12
0.0
 22
0.0
 32
0.0
 42
50.0
 43
0.0
 44
0.0
 50
0.0
 71
     0
281
     0
 72
     1
110
0.0
120
0.0
130
0.0
111
1.0
121
0.0
131
0.0
112
0.0
122
1.0
132
0.0
 79
     0
146
0.0
  0
ENDTAB
  0
TABLE
  2
UCS
  5
2B6
330
0
100
AcDbSymbolTable
 70
     0
  0
ENDTAB
  0
TABLE
  2
APPID
  5
2B8
330
0
100
AcDbSymbolTable
 70
     4
  0
APPID
  5
30D
330
2B8
100
AcDbSymbolTableRecord
100
AcDbRegAppTableRecord
  2
ACAD
 70
     0
  0
APPID
  5
314
330
2B8
100
AcDbSymbolTableRecord
100
AcDbRegAppTableRecord
  2
AcadAnnotative
 70
     0
  0
APPID
  5
31E
330
2B8
100
AcDbSymbolTableRecord
100
AcDbRegAppTableRecord
  2
ACAD_MLEADERVER
 70
     0
  0
APPID
  5
340
330
2B8
100
AcDbSymbolTableRecord
100
AcDbRegAppTableRecord
  2
ACAD_EXEMPT_FROM_CAD_STANDARDS
 70
     0
  0
ENDTAB
  0
TABLE
  2
DIMSTYLE
  5
2B9
330
0
100
AcDbSymbolTable
 70
     2
100
AcDbDimStyleTable
 71
     0
  0
DIMSTYLE
105
30E
330
2B9
100
AcDbSymbolTableRecord
100
AcDbDimStyleTableRecord
  2
STANDARD
 70
     0
275
     1
279
     2
284
     8
285
     8
286
     8
340
30C
  0
DIMSTYLE
105
30F
330
2B9
100
AcDbSymbolTableRecord
100
AcDbDimStyleTableRecord
  2
Annotative
 70
     0
340
30C
1001
AcadAnnotative
1000
AnnotativeData
1002
{
1070
     1
1070
     1
1002
}
  0
ENDTAB
  0
TABLE
  2
BLOCK_RECORD
  5
2B0
330
0
100
AcDbSymbolTable
 70
     3
  0
BLOCK_RECORD
  5
323
330
2B0
100
AcDbSymbolTableRecord
100
AcDbBlockTableRecord
  2
*Model_Space
340
326
  0
BLOCK_RECORD
  5
31F
330
2B0
100
AcDbSymbolTableRecord
100
AcDbBlockTableRecord
  2
*Paper_Space
340
322
  0
BLOCK_RECORD
  5
33A
330
2B0
100
AcDbSymbolTableRecord
100
AcDbBlockTableRecord
  2
$MODEL_SPACE
340
0
  0
BLOCK_RECORD
  5
33C
330
2B0
100
AcDbSymbolTableRecord
100
AcDbBlockTableRecord
  2
$PAPER_SPACE
340
0
  0
BLOCK_RECORD
  5
33E
330
2B0
100
AcDbSymbolTableRecord
100
AcDbBlockTableRecord
  2
_DOTBLANK
340
0
  0
ENDTAB
  0
ENDSEC
  0
SECTION
  2
BLOCKS
  0
BLOCK
  5
324
330
323
100
AcDbEntity
  8
0
100
AcDbBlockBegin
  2
*Model_Space
 70
     0
 10
0.0
 20
0.0
 30
0.0
  3
*Model_Space
  1

  0
ENDBLK
  5
325
330
323
100
AcDbEntity
  8
0
100
AcDbBlockEnd
  0
BLOCK
  5
320
330
31F
100
AcDbEntity
 67
     1
  8
0
100
AcDbBlockBegin
  2
*Paper_Space
 70
     0
 10
0.0
 20
0.0
 30
0.0
  3
*Paper_Space
  1

  0
ENDBLK
  5
321
330
31F
100
AcDbEntity
 67
     1
  8
0
100
AcDbBlockEnd
  0
BLOCK
  5
33B
330
33A
100
AcDbEntity
  8
0
100
AcDbBlockBegin
  2
$MODEL_SPACE
 70
     0
 10
0.0
 20
0.0
 30
0.0
  3
$MODEL_SPACE
  1

  0
ENDBLK
  5
292
330
33A
100
AcDbEntity
  8
0
100
AcDbBlockEnd
  0
BLOCK
  5
33D
330
33C
100
AcDbEntity
  8
0
100
AcDbBlockBegin
  2
$PAPER_SPACE
 70
     0
 10
0.0
 20
0.0
 30
0.0
  3
$PAPER_SPACE
  1

  0
ENDBLK
  5
28F
330
33C
100
AcDbEntity
  8
0
100
AcDbBlockEnd
  0
BLOCK
  5
33F
330
33E
100
AcDbEntity
  8
0
100
AcDbBlockBegin
  2
_DOTBLANK
 70
     0
 10
0.0
 20
0.0
 30
0.0
  3
_DOTBLANK
  1

  0
CIRCLE
  5
32
330
33E
100
AcDbEntity
  8
0
  6
Continuous
 62
     7
100
AcDbCircle
 10
0.0
 20
0.0
 30
0.0
 40
0.5
  0
LINE
  5
33
330
33E
100
AcDbEntity
  8
0
  6
Continuous
 62
     7
100
AcDbLine
 10
-0.5
 20
0.0
 30
0.0
 11
-1.0
 21
0.0
 31
0.0
  0
ENDBLK
  5
34
330
33E
100
AcDbEntity
  8
0
100
AcDbBlockEnd
  0
ENDSEC
  0
SECTION
  2
ENTITIES
  0
TEXT
  5
35
330
323
100
AcDbEntity
  8
ETC
  6
Continuous
 62
    61
100
AcDbText
 10
372.029762
 20
2125.662713
 30
0.0
 40
90.0
  1
KFH-P2_3A1_DUCT_5
 50
359.999997
 41
0.6030590000000001
  7
STANDARD1
100
AcDbText
  0
LINE
  5
38
330
323
100
AcDbEntity
  8
DETAIL
  6
Continuous
 62
     5
100
AcDbLine
 10
242.5
 20
80.0
 30
0.0
 11
242.5
 21
1550.0
 31
0.0
  0
LINE
  5
39
330
323
100
AcDbEntity
  8
OUTLINE
  6
Continuous
 62
     3
100
AcDbLine
 10
242.5
 20
80.0
 30
0.0
 11
242.5
 21
1550.0
 31
0.0
  0
LINE
  5
3A
330
323
100
AcDbEntity
  8
DETAIL
  6
Continuous
 62
     5
100
AcDbLine
 10
-242.5
 20
1550.0
 30
0.0
 11
-242.5
 21
80.0
 31
0.0
  0
LINE
  5
3B
330
323
100
AcDbEntity
  8
OUTLINE
  6
Continuous
 62
     3
100
AcDbLine
 10
-242.5
 20
1550.0
 30
0.0
 11
-242.5
 21
80.0
 31
0.0
  0
LINE
  5
3C
330
323
100
AcDbEntity
  8
BASIS
  6
DASHDOT
 62
     6
100
AcDbLine
 10
0.0
 20
1692.52787
 30
0.0
 11
0.0
 21
-97.727388
 31
0.0
  0
LINE
  5
3D
330
323
100
AcDbEntity
  8
SIZE
  6
Continuous
 62
    30
100
AcDbLine
 10
-150.5
 20
525.0
 30
0.0
 11
-150.5
 21
790.9566589999998
 31
0.0
  0
LINE
  5
3E
330
323
100
AcDbEntity
  8
SIZE
  6
Continuous
 62
    30
100
AcDbLine
 10
-242.5
 20
525.0
 30
0.0
 11
-242.5
 21
790.9566589999998
 31
0.0
  0
LINE
  5
3F
330
323
100
AcDbEntity
  8
SIZE
  6
Continuous
 62
    30
100
AcDbLine
 10
-160.5
 20
760.956659
 30
0.0
 11
-232.5
 21
760.956659
 31
0.0
  0
LINE
  5
40
330
323
100
AcDbEntity
  8
SIZE
  6
Continuous
 62
    30
100
AcDbLine
 10
-398.247721
 20
760.956659
 30
0.0
 11
-242.5
 21
760.956659
 31
0.0
  0
TEXT
  5
41
330
323
100
AcDbEntity
  8
SIZE
  6
Continuous
 62
    30
100
AcDbText
 10
-378.2477204285715
 20
780.9566589999998
 30
0.0
 40
64.0
  1
92
 41
0.9
 72
     1
 11
-331.619149
 21
780.9566589999998
 31
0.0
100
AcDbText
  0
CIRCLE
  5
42
330
323
100
AcDbEntity
  8
SIZE
  6
Continuous
 62
    30
100
AcDbCircle
 10
-150.5
 20
760.956659
 30
0.0
 40
5.0
  0
LINE
  5
43
330
323
100
AcDbEntity
  8
SIZE
  6
Continuous
 62
    30
100
AcDbLine
 10
-155.5
 20
760.956659
 30
0.0
 11
-160.5
 21
760.956659
 31
0.0
  0
CIRCLE
  5
44
330
323
100
AcDbEntity
  8
SIZE
  6
Continuous
 62
    30
100
AcDbCircle
 10
-242.5
 20
760.956659
 30
0.0
 40
5.0
  0
LINE
  5
45
330
323
100
AcDbEntity
  8
SIZE
  6
Continuous
 62
    30
100
AcDbLine
 10
-237.5
 20
760.956659
 30
0.0
 11
-232.5
 21
760.956659
 31
0.0
  0
POINT
  5
46
330
323
100
AcDbEntity
  8
DEFPOINTS
  6
Continuous
 62
     7
100
AcDbPoint
 10
-150.5
 20
505.0
 30
0.0
  0
POINT
  5
47
330
323
100
AcDbEntity
  8
DEFPOINTS
  6
Continuous
 62
     7
100
AcDbPoint
 10
-242.5
 20
505.0
 30
0.0
  0
POINT
  5
48
330
323
100
AcDbEntity
  8
DEFPOINTS
  6
Continuous
 62
     7
100
AcDbPoint
 10
-242.5
 20
760.956659
 30
0.0
  0
LINE
  5
49
330
323
100
AcDbEntity
  8
NOTE
  6
Continuous
 62
     4
100
AcDbLine
 10
-395.276649
 20
650.064486
 30
0.0
 11
-395.276649
 21
626.071982
 31
0.0
  0
LINE
  5
4A
330
323
100
AcDbEntity
  8
NOTE
  6
Continuous
 62
     4
100
AcDbLine
 10
-347.291641
 20
670.05824
 30
0.0
 11
-395.276649
 21
626.071982
 31
0.0
  0
LINE
  5
4B
330
323
100
AcDbEntity
  8
NOTE
  6
Continuous
 62
     4
100
AcDbLine
 10
367.977084
 20
1071.399993
 30
0.0
 11
-150.5
 21
505.0
 31
0.0
  0
LINE
  5
4C
330
323
100
AcDbEntity
  8
NOTE
  6
Continuous
 62
     4
100
AcDbLine
 10
478.4607789999998
 20
717.4856349999998
 30
0.0
 11
142.5
 21
250.0
 31
0.0
  0
LINE
  5
4D
330
323
100
AcDbEntity
  8
SIZE
  6
Continuous
 62
    30
100
AcDbLine
 10
220.503647
 20
-20.0
 30
0.0
 11
220.503647
 21
-929.0838069999999
 31
0.0
  0
LINE
  5
4E
330
323
100
AcDbEntity
  8
SIZE
  6
Continuous
 62
    30
100
AcDbLine
 10
-235.496353
 20
-20.0
 30
0.0
 11
-235.496353
 21
-929.0838069999999
 31
0.0
  0
LINE
  5
4F
330
323
100
AcDbEntity
  8
SIZE
  6
Continuous
 62
    30
100
AcDbLine
 10
210.503647
 20
-899.083807
 30
0.0
 11
-225.496353
 21
-899.083807
 31
0.0
  0
CIRCLE
  5
50
330
323
100
AcDbEntity
  8
SIZE
  6
Continuous
 62
    30
100
AcDbCircle
 10
220.503647
 20
-899.083807
 30
0.0
 40
5.0
  0
LINE
  5
51
330
323
100
AcDbEntity
  8
SIZE
  6
Continuous
 62
    30
100
AcDbLine
 10
215.503647
 20
-899.083807
 30
0.0
 11
210.503647
 21
-899.083807
 31
0.0
  0
CIRCLE
  5
52
330
323
100
AcDbEntity
  8
SIZE
  6
Continuous
 62
    30
100
AcDbCircle
 10
-235.496353
 20
-899.083807
 30
0.0
 40
5.0
  0
LINE
  5
53
330
323
100
AcDbEntity
  8
SIZE
  6
Continuous
 62
    30
100
AcDbLine
 10
-230.496353
 20
-899.083807
 30
0.0
 11
-225.496353
 21
-899.083807
 31
0.0
  0
TEXT
  5
54
330
323
100
AcDbEntity
  8
SIZE
  6
Continuous
 62
    30
100
AcDbText
 10
-80.18206728571428
 20
-879.0838069999999
 30
0.0
 40
64.0
  1
456
 41
0.9
 72
     1
 11
-7.496353
 21
-879.0838069999999
 31
0.0
100
AcDbText
  0
POINT
  5
55
330
323
100
AcDbEntity
  8
DEFPOINTS
  6
Continuous
 62
     7
100
AcDbPoint
 10
220.503647
 20
0.0
 30
0.0
  0
POINT
  5
56
330
323
100
AcDbEntity
  8
DEFPOINTS
  6
Continuous
 62
     7
100
AcDbPoint
 10
-235.496353
 20
0.0
 30
0.0
  0
POINT
  5
57
330
323
100
AcDbEntity
  8
DEFPOINTS
  6
Continuous
 62
     7
100
AcDbPoint
 10
-235.496353
 20
-899.083807
 30
0.0
  0
LINE
  5
58
330
323
100
AcDbEntity
  8
OUTLINE
  6
Continuous
 62
     3
100
AcDbLine
 10
220.503647
 20
0.0
 30
0.0
 11
-235.996353
 21
0.0
 31
0.0
  0
LINE
  5
59
330
323
100
AcDbEntity
  8
DETAIL
  6
Continuous
 62
     5
100
AcDbLine
 10
221.003647
 20
80.0
 30
0.0
 11
-242.5
 21
80.0
 31
0.0
  0
LINE
  5
5A
330
323
100
AcDbEntity
  8
SIZE
  6
Continuous
 62
    30
100
AcDbLine
 10
-157.496353
 20
-33.138752
 30
0.0
 11
-157.496353
 21
-779.144878
 31
0.0
  0
LINE
  5
5B
330
323
100
AcDbEntity
  8
SIZE
  6
Continuous
 62
    30
100
AcDbLine
 10
142.503647
 20
-33.138752
 30
0.0
 11
142.503647
 21
-779.144878
 31
0.0
  0
LINE
  5
5C
330
323
100
AcDbEntity
  8
SIZE
  6
Continuous
 62
    30
100
AcDbLine
 10
-147.496353
 20
-749.144878
 30
0.0
 11
132.503647
 21
-749.144878
 31
0.0
  0
CIRCLE
  5
5D
330
323
100
AcDbEntity
  8
SIZE
  6
Continuous
 62
    30
100
AcDbCircle
 10
-157.496353
 20
-749.144878
 30
0.0
 40
5.0
  0
LINE
  5
5E
330
323
100
AcDbEntity
  8
SIZE
  6
Continuous
 62
    30
100
AcDbLine
 10
-152.496353
 20
-749.144878
 30
0.0
 11
-147.496353
 21
-749.144878
 31
0.0
  0
CIRCLE
  5
5F
330
323
100
AcDbEntity
  8
SIZE
  6
Continuous
 62
    30
100
AcDbCircle
 10
142.503647
 20
-749.144878
 30
0.0
 40
5.0
  0
LINE
  5
60
330
323
100
AcDbEntity
  8
SIZE
  6
Continuous
 62
    30
100
AcDbLine
 10
137.503647
 20
-749.144878
 30
0.0
 11
132.503647
 21
-749.144878
 31
0.0
  0
TEXT
  5
61
330
323
100
AcDbEntity
  8
SIZE
  6
Continuous
 62
    30
100
AcDbText
 10
-81.55349585714285
 20
-729.144878
 30
0.0
 40
64.0
  1
300
 41
0.9
 72
     1
 11
-7.496353
 21
-729.144878
 31
0.0
100
AcDbText
  0
POINT
  5
62
330
323
100
AcDbEntity
  8
DEFPOINTS
  6
Continuous
 62
     7
100
AcDbPoint
 10
-157.496353
 20
-13.138752
 30
0.0
  0
POINT
  5
63
330
323
100
AcDbEntity
  8
DEFPOINTS
  6
Continuous
 62
     7
100
AcDbPoint
 10
142.503647
 20
-13.138752
 30
0.0
  0
POINT
  5
64
330
323
100
AcDbEntity
  8
DEFPOINTS
  6
Continuous
 62
     7
100
AcDbPoint
 10
142.503647
 20
-749.144878
 30
0.0
  0
LINE
  5
65
330
323
100
AcDbEntity
  8
SIZE
  6
Continuous
 62
    30
100
AcDbLine
 10
-242.5
 20
60.0
 30
0.0
 11
-242.5
 21
-617.588428
 31
0.0
  0
LINE
  5
66
330
323
100
AcDbEntity
  8
SIZE
  6
Continuous
 62
    30
100
AcDbLine
 10
-7.5
 20
-16.144062
 30
0.0
 11
-7.5
 21
-617.588428
 31
0.0
  0
LINE
  5
67
330
323
100
AcDbEntity
  8
SIZE
  6
Continuous
 62
    30
100
AcDbLine
 10
-17.5
 20
-587.588428
 30
0.0
 11
-232.5
 21
-587.588428
 31
0.0
  0
LINE
  5
68
330
323
100
AcDbEntity
  8
SIZE
  6
Continuous
 62
    30
100
AcDbLine
 10
-242.5
 20
-587.588428
 30
0.0
 11
-440.614286
 21
-587.588428
 31
0.0
  0
CIRCLE
  5
69
330
323
100
AcDbEntity
  8
SIZE
  6
Continuous
 62
    30
100
AcDbCircle
 10
-7.5
 20
-587.588428
 30
0.0
 40
5.0
  0
LINE
  5
6A
330
323
100
AcDbEntity
  8
SIZE
  6
Continuous
 62
    30
100
AcDbLine
 10
-12.5
 20
-587.588428
 30
0.0
 11
-17.5
 21
-587.588428
 31
0.0
  0
CIRCLE
  5
6B
330
323
100
AcDbEntity
  8
SIZE
  6
Continuous
 62
    30
100
AcDbCircle
 10
-242.5
 20
-587.588428
 30
0.0
 40
5.0
  0
LINE
  5
6C
330
323
100
AcDbEntity
  8
SIZE
  6
Continuous
 62
    30
100
AcDbLine
 10
-237.5
 20
-587.588428
 30
0.0
 11
-232.5
 21
-587.588428
 31
0.0
  0
TEXT
  5
6D
330
323
100
AcDbEntity
  8
SIZE
  6
Continuous
 62
    30
100
AcDbText
 10
-420.6142858571428
 20
-567.588428
 30
0.0
 40
64.0
  1
235
 41
0.9
 72
     1
 11
-346.557143
 21
-567.588428
 31
0.0
100
AcDbText
  0
POINT
  5
6E
330
323
100
AcDbEntity
  8
DEFPOINTS
  6
Continuous
 62
     7
100
AcDbPoint
 10
-242.5
 20
80.0
 30
0.0
  0
POINT
  5
6F
330
323
100
AcDbEntity
  8
DEFPOINTS
  6
Continuous
 62
     7
100
AcDbPoint
 10
-7.5
 20
3.855937999999998
 30
0.0
  0
POINT
  5
70
330
323
100
AcDbEntity
  8
DEFPOINTS
  6
Continuous
 62
     7
100
AcDbPoint
 10
-7.5
 20
-587.588428
 30
0.0
  0
LINE
  5
71
330
323
100
AcDbEntity
  8
DETAIL
  6
Continuous
 62
     5
100
AcDbLine
 10
220.003647
 20
0.0
 30
0.0
 11
-235.996353
 21
0.0
 31
0.0
  0
LINE
  5
72
330
323
100
AcDbEntity
  8
NOTE
  6
Continuous
 62
     4
100
AcDbLine
 10
896.45671
 20
-327.801429
 30
0.0
 11
384.278646
 21
-327.801429
 31
0.0
  0
TEXT
  5
73
330
323
100
AcDbEntity
  8
NOTE
  6
Continuous
 62
     4
100
AcDbText
 10
398.646487
 20
-313.520103
 30
0.0
 40
50.0
  1
AH　2×2-φ12（M10）
 50
359.999997
 41
0.6310000000000002
  7
STANDARD1
100
AcDbText
  0
LINE
  5
74
330
323
100
AcDbEntity
  8
SIZE
  6
Continuous
 62
    30
100
AcDbLine
 10
248.0
 20
0.0
 30
0.0
 11
837.833247
 21
0.0
 31
0.0
  0
LINE
  5
75
330
323
100
AcDbEntity
  8
SIZE
  6
Continuous
 62
    30
100
AcDbLine
 10
198.587542
 20
130.0
 30
0.0
 11
837.833247
 21
130.0
 31
0.0
  0
LINE
  5
76
330
323
100
AcDbEntity
  8
SIZE
  6
Continuous
 62
    30
100
AcDbLine
 10
807.8332470000001
 20
120.0
 30
0.0
 11
807.8332470000001
 21
10.0
 31
0.0
  0
LINE
  5
77
330
323
100
AcDbEntity
  8
SIZE
  6
Continuous
 62
    30
100
AcDbLine
 10
807.8332470000001
 20
0.0
 30
0.0
 11
807.8332470000001
 21
-187.142857
 31
0.0
  0
CIRCLE
  5
78
330
323
100
AcDbEntity
  8
SIZE
  6
Continuous
 62
    30
100
AcDbCircle
 10
807.8332470000001
 20
130.0
 30
0.0
 40
5.0
  0
LINE
  5
79
330
323
100
AcDbEntity
  8
SIZE
  6
Continuous
 62
    30
100
AcDbLine
 10
807.8332470000001
 20
125.0
 30
0.0
 11
807.8332470000001
 21
120.0
 31
0.0
  0
CIRCLE
  5
7A
330
323
100
AcDbEntity
  8
SIZE
  6
Continuous
 62
    30
100
AcDbCircle
 10
807.8332470000001
 20
0.0
 30
0.0
 40
5.0
  0
LINE
  5
7B
330
323
100
AcDbEntity
  8
SIZE
  6
Continuous
 62
    30
100
AcDbLine
 10
807.8332470000001
 20
5.0
 30
0.0
 11
807.8332470000001
 21
10.0
 31
0.0
  0
TEXT
  5
7C
330
323
100
AcDbEntity
  8
SIZE
  6
Continuous
 62
    30
100
AcDbText
 10
787.833247
 20
-167.1428575714285
 30
0.0
 40
64.0
  1
130
 50
90.0
 41
0.9
 72
     1
 11
787.833247
 21
-98.57142899999999
 31
0.0
100
AcDbText
  0
POINT
  5
7D
330
323
100
AcDbEntity
  8
DEFPOINTS
  6
Continuous
 62
     7
100
AcDbPoint
 10
228.0
 20
0.0
 30
0.0
  0
POINT
  5
7E
330
323
100
AcDbEntity
  8
DEFPOINTS
  6
Continuous
 62
     7
100
AcDbPoint
 10
178.587542
 20
130.0
 30
0.0
  0
POINT
  5
7F
330
323
100
AcDbEntity
  8
DEFPOINTS
  6
Continuous
 62
     7
100
AcDbPoint
 10
807.8332470000001
 20
130.0
 30
0.0
  0
LINE
  5
80
330
323
100
AcDbEntity
  8
SIZE
  6
Continuous
 62
    30
100
AcDbLine
 10
190.590041
 20
190.0
 30
0.0
 11
837.833247
 21
190.0
 31
0.0
  0
LINE
  5
81
330
323
100
AcDbEntity
  8
SIZE
  6
Continuous
 62
    30
100
AcDbLine
 10
190.590041
 20
250.0
 30
0.0
 11
837.833247
 21
250.0
 31
0.0
  0
LINE
  5
82
330
323
100
AcDbEntity
  8
SIZE
  6
Continuous
 62
    30
100
AcDbLine
 10
807.8332470000001
 20
200.0
 30
0.0
 11
807.8332470000001
 21
240.0
 31
0.0
  0
LINE
  5
83
330
323
100
AcDbEntity
  8
SIZE
  6
Continuous
 62
    30
100
AcDbLine
 10
807.8332470000001
 20
394.243578
 30
0.0
 11
807.8332470000001
 21
250.0
 31
0.0
  0
TEXT
  5
84
330
323
100
AcDbEntity
  8
SIZE
  6
Continuous
 62
    30
100
AcDbText
 10
787.833247
 20
280.9864355714286
 30
0.0
 40
64.0
  1
60
 50
90.0
 41
0.9
 72
     1
 11
787.833247
 21
327.615007
 31
0.0
100
AcDbText
  0
CIRCLE
  5
85
330
323
100
AcDbEntity
  8
SIZE
  6
Continuous
 62
    30
100
AcDbCircle
 10
807.8332470000001
 20
190.0
 30
0.0
 40
5.0
  0
LINE
  5
86
330
323
100
AcDbEntity
  8
SIZE
  6
Continuous
 62
    30
100
AcDbLine
 10
807.8332470000001
 20
195.0
 30
0.0
 11
807.8332470000001
 21
200.0
 31
0.0
  0
CIRCLE
  5
87
330
323
100
AcDbEntity
  8
SIZE
  6
Continuous
 62
    30
100
AcDbCircle
 10
807.8332470000001
 20
250.0
 30
0.0
 40
5.0
  0
LINE
  5
88
330
323
100
AcDbEntity
  8
SIZE
  6
Continuous
 62
    30
100
AcDbLine
 10
807.8332470000001
 20
245.0
 30
0.0
 11
807.8332470000001
 21
240.0
 31
0.0
  0
POINT
  5
89
330
323
100
AcDbEntity
  8
DEFPOINTS
  6
Continuous
 62
     7
100
AcDbPoint
 10
170.590041
 20
190.0
 30
0.0
  0
POINT
  5
8A
330
323
100
AcDbEntity
  8
DEFPOINTS
  6
Continuous
 62
     7
100
AcDbPoint
 10
170.590041
 20
250.0
 30
0.0
  0
POINT
  5
8B
330
323
100
AcDbEntity
  8
DEFPOINTS
  6
Continuous
 62
     7
100
AcDbPoint
 10
807.8332470000001
 20
250.0
 30
0.0
  0
LINE
  5
8C
330
323
100
AcDbEntity
  8
SIZE
  6
Continuous
 62
    30
100
AcDbLine
 10
198.587542
 20
130.0
 30
0.0
 11
837.833247
 21
130.0
 31
0.0
  0
LINE
  5
8D
330
323
100
AcDbEntity
  8
SIZE
  6
Continuous
 62
    30
100
AcDbLine
 10
190.590041
 20
190.0
 30
0.0
 11
837.833247
 21
190.0
 31
0.0
  0
LINE
  5
8E
330
323
100
AcDbEntity
  8
SIZE
  6
Continuous
 62
    30
100
AcDbLine
 10
807.8332470000001
 20
120.0
 30
0.0
 11
807.8332470000001
 21
110.0
 31
0.0
  0
LINE
  5
8F
330
323
100
AcDbEntity
  8
SIZE
  6
Continuous
 62
    30
100
AcDbLine
 10
807.8332470000001
 20
200.0
 30
0.0
 11
807.8332470000001
 21
210.0
 31
0.0
  0
LINE
  5
90
330
323
100
AcDbEntity
  8
SIZE
  6
Continuous
 62
    30
100
AcDbLine
 10
807.8332470000001
 20
160.0
 30
0.0
 11
952.7658649999999
 21
195.786498
 31
0.0
  0
LINE
  5
91
330
323
100
AcDbEntity
  8
SIZE
  6
Continuous
 62
    30
100
AcDbLine
 10
952.7658649999999
 20
195.786498
 30
0.0
 11
952.7658649999999
 21
329.043641
 31
0.0
  0
TEXT
  5
92
330
323
100
AcDbEntity
  8
SIZE
  6
Continuous
 62
    30
100
AcDbText
 10
932.765865
 20
215.7864985714286
 30
0.0
 40
64.0
  1
60
 50
90.0
 41
0.9
 72
     1
 11
932.765865
 21
262.41507
 31
0.0
100
AcDbText
  0
LINE
  5
93
330
323
100
AcDbEntity
  8
SIZE
  6
Continuous
 62
    30
100
AcDbLine
 10
807.8332470000001
 20
130.0
 30
0.0
 11
807.8332470000001
 21
190.0
 31
0.0
  0
LINE
  5
94
330
323
100
AcDbEntity
  8
SIZE
  6
Continuous
 62
    30
100
AcDbLine
 10
807.8332470000001
 20
130.0
 30
0.0
 11
807.8332470000001
 21
190.0
 31
0.0
  0
CIRCLE
  5
95
330
323
100
AcDbEntity
  8
SIZE
  6
Continuous
 62
    30
100
AcDbCircle
 10
807.8332470000001
 20
130.0
 30
0.0
 40
5.0
  0
LINE
  5
96
330
323
100
AcDbEntity
  8
SIZE
  6
Continuous
 62
    30
100
AcDbLine
 10
807.8332470000001
 20
125.0
 30
0.0
 11
807.8332470000001
 21
120.0
 31
0.0
  0
CIRCLE
  5
97
330
323
100
AcDbEntity
  8
SIZE
  6
Continuous
 62
    30
100
AcDbCircle
 10
807.8332470000001
 20
190.0
 30
0.0
 40
5.0
  0
LINE
  5
98
330
323
100
AcDbEntity
  8
SIZE
  6
Continuous
 62
    30
100
AcDbLine
 10
807.8332470000001
 20
195.0
 30
0.0
 11
807.8332470000001
 21
200.0
 31
0.0
  0
POINT
  5
99
330
323
100
AcDbEntity
  8
DEFPOINTS
  6
Continuous
 62
     7
100
AcDbPoint
 10
178.587542
 20
130.0
 30
0.0
  0
POINT
  5
9A
330
323
100
AcDbEntity
  8
DEFPOINTS
  6
Continuous
 62
     7
100
AcDbPoint
 10
170.590041
 20
190.0
 30
0.0
  0
POINT
  5
9B
330
323
100
AcDbEntity
  8
DEFPOINTS
  6
Continuous
 62
     7
100
AcDbPoint
 10
807.8332470000001
 20
190.0
 30
0.0
  0
LINE
  5
9C
330
323
100
AcDbEntity
  8
OUTLINE
  6
Continuous
 62
     3
100
AcDbLine
 10
220.503647
 20
80.0
 30
0.0
 11
220.503647
 21
0.0
 31
0.0
  0
LINE
  5
9D
330
323
100
AcDbEntity
  8
DETAIL
  6
Continuous
 62
     5
100
AcDbLine
 10
220.503647
 20
80.0
 30
0.0
 11
220.503647
 21
0.0
 31
0.0
  0
CIRCLE
  5
9E
330
323
100
AcDbEntity
  8
DETAIL
  6
Continuous
 62
     5
100
AcDbCircle
 10
-7.5
 20
29.99063
 30
0.0
 40
18.994066
  0
LINE
  5
9F
330
323
100
AcDbEntity
  8
NOTE
  6
Continuous
 62
     4
100
AcDbLine
 10
367.988549
 20
-438.780093
 30
0.0
 11
-7.5
 21
30.0
 31
0.0
  0
LINE
  5
A0
330
323
100
AcDbEntity
  8
NOTE
  6
Continuous
 62
     4
100
AcDbLine
 10
-7.5
 20
30.0
 30
0.0
 11
15.484253
 21
13.042972
 31
0.0
  0
LINE
  5
A1
330
323
100
AcDbEntity
  8
NOTE
  6
Continuous
 62
     4
100
AcDbLine
 10
-7.5
 20
30.0
 30
0.0
 11
3.926433
 21
3.822655999999998
 31
0.0
  0
LINE
  5
A2
330
323
100
AcDbEntity
  8
NOTE
  6
Continuous
 62
     4
100
AcDbLine
 10
-7.5
 20
56.125322
 30
0.0
 11
-7.5
 21
3.855937999999998
 31
0.0
  0
LINE
  5
A3
330
323
100
AcDbEntity
  8
SIZE
  6
Continuous
 62
    30
100
AcDbLine
 10
39.634692
 20
30.0
 30
0.0
 11
393.371599
 21
30.0
 31
0.0
  0
LINE
  5
A4
330
323
100
AcDbEntity
  8
SIZE
  6
Continuous
 62
    30
100
AcDbLine
 10
241.503647
 20
0.0
 30
0.0
 11
393.371599
 21
0.0
 31
0.0
  0
LINE
  5
A5
330
323
100
AcDbEntity
  8
SIZE
  6
Continuous
 62
    30
100
AcDbLine
 10
363.371599
 20
40.0
 30
0.0
 11
363.371599
 21
50.0
 31
0.0
  0
LINE
  5
A6
330
323
100
AcDbEntity
  8
SIZE
  6
Continuous
 62
    30
100
AcDbLine
 10
363.371599
 20
-10.0
 30
0.0
 11
363.371599
 21
-153.257143
 31
0.0
  0
LINE
  5
A7
330
323
100
AcDbEntity
  8
SIZE
  6
Continuous
 62
    30
100
AcDbLine
 10
363.371599
 20
30.0
 30
0.0
 11
363.371599
 21
0.0
 31
0.0
  0
CIRCLE
  5
A8
330
323
100
AcDbEntity
  8
SIZE
  6
Continuous
 62
    30
100
AcDbCircle
 10
363.371599
 20
30.0
 30
0.0
 40
5.0
  0
LINE
  5
A9
330
323
100
AcDbEntity
  8
SIZE
  6
Continuous
 62
    30
100
AcDbLine
 10
363.371599
 20
35.0
 30
0.0
 11
363.371599
 21
40.0
 31
0.0
  0
CIRCLE
  5
AA
330
323
100
AcDbEntity
  8
SIZE
  6
Continuous
 62
    30
100
AcDbCircle
 10
363.371599
 20
0.0
 30
0.0
 40
5.0
  0
LINE
  5
AB
330
323
100
AcDbEntity
  8
SIZE
  6
Continuous
 62
    30
100
AcDbLine
 10
363.371599
 20
-5.0
 30
0.0
 11
363.371599
 21
-10.0
 31
0.0
  0
TEXT
  5
AC
330
323
100
AcDbEntity
  8
SIZE
  6
Continuous
 62
    30
100
AcDbText
 10
343.371599
 20
-133.2571424285714
 30
0.0
 40
64.0
  1
30
 50
90.0
 41
0.9
 72
     1
 11
343.371599
 21
-86.628571
 31
0.0
100
AcDbText
  0
POINT
  5
AD
330
323
100
AcDbEntity
  8
DEFPOINTS
  6
Continuous
 62
     7
100
AcDbPoint
 10
19.634692
 20
30.0
 30
0.0
  0
POINT
  5
AE
330
323
100
AcDbEntity
  8
DEFPOINTS
  6
Continuous
 62
     7
100
AcDbPoint
 10
221.503647
 20
0.0
 30
0.0
  0
POINT
  5
AF
330
323
100
AcDbEntity
  8
DEFPOINTS
  6
Continuous
 62
     7
100
AcDbPoint
 10
363.371599
 20
0.0
 30
0.0
  0
LINE
  5
B0
330
323
100
AcDbEntity
  8
DETAIL
  6
Continuous
 62
     5
100
AcDbLine
 10
112.513016
 20
34.989069
 30
0.0
 11
112.513016
 21
0.0
 31
0.0
  0
LINE
  5
B1
330
323
100
AcDbEntity
  8
DETAIL
  6
Continuous
 62
     5
100
AcDbLine
 10
172.494277
 20
34.989069
 30
0.0
 11
172.494277
 21
0.0
 31
0.0
  0
LINE
  5
B2
330
323
100
AcDbEntity
  8
SIZE
  6
Continuous
 62
    30
100
AcDbLine
 10
240.003647
 20
0.0
 30
0.0
 11
548.210395
 21
0.0
 31
0.0
  0
LINE
  5
B3
330
323
100
AcDbEntity
  8
SIZE
  6
Continuous
 62
    30
100
AcDbLine
 10
240.003647
 20
80.0
 30
0.0
 11
548.210395
 21
80.0
 31
0.0
  0
LINE
  5
B4
330
323
100
AcDbEntity
  8
SIZE
  6
Continuous
 62
    30
100
AcDbLine
 10
518.2103950000001
 20
10.0
 30
0.0
 11
518.2103950000001
 21
70.0
 31
0.0
  0
LINE
  5
B5
330
323
100
AcDbEntity
  8
SIZE
  6
Continuous
 62
    30
100
AcDbLine
 10
518.2103950000001
 20
-154.172292
 30
0.0
 11
518.2103950000001
 21
0.0
 31
0.0
  0
TEXT
  5
B6
330
323
100
AcDbEntity
  8
SIZE
  6
Continuous
 62
    30
100
AcDbText
 10
498.2103949999998
 20
-134.1722914285714
 30
0.0
 40
64.0
  1
80
 50
90.0
 41
0.9
 72
     1
 11
498.2103949999998
 21
-87.54372
 31
0.0
100
AcDbText
  0
CIRCLE
  5
B7
330
323
100
AcDbEntity
  8
SIZE
  6
Continuous
 62
    30
100
AcDbCircle
 10
518.2103950000001
 20
0.0
 30
0.0
 40
5.0
  0
LINE
  5
B8
330
323
100
AcDbEntity
  8
SIZE
  6
Continuous
 62
    30
100
AcDbLine
 10
518.2103950000001
 20
5.0
 30
0.0
 11
518.2103950000001
 21
10.0
 31
0.0
  0
CIRCLE
  5
B9
330
323
100
AcDbEntity
  8
SIZE
  6
Continuous
 62
    30
100
AcDbCircle
 10
518.2103950000001
 20
80.0
 30
0.0
 40
5.0
  0
LINE
  5
BA
330
323
100
AcDbEntity
  8
SIZE
  6
Continuous
 62
    30
100
AcDbLine
 10
518.2103950000001
 20
75.0
 30
0.0
 11
518.2103950000001
 21
70.0
 31
0.0
  0
POINT
  5
BB
330
323
100
AcDbEntity
  8
DEFPOINTS
  6
Continuous
 62
     7
100
AcDbPoint
 10
220.003647
 20
0.0
 30
0.0
  0
POINT
  5
BC
330
323
100
AcDbEntity
  8
DEFPOINTS
  6
Continuous
 62
     7
100
AcDbPoint
 10
220.003647
 20
80.0
 30
0.0
  0
POINT
  5
BD
330
323
100
AcDbEntity
  8
DEFPOINTS
  6
Continuous
 62
     7
100
AcDbPoint
 10
518.2103950000001
 20
80.0
 30
0.0
  0
LINE
  5
BE
330
323
100
AcDbEntity
  8
NOTE
  6
Continuous
 62
     4
100
AcDbLine
 10
384.278646
 20
-327.801429
 30
0.0
 11
142.503647
 21
0.0
 31
0.0
  0
LINE
  5
BF
330
323
100
AcDbEntity
  8
NOTE
  6
Continuous
 62
     4
100
AcDbLine
 10
619.474082
 20
-438.7886669999998
 30
0.0
 11
366.492731
 21
-438.7886669999998
 31
0.0
  0
TEXT
  5
C0
330
323
100
AcDbEntity
  8
NOTE
  6
Continuous
 62
     4
100
AcDbText
 10
404.4501979999997
 20
-427.2553929999999
 30
0.0
 40
50.0
  1
D2　Rc1
 50
359.999997
 41
0.6310000000000002
  7
STANDARD1
100
AcDbText
  0
LINE
  5
C1
330
323
100
AcDbEntity
  8
DETAIL
  6
Continuous
 62
     5
100
AcDbLine
 10
172.494277
 20
4.498594999999999
 30
0.0
 11
112.513016
 21
4.498594999999999
 31
0.0
  0
CIRCLE
  5
C2
330
323
100
AcDbEntity
  8
FIX
  6
Continuous
 62
    11
100
AcDbCircle
 10
142.503647
 20
0.0
 30
0.0
 40
9.858928999999999
  0
LINE
  5
C3
330
323
100
AcDbEntity
  8
NOTE
  6
Continuous
 62
     4
100
AcDbLine
 10
129.364894
 20
0.0
 30
0.0
 11
155.642399
 21
0.0
 31
0.0
  0
LINE
  5
C4
330
323
100
AcDbEntity
  8
DETAIL
  6
Continuous
 62
     5
100
AcDbLine
 10
220.503647
 20
0.0
 30
0.0
 11
220.003647
 21
0.0
 31
0.0
  0
LINE
  5
C5
330
323
100
AcDbEntity
  8
OUTLINE
  6
Continuous
 62
     3
100
AcDbLine
 10
220.503647
 20
0.0
 30
0.0
 11
220.003647
 21
0.0
 31
0.0
  0
LINE
  5
C6
330
323
100
AcDbEntity
  8
NOTE
  6
Continuous
 62
     4
100
AcDbLine
 10
142.503647
 20
13.138752
 30
0.0
 11
142.503647
 21
-13.138752
 31
0.0
  0
LINE
  5
C7
330
323
100
AcDbEntity
  8
NOTE
  6
Continuous
 62
     4
100
AcDbLine
 10
142.503647
 20
0.0
 30
0.0
 11
152.937337
 21
-26.588621
 31
0.0
  0
LINE
  5
C8
330
323
100
AcDbEntity
  8
NOTE
  6
Continuous
 62
     4
100
AcDbLine
 10
142.503647
 20
0.0
 30
0.0
 11
164.833799
 21
-17.809576
 31
0.0
  0
LINE
  5
C9
330
323
100
AcDbEntity
  8
NOTE
  6
Continuous
 62
     4
100
AcDbLine
 10
473.8159190000001
 20
554.379588
 30
0.0
 11
142.5
 21
190.0
 31
0.0
  0
LINE
  5
CA
330
323
100
AcDbEntity
  8
NOTE
  6
Continuous
 62
     4
100
AcDbLine
 10
449.9422690000002
 20
389.381447
 30
0.0
 11
142.5
 21
130.0
 31
0.0
  0
TEXT
  5
CB
330
323
100
AcDbEntity
  8
NOTE
  6
Continuous
 62
     4
100
AcDbText
 10
548.7775280000001
 20
407.2959799999998
 30
0.0
 40
50.0
  1
ﾉｯｸｱｳﾄφ43
 50
359.999997
 41
0.6310000000000002
  7
STANDARD1
100
AcDbText
  0
TEXT
  5
CC
330
323
100
AcDbEntity
  8
NOTE
  6
Continuous
 62
     4
100
AcDbText
 10
456.1719809999998
 20
405.721264
 30
0.0
 40
50.0
  1
EL3
 50
359.999997
 41
0.6310000000000002
  7
STANDARD1
100
AcDbText
  0
TEXT
  5
CD
330
323
100
AcDbEntity
  8
NOTE
  6
Continuous
 62
     4
100
AcDbText
 10
478.139789
 20
563.133422
 30
0.0
 40
50.0
  1
EL2
 50
359.999997
 41
0.6310000000000002
  7
STANDARD1
100
AcDbText
  0
LINE
  5
CE
330
323
100
AcDbEntity
  8
NOTE
  6
Continuous
 62
     4
100
AcDbLine
 10
747.179383
 20
554.379588
 30
0.0
 11
473.8159190000001
 21
554.379588
 31
0.0
  0
LINE
  5
CF
330
323
100
AcDbEntity
  8
NOTE
  6
Continuous
 62
     4
100
AcDbLine
 10
747.179383
 20
389.381447
 30
0.0
 11
449.9422690000002
 21
389.381447
 31
0.0
  0
TEXT
  5
D0
330
323
100
AcDbEntity
  8
NOTE
  6
Continuous
 62
     4
100
AcDbText
 10
567.847924
 20
561.9612009999998
 30
0.0
 40
50.0
  1
ﾉｯｸｱｳﾄφ27
 50
359.999997
 41
0.6310000000000002
  7
STANDARD1
100
AcDbText
  0
LINE
  5
D1
330
323
100
AcDbEntity
  8
DETAIL
  6
Continuous
 62
     5
100
AcDbLine
 10
172.494277
 20
34.989069
 30
0.0
 11
112.513016
 21
34.989069
 31
0.0
  0
LINE
  5
D2
330
323
100
AcDbEntity
  8
NOTE
  6
Continuous
 62
     4
100
AcDbLine
 10
121.86359
 20
250.0
 30
0.0
 11
163.13641
 21
250.0
 31
0.0
  0
CIRCLE
  5
D3
330
323
100
AcDbEntity
  8
DETAIL
  6
Continuous
 62
     5
100
AcDbCircle
 10
142.5
 20
250.0
 30
0.0
 40
13.5
  0
LINE
  5
D4
330
323
100
AcDbEntity
  8
NOTE
  6
Continuous
 62
     4
100
AcDbLine
 10
113.866089
 20
130.0
 30
0.0
 11
171.133911
 21
130.0
 31
0.0
  0
LINE
  5
D5
330
323
100
AcDbEntity
  8
NOTE
  6
Continuous
 62
     4
100
AcDbLine
 10
121.86359
 20
190.0
 30
0.0
 11
163.13641
 21
190.0
 31
0.0
  0
CIRCLE
  5
D6
330
323
100
AcDbEntity
  8
DETAIL
  6
Continuous
 62
     5
100
AcDbCircle
 10
142.5
 20
130.0
 30
0.0
 40
21.5
  0
CIRCLE
  5
D7
330
323
100
AcDbEntity
  8
DETAIL
  6
Continuous
 62
     5
100
AcDbCircle
 10
142.5
 20
190.0
 30
0.0
 40
13.5
  0
LINE
  5
D8
330
323
100
AcDbEntity
  8
NOTE
  6
Continuous
 62
     4
100
AcDbLine
 10
142.5
 20
210.63641
 30
0.0
 11
142.5
 21
169.36359
 31
0.0
  0
LINE
  5
D9
330
323
100
AcDbEntity
  8
OUTLINE
  6
Continuous
 62
     3
100
AcDbLine
 10
221.003647
 20
80.0
 30
0.0
 11
220.503647
 21
80.0
 31
0.0
  0
LINE
  5
DA
330
323
100
AcDbEntity
  8
OUTLINE
  6
Continuous
 62
     3
100
AcDbLine
 10
242.5
 20
80.0
 30
0.0
 11
221.003647
 21
80.0
 31
0.0
  0
LINE
  5
DB
330
323
100
AcDbEntity
  8
DETAIL
  6
Continuous
 62
     5
100
AcDbLine
 10
242.5
 20
80.0
 30
0.0
 11
221.003647
 21
80.0
 31
0.0
  0
CIRCLE
  5
DC
330
323
100
AcDbEntity
  8
DETAIL
  6
Continuous
 62
     5
100
AcDbCircle
 10
142.503647
 20
19.993753
 30
0.0
 40
4.998438
  0
LINE
  5
DD
330
323
100
AcDbEntity
  8
NOTE
  6
Continuous
 62
     4
100
AcDbLine
 10
142.5
 20
130.0
 30
0.0
 11
168.353989
 21
142.140344
 31
0.0
  0
LINE
  5
DE
330
323
100
AcDbEntity
  8
NOTE
  6
Continuous
 62
     4
100
AcDbLine
 10
142.5
 20
130.0
 30
0.0
 11
158.820039
 21
153.4408409999999
 31
0.0
  0
LINE
  5
DF
330
323
100
AcDbEntity
  8
NOTE
  6
Continuous
 62
     4
100
AcDbLine
 10
142.5
 20
158.633911
 30
0.0
 11
142.5
 21
101.366089
 31
0.0
  0
LINE
  5
E0
330
323
100
AcDbEntity
  8
NOTE
  6
Continuous
 62
     4
100
AcDbLine
 10
142.5
 20
250.0
 30
0.0
 11
164.603792
 21
268.089751
 31
0.0
  0
LINE
  5
E1
330
323
100
AcDbEntity
  8
NOTE
  6
Continuous
 62
     4
100
AcDbLine
 10
142.5
 20
250.0
 30
0.0
 11
152.597569
 21
276.71808
 31
0.0
  0
LINE
  5
E2
330
323
100
AcDbEntity
  8
NOTE
  6
Continuous
 62
     4
100
AcDbLine
 10
142.5
 20
270.63641
 30
0.0
 11
142.5
 21
229.36359
 31
0.0
  0
LINE
  5
E3
330
323
100
AcDbEntity
  8
NOTE
  6
Continuous
 62
     4
100
AcDbLine
 10
142.5
 20
190.0
 30
0.0
 11
166.53
 21
205.439423
 31
0.0
  0
LINE
  5
E4
330
323
100
AcDbEntity
  8
NOTE
  6
Continuous
 62
     4
100
AcDbLine
 10
142.5
 20
190.0
 30
0.0
 11
155.590878
 21
215.385933
 31
0.0
  0
CIRCLE
  5
E5
330
323
100
AcDbEntity
  8
DETAIL
  6
Continuous
 62
     5
100
AcDbCircle
 10
-7.5
 20
29.99063
 30
0.0
 40
15.14077
  0
LINE
  5
E6
330
323
100
AcDbEntity
  8
NOTE
  6
Continuous
 62
     4
100
AcDbLine
 10
-33.634692
 20
30.0
 30
0.0
 11
18.634692
 21
30.0
 31
0.0
  0
LINE
  5
E7
330
323
100
AcDbEntity
  8
SIZE
  6
Continuous
 62
    30
100
AcDbLine
 10
-235.496353
 20
-20.0
 30
0.0
 11
-235.496353
 21
-929.0838069999999
 31
0.0
  0
LINE
  5
E8
330
323
100
AcDbEntity
  8
SIZE
  6
Continuous
 62
    30
100
AcDbLine
 10
-242.5
 20
60.0
 30
0.0
 11
-242.5
 21
-929.0838069999999
 31
0.0
  0
LINE
  5
E9
330
323
100
AcDbEntity
  8
SIZE
  6
Continuous
 62
    30
100
AcDbLine
 10
-225.496353
 20
-899.083807
 30
0.0
 11
-215.496353
 21
-899.083807
 31
0.0
  0
LINE
  5
EA
330
323
100
AcDbEntity
  8
SIZE
  6
Continuous
 62
    30
100
AcDbLine
 10
-252.5
 20
-899.083807
 30
0.0
 11
-262.5
 21
-899.083807
 31
0.0
  0
LINE
  5
EB
330
323
100
AcDbEntity
  8
SIZE
  6
Continuous
 62
    30
100
AcDbLine
 10
-355.841125
 20
-899.083807
 30
0.0
 11
-242.5
 21
-899.083807
 31
0.0
  0
TEXT
  5
EC
330
323
100
AcDbEntity
  8
SIZE
  6
Continuous
 62
    30
100
AcDbText
 10
-335.841125
 20
-879.0838069999999
 30
0.0
 40
64.0
  1
7
 41
0.9
 72
     1
 11
-316.641125
 21
-879.0838069999999
 31
0.0
100
AcDbText
  0
LINE
  5
ED
330
323
100
AcDbEntity
  8
SIZE
  6
Continuous
 62
    30
100
AcDbLine
 10
-235.496353
 20
-899.083807
 30
0.0
 11
-242.5
 21
-899.083807
 31
0.0
  0
LINE
  5
EE
330
323
100
AcDbEntity
  8
SIZE
  6
Continuous
 62
    30
100
AcDbLine
 10
-235.496353
 20
-899.083807
 30
0.0
 11
-242.5
 21
-899.083807
 31
0.0
  0
CIRCLE
  5
EF
330
323
100
AcDbEntity
  8
SIZE
  6
Continuous
 62
    30
100
AcDbCircle
 10
-235.496353
 20
-899.083807
 30
0.0
 40
5.0
  0
LINE
  5
F0
330
323
100
AcDbEntity
  8
SIZE
  6
Continuous
 62
    30
100
AcDbLine
 10
-230.496353
 20
-899.083807
 30
0.0
 11
-225.496353
 21
-899.083807
 31
0.0
  0
CIRCLE
  5
F1
330
323
100
AcDbEntity
  8
SIZE
  6
Continuous
 62
    30
100
AcDbCircle
 10
-242.5
 20
-899.083807
 30
0.0
 40
5.0
  0
LINE
  5
F2
330
323
100
AcDbEntity
  8
SIZE
  6
Continuous
 62
    30
100
AcDbLine
 10
-247.5
 20
-899.083807
 30
0.0
 11
-252.5
 21
-899.083807
 31
0.0
  0
POINT
  5
F3
330
323
100
AcDbEntity
  8
DEFPOINTS
  6
Continuous
 62
     7
100
AcDbPoint
 10
-235.496353
 20
0.0
 30
0.0
  0
POINT
  5
F4
330
323
100
AcDbEntity
  8
DEFPOINTS
  6
Continuous
 62
     7
100
AcDbPoint
 10
-242.5
 20
80.0
 30
0.0
  0
POINT
  5
F5
330
323
100
AcDbEntity
  8
DEFPOINTS
  6
Continuous
 62
     7
100
AcDbPoint
 10
-242.5
 20
-899.083807
 30
0.0
  0
LINE
  5
F6
330
323
100
AcDbEntity
  8
SIZE
  6
Continuous
 62
    30
100
AcDbLine
 10
-242.5
 20
60.0
 30
0.0
 11
-242.5
 21
-779.144878
 31
0.0
  0
LINE
  5
F7
330
323
100
AcDbEntity
  8
SIZE
  6
Continuous
 62
    30
100
AcDbLine
 10
-157.496353
 20
-33.138752
 30
0.0
 11
-157.496353
 21
-779.144878
 31
0.0
  0
LINE
  5
F8
330
323
100
AcDbEntity
  8
SIZE
  6
Continuous
 62
    30
100
AcDbLine
 10
-167.496353
 20
-749.144878
 30
0.0
 11
-232.5
 21
-749.144878
 31
0.0
  0
LINE
  5
F9
330
323
100
AcDbEntity
  8
SIZE
  6
Continuous
 62
    30
100
AcDbLine
 10
-242.5
 20
-749.144878
 30
0.0
 11
-385.7571430000001
 21
-749.144878
 31
0.0
  0
CIRCLE
  5
FA
330
323
100
AcDbEntity
  8
SIZE
  6
Continuous
 62
    30
100
AcDbCircle
 10
-157.496353
 20
-749.144878
 30
0.0
 40
5.0
  0
LINE
  5
FB
330
323
100
AcDbEntity
  8
SIZE
  6
Continuous
 62
    30
100
AcDbLine
 10
-162.496353
 20
-749.144878
 30
0.0
 11
-167.496353
 21
-749.144878
 31
0.0
  0
CIRCLE
  5
FC
330
323
100
AcDbEntity
  8
SIZE
  6
Continuous
 62
    30
100
AcDbCircle
 10
-242.5
 20
-749.144878
 30
0.0
 40
5.0
  0
LINE
  5
FD
330
323
100
AcDbEntity
  8
SIZE
  6
Continuous
 62
    30
100
AcDbLine
 10
-237.5
 20
-749.144878
 30
0.0
 11
-232.5
 21
-749.144878
 31
0.0
  0
TEXT
  5
FE
330
323
100
AcDbEntity
  8
SIZE
  6
Continuous
 62
    30
100
AcDbText
 10
-365.7571424285714
 20
-729.144878
 30
0.0
 40
64.0
  1
85
 41
0.9
 72
     1
 11
-319.128571
 21
-729.144878
 31
0.0
100
AcDbText
  0
POINT
  5
FF
330
323
100
AcDbEntity
  8
DEFPOINTS
  6
Continuous
 62
     7
100
AcDbPoint
 10
-242.5
 20
80.0
 30
0.0
  0
POINT
  5
100
330
323
100
AcDbEntity
  8
DEFPOINTS
  6
Continuous
 62
     7
100
AcDbPoint
 10
-157.496353
 20
-13.138752
 30
0.0
  0
POINT
  5
101
330
323
100
AcDbEntity
  8
DEFPOINTS
  6
Continuous
 62
     7
100
AcDbPoint
 10
-157.496353
 20
-749.144878
 30
0.0
  0
LINE
  5
102
330
323
100
AcDbEntity
  8
DETAIL
  6
Continuous
 62
     5
100
AcDbLine
 10
-235.496353
 20
80.0
 30
0.0
 11
-235.496353
 21
0.0
 31
0.0
  0
LINE
  5
103
330
323
100
AcDbEntity
  8
OUTLINE
  6
Continuous
 62
     3
100
AcDbLine
 10
-235.496353
 20
80.0
 30
0.0
 11
-235.496353
 21
0.0
 31
0.0
  0
LINE
  5
104
330
323
100
AcDbEntity
  8
DETAIL
  6
Continuous
 62
     5
100
AcDbLine
 10
-127.505723
 20
34.936256
 30
0.0
 11
-127.505723
 21
-0.052812
 31
0.0
  0
LINE
  5
105
330
323
100
AcDbEntity
  8
DETAIL
  6
Continuous
 62
     5
100
AcDbLine
 10
-187.486984
 20
34.936256
 30
0.0
 11
-187.486984
 21
-0.052812
 31
0.0
  0
LINE
  5
106
330
323
100
AcDbEntity
  8
SIZE
  6
Continuous
 62
    30
100
AcDbLine
 10
-163.003647
 20
505.0011809999999
 30
0.0
 11
-606.1566230000002
 21
505.0011809999999
 31
0.0
  0
LINE
  5
107
330
323
100
AcDbEntity
  8
SIZE
  6
Continuous
 62
    30
100
AcDbLine
 10
-222.737808
 20
0.0
 30
0.0
 11
-606.1566230000002
 21
0.0
 31
0.0
  0
LINE
  5
108
330
323
100
AcDbEntity
  8
SIZE
  6
Continuous
 62
    30
100
AcDbLine
 10
-576.156623
 20
495.0011809999998
 30
0.0
 11
-576.156623
 21
10.0
 31
0.0
  0
CIRCLE
  5
109
330
323
100
AcDbEntity
  8
SIZE
  6
Continuous
 62
    30
100
AcDbCircle
 10
-576.156623
 20
505.0011809999999
 30
0.0
 40
5.0
  0
LINE
  5
10A
330
323
100
AcDbEntity
  8
SIZE
  6
Continuous
 62
    30
100
AcDbLine
 10
-576.156623
 20
500.001181
 30
0.0
 11
-576.156623
 21
495.0011809999998
 31
0.0
  0
CIRCLE
  5
10B
330
323
100
AcDbEntity
  8
SIZE
  6
Continuous
 62
    30
100
AcDbCircle
 10
-576.156623
 20
0.0
 30
0.0
 40
5.0
  0
LINE
  5
10C
330
323
100
AcDbEntity
  8
SIZE
  6
Continuous
 62
    30
100
AcDbLine
 10
-576.156623
 20
5.0
 30
0.0
 11
-576.156623
 21
10.0
 31
0.0
  0
TEXT
  5
10D
330
323
100
AcDbEntity
  8
SIZE
  6
Continuous
 62
    30
100
AcDbText
 10
-596.156623
 20
138.7670801428571
 30
0.0
 40
64.0
  1
505
 50
90.0
 41
0.9
 72
     1
 11
-596.156623
 21
212.824223
 31
0.0
100
AcDbText
  0
POINT
  5
10E
330
323
100
AcDbEntity
  8
DEFPOINTS
  6
Continuous
 62
     7
100
AcDbPoint
 10
-143.003647
 20
505.0011809999999
 30
0.0
  0
POINT
  5
10F
330
323
100
AcDbEntity
  8
DEFPOINTS
  6
Continuous
 62
     7
100
AcDbPoint
 10
-202.737808
 20
0.0
 30
0.0
  0
POINT
  5
110
330
323
100
AcDbEntity
  8
DEFPOINTS
  6
Continuous
 62
     7
100
AcDbPoint
 10
-576.156623
 20
0.0
 30
0.0
  0
LINE
  5
111
330
323
100
AcDbEntity
  8
DETAIL
  6
Continuous
 62
     5
100
AcDbLine
 10
-187.486984
 20
4.445782
 30
0.0
 11
-127.505723
 21
4.445782
 31
0.0
  0
CIRCLE
  5
112
330
323
100
AcDbEntity
  8
FIX
  6
Continuous
 62
    11
100
AcDbCircle
 10
-157.496353
 20
0.0
 30
0.0
 40
9.858928999999999
  0
LINE
  5
113
330
323
100
AcDbEntity
  8
NOTE
  6
Continuous
 62
     4
100
AcDbLine
 10
-157.496353
 20
13.138752
 30
0.0
 11
-157.496353
 21
-13.138752
 31
0.0
  0
LINE
  5
114
330
323
100
AcDbEntity
  8
NOTE
  6
Continuous
 62
     4
100
AcDbLine
 10
-170.635106
 20
0.0
 30
0.0
 11
-144.357601
 21
0.0
 31
0.0
  0
CIRCLE
  5
115
330
323
100
AcDbEntity
  8
DETAIL
  6
Continuous
 62
     5
100
AcDbCircle
 10
-157.496353
 20
19.940941
 30
0.0
 40
4.998438
  0
LINE
  5
116
330
323
100
AcDbEntity
  8
DETAIL
  6
Continuous
 62
     5
100
AcDbLine
 10
-187.486984
 20
34.936256
 30
0.0
 11
-127.505723
 21
34.936256
 31
0.0
  0
LINE
  5
117
330
323
100
AcDbEntity
  8
OUTLINE
  6
Continuous
 62
     3
100
AcDbLine
 10
-235.996353
 20
80.0
 30
0.0
 11
-242.5
 21
80.0
 31
0.0
  0
ARC
  5
118
330
323
100
AcDbEntity
  8
DETAIL
  6
Continuous
 62
     5
100
AcDbCircle
 10
-150.5
 20
500.001562
 30
0.0
 40
25.99188
100
AcDbArc
 50
180.0
 51
0.0
  0
LINE
  5
119
330
323
100
AcDbEntity
  8
NOTE
  6
Continuous
 62
     4
100
AcDbLine
 10
-150.5
 20
538.2753179999999
 30
0.0
 11
-150.5
 21
471.724682
 31
0.0
  0
ARC
  5
11A
330
323
100
AcDbEntity
  8
DETAIL
  6
Continuous
 62
     5
100
AcDbCircle
 10
-244.887145
 20
429.8657
 30
0.0
 40
7.612855
100
AcDbArc
 50
71.72563100000002
 51
288.274369
  0
LINE
  5
11B
330
323
100
AcDbEntity
  8
NOTE
  6
Continuous
 62
     4
100
AcDbLine
 10
-183.775318
 20
505.0
 30
0.0
 11
-117.224682
 21
505.0
 31
0.0
  0
LINE
  5
11C
330
323
100
AcDbEntity
  8
DETAIL
  6
Continuous
 62
     5
100
AcDbLine
 10
-168.32602
 20
511.558013
 30
0.0
 11
-176.392973
 21
512.2637799999998
 31
0.0
  0
LINE
  5
11D
330
323
100
AcDbEntity
  8
DETAIL
  6
Continuous
 62
     5
100
AcDbLine
 10
-124.634408
 20
512.557534
 30
0.0
 11
-132.095003
 21
509.6936799999999
 31
0.0
  0
CIRCLE
  5
11E
330
323
100
AcDbEntity
  8
DETAIL
  6
Continuous
 62
     5
100
AcDbCircle
 10
-150.5
 20
505.0
 30
0.0
 40
13.995627
  0
LINE
  5
11F
330
323
100
AcDbEntity
  8
DETAIL
  6
Continuous
 62
     5
100
AcDbLine
 10
-124.50812
 20
500.001562
 30
0.0
 11
-124.50812
 21
509.9984379999998
 31
0.0
  0
LINE
  5
120
330
323
100
AcDbEntity
  8
DETAIL
  6
Continuous
 62
     5
100
AcDbLine
 10
-176.49188
 20
500.001562
 30
0.0
 11
-176.49188
 21
509.9984379999998
 31
0.0
  0
LINE
  5
121
330
323
100
AcDbEntity
  8
NOTE
  6
Continuous
 62
     4
100
AcDbLine
 10
-150.5
 20
505.0
 30
0.0
 11
-126.418483
 21
520.3589459999998
 31
0.0
  0
LINE
  5
122
330
323
100
AcDbEntity
  8
NOTE
  6
Continuous
 62
     4
100
AcDbLine
 10
-150.5
 20
505.0
 30
0.0
 11
-137.324268
 21
530.341996
 31
0.0
  0
CIRCLE
  5
123
330
323
100
AcDbEntity
  8
DETAIL
  6
Continuous
 62
     5
100
AcDbCircle
 10
-150.5
 20
505.0
 30
0.0
 40
18.994066
  0
CIRCLE
  5
124
330
323
100
AcDbEntity
  8
DETAIL
  6
Continuous
 62
     5
100
AcDbCircle
 10
-150.5
 20
505.0
 30
0.0
 40
18.994066
  0
CIRCLE
  5
125
330
323
100
AcDbEntity
  8
DETAIL
  6
Continuous
 62
     5
100
AcDbCircle
 10
-150.5
 20
505.0
 30
0.0
 40
18.994066
  0
ARC
  5
126
330
323
100
AcDbEntity
  8
DETAIL
  6
Continuous
 62
     5
100
AcDbCircle
 10
-150.5
 20
509.9984379999998
 30
0.0
 40
25.99188
100
AcDbArc
 50
0.0
 51
180.0
  0
TEXT
  5
127
330
323
100
AcDbEntity
  8
NOTE
  6
Continuous
 62
     4
100
AcDbText
 10
-477.5755150000001
 20
567.828889
 30
0.0
 40
50.0
  1
後吸込口
 50
359.999997
 41
0.6310000000000002
  7
STANDARD1
100
AcDbText
  0
LINE
  5
128
330
323
100
AcDbEntity
  8
OUTLINE
  6
Continuous
 62
     3
100
AcDbLine
 10
-242.5
 20
1550.0
 30
0.0
 11
242.5
 21
1550.0
 31
0.0
  0
LINE
  5
129
330
323
100
AcDbEntity
  8
DETAIL
  6
Continuous
 62
     5
100
AcDbLine
 10
242.5
 20
1550.0
 30
0.0
 11
-242.5
 21
1550.0
 31
0.0
  0
LINE
  5
12A
330
323
100
AcDbEntity
  8
NOTE
  6
Continuous
 62
     4
100
AcDbLine
 10
458.163624
 20
955.2369119999999
 30
0.0
 11
458.163624
 21
931.2444069999999
 31
0.0
  0
LINE
  5
12B
330
323
100
AcDbEntity
  8
NOTE
  6
Continuous
 62
     4
100
AcDbLine
 10
410.178616
 20
911.250654
 30
0.0
 11
458.163624
 21
955.2369119999999
 31
0.0
  0
TEXT
  5
12C
330
323
100
AcDbEntity
  8
NOTE
  6
Continuous
 62
     4
100
AcDbText
 10
481.5566249999998
 20
724.4873479999998
 30
0.0
 40
50.0
  1
EL1
 50
359.999997
 41
0.6310000000000002
  7
STANDARD1
100
AcDbText
  0
TEXT
  5
12D
330
323
100
AcDbEntity
  8
NOTE
  6
Continuous
 62
     4
100
AcDbText
 10
568.942319
 20
722.445648
 30
0.0
 40
50.0
  1
ﾉｯｸｱｳﾄφ27
 50
359.999997
 41
0.6310000000000002
  7
STANDARD1
100
AcDbText
  0
LINE
  5
12E
330
323
100
AcDbEntity
  8
NOTE
  6
Continuous
 62
     4
100
AcDbLine
 10
745.099694
 20
717.4856349999998
 30
0.0
 11
478.4607789999998
 21
717.4856349999998
 31
0.0
  0
LINE
  5
12F
330
323
100
AcDbEntity
  8
NOTE
  6
Continuous
 62
     4
100
AcDbLine
 10
458.163624
 20
931.2444069999999
 30
0.0
 11
522.143635
 21
931.2444069999999
 31
0.0
  0
LINE
  5
130
330
323
100
AcDbEntity
  8
NOTE
  6
Continuous
 62
     4
100
AcDbLine
 10
458.163624
 20
891.2568999999999
 30
0.0
 11
522.143635
 21
891.2568999999999
 31
0.0
  0
TEXT
  5
131
330
323
100
AcDbEntity
  8
NOTE
  6
Continuous
 62
     4
100
AcDbText
 10
436.089853
 20
809.021294
 30
0.0
 40
50.0
  1
吸込口
 50
359.999997
 41
0.6310000000000002
  7
STANDARD1
100
AcDbText
  0
LINE
  5
132
330
323
100
AcDbEntity
  8
NOTE
  6
Continuous
 62
     4
100
AcDbLine
 10
522.143635
 20
931.2444069999999
 30
0.0
 11
522.143635
 21
891.2568999999999
 31
0.0
  0
LINE
  5
133
330
323
100
AcDbEntity
  8
NOTE
  6
Continuous
 62
     4
100
AcDbLine
 10
458.163624
 20
891.2568999999999
 30
0.0
 11
458.163624
 21
867.264396
 31
0.0
  0
LINE
  5
134
330
323
100
AcDbEntity
  8
NOTE
  6
Continuous
 62
     4
100
AcDbLine
 10
410.178616
 20
911.250654
 30
0.0
 11
458.163624
 21
867.264396
 31
0.0
  0
TEXT
  5
135
330
323
100
AcDbEntity
  8
NOTE
  6
Continuous
 62
     4
100
AcDbText
 10
407.3691059999998
 20
1082.933267
 30
0.0
 40
50.0
  1
D1　Rc1
 50
359.999997
 41
0.6310000000000002
  7
STANDARD1
100
AcDbText
  0
LINE
  5
136
330
323
100
AcDbEntity
  8
NOTE
  6
Continuous
 62
     4
100
AcDbLine
 10
617.5713319999998
 20
1071.399993
 30
0.0
 11
367.977084
 21
1071.399993
 31
0.0
  0
LINE
  5
137
330
323
100
AcDbEntity
  8
NOTE
  6
Continuous
 62
     4
100
AcDbLine
 10
-395.276649
 20
690.0519929999997
 30
0.0
 11
-459.2566599999998
 21
690.0519929999997
 31
0.0
  0
LINE
  5
138
330
323
100
AcDbEntity
  8
NOTE
  6
Continuous
 62
     4
100
AcDbLine
 10
-395.276649
 20
650.064486
 30
0.0
 11
-459.2566599999998
 21
650.064486
 31
0.0
  0
LINE
  5
139
330
323
100
AcDbEntity
  8
NOTE
  6
Continuous
 62
     4
100
AcDbLine
 10
-395.276649
 20
714.0444969999999
 30
0.0
 11
-395.276649
 21
690.0519929999997
 31
0.0
  0
LINE
  5
13A
330
323
100
AcDbEntity
  8
NOTE
  6
Continuous
 62
     4
100
AcDbLine
 10
-347.291641
 20
670.05824
 30
0.0
 11
-395.276649
 21
714.0444969999999
 31
0.0
  0
LINE
  5
13B
330
323
100
AcDbEntity
  8
NOTE
  6
Continuous
 62
     4
100
AcDbLine
 10
-459.2566599999998
 20
690.0519929999997
 30
0.0
 11
-459.2566599999998
 21
650.064486
 31
0.0
  0
ARC
  5
13C
330
323
100
AcDbEntity
  8
DETAIL
  6
Continuous
 62
     5
100
AcDbCircle
 10
-244.887145
 20
1045.473369
 30
0.0
 40
7.612855
100
AcDbArc
 50
71.72563100000002
 51
288.274369
  0
ARC
  5
13D
330
323
100
AcDbEntity
  8
DETAIL
  6
Continuous
 62
     5
100
AcDbCircle
 10
-244.887145
 20
1225.417151
 30
0.0
 40
7.612855
100
AcDbArc
 50
71.72563100000002
 51
288.274369
  0
LINE
  5
13E
330
323
100
AcDbEntity
  8
OUTLINE
  6
Continuous
 62
     3
100
AcDbLine
 10
-242.5
 20
1549.515895
 30
0.0
 11
-242.5
 21
1412.589839
 31
0.0
  0
ARC
  5
13F
330
323
100
AcDbEntity
  8
DETAIL
  6
Continuous
 62
     5
100
AcDbCircle
 10
-244.887145
 20
1405.360932
 30
0.0
 40
7.612855
100
AcDbArc
 50
71.72563100000002
 51
288.274369
  0
LINE
  5
140
330
323
100
AcDbEntity
  8
SIZE
  6
Continuous
 62
    30
100
AcDbLine
 10
240.503647
 20
0.0
 30
0.0
 11
1047.060301
 21
0.0
 31
0.0
  0
LINE
  5
141
330
323
100
AcDbEntity
  8
SIZE
  6
Continuous
 62
    30
100
AcDbLine
 10
262.5
 20
1550.0
 30
0.0
 11
1047.060301
 21
1550.0
 31
0.0
  0
LINE
  5
142
330
323
100
AcDbEntity
  8
SIZE
  6
Continuous
 62
    30
100
AcDbLine
 10
1017.060301
 20
10.0
 30
0.0
 11
1017.060301
 21
1540.0
 31
0.0
  0
CIRCLE
  5
143
330
323
100
AcDbEntity
  8
SIZE
  6
Continuous
 62
    30
100
AcDbCircle
 10
1017.060301
 20
0.0
 30
0.0
 40
5.0
  0
LINE
  5
144
330
323
100
AcDbEntity
  8
SIZE
  6
Continuous
 62
    30
100
AcDbLine
 10
1017.060301
 20
5.0
 30
0.0
 11
1017.060301
 21
10.0
 31
0.0
  0
CIRCLE
  5
145
330
323
100
AcDbEntity
  8
SIZE
  6
Continuous
 62
    30
100
AcDbCircle
 10
1017.060301
 20
1550.0
 30
0.0
 40
5.0
  0
LINE
  5
146
330
323
100
AcDbEntity
  8
SIZE
  6
Continuous
 62
    30
100
AcDbLine
 10
1017.060301
 20
1545.0
 30
0.0
 11
1017.060301
 21
1540.0
 31
0.0
  0
TEXT
  5
147
330
323
100
AcDbEntity
  8
SIZE
  6
Continuous
 62
    30
100
AcDbText
 10
997.0603009999999
 20
679.0
 30
0.0
 40
64.0
  1
1550
 50
90.0
 41
0.9
 72
     1
 11
997.0603009999999
 21
775.0
 31
0.0
100
AcDbText
  0
POINT
  5
148
330
323
100
AcDbEntity
  8
DEFPOINTS
  6
Continuous
 62
     7
100
AcDbPoint
 10
220.503647
 20
0.0
 30
0.0
  0
POINT
  5
149
330
323
100
AcDbEntity
  8
DEFPOINTS
  6
Continuous
 62
     7
100
AcDbPoint
 10
242.5
 20
1550.0
 30
0.0
  0
POINT
  5
14A
330
323
100
AcDbEntity
  8
DEFPOINTS
  6
Continuous
 62
     7
100
AcDbPoint
 10
1017.060301
 20
1550.0
 30
0.0
  0
LINE
  5
14B
330
323
100
AcDbEntity
  8
SIZE
  6
Continuous
 62
    30
100
AcDbLine
 10
262.5
 20
1550.0
 30
0.0
 11
1047.060301
 21
1550.0
 31
0.0
  0
LINE
  5
14C
330
323
100
AcDbEntity
  8
SIZE
  6
Continuous
 62
    30
100
AcDbLine
 10
134.0
 20
1625.0
 30
0.0
 11
1047.060301
 21
1625.0
 31
0.0
  0
LINE
  5
14D
330
323
100
AcDbEntity
  8
SIZE
  6
Continuous
 62
    30
100
AcDbLine
 10
1017.060301
 20
1560.0
 30
0.0
 11
1017.060301
 21
1615.0
 31
0.0
  0
LINE
  5
14E
330
323
100
AcDbEntity
  8
SIZE
  6
Continuous
 62
    30
100
AcDbLine
 10
1017.060301
 20
1779.45408
 30
0.0
 11
1017.060301
 21
1625.0
 31
0.0
  0
TEXT
  5
14F
330
323
100
AcDbEntity
  8
SIZE
  6
Continuous
 62
    30
100
AcDbText
 10
997.0603009999999
 20
1666.196936571428
 30
0.0
 40
64.0
  1
75
 50
90.0
 41
0.9
 72
     1
 11
997.0603009999999
 21
1712.825508
 31
0.0
100
AcDbText
  0
CIRCLE
  5
150
330
323
100
AcDbEntity
  8
SIZE
  6
Continuous
 62
    30
100
AcDbCircle
 10
1017.060301
 20
1550.0
 30
0.0
 40
5.0
  0
LINE
  5
151
330
323
100
AcDbEntity
  8
SIZE
  6
Continuous
 62
    30
100
AcDbLine
 10
1017.060301
 20
1555.0
 30
0.0
 11
1017.060301
 21
1560.0
 31
0.0
  0
CIRCLE
  5
152
330
323
100
AcDbEntity
  8
SIZE
  6
Continuous
 62
    30
100
AcDbCircle
 10
1017.060301
 20
1625.0
 30
0.0
 40
5.0
  0
LINE
  5
153
330
323
100
AcDbEntity
  8
SIZE
  6
Continuous
 62
    30
100
AcDbLine
 10
1017.060301
 20
1620.0
 30
0.0
 11
1017.060301
 21
1615.0
 31
0.0
  0
POINT
  5
154
330
323
100
AcDbEntity
  8
DEFPOINTS
  6
Continuous
 62
     7
100
AcDbPoint
 10
242.5
 20
1550.0
 30
0.0
  0
POINT
  5
155
330
323
100
AcDbEntity
  8
DEFPOINTS
  6
Continuous
 62
     7
100
AcDbPoint
 10
114.0
 20
1625.0
 30
0.0
  0
POINT
  5
156
330
323
100
AcDbEntity
  8
DEFPOINTS
  6
Continuous
 62
     7
100
AcDbPoint
 10
1017.060301
 20
1625.0
 30
0.0
  0
LINE
  5
157
330
323
100
AcDbEntity
  8
SIZE
  6
Continuous
 62
    30
100
AcDbLine
 10
-242.5
 20
810.956659
 30
0.0
 11
-242.5
 21
954.860415
 31
0.0
  0
LINE
  5
158
330
323
100
AcDbEntity
  8
SIZE
  6
Continuous
 62
    30
100
AcDbLine
 10
142.5
 20
178.633911
 30
0.0
 11
142.5
 21
954.860415
 31
0.0
  0
LINE
  5
159
330
323
100
AcDbEntity
  8
SIZE
  6
Continuous
 62
    30
100
AcDbLine
 10
-232.5
 20
924.860415
 30
0.0
 11
132.5
 21
924.860415
 31
0.0
  0
CIRCLE
  5
15A
330
323
100
AcDbEntity
  8
SIZE
  6
Continuous
 62
    30
100
AcDbCircle
 10
-242.5
 20
924.860415
 30
0.0
 40
5.0
  0
LINE
  5
15B
330
323
100
AcDbEntity
  8
SIZE
  6
Continuous
 62
    30
100
AcDbLine
 10
-237.5
 20
924.860415
 30
0.0
 11
-232.5
 21
924.860415
 31
0.0
  0
CIRCLE
  5
15C
330
323
100
AcDbEntity
  8
SIZE
  6
Continuous
 62
    30
100
AcDbCircle
 10
142.5
 20
924.860415
 30
0.0
 40
5.0
  0
LINE
  5
15D
330
323
100
AcDbEntity
  8
SIZE
  6
Continuous
 62
    30
100
AcDbLine
 10
137.5
 20
924.860415
 30
0.0
 11
132.5
 21
924.860415
 31
0.0
  0
TEXT
  5
15E
330
323
100
AcDbEntity
  8
SIZE
  6
Continuous
 62
    30
100
AcDbText
 10
-173.1194068571428
 20
944.8604149999999
 30
0.0
 40
64.0
  1
385
 41
0.9
 72
     1
 11
-99.06226400000001
 21
944.8604149999999
 31
0.0
100
AcDbText
  0
POINT
  5
15F
330
323
100
AcDbEntity
  8
DEFPOINTS
  6
Continuous
 62
     7
100
AcDbPoint
 10
-242.5
 20
790.9566589999998
 30
0.0
  0
POINT
  5
160
330
323
100
AcDbEntity
  8
DEFPOINTS
  6
Continuous
 62
     7
100
AcDbPoint
 10
142.5
 20
158.633911
 30
0.0
  0
POINT
  5
161
330
323
100
AcDbEntity
  8
DEFPOINTS
  6
Continuous
 62
     7
100
AcDbPoint
 10
142.5
 20
924.860415
 30
0.0
  0
LINE
  5
162
330
323
100
AcDbEntity
  8
SIZE
  6
Continuous
 62
    30
100
AcDbLine
 10
-221.5
 20
1645.0
 30
0.0
 11
-221.5
 21
2238.033062
 31
0.0
  0
LINE
  5
163
330
323
100
AcDbEntity
  8
SIZE
  6
Continuous
 62
    30
100
AcDbLine
 10
114.5
 20
1645.0
 30
0.0
 11
114.5
 21
2238.033062
 31
0.0
  0
LINE
  5
164
330
323
100
AcDbEntity
  8
SIZE
  6
Continuous
 62
    30
100
AcDbLine
 10
-211.5
 20
2208.033062
 30
0.0
 11
104.5
 21
2208.033062
 31
0.0
  0
CIRCLE
  5
165
330
323
100
AcDbEntity
  8
SIZE
  6
Continuous
 62
    30
100
AcDbCircle
 10
-221.5
 20
2208.033062
 30
0.0
 40
5.0
  0
LINE
  5
166
330
323
100
AcDbEntity
  8
SIZE
  6
Continuous
 62
    30
100
AcDbLine
 10
-216.5
 20
2208.033062
 30
0.0
 11
-211.5
 21
2208.033062
 31
0.0
  0
CIRCLE
  5
167
330
323
100
AcDbEntity
  8
SIZE
  6
Continuous
 62
    30
100
AcDbCircle
 10
114.5
 20
2208.033062
 30
0.0
 40
5.0
  0
LINE
  5
168
330
323
100
AcDbEntity
  8
SIZE
  6
Continuous
 62
    30
100
AcDbLine
 10
109.5
 20
2208.033062
 30
0.0
 11
104.5
 21
2208.033062
 31
0.0
  0
TEXT
  5
169
330
323
100
AcDbEntity
  8
SIZE
  6
Continuous
 62
    30
100
AcDbText
 10
-126.1857142857143
 20
2228.033062
 30
0.0
 40
64.0
  1
336
 41
0.9
 72
     1
 11
-53.5
 21
2228.033062
 31
0.0
100
AcDbText
  0
POINT
  5
16A
330
323
100
AcDbEntity
  8
DEFPOINTS
  6
Continuous
 62
     7
100
AcDbPoint
 10
-221.5
 20
1625.0
 30
0.0
  0
POINT
  5
16B
330
323
100
AcDbEntity
  8
DEFPOINTS
  6
Continuous
 62
     7
100
AcDbPoint
 10
114.5
 20
1625.0
 30
0.0
  0
POINT
  5
16C
330
323
100
AcDbEntity
  8
DEFPOINTS
  6
Continuous
 62
     7
100
AcDbPoint
 10
114.5
 20
2208.033062
 30
0.0
  0
LINE
  5
16D
330
323
100
AcDbEntity
  8
SIZE
  6
Continuous
 62
    30
100
AcDbLine
 10
94.50000000000001
 20
1645.0
 30
0.0
 11
94.50000000000001
 21
2003.044319
 31
0.0
  0
LINE
  5
16E
330
323
100
AcDbEntity
  8
SIZE
  6
Continuous
 62
    30
100
AcDbLine
 10
-201.5
 20
1645.0
 30
0.0
 11
-201.5
 21
2003.044319
 31
0.0
  0
LINE
  5
16F
330
323
100
AcDbEntity
  8
SIZE
  6
Continuous
 62
    30
100
AcDbLine
 10
84.50000000000001
 20
1973.044319
 30
0.0
 11
-191.5
 21
1973.044319
 31
0.0
  0
CIRCLE
  5
170
330
323
100
AcDbEntity
  8
SIZE
  6
Continuous
 62
    30
100
AcDbCircle
 10
94.50000000000001
 20
1973.044319
 30
0.0
 40
5.0
  0
LINE
  5
171
330
323
100
AcDbEntity
  8
SIZE
  6
Continuous
 62
    30
100
AcDbLine
 10
89.50000000000001
 20
1973.044319
 30
0.0
 11
84.50000000000001
 21
1973.044319
 31
0.0
  0
CIRCLE
  5
172
330
323
100
AcDbEntity
  8
SIZE
  6
Continuous
 62
    30
100
AcDbCircle
 10
-201.5
 20
1973.044319
 30
0.0
 40
5.0
  0
LINE
  5
173
330
323
100
AcDbEntity
  8
SIZE
  6
Continuous
 62
    30
100
AcDbLine
 10
-196.5
 20
1973.044319
 30
0.0
 11
-191.5
 21
1973.044319
 31
0.0
  0
TEXT
  5
174
330
323
100
AcDbEntity
  8
SIZE
  6
Continuous
 62
    30
100
AcDbText
 10
-123.2880552857142
 20
1993.044319
 30
0.0
 40
64.0
  1
296
 41
0.9
 72
     1
 11
-50.60234099999998
 21
1993.044319
 31
0.0
100
AcDbText
  0
POINT
  5
175
330
323
100
AcDbEntity
  8
DEFPOINTS
  6
Continuous
 62
     7
100
AcDbPoint
 10
94.50000000000001
 20
1625.0
 30
0.0
  0
POINT
  5
176
330
323
100
AcDbEntity
  8
DEFPOINTS
  6
Continuous
 62
     7
100
AcDbPoint
 10
-201.5
 20
1625.0
 30
0.0
  0
POINT
  5
177
330
323
100
AcDbEntity
  8
DEFPOINTS
  6
Continuous
 62
     7
100
AcDbPoint
 10
-201.5
 20
1973.044319
 30
0.0
  0
LINE
  5
178
330
323
100
AcDbEntity
  8
DETAIL
  6
Continuous
 62
     5
100
AcDbLine
 10
114.5
 20
1625.0
 30
0.0
 11
-221.5
 21
1625.0
 31
0.0
  0
LINE
  5
179
330
323
100
AcDbEntity
  8
OUTLINE
  6
Continuous
 62
     3
100
AcDbLine
 10
94.50000000000001
 20
1625.0
 30
0.0
 11
-201.5
 21
1625.0
 31
0.0
  0
LINE
  5
17A
330
323
100
AcDbEntity
  8
DETAIL
  6
Continuous
 62
     5
100
AcDbLine
 10
94.50000000000001
 20
1550.0
 30
0.0
 11
94.50000000000001
 21
1625.0
 31
0.0
  0
LINE
  5
17B
330
323
100
AcDbEntity
  8
OUTLINE
  6
Continuous
 62
     3
100
AcDbLine
 10
94.50000000000001
 20
1550.0
 30
0.0
 11
94.50000000000001
 21
1625.0
 31
0.0
  0
LINE
  5
17C
330
323
100
AcDbEntity
  8
OUTLINE
  6
Continuous
 62
     3
100
AcDbLine
 10
94.50000000000001
 20
1625.0
 30
0.0
 11
114.5
 21
1625.0
 31
0.0
  0
LINE
  5
17D
330
323
100
AcDbEntity
  8
NOTE
  6
Continuous
 62
     4
100
AcDbLine
 10
106.5
 20
1628.878594999999
 30
0.0
 11
106.5
 21
1621.121405
 31
0.0
  0
LINE
  5
17E
330
323
100
AcDbEntity
  8
NOTE
  6
Continuous
 62
     4
100
AcDbLine
 10
102.621405
 20
1625.0
 30
0.0
 11
110.378595
 21
1625.0
 31
0.0
  0
LINE
  5
17F
330
323
100
AcDbEntity
  8
NOTE
  6
Continuous
 62
     4
100
AcDbLine
 10
62.621405
 20
1625.0
 30
0.0
 11
70.37859499999997
 21
1625.0
 31
0.0
  0
LINE
  5
180
330
323
100
AcDbEntity
  8
NOTE
  6
Continuous
 62
     4
100
AcDbLine
 10
66.5
 20
1628.878594999999
 30
0.0
 11
66.5
 21
1621.121405
 31
0.0
  0
LINE
  5
181
330
323
100
AcDbEntity
  8
DETAIL
  6
Continuous
 62
     5
100
AcDbLine
 10
-201.5
 20
1550.0
 30
0.0
 11
-201.5
 21
1625.0
 31
0.0
  0
LINE
  5
182
330
323
100
AcDbEntity
  8
OUTLINE
  6
Continuous
 62
     3
100
AcDbLine
 10
-201.5
 20
1625.0
 30
0.0
 11
-201.5
 21
1550.0
 31
0.0
  0
LINE
  5
183
330
323
100
AcDbEntity
  8
NOTE
  6
Continuous
 62
     4
100
AcDbLine
 10
-53.5
 20
1628.878594999999
 30
0.0
 11
-53.5
 21
1621.121405
 31
0.0
  0
LINE
  5
184
330
323
100
AcDbEntity
  8
NOTE
  6
Continuous
 62
     4
100
AcDbLine
 10
-57.37859499999999
 20
1625.0
 30
0.0
 11
-49.621405
 21
1625.0
 31
0.0
  0
LINE
  5
185
330
323
100
AcDbEntity
  8
OUTLINE
  6
Continuous
 62
     3
100
AcDbLine
 10
-221.5
 20
1625.0
 30
0.0
 11
-201.5
 21
1625.0
 31
0.0
  0
LINE
  5
186
330
323
100
AcDbEntity
  8
NOTE
  6
Continuous
 62
     4
100
AcDbLine
 10
-217.378595
 20
1625.0
 30
0.0
 11
-209.621405
 21
1625.0
 31
0.0
  0
LINE
  5
187
330
323
100
AcDbEntity
  8
NOTE
  6
Continuous
 62
     4
100
AcDbLine
 10
-213.5
 20
1628.878594999999
 30
0.0
 11
-213.5
 21
1621.121405
 31
0.0
  0
LINE
  5
188
330
323
100
AcDbEntity
  8
NOTE
  6
Continuous
 62
     4
100
AcDbLine
 10
-177.378595
 20
1625.0
 30
0.0
 11
-169.621405
 21
1625.0
 31
0.0
  0
LINE
  5
189
330
323
100
AcDbEntity
  8
NOTE
  6
Continuous
 62
     4
100
AcDbLine
 10
-173.5
 20
1628.878594999999
 30
0.0
 11
-173.5
 21
1621.121405
 31
0.0
  0
LINE
  5
18A
330
323
100
AcDbEntity
  8
SIZE
  6
Continuous
 62
    30
100
AcDbLine
 10
242.5
 20
1570.0
 30
0.0
 11
242.5
 21
2361.912436
 31
0.0
  0
LINE
  5
18B
330
323
100
AcDbEntity
  8
SIZE
  6
Continuous
 62
    30
100
AcDbLine
 10
-242.5
 20
1570.0
 30
0.0
 11
-242.5
 21
2361.912436
 31
0.0
  0
LINE
  5
18C
330
323
100
AcDbEntity
  8
SIZE
  6
Continuous
 62
    30
100
AcDbLine
 10
232.5
 20
2331.912436
 30
0.0
 11
-232.5
 21
2331.912436
 31
0.0
  0
CIRCLE
  5
18D
330
323
100
AcDbEntity
  8
SIZE
  6
Continuous
 62
    30
100
AcDbCircle
 10
242.5
 20
2331.912436
 30
0.0
 40
5.0
  0
LINE
  5
18E
330
323
100
AcDbEntity
  8
SIZE
  6
Continuous
 62
    30
100
AcDbLine
 10
237.5
 20
2331.912436
 30
0.0
 11
232.5
 21
2331.912436
 31
0.0
  0
CIRCLE
  5
18F
330
323
100
AcDbEntity
  8
SIZE
  6
Continuous
 62
    30
100
AcDbCircle
 10
-242.5
 20
2331.912436
 30
0.0
 40
5.0
  0
LINE
  5
190
330
323
100
AcDbEntity
  8
SIZE
  6
Continuous
 62
    30
100
AcDbLine
 10
-237.5
 20
2331.912436
 30
0.0
 11
-232.5
 21
2331.912436
 31
0.0
  0
TEXT
  5
191
330
323
100
AcDbEntity
  8
SIZE
  6
Continuous
 62
    30
100
AcDbText
 10
-74.05714285714282
 20
2351.912436
 30
0.0
 40
64.0
  1
485
 41
0.9
 72
     1
 11
0.0
 21
2351.912436
 31
0.0
100
AcDbText
  0
POINT
  5
192
330
323
100
AcDbEntity
  8
DEFPOINTS
  6
Continuous
 62
     7
100
AcDbPoint
 10
242.5
 20
1550.0
 30
0.0
  0
POINT
  5
193
330
323
100
AcDbEntity
  8
DEFPOINTS
  6
Continuous
 62
     7
100
AcDbPoint
 10
-242.5
 20
1550.0
 30
0.0
  0
POINT
  5
194
330
323
100
AcDbEntity
  8
DEFPOINTS
  6
Continuous
 62
     7
100
AcDbPoint
 10
-242.5
 20
2331.912436
 30
0.0
  0
LINE
  5
195
330
323
100
AcDbEntity
  8
SIZE
  6
Continuous
 62
    30
100
AcDbLine
 10
-242.5
 20
1570.0
 30
0.0
 11
-242.5
 21
2361.912436
 31
0.0
  0
LINE
  5
196
330
323
100
AcDbEntity
  8
SIZE
  6
Continuous
 62
    30
100
AcDbLine
 10
-252.5
 20
1425.360932
 30
0.0
 11
-252.5
 21
2361.912436
 31
0.0
  0
LINE
  5
197
330
323
100
AcDbEntity
  8
SIZE
  6
Continuous
 62
    30
100
AcDbLine
 10
-232.5
 20
2331.912436
 30
0.0
 11
-222.5
 21
2331.912436
 31
0.0
  0
LINE
  5
198
330
323
100
AcDbEntity
  8
SIZE
  6
Continuous
 62
    30
100
AcDbLine
 10
-262.5
 20
2331.912436
 30
0.0
 11
-272.5
 21
2331.912436
 31
0.0
  0
LINE
  5
199
330
323
100
AcDbEntity
  8
SIZE
  6
Continuous
 62
    30
100
AcDbLine
 10
-459.9206919999998
 20
2331.912436
 30
0.0
 11
-252.5
 21
2331.912436
 31
0.0
  0
TEXT
  5
19A
330
323
100
AcDbEntity
  8
SIZE
  6
Continuous
 62
    30
100
AcDbText
 10
-451.9206915714285
 20
2356.674341
 30
0.0
 40
64.0
  1
(10)
 41
0.9
 72
     1
 11
-373.749263
 21
2356.674341
 31
0.0
100
AcDbText
  0
LINE
  5
19B
330
323
100
AcDbEntity
  8
SIZE
  6
Continuous
 62
    30
100
AcDbLine
 10
-242.5
 20
2331.912436
 30
0.0
 11
-252.5
 21
2331.912436
 31
0.0
  0
LINE
  5
19C
330
323
100
AcDbEntity
  8
SIZE
  6
Continuous
 62
    30
100
AcDbLine
 10
-242.5
 20
2331.912436
 30
0.0
 11
-252.5
 21
2331.912436
 31
0.0
  0
CIRCLE
  5
19D
330
323
100
AcDbEntity
  8
SIZE
  6
Continuous
 62
    30
100
AcDbCircle
 10
-242.5
 20
2331.912436
 30
0.0
 40
5.0
  0
LINE
  5
19E
330
323
100
AcDbEntity
  8
SIZE
  6
Continuous
 62
    30
100
AcDbLine
 10
-237.5
 20
2331.912436
 30
0.0
 11
-232.5
 21
2331.912436
 31
0.0
  0
CIRCLE
  5
19F
330
323
100
AcDbEntity
  8
SIZE
  6
Continuous
 62
    30
100
AcDbCircle
 10
-252.5
 20
2331.912436
 30
0.0
 40
5.0
  0
LINE
  5
1A0
330
323
100
AcDbEntity
  8
SIZE
  6
Continuous
 62
    30
100
AcDbLine
 10
-257.5
 20
2331.912436
 30
0.0
 11
-262.5
 21
2331.912436
 31
0.0
  0
POINT
  5
1A1
330
323
100
AcDbEntity
  8
DEFPOINTS
  6
Continuous
 62
     7
100
AcDbPoint
 10
-242.5
 20
1550.0
 30
0.0
  0
POINT
  5
1A2
330
323
100
AcDbEntity
  8
DEFPOINTS
  6
Continuous
 62
     7
100
AcDbPoint
 10
-252.5
 20
1405.360932
 30
0.0
  0
POINT
  5
1A3
330
323
100
AcDbEntity
  8
DEFPOINTS
  6
Continuous
 62
     7
100
AcDbPoint
 10
-252.5
 20
2331.912436
 30
0.0
  0
LINE
  5
1A4
330
323
100
AcDbEntity
  8
NOTE
  6
Continuous
 62
     4
100
AcDbLine
 10
35.598107
 20
1720.251902
 30
0.0
 11
-8.388149999999999
 21
1672.266894
 31
0.0
  0
LINE
  5
1A5
330
323
100
AcDbEntity
  8
NOTE
  6
Continuous
 62
     4
100
AcDbLine
 10
15.604354
 20
1640.276888
 30
0.0
 11
55.591861
 21
1640.276888
 31
0.0
  0
LINE
  5
1A6
330
323
100
AcDbEntity
  8
NOTE
  6
Continuous
 62
     4
100
AcDbLine
 10
15.604354
 20
1672.266894
 30
0.0
 11
15.604354
 21
1640.276888
 31
0.0
  0
LINE
  5
1A7
330
323
100
AcDbEntity
  8
NOTE
  6
Continuous
 62
     4
100
AcDbLine
 10
-8.388149999999999
 20
1672.266894
 30
0.0
 11
15.604354
 21
1672.266894
 31
0.0
  0
LINE
  5
1A8
330
323
100
AcDbEntity
  8
NOTE
  6
Continuous
 62
     4
100
AcDbLine
 10
55.591861
 20
1672.266894
 30
0.0
 11
55.591861
 21
1640.276888
 31
0.0
  0
LINE
  5
1A9
330
323
100
AcDbEntity
  8
NOTE
  6
Continuous
 62
     4
100
AcDbLine
 10
35.598107
 20
1720.251902
 30
0.0
 11
79.58436500000002
 21
1672.266894
 31
0.0
  0
LINE
  5
1AA
330
323
100
AcDbEntity
  8
NOTE
  6
Continuous
 62
     4
100
AcDbLine
 10
55.591861
 20
1672.266894
 30
0.0
 11
79.58436500000002
 21
1672.266894
 31
0.0
  0
TEXT
  5
1AB
330
323
100
AcDbEntity
  8
NOTE
  6
Continuous
 62
     4
100
AcDbText
 10
-160.93707
 20
1652.181159
 30
0.0
 40
50.0
  1
空気吹出
 50
359.999997
 41
0.6310000000000002
  7
STANDARD1
100
AcDbText
  0
LINE
  5
1AC
330
323
100
AcDbEntity
  8
NOTE
  6
Continuous
 62
     4
100
AcDbLine
 10
-213.5
 20
1625.0
 30
0.0
 11
-236.190489
 21
1607.651847
 31
0.0
  0
LINE
  5
1AD
330
323
100
AcDbEntity
  8
NOTE
  6
Continuous
 62
     4
100
AcDbLine
 10
-413.7949439999998
 20
1542.478857
 30
0.0
 11
-213.5
 21
1625.0
 31
0.0
  0
LINE
  5
1AE
330
323
100
AcDbEntity
  8
NOTE
  6
Continuous
 62
     4
100
AcDbLine
 10
-213.5
 20
1625.0
 30
0.0
 11
-241.824616
 21
1621.321304
 31
0.0
  0
TEXT
  5
1AF
330
323
100
AcDbEntity
  8
NOTE
  6
Continuous
 62
     4
100
AcDbText
 10
-576.8997509999998
 20
1551.882089
 30
0.0
 40
50.0
  1
14-%%C3
 50
0.000003
 41
0.6310000000000002
  7
STANDARD1
100
AcDbText
  0
LINE
  5
1B0
330
323
100
AcDbEntity
  8
NOTE
  6
Continuous
 62
     4
100
AcDbLine
 10
-413.7949439999998
 20
1542.478857
 30
0.0
 11
-598.681333
 21
1542.478857
 31
0.0
  0
LINE
  5
1B1
330
323
100
AcDbEntity
  8
SIZE
  6
Continuous
 62
    30
100
AcDbLine
 10
106.5
 20
1648.878595
 30
0.0
 11
106.5
 21
2115.019826000001
 31
0.0
  0
LINE
  5
1B2
330
323
100
AcDbEntity
  8
SIZE
  6
Continuous
 62
    30
100
AcDbLine
 10
-213.5
 20
1648.878595
 30
0.0
 11
-213.5
 21
2115.019826000001
 31
0.0
  0
LINE
  5
1B3
330
323
100
AcDbEntity
  8
SIZE
  6
Continuous
 62
    30
100
AcDbLine
 10
96.5
 20
2085.019826
 30
0.0
 11
-203.5
 21
2085.019826
 31
0.0
  0
CIRCLE
  5
1B4
330
323
100
AcDbEntity
  8
SIZE
  6
Continuous
 62
    30
100
AcDbCircle
 10
106.5
 20
2085.019826
 30
0.0
 40
5.0
  0
LINE
  5
1B5
330
323
100
AcDbEntity
  8
SIZE
  6
Continuous
 62
    30
100
AcDbLine
 10
101.5
 20
2085.019826
 30
0.0
 11
96.5
 21
2085.019826
 31
0.0
  0
CIRCLE
  5
1B6
330
323
100
AcDbEntity
  8
SIZE
  6
Continuous
 62
    30
100
AcDbCircle
 10
-213.5
 20
2085.019826
 30
0.0
 40
5.0
  0
LINE
  5
1B7
330
323
100
AcDbEntity
  8
SIZE
  6
Continuous
 62
    30
100
AcDbLine
 10
-208.5
 20
2085.019826
 30
0.0
 11
-203.5
 21
2085.019826
 31
0.0
  0
TEXT
  5
1B8
330
323
100
AcDbEntity
  8
SIZE
  6
Continuous
 62
    30
100
AcDbText
 10
-127.5571428571428
 20
2105.019826
 30
0.0
 40
64.0
  1
320
 41
0.9
 72
     1
 11
-53.5
 21
2105.019826
 31
0.0
100
AcDbText
  0
POINT
  5
1B9
330
323
100
AcDbEntity
  8
DEFPOINTS
  6
Continuous
 62
     7
100
AcDbPoint
 10
106.5
 20
1628.878594999999
 30
0.0
  0
POINT
  5
1BA
330
323
100
AcDbEntity
  8
DEFPOINTS
  6
Continuous
 62
     7
100
AcDbPoint
 10
-213.5
 20
1628.878594999999
 30
0.0
  0
POINT
  5
1BB
330
323
100
AcDbEntity
  8
DEFPOINTS
  6
Continuous
 62
     7
100
AcDbPoint
 10
-213.5
 20
2085.019826
 30
0.0
  0
LINE
  5
1BC
330
323
100
AcDbEntity
  8
SIZE
  6
Continuous
 62
    30
100
AcDbLine
 10
-213.5
 20
1648.878595
 30
0.0
 11
-213.5
 21
2115.019826000001
 31
0.0
  0
LINE
  5
1BD
330
323
100
AcDbEntity
  8
SIZE
  6
Continuous
 62
    30
100
AcDbLine
 10
-242.5
 20
1570.0
 30
0.0
 11
-242.5
 21
2115.019826000001
 31
0.0
  0
LINE
  5
1BE
330
323
100
AcDbEntity
  8
SIZE
  6
Continuous
 62
    30
100
AcDbLine
 10
-203.5
 20
2085.019826
 30
0.0
 11
-193.5
 21
2085.019826
 31
0.0
  0
LINE
  5
1BF
330
323
100
AcDbEntity
  8
SIZE
  6
Continuous
 62
    30
100
AcDbLine
 10
-252.5
 20
2085.019826
 30
0.0
 11
-262.5
 21
2085.019826
 31
0.0
  0
LINE
  5
1C0
330
323
100
AcDbEntity
  8
SIZE
  6
Continuous
 62
    30
100
AcDbLine
 10
-397.258911
 20
2085.019826
 30
0.0
 11
-242.5
 21
2085.019826
 31
0.0
  0
TEXT
  5
1C1
330
323
100
AcDbEntity
  8
SIZE
  6
Continuous
 62
    30
100
AcDbText
 10
-377.2589108571429
 20
2105.019826
 30
0.0
 40
64.0
  1
29
 41
0.9
 72
     1
 11
-332.001768
 21
2105.019826
 31
0.0
100
AcDbText
  0
LINE
  5
1C2
330
323
100
AcDbEntity
  8
SIZE
  6
Continuous
 62
    30
100
AcDbLine
 10
-213.5
 20
2085.019826
 30
0.0
 11
-242.5
 21
2085.019826
 31
0.0
  0
LINE
  5
1C3
330
323
100
AcDbEntity
  8
SIZE
  6
Continuous
 62
    30
100
AcDbLine
 10
-213.5
 20
2085.019826
 30
0.0
 11
-242.5
 21
2085.019826
 31
0.0
  0
CIRCLE
  5
1C4
330
323
100
AcDbEntity
  8
SIZE
  6
Continuous
 62
    30
100
AcDbCircle
 10
-213.5
 20
2085.019826
 30
0.0
 40
5.0
  0
LINE
  5
1C5
330
323
100
AcDbEntity
  8
SIZE
  6
Continuous
 62
    30
100
AcDbLine
 10
-208.5
 20
2085.019826
 30
0.0
 11
-203.5
 21
2085.019826
 31
0.0
  0
CIRCLE
  5
1C6
330
323
100
AcDbEntity
  8
SIZE
  6
Continuous
 62
    30
100
AcDbCircle
 10
-242.5
 20
2085.019826
 30
0.0
 40
5.0
  0
LINE
  5
1C7
330
323
100
AcDbEntity
  8
SIZE
  6
Continuous
 62
    30
100
AcDbLine
 10
-247.5
 20
2085.019826
 30
0.0
 11
-252.5
 21
2085.019826
 31
0.0
  0
POINT
  5
1C8
330
323
100
AcDbEntity
  8
DEFPOINTS
  6
Continuous
 62
     7
100
AcDbPoint
 10
-213.5
 20
1628.878594999999
 30
0.0
  0
POINT
  5
1C9
330
323
100
AcDbEntity
  8
DEFPOINTS
  6
Continuous
 62
     7
100
AcDbPoint
 10
-242.5
 20
1550.0
 30
0.0
  0
POINT
  5
1CA
330
323
100
AcDbEntity
  8
DEFPOINTS
  6
Continuous
 62
     7
100
AcDbPoint
 10
-242.5
 20
2085.019826
 30
0.0
  0
LINE
  5
1CB
330
323
100
AcDbEntity
  8
SIZE
  6
Continuous
 62
    30
100
AcDbLine
 10
66.5
 20
1648.878595
 30
0.0
 11
66.5
 21
1783.714387
 31
0.0
  0
LINE
  5
1CC
330
323
100
AcDbEntity
  8
SIZE
  6
Continuous
 62
    30
100
AcDbLine
 10
-53.5
 20
1648.878595
 30
0.0
 11
-53.5
 21
1783.714387
 31
0.0
  0
LINE
  5
1CD
330
323
100
AcDbEntity
  8
SIZE
  6
Continuous
 62
    30
100
AcDbLine
 10
76.5
 20
1753.714387
 30
0.0
 11
86.5
 21
1753.714387
 31
0.0
  0
LINE
  5
1CE
330
323
100
AcDbEntity
  8
SIZE
  6
Continuous
 62
    30
100
AcDbLine
 10
-63.5
 20
1753.714387
 30
0.0
 11
-73.5
 21
1753.714387
 31
0.0
  0
LINE
  5
1CF
330
323
100
AcDbEntity
  8
SIZE
  6
Continuous
 62
    30
100
AcDbLine
 10
66.5
 20
1753.714387
 30
0.0
 11
-53.5
 21
1753.714387
 31
0.0
  0
CIRCLE
  5
1D0
330
323
100
AcDbEntity
  8
SIZE
  6
Continuous
 62
    30
100
AcDbCircle
 10
66.5
 20
1753.714387
 30
0.0
 40
5.0
  0
LINE
  5
1D1
330
323
100
AcDbEntity
  8
SIZE
  6
Continuous
 62
    30
100
AcDbLine
 10
71.5
 20
1753.714387
 30
0.0
 11
76.5
 21
1753.714387
 31
0.0
  0
CIRCLE
  5
1D2
330
323
100
AcDbEntity
  8
SIZE
  6
Continuous
 62
    30
100
AcDbCircle
 10
-53.5
 20
1753.714387
 30
0.0
 40
5.0
  0
LINE
  5
1D3
330
323
100
AcDbEntity
  8
SIZE
  6
Continuous
 62
    30
100
AcDbLine
 10
-58.5
 20
1753.714387
 30
0.0
 11
-63.5
 21
1753.714387
 31
0.0
  0
TEXT
  5
1D4
330
323
100
AcDbEntity
  8
SIZE
  6
Continuous
 62
    30
100
AcDbText
 10
-62.07142857142857
 20
1773.714387
 30
0.0
 40
64.0
  1
120
 41
0.9
 72
     1
 11
6.5
 21
1773.714387
 31
0.0
100
AcDbText
  0
POINT
  5
1D5
330
323
100
AcDbEntity
  8
DEFPOINTS
  6
Continuous
 62
     7
100
AcDbPoint
 10
66.5
 20
1628.878594999999
 30
0.0
  0
POINT
  5
1D6
330
323
100
AcDbEntity
  8
DEFPOINTS
  6
Continuous
 62
     7
100
AcDbPoint
 10
-53.5
 20
1628.878594999999
 30
0.0
  0
POINT
  5
1D7
330
323
100
AcDbEntity
  8
DEFPOINTS
  6
Continuous
 62
     7
100
AcDbPoint
 10
-53.5
 20
1753.714387
 30
0.0
  0
LINE
  5
1D8
330
323
100
AcDbEntity
  8
SIZE
  6
Continuous
 62
    30
100
AcDbLine
 10
-53.5
 20
1648.878595
 30
0.0
 11
-53.5
 21
1783.714387
 31
0.0
  0
LINE
  5
1D9
330
323
100
AcDbEntity
  8
SIZE
  6
Continuous
 62
    30
100
AcDbLine
 10
-173.5
 20
1648.878595
 30
0.0
 11
-173.5
 21
1783.714387
 31
0.0
  0
LINE
  5
1DA
330
323
100
AcDbEntity
  8
SIZE
  6
Continuous
 62
    30
100
AcDbLine
 10
-63.5
 20
1753.714387
 30
0.0
 11
-163.5
 21
1753.714387
 31
0.0
  0
LINE
  5
1DB
330
323
100
AcDbEntity
  8
SIZE
  6
Continuous
 62
    30
100
AcDbLine
 10
-113.5
 20
1753.714387
 30
0.0
 11
-105.824746
 21
1868.23463
 31
0.0
  0
LINE
  5
1DC
330
323
100
AcDbEntity
  8
SIZE
  6
Continuous
 62
    30
100
AcDbLine
 10
-105.824746
 20
1868.23463
 30
0.0
 11
71.318111
 21
1868.23463
 31
0.0
  0
TEXT
  5
1DD
330
323
100
AcDbEntity
  8
SIZE
  6
Continuous
 62
    30
100
AcDbText
 10
-85.82474557142857
 20
1888.23463
 30
0.0
 40
64.0
  1
120
 41
0.9
 72
     1
 11
-17.253317
 21
1888.23463
 31
0.0
100
AcDbText
  0
CIRCLE
  5
1DE
330
323
100
AcDbEntity
  8
SIZE
  6
Continuous
 62
    30
100
AcDbCircle
 10
-53.5
 20
1753.714387
 30
0.0
 40
5.0
  0
LINE
  5
1DF
330
323
100
AcDbEntity
  8
SIZE
  6
Continuous
 62
    30
100
AcDbLine
 10
-58.5
 20
1753.714387
 30
0.0
 11
-63.5
 21
1753.714387
 31
0.0
  0
CIRCLE
  5
1E0
330
323
100
AcDbEntity
  8
SIZE
  6
Continuous
 62
    30
100
AcDbCircle
 10
-173.5
 20
1753.714387
 30
0.0
 40
5.0
  0
LINE
  5
1E1
330
323
100
AcDbEntity
  8
SIZE
  6
Continuous
 62
    30
100
AcDbLine
 10
-168.5
 20
1753.714387
 30
0.0
 11
-163.5
 21
1753.714387
 31
0.0
  0
POINT
  5
1E2
330
323
100
AcDbEntity
  8
DEFPOINTS
  6
Continuous
 62
     7
100
AcDbPoint
 10
-53.5
 20
1628.878594999999
 30
0.0
  0
POINT
  5
1E3
330
323
100
AcDbEntity
  8
DEFPOINTS
  6
Continuous
 62
     7
100
AcDbPoint
 10
-173.5
 20
1628.878594999999
 30
0.0
  0
POINT
  5
1E4
330
323
100
AcDbEntity
  8
DEFPOINTS
  6
Continuous
 62
     7
100
AcDbPoint
 10
-173.5
 20
1753.714387
 30
0.0
  0
LINE
  5
1E5
330
323
100
AcDbEntity
  8
SIZE
  6
Continuous
 62
    30
100
AcDbLine
 10
-173.5
 20
1648.878595
 30
0.0
 11
-173.5
 21
1783.714387
 31
0.0
  0
LINE
  5
1E6
330
323
100
AcDbEntity
  8
SIZE
  6
Continuous
 62
    30
100
AcDbLine
 10
-213.5
 20
1648.878595
 30
0.0
 11
-213.5
 21
1783.714387
 31
0.0
  0
LINE
  5
1E7
330
323
100
AcDbEntity
  8
SIZE
  6
Continuous
 62
    30
100
AcDbLine
 10
-163.5
 20
1753.714387
 30
0.0
 11
-153.5
 21
1753.714387
 31
0.0
  0
LINE
  5
1E8
330
323
100
AcDbEntity
  8
SIZE
  6
Continuous
 62
    30
100
AcDbLine
 10
-223.5
 20
1753.714387
 30
0.0
 11
-233.5
 21
1753.714387
 31
0.0
  0
LINE
  5
1E9
330
323
100
AcDbEntity
  8
SIZE
  6
Continuous
 62
    30
100
AcDbLine
 10
-193.5
 20
1753.714387
 30
0.0
 11
-269.767264
 21
1871.247028
 31
0.0
  0
LINE
  5
1EA
330
323
100
AcDbEntity
  8
SIZE
  6
Continuous
 62
    30
100
AcDbLine
 10
-269.767264
 20
1871.247028
 30
0.0
 11
-403.024406
 21
1871.247028
 31
0.0
  0
TEXT
  5
1EB
330
323
100
AcDbEntity
  8
SIZE
  6
Continuous
 62
    30
100
AcDbText
 10
-383.0244064285715
 20
1891.247028
 30
0.0
 40
64.0
  1
40
 41
0.9
 72
     1
 11
-336.395835
 21
1891.247028
 31
0.0
100
AcDbText
  0
LINE
  5
1EC
330
323
100
AcDbEntity
  8
SIZE
  6
Continuous
 62
    30
100
AcDbLine
 10
-173.5
 20
1753.714387
 30
0.0
 11
-213.5
 21
1753.714387
 31
0.0
  0
LINE
  5
1ED
330
323
100
AcDbEntity
  8
SIZE
  6
Continuous
 62
    30
100
AcDbLine
 10
-173.5
 20
1753.714387
 30
0.0
 11
-213.5
 21
1753.714387
 31
0.0
  0
CIRCLE
  5
1EE
330
323
100
AcDbEntity
  8
SIZE
  6
Continuous
 62
    30
100
AcDbCircle
 10
-173.5
 20
1753.714387
 30
0.0
 40
5.0
  0
LINE
  5
1EF
330
323
100
AcDbEntity
  8
SIZE
  6
Continuous
 62
    30
100
AcDbLine
 10
-168.5
 20
1753.714387
 30
0.0
 11
-163.5
 21
1753.714387
 31
0.0
  0
CIRCLE
  5
1F0
330
323
100
AcDbEntity
  8
SIZE
  6
Continuous
 62
    30
100
AcDbCircle
 10
-213.5
 20
1753.714387
 30
0.0
 40
5.0
  0
LINE
  5
1F1
330
323
100
AcDbEntity
  8
SIZE
  6
Continuous
 62
    30
100
AcDbLine
 10
-218.5
 20
1753.714387
 30
0.0
 11
-223.5
 21
1753.714387
 31
0.0
  0
POINT
  5
1F2
330
323
100
AcDbEntity
  8
DEFPOINTS
  6
Continuous
 62
     7
100
AcDbPoint
 10
-173.5
 20
1628.878594999999
 30
0.0
  0
POINT
  5
1F3
330
323
100
AcDbEntity
  8
DEFPOINTS
  6
Continuous
 62
     7
100
AcDbPoint
 10
-213.5
 20
1628.878594999999
 30
0.0
  0
POINT
  5
1F4
330
323
100
AcDbEntity
  8
DEFPOINTS
  6
Continuous
 62
     7
100
AcDbPoint
 10
-213.5
 20
1753.714387
 30
0.0
  0
LINE
  5
1F5
330
323
100
AcDbEntity
  8
SIZE
  6
Continuous
 62
    30
100
AcDbLine
 10
-213.5
 20
1648.878595
 30
0.0
 11
-213.5
 21
1783.714387
 31
0.0
  0
LINE
  5
1F6
330
323
100
AcDbEntity
  8
SIZE
  6
Continuous
 62
    30
100
AcDbLine
 10
-221.5
 20
1645.0
 30
0.0
 11
-221.5
 21
1783.714387
 31
0.0
  0
LINE
  5
1F7
330
323
100
AcDbEntity
  8
SIZE
  6
Continuous
 62
    30
100
AcDbLine
 10
-203.5
 20
1753.714387
 30
0.0
 11
-193.5
 21
1753.714387
 31
0.0
  0
LINE
  5
1F8
330
323
100
AcDbEntity
  8
SIZE
  6
Continuous
 62
    30
100
AcDbLine
 10
-231.5
 20
1753.714387
 30
0.0
 11
-241.5
 21
1753.714387
 31
0.0
  0
LINE
  5
1F9
330
323
100
AcDbEntity
  8
SIZE
  6
Continuous
 62
    30
100
AcDbLine
 10
-339.013709
 20
1753.714387
 30
0.0
 11
-221.5
 21
1753.714387
 31
0.0
  0
TEXT
  5
1FA
330
323
100
AcDbEntity
  8
SIZE
  6
Continuous
 62
    30
100
AcDbText
 10
-319.0137089999999
 20
1773.714387
 30
0.0
 40
64.0
  1
8
 41
0.9
 72
     1
 11
-299.813709
 21
1773.714387
 31
0.0
100
AcDbText
  0
LINE
  5
1FB
330
323
100
AcDbEntity
  8
SIZE
  6
Continuous
 62
    30
100
AcDbLine
 10
-213.5
 20
1753.714387
 30
0.0
 11
-221.5
 21
1753.714387
 31
0.0
  0
LINE
  5
1FC
330
323
100
AcDbEntity
  8
SIZE
  6
Continuous
 62
    30
100
AcDbLine
 10
-213.5
 20
1753.714387
 30
0.0
 11
-221.5
 21
1753.714387
 31
0.0
  0
CIRCLE
  5
1FD
330
323
100
AcDbEntity
  8
SIZE
  6
Continuous
 62
    30
100
AcDbCircle
 10
-213.5
 20
1753.714387
 30
0.0
 40
5.0
  0
LINE
  5
1FE
330
323
100
AcDbEntity
  8
SIZE
  6
Continuous
 62
    30
100
AcDbLine
 10
-208.5
 20
1753.714387
 30
0.0
 11
-203.5
 21
1753.714387
 31
0.0
  0
CIRCLE
  5
1FF
330
323
100
AcDbEntity
  8
SIZE
  6
Continuous
 62
    30
100
AcDbCircle
 10
-221.5
 20
1753.714387
 30
0.0
 40
5.0
  0
LINE
  5
200
330
323
100
AcDbEntity
  8
SIZE
  6
Continuous
 62
    30
100
AcDbLine
 10
-226.5
 20
1753.714387
 30
0.0
 11
-231.5
 21
1753.714387
 31
0.0
  0
POINT
  5
201
330
323
100
AcDbEntity
  8
DEFPOINTS
  6
Continuous
 62
     7
100
AcDbPoint
 10
-213.5
 20
1628.878594999999
 30
0.0
  0
POINT
  5
202
330
323
100
AcDbEntity
  8
DEFPOINTS
  6
Continuous
 62
     7
100
AcDbPoint
 10
-221.5
 20
1625.0
 30
0.0
  0
POINT
  5
203
330
323
100
AcDbEntity
  8
DEFPOINTS
  6
Continuous
 62
     7
100
AcDbPoint
 10
-221.5
 20
1753.714387
 30
0.0
  0
LINE
  5
204
330
323
100
AcDbEntity
  8
ARRANGE
  6
Continuous
 62
     1
100
AcDbLine
 10
-59.86223999999999
 20
59.86223999999999
 30
0.0
 11
59.86223999999999
 21
-59.86223999999999
 31
0.0
  0
LINE
  5
205
330
323
100
AcDbEntity
  8
ARRANGE
  6
Continuous
 62
     1
100
AcDbLine
 10
59.86223999999999
 20
59.86223999999999
 30
0.0
 11
-59.86223999999999
 21
-59.86223999999999
 31
0.0
  0
CIRCLE
  5
206
330
323
100
AcDbEntity
  8
ARRANGE
  6
Continuous
 62
     1
100
AcDbCircle
 10
0.0
 20
0.0
 30
0.0
 40
47.47290699999999
  0
ENDSEC
  0
SECTION
  2
OBJECTS
  0
DICTIONARY
  5
2BB
330
0
100
AcDbDictionary
281
     1
  3
ACAD_COLOR
350
319
  3
ACAD_GROUP
350
2BC
  3
ACAD_LAYOUT
350
318
  3
ACAD_MATERIAL
350
2BF
  3
ACAD_MLEADERSTYLE
350
31C
  3
ACAD_MLINESTYLE
350
315
  3
ACAD_PLOTSETTINGS
350
317
  3
ACAD_PLOTSTYLENAME
350
2BD
  3
ACAD_SCALELIST
350
2E9
  3
ACAD_TABLESTYLE
350
31A
  3
ACAD_VISUALSTYLE
350
2D8
  3
ACDB_RECOMPOSE_DATA
350
361
  3
AcDbVariableDictionary
350
358
  3
DWGPROPS
350
37F
  0
DICTIONARY
  5
342
330
30B
100
AcDbDictionary
280
     1
281
     1
  3
ADSK_XREC_LAYER_RECONCILED
360
343
  0
DICTIONARY
  5
344
330
327
100
AcDbDictionary
280
     1
281
     1
  3
ADSK_XREC_LAYER_RECONCILED
360
345
  0
DICTIONARY
  5
346
330
32A
100
AcDbDictionary
280
     1
281
     1
  3
ADSK_XREC_LAYER_RECONCILED
360
347
  0
DICTIONARY
  5
348
330
32B
100
AcDbDictionary
280
     1
281
     1
  3
ADSK_XREC_LAYER_RECONCILED
360
349
  0
DICTIONARY
  5
34A
330
32C
100
AcDbDictionary
280
     1
281
     1
  3
ADSK_XREC_LAYER_RECONCILED
360
34B
  0
DICTIONARY
  5
34C
330
32D
100
AcDbDictionary
280
     1
281
     1
  3
ADSK_XREC_LAYER_RECONCILED
360
34D
  0
DICTIONARY
  5
34E
330
32E
100
AcDbDictionary
280
     1
281
     1
  3
ADSK_XREC_LAYER_RECONCILED
360
34F
  0
DICTIONARY
  5
350
330
32F
100
AcDbDictionary
280
     1
281
     1
  3
ADSK_XREC_LAYER_RECONCILED
360
351
  0
DICTIONARY
  5
352
330
330
100
AcDbDictionary
280
     1
281
     1
  3
ADSK_XREC_LAYER_RECONCILED
360
353
  0
DICTIONARY
  5
354
330
331
100
AcDbDictionary
280
     1
281
     1
  3
ADSK_XREC_LAYER_RECONCILED
360
355
  0
DICTIONARY
  5
356
330
332
100
AcDbDictionary
280
     1
281
     1
  3
ADSK_XREC_LAYER_RECONCILED
360
357
  0
DICTIONARY
  5
319
102
{ACAD_REACTORS
330
2BB
102
}
330
2BB
100
AcDbDictionary
281
     1
  0
DICTIONARY
  5
2BC
102
{ACAD_REACTORS
330
2BB
102
}
330
2BB
100
AcDbDictionary
281
     1
  0
DICTIONARY
  5
318
102
{ACAD_REACTORS
330
2BB
102
}
330
2BB
100
AcDbDictionary
281
     1
  3
Layout1
350
322
  3
Model
350
326
  0
DICTIONARY
  5
2BF
102
{ACAD_REACTORS
330
2BB
102
}
330
2BB
100
AcDbDictionary
281
     1
  3
ByBlock
350
2C8
  3
ByLayer
350
2C0
  3
Global
350
2D0
  0
DICTIONARY
  5
31C
102
{ACAD_REACTORS
330
2BB
102
}
330
2BB
100
AcDbDictionary
281
     1
  3
Standard
350
31D
  0
DICTIONARY
  5
315
102
{ACAD_REACTORS
330
2BB
102
}
330
2BB
100
AcDbDictionary
281
     1
  3
Standard
350
316
  0
DICTIONARY
  5
317
102
{ACAD_REACTORS
330
2BB
102
}
330
2BB
100
AcDbDictionary
281
     1
  0
ACDBDICTIONARYWDFLT
  5
2BD
102
{ACAD_REACTORS
330
2BB
102
}
330
2BB
100
AcDbDictionary
281
     1
  3
Normal
350
2BE
100
AcDbDictionaryWithDefault
340
2BE
  0
DICTIONARY
  5
2E9
102
{ACAD_REACTORS
330
2BB
102
}
330
2BB
100
AcDbDictionary
281
     1
  3
A0
350
2EA
  3
A1
350
2EB
  3
A2
350
2EC
  3
A3
350
2ED
  3
A4
350
2EE
  3
A5
350
2EF
  3
A6
350
2F0
  3
A7
350
2F1
  3
A8
350
2F2
  3
A9
350
2F3
  3
B0
350
2F4
  3
B1
350
2F5
  3
B2
350
2F6
  3
B3
350
2F7
  3
B4
350
2F8
  3
B5
350
2F9
  3
B6
350
2FA
  3
B7
350
2FB
  3
B8
350
2FC
  3
B9
350
2FD
  3
C0
350
2FE
  3
C1
350
2FF
  3
C2
350
300
  3
C3
350
301
  3
C4
350
302
  3
C5
350
303
  3
C6
350
304
  3
C7
350
305
  3
C8
350
306
  3
C9
350
307
  3
D0
350
308
  3
D1
350
309
  3
D2
350
30A
  0
DICTIONARY
  5
31A
102
{ACAD_REACTORS
330
2BB
102
}
330
2BB
100
AcDbDictionary
281
     1
  3
Standard
350
31B
  0
DICTIONARY
  5
2D8
102
{ACAD_REACTORS
330
2BB
102
}
330
2BB
100
AcDbDictionary
281
     1
  3
2dWireframe
350
2DE
  3
3D Hidden
350
2E0
  3
3dWireframe
350
2DF
  3
Basic
350
2DD
  3
Brighten
350
2E4
  3
ColorChange
350
2E8
  3
Conceptual
350
2E1
  3
Dim
350
2E3
  3
Facepattern
350
2E7
  3
Flat
350
2D9
  3
FlatWithEdges
350
2DA
  3
Gouraud
350
2DB
  3
GouraudWithEdges
350
2DC
  3
Linepattern
350
2E6
  3
Realistic
350
2E2
  3
Thicken
350
2E5
  0
XRECORD
  5
361
102
{ACAD_REACTORS
330
2BB
102
}
330
2BB
100
AcDbXrecord
280
     1
 90
        1
330
31B
  0
DICTIONARY
  5
358
102
{ACAD_REACTORS
330
2BB
102
}
330
2BB
100
AcDbDictionary
281
     1
  3
CANNOSCALE
350
35B
  3
CMLEADERSTYLE
350
35A
  3
CTABLESTYLE
350
359
  3
DIMASSOC
350
35E
  3
INDEXCTL
350
35D
  3
SORTENTS
350
35C
  0
XRECORD
  5
37F
102
{ACAD_REACTORS
330
2BB
102
}
330
2BB
100
AcDbXrecord
280
     1
  1
DWGPROPS COOKIE
  2

  3

  4

  6

  7

  8
lijl
  9

300
=
301
=
302
=
303
=
304
=
305
=
306
=
307
=
308
=
309
=
 40
4.231169733796296
 41
2449761.493622998
 42
2457977.583372975
  1

 90
        0
  0
XRECORD
  5
343
102
{ACAD_REACTORS
330
342
102
}
330
342
100
AcDbXrecord
280
     1
290
     1
  0
XRECORD
  5
345
102
{ACAD_REACTORS
330
344
102
}
330
344
100
AcDbXrecord
280
     1
290
     1
  0
XRECORD
  5
347
102
{ACAD_REACTORS
330
346
102
}
330
346
100
AcDbXrecord
280
     1
290
     1
  0
XRECORD
  5
349
102
{ACAD_REACTORS
330
348
102
}
330
348
100
AcDbXrecord
280
     1
290
     1
  0
XRECORD
  5
34B
102
{ACAD_REACTORS
330
34A
102
}
330
34A
100
AcDbXrecord
280
     1
290
     1
  0
XRECORD
  5
34D
102
{ACAD_REACTORS
330
34C
102
}
330
34C
100
AcDbXrecord
280
     1
290
     1
  0
XRECORD
  5
34F
102
{ACAD_REACTORS
330
34E
102
}
330
34E
100
AcDbXrecord
280
     1
290
     1
  0
XRECORD
  5
351
102
{ACAD_REACTORS
330
350
102
}
330
350
100
AcDbXrecord
280
     1
290
     1
  0
XRECORD
  5
353
102
{ACAD_REACTORS
330
352
102
}
330
352
100
AcDbXrecord
280
     1
290
     1
  0
XRECORD
  5
355
102
{ACAD_REACTORS
330
354
102
}
330
354
100
AcDbXrecord
280
     1
290
     1
  0
XRECORD
  5
357
102
{ACAD_REACTORS
330
356
102
}
330
356
100
AcDbXrecord
280
     1
290
     1
  0
LAYOUT
  5
322
102
{ACAD_XDICTIONARY
360
381
102
}
102
{ACAD_REACTORS
330
318
102
}
330
318
100
AcDbPlotSettings
  1

  2
FX DocuWide 2050
  4

  6

 40
0.0
 41
0.0
 42
0.0
 43
0.0
 44
0.0
 45
0.0
 46
0.0
 47
0.0
 48
0.0
 49
0.0
140
0.0
141
0.0
142
1.0
143
1.0
 70
   688
 72
     0
 73
     0
 74
     5
  7

 75
    16
147
1.0
148
0.0
149
0.0
100
AcDbLayout
  1
Layout1
 70
     1
 71
     1
 10
0.0
 20
0.0
 11
12.0
 21
9.0
 12
0.0
 22
0.0
 32
0.0
 14
1.000000000000000E+20
 24
1.000000000000000E+20
 34
1.000000000000000E+20
 15
-1.000000000000000E+20
 25
-1.000000000000000E+20
 35
-1.000000000000000E+20
146
0.0
 13
0.0
 23
0.0
 33
0.0
 16
1.0
 26
0.0
 36
0.0
 17
0.0
 27
1.0
 37
0.0
 76
     0
330
31F
  0
LAYOUT
  5
326
102
{ACAD_XDICTIONARY
360
383
102
}
102
{ACAD_REACTORS
330
318
102
}
330
318
100
AcDbPlotSettings
  1

  2
FX DocuWide 2050
  4

  6

 40
0.0
 41
0.0
 42
0.0
 43
0.0
 44
0.0
 45
0.0
 46
0.0
 47
0.0
 48
0.0
 49
0.0
140
0.0
141
0.0
142
1.0
143
1.0
 70
  1712
 72
     0
 73
     0
 74
     0
  7

 75
     0
147
1.0
148
0.0
149
0.0
100
AcDbLayout
  1
Model
 70
     1
 71
     0
 10
0.0
 20
0.0
 11
12.0
 21
9.0
 12
0.0
 22
0.0
 32
0.0
 14
0.0
 24
0.0
 34
0.0
 15
0.0
 25
0.0
 35
0.0
146
0.0
 13
0.0
 23
0.0
 33
0.0
 16
1.0
 26
0.0
 36
0.0
 17
0.0
 27
1.0
 37
0.0
 76
     0
330
323
331
328
  0
MATERIAL
  5
2C8
102
{ACAD_XDICTIONARY
360
2C9
102
}
102
{ACAD_REACTORS
330
2BF
102
}
330
2BF
100
AcDbMaterial
  1
ByBlock
 72
     0
 43
0.0208333333333333
 43
0.0
 43
0.0
 43
0.0
 43
0.0
 43
0.0208333333333333
 43
0.0
 43
0.0
 43
0.0
 43
0.0
 43
1.0
 43
0.0
 43
0.0
 43
0.0
 43
0.0
 43
1.0
 77
     0
 47
0.0208333333333333
 47
0.0
 47
0.0
 47
0.0
 47
0.0
 47
0.0208333333333333
 47
0.0
 47
0.0
 47
0.0
 47
0.0
 47
1.0
 47
0.0
 47
0.0
 47
0.0
 47
0.0
 47
1.0
171
     0
 49
0.0208333333333333
 49
0.0
 49
0.0
 49
0.0
 49
0.0
 49
0.0208333333333333
 49
0.0
 49
0.0
 49
0.0
 49
0.0
 49
1.0
 49
0.0
 49
0.0
 49
0.0
 49
0.0
 49
1.0
175
     0
142
0.0208333333333333
142
0.0
142
0.0
142
0.0
142
0.0
142
0.0208333333333333
142
0.0
142
0.0
142
0.0
142
0.0
142
1.0
142
0.0
142
0.0
142
0.0
142
0.0
142
1.0
179
     0
144
0.0208333333333333
144
0.0
144
0.0
144
0.0
144
0.0
144
0.0208333333333333
144
0.0
144
0.0
144
0.0
144
0.0
144
1.0
144
0.0
144
0.0
144
0.0
144
0.0
144
1.0
147
0.0208333333333333
147
0.0
147
0.0
147
0.0
147
0.0
147
0.0208333333333333
147
0.0
147
0.0
147
0.0
147
0.0
147
1.0
147
0.0
147
0.0
147
0.0
147
0.0
147
1.0
  0
MATERIAL
  5
2C0
102
{ACAD_XDICTIONARY
360
2C1
102
}
102
{ACAD_REACTORS
330
2BF
102
}
330
2BF
100
AcDbMaterial
  1
ByLayer
 72
     0
 43
0.0208333333333333
 43
0.0
 43
0.0
 43
0.0
 43
0.0
 43
0.0208333333333333
 43
0.0
 43
0.0
 43
0.0
 43
0.0
 43
1.0
 43
0.0
 43
0.0
 43
0.0
 43
0.0
 43
1.0
 77
     0
 47
0.0208333333333333
 47
0.0
 47
0.0
 47
0.0
 47
0.0
 47
0.0208333333333333
 47
0.0
 47
0.0
 47
0.0
 47
0.0
 47
1.0
 47
0.0
 47
0.0
 47
0.0
 47
0.0
 47
1.0
171
     0
 49
0.0208333333333333
 49
0.0
 49
0.0
 49
0.0
 49
0.0
 49
0.0208333333333333
 49
0.0
 49
0.0
 49
0.0
 49
0.0
 49
1.0
 49
0.0
 49
0.0
 49
0.0
 49
0.0
 49
1.0
175
     0
142
0.0208333333333333
142
0.0
142
0.0
142
0.0
142
0.0
142
0.0208333333333333
142
0.0
142
0.0
142
0.0
142
0.0
142
1.0
142
0.0
142
0.0
142
0.0
142
0.0
142
1.0
179
     0
144
0.0208333333333333
144
0.0
144
0.0
144
0.0
144
0.0
144
0.0208333333333333
144
0.0
144
0.0
144
0.0
144
0.0
144
1.0
144
0.0
144
0.0
144
0.0
144
0.0
144
1.0
147
0.0208333333333333
147
0.0
147
0.0
147
0.0
147
0.0
147
0.0208333333333333
147
0.0
147
0.0
147
0.0
147
0.0
147
1.0
147
0.0
147
0.0
147
0.0
147
0.0
147
1.0
  0
MATERIAL
  5
2D0
102
{ACAD_XDICTIONARY
360
2D1
102
}
102
{ACAD_REACTORS
330
2BF
102
}
330
2BF
100
AcDbMaterial
  1
Global
 72
     0
 43
0.0208333333333333
 43
0.0
 43
0.0
 43
0.0
 43
0.0
 43
0.0208333333333333
 43
0.0
 43
0.0
 43
0.0
 43
0.0
 43
1.0
 43
0.0
 43
0.0
 43
0.0
 43
0.0
 43
1.0
 77
     0
 47
0.0208333333333333
 47
0.0
 47
0.0
 47
0.0
 47
0.0
 47
0.0208333333333333
 47
0.0
 47
0.0
 47
0.0
 47
0.0
 47
1.0
 47
0.0
 47
0.0
 47
0.0
 47
0.0
 47
1.0
171
     0
 49
0.0208333333333333
 49
0.0
 49
0.0
 49
0.0
 49
0.0
 49
0.0208333333333333
 49
0.0
 49
0.0
 49
0.0
 49
0.0
 49
1.0
 49
0.0
 49
0.0
 49
0.0
 49
0.0
 49
1.0
175
     0
142
0.0208333333333333
142
0.0
142
0.0
142
0.0
142
0.0
142
0.0208333333333333
142
0.0
142
0.0
142
0.0
142
0.0
142
1.0
142
0.0
142
0.0
142
0.0
142
0.0
142
1.0
179
     0
144
0.0208333333333333
144
0.0
144
0.0
144
0.0
144
0.0
144
0.0208333333333333
144
0.0
144
0.0
144
0.0
144
0.0
144
1.0
144
0.0
144
0.0
144
0.0
144
0.0
144
1.0
147
0.0208333333333333
147
0.0
147
0.0
147
0.0
147
0.0
147
0.0208333333333333
147
0.0
147
0.0
147
0.0
147
0.0
147
1.0
147
0.0
147
0.0
147
0.0
147
0.0
147
1.0
  0
MLEADERSTYLE
  5
31D
102
{ACAD_REACTORS
330
31C
102
}
330
31C
100
AcDbMLeaderStyle
170
     2
171
     1
172
     0
 90
        2
 40
0.0
 41
0.0
173
     1
 91
-1056964608
340
311
 92
       -2
290
     1
 42
0.09
291
     1
 43
0.36
  3
Standard
 44
0.18
300

342
30C
174
     1
178
     6
175
     1
176
     0
 93
-1056964608
 45
0.18
292
     0
297
     0
 46
0.18
 94
-1056964608
 47
1.0
 49
1.0
140
1.0
293
     1
141
0.0
294
     1
177
     0
142
1.0
295
     0
296
     0
143
0.125
1001
ACAD_MLEADERVER
1070
     2
  0
MLINESTYLE
  5
316
102
{ACAD_REACTORS
330
315
102
}
330
315
100
AcDbMlineStyle
  2
STANDARD
 70
     0
  3

 62
   256
 51
90.0
 52
90.0
 71
     2
 49
0.5
 62
   256
  6
BYLAYER
 49
-0.5
 62
   256
  6
BYLAYER
  0
ACDBPLACEHOLDER
  5
2BE
102
{ACAD_REACTORS
330
2BD
102
}
330
2BD
  0
SCALE
  5
2EA
102
{ACAD_REACTORS
330
2E9
102
}
330
2E9
100
AcDbScale
 70
     0
300
1:1
140
1.0
141
1.0
290
     1
  0
SCALE
  5
2EB
102
{ACAD_REACTORS
330
2E9
102
}
330
2E9
100
AcDbScale
 70
     0
300
1:2
140
1.0
141
2.0
290
     0
  0
SCALE
  5
2EC
102
{ACAD_REACTORS
330
2E9
102
}
330
2E9
100
AcDbScale
 70
     0
300
1:4
140
1.0
141
4.0
290
     0
  0
SCALE
  5
2ED
102
{ACAD_REACTORS
330
2E9
102
}
330
2E9
100
AcDbScale
 70
     0
300
1:5
140
1.0
141
5.0
290
     0
  0
SCALE
  5
2EE
102
{ACAD_REACTORS
330
2E9
102
}
330
2E9
100
AcDbScale
 70
     0
300
1:8
140
1.0
141
8.0
290
     0
  0
SCALE
  5
2EF
102
{ACAD_REACTORS
330
2E9
102
}
330
2E9
100
AcDbScale
 70
     0
300
1:10
140
1.0
141
10.0
290
     0
  0
SCALE
  5
2F0
102
{ACAD_REACTORS
330
2E9
102
}
330
2E9
100
AcDbScale
 70
     0
300
1:16
140
1.0
141
16.0
290
     0
  0
SCALE
  5
2F1
102
{ACAD_REACTORS
330
2E9
102
}
330
2E9
100
AcDbScale
 70
     0
300
1:20
140
1.0
141
20.0
290
     0
  0
SCALE
  5
2F2
102
{ACAD_REACTORS
330
2E9
102
}
330
2E9
100
AcDbScale
 70
     0
300
1:30
140
1.0
141
30.0
290
     0
  0
SCALE
  5
2F3
102
{ACAD_REACTORS
330
2E9
102
}
330
2E9
100
AcDbScale
 70
     0
300
1:40
140
1.0
141
40.0
290
     0
  0
SCALE
  5
2F4
102
{ACAD_REACTORS
330
2E9
102
}
330
2E9
100
AcDbScale
 70
     0
300
1:50
140
1.0
141
50.0
290
     0
  0
SCALE
  5
2F5
102
{ACAD_REACTORS
330
2E9
102
}
330
2E9
100
AcDbScale
 70
     0
300
1:100
140
1.0
141
100.0
290
     0
  0
SCALE
  5
2F6
102
{ACAD_REACTORS
330
2E9
102
}
330
2E9
100
AcDbScale
 70
     0
300
2:1
140
2.0
141
1.0
290
     0
  0
SCALE
  5
2F7
102
{ACAD_REACTORS
330
2E9
102
}
330
2E9
100
AcDbScale
 70
     0
300
4:1
140
4.0
141
1.0
290
     0
  0
SCALE
  5
2F8
102
{ACAD_REACTORS
330
2E9
102
}
330
2E9
100
AcDbScale
 70
     0
300
8:1
140
8.0
141
1.0
290
     0
  0
SCALE
  5
2F9
102
{ACAD_REACTORS
330
2E9
102
}
330
2E9
100
AcDbScale
 70
     0
300
10:1
140
10.0
141
1.0
290
     0
  0
SCALE
  5
2FA
102
{ACAD_REACTORS
330
2E9
102
}
330
2E9
100
AcDbScale
 70
     0
300
100:1
140
100.0
141
1.0
290
     0
  0
SCALE
  5
2FB
102
{ACAD_REACTORS
330
2E9
102
}
330
2E9
100
AcDbScale
 70
     0
300
1/128" = 1'-0"
140
0.0078125
141
12.0
290
     0
  0
SCALE
  5
2FC
102
{ACAD_REACTORS
330
2E9
102
}
330
2E9
100
AcDbScale
 70
     0
300
1/64" = 1'-0"
140
0.015625
141
12.0
290
     0
  0
SCALE
  5
2FD
102
{ACAD_REACTORS
330
2E9
102
}
330
2E9
100
AcDbScale
 70
     0
300
1/32" = 1'-0"
140
0.03125
141
12.0
290
     0
  0
SCALE
  5
2FE
102
{ACAD_REACTORS
330
2E9
102
}
330
2E9
100
AcDbScale
 70
     0
300
1/16" = 1'-0"
140
0.0625
141
12.0
290
     0
  0
SCALE
  5
2FF
102
{ACAD_REACTORS
330
2E9
102
}
330
2E9
100
AcDbScale
 70
     0
300
3/32" = 1'-0"
140
0.09375
141
12.0
290
     0
  0
SCALE
  5
300
102
{ACAD_REACTORS
330
2E9
102
}
330
2E9
100
AcDbScale
 70
     0
300
1/8" = 1'-0"
140
0.125
141
12.0
290
     0
  0
SCALE
  5
301
102
{ACAD_REACTORS
330
2E9
102
}
330
2E9
100
AcDbScale
 70
     0
300
3/16" = 1'-0"
140
0.1875
141
12.0
290
     0
  0
SCALE
  5
302
102
{ACAD_REACTORS
330
2E9
102
}
330
2E9
100
AcDbScale
 70
     0
300
1/4" = 1'-0"
140
0.25
141
12.0
290
     0
  0
SCALE
  5
303
102
{ACAD_REACTORS
330
2E9
102
}
330
2E9
100
AcDbScale
 70
     0
300
3/8" = 1'-0"
140
0.375
141
12.0
290
     0
  0
SCALE
  5
304
102
{ACAD_REACTORS
330
2E9
102
}
330
2E9
100
AcDbScale
 70
     0
300
1/2" = 1'-0"
140
0.5
141
12.0
290
     0
  0
SCALE
  5
305
102
{ACAD_REACTORS
330
2E9
102
}
330
2E9
100
AcDbScale
 70
     0
300
3/4" = 1'-0"
140
0.75
141
12.0
290
     0
  0
SCALE
  5
306
102
{ACAD_REACTORS
330
2E9
102
}
330
2E9
100
AcDbScale
 70
     0
300
1" = 1'-0"
140
1.0
141
12.0
290
     0
  0
SCALE
  5
307
102
{ACAD_REACTORS
330
2E9
102
}
330
2E9
100
AcDbScale
 70
     0
300
1-1/2" = 1'-0"
140
1.5
141
12.0
290
     0
  0
SCALE
  5
308
102
{ACAD_REACTORS
330
2E9
102
}
330
2E9
100
AcDbScale
 70
     0
300
3" = 1'-0"
140
3.0
141
12.0
290
     0
  0
SCALE
  5
309
102
{ACAD_REACTORS
330
2E9
102
}
330
2E9
100
AcDbScale
 70
     0
300
6" = 1'-0"
140
6.0
141
12.0
290
     0
  0
SCALE
  5
30A
102
{ACAD_REACTORS
330
2E9
102
}
330
2E9
100
AcDbScale
 70
     0
300
1'-0" = 1'-0"
140
12.0
141
12.0
290
     0
  0
TABLESTYLE
  5
31B
102
{ACAD_XDICTIONARY
360
35F
102
}
102
{ACAD_REACTORS
330
31A
102
}
330
31A
100
AcDbTableStyle
  3
Standard
 70
     0
 71
     0
 40
0.06
 41
0.06
280
     0
281
     0
  7
STANDARD
140
0.18
170
     2
 62
     0
 63
     7
283
     0
274
    -2
284
     1
 64
     0
275
    -2
285
     1
 65
     0
276
    -2
286
     1
 66
     0
277
    -2
287
     1
 67
     0
278
    -2
288
     1
 68
     0
279
    -2
289
     1
 69
     0
  7
STANDARD
140
0.25
170
     5
 62
     0
 63
     7
283
     0
274
    -2
284
     1
 64
     0
275
    -2
285
     1
 65
     0
276
    -2
286
     1
 66
     0
277
    -2
287
     1
 67
     0
278
    -2
288
     1
 68
     0
279
    -2
289
     1
 69
     0
  7
STANDARD
140
0.18
170
     5
 62
     0
 63
     7
283
     0
274
    -2
284
     1
 64
     0
275
    -2
285
     1
 65
     0
276
    -2
286
     1
 66
     0
277
    -2
287
     1
 67
     0
278
    -2
288
     1
 68
     0
279
    -2
289
     1
 69
     0
  0
VISUALSTYLE
  5
2DE
102
{ACAD_REACTORS
330
2D8
102
}
330
2D8
100
AcDbVisualStyle
  2
2dWireframe
 70
     4
 71
     0
 72
     2
 73
     0
 90
        0
 40
-0.6
 41
-30.0
 62
     5
 63
     7
 74
     1
 91
        4
 64
     7
 65
   257
 75
     1
175
     1
 42
1.0
 92
        0
 66
   257
 43
1.0
 76
     1
 77
     6
 78
     2
 67
     7
 79
     5
170
     0
171
     0
290
     0
174
     0
 93
        1
 44
0.0
173
     0
291
     0
 45
0.0
1001
ACAD
1000
AcDbSavedByObjectVersion
1070
     0
1000
AcDbSavedByObjectVersion
1070
     0
  0
VISUALSTYLE
  5
2E0
102
{ACAD_REACTORS
330
2D8
102
}
330
2D8
100
AcDbVisualStyle
  2
3D Hidden
 70
     6
 71
     1
 72
     2
 73
     2
 90
        0
 40
-0.6
 41
-30.0
 62
     5
 63
     7
 74
     2
 91
        2
 64
     7
 65
   257
 75
     2
175
     1
 42
40.0
 92
        0
 66
   257
 43
1.0
 76
     1
 77
     6
 78
     2
 67
     7
 79
     3
170
     0
171
     0
290
     0
174
     0
 93
        1
 44
0.0
173
     0
291
     0
 45
0.0
1001
ACAD
1000
AcDbSavedByObjectVersion
1070
     0
1000
AcDbSavedByObjectVersion
1070
     0
  0
VISUALSTYLE
  5
2DF
102
{ACAD_REACTORS
330
2D8
102
}
330
2D8
100
AcDbVisualStyle
  2
3dWireframe
 70
     5
 71
     0
 72
     2
 73
     0
 90
        0
 40
-0.6
 41
-30.0
 62
     5
 63
     7
 74
     1
 91
        4
 64
     7
 65
   257
 75
     1
175
     1
 42
1.0
 92
        0
 66
   257
 43
1.0
 76
     1
 77
     6
 78
     2
 67
     7
 79
     5
170
     0
171
     0
290
     0
174
     0
 93
        1
 44
0.0
173
     0
291
     0
 45
0.0
1001
ACAD
1000
AcDbSavedByObjectVersion
1070
     0
1000
AcDbSavedByObjectVersion
1070
     0
  0
VISUALSTYLE
  5
2DD
102
{ACAD_REACTORS
330
2D8
102
}
330
2D8
100
AcDbVisualStyle
  2
Basic
 70
     7
 71
     1
 72
     0
 73
     1
 90
        0
 40
-0.6
 41
-30.0
 62
     5
 63
     7
 74
     0
 91
        4
 64
     7
 65
   257
 75
     1
175
     1
 42
1.0
 92
        8
 66
     7
 43
1.0
 76
     1
 77
     6
 78
     2
 67
     7
 79
     5
170
     0
171
     0
290
     0
174
     0
 93
        1
 44
0.0
173
     0
291
     1
 45
0.0
1001
ACAD
1000
AcDbSavedByObjectVersion
1070
     0
1000
AcDbSavedByObjectVersion
1070
     0
  0
VISUALSTYLE
  5
2E4
102
{ACAD_REACTORS
330
2D8
102
}
330
2D8
100
AcDbVisualStyle
  2
Brighten
 70
    12
 71
     2
 72
     2
 73
     0
 90
        0
 40
-0.6
 41
-30.0
 62
     5
 63
     7
 74
     1
 91
        4
 64
     7
 65
   257
 75
     1
175
     1
 42
1.0
 92
        8
 66
     7
 43
1.0
 76
     1
 77
     6
 78
     2
 67
     7
 79
     5
170
     0
171
     0
290
     0
174
     0
 93
        1
 44
50.0
173
     0
291
     1
 45
0.0
1001
ACAD
1000
AcDbSavedByObjectVersion
1070
     0
1000
AcDbSavedByObjectVersion
1070
     0
  0
VISUALSTYLE
  5
2E8
102
{ACAD_REACTORS
330
2D8
102
}
330
2D8
100
AcDbVisualStyle
  2
ColorChange
 70
    16
 71
     2
 72
     2
 73
     3
 90
        0
 40
-0.6
 41
-30.0
 62
     5
 63
     8
 74
     1
 91
        4
 64
     7
 65
   257
 75
     1
175
     1
 42
1.0
 92
        8
 66
     8
 43
1.0
 76
     1
 77
     6
 78
     2
 67
     7
 79
     5
170
     0
171
     0
290
     0
174
     0
 93
        1
 44
0.0
173
     0
291
     1
 45
0.0
1001
ACAD
1000
AcDbSavedByObjectVersion
1070
     0
1000
AcDbSavedByObjectVersion
1070
     0
  0
VISUALSTYLE
  5
2E1
102
{ACAD_REACTORS
330
2D8
102
}
330
2D8
100
AcDbVisualStyle
  2
Conceptual
 70
     9
 71
     3
 72
     2
 73
     0
 90
        0
 40
-0.6
 41
-30.0
 62
     5
 63
     7
 74
     2
 91
        2
 64
     7
 65
   257
 75
     1
175
     1
 42
40.0
 92
        8
 66
     7
 43
1.0
 76
     1
 77
     6
 78
     2
 67
     7
 79
     3
170
     0
171
     0
290
     0
174
     0
 93
        1
 44
0.0
173
     0
291
     0
 45
0.0
1001
ACAD
1000
AcDbSavedByObjectVersion
1070
     0
1000
AcDbSavedByObjectVersion
1070
     0
  0
VISUALSTYLE
  5
2E3
102
{ACAD_REACTORS
330
2D8
102
}
330
2D8
100
AcDbVisualStyle
  2
Dim
 70
    11
 71
     2
 72
     2
 73
     0
 90
        0
 40
-0.6
 41
-30.0
 62
     5
 63
     7
 74
     1
 91
        4
 64
     7
 65
   257
 75
     1
175
     1
 42
1.0
 92
        8
 66
     7
 43
1.0
 76
     1
 77
     6
 78
     2
 67
     7
 79
     5
170
     0
171
     0
290
     0
174
     0
 93
        1
 44
-50.0
173
     0
291
     1
 45
0.0
1001
ACAD
1000
AcDbSavedByObjectVersion
1070
     0
1000
AcDbSavedByObjectVersion
1070
     0
  0
VISUALSTYLE
  5
2E7
102
{ACAD_REACTORS
330
2D8
102
}
330
2D8
100
AcDbVisualStyle
  2
Facepattern
 70
    15
 71
     2
 72
     2
 73
     0
 90
        0
 40
-0.6
 41
-30.0
 62
     5
 63
     7
 74
     1
 91
        4
 64
     7
 65
   257
 75
     1
175
     1
 42
1.0
 92
        8
 66
     7
 43
1.0
 76
     1
 77
     6
 78
     2
 67
     7
 79
     5
170
     0
171
     0
290
     0
174
     0
 93
        1
 44
0.0
173
     0
291
     1
 45
0.0
1001
ACAD
1000
AcDbSavedByObjectVersion
1070
     0
1000
AcDbSavedByObjectVersion
1070
     0
  0
VISUALSTYLE
  5
2D9
102
{ACAD_REACTORS
330
2D8
102
}
330
2D8
100
AcDbVisualStyle
  2
Flat
 70
     0
 71
     2
 72
     1
 73
     1
 90
        2
 40
-0.6
 41
30.0
 62
     5
 63
     7
 74
     0
 91
        4
 64
     7
 65
   257
 75
     1
175
     1
 42
1.0
 92
        8
 66
     7
 43
1.0
 76
     1
 77
     6
 78
     2
 67
     7
 79
     5
170
     0
171
     0
290
     0
174
     0
 93
       13
 44
0.0
173
     0
291
     1
 45
0.0
1001
ACAD
1000
AcDbSavedByObjectVersion
1070
     0
1000
AcDbSavedByObjectVersion
1070
     0
  0
VISUALSTYLE
  5
2DA
102
{ACAD_REACTORS
330
2D8
102
}
330
2D8
100
AcDbVisualStyle
  2
FlatWithEdges
 70
     1
 71
     2
 72
     1
 73
     1
 90
        2
 40
-0.6
 41
30.0
 62
     5
 63
     7
 74
     1
 91
        4
 64
     7
 65
   257
 75
     1
175
     1
 42
1.0
 92
        0
 66
   257
 43
1.0
 76
     1
 77
     6
 78
     2
 67
     7
 79
     5
170
     0
171
     0
290
     0
174
     0
 93
       13
 44
0.0
173
     0
291
     1
 45
0.0
1001
ACAD
1000
AcDbSavedByObjectVersion
1070
     0
1000
AcDbSavedByObjectVersion
1070
     0
  0
VISUALSTYLE
  5
2DB
102
{ACAD_REACTORS
330
2D8
102
}
330
2D8
100
AcDbVisualStyle
  2
Gouraud
 70
     2
 71
     2
 72
     2
 73
     1
 90
        2
 40
-0.6
 41
30.0
 62
     5
 63
     7
 74
     0
 91
        4
 64
     7
 65
   257
 75
     1
175
     1
 42
1.0
 92
        0
 66
     7
 43
1.0
 76
     1
 77
     6
 78
     2
 67
     7
 79
     5
170
     0
171
     0
290
     0
174
     0
 93
       13
 44
0.0
173
     0
291
     1
 45
0.0
1001
ACAD
1000
AcDbSavedByObjectVersion
1070
     0
1000
AcDbSavedByObjectVersion
1070
     0
  0
VISUALSTYLE
  5
2DC
102
{ACAD_REACTORS
330
2D8
102
}
330
2D8
100
AcDbVisualStyle
  2
GouraudWithEdges
 70
     3
 71
     2
 72
     2
 73
     1
 90
        2
 40
-0.6
 41
30.0
 62
     5
 63
     7
 74
     1
 91
        4
 64
     7
 65
   257
 75
     1
175
     1
 42
1.0
 92
        0
 66
   257
 43
1.0
 76
     1
 77
     6
 78
     2
 67
     7
 79
     5
170
     0
171
     0
290
     0
174
     0
 93
       13
 44
0.0
173
     0
291
     1
 45
0.0
1001
ACAD
1000
AcDbSavedByObjectVersion
1070
     0
1000
AcDbSavedByObjectVersion
1070
     0
  0
VISUALSTYLE
  5
2E6
102
{ACAD_REACTORS
330
2D8
102
}
330
2D8
100
AcDbVisualStyle
  2
Linepattern
 70
    14
 71
     2
 72
     2
 73
     0
 90
        0
 40
-0.6
 41
-30.0
 62
     5
 63
     7
 74
     1
 91
        4
 64
     7
 65
   257
 75
     7
175
     7
 42
1.0
 92
        8
 66
     7
 43
1.0
 76
     1
 77
     6
 78
     2
 67
     7
 79
     5
170
     0
171
     0
290
     0
174
     0
 93
        1
 44
0.0
173
     0
291
     1
 45
0.0
1001
ACAD
1000
AcDbSavedByObjectVersion
1070
     0
1000
AcDbSavedByObjectVersion
1070
     0
  0
VISUALSTYLE
  5
2E2
102
{ACAD_REACTORS
330
2D8
102
}
330
2D8
100
AcDbVisualStyle
  2
Realistic
 70
     8
 71
     2
 72
     2
 73
     0
 90
        0
 40
-0.6
 41
-30.0
 62
     5
 63
     7
 74
     1
 91
        0
 64
     7
 65
   257
 75
     1
175
     1
 42
1.0
 92
        8
 66
     8
 43
1.0
 76
     1
 77
     6
 78
     2
 67
     7
 79
     5
170
     0
171
     0
290
     0
174
     0
 93
       13
 44
0.0
173
     0
291
     0
 45
0.0
1001
ACAD
1000
AcDbSavedByObjectVersion
1070
     0
1000
AcDbSavedByObjectVersion
1070
     0
  0
VISUALSTYLE
  5
2E5
102
{ACAD_REACTORS
330
2D8
102
}
330
2D8
100
AcDbVisualStyle
  2
Thicken
 70
    13
 71
     2
 72
     2
 73
     0
 90
        0
 40
-0.6
 41
-30.0
 62
     5
 63
     7
 74
     1
 91
        4
 64
     7
 65
   257
 75
     1
175
     1
 42
1.0
 92
       12
 66
     7
 43
1.0
 76
     1
 77
     6
 78
     2
 67
     7
 79
     5
170
     0
171
     0
290
     0
174
     0
 93
        1
 44
0.0
173
     0
291
     1
 45
0.0
1001
ACAD
1000
AcDbSavedByObjectVersion
1070
     0
1000
AcDbSavedByObjectVersion
1070
     0
  0
DICTIONARYVAR
  5
35B
102
{ACAD_REACTORS
330
358
102
}
330
358
100
DictionaryVariables
280
     0
  1
1:1
  0
DICTIONARYVAR
  5
35A
102
{ACAD_REACTORS
330
358
102
}
330
358
100
DictionaryVariables
280
     0
  1
STANDARD
  0
DICTIONARYVAR
  5
359
102
{ACAD_REACTORS
330
358
102
}
330
358
100
DictionaryVariables
280
     0
  1
STANDARD
  0
DICTIONARYVAR
  5
35E
102
{ACAD_REACTORS
330
358
102
}
330
358
100
DictionaryVariables
280
     0
  1
1
  0
DICTIONARYVAR
  5
35D
102
{ACAD_REACTORS
330
358
102
}
330
358
100
DictionaryVariables
280
     0
  1
0
  0
DICTIONARYVAR
  5
35C
102
{ACAD_REACTORS
330
358
102
}
330
358
100
DictionaryVariables
280
     0
  1
127
  0
DICTIONARY
  5
381
330
322
100
AcDbDictionary
280
     1
281
     1
  3
ACAD_XREC_ROUNDTRIP
360
382
  0
DICTIONARY
  5
383
330
326
100
AcDbDictionary
280
     1
281
     1
  3
ACAD_XREC_ROUNDTRIP
360
384
  0
DICTIONARY
  5
2C9
330
2C8
100
AcDbDictionary
280
     1
281
     1
  3
ACAD_XREC_ROUNDTRIP
360
364
  3
BUMPTILE
360
2CB
  3
DIFFUSETILE
360
2CA
  3
OPACITYTILE
360
2CE
  3
REFLECTIONTILE
360
2CD
  3
REFRACTIONTILE
360
2CF
  3
SPECULARTILE
360
2CC
  0
DICTIONARY
  5
2C1
330
2C0
100
AcDbDictionary
280
     1
281
     1
  3
ACAD_XREC_ROUNDTRIP
360
363
  3
BUMPTILE
360
2C3
  3
DIFFUSETILE
360
2C2
  3
OPACITYTILE
360
2C6
  3
REFLECTIONTILE
360
2C5
  3
REFRACTIONTILE
360
2C7
  3
SPECULARTILE
360
2C4
  0
DICTIONARY
  5
2D1
330
2D0
100
AcDbDictionary
280
     1
281
     1
  3
ACAD_XREC_ROUNDTRIP
360
365
  3
BUMPTILE
360
2D3
  3
DIFFUSETILE
360
2D2
  3
OPACITYTILE
360
2D6
  3
REFLECTIONTILE
360
2D5
  3
REFRACTIONTILE
360
2D7
  3
SPECULARTILE
360
2D4
  0
DICTIONARY
  5
35F
330
31B
100
AcDbDictionary
280
     1
281
     1
  3
ACAD_ROUNDTRIP_2008_TABLESTYLE_CELLSTYLEMAP
360
37E
  3
ACAD_XREC_ROUNDTRIP
360
380
  0
XRECORD
  5
382
102
{ACAD_REACTORS
330
381
102
}
330
381
100
AcDbXrecord
280
     1
102
SHADEPLOT
 70
     0
102
SHADEPLOTRESLEVEL
 70
     2
102
SHADEPLOTCUSTOMDPI
 70
   300
  0
XRECORD
  5
384
102
{ACAD_REACTORS
330
383
102
}
330
383
100
AcDbXrecord
280
     1
102
SHADEPLOT
 70
     0
102
SHADEPLOTRESLEVEL
 70
     2
102
SHADEPLOTCUSTOMDPI
 70
   300
  0
XRECORD
  5
364
102
{ACAD_REACTORS
330
2C9
102
}
330
2C9
100
AcDbXrecord
280
     1
102
MATERIAL
148
0.0
149
0.0
149
0.0
 93
        0
 94
      127
282
     0
 72
     0
 77
     0
171
     0
175
     0
179
     0
273
     0
  0
XRECORD
  5
2CB
102
{ACAD_REACTORS
330
2C9
102
}
330
2C9
100
AcDbXrecord
280
     1
270
     1
271
     1
  0
XRECORD
  5
2CA
102
{ACAD_REACTORS
330
2C9
102
}
330
2C9
100
AcDbXrecord
280
     1
270
     1
271
     1
  0
XRECORD
  5
2CE
102
{ACAD_REACTORS
330
2C9
102
}
330
2C9
100
AcDbXrecord
280
     1
270
     1
271
     1
  0
XRECORD
  5
2CD
102
{ACAD_REACTORS
330
2C9
102
}
330
2C9
100
AcDbXrecord
280
     1
270
     1
271
     1
  0
XRECORD
  5
2CF
102
{ACAD_REACTORS
330
2C9
102
}
330
2C9
100
AcDbXrecord
280
     1
270
     1
271
     1
  0
XRECORD
  5
2CC
102
{ACAD_REACTORS
330
2C9
102
}
330
2C9
100
AcDbXrecord
280
     1
270
     1
271
     1
  0
XRECORD
  5
363
102
{ACAD_REACTORS
330
2C1
102
}
330
2C1
100
AcDbXrecord
280
     1
102
MATERIAL
148
0.0
149
0.0
149
0.0
 93
        0
 94
      127
282
     0
 72
     0
 77
     0
171
     0
175
     0
179
     0
273
     0
  0
XRECORD
  5
2C3
102
{ACAD_REACTORS
330
2C1
102
}
330
2C1
100
AcDbXrecord
280
     1
270
     1
271
     1
  0
XRECORD
  5
2C2
102
{ACAD_REACTORS
330
2C1
102
}
330
2C1
100
AcDbXrecord
280
     1
270
     1
271
     1
  0
XRECORD
  5
2C6
102
{ACAD_REACTORS
330
2C1
102
}
330
2C1
100
AcDbXrecord
280
     1
270
     1
271
     1
  0
XRECORD
  5
2C5
102
{ACAD_REACTORS
330
2C1
102
}
330
2C1
100
AcDbXrecord
280
     1
270
     1
271
     1
  0
XRECORD
  5
2C7
102
{ACAD_REACTORS
330
2C1
102
}
330
2C1
100
AcDbXrecord
280
     1
270
     1
271
     1
  0
XRECORD
  5
2C4
102
{ACAD_REACTORS
330
2C1
102
}
330
2C1
100
AcDbXrecord
280
     1
270
     1
271
     1
  0
XRECORD
  5
365
102
{ACAD_REACTORS
330
2D1
102
}
330
2D1
100
AcDbXrecord
280
     1
102
MATERIAL
148
0.0
149
0.0
149
0.0
 93
        0
 94
      127
282
     0
 72
     0
 77
     0
171
     0
175
     0
179
     0
273
     0
  0
XRECORD
  5
2D3
102
{ACAD_REACTORS
330
2D1
102
}
330
2D1
100
AcDbXrecord
280
     1
270
     1
271
     1
  0
XRECORD
  5
2D2
102
{ACAD_REACTORS
330
2D1
102
}
330
2D1
100
AcDbXrecord
280
     1
270
     1
271
     1
  0
XRECORD
  5
2D6
102
{ACAD_REACTORS
330
2D1
102
}
330
2D1
100
AcDbXrecord
280
     1
270
     1
271
     1
  0
XRECORD
  5
2D5
102
{ACAD_REACTORS
330
2D1
102
}
330
2D1
100
AcDbXrecord
280
     1
270
     1
271
     1
  0
XRECORD
  5
2D7
102
{ACAD_REACTORS
330
2D1
102
}
330
2D1
100
AcDbXrecord
280
     1
270
     1
271
     1
  0
XRECORD
  5
2D4
102
{ACAD_REACTORS
330
2D1
102
}
330
2D1
100
AcDbXrecord
280
     1
270
     1
271
     1
  0
CELLSTYLEMAP
  5
37E
102
{ACAD_REACTORS
330
35F
102
}
330
35F
100
AcDbCellStyleMap
 90
        3
300
CELLSTYLE
  1
TABLEFORMAT_BEGIN
 90
        5
170
     1
 91
        0
 92
    32768
 62
   257
 93
        1
300
CONTENTFORMAT
  1
CONTENTFORMAT_BEGIN
 90
        0
 91
        0
 92
      512
 93
        0
300

 40
0.0
140
1.0
 94
        5
 62
     0
340
30C
144
0.25
309
CONTENTFORMAT_END
171
     1
301
MARGIN
  1
CELLMARGIN_BEGIN
 40
0.06
 40
0.06
 40
0.06
 40
0.06
 40
0.18
 40
0.18
309
CELLMARGIN_END
 94
        6
 95
        1
302
GRIDFORMAT
  1
GRIDFORMAT_BEGIN
 90
        0
 91
        1
 62
     0
 92
       -2
340
0
 93
        0
 40
0.045
309
GRIDFORMAT_END
 95
        2
302
GRIDFORMAT
  1
GRIDFORMAT_BEGIN
 90
        0
 91
        1
 62
     0
 92
       -2
340
0
 93
        0
 40
0.045
309
GRIDFORMAT_END
 95
        4
302
GRIDFORMAT
  1
GRIDFORMAT_BEGIN
 90
        0
 91
        1
 62
     0
 92
       -2
340
0
 93
        0
 40
0.045
309
GRIDFORMAT_END
 95
        8
302
GRIDFORMAT
  1
GRIDFORMAT_BEGIN
 90
        0
 91
        1
 62
     0
 92
       -2
340
0
 93
        0
 40
0.045
309
GRIDFORMAT_END
 95
       16
302
GRIDFORMAT
  1
GRIDFORMAT_BEGIN
 90
        0
 91
        1
 62
     0
 92
       -2
340
0
 93
        0
 40
0.045
309
GRIDFORMAT_END
 95
       32
302
GRIDFORMAT
  1
GRIDFORMAT_BEGIN
 90
        0
 91
        1
 62
     0
 92
       -2
340
0
 93
        0
 40
0.045
309
GRIDFORMAT_END
309
TABLEFORMAT_END
  1
CELLSTYLE_BEGIN
 90
        1
 91
        1
300
_TITLE
309
CELLSTYLE_END
300
CELLSTYLE
  1
TABLEFORMAT_BEGIN
 90
        5
170
     1
 91
        0
 92
        0
 62
   257
 93
        1
300
CONTENTFORMAT
  1
CONTENTFORMAT_BEGIN
 90
        0
 91
        0
 92
      512
 93
        0
300

 40
0.0
140
1.0
 94
        5
 62
     0
340
30C
144
0.18
309
CONTENTFORMAT_END
171
     1
301
MARGIN
  1
CELLMARGIN_BEGIN
 40
0.06
 40
0.06
 40
0.06
 40
0.06
 40
0.18
 40
0.18
309
CELLMARGIN_END
 94
        6
 95
        1
302
GRIDFORMAT
  1
GRIDFORMAT_BEGIN
 90
        0
 91
        1
 62
     0
 92
       -2
340
0
 93
        0
 40
0.045
309
GRIDFORMAT_END
 95
        2
302
GRIDFORMAT
  1
GRIDFORMAT_BEGIN
 90
        0
 91
        1
 62
     0
 92
       -2
340
0
 93
        0
 40
0.045
309
GRIDFORMAT_END
 95
        4
302
GRIDFORMAT
  1
GRIDFORMAT_BEGIN
 90
        0
 91
        1
 62
     0
 92
       -2
340
0
 93
        0
 40
0.045
309
GRIDFORMAT_END
 95
        8
302
GRIDFORMAT
  1
GRIDFORMAT_BEGIN
 90
        0
 91
        1
 62
     0
 92
       -2
340
0
 93
        0
 40
0.045
309
GRIDFORMAT_END
 95
       16
302
GRIDFORMAT
  1
GRIDFORMAT_BEGIN
 90
        0
 91
        1
 62
     0
 92
       -2
340
0
 93
        0
 40
0.045
309
GRIDFORMAT_END
 95
       32
302
GRIDFORMAT
  1
GRIDFORMAT_BEGIN
 90
        0
 91
        1
 62
     0
 92
       -2
340
0
 93
        0
 40
0.045
309
GRIDFORMAT_END
309
TABLEFORMAT_END
  1
CELLSTYLE_BEGIN
 90
        2
 91
        1
300
_HEADER
309
CELLSTYLE_END
300
CELLSTYLE
  1
TABLEFORMAT_BEGIN
 90
        5
170
     1
 91
        0
 92
        0
 62
   257
 93
        1
300
CONTENTFORMAT
  1
CONTENTFORMAT_BEGIN
 90
        0
 91
        0
 92
      512
 93
        0
300

 40
0.0
140
1.0
 94
        2
 62
     0
340
30C
144
0.18
309
CONTENTFORMAT_END
171
     1
301
MARGIN
  1
CELLMARGIN_BEGIN
 40
0.06
 40
0.06
 40
0.06
 40
0.06
 40
0.18
 40
0.18
309
CELLMARGIN_END
 94
        6
 95
        1
302
GRIDFORMAT
  1
GRIDFORMAT_BEGIN
 90
        0
 91
        1
 62
     0
 92
       -2
340
0
 93
        0
 40
0.045
309
GRIDFORMAT_END
 95
        2
302
GRIDFORMAT
  1
GRIDFORMAT_BEGIN
 90
        0
 91
        1
 62
     0
 92
       -2
340
0
 93
        0
 40
0.045
309
GRIDFORMAT_END
 95
        4
302
GRIDFORMAT
  1
GRIDFORMAT_BEGIN
 90
        0
 91
        1
 62
     0
 92
       -2
340
0
 93
        0
 40
0.045
309
GRIDFORMAT_END
 95
        8
302
GRIDFORMAT
  1
GRIDFORMAT_BEGIN
 90
        0
 91
        1
 62
     0
 92
       -2
340
0
 93
        0
 40
0.045
309
GRIDFORMAT_END
 95
       16
302
GRIDFORMAT
  1
GRIDFORMAT_BEGIN
 90
        0
 91
        1
 62
     0
 92
       -2
340
0
 93
        0
 40
0.045
309
GRIDFORMAT_END
 95
       32
302
GRIDFORMAT
  1
GRIDFORMAT_BEGIN
 90
        0
 91
        1
 62
     0
 92
       -2
340
0
 93
        0
 40
0.045
309
GRIDFORMAT_END
309
TABLEFORMAT_END
  1
CELLSTYLE_BEGIN
 90
        3
 91
        2
300
_DATA
309
CELLSTYLE_END
  0
XRECORD
  5
380
102
{ACAD_REACTORS
330
35F
102
}
330
35F
100
AcDbXrecord
280
     1
102
ACAD_ROUNDTRIP_PRE2007_TABLESTYLE
 90
      512
 91
        0
  1

 92
      512
 93
        0
  2

 94
      512
 95
        0
  3

  0
ENDSEC
  0
EOF
