  0
SECTION
  2
HEADER
  9
$ACADVER
  1
AC1015
  9
$ACADMAINTVER
 70
    20
  9
$DWGCODEPAGE
  3
ANSI_932
  9
$INSBASE
 10
0.0
 20
0.0
 30
0.0
  9
$EXTMIN
 10
-1505.401588633427
 20
-1247.621138949904
 30
-0.0015258207003583
  9
$EXTMAX
 10
1768.15797571111
 20
902.2934074191052
 30
0.0000000349246037
  9
$LIMMIN
 10
-4200.0
 20
-2970.0
  9
$LIMMAX
 10
4200.0
 20
2970.0
  9
$ORTHOMODE
 70
     0
  9
$REGENMODE
 70
     1
  9
$FILLMODE
 70
     1
  9
$QTEXTMODE
 70
     0
  9
$MIRRTEXT
 70
     0
  9
$LTSCALE
 40
20.0
  9
$ATTMODE
 70
     1
  9
$TEXTSIZE
 40
64.0
  9
$TRACEWID
 40
0.05
  9
$TEXTSTYLE
  7
STANDARD
  9
$CLAYER
  8
SIZE
  9
$CELTYPE
  6
CONTINUOUS
  9
$CECOLOR
 62
     7
  9
$CELTSCALE
 40
1.0
  9
$DISPSILH
 70
     0
  9
$DIMSCALE
 40
1.0
  9
$DIMASZ
 40
10.0
  9
$DIMEXO
 40
20.0
  9
$DIMDLI
 40
200.0
  9
$DIMRND
 40
0.0
  9
$DIMDLE
 40
0.0
  9
$DIMEXE
 40
30.0
  9
$DIMTP
 40
0.0
  9
$DIMTM
 40
0.0
  9
$DIMTXT
 40
64.0
  9
$DIMCEN
 40
0.0
  9
$DIMTSZ
 40
0.0
  9
$DIMTOL
 70
     0
  9
$DIMLIM
 70
     0
  9
$DIMTIH
 70
     0
  9
$DIMTOH
 70
     0
  9
$DIMSE1
 70
     0
  9
$DIMSE2
 70
     0
  9
$DIMTAD
 70
     1
  9
$DIMZIN
 70
     8
  9
$DIMBLK
  1
DOTBLANK
  9
$DIMASO
 70
     1
  9
$DIMSHO
 70
     0
  9
$DIMPOST
  1

  9
$DIMAPOST
  1

  9
$DIMALT
 70
     0
  9
$DIMALTD
 70
     2
  9
$DIMALTF
 40
25.4
  9
$DIMLFAC
 40
1.0
  9
$DIMTOFL
 70
     1
  9
$DIMTVP
 40
0.0
  9
$DIMTIX
 70
     1
  9
$DIMSOXD
 70
     0
  9
$DIMSAH
 70
     0
  9
$DIMBLK1
  1

  9
$DIMBLK2
  1

  9
$DIMSTYLE
  2
STANDARD
  9
$DIMCLRD
 70
     0
  9
$DIMCLRE
 70
     0
  9
$DIMCLRT
 70
     0
  9
$DIMTFAC
 40
1.0
  9
$DIMGAP
 40
0.09
  9
$DIMJUST
 70
     0
  9
$DIMSD1
 70
     0
  9
$DIMSD2
 70
     0
  9
$DIMTOLJ
 70
     1
  9
$DIMTZIN
 70
     0
  9
$DIMALTZ
 70
     0
  9
$DIMALTTZ
 70
     0
  9
$DIMUPT
 70
     0
  9
$DIMDEC
 70
     4
  9
$DIMTDEC
 70
     4
  9
$DIMALTU
 70
     2
  9
$DIMALTTD
 70
     2
  9
$DIMTXSTY
  7
STANDARD
  9
$DIMAUNIT
 70
     0
  9
$DIMADEC
 70
     0
  9
$DIMALTRND
 40
0.0
  9
$DIMAZIN
 70
     0
  9
$DIMDSEP
 70
    46
  9
$DIMATFIT
 70
     3
  9
$DIMFRAC
 70
     0
  9
$DIMLDRBLK
  1
DOTBLANK
  9
$DIMLUNIT
 70
     2
  9
$DIMLWD
 70
    -2
  9
$DIMLWE
 70
    -2
  9
$DIMTMOVE
 70
     0
  9
$LUNITS
 70
     2
  9
$LUPREC
 70
     4
  9
$SKETCHINC
 40
0.1
  9
$FILLETRAD
 40
0.0
  9
$AUNITS
 70
     1
  9
$AUPREC
 70
     3
  9
$MENU
  1
ACAD
  9
$ELEVATION
 40
0.0
  9
$PELEVATION
 40
0.0
  9
$THICKNESS
 40
0.0
  9
$LIMCHECK
 70
     0
  9
$CHAMFERA
 40
0.0
  9
$CHAMFERB
 40
0.0
  9
$CHAMFERC
 40
0.0
  9
$CHAMFERD
 40
0.0
  9
$SKPOLY
 70
     0
  9
$TDCREATE
 40
2449761.493622998
  9
$TDUCREATE
 40
2449761.160289664
  9
$TDUPDATE
 40
2457977.583516331
  9
$TDUUPDATE
 40
2457977.250182998
  9
$TDINDWG
 40
4.2315415278
  9
$TDUSRTIMER
 40
4.2315414120
  9
$USRTIMER
 70
     1
  9
$ANGBASE
 50
0.0
  9
$ANGDIR
 70
     0
  9
$PDMODE
 70
    35
  9
$PDSIZE
 40
100.0
  9
$PLINEWID
 40
0.0
  9
$SPLFRAME
 70
     0
  9
$SPLINETYPE
 70
     6
  9
$SPLINESEGS
 70
     8
  9
$HANDSEED
  5
2C4
  9
$SURFTAB1
 70
     6
  9
$SURFTAB2
 70
     6
  9
$SURFTYPE
 70
     6
  9
$SURFU
 70
     6
  9
$SURFV
 70
     6
  9
$UCSBASE
  2

  9
$UCSNAME
  2

  9
$UCSORG
 10
0.0
 20
0.0
 30
0.0
  9
$UCSXDIR
 10
1.0
 20
0.0
 30
0.0
  9
$UCSYDIR
 10
0.0
 20
1.0
 30
0.0
  9
$UCSORTHOREF
  2

  9
$UCSORTHOVIEW
 70
     0
  9
$UCSORGTOP
 10
0.0
 20
0.0
 30
0.0
  9
$UCSORGBOTTOM
 10
0.0
 20
0.0
 30
0.0
  9
$UCSORGLEFT
 10
0.0
 20
0.0
 30
0.0
  9
$UCSORGRIGHT
 10
0.0
 20
0.0
 30
0.0
  9
$UCSORGFRONT
 10
0.0
 20
0.0
 30
0.0
  9
$UCSORGBACK
 10
0.0
 20
0.0
 30
0.0
  9
$PUCSBASE
  2

  9
$PUCSNAME
  2

  9
$PUCSORG
 10
0.0
 20
0.0
 30
0.0
  9
$PUCSXDIR
 10
1.0
 20
0.0
 30
0.0
  9
$PUCSYDIR
 10
0.0
 20
1.0
 30
0.0
  9
$PUCSORTHOREF
  2

  9
$PUCSORTHOVIEW
 70
     0
  9
$PUCSORGTOP
 10
0.0
 20
0.0
 30
0.0
  9
$PUCSORGBOTTOM
 10
0.0
 20
0.0
 30
0.0
  9
$PUCSORGLEFT
 10
0.0
 20
0.0
 30
0.0
  9
$PUCSORGRIGHT
 10
0.0
 20
0.0
 30
0.0
  9
$PUCSORGFRONT
 10
0.0
 20
0.0
 30
0.0
  9
$PUCSORGBACK
 10
0.0
 20
0.0
 30
0.0
  9
$USERI1
 70
     0
  9
$USERI2
 70
     0
  9
$USERI3
 70
     0
  9
$USERI4
 70
     0
  9
$USERI5
 70
     0
  9
$USERR1
 40
20.0
  9
$USERR2
 40
0.0
  9
$USERR3
 40
0.0
  9
$USERR4
 40
0.0
  9
$USERR5
 40
0.0
  9
$WORLDVIEW
 70
     1
  9
$SHADEDGE
 70
     3
  9
$SHADEDIF
 70
    70
  9
$TILEMODE
 70
     1
  9
$MAXACTVP
 70
    48
  9
$PINSBASE
 10
0.0
 20
0.0
 30
0.0
  9
$PLIMCHECK
 70
     0
  9
$PEXTMIN
 10
1.000000000000000E+20
 20
1.000000000000000E+20
 30
1.000000000000000E+20
  9
$PEXTMAX
 10
-1.000000000000000E+20
 20
-1.000000000000000E+20
 30
-1.000000000000000E+20
  9
$PLIMMIN
 10
0.0
 20
0.0
  9
$PLIMMAX
 10
12.0
 20
9.0
  9
$UNITMODE
 70
     0
  9
$VISRETAIN
 70
     1
  9
$PLINEGEN
 70
     0
  9
$PSLTSCALE
 70
     1
  9
$TREEDEPTH
 70
  3020
  9
$CMLSTYLE
  2
Standard
  9
$CMLJUST
 70
     0
  9
$CMLSCALE
 40
1.0
  9
$PROXYGRAPHICS
 70
     1
  9
$MEASUREMENT
 70
     0
  9
$CELWEIGHT
370
    -1
  9
$ENDCAPS
280
     0
  9
$JOINSTYLE
280
     0
  9
$LWDISPLAY
290
     0
  9
$INSUNITS
 70
     0
  9
$HYPERLINKBASE
  1

  9
$STYLESHEET
  1

  9
$XEDIT
290
     1
  9
$CEPSNTYPE
380
     0
  9
$PSTYLEMODE
290
     1
  9
$FINGERPRINTGUID
  2
{46B68883-BB7D-40F4-8EBE-3A0733DC3BB6}
  9
$VERSIONGUID
  2
{C4540CF0-075C-4868-8516-6208BA8180FF}
  9
$EXTNAMES
290
     1
  9
$PSVPSCALE
 40
0.0
  9
$OLESTARTUP
290
     0
  0
ENDSEC
  0
SECTION
  2
CLASSES
  0
CLASS
  1
ACDBDICTIONARYWDFLT
  2
AcDbDictionaryWithDefault
  3
ObjectDBX Classes
 90
        0
280
     0
281
     0
  0
CLASS
  1
MATERIAL
  2
AcDbMaterial
  3
ObjectDBX Classes
 90
     1153
280
     0
281
     0
  0
CLASS
  1
VISUALSTYLE
  2
AcDbVisualStyle
  3
ObjectDBX Classes
 90
     4095
280
     0
281
     0
  0
CLASS
  1
SCALE
  2
AcDbScale
  3
ObjectDBX Classes
 90
     1153
280
     0
281
     0
  0
CLASS
  1
TABLESTYLE
  2
AcDbTableStyle
  3
ObjectDBX Classes
 90
     4095
280
     0
281
     0
  0
CLASS
  1
MLEADERSTYLE
  2
AcDbMLeaderStyle
  3
ACDB_MLEADERSTYLE_CLASS
 90
     4095
280
     0
281
     0
  0
CLASS
  1
DICTIONARYVAR
  2
AcDbDictionaryVar
  3
ObjectDBX Classes
 90
        0
280
     0
281
     0
  0
CLASS
  1
CELLSTYLEMAP
  2
AcDbCellStyleMap
  3
ObjectDBX Classes
 90
     1152
280
     0
281
     0
  0
CLASS
  1
ACDBPLACEHOLDER
  2
AcDbPlaceHolder
  3
ObjectDBX Classes
 90
        0
280
     0
281
     0
  0
CLASS
  1
LAYOUT
  2
AcDbLayout
  3
ObjectDBX Classes
 90
        0
280
     0
281
     0
  0
ENDSEC
  0
SECTION
  2
TABLES
  0
TABLE
  2
VPORT
  5
1EF
330
0
100
AcDbSymbolTable
 70
     1
  0
VPORT
  5
260
330
1EF
100
AcDbSymbolTableRecord
100
AcDbViewportTableRecord
  2
*ACTIVE
 70
     0
 10
0.0
 20
0.0
 11
1.0
 21
1.0
 12
131.3781935388415
 22
-172.6638657653993
 13
0.0
 23
0.0
 14
50.0
 24
50.0
 15
100.0
 25
100.0
 16
0.0
 26
0.0
 36
1.0
 17
0.0
 27
0.0
 37
0.0
 40
2197.575073523364
 41
1.802600472813238
 42
50.0
 43
0.0
 44
0.0
 50
0.0
 51
0.0
 71
     0
 72
  1000
 73
     1
 74
     0
 75
     0
 76
     0
 77
     0
 78
     0
281
     0
 65
     1
110
0.0
120
0.0
130
0.0
111
1.0
121
0.0
131
0.0
112
0.0
122
1.0
132
0.0
 79
     0
146
0.0
  0
ENDTAB
  0
TABLE
  2
LTYPE
  5
1EC
330
0
100
AcDbSymbolTable
 70
     3
  0
LTYPE
  5
249
330
1EC
100
AcDbSymbolTableRecord
100
AcDbLinetypeTableRecord
  2
ByBlock
 70
     0
  3

 72
    65
 73
     0
 40
0.0
  0
LTYPE
  5
24A
330
1EC
100
AcDbSymbolTableRecord
100
AcDbLinetypeTableRecord
  2
ByLayer
 70
     0
  3

 72
    65
 73
     0
 40
0.0
  0
LTYPE
  5
24B
330
1EC
100
AcDbSymbolTableRecord
100
AcDbLinetypeTableRecord
  2
CONTINUOUS
 70
     0
  3
実線
 72
    65
 73
     0
 40
0.0
  0
LTYPE
  5
261
330
1EC
100
AcDbSymbolTableRecord
100
AcDbLinetypeTableRecord
  2
DASHDOT
 70
     0
  3
____ _ ____ _ ____ _ ____ _ ____ _ ____ _ ____
 72
    65
 73
     4
 40
5.5
 49
4.0
 74
     0
 49
-0.6
 74
     0
 49
0.3
 74
     0
 49
-0.6
 74
     0
  0
ENDTAB
  0
TABLE
  2
LAYER
  5
1E9
330
0
100
AcDbSymbolTable
 70
    12
  0
LAYER
  5
243
102
{ACAD_XDICTIONARY
360
27A
102
}
330
1E9
100
AcDbSymbolTableRecord
100
AcDbLayerTableRecord
  2
0
 70
     0
 62
     7
  6
CONTINUOUS
370
    -3
390
1F6
  0
LAYER
  5
25F
102
{ACAD_XDICTIONARY
360
27C
102
}
330
1E9
100
AcDbSymbolTableRecord
100
AcDbLayerTableRecord
  2
SIZE
 70
     0
 62
    30
  6
CONTINUOUS
370
    -3
390
1F6
  0
LAYER
  5
262
102
{ACAD_XDICTIONARY
360
27E
102
}
330
1E9
100
AcDbSymbolTableRecord
100
AcDbLayerTableRecord
  2
OUTLINE
 70
     0
 62
     3
  6
CONTINUOUS
370
    -3
390
1F6
  0
LAYER
  5
263
102
{ACAD_XDICTIONARY
360
280
102
}
330
1E9
100
AcDbSymbolTableRecord
100
AcDbLayerTableRecord
  2
DETAIL
 70
     0
 62
     5
  6
CONTINUOUS
370
    -3
390
1F6
  0
LAYER
  5
264
102
{ACAD_XDICTIONARY
360
282
102
}
330
1E9
100
AcDbSymbolTableRecord
100
AcDbLayerTableRecord
  2
BASIS
 70
     0
 62
     6
  6
DASHDOT
370
    -3
390
1F6
  0
LAYER
  5
265
102
{ACAD_XDICTIONARY
360
284
102
}
330
1E9
100
AcDbSymbolTableRecord
100
AcDbLayerTableRecord
  2
NOTE
 70
     0
 62
     4
  6
CONTINUOUS
370
    -3
390
1F6
  0
LAYER
  5
266
102
{ACAD_XDICTIONARY
360
286
102
}
330
1E9
100
AcDbSymbolTableRecord
100
AcDbLayerTableRecord
  2
ARRANGE
 70
     0
 62
     1
  6
CONTINUOUS
370
    -3
390
1F6
  0
LAYER
  5
267
102
{ACAD_XDICTIONARY
360
288
102
}
330
1E9
100
AcDbSymbolTableRecord
100
AcDbLayerTableRecord
  2
FIX
 70
     0
 62
    11
  6
CONTINUOUS
370
    -3
390
1F6
  0
LAYER
  5
268
102
{ACAD_XDICTIONARY
360
28A
102
}
330
1E9
100
AcDbSymbolTableRecord
100
AcDbLayerTableRecord
  2
SERVICESPACE
 70
     0
 62
     2
  6
DASHDOT
370
    -3
390
1F6
  0
LAYER
  5
269
102
{ACAD_XDICTIONARY
360
28C
102
}
330
1E9
100
AcDbSymbolTableRecord
100
AcDbLayerTableRecord
  2
ETC
 70
     0
 62
    61
  6
CONTINUOUS
370
    -3
390
1F6
  0
LAYER
  5
26A
102
{ACAD_XDICTIONARY
360
28E
102
}
330
1E9
100
AcDbSymbolTableRecord
100
AcDbLayerTableRecord
  2
SYMBOLLINE
 70
     0
 62
    15
  6
CONTINUOUS
370
    -3
390
1F6
  0
LAYER
  5
26B
330
1E9
100
AcDbSymbolTableRecord
100
AcDbLayerTableRecord
  2
DEFPOINTS
 70
     0
 62
     7
  6
CONTINUOUS
290
     0
370
    -3
390
1F6
  0
ENDTAB
  0
TABLE
  2
STYLE
  5
1EA
330
0
100
AcDbSymbolTable
 70
     3
  0
STYLE
  5
244
330
1EA
100
AcDbSymbolTableRecord
100
AcDbTextStyleTableRecord
  2
STANDARD
 70
     0
 40
0.0
 41
0.9
 50
0.0
 71
     0
 42
64.0
  3
SIMPLEX
  4
BIGFONT
  0
STYLE
  5
248
330
1EA
100
AcDbSymbolTableRecord
100
AcDbTextStyleTableRecord
  2
Annotative
 70
     0
 40
0.0
 41
1.0
 50
0.0
 71
     0
 42
0.2
  3
txt
  4

1001
AcadAnnotative
1000
AnnotativeData
1002
{
1070
     1
1070
     1
1002
}
  0
STYLE
  5
26C
330
1EA
100
AcDbSymbolTableRecord
100
AcDbTextStyleTableRecord
  2
STANDARD1
 70
     0
 40
0.0
 41
1.0
 50
0.0
 71
     0
 42
3.5
  3
MONOTXT
  4
BIGFONT
  0
ENDTAB
  0
TABLE
  2
VIEW
  5
1ED
330
0
100
AcDbSymbolTable
 70
     1
  0
VIEW
  5
26D
330
1ED
100
AcDbSymbolTableRecord
100
AcDbViewTableRecord
  2
ALL
 70
     0
 40
6056.230032000001
 10
0.0
 20
58.115016
 41
8400.0
 11
0.0
 21
0.0
 31
1.0
 12
0.0
 22
0.0
 32
0.0
 42
50.0
 43
0.0
 44
0.0
 50
0.0
 71
     0
281
     0
 72
     1
110
0.0
120
0.0
130
0.0
111
1.0
121
0.0
131
0.0
112
0.0
122
1.0
132
0.0
 79
     0
146
0.0
  0
ENDTAB
  0
TABLE
  2
UCS
  5
1EE
330
0
100
AcDbSymbolTable
 70
     0
  0
ENDTAB
  0
TABLE
  2
APPID
  5
1F0
330
0
100
AcDbSymbolTable
 70
     4
  0
APPID
  5
245
330
1F0
100
AcDbSymbolTableRecord
100
AcDbRegAppTableRecord
  2
ACAD
 70
     0
  0
APPID
  5
24C
330
1F0
100
AcDbSymbolTableRecord
100
AcDbRegAppTableRecord
  2
AcadAnnotative
 70
     0
  0
APPID
  5
256
330
1F0
100
AcDbSymbolTableRecord
100
AcDbRegAppTableRecord
  2
ACAD_MLEADERVER
 70
     0
  0
APPID
  5
278
330
1F0
100
AcDbSymbolTableRecord
100
AcDbRegAppTableRecord
  2
ACAD_EXEMPT_FROM_CAD_STANDARDS
 70
     0
  0
ENDTAB
  0
TABLE
  2
DIMSTYLE
  5
1F1
330
0
100
AcDbSymbolTable
 70
     2
100
AcDbDimStyleTable
 71
     0
  0
DIMSTYLE
105
246
330
1F1
100
AcDbSymbolTableRecord
100
AcDbDimStyleTableRecord
  2
STANDARD
 70
     0
275
     1
279
     2
284
     8
285
     8
286
     8
340
244
  0
DIMSTYLE
105
247
330
1F1
100
AcDbSymbolTableRecord
100
AcDbDimStyleTableRecord
  2
Annotative
 70
     0
340
244
1001
AcadAnnotative
1000
AnnotativeData
1002
{
1070
     1
1070
     1
1002
}
  0
ENDTAB
  0
TABLE
  2
BLOCK_RECORD
  5
1E8
330
0
100
AcDbSymbolTable
 70
     3
  0
BLOCK_RECORD
  5
25B
330
1E8
100
AcDbSymbolTableRecord
100
AcDbBlockTableRecord
  2
*Model_Space
340
25E
  0
BLOCK_RECORD
  5
257
330
1E8
100
AcDbSymbolTableRecord
100
AcDbBlockTableRecord
  2
*Paper_Space
340
25A
  0
BLOCK_RECORD
  5
272
330
1E8
100
AcDbSymbolTableRecord
100
AcDbBlockTableRecord
  2
$MODEL_SPACE
340
0
  0
BLOCK_RECORD
  5
274
330
1E8
100
AcDbSymbolTableRecord
100
AcDbBlockTableRecord
  2
$PAPER_SPACE
340
0
  0
BLOCK_RECORD
  5
276
330
1E8
100
AcDbSymbolTableRecord
100
AcDbBlockTableRecord
  2
_DOTBLANK
340
0
  0
ENDTAB
  0
ENDSEC
  0
SECTION
  2
BLOCKS
  0
BLOCK
  5
25C
330
25B
100
AcDbEntity
  8
0
100
AcDbBlockBegin
  2
*Model_Space
 70
     0
 10
0.0
 20
0.0
 30
0.0
  3
*Model_Space
  1

  0
ENDBLK
  5
25D
330
25B
100
AcDbEntity
  8
0
100
AcDbBlockEnd
  0
BLOCK
  5
258
330
257
100
AcDbEntity
 67
     1
  8
0
100
AcDbBlockBegin
  2
*Paper_Space
 70
     0
 10
0.0
 20
0.0
 30
0.0
  3
*Paper_Space
  1

  0
ENDBLK
  5
259
330
257
100
AcDbEntity
 67
     1
  8
0
100
AcDbBlockEnd
  0
BLOCK
  5
273
330
272
100
AcDbEntity
  8
0
100
AcDbBlockBegin
  2
$MODEL_SPACE
 70
     0
 10
0.0
 20
0.0
 30
0.0
  3
$MODEL_SPACE
  1

  0
ENDBLK
  5
1CA
330
272
100
AcDbEntity
  8
0
100
AcDbBlockEnd
  0
BLOCK
  5
275
330
274
100
AcDbEntity
  8
0
100
AcDbBlockBegin
  2
$PAPER_SPACE
 70
     0
 10
0.0
 20
0.0
 30
0.0
  3
$PAPER_SPACE
  1

  0
ENDBLK
  5
1C7
330
274
100
AcDbEntity
  8
0
100
AcDbBlockEnd
  0
BLOCK
  5
277
330
276
100
AcDbEntity
  8
0
100
AcDbBlockBegin
  2
_DOTBLANK
 70
     0
 10
0.0
 20
0.0
 30
0.0
  3
_DOTBLANK
  1

  0
CIRCLE
  5
32
330
276
100
AcDbEntity
  8
0
  6
Continuous
 62
     7
100
AcDbCircle
 10
0.0
 20
0.0
 30
0.0
 40
0.5
  0
LINE
  5
33
330
276
100
AcDbEntity
  8
0
  6
Continuous
 62
     7
100
AcDbLine
 10
-0.5
 20
0.0
 30
0.0
 11
-1.0
 21
0.0
 31
0.0
  0
ENDBLK
  5
34
330
276
100
AcDbEntity
  8
0
100
AcDbBlockEnd
  0
ENDSEC
  0
SECTION
  2
ENTITIES
  0
TEXT
  5
35
330
25B
100
AcDbEntity
  8
ETC
  6
Continuous
 62
    61
100
AcDbText
 10
-1505.16298
 20
705.3026549999998
 30
0.0
 40
90.0
  1
KFH-P2_3A1_DUCT_6
 50
359.999997
 41
0.6030590000000001
  7
STANDARD1
100
AcDbText
  0
LINE
  5
36
330
25B
100
AcDbEntity
  8
BASIS
  6
DASHDOT
 62
     6
100
AcDbLine
 10
448.747448
 20
0.0
 30
0.0
 11
-408.138162
 21
0.0
 31
0.0
  0
LINE
  5
39
330
25B
100
AcDbEntity
  8
BASIS
  6
DASHDOT
 62
     6
100
AcDbLine
 10
0.0
 20
-339.957493
 30
0.0
 11
0.0
 21
339.957493
 31
0.0
  0
LINE
  5
3A
330
25B
100
AcDbEntity
  8
SIZE
  6
Continuous
 62
    30
100
AcDbLine
 10
939.95004
 20
-242.5
 30
0.0
 11
1638.854493
 21
-242.5
 31
0.0
  0
LINE
  5
3B
330
25B
100
AcDbEntity
  8
SIZE
  6
Continuous
 62
    30
100
AcDbLine
 10
939.95004
 20
-1242.5
 30
0.0
 11
1638.854493
 21
-1242.5
 31
0.0
  0
LINE
  5
3C
330
25B
100
AcDbEntity
  8
SIZE
  6
Continuous
 62
    30
100
AcDbLine
 10
1608.854493
 20
-252.5
 30
0.0
 11
1608.854493
 21
-1232.5
 31
0.0
  0
CIRCLE
  5
3D
330
25B
100
AcDbEntity
  8
SIZE
  6
Continuous
 62
    30
100
AcDbCircle
 10
1608.854493
 20
-242.5
 30
0.0
 40
5.0
  0
LINE
  5
3E
330
25B
100
AcDbEntity
  8
SIZE
  6
Continuous
 62
    30
100
AcDbLine
 10
1608.854493
 20
-247.5
 30
0.0
 11
1608.854493
 21
-252.5
 31
0.0
  0
CIRCLE
  5
3F
330
25B
100
AcDbEntity
  8
SIZE
  6
Continuous
 62
    30
100
AcDbCircle
 10
1608.854493
 20
-1242.5
 30
0.0
 40
5.0
  0
LINE
  5
40
330
25B
100
AcDbEntity
  8
SIZE
  6
Continuous
 62
    30
100
AcDbLine
 10
1608.854493
 20
-1237.5
 30
0.0
 11
1608.854493
 21
-1232.5
 31
0.0
  0
TEXT
  5
41
330
25B
100
AcDbEntity
  8
SIZE
  6
Continuous
 62
    30
100
AcDbText
 10
1588.854493
 20
-838.4999999999999
 30
0.0
 40
64.0
  1
1000
 50
90.0
 41
0.9
 72
     1
 11
1588.854493
 21
-742.4999999999998
 31
0.0
100
AcDbText
  0
POINT
  5
42
330
25B
100
AcDbEntity
  8
DEFPOINTS
  6
Continuous
 62
     7
100
AcDbPoint
 10
919.9500399999999
 20
-242.5
 30
0.0
  0
POINT
  5
43
330
25B
100
AcDbEntity
  8
DEFPOINTS
  6
Continuous
 62
     7
100
AcDbPoint
 10
919.9500399999999
 20
-1242.5
 30
0.0
  0
POINT
  5
44
330
25B
100
AcDbEntity
  8
DEFPOINTS
  6
Continuous
 62
     7
100
AcDbPoint
 10
1608.854493
 20
-1242.5
 30
0.0
  0
LINE
  5
45
330
25B
100
AcDbEntity
  8
SIZE
  6
Continuous
 62
    30
100
AcDbLine
 10
338.707778
 20
242.5
 30
0.0
 11
1638.854493
 21
242.5
 31
0.0
  0
LINE
  5
46
330
25B
100
AcDbEntity
  8
SIZE
  6
Continuous
 62
    30
100
AcDbLine
 10
232.239596
 20
-242.5
 30
0.0
 11
1638.854493
 21
-242.5
 31
0.0
  0
LINE
  5
47
330
25B
100
AcDbEntity
  8
SIZE
  6
Continuous
 62
    30
100
AcDbLine
 10
1608.854493
 20
232.5
 30
0.0
 11
1608.854493
 21
-232.5
 31
0.0
  0
CIRCLE
  5
48
330
25B
100
AcDbEntity
  8
SIZE
  6
Continuous
 62
    30
100
AcDbCircle
 10
1608.854493
 20
242.5
 30
0.0
 40
5.0
  0
LINE
  5
49
330
25B
100
AcDbEntity
  8
SIZE
  6
Continuous
 62
    30
100
AcDbLine
 10
1608.854493
 20
237.5
 30
0.0
 11
1608.854493
 21
232.5
 31
0.0
  0
CIRCLE
  5
4A
330
25B
100
AcDbEntity
  8
SIZE
  6
Continuous
 62
    30
100
AcDbCircle
 10
1608.854493
 20
-242.5
 30
0.0
 40
5.0
  0
LINE
  5
4B
330
25B
100
AcDbEntity
  8
SIZE
  6
Continuous
 62
    30
100
AcDbLine
 10
1608.854493
 20
-237.5
 30
0.0
 11
1608.854493
 21
-232.5
 31
0.0
  0
TEXT
  5
4C
330
25B
100
AcDbEntity
  8
SIZE
  6
Continuous
 62
    30
100
AcDbText
 10
1588.854493
 20
-74.05714285714282
 30
0.0
 40
64.0
  1
485
 50
90.0
 41
0.9
 72
     1
 11
1588.854493
 21
0.0
 31
0.0
100
AcDbText
  0
POINT
  5
4D
330
25B
100
AcDbEntity
  8
DEFPOINTS
  6
Continuous
 62
     7
100
AcDbPoint
 10
318.707778
 20
242.5
 30
0.0
  0
POINT
  5
4E
330
25B
100
AcDbEntity
  8
DEFPOINTS
  6
Continuous
 62
     7
100
AcDbPoint
 10
212.239596
 20
-242.5
 30
0.0
  0
POINT
  5
4F
330
25B
100
AcDbEntity
  8
DEFPOINTS
  6
Continuous
 62
     7
100
AcDbPoint
 10
1608.854493
 20
-242.5
 30
0.0
  0
LINE
  5
50
330
25B
100
AcDbEntity
  8
SIZE
  6
Continuous
 62
    30
100
AcDbLine
 10
331.0
 20
235.5
 30
0.0
 11
1399.599446
 21
235.5
 31
0.0
  0
LINE
  5
51
330
25B
100
AcDbEntity
  8
SIZE
  6
Continuous
 62
    30
100
AcDbLine
 10
340.000024
 20
242.5
 30
0.0
 11
1399.599446
 21
242.5
 31
0.0
  0
LINE
  5
52
330
25B
100
AcDbEntity
  8
SIZE
  6
Continuous
 62
    30
100
AcDbLine
 10
1369.599446
 20
225.5
 30
0.0
 11
1369.599446
 21
215.5
 31
0.0
  0
LINE
  5
53
330
25B
100
AcDbEntity
  8
SIZE
  6
Continuous
 62
    30
100
AcDbLine
 10
1369.599446
 20
252.5
 30
0.0
 11
1369.599446
 21
393.771432
 31
0.0
  0
LINE
  5
54
330
25B
100
AcDbEntity
  8
SIZE
  6
Continuous
 62
    30
100
AcDbLine
 10
1369.599446
 20
235.5
 30
0.0
 11
1369.599446
 21
242.5
 31
0.0
  0
CIRCLE
  5
55
330
25B
100
AcDbEntity
  8
SIZE
  6
Continuous
 62
    30
100
AcDbCircle
 10
1369.599446
 20
235.5
 30
0.0
 40
5.0
  0
LINE
  5
56
330
25B
100
AcDbEntity
  8
SIZE
  6
Continuous
 62
    30
100
AcDbLine
 10
1369.599446
 20
230.5
 30
0.0
 11
1369.599446
 21
225.5
 31
0.0
  0
CIRCLE
  5
57
330
25B
100
AcDbEntity
  8
SIZE
  6
Continuous
 62
    30
100
AcDbCircle
 10
1369.599446
 20
242.5
 30
0.0
 40
5.0
  0
LINE
  5
58
330
25B
100
AcDbEntity
  8
SIZE
  6
Continuous
 62
    30
100
AcDbLine
 10
1369.599446
 20
247.5
 30
0.0
 11
1369.599446
 21
252.5
 31
0.0
  0
TEXT
  5
59
330
25B
100
AcDbEntity
  8
SIZE
  6
Continuous
 62
    30
100
AcDbText
 10
1349.599446
 20
335.371432
 30
0.0
 40
64.0
  1
7
 50
90.0
 41
0.9
 72
     1
 11
1349.599446
 21
354.571432
 31
0.0
100
AcDbText
  0
POINT
  5
5A
330
25B
100
AcDbEntity
  8
DEFPOINTS
  6
Continuous
 62
     7
100
AcDbPoint
 10
311.0
 20
235.5
 30
0.0
  0
POINT
  5
5B
330
25B
100
AcDbEntity
  8
DEFPOINTS
  6
Continuous
 62
     7
100
AcDbPoint
 10
320.000024
 20
242.5
 30
0.0
  0
POINT
  5
5C
330
25B
100
AcDbEntity
  8
DEFPOINTS
  6
Continuous
 62
     7
100
AcDbPoint
 10
1369.599446
 20
242.5
 30
0.0
  0
LINE
  5
5D
330
25B
100
AcDbEntity
  8
SIZE
  6
Continuous
 62
    30
100
AcDbLine
 10
308.54249
 20
252.5
 30
0.0
 11
1638.854493
 21
252.5
 31
0.0
  0
LINE
  5
5E
330
25B
100
AcDbEntity
  8
SIZE
  6
Continuous
 62
    30
100
AcDbLine
 10
340.000024
 20
242.5
 30
0.0
 11
1638.854493
 21
242.5
 31
0.0
  0
LINE
  5
5F
330
25B
100
AcDbEntity
  8
SIZE
  6
Continuous
 62
    30
100
AcDbLine
 10
308.54249
 20
252.5
 30
0.0
 11
1638.854493
 21
252.5
 31
0.0
  0
LINE
  5
60
330
25B
100
AcDbEntity
  8
SIZE
  6
Continuous
 62
    30
100
AcDbLine
 10
308.54249
 20
302.5
 30
0.0
 11
1638.854493
 21
302.5
 31
0.0
  0
LINE
  5
61
330
25B
100
AcDbEntity
  8
SIZE
  6
Continuous
 62
    30
100
AcDbLine
 10
1608.854493
 20
242.5
 30
0.0
 11
1608.854493
 21
232.5
 31
0.0
  0
LINE
  5
62
330
25B
100
AcDbEntity
  8
SIZE
  6
Continuous
 62
    30
100
AcDbLine
 10
1608.854493
 20
312.5
 30
0.0
 11
1608.854493
 21
322.5
 31
0.0
  0
LINE
  5
63
330
25B
100
AcDbEntity
  8
SIZE
  6
Continuous
 62
    30
100
AcDbLine
 10
1608.854493
 20
458.3141889999998
 30
0.0
 11
1608.854493
 21
302.5
 31
0.0
  0
TEXT
  5
64
330
25B
100
AcDbEntity
  8
SIZE
  6
Continuous
 62
    30
100
AcDbText
 10
1588.854493
 20
345.0570465714286
 30
0.0
 40
64.0
  1
50
 50
90.0
 41
0.9
 72
     1
 11
1588.854493
 21
391.685618
 31
0.0
100
AcDbText
  0
LINE
  5
65
330
25B
100
AcDbEntity
  8
SIZE
  6
Continuous
 62
    30
100
AcDbLine
 10
1608.854493
 20
252.5
 30
0.0
 11
1608.854493
 21
302.5
 31
0.0
  0
LINE
  5
66
330
25B
100
AcDbEntity
  8
SIZE
  6
Continuous
 62
    30
100
AcDbLine
 10
1608.854493
 20
252.5
 30
0.0
 11
1608.854493
 21
302.5
 31
0.0
  0
CIRCLE
  5
67
330
25B
100
AcDbEntity
  8
SIZE
  6
Continuous
 62
    30
100
AcDbCircle
 10
1608.854493
 20
252.5
 30
0.0
 40
5.0
  0
LINE
  5
68
330
25B
100
AcDbEntity
  8
SIZE
  6
Continuous
 62
    30
100
AcDbLine
 10
1608.854493
 20
247.5
 30
0.0
 11
1608.854493
 21
242.5
 31
0.0
  0
CIRCLE
  5
69
330
25B
100
AcDbEntity
  8
SIZE
  6
Continuous
 62
    30
100
AcDbCircle
 10
1608.854493
 20
302.5
 30
0.0
 40
5.0
  0
LINE
  5
6A
330
25B
100
AcDbEntity
  8
SIZE
  6
Continuous
 62
    30
100
AcDbLine
 10
1608.854493
 20
307.5
 30
0.0
 11
1608.854493
 21
312.5
 31
0.0
  0
POINT
  5
6B
330
25B
100
AcDbEntity
  8
DEFPOINTS
  6
Continuous
 62
     7
100
AcDbPoint
 10
288.54249
 20
252.5
 30
0.0
  0
POINT
  5
6C
330
25B
100
AcDbEntity
  8
DEFPOINTS
  6
Continuous
 62
     7
100
AcDbPoint
 10
288.54249
 20
302.5
 30
0.0
  0
POINT
  5
6D
330
25B
100
AcDbEntity
  8
DEFPOINTS
  6
Continuous
 62
     7
100
AcDbPoint
 10
1608.854493
 20
302.5
 30
0.0
  0
LINE
  5
6E
330
25B
100
AcDbEntity
  8
SIZE
  6
Continuous
 62
    30
100
AcDbLine
 10
331.0
 20
235.5
 30
0.0
 11
1399.599446
 21
235.5
 31
0.0
  0
LINE
  5
6F
330
25B
100
AcDbEntity
  8
SIZE
  6
Continuous
 62
    30
100
AcDbLine
 10
331.0
 20
-220.5
 30
0.0
 11
1399.599446
 21
-220.5
 31
0.0
  0
LINE
  5
70
330
25B
100
AcDbEntity
  8
SIZE
  6
Continuous
 62
    30
100
AcDbLine
 10
1369.599446
 20
225.5
 30
0.0
 11
1369.599446
 21
-210.5
 31
0.0
  0
CIRCLE
  5
71
330
25B
100
AcDbEntity
  8
SIZE
  6
Continuous
 62
    30
100
AcDbCircle
 10
1369.599446
 20
235.5
 30
0.0
 40
5.0
  0
LINE
  5
72
330
25B
100
AcDbEntity
  8
SIZE
  6
Continuous
 62
    30
100
AcDbLine
 10
1369.599446
 20
230.5
 30
0.0
 11
1369.599446
 21
225.5
 31
0.0
  0
CIRCLE
  5
73
330
25B
100
AcDbEntity
  8
SIZE
  6
Continuous
 62
    30
100
AcDbCircle
 10
1369.599446
 20
-220.5
 30
0.0
 40
5.0
  0
LINE
  5
74
330
25B
100
AcDbEntity
  8
SIZE
  6
Continuous
 62
    30
100
AcDbLine
 10
1369.599446
 20
-215.5
 30
0.0
 11
1369.599446
 21
-210.5
 31
0.0
  0
TEXT
  5
75
330
25B
100
AcDbEntity
  8
SIZE
  6
Continuous
 62
    30
100
AcDbText
 10
1349.599446
 20
-65.18571428571428
 30
0.0
 40
64.0
  1
456
 50
90.0
 41
0.9
 72
     1
 11
1349.599446
 21
7.5
 31
0.0
100
AcDbText
  0
POINT
  5
76
330
25B
100
AcDbEntity
  8
DEFPOINTS
  6
Continuous
 62
     7
100
AcDbPoint
 10
311.0
 20
235.5
 30
0.0
  0
POINT
  5
77
330
25B
100
AcDbEntity
  8
DEFPOINTS
  6
Continuous
 62
     7
100
AcDbPoint
 10
311.0
 20
-220.5
 30
0.0
  0
POINT
  5
78
330
25B
100
AcDbEntity
  8
DEFPOINTS
  6
Continuous
 62
     7
100
AcDbPoint
 10
1369.599446
 20
-220.5
 30
0.0
  0
TEXT
  5
79
330
25B
100
AcDbEntity
  8
NOTE
  6
Continuous
 62
     4
100
AcDbText
 10
-370.52536
 20
-105.471047
 30
0.0
 40
50.0
  1
サービススペース
 50
90.00000300000001
 41
0.6310000000000002
  7
STANDARD1
100
AcDbText
  0
LINE
  5
7A
330
25B
100
AcDbEntity
  8
SIZE
  6
Continuous
 62
    30
100
AcDbLine
 10
-340.000024
 20
242.499136
 30
0.0
 11
-728.431461
 21
242.499136
 31
0.0
  0
LINE
  5
7B
330
25B
100
AcDbEntity
  8
SIZE
  6
Continuous
 62
    30
100
AcDbLine
 10
-373.000024
 20
7.503397
 30
0.0
 11
-728.431461
 21
7.503397
 31
0.0
  0
LINE
  5
7C
330
25B
100
AcDbEntity
  8
SIZE
  6
Continuous
 62
    30
100
AcDbLine
 10
-698.431461
 20
232.499136
 30
0.0
 11
-698.431461
 21
17.503397
 31
0.0
  0
LINE
  5
7D
330
25B
100
AcDbEntity
  8
SIZE
  6
Continuous
 62
    30
100
AcDbLine
 10
-698.431461
 20
441.4728429999998
 30
0.0
 11
-698.431461
 21
242.499136
 31
0.0
  0
TEXT
  5
7E
330
25B
100
AcDbEntity
  8
SIZE
  6
Continuous
 62
    30
100
AcDbText
 10
-718.431461
 20
273.3585571428572
 30
0.0
 40
64.0
  1
235
 50
90.0
 41
0.9
 72
     1
 11
-718.431461
 21
347.4157
 31
0.0
100
AcDbText
  0
CIRCLE
  5
7F
330
25B
100
AcDbEntity
  8
SIZE
  6
Continuous
 62
    30
100
AcDbCircle
 10
-698.431461
 20
242.499136
 30
0.0
 40
5.0
  0
LINE
  5
80
330
25B
100
AcDbEntity
  8
SIZE
  6
Continuous
 62
    30
100
AcDbLine
 10
-698.431461
 20
237.499136
 30
0.0
 11
-698.431461
 21
232.499136
 31
0.0
  0
CIRCLE
  5
81
330
25B
100
AcDbEntity
  8
SIZE
  6
Continuous
 62
    30
100
AcDbCircle
 10
-698.431461
 20
7.503397
 30
0.0
 40
5.0
  0
LINE
  5
82
330
25B
100
AcDbEntity
  8
SIZE
  6
Continuous
 62
    30
100
AcDbLine
 10
-698.431461
 20
12.503397
 30
0.0
 11
-698.431461
 21
17.503397
 31
0.0
  0
POINT
  5
83
330
25B
100
AcDbEntity
  8
DEFPOINTS
  6
Continuous
 62
     7
100
AcDbPoint
 10
-320.000024
 20
242.499136
 30
0.0
  0
POINT
  5
84
330
25B
100
AcDbEntity
  8
DEFPOINTS
  6
Continuous
 62
     7
100
AcDbPoint
 10
-353.000024
 20
7.503397
 30
0.0
  0
POINT
  5
85
330
25B
100
AcDbEntity
  8
DEFPOINTS
  6
Continuous
 62
     7
100
AcDbPoint
 10
-698.431461
 20
7.503397
 30
0.0
  0
LINE
  5
86
330
25B
100
AcDbEntity
  8
DETAIL
  6
Continuous
 62
     5
100
AcDbLine
 10
320.000024
 20
187.433454
 30
0.0
 11
320.000024
 21
252.5
 31
0.0
  0
LINE
  5
87
330
25B
100
AcDbEntity
  8
DETAIL
  6
Continuous
 62
     5
100
AcDbLine
 10
-320.000024
 20
187.433454
 30
0.0
 11
-320.000024
 21
252.5
 31
0.0
  0
LINE
  5
88
330
25B
100
AcDbEntity
  8
DETAIL
  6
Continuous
 62
     5
100
AcDbLine
 10
311.0
 20
235.5
 30
0.0
 11
311.0
 21
-220.0
 31
0.0
  0
LINE
  5
89
330
25B
100
AcDbEntity
  8
DETAIL
  6
Continuous
 62
     5
100
AcDbLine
 10
-311.0
 20
235.5
 30
0.0
 11
-311.0
 21
-220.0
 31
0.0
  0
LINE
  5
8A
330
25B
100
AcDbEntity
  8
SIZE
  6
Continuous
 62
    30
100
AcDbLine
 10
-340.000024
 20
242.5
 30
0.0
 11
-895.565266
 21
242.5
 31
0.0
  0
LINE
  5
8B
330
25B
100
AcDbEntity
  8
SIZE
  6
Continuous
 62
    30
100
AcDbLine
 10
-357.0
 20
157.5
 30
0.0
 11
-895.565266
 21
157.5
 31
0.0
  0
LINE
  5
8C
330
25B
100
AcDbEntity
  8
SIZE
  6
Continuous
 62
    30
100
AcDbLine
 10
-865.5652660000001
 20
232.5
 30
0.0
 11
-865.5652660000001
 21
167.5
 31
0.0
  0
LINE
  5
8D
330
25B
100
AcDbEntity
  8
SIZE
  6
Continuous
 62
    30
100
AcDbLine
 10
-865.5652660000001
 20
393.070547
 30
0.0
 11
-865.5652660000001
 21
242.5
 31
0.0
  0
TEXT
  5
8E
330
25B
100
AcDbEntity
  8
SIZE
  6
Continuous
 62
    30
100
AcDbText
 10
-885.565266
 20
279.8134045714285
 30
0.0
 40
64.0
  1
85
 50
90.0
 41
0.9
 72
     1
 11
-885.565266
 21
326.441976
 31
0.0
100
AcDbText
  0
CIRCLE
  5
8F
330
25B
100
AcDbEntity
  8
SIZE
  6
Continuous
 62
    30
100
AcDbCircle
 10
-865.5652660000001
 20
242.5
 30
0.0
 40
5.0
  0
LINE
  5
90
330
25B
100
AcDbEntity
  8
SIZE
  6
Continuous
 62
    30
100
AcDbLine
 10
-865.5652660000001
 20
237.5
 30
0.0
 11
-865.5652660000001
 21
232.5
 31
0.0
  0
CIRCLE
  5
91
330
25B
100
AcDbEntity
  8
SIZE
  6
Continuous
 62
    30
100
AcDbCircle
 10
-865.5652660000001
 20
157.5
 30
0.0
 40
5.0
  0
LINE
  5
92
330
25B
100
AcDbEntity
  8
SIZE
  6
Continuous
 62
    30
100
AcDbLine
 10
-865.5652660000001
 20
162.5
 30
0.0
 11
-865.5652660000001
 21
167.5
 31
0.0
  0
POINT
  5
93
330
25B
100
AcDbEntity
  8
DEFPOINTS
  6
Continuous
 62
     7
100
AcDbPoint
 10
-320.000024
 20
242.5
 30
0.0
  0
POINT
  5
94
330
25B
100
AcDbEntity
  8
DEFPOINTS
  6
Continuous
 62
     7
100
AcDbPoint
 10
-337.0
 20
157.5
 30
0.0
  0
POINT
  5
95
330
25B
100
AcDbEntity
  8
DEFPOINTS
  6
Continuous
 62
     7
100
AcDbPoint
 10
-865.5652660000001
 20
157.5
 30
0.0
  0
LINE
  5
96
330
25B
100
AcDbEntity
  8
OUTLINE
  6
Continuous
 62
     3
100
AcDbLine
 10
320.000024
 20
187.433454
 30
0.0
 11
320.000024
 21
242.5
 31
0.0
  0
LINE
  5
97
330
25B
100
AcDbEntity
  8
OUTLINE
  6
Continuous
 62
     3
100
AcDbLine
 10
-320.000024
 20
187.933454
 30
0.0
 11
-320.000024
 21
243.0
 31
0.0
  0
LINE
  5
98
330
25B
100
AcDbEntity
  8
NOTE
  6
Continuous
 62
     4
100
AcDbLine
 10
-674.264721
 20
-303.755302
 30
0.0
 11
-353.000024
 21
7.503397
 31
0.0
  0
LINE
  5
99
330
25B
100
AcDbEntity
  8
SIZE
  6
Continuous
 62
    30
100
AcDbLine
 10
-357.0
 20
157.5
 30
0.0
 11
-895.565266
 21
157.5
 31
0.0
  0
LINE
  5
9A
330
25B
100
AcDbEntity
  8
SIZE
  6
Continuous
 62
    30
100
AcDbLine
 10
-357.0
 20
-142.5
 30
0.0
 11
-895.565266
 21
-142.5
 31
0.0
  0
LINE
  5
9B
330
25B
100
AcDbEntity
  8
SIZE
  6
Continuous
 62
    30
100
AcDbLine
 10
-865.5652660000001
 20
147.5
 30
0.0
 11
-865.5652660000001
 21
-132.5
 31
0.0
  0
CIRCLE
  5
9C
330
25B
100
AcDbEntity
  8
SIZE
  6
Continuous
 62
    30
100
AcDbCircle
 10
-865.5652660000001
 20
157.5
 30
0.0
 40
5.0
  0
LINE
  5
9D
330
25B
100
AcDbEntity
  8
SIZE
  6
Continuous
 62
    30
100
AcDbLine
 10
-865.5652660000001
 20
152.5
 30
0.0
 11
-865.5652660000001
 21
147.5
 31
0.0
  0
CIRCLE
  5
9E
330
25B
100
AcDbEntity
  8
SIZE
  6
Continuous
 62
    30
100
AcDbCircle
 10
-865.5652660000001
 20
-142.5
 30
0.0
 40
5.0
  0
LINE
  5
9F
330
25B
100
AcDbEntity
  8
SIZE
  6
Continuous
 62
    30
100
AcDbLine
 10
-865.5652660000001
 20
-137.5
 30
0.0
 11
-865.5652660000001
 21
-132.5
 31
0.0
  0
TEXT
  5
A0
330
25B
100
AcDbEntity
  8
SIZE
  6
Continuous
 62
    30
100
AcDbText
 10
-885.565266
 20
-66.55714285714285
 30
0.0
 40
64.0
  1
300
 50
90.0
 41
0.9
 72
     1
 11
-885.565266
 21
7.5
 31
0.0
100
AcDbText
  0
POINT
  5
A1
330
25B
100
AcDbEntity
  8
DEFPOINTS
  6
Continuous
 62
     7
100
AcDbPoint
 10
-337.0
 20
157.5
 30
0.0
  0
POINT
  5
A2
330
25B
100
AcDbEntity
  8
DEFPOINTS
  6
Continuous
 62
     7
100
AcDbPoint
 10
-337.0
 20
-142.5
 30
0.0
  0
POINT
  5
A3
330
25B
100
AcDbEntity
  8
DEFPOINTS
  6
Continuous
 62
     7
100
AcDbPoint
 10
-865.5652660000001
 20
-142.5
 30
0.0
  0
LINE
  5
A4
330
25B
100
AcDbEntity
  8
NOTE
  6
Continuous
 62
     4
100
AcDbLine
 10
-664.376741
 20
-461.0564799999998
 30
0.0
 11
-337.0
 21
-142.5
 31
0.0
  0
LINE
  5
A5
330
25B
100
AcDbEntity
  8
NOTE
  6
Continuous
 62
     4
100
AcDbLine
 10
-1144.186793
 20
-461.0564799999998
 30
0.0
 11
-664.376741
 21
-461.0564799999998
 31
0.0
  0
TEXT
  5
A6
330
25B
100
AcDbEntity
  8
NOTE
  6
Continuous
 62
     4
100
AcDbText
 10
-1119.865567
 20
-446.7751749999997
 30
0.0
 40
50.0
  1
AH　4-φ12（M10）
 50
0.000003
 41
0.6310000000000002
  7
STANDARD1
100
AcDbText
  0
TEXT
  5
A7
330
25B
100
AcDbEntity
  8
NOTE
  6
Continuous
 62
     4
100
AcDbText
 10
-945.1927969999999
 20
-371.563922
 30
0.0
 40
50.0
  1
【※はプラグ付】
 50
359.999997
 41
0.6310000000000002
  7
STANDARD1
100
AcDbText
  0
TEXT
  5
A8
330
25B
100
AcDbEntity
  8
NOTE
  6
Continuous
 62
     4
100
AcDbText
 10
-877.9091710000001
 20
-292.916006
 30
0.0
 40
50.0
  1
D2　Rc1
 50
0.000003
 41
0.6310000000000002
  7
STANDARD1
100
AcDbText
  0
LINE
  5
A9
330
25B
100
AcDbEntity
  8
NOTE
  6
Continuous
 62
     4
100
AcDbLine
 10
-674.264721
 20
-303.755302
 30
0.0
 11
-957.8589179999999
 21
-304.449272
 31
0.0
  0
TEXT
  5
AA
330
25B
100
AcDbEntity
  8
NOTE
  6
Continuous
 62
     4
100
AcDbText
 10
-937.893226
 20
-295.577455
 30
0.0
 40
50.0
  1
※
 50
0.000003
 41
0.6310000000000002
  7
STANDARD1
100
AcDbText
  0
TEXT
  5
AB
330
25B
100
AcDbEntity
  8
NOTE
  6
Continuous
 62
     4
100
AcDbText
 10
158.810479
 20
-1109.919378
 30
0.0
 40
50.0
  1
サービススペース
 50
0.000003
 41
0.6310000000000002
  7
STANDARD1
100
AcDbText
  0
LINE
  5
AC
330
25B
100
AcDbEntity
  8
NOTE
  6
Continuous
 62
     4
100
AcDbLine
 10
332.796027
 20
7.5
 30
0.0
 11
345.619362
 21
-18.022123
 31
0.0
  0
LINE
  5
AD
330
25B
100
AcDbEntity
  8
NOTE
  6
Continuous
 62
     4
100
AcDbLine
 10
484.5850759999998
 20
-688.7932099999998
 30
0.0
 11
332.796027
 21
7.5
 31
0.0
  0
LINE
  5
AE
330
25B
100
AcDbEntity
  8
NOTE
  6
Continuous
 62
     4
100
AcDbLine
 10
352.623165
 20
7.5
 30
0.0
 11
312.968888
 21
7.5
 31
0.0
  0
LINE
  5
AF
330
25B
100
AcDbEntity
  8
SIZE
  6
Continuous
 62
    30
100
AcDbLine
 10
-337.0
 20
-162.5
 30
0.0
 11
-337.0
 21
-452.478399
 31
0.0
  0
LINE
  5
B0
330
25B
100
AcDbEntity
  8
SIZE
  6
Continuous
 62
    30
100
AcDbLine
 10
337.0
 20
-162.5
 30
0.0
 11
337.0
 21
-452.478399
 31
0.0
  0
LINE
  5
B1
330
25B
100
AcDbEntity
  8
SIZE
  6
Continuous
 62
    30
100
AcDbLine
 10
-327.0
 20
-422.478399
 30
0.0
 11
327.0
 21
-422.478399
 31
0.0
  0
CIRCLE
  5
B2
330
25B
100
AcDbEntity
  8
SIZE
  6
Continuous
 62
    30
100
AcDbCircle
 10
-337.0
 20
-422.478399
 30
0.0
 40
5.0
  0
LINE
  5
B3
330
25B
100
AcDbEntity
  8
SIZE
  6
Continuous
 62
    30
100
AcDbLine
 10
-332.0
 20
-422.478399
 30
0.0
 11
-327.0
 21
-422.478399
 31
0.0
  0
CIRCLE
  5
B4
330
25B
100
AcDbEntity
  8
SIZE
  6
Continuous
 62
    30
100
AcDbCircle
 10
337.0
 20
-422.478399
 30
0.0
 40
5.0
  0
LINE
  5
B5
330
25B
100
AcDbEntity
  8
SIZE
  6
Continuous
 62
    30
100
AcDbLine
 10
332.0
 20
-422.478399
 30
0.0
 11
327.0
 21
-422.478399
 31
0.0
  0
TEXT
  5
B6
330
25B
100
AcDbEntity
  8
SIZE
  6
Continuous
 62
    30
100
AcDbText
 10
-75.42857142857141
 20
-402.478399
 30
0.0
 40
64.0
  1
674
 41
0.9
 72
     1
 11
0.0
 21
-402.478399
 31
0.0
100
AcDbText
  0
POINT
  5
B7
330
25B
100
AcDbEntity
  8
DEFPOINTS
  6
Continuous
 62
     7
100
AcDbPoint
 10
-337.0
 20
-142.5
 30
0.0
  0
POINT
  5
B8
330
25B
100
AcDbEntity
  8
DEFPOINTS
  6
Continuous
 62
     7
100
AcDbPoint
 10
337.0
 20
-142.5
 30
0.0
  0
POINT
  5
B9
330
25B
100
AcDbEntity
  8
DEFPOINTS
  6
Continuous
 62
     7
100
AcDbPoint
 10
337.0
 20
-422.478399
 30
0.0
  0
LINE
  5
BA
330
25B
100
AcDbEntity
  8
SIZE
  6
Continuous
 62
    30
100
AcDbLine
 10
-351.0
 20
-192.28666
 30
0.0
 11
-351.0
 21
-627.305009
 31
0.0
  0
LINE
  5
BB
330
25B
100
AcDbEntity
  8
SIZE
  6
Continuous
 62
    30
100
AcDbLine
 10
351.0
 20
-192.28666
 30
0.0
 11
351.0
 21
-627.305009
 31
0.0
  0
LINE
  5
BC
330
25B
100
AcDbEntity
  8
SIZE
  6
Continuous
 62
    30
100
AcDbLine
 10
-341.0
 20
-597.305009
 30
0.0
 11
341.0
 21
-597.305009
 31
0.0
  0
CIRCLE
  5
BD
330
25B
100
AcDbEntity
  8
SIZE
  6
Continuous
 62
    30
100
AcDbCircle
 10
-351.0
 20
-597.305009
 30
0.0
 40
5.0
  0
LINE
  5
BE
330
25B
100
AcDbEntity
  8
SIZE
  6
Continuous
 62
    30
100
AcDbLine
 10
-346.0
 20
-597.305009
 30
0.0
 11
-341.0
 21
-597.305009
 31
0.0
  0
CIRCLE
  5
BF
330
25B
100
AcDbEntity
  8
SIZE
  6
Continuous
 62
    30
100
AcDbCircle
 10
351.0
 20
-597.305009
 30
0.0
 40
5.0
  0
LINE
  5
C0
330
25B
100
AcDbEntity
  8
SIZE
  6
Continuous
 62
    30
100
AcDbLine
 10
346.0
 20
-597.305009
 30
0.0
 11
341.0
 21
-597.305009
 31
0.0
  0
TEXT
  5
C1
330
25B
100
AcDbEntity
  8
SIZE
  6
Continuous
 62
    30
100
AcDbText
 10
-74.05714285714285
 20
-577.305009
 30
0.0
 40
64.0
  1
702
 41
0.9
 72
     1
 11
0.0
 21
-577.305009
 31
0.0
100
AcDbText
  0
POINT
  5
C2
330
25B
100
AcDbEntity
  8
DEFPOINTS
  6
Continuous
 62
     7
100
AcDbPoint
 10
-351.0
 20
-172.28666
 30
0.0
  0
POINT
  5
C3
330
25B
100
AcDbEntity
  8
DEFPOINTS
  6
Continuous
 62
     7
100
AcDbPoint
 10
351.0
 20
-172.28666
 30
0.0
  0
POINT
  5
C4
330
25B
100
AcDbEntity
  8
DEFPOINTS
  6
Continuous
 62
     7
100
AcDbPoint
 10
351.0
 20
-597.305009
 30
0.0
  0
CIRCLE
  5
C5
330
25B
100
AcDbEntity
  8
FIX
  6
Continuous
 62
    11
100
AcDbCircle
 10
337.0
 20
-142.5
 30
0.0
 40
9.858928999999999
  0
CIRCLE
  5
C6
330
25B
100
AcDbEntity
  8
FIX
  6
Continuous
 62
    11
100
AcDbCircle
 10
337.0
 20
157.5
 30
0.0
 40
9.858928999999999
  0
LINE
  5
C7
330
25B
100
AcDbEntity
  8
NOTE
  6
Continuous
 62
     4
100
AcDbLine
 10
350.138752
 20
157.5
 30
0.0
 11
323.861248
 21
157.5
 31
0.0
  0
LINE
  5
C8
330
25B
100
AcDbEntity
  8
DETAIL
  6
Continuous
 62
     5
100
AcDbLine
 10
311.0
 20
187.433454
 30
0.0
 11
351.0
 21
187.433454
 31
0.0
  0
LINE
  5
C9
330
25B
100
AcDbEntity
  8
DETAIL
  6
Continuous
 62
     5
100
AcDbLine
 10
311.0
 20
127.452193
 30
0.0
 11
351.0
 21
127.452193
 31
0.0
  0
CIRCLE
  5
CA
330
25B
100
AcDbEntity
  8
DETAIL
  6
Continuous
 62
     5
100
AcDbCircle
 10
337.0
 20
157.5
 30
0.0
 40
5.998126
  0
LINE
  5
CB
330
25B
100
AcDbEntity
  8
OUTLINE
  6
Continuous
 62
     3
100
AcDbLine
 10
320.000024
 20
187.433454
 30
0.0
 11
351.0
 21
187.433454
 31
0.0
  0
LINE
  5
CC
330
25B
100
AcDbEntity
  8
OUTLINE
  6
Continuous
 62
     3
100
AcDbLine
 10
320.000024
 20
127.452193
 30
0.0
 11
351.0
 21
127.452193
 31
0.0
  0
LINE
  5
CD
330
25B
100
AcDbEntity
  8
NOTE
  6
Continuous
 62
     4
100
AcDbLine
 10
350.138752
 20
-142.5
 30
0.0
 11
323.861248
 21
-142.5
 31
0.0
  0
CIRCLE
  5
CE
330
25B
100
AcDbEntity
  8
DETAIL
  6
Continuous
 62
     5
100
AcDbCircle
 10
337.0
 20
-142.5
 30
0.0
 40
5.998126
  0
LINE
  5
CF
330
25B
100
AcDbEntity
  8
DETAIL
  6
Continuous
 62
     5
100
AcDbLine
 10
311.0
 20
-112.3054
 30
0.0
 11
351.0
 21
-112.3054
 31
0.0
  0
LINE
  5
D0
330
25B
100
AcDbEntity
  8
DETAIL
  6
Continuous
 62
     5
100
AcDbLine
 10
311.0
 20
-172.28666
 30
0.0
 11
351.0
 21
-172.28666
 31
0.0
  0
LINE
  5
D1
330
25B
100
AcDbEntity
  8
OUTLINE
  6
Continuous
 62
     3
100
AcDbLine
 10
320.000024
 20
-112.3054
 30
0.0
 11
351.0
 21
-112.3054
 31
0.0
  0
LINE
  5
D2
330
25B
100
AcDbEntity
  8
OUTLINE
  6
Continuous
 62
     3
100
AcDbLine
 10
320.000024
 20
-172.28666
 30
0.0
 11
351.0
 21
-172.28666
 31
0.0
  0
LINE
  5
D3
330
25B
100
AcDbEntity
  8
DETAIL
  6
Continuous
 62
     5
100
AcDbLine
 10
-311.0
 20
-220.0
 30
0.0
 11
311.0
 21
-220.0
 31
0.0
  0
LINE
  5
D4
330
25B
100
AcDbEntity
  8
DETAIL
  6
Continuous
 62
     5
100
AcDbLine
 10
280.012517
 20
-242.5
 30
0.0
 11
-279.81258
 21
-242.5
 31
0.0
  0
LINE
  5
D5
330
25B
100
AcDbEntity
  8
OUTLINE
  6
Continuous
 62
     3
100
AcDbLine
 10
280.012517
 20
-242.5
 30
0.0
 11
-279.81258
 21
-242.5
 31
0.0
  0
LINE
  5
D6
330
25B
100
AcDbEntity
  8
DETAIL
  6
Continuous
 62
     5
100
AcDbLine
 10
-320.000024
 20
-112.3054
 30
0.0
 11
-320.000024
 21
127.452193
 31
0.0
  0
LINE
  5
D7
330
25B
100
AcDbEntity
  8
OUTLINE
  6
Continuous
 62
     3
100
AcDbLine
 10
-320.000024
 20
-172.28666
 30
0.0
 11
-320.000024
 21
0.0
 31
0.0
  0
CIRCLE
  5
D8
330
25B
100
AcDbEntity
  8
FIX
  6
Continuous
 62
    11
100
AcDbCircle
 10
-337.0
 20
-142.5
 30
0.0
 40
9.858928999999999
  0
LINE
  5
D9
330
25B
100
AcDbEntity
  8
NOTE
  6
Continuous
 62
     4
100
AcDbLine
 10
-323.861248
 20
-142.5
 30
0.0
 11
-350.138752
 21
-142.5
 31
0.0
  0
LINE
  5
DA
330
25B
100
AcDbEntity
  8
NOTE
  6
Continuous
 62
     4
100
AcDbLine
 10
-337.0
 20
-142.5
 30
0.0
 11
-362.036001
 21
-156.248285
 31
0.0
  0
LINE
  5
DB
330
25B
100
AcDbEntity
  8
NOTE
  6
Continuous
 62
     4
100
AcDbLine
 10
-337.0
 20
-142.5
 30
0.0
 11
-351.80767
 21
-166.924365
 31
0.0
  0
CIRCLE
  5
DC
330
25B
100
AcDbEntity
  8
DETAIL
  6
Continuous
 62
     5
100
AcDbCircle
 10
-337.0
 20
-142.5
 30
0.0
 40
5.998126
  0
LINE
  5
DD
330
25B
100
AcDbEntity
  8
DETAIL
  6
Continuous
 62
     5
100
AcDbLine
 10
-311.0
 20
-112.3054
 30
0.0
 11
-351.0
 21
-112.3054
 31
0.0
  0
LINE
  5
DE
330
25B
100
AcDbEntity
  8
DETAIL
  6
Continuous
 62
     5
100
AcDbLine
 10
-311.0
 20
-172.28666
 30
0.0
 11
-351.0
 21
-172.28666
 31
0.0
  0
LINE
  5
DF
330
25B
100
AcDbEntity
  8
OUTLINE
  6
Continuous
 62
     3
100
AcDbLine
 10
-320.000024
 20
-112.3054
 30
0.0
 11
-351.0
 21
-112.3054
 31
0.0
  0
LINE
  5
E0
330
25B
100
AcDbEntity
  8
OUTLINE
  6
Continuous
 62
     3
100
AcDbLine
 10
-320.000024
 20
-172.28666
 30
0.0
 11
-351.0
 21
-172.28666
 31
0.0
  0
LINE
  5
E1
330
25B
100
AcDbEntity
  8
DETAIL
  6
Continuous
 62
     5
100
AcDbLine
 10
-351.0
 20
-172.28666
 30
0.0
 11
-351.0
 21
-112.3054
 31
0.0
  0
LINE
  5
E2
330
25B
100
AcDbEntity
  8
OUTLINE
  6
Continuous
 62
     3
100
AcDbLine
 10
-351.0
 20
-172.28666
 30
0.0
 11
-351.0
 21
-112.3054
 31
0.0
  0
ARC
  5
E3
330
25B
100
AcDbEntity
  8
DETAIL
  6
Continuous
 62
     5
100
AcDbCircle
 10
-278.5341
 20
-201.052642
 30
0.0
 40
41.467071
100
AcDbArc
 50
180.426088
 51
268.233222
  0
ARC
  5
E4
330
25B
100
AcDbEntity
  8
OUTLINE
  6
Continuous
 62
     3
100
AcDbCircle
 10
-278.5341
 20
-201.052642
 30
0.0
 40
41.467071
100
AcDbArc
 50
180.426088
 51
268.233222
  0
LINE
  5
E5
330
25B
100
AcDbEntity
  8
NOTE
  6
Continuous
 62
     4
100
AcDbLine
 10
-337.0
 20
-129.361248
 30
0.0
 11
-337.0
 21
-155.638752
 31
0.0
  0
LINE
  5
E6
330
25B
100
AcDbEntity
  8
OUTLINE
  6
Continuous
 62
     3
100
AcDbLine
 10
-320.000024
 20
-201.361015
 30
0.0
 11
-320.000024
 21
-171.78666
 31
0.0
  0
LINE
  5
E7
330
25B
100
AcDbEntity
  8
DETAIL
  6
Continuous
 62
     5
100
AcDbLine
 10
-320.000024
 20
-201.361015
 30
0.0
 11
-320.000024
 21
-172.28666
 31
0.0
  0
CIRCLE
  5
E8
330
25B
100
AcDbEntity
  8
FIX
  6
Continuous
 62
    11
100
AcDbCircle
 10
-337.0
 20
157.5
 30
0.0
 40
9.858928999999999
  0
LINE
  5
E9
330
25B
100
AcDbEntity
  8
NOTE
  6
Continuous
 62
     4
100
AcDbLine
 10
-326.865332
 20
7.503397
 30
0.0
 11
-379.134716
 21
7.503397
 31
0.0
  0
LINE
  5
EA
330
25B
100
AcDbEntity
  8
NOTE
  6
Continuous
 62
     4
100
AcDbLine
 10
-323.861248
 20
157.5
 30
0.0
 11
-350.138752
 21
157.5
 31
0.0
  0
CIRCLE
  5
EB
330
25B
100
AcDbEntity
  8
DETAIL
  6
Continuous
 62
     5
100
AcDbCircle
 10
-337.0
 20
157.5
 30
0.0
 40
5.998126
  0
LINE
  5
EC
330
25B
100
AcDbEntity
  8
DETAIL
  6
Continuous
 62
     5
100
AcDbLine
 10
-311.0
 20
127.452193
 30
0.0
 11
-351.0
 21
127.452193
 31
0.0
  0
LINE
  5
ED
330
25B
100
AcDbEntity
  8
DETAIL
  6
Continuous
 62
     5
100
AcDbLine
 10
-311.0
 20
187.433454
 30
0.0
 11
-351.0
 21
187.433454
 31
0.0
  0
LINE
  5
EE
330
25B
100
AcDbEntity
  8
OUTLINE
  6
Continuous
 62
     3
100
AcDbLine
 10
-320.000024
 20
127.452193
 30
0.0
 11
-351.0
 21
127.452193
 31
0.0
  0
LINE
  5
EF
330
25B
100
AcDbEntity
  8
OUTLINE
  6
Continuous
 62
     3
100
AcDbLine
 10
-320.000024
 20
187.433454
 30
0.0
 11
-351.0
 21
187.433454
 31
0.0
  0
LINE
  5
F0
330
25B
100
AcDbEntity
  8
DETAIL
  6
Continuous
 62
     5
100
AcDbLine
 10
-320.000024
 20
-11.490669
 30
0.0
 11
-353.000024
 21
-11.490669
 31
0.0
  0
LINE
  5
F1
330
25B
100
AcDbEntity
  8
DETAIL
  6
Continuous
 62
     5
100
AcDbLine
 10
-320.000024
 20
26.497462
 30
0.0
 11
-353.000024
 21
26.497462
 31
0.0
  0
LINE
  5
F2
330
25B
100
AcDbEntity
  8
NOTE
  6
Continuous
 62
     4
100
AcDbLine
 10
-353.000024
 20
7.503397
 30
0.0
 11
-378.073393
 21
-6.176622
 31
0.0
  0
LINE
  5
F3
330
25B
100
AcDbEntity
  8
NOTE
  6
Continuous
 62
     4
100
AcDbLine
 10
-353.000024
 20
7.503397
 30
0.0
 11
-367.874189
 21
-16.880531
 31
0.0
  0
LINE
  5
F4
330
25B
100
AcDbEntity
  8
NOTE
  6
Continuous
 62
     4
100
AcDbLine
 10
-353.000024
 20
33.638089
 30
0.0
 11
-353.000024
 21
-18.631295
 31
0.0
  0
LINE
  5
F5
330
25B
100
AcDbEntity
  8
DETAIL
  6
Continuous
 62
     5
100
AcDbLine
 10
-353.000024
 20
26.497462
 30
0.0
 11
-353.000024
 21
-11.490669
 31
0.0
  0
LINE
  5
F6
330
25B
100
AcDbEntity
  8
DETAIL
  6
Continuous
 62
     5
100
AcDbLine
 10
-351.0
 20
187.433454
 30
0.0
 11
-351.0
 21
127.452193
 31
0.0
  0
LINE
  5
F7
330
25B
100
AcDbEntity
  8
OUTLINE
  6
Continuous
 62
     3
100
AcDbLine
 10
-351.0
 20
187.433454
 30
0.0
 11
-351.0
 21
127.452193
 31
0.0
  0
LINE
  5
F8
330
25B
100
AcDbEntity
  8
OUTLINE
  6
Continuous
 62
     3
100
AcDbLine
 10
-320.000024
 20
187.433454
 30
0.0
 11
-320.000024
 21
-0.5
 31
0.0
  0
LINE
  5
F9
330
25B
100
AcDbEntity
  8
OUTLINE
  6
Continuous
 62
     3
100
AcDbLine
 10
-320.000024
 20
-0.5
 30
0.0
 11
-320.000024
 21
127.452193
 31
0.0
  0
LINE
  5
FA
330
25B
100
AcDbEntity
  8
NOTE
  6
Continuous
 62
     4
100
AcDbLine
 10
-337.0
 20
170.638752
 30
0.0
 11
-337.0
 21
144.361248
 31
0.0
  0
LINE
  5
FB
330
25B
100
AcDbEntity
  8
DETAIL
  6
Continuous
 62
     5
100
AcDbLine
 10
320.000024
 20
-112.3054
 30
0.0
 11
320.000024
 21
-1.494065999999999
 31
0.0
  0
ARC
  5
FC
330
25B
100
AcDbEntity
  8
DETAIL
  6
Continuous
 62
     5
100
AcDbCircle
 10
277.977074
 20
-200.517907
 30
0.0
 40
42.031407
100
AcDbArc
 50
272.775733
 51
358.850626
  0
ARC
  5
FD
330
25B
100
AcDbEntity
  8
OUTLINE
  6
Continuous
 62
     3
100
AcDbCircle
 10
277.977074
 20
-200.517907
 30
0.0
 40
42.031407
100
AcDbArc
 50
272.775733
 51
358.850626
  0
LINE
  5
FE
330
25B
100
AcDbEntity
  8
NOTE
  6
Continuous
 62
     4
100
AcDbLine
 10
337.0
 20
-129.361248
 30
0.0
 11
337.0
 21
-155.638752
 31
0.0
  0
LINE
  5
FF
330
25B
100
AcDbEntity
  8
OUTLINE
  6
Continuous
 62
     3
100
AcDbLine
 10
320.000024
 20
-201.361015
 30
0.0
 11
320.000024
 21
-171.78666
 31
0.0
  0
LINE
  5
100
330
25B
100
AcDbEntity
  8
DETAIL
  6
Continuous
 62
     5
100
AcDbLine
 10
320.000024
 20
-201.361015
 30
0.0
 11
320.000024
 21
-172.28666
 31
0.0
  0
LINE
  5
101
330
25B
100
AcDbEntity
  8
DETAIL
  6
Continuous
 62
     5
100
AcDbLine
 10
320.000024
 20
36.494066
 30
0.0
 11
320.000024
 21
127.452193
 31
0.0
  0
LINE
  5
102
330
25B
100
AcDbEntity
  8
OUTLINE
  6
Continuous
 62
     3
100
AcDbLine
 10
320.000024
 20
187.433454
 30
0.0
 11
320.000024
 21
-172.28666
 31
0.0
  0
LINE
  5
103
330
25B
100
AcDbEntity
  8
NOTE
  6
Continuous
 62
     4
100
AcDbLine
 10
332.796027
 20
7.5
 30
0.0
 11
331.140299
 21
-21.014475
 31
0.0
  0
LINE
  5
104
330
25B
100
AcDbEntity
  8
NOTE
  6
Continuous
 62
     4
100
AcDbLine
 10
332.796027
 20
27.327139
 30
0.0
 11
332.796027
 21
-12.327139
 31
0.0
  0
LINE
  5
105
330
25B
100
AcDbEntity
  8
DETAIL
  6
Continuous
 62
     5
100
AcDbLine
 10
311.0
 20
-11.494066
 30
0.0
 11
332.796027
 21
-11.494066
 31
0.0
  0
LINE
  5
106
330
25B
100
AcDbEntity
  8
DETAIL
  6
Continuous
 62
     5
100
AcDbLine
 10
332.796027
 20
26.494066
 30
0.0
 11
332.796027
 21
-11.494066
 31
0.0
  0
LINE
  5
107
330
25B
100
AcDbEntity
  8
DETAIL
  6
Continuous
 62
     5
100
AcDbLine
 10
311.0
 20
26.494066
 30
0.0
 11
332.796027
 21
26.494066
 31
0.0
  0
LINE
  5
108
330
25B
100
AcDbEntity
  8
NOTE
  6
Continuous
 62
     4
100
AcDbLine
 10
337.0
 20
170.638752
 30
0.0
 11
337.0
 21
144.361248
 31
0.0
  0
LINE
  5
109
330
25B
100
AcDbEntity
  8
OUTLINE
  6
Continuous
 62
     3
100
AcDbLine
 10
320.000024
 20
114.506559
 30
0.0
 11
320.000024
 21
127.452193
 31
0.0
  0
LINE
  5
10A
330
25B
100
AcDbEntity
  8
NOTE
  6
Continuous
 62
     4
100
AcDbLine
 10
484.5850759999998
 20
-688.7932099999998
 30
0.0
 11
745.071232
 21
-688.7932099999998
 31
0.0
  0
TEXT
  5
10B
330
25B
100
AcDbEntity
  8
NOTE
  6
Continuous
 62
     4
100
AcDbText
 10
515.0755209999998
 20
-677.259944
 30
0.0
 40
50.0
  1
D4　Rc1
 50
0.000003
 41
0.6310000000000002
  7
STANDARD1
100
AcDbText
  0
LINE
  5
10C
330
25B
100
AcDbEntity
  8
DETAIL
  6
Continuous
 62
     5
100
AcDbLine
 10
351.0
 20
-172.28666
 30
0.0
 11
351.0
 21
-112.3054
 31
0.0
  0
LINE
  5
10D
330
25B
100
AcDbEntity
  8
OUTLINE
  6
Continuous
 62
     3
100
AcDbLine
 10
351.0
 20
-172.28666
 30
0.0
 11
351.0
 21
-112.3054
 31
0.0
  0
TEXT
  5
10E
330
25B
100
AcDbEntity
  8
NOTE
  6
Continuous
 62
     4
100
AcDbText
 10
482.324453
 20
157.752248
 30
0.0
 40
50.0
  1
サービススペース
 50
0.000003
 41
0.6310000000000002
  7
STANDARD1
100
AcDbText
  0
LINE
  5
10F
330
25B
100
AcDbEntity
  8
DETAIL
  6
Continuous
 62
     5
100
AcDbLine
 10
351.0
 20
187.433454
 30
0.0
 11
351.0
 21
127.452193
 31
0.0
  0
LINE
  5
110
330
25B
100
AcDbEntity
  8
OUTLINE
  6
Continuous
 62
     3
100
AcDbLine
 10
351.0
 20
187.433454
 30
0.0
 11
351.0
 21
127.452193
 31
0.0
  0
LINE
  5
111
330
25B
100
AcDbEntity
  8
OUTLINE
  6
Continuous
 62
     3
100
AcDbLine
 10
320.000024
 20
242.5
 30
0.0
 11
-320.000024
 21
242.5
 31
0.0
  0
TEXT
  5
112
330
25B
100
AcDbEntity
  8
NOTE
  6
Continuous
 62
     4
100
AcDbText
 10
-146.41628
 20
253.0
 30
0.0
 40
50.0
  1
サービススペース
 50
0.000003
 41
0.6310000000000002
  7
STANDARD1
100
AcDbText
  0
LINE
  5
113
330
25B
100
AcDbEntity
  8
DETAIL
  6
Continuous
 62
     5
100
AcDbLine
 10
320.000024
 20
252.5
 30
0.0
 11
-320.000024
 21
252.5
 31
0.0
  0
LINE
  5
114
330
25B
100
AcDbEntity
  8
SIZE
  6
Continuous
 62
    30
100
AcDbLine
 10
-311.0
 20
255.5
 30
0.0
 11
-311.0
 21
709.0025759999998
 31
0.0
  0
LINE
  5
115
330
25B
100
AcDbEntity
  8
SIZE
  6
Continuous
 62
    30
100
AcDbLine
 10
311.0
 20
255.5
 30
0.0
 11
311.0
 21
709.0025759999998
 31
0.0
  0
LINE
  5
116
330
25B
100
AcDbEntity
  8
SIZE
  6
Continuous
 62
    30
100
AcDbLine
 10
-301.0
 20
679.0025759999998
 30
0.0
 11
301.0
 21
679.0025759999998
 31
0.0
  0
CIRCLE
  5
117
330
25B
100
AcDbEntity
  8
SIZE
  6
Continuous
 62
    30
100
AcDbCircle
 10
-311.0
 20
679.0025759999998
 30
0.0
 40
5.0
  0
LINE
  5
118
330
25B
100
AcDbEntity
  8
SIZE
  6
Continuous
 62
    30
100
AcDbLine
 10
-306.0
 20
679.0025759999998
 30
0.0
 11
-301.0
 21
679.0025759999998
 31
0.0
  0
CIRCLE
  5
119
330
25B
100
AcDbEntity
  8
SIZE
  6
Continuous
 62
    30
100
AcDbCircle
 10
311.0
 20
679.0025759999998
 30
0.0
 40
5.0
  0
LINE
  5
11A
330
25B
100
AcDbEntity
  8
SIZE
  6
Continuous
 62
    30
100
AcDbLine
 10
306.0
 20
679.0025759999998
 30
0.0
 11
301.0
 21
679.0025759999998
 31
0.0
  0
TEXT
  5
11B
330
25B
100
AcDbEntity
  8
SIZE
  6
Continuous
 62
    30
100
AcDbText
 10
-74.05714285714283
 20
699.0025759999999
 30
0.0
 40
64.0
  1
622
 41
0.9
 72
     1
 11
0.0
 21
699.0025759999999
 31
0.0
100
AcDbText
  0
POINT
  5
11C
330
25B
100
AcDbEntity
  8
DEFPOINTS
  6
Continuous
 62
     7
100
AcDbPoint
 10
-311.0
 20
235.5
 30
0.0
  0
POINT
  5
11D
330
25B
100
AcDbEntity
  8
DEFPOINTS
  6
Continuous
 62
     7
100
AcDbPoint
 10
311.0
 20
235.5
 30
0.0
  0
POINT
  5
11E
330
25B
100
AcDbEntity
  8
DEFPOINTS
  6
Continuous
 62
     7
100
AcDbPoint
 10
311.0
 20
679.0025759999998
 30
0.0
  0
LINE
  5
11F
330
25B
100
AcDbEntity
  8
DETAIL
  6
Continuous
 62
     5
100
AcDbLine
 10
-311.0
 20
235.5
 30
0.0
 11
311.0
 21
235.5
 31
0.0
  0
LINE
  5
120
330
25B
100
AcDbEntity
  8
DETAIL
  6
Continuous
 62
     5
100
AcDbLine
 10
320.000024
 20
242.5
 30
0.0
 11
-320.000024
 21
242.5
 31
0.0
  0
TEXT
  5
121
330
25B
100
AcDbEntity
  8
SIZE
  6
Continuous
 62
    30
100
AcDbText
 10
1747.896842
 20
274.6473434285714
 30
0.0
 40
64.0
  1
（10）
 50
90.0
 41
0.9
 72
     1
 11
1747.896842
 21
383.538772
 31
0.0
100
AcDbText
  0
LINE
  5
122
330
25B
100
AcDbEntity
  8
SIZE
  6
Continuous
 62
    30
100
AcDbLine
 10
1608.854493
 20
248.0
 30
0.0
 11
1767.896842
 21
299.894911
 31
0.0
  0
LINE
  5
123
330
25B
100
AcDbEntity
  8
SIZE
  6
Continuous
 62
    30
100
AcDbLine
 10
1608.854493
 20
243.0
 30
0.0
 11
1608.854493
 21
253.0
 31
0.0
  0
LINE
  5
124
330
25B
100
AcDbEntity
  8
SIZE
  6
Continuous
 62
    30
100
AcDbLine
 10
1608.854493
 20
243.0
 30
0.0
 11
1608.854493
 21
253.0
 31
0.0
  0
LINE
  5
125
330
25B
100
AcDbEntity
  8
SIZE
  6
Continuous
 62
    30
100
AcDbLine
 10
1608.854493
 20
263.0
 30
0.0
 11
1608.854493
 21
273.0
 31
0.0
  0
LINE
  5
126
330
25B
100
AcDbEntity
  8
SIZE
  6
Continuous
 62
    30
100
AcDbLine
 10
1608.854493
 20
233.0
 30
0.0
 11
1608.854493
 21
223.0
 31
0.0
  0
LINE
  5
127
330
25B
100
AcDbEntity
  8
SIZE
  6
Continuous
 62
    30
100
AcDbLine
 10
1767.896842
 20
299.894911
 30
0.0
 11
1767.896842
 21
485.873387
 31
0.0
  0
LINE
  5
128
330
25B
100
AcDbEntity
  8
SERVICESPACE
  6
DASHDOT
 62
     2
100
AcDbLine
 10
920.00004
 20
-242.5
 30
0.0
 11
-420.0000089999998
 21
-1242.5
 31
0.0
  0
LINE
  5
129
330
25B
100
AcDbEntity
  8
SERVICESPACE
  6
DASHDOT
 62
     2
100
AcDbLine
 10
-420.0000089999998
 20
-242.5
 30
0.0
 11
920.00004
 21
-1242.5
 31
0.0
  0
LINE
  5
12A
330
25B
100
AcDbEntity
  8
SERVICESPACE
  6
DASHDOT
 62
     2
100
AcDbLine
 10
-420.0000089999998
 20
-1242.5
 30
0.0
 11
-420.0000089999998
 21
302.5
 31
0.0
  0
LINE
  5
12B
330
25B
100
AcDbEntity
  8
SERVICESPACE
  6
DASHDOT
 62
     2
100
AcDbLine
 10
920.00004
 20
-1242.5
 30
0.0
 11
920.00004
 21
302.5
 31
0.0
  0
LINE
  5
12C
330
25B
100
AcDbEntity
  8
SERVICESPACE
  6
DASHDOT
 62
     2
100
AcDbLine
 10
919.9500399999999
 20
-1242.5
 30
0.0
 11
-420.050009
 21
-1242.5
 31
0.0
  0
LINE
  5
12D
330
25B
100
AcDbEntity
  8
SERVICESPACE
  6
DASHDOT
 62
     2
100
AcDbLine
 10
-320.000009
 20
252.5
 30
0.0
 11
-420.0000089999998
 21
-242.5
 31
0.0
  0
LINE
  5
12E
330
25B
100
AcDbEntity
  8
SERVICESPACE
  6
DASHDOT
 62
     2
100
AcDbLine
 10
-420.0000089999998
 20
252.5
 30
0.0
 11
-320.000009
 21
-242.5
 31
0.0
  0
LINE
  5
12F
330
25B
100
AcDbEntity
  8
SERVICESPACE
  6
DASHDOT
 62
     2
100
AcDbLine
 10
920.00004
 20
302.5
 30
0.0
 11
-420.0000089999998
 21
252.5
 31
0.0
  0
LINE
  5
130
330
25B
100
AcDbEntity
  8
SERVICESPACE
  6
DASHDOT
 62
     2
100
AcDbLine
 10
-420.0000089999998
 20
302.5
 30
0.0
 11
920.00004
 21
252.5
 31
0.0
  0
LINE
  5
131
330
25B
100
AcDbEntity
  8
SERVICESPACE
  6
DASHDOT
 62
     2
100
AcDbLine
 10
920.00004
 20
-242.5
 30
0.0
 11
-420.0000089999998
 21
-242.5
 31
0.0
  0
LINE
  5
132
330
25B
100
AcDbEntity
  8
SERVICESPACE
  6
DASHDOT
 62
     2
100
AcDbLine
 10
-420.0000089999998
 20
252.5
 30
0.0
 11
920.00004
 21
252.5
 31
0.0
  0
LINE
  5
133
330
25B
100
AcDbEntity
  8
SERVICESPACE
  6
DASHDOT
 62
     2
100
AcDbLine
 10
920.00004
 20
302.5
 30
0.0
 11
-420.0000089999998
 21
302.5
 31
0.0
  0
LINE
  5
134
330
25B
100
AcDbEntity
  8
SERVICESPACE
  6
DASHDOT
 62
     2
100
AcDbLine
 10
320.00004
 20
252.5
 30
0.0
 11
920.00004
 21
-242.5
 31
0.0
  0
LINE
  5
135
330
25B
100
AcDbEntity
  8
SERVICESPACE
  6
DASHDOT
 62
     2
100
AcDbLine
 10
920.00004
 20
252.5
 30
0.0
 11
320.00004
 21
-242.5
 31
0.0
  0
LINE
  5
136
330
25B
100
AcDbEntity
  8
SERVICESPACE
  6
DASHDOT
 62
     2
100
AcDbLine
 10
-320.000009
 20
252.5
 30
0.0
 11
-320.000009
 21
-242.5
 31
0.0
  0
LINE
  5
137
330
25B
100
AcDbEntity
  8
SERVICESPACE
  6
DASHDOT
 62
     2
100
AcDbLine
 10
320.00004
 20
252.5
 30
0.0
 11
320.00004
 21
-242.5
 31
0.0
  0
LINE
  5
138
330
25B
100
AcDbEntity
  8
SIZE
  6
Continuous
 62
    30
100
AcDbLine
 10
-420.0000089999998
 20
322.5
 30
0.0
 11
-420.0000089999998
 21
848.0886739999997
 31
0.0
  0
LINE
  5
139
330
25B
100
AcDbEntity
  8
SIZE
  6
Continuous
 62
    30
100
AcDbLine
 10
-320.000009
 20
262.5
 30
0.0
 11
-320.000009
 21
848.0886739999997
 31
0.0
  0
LINE
  5
13A
330
25B
100
AcDbEntity
  8
SIZE
  6
Continuous
 62
    30
100
AcDbLine
 10
-430.000009
 20
818.088674
 30
0.0
 11
-440.0000089999998
 21
818.088674
 31
0.0
  0
LINE
  5
13B
330
25B
100
AcDbEntity
  8
SIZE
  6
Continuous
 62
    30
100
AcDbLine
 10
-310.000009
 20
818.088674
 30
0.0
 11
-300.000009
 21
818.088674
 31
0.0
  0
LINE
  5
13C
330
25B
100
AcDbEntity
  8
SIZE
  6
Continuous
 62
    30
100
AcDbLine
 10
-420.0000089999998
 20
818.088674
 30
0.0
 11
-320.000009
 21
818.088674
 31
0.0
  0
CIRCLE
  5
13D
330
25B
100
AcDbEntity
  8
SIZE
  6
Continuous
 62
    30
100
AcDbCircle
 10
-420.0000089999998
 20
818.088674
 30
0.0
 40
5.0
  0
LINE
  5
13E
330
25B
100
AcDbEntity
  8
SIZE
  6
Continuous
 62
    30
100
AcDbLine
 10
-425.0000089999998
 20
818.088674
 30
0.0
 11
-430.000009
 21
818.088674
 31
0.0
  0
CIRCLE
  5
13F
330
25B
100
AcDbEntity
  8
SIZE
  6
Continuous
 62
    30
100
AcDbCircle
 10
-320.000009
 20
818.088674
 30
0.0
 40
5.0
  0
LINE
  5
140
330
25B
100
AcDbEntity
  8
SIZE
  6
Continuous
 62
    30
100
AcDbLine
 10
-315.000009
 20
818.088674
 30
0.0
 11
-310.000009
 21
818.088674
 31
0.0
  0
TEXT
  5
141
330
25B
100
AcDbEntity
  8
SIZE
  6
Continuous
 62
    30
100
AcDbText
 10
-438.5714375714285
 20
838.0886739999999
 30
0.0
 40
64.0
  1
100
 41
0.9
 72
     1
 11
-370.000009
 21
838.0886739999999
 31
0.0
100
AcDbText
  0
POINT
  5
142
330
25B
100
AcDbEntity
  8
DEFPOINTS
  6
Continuous
 62
     7
100
AcDbPoint
 10
-420.0000089999998
 20
302.5
 30
0.0
  0
POINT
  5
143
330
25B
100
AcDbEntity
  8
DEFPOINTS
  6
Continuous
 62
     7
100
AcDbPoint
 10
-320.000009
 20
242.5
 30
0.0
  0
POINT
  5
144
330
25B
100
AcDbEntity
  8
DEFPOINTS
  6
Continuous
 62
     7
100
AcDbPoint
 10
-320.000009
 20
818.088674
 30
0.0
  0
LINE
  5
145
330
25B
100
AcDbEntity
  8
SIZE
  6
Continuous
 62
    30
100
AcDbLine
 10
-320.000009
 20
262.5
 30
0.0
 11
-320.000009
 21
848.0886739999997
 31
0.0
  0
LINE
  5
146
330
25B
100
AcDbEntity
  8
SIZE
  6
Continuous
 62
    30
100
AcDbLine
 10
320.000024
 20
272.500013
 30
0.0
 11
320.000024
 21
848.0886739999997
 31
0.0
  0
LINE
  5
147
330
25B
100
AcDbEntity
  8
SIZE
  6
Continuous
 62
    30
100
AcDbLine
 10
-310.000009
 20
818.088674
 30
0.0
 11
310.000024
 21
818.088674
 31
0.0
  0
CIRCLE
  5
148
330
25B
100
AcDbEntity
  8
SIZE
  6
Continuous
 62
    30
100
AcDbCircle
 10
-320.000009
 20
818.088674
 30
0.0
 40
5.0
  0
LINE
  5
149
330
25B
100
AcDbEntity
  8
SIZE
  6
Continuous
 62
    30
100
AcDbLine
 10
-315.000009
 20
818.088674
 30
0.0
 11
-310.000009
 21
818.088674
 31
0.0
  0
CIRCLE
  5
14A
330
25B
100
AcDbEntity
  8
SIZE
  6
Continuous
 62
    30
100
AcDbCircle
 10
320.000024
 20
818.088674
 30
0.0
 40
5.0
  0
LINE
  5
14B
330
25B
100
AcDbEntity
  8
SIZE
  6
Continuous
 62
    30
100
AcDbLine
 10
315.000024
 20
818.088674
 30
0.0
 11
310.000024
 21
818.088674
 31
0.0
  0
TEXT
  5
14C
330
25B
100
AcDbEntity
  8
SIZE
  6
Continuous
 62
    30
100
AcDbText
 10
-74.05713485714286
 20
838.0886739999999
 30
0.0
 40
64.0
  1
640
 41
0.9
 72
     1
 11
0.000008
 21
838.0886739999999
 31
0.0
100
AcDbText
  0
POINT
  5
14D
330
25B
100
AcDbEntity
  8
DEFPOINTS
  6
Continuous
 62
     7
100
AcDbPoint
 10
-320.000009
 20
242.5
 30
0.0
  0
POINT
  5
14E
330
25B
100
AcDbEntity
  8
DEFPOINTS
  6
Continuous
 62
     7
100
AcDbPoint
 10
320.000024
 20
252.500013
 30
0.0
  0
POINT
  5
14F
330
25B
100
AcDbEntity
  8
DEFPOINTS
  6
Continuous
 62
     7
100
AcDbPoint
 10
320.000024
 20
818.088674
 30
0.0
  0
LINE
  5
150
330
25B
100
AcDbEntity
  8
SIZE
  6
Continuous
 62
    30
100
AcDbLine
 10
320.000024
 20
272.500013
 30
0.0
 11
320.000024
 21
848.0886739999997
 31
0.0
  0
LINE
  5
151
330
25B
100
AcDbEntity
  8
SIZE
  6
Continuous
 62
    30
100
AcDbLine
 10
920.00004
 20
322.5
 30
0.0
 11
920.00004
 21
848.0886739999997
 31
0.0
  0
LINE
  5
152
330
25B
100
AcDbEntity
  8
SIZE
  6
Continuous
 62
    30
100
AcDbLine
 10
330.000024
 20
818.088674
 30
0.0
 11
910.00004
 21
818.088674
 31
0.0
  0
CIRCLE
  5
153
330
25B
100
AcDbEntity
  8
SIZE
  6
Continuous
 62
    30
100
AcDbCircle
 10
320.000024
 20
818.088674
 30
0.0
 40
5.0
  0
LINE
  5
154
330
25B
100
AcDbEntity
  8
SIZE
  6
Continuous
 62
    30
100
AcDbLine
 10
325.000024
 20
818.088674
 30
0.0
 11
330.000024
 21
818.088674
 31
0.0
  0
CIRCLE
  5
155
330
25B
100
AcDbEntity
  8
SIZE
  6
Continuous
 62
    30
100
AcDbCircle
 10
920.00004
 20
818.088674
 30
0.0
 40
5.0
  0
LINE
  5
156
330
25B
100
AcDbEntity
  8
SIZE
  6
Continuous
 62
    30
100
AcDbLine
 10
915.0000399999999
 20
818.088674
 30
0.0
 11
910.00004
 21
818.088674
 31
0.0
  0
TEXT
  5
157
330
25B
100
AcDbEntity
  8
SIZE
  6
Continuous
 62
    30
100
AcDbText
 10
545.9428891428571
 20
838.0886739999999
 30
0.0
 40
64.0
  1
600
 41
0.9
 72
     1
 11
620.000032
 21
838.0886739999999
 31
0.0
100
AcDbText
  0
POINT
  5
158
330
25B
100
AcDbEntity
  8
DEFPOINTS
  6
Continuous
 62
     7
100
AcDbPoint
 10
320.000024
 20
252.500013
 30
0.0
  0
POINT
  5
159
330
25B
100
AcDbEntity
  8
DEFPOINTS
  6
Continuous
 62
     7
100
AcDbPoint
 10
920.00004
 20
302.5
 30
0.0
  0
POINT
  5
15A
330
25B
100
AcDbEntity
  8
DEFPOINTS
  6
Continuous
 62
     7
100
AcDbPoint
 10
920.00004
 20
818.088674
 30
0.0
  0
LINE
  5
15B
330
25B
100
AcDbEntity
  8
SIZE
  6
Continuous
 62
    30
100
AcDbLine
 10
-320.000009
 20
272.5
 30
0.0
 11
-320.000009
 21
570.521876
 31
0.0
  0
LINE
  5
15C
330
25B
100
AcDbEntity
  8
SIZE
  6
Continuous
 62
    30
100
AcDbLine
 10
-353.000009
 20
53.69408899999999
 30
0.0
 11
-353.000009
 21
570.521876
 31
0.0
  0
LINE
  5
15D
330
25B
100
AcDbEntity
  8
SIZE
  6
Continuous
 62
    30
100
AcDbLine
 10
-310.000009
 20
540.521876
 30
0.0
 11
-300.000009
 21
540.521876
 31
0.0
  0
LINE
  5
15E
330
25B
100
AcDbEntity
  8
SIZE
  6
Continuous
 62
    30
100
AcDbLine
 10
-363.000009
 20
540.521876
 30
0.0
 11
-622.641749
 21
540.521876
 31
0.0
  0
LINE
  5
15F
330
25B
100
AcDbEntity
  8
SIZE
  6
Continuous
 62
    30
100
AcDbLine
 10
-320.000009
 20
540.521876
 30
0.0
 11
-353.000009
 21
540.521876
 31
0.0
  0
CIRCLE
  5
160
330
25B
100
AcDbEntity
  8
SIZE
  6
Continuous
 62
    30
100
AcDbCircle
 10
-320.000009
 20
540.521876
 30
0.0
 40
5.0
  0
LINE
  5
161
330
25B
100
AcDbEntity
  8
SIZE
  6
Continuous
 62
    30
100
AcDbLine
 10
-315.000009
 20
540.521876
 30
0.0
 11
-310.000009
 21
540.521876
 31
0.0
  0
CIRCLE
  5
162
330
25B
100
AcDbEntity
  8
SIZE
  6
Continuous
 62
    30
100
AcDbCircle
 10
-353.000009
 20
540.521876
 30
0.0
 40
5.0
  0
LINE
  5
163
330
25B
100
AcDbEntity
  8
SIZE
  6
Continuous
 62
    30
100
AcDbLine
 10
-358.000009
 20
540.521876
 30
0.0
 11
-363.000009
 21
540.521876
 31
0.0
  0
TEXT
  5
164
330
25B
100
AcDbEntity
  8
SIZE
  6
Continuous
 62
    30
100
AcDbText
 10
-614.6417498571427
 20
565.283781
 30
0.0
 40
64.0
  1
(33)
 41
0.9
 72
     1
 11
-530.9846069999998
 21
565.283781
 31
0.0
100
AcDbText
  0
POINT
  5
165
330
25B
100
AcDbEntity
  8
DEFPOINTS
  6
Continuous
 62
     7
100
AcDbPoint
 10
-320.000009
 20
252.5
 30
0.0
  0
POINT
  5
166
330
25B
100
AcDbEntity
  8
DEFPOINTS
  6
Continuous
 62
     7
100
AcDbPoint
 10
-353.000009
 20
33.694089
 30
0.0
  0
POINT
  5
167
330
25B
100
AcDbEntity
  8
DEFPOINTS
  6
Continuous
 62
     7
100
AcDbPoint
 10
-353.000009
 20
540.521876
 30
0.0
  0
LINE
  5
168
330
25B
100
AcDbEntity
  8
SIZE
  6
Continuous
 62
    30
100
AcDbLine
 10
372.623165
 20
7.5
 30
0.0
 11
1168.48504
 21
7.5
 31
0.0
  0
LINE
  5
169
330
25B
100
AcDbEntity
  8
SIZE
  6
Continuous
 62
    30
100
AcDbLine
 10
340.00004
 20
242.5
 30
0.0
 11
1168.48504
 21
242.5
 31
0.0
  0
LINE
  5
16A
330
25B
100
AcDbEntity
  8
SIZE
  6
Continuous
 62
    30
100
AcDbLine
 10
1138.48504
 20
17.5
 30
0.0
 11
1138.48504
 21
232.5
 31
0.0
  0
CIRCLE
  5
16B
330
25B
100
AcDbEntity
  8
SIZE
  6
Continuous
 62
    30
100
AcDbCircle
 10
1138.48504
 20
7.5
 30
0.0
 40
5.0
  0
LINE
  5
16C
330
25B
100
AcDbEntity
  8
SIZE
  6
Continuous
 62
    30
100
AcDbLine
 10
1138.48504
 20
12.5
 30
0.0
 11
1138.48504
 21
17.5
 31
0.0
  0
CIRCLE
  5
16D
330
25B
100
AcDbEntity
  8
SIZE
  6
Continuous
 62
    30
100
AcDbCircle
 10
1138.48504
 20
242.5
 30
0.0
 40
5.0
  0
LINE
  5
16E
330
25B
100
AcDbEntity
  8
SIZE
  6
Continuous
 62
    30
100
AcDbLine
 10
1138.48504
 20
237.5
 30
0.0
 11
1138.48504
 21
232.5
 31
0.0
  0
TEXT
  5
16F
330
25B
100
AcDbEntity
  8
SIZE
  6
Continuous
 62
    30
100
AcDbText
 10
1118.48504
 20
50.94285714285715
 30
0.0
 40
64.0
  1
235
 50
90.0
 41
0.9
 72
     1
 11
1118.48504
 21
125.0
 31
0.0
100
AcDbText
  0
POINT
  5
170
330
25B
100
AcDbEntity
  8
DEFPOINTS
  6
Continuous
 62
     7
100
AcDbPoint
 10
352.623165
 20
7.5
 30
0.0
  0
POINT
  5
171
330
25B
100
AcDbEntity
  8
DEFPOINTS
  6
Continuous
 62
     7
100
AcDbPoint
 10
320.00004
 20
242.5
 30
0.0
  0
POINT
  5
172
330
25B
100
AcDbEntity
  8
DEFPOINTS
  6
Continuous
 62
     7
100
AcDbPoint
 10
1138.48504
 20
242.5
 30
0.0
  0
LINE
  5
173
330
25B
100
AcDbEntity
  8
ARRANGE
  6
Continuous
 62
     1
100
AcDbLine
 10
-59.86223999999999
 20
59.86223999999999
 30
0.0
 11
59.86223999999999
 21
-59.86223999999999
 31
0.0
  0
LINE
  5
174
330
25B
100
AcDbEntity
  8
ARRANGE
  6
Continuous
 62
     1
100
AcDbLine
 10
59.86223999999999
 20
59.86223999999999
 30
0.0
 11
-59.86223999999999
 21
-59.86223999999999
 31
0.0
  0
CIRCLE
  5
175
330
25B
100
AcDbEntity
  8
ARRANGE
  6
Continuous
 62
     1
100
AcDbCircle
 10
0.0
 20
0.0
 30
0.0
 40
47.47290699999999
  0
ENDSEC
  0
SECTION
  2
OBJECTS
  0
DICTIONARY
  5
1F3
330
0
100
AcDbDictionary
281
     1
  3
ACAD_COLOR
350
251
  3
ACAD_GROUP
350
1F4
  3
ACAD_LAYOUT
350
250
  3
ACAD_MATERIAL
350
1F7
  3
ACAD_MLEADERSTYLE
350
254
  3
ACAD_MLINESTYLE
350
24D
  3
ACAD_PLOTSETTINGS
350
24F
  3
ACAD_PLOTSTYLENAME
350
1F5
  3
ACAD_SCALELIST
350
221
  3
ACAD_TABLESTYLE
350
252
  3
ACAD_VISUALSTYLE
350
210
  3
ACDB_RECOMPOSE_DATA
350
299
  3
AcDbVariableDictionary
350
290
  3
DWGPROPS
350
2BE
  0
DICTIONARY
  5
27A
330
243
100
AcDbDictionary
280
     1
281
     1
  3
ADSK_XREC_LAYER_RECONCILED
360
27B
  0
DICTIONARY
  5
27C
330
25F
100
AcDbDictionary
280
     1
281
     1
  3
ADSK_XREC_LAYER_RECONCILED
360
27D
  0
DICTIONARY
  5
27E
330
262
100
AcDbDictionary
280
     1
281
     1
  3
ADSK_XREC_LAYER_RECONCILED
360
27F
  0
DICTIONARY
  5
280
330
263
100
AcDbDictionary
280
     1
281
     1
  3
ADSK_XREC_LAYER_RECONCILED
360
281
  0
DICTIONARY
  5
282
330
264
100
AcDbDictionary
280
     1
281
     1
  3
ADSK_XREC_LAYER_RECONCILED
360
283
  0
DICTIONARY
  5
284
330
265
100
AcDbDictionary
280
     1
281
     1
  3
ADSK_XREC_LAYER_RECONCILED
360
285
  0
DICTIONARY
  5
286
330
266
100
AcDbDictionary
280
     1
281
     1
  3
ADSK_XREC_LAYER_RECONCILED
360
287
  0
DICTIONARY
  5
288
330
267
100
AcDbDictionary
280
     1
281
     1
  3
ADSK_XREC_LAYER_RECONCILED
360
289
  0
DICTIONARY
  5
28A
330
268
100
AcDbDictionary
280
     1
281
     1
  3
ADSK_XREC_LAYER_RECONCILED
360
28B
  0
DICTIONARY
  5
28C
330
269
100
AcDbDictionary
280
     1
281
     1
  3
ADSK_XREC_LAYER_RECONCILED
360
28D
  0
DICTIONARY
  5
28E
330
26A
100
AcDbDictionary
280
     1
281
     1
  3
ADSK_XREC_LAYER_RECONCILED
360
28F
  0
DICTIONARY
  5
251
102
{ACAD_REACTORS
330
1F3
102
}
330
1F3
100
AcDbDictionary
281
     1
  0
DICTIONARY
  5
1F4
102
{ACAD_REACTORS
330
1F3
102
}
330
1F3
100
AcDbDictionary
281
     1
  0
DICTIONARY
  5
250
102
{ACAD_REACTORS
330
1F3
102
}
330
1F3
100
AcDbDictionary
281
     1
  3
Layout1
350
25A
  3
Model
350
25E
  0
DICTIONARY
  5
1F7
102
{ACAD_REACTORS
330
1F3
102
}
330
1F3
100
AcDbDictionary
281
     1
  3
ByBlock
350
200
  3
ByLayer
350
1F8
  3
Global
350
208
  0
DICTIONARY
  5
254
102
{ACAD_REACTORS
330
1F3
102
}
330
1F3
100
AcDbDictionary
281
     1
  3
Standard
350
255
  0
DICTIONARY
  5
24D
102
{ACAD_REACTORS
330
1F3
102
}
330
1F3
100
AcDbDictionary
281
     1
  3
Standard
350
24E
  0
DICTIONARY
  5
24F
102
{ACAD_REACTORS
330
1F3
102
}
330
1F3
100
AcDbDictionary
281
     1
  0
ACDBDICTIONARYWDFLT
  5
1F5
102
{ACAD_REACTORS
330
1F3
102
}
330
1F3
100
AcDbDictionary
281
     1
  3
Normal
350
1F6
100
AcDbDictionaryWithDefault
340
1F6
  0
DICTIONARY
  5
221
102
{ACAD_REACTORS
330
1F3
102
}
330
1F3
100
AcDbDictionary
281
     1
  3
A0
350
222
  3
A1
350
223
  3
A2
350
224
  3
A3
350
225
  3
A4
350
226
  3
A5
350
227
  3
A6
350
228
  3
A7
350
229
  3
A8
350
22A
  3
A9
350
22B
  3
B0
350
22C
  3
B1
350
22D
  3
B2
350
22E
  3
B3
350
22F
  3
B4
350
230
  3
B5
350
231
  3
B6
350
232
  3
B7
350
233
  3
B8
350
234
  3
B9
350
235
  3
C0
350
236
  3
C1
350
237
  3
C2
350
238
  3
C3
350
239
  3
C4
350
23A
  3
C5
350
23B
  3
C6
350
23C
  3
C7
350
23D
  3
C8
350
23E
  3
C9
350
23F
  3
D0
350
240
  3
D1
350
241
  3
D2
350
242
  0
DICTIONARY
  5
252
102
{ACAD_REACTORS
330
1F3
102
}
330
1F3
100
AcDbDictionary
281
     1
  3
Standard
350
253
  0
DICTIONARY
  5
210
102
{ACAD_REACTORS
330
1F3
102
}
330
1F3
100
AcDbDictionary
281
     1
  3
2dWireframe
350
216
  3
3D Hidden
350
218
  3
3dWireframe
350
217
  3
Basic
350
215
  3
Brighten
350
21C
  3
ColorChange
350
220
  3
Conceptual
350
219
  3
Dim
350
21B
  3
Facepattern
350
21F
  3
Flat
350
211
  3
FlatWithEdges
350
212
  3
Gouraud
350
213
  3
GouraudWithEdges
350
214
  3
Linepattern
350
21E
  3
Realistic
350
21A
  3
Thicken
350
21D
  0
XRECORD
  5
299
102
{ACAD_REACTORS
330
1F3
102
}
330
1F3
100
AcDbXrecord
280
     1
 90
        1
330
253
  0
DICTIONARY
  5
290
102
{ACAD_REACTORS
330
1F3
102
}
330
1F3
100
AcDbDictionary
281
     1
  3
CANNOSCALE
350
293
  3
CMLEADERSTYLE
350
292
  3
CTABLESTYLE
350
291
  3
DIMASSOC
350
296
  3
INDEXCTL
350
295
  3
SORTENTS
350
294
  0
XRECORD
  5
2BE
102
{ACAD_REACTORS
330
1F3
102
}
330
1F3
100
AcDbXrecord
280
     1
  1
DWGPROPS COOKIE
  2

  3

  4

  6

  7

  8
lijl
  9

300
=
301
=
302
=
303
=
304
=
305
=
306
=
307
=
308
=
309
=
 40
4.231541527777777
 41
2449761.493622998
 42
2457977.583516331
  1

 90
        0
  0
XRECORD
  5
27B
102
{ACAD_REACTORS
330
27A
102
}
330
27A
100
AcDbXrecord
280
     1
290
     1
  0
XRECORD
  5
27D
102
{ACAD_REACTORS
330
27C
102
}
330
27C
100
AcDbXrecord
280
     1
290
     1
  0
XRECORD
  5
27F
102
{ACAD_REACTORS
330
27E
102
}
330
27E
100
AcDbXrecord
280
     1
290
     1
  0
XRECORD
  5
281
102
{ACAD_REACTORS
330
280
102
}
330
280
100
AcDbXrecord
280
     1
290
     1
  0
XRECORD
  5
283
102
{ACAD_REACTORS
330
282
102
}
330
282
100
AcDbXrecord
280
     1
290
     1
  0
XRECORD
  5
285
102
{ACAD_REACTORS
330
284
102
}
330
284
100
AcDbXrecord
280
     1
290
     1
  0
XRECORD
  5
287
102
{ACAD_REACTORS
330
286
102
}
330
286
100
AcDbXrecord
280
     1
290
     1
  0
XRECORD
  5
289
102
{ACAD_REACTORS
330
288
102
}
330
288
100
AcDbXrecord
280
     1
290
     1
  0
XRECORD
  5
28B
102
{ACAD_REACTORS
330
28A
102
}
330
28A
100
AcDbXrecord
280
     1
290
     1
  0
XRECORD
  5
28D
102
{ACAD_REACTORS
330
28C
102
}
330
28C
100
AcDbXrecord
280
     1
290
     1
  0
XRECORD
  5
28F
102
{ACAD_REACTORS
330
28E
102
}
330
28E
100
AcDbXrecord
280
     1
290
     1
  0
LAYOUT
  5
25A
102
{ACAD_XDICTIONARY
360
2C0
102
}
102
{ACAD_REACTORS
330
250
102
}
330
250
100
AcDbPlotSettings
  1

  2
FX DocuWide 2050
  4

  6

 40
0.0
 41
0.0
 42
0.0
 43
0.0
 44
0.0
 45
0.0
 46
0.0
 47
0.0
 48
0.0
 49
0.0
140
0.0
141
0.0
142
1.0
143
1.0
 70
   688
 72
     0
 73
     0
 74
     5
  7

 75
    16
147
1.0
148
0.0
149
0.0
100
AcDbLayout
  1
Layout1
 70
     1
 71
     1
 10
0.0
 20
0.0
 11
12.0
 21
9.0
 12
0.0
 22
0.0
 32
0.0
 14
1.000000000000000E+20
 24
1.000000000000000E+20
 34
1.000000000000000E+20
 15
-1.000000000000000E+20
 25
-1.000000000000000E+20
 35
-1.000000000000000E+20
146
0.0
 13
0.0
 23
0.0
 33
0.0
 16
1.0
 26
0.0
 36
0.0
 17
0.0
 27
1.0
 37
0.0
 76
     0
330
257
  0
LAYOUT
  5
25E
102
{ACAD_XDICTIONARY
360
2C2
102
}
102
{ACAD_REACTORS
330
250
102
}
330
250
100
AcDbPlotSettings
  1

  2
FX DocuWide 2050
  4

  6

 40
0.0
 41
0.0
 42
0.0
 43
0.0
 44
0.0
 45
0.0
 46
0.0
 47
0.0
 48
0.0
 49
0.0
140
0.0
141
0.0
142
1.0
143
1.0
 70
  1712
 72
     0
 73
     0
 74
     0
  7

 75
     0
147
1.0
148
0.0
149
0.0
100
AcDbLayout
  1
Model
 70
     1
 71
     0
 10
0.0
 20
0.0
 11
12.0
 21
9.0
 12
0.0
 22
0.0
 32
0.0
 14
0.0
 24
0.0
 34
0.0
 15
0.0
 25
0.0
 35
0.0
146
0.0
 13
0.0
 23
0.0
 33
0.0
 16
1.0
 26
0.0
 36
0.0
 17
0.0
 27
1.0
 37
0.0
 76
     0
330
25B
331
260
  0
MATERIAL
  5
200
102
{ACAD_XDICTIONARY
360
201
102
}
102
{ACAD_REACTORS
330
1F7
102
}
330
1F7
100
AcDbMaterial
  1
ByBlock
 72
     0
 43
0.0208333333333333
 43
0.0
 43
0.0
 43
0.0
 43
0.0
 43
0.0208333333333333
 43
0.0
 43
0.0
 43
0.0
 43
0.0
 43
1.0
 43
0.0
 43
0.0
 43
0.0
 43
0.0
 43
1.0
 77
     0
 47
0.0208333333333333
 47
0.0
 47
0.0
 47
0.0
 47
0.0
 47
0.0208333333333333
 47
0.0
 47
0.0
 47
0.0
 47
0.0
 47
1.0
 47
0.0
 47
0.0
 47
0.0
 47
0.0
 47
1.0
171
     0
 49
0.0208333333333333
 49
0.0
 49
0.0
 49
0.0
 49
0.0
 49
0.0208333333333333
 49
0.0
 49
0.0
 49
0.0
 49
0.0
 49
1.0
 49
0.0
 49
0.0
 49
0.0
 49
0.0
 49
1.0
175
     0
142
0.0208333333333333
142
0.0
142
0.0
142
0.0
142
0.0
142
0.0208333333333333
142
0.0
142
0.0
142
0.0
142
0.0
142
1.0
142
0.0
142
0.0
142
0.0
142
0.0
142
1.0
179
     0
144
0.0208333333333333
144
0.0
144
0.0
144
0.0
144
0.0
144
0.0208333333333333
144
0.0
144
0.0
144
0.0
144
0.0
144
1.0
144
0.0
144
0.0
144
0.0
144
0.0
144
1.0
147
0.0208333333333333
147
0.0
147
0.0
147
0.0
147
0.0
147
0.0208333333333333
147
0.0
147
0.0
147
0.0
147
0.0
147
1.0
147
0.0
147
0.0
147
0.0
147
0.0
147
1.0
  0
MATERIAL
  5
1F8
102
{ACAD_XDICTIONARY
360
1F9
102
}
102
{ACAD_REACTORS
330
1F7
102
}
330
1F7
100
AcDbMaterial
  1
ByLayer
 72
     0
 43
0.0208333333333333
 43
0.0
 43
0.0
 43
0.0
 43
0.0
 43
0.0208333333333333
 43
0.0
 43
0.0
 43
0.0
 43
0.0
 43
1.0
 43
0.0
 43
0.0
 43
0.0
 43
0.0
 43
1.0
 77
     0
 47
0.0208333333333333
 47
0.0
 47
0.0
 47
0.0
 47
0.0
 47
0.0208333333333333
 47
0.0
 47
0.0
 47
0.0
 47
0.0
 47
1.0
 47
0.0
 47
0.0
 47
0.0
 47
0.0
 47
1.0
171
     0
 49
0.0208333333333333
 49
0.0
 49
0.0
 49
0.0
 49
0.0
 49
0.0208333333333333
 49
0.0
 49
0.0
 49
0.0
 49
0.0
 49
1.0
 49
0.0
 49
0.0
 49
0.0
 49
0.0
 49
1.0
175
     0
142
0.0208333333333333
142
0.0
142
0.0
142
0.0
142
0.0
142
0.0208333333333333
142
0.0
142
0.0
142
0.0
142
0.0
142
1.0
142
0.0
142
0.0
142
0.0
142
0.0
142
1.0
179
     0
144
0.0208333333333333
144
0.0
144
0.0
144
0.0
144
0.0
144
0.0208333333333333
144
0.0
144
0.0
144
0.0
144
0.0
144
1.0
144
0.0
144
0.0
144
0.0
144
0.0
144
1.0
147
0.0208333333333333
147
0.0
147
0.0
147
0.0
147
0.0
147
0.0208333333333333
147
0.0
147
0.0
147
0.0
147
0.0
147
1.0
147
0.0
147
0.0
147
0.0
147
0.0
147
1.0
  0
MATERIAL
  5
208
102
{ACAD_XDICTIONARY
360
209
102
}
102
{ACAD_REACTORS
330
1F7
102
}
330
1F7
100
AcDbMaterial
  1
Global
 72
     0
 43
0.0208333333333333
 43
0.0
 43
0.0
 43
0.0
 43
0.0
 43
0.0208333333333333
 43
0.0
 43
0.0
 43
0.0
 43
0.0
 43
1.0
 43
0.0
 43
0.0
 43
0.0
 43
0.0
 43
1.0
 77
     0
 47
0.0208333333333333
 47
0.0
 47
0.0
 47
0.0
 47
0.0
 47
0.0208333333333333
 47
0.0
 47
0.0
 47
0.0
 47
0.0
 47
1.0
 47
0.0
 47
0.0
 47
0.0
 47
0.0
 47
1.0
171
     0
 49
0.0208333333333333
 49
0.0
 49
0.0
 49
0.0
 49
0.0
 49
0.0208333333333333
 49
0.0
 49
0.0
 49
0.0
 49
0.0
 49
1.0
 49
0.0
 49
0.0
 49
0.0
 49
0.0
 49
1.0
175
     0
142
0.0208333333333333
142
0.0
142
0.0
142
0.0
142
0.0
142
0.0208333333333333
142
0.0
142
0.0
142
0.0
142
0.0
142
1.0
142
0.0
142
0.0
142
0.0
142
0.0
142
1.0
179
     0
144
0.0208333333333333
144
0.0
144
0.0
144
0.0
144
0.0
144
0.0208333333333333
144
0.0
144
0.0
144
0.0
144
0.0
144
1.0
144
0.0
144
0.0
144
0.0
144
0.0
144
1.0
147
0.0208333333333333
147
0.0
147
0.0
147
0.0
147
0.0
147
0.0208333333333333
147
0.0
147
0.0
147
0.0
147
0.0
147
1.0
147
0.0
147
0.0
147
0.0
147
0.0
147
1.0
  0
MLEADERSTYLE
  5
255
102
{ACAD_REACTORS
330
254
102
}
330
254
100
AcDbMLeaderStyle
170
     2
171
     1
172
     0
 90
        2
 40
0.0
 41
0.0
173
     1
 91
-1056964608
340
249
 92
       -2
290
     1
 42
0.09
291
     1
 43
0.36
  3
Standard
 44
0.18
300

342
244
174
     1
178
     6
175
     1
176
     0
 93
-1056964608
 45
0.18
292
     0
297
     0
 46
0.18
 94
-1056964608
 47
1.0
 49
1.0
140
1.0
293
     1
141
0.0
294
     1
177
     0
142
1.0
295
     0
296
     0
143
0.125
1001
ACAD_MLEADERVER
1070
     2
  0
MLINESTYLE
  5
24E
102
{ACAD_REACTORS
330
24D
102
}
330
24D
100
AcDbMlineStyle
  2
STANDARD
 70
     0
  3

 62
   256
 51
90.0
 52
90.0
 71
     2
 49
0.5
 62
   256
  6
BYLAYER
 49
-0.5
 62
   256
  6
BYLAYER
  0
ACDBPLACEHOLDER
  5
1F6
102
{ACAD_REACTORS
330
1F5
102
}
330
1F5
  0
SCALE
  5
222
102
{ACAD_REACTORS
330
221
102
}
330
221
100
AcDbScale
 70
     0
300
1:1
140
1.0
141
1.0
290
     1
  0
SCALE
  5
223
102
{ACAD_REACTORS
330
221
102
}
330
221
100
AcDbScale
 70
     0
300
1:2
140
1.0
141
2.0
290
     0
  0
SCALE
  5
224
102
{ACAD_REACTORS
330
221
102
}
330
221
100
AcDbScale
 70
     0
300
1:4
140
1.0
141
4.0
290
     0
  0
SCALE
  5
225
102
{ACAD_REACTORS
330
221
102
}
330
221
100
AcDbScale
 70
     0
300
1:5
140
1.0
141
5.0
290
     0
  0
SCALE
  5
226
102
{ACAD_REACTORS
330
221
102
}
330
221
100
AcDbScale
 70
     0
300
1:8
140
1.0
141
8.0
290
     0
  0
SCALE
  5
227
102
{ACAD_REACTORS
330
221
102
}
330
221
100
AcDbScale
 70
     0
300
1:10
140
1.0
141
10.0
290
     0
  0
SCALE
  5
228
102
{ACAD_REACTORS
330
221
102
}
330
221
100
AcDbScale
 70
     0
300
1:16
140
1.0
141
16.0
290
     0
  0
SCALE
  5
229
102
{ACAD_REACTORS
330
221
102
}
330
221
100
AcDbScale
 70
     0
300
1:20
140
1.0
141
20.0
290
     0
  0
SCALE
  5
22A
102
{ACAD_REACTORS
330
221
102
}
330
221
100
AcDbScale
 70
     0
300
1:30
140
1.0
141
30.0
290
     0
  0
SCALE
  5
22B
102
{ACAD_REACTORS
330
221
102
}
330
221
100
AcDbScale
 70
     0
300
1:40
140
1.0
141
40.0
290
     0
  0
SCALE
  5
22C
102
{ACAD_REACTORS
330
221
102
}
330
221
100
AcDbScale
 70
     0
300
1:50
140
1.0
141
50.0
290
     0
  0
SCALE
  5
22D
102
{ACAD_REACTORS
330
221
102
}
330
221
100
AcDbScale
 70
     0
300
1:100
140
1.0
141
100.0
290
     0
  0
SCALE
  5
22E
102
{ACAD_REACTORS
330
221
102
}
330
221
100
AcDbScale
 70
     0
300
2:1
140
2.0
141
1.0
290
     0
  0
SCALE
  5
22F
102
{ACAD_REACTORS
330
221
102
}
330
221
100
AcDbScale
 70
     0
300
4:1
140
4.0
141
1.0
290
     0
  0
SCALE
  5
230
102
{ACAD_REACTORS
330
221
102
}
330
221
100
AcDbScale
 70
     0
300
8:1
140
8.0
141
1.0
290
     0
  0
SCALE
  5
231
102
{ACAD_REACTORS
330
221
102
}
330
221
100
AcDbScale
 70
     0
300
10:1
140
10.0
141
1.0
290
     0
  0
SCALE
  5
232
102
{ACAD_REACTORS
330
221
102
}
330
221
100
AcDbScale
 70
     0
300
100:1
140
100.0
141
1.0
290
     0
  0
SCALE
  5
233
102
{ACAD_REACTORS
330
221
102
}
330
221
100
AcDbScale
 70
     0
300
1/128" = 1'-0"
140
0.0078125
141
12.0
290
     0
  0
SCALE
  5
234
102
{ACAD_REACTORS
330
221
102
}
330
221
100
AcDbScale
 70
     0
300
1/64" = 1'-0"
140
0.015625
141
12.0
290
     0
  0
SCALE
  5
235
102
{ACAD_REACTORS
330
221
102
}
330
221
100
AcDbScale
 70
     0
300
1/32" = 1'-0"
140
0.03125
141
12.0
290
     0
  0
SCALE
  5
236
102
{ACAD_REACTORS
330
221
102
}
330
221
100
AcDbScale
 70
     0
300
1/16" = 1'-0"
140
0.0625
141
12.0
290
     0
  0
SCALE
  5
237
102
{ACAD_REACTORS
330
221
102
}
330
221
100
AcDbScale
 70
     0
300
3/32" = 1'-0"
140
0.09375
141
12.0
290
     0
  0
SCALE
  5
238
102
{ACAD_REACTORS
330
221
102
}
330
221
100
AcDbScale
 70
     0
300
1/8" = 1'-0"
140
0.125
141
12.0
290
     0
  0
SCALE
  5
239
102
{ACAD_REACTORS
330
221
102
}
330
221
100
AcDbScale
 70
     0
300
3/16" = 1'-0"
140
0.1875
141
12.0
290
     0
  0
SCALE
  5
23A
102
{ACAD_REACTORS
330
221
102
}
330
221
100
AcDbScale
 70
     0
300
1/4" = 1'-0"
140
0.25
141
12.0
290
     0
  0
SCALE
  5
23B
102
{ACAD_REACTORS
330
221
102
}
330
221
100
AcDbScale
 70
     0
300
3/8" = 1'-0"
140
0.375
141
12.0
290
     0
  0
SCALE
  5
23C
102
{ACAD_REACTORS
330
221
102
}
330
221
100
AcDbScale
 70
     0
300
1/2" = 1'-0"
140
0.5
141
12.0
290
     0
  0
SCALE
  5
23D
102
{ACAD_REACTORS
330
221
102
}
330
221
100
AcDbScale
 70
     0
300
3/4" = 1'-0"
140
0.75
141
12.0
290
     0
  0
SCALE
  5
23E
102
{ACAD_REACTORS
330
221
102
}
330
221
100
AcDbScale
 70
     0
300
1" = 1'-0"
140
1.0
141
12.0
290
     0
  0
SCALE
  5
23F
102
{ACAD_REACTORS
330
221
102
}
330
221
100
AcDbScale
 70
     0
300
1-1/2" = 1'-0"
140
1.5
141
12.0
290
     0
  0
SCALE
  5
240
102
{ACAD_REACTORS
330
221
102
}
330
221
100
AcDbScale
 70
     0
300
3" = 1'-0"
140
3.0
141
12.0
290
     0
  0
SCALE
  5
241
102
{ACAD_REACTORS
330
221
102
}
330
221
100
AcDbScale
 70
     0
300
6" = 1'-0"
140
6.0
141
12.0
290
     0
  0
SCALE
  5
242
102
{ACAD_REACTORS
330
221
102
}
330
221
100
AcDbScale
 70
     0
300
1'-0" = 1'-0"
140
12.0
141
12.0
290
     0
  0
TABLESTYLE
  5
253
102
{ACAD_XDICTIONARY
360
297
102
}
102
{ACAD_REACTORS
330
252
102
}
330
252
100
AcDbTableStyle
  3
Standard
 70
     0
 71
     0
 40
0.06
 41
0.06
280
     0
281
     0
  7
STANDARD
140
0.18
170
     2
 62
     0
 63
     7
283
     0
274
    -2
284
     1
 64
     0
275
    -2
285
     1
 65
     0
276
    -2
286
     1
 66
     0
277
    -2
287
     1
 67
     0
278
    -2
288
     1
 68
     0
279
    -2
289
     1
 69
     0
  7
STANDARD
140
0.25
170
     5
 62
     0
 63
     7
283
     0
274
    -2
284
     1
 64
     0
275
    -2
285
     1
 65
     0
276
    -2
286
     1
 66
     0
277
    -2
287
     1
 67
     0
278
    -2
288
     1
 68
     0
279
    -2
289
     1
 69
     0
  7
STANDARD
140
0.18
170
     5
 62
     0
 63
     7
283
     0
274
    -2
284
     1
 64
     0
275
    -2
285
     1
 65
     0
276
    -2
286
     1
 66
     0
277
    -2
287
     1
 67
     0
278
    -2
288
     1
 68
     0
279
    -2
289
     1
 69
     0
  0
VISUALSTYLE
  5
216
102
{ACAD_REACTORS
330
210
102
}
330
210
100
AcDbVisualStyle
  2
2dWireframe
 70
     4
 71
     0
 72
     2
 73
     0
 90
        0
 40
-0.6
 41
-30.0
 62
     5
 63
     7
 74
     1
 91
        4
 64
     7
 65
   257
 75
     1
175
     1
 42
1.0
 92
        0
 66
   257
 43
1.0
 76
     1
 77
     6
 78
     2
 67
     7
 79
     5
170
     0
171
     0
290
     0
174
     0
 93
        1
 44
0.0
173
     0
291
     0
 45
0.0
1001
ACAD
1000
AcDbSavedByObjectVersion
1070
     0
1000
AcDbSavedByObjectVersion
1070
     0
  0
VISUALSTYLE
  5
218
102
{ACAD_REACTORS
330
210
102
}
330
210
100
AcDbVisualStyle
  2
3D Hidden
 70
     6
 71
     1
 72
     2
 73
     2
 90
        0
 40
-0.6
 41
-30.0
 62
     5
 63
     7
 74
     2
 91
        2
 64
     7
 65
   257
 75
     2
175
     1
 42
40.0
 92
        0
 66
   257
 43
1.0
 76
     1
 77
     6
 78
     2
 67
     7
 79
     3
170
     0
171
     0
290
     0
174
     0
 93
        1
 44
0.0
173
     0
291
     0
 45
0.0
1001
ACAD
1000
AcDbSavedByObjectVersion
1070
     0
1000
AcDbSavedByObjectVersion
1070
     0
  0
VISUALSTYLE
  5
217
102
{ACAD_REACTORS
330
210
102
}
330
210
100
AcDbVisualStyle
  2
3dWireframe
 70
     5
 71
     0
 72
     2
 73
     0
 90
        0
 40
-0.6
 41
-30.0
 62
     5
 63
     7
 74
     1
 91
        4
 64
     7
 65
   257
 75
     1
175
     1
 42
1.0
 92
        0
 66
   257
 43
1.0
 76
     1
 77
     6
 78
     2
 67
     7
 79
     5
170
     0
171
     0
290
     0
174
     0
 93
        1
 44
0.0
173
     0
291
     0
 45
0.0
1001
ACAD
1000
AcDbSavedByObjectVersion
1070
     0
1000
AcDbSavedByObjectVersion
1070
     0
  0
VISUALSTYLE
  5
215
102
{ACAD_REACTORS
330
210
102
}
330
210
100
AcDbVisualStyle
  2
Basic
 70
     7
 71
     1
 72
     0
 73
     1
 90
        0
 40
-0.6
 41
-30.0
 62
     5
 63
     7
 74
     0
 91
        4
 64
     7
 65
   257
 75
     1
175
     1
 42
1.0
 92
        8
 66
     7
 43
1.0
 76
     1
 77
     6
 78
     2
 67
     7
 79
     5
170
     0
171
     0
290
     0
174
     0
 93
        1
 44
0.0
173
     0
291
     1
 45
0.0
1001
ACAD
1000
AcDbSavedByObjectVersion
1070
     0
1000
AcDbSavedByObjectVersion
1070
     0
  0
VISUALSTYLE
  5
21C
102
{ACAD_REACTORS
330
210
102
}
330
210
100
AcDbVisualStyle
  2
Brighten
 70
    12
 71
     2
 72
     2
 73
     0
 90
        0
 40
-0.6
 41
-30.0
 62
     5
 63
     7
 74
     1
 91
        4
 64
     7
 65
   257
 75
     1
175
     1
 42
1.0
 92
        8
 66
     7
 43
1.0
 76
     1
 77
     6
 78
     2
 67
     7
 79
     5
170
     0
171
     0
290
     0
174
     0
 93
        1
 44
50.0
173
     0
291
     1
 45
0.0
1001
ACAD
1000
AcDbSavedByObjectVersion
1070
     0
1000
AcDbSavedByObjectVersion
1070
     0
  0
VISUALSTYLE
  5
220
102
{ACAD_REACTORS
330
210
102
}
330
210
100
AcDbVisualStyle
  2
ColorChange
 70
    16
 71
     2
 72
     2
 73
     3
 90
        0
 40
-0.6
 41
-30.0
 62
     5
 63
     8
 74
     1
 91
        4
 64
     7
 65
   257
 75
     1
175
     1
 42
1.0
 92
        8
 66
     8
 43
1.0
 76
     1
 77
     6
 78
     2
 67
     7
 79
     5
170
     0
171
     0
290
     0
174
     0
 93
        1
 44
0.0
173
     0
291
     1
 45
0.0
1001
ACAD
1000
AcDbSavedByObjectVersion
1070
     0
1000
AcDbSavedByObjectVersion
1070
     0
  0
VISUALSTYLE
  5
219
102
{ACAD_REACTORS
330
210
102
}
330
210
100
AcDbVisualStyle
  2
Conceptual
 70
     9
 71
     3
 72
     2
 73
     0
 90
        0
 40
-0.6
 41
-30.0
 62
     5
 63
     7
 74
     2
 91
        2
 64
     7
 65
   257
 75
     1
175
     1
 42
40.0
 92
        8
 66
     7
 43
1.0
 76
     1
 77
     6
 78
     2
 67
     7
 79
     3
170
     0
171
     0
290
     0
174
     0
 93
        1
 44
0.0
173
     0
291
     0
 45
0.0
1001
ACAD
1000
AcDbSavedByObjectVersion
1070
     0
1000
AcDbSavedByObjectVersion
1070
     0
  0
VISUALSTYLE
  5
21B
102
{ACAD_REACTORS
330
210
102
}
330
210
100
AcDbVisualStyle
  2
Dim
 70
    11
 71
     2
 72
     2
 73
     0
 90
        0
 40
-0.6
 41
-30.0
 62
     5
 63
     7
 74
     1
 91
        4
 64
     7
 65
   257
 75
     1
175
     1
 42
1.0
 92
        8
 66
     7
 43
1.0
 76
     1
 77
     6
 78
     2
 67
     7
 79
     5
170
     0
171
     0
290
     0
174
     0
 93
        1
 44
-50.0
173
     0
291
     1
 45
0.0
1001
ACAD
1000
AcDbSavedByObjectVersion
1070
     0
1000
AcDbSavedByObjectVersion
1070
     0
  0
VISUALSTYLE
  5
21F
102
{ACAD_REACTORS
330
210
102
}
330
210
100
AcDbVisualStyle
  2
Facepattern
 70
    15
 71
     2
 72
     2
 73
     0
 90
        0
 40
-0.6
 41
-30.0
 62
     5
 63
     7
 74
     1
 91
        4
 64
     7
 65
   257
 75
     1
175
     1
 42
1.0
 92
        8
 66
     7
 43
1.0
 76
     1
 77
     6
 78
     2
 67
     7
 79
     5
170
     0
171
     0
290
     0
174
     0
 93
        1
 44
0.0
173
     0
291
     1
 45
0.0
1001
ACAD
1000
AcDbSavedByObjectVersion
1070
     0
1000
AcDbSavedByObjectVersion
1070
     0
  0
VISUALSTYLE
  5
211
102
{ACAD_REACTORS
330
210
102
}
330
210
100
AcDbVisualStyle
  2
Flat
 70
     0
 71
     2
 72
     1
 73
     1
 90
        2
 40
-0.6
 41
30.0
 62
     5
 63
     7
 74
     0
 91
        4
 64
     7
 65
   257
 75
     1
175
     1
 42
1.0
 92
        8
 66
     7
 43
1.0
 76
     1
 77
     6
 78
     2
 67
     7
 79
     5
170
     0
171
     0
290
     0
174
     0
 93
       13
 44
0.0
173
     0
291
     1
 45
0.0
1001
ACAD
1000
AcDbSavedByObjectVersion
1070
     0
1000
AcDbSavedByObjectVersion
1070
     0
  0
VISUALSTYLE
  5
212
102
{ACAD_REACTORS
330
210
102
}
330
210
100
AcDbVisualStyle
  2
FlatWithEdges
 70
     1
 71
     2
 72
     1
 73
     1
 90
        2
 40
-0.6
 41
30.0
 62
     5
 63
     7
 74
     1
 91
        4
 64
     7
 65
   257
 75
     1
175
     1
 42
1.0
 92
        0
 66
   257
 43
1.0
 76
     1
 77
     6
 78
     2
 67
     7
 79
     5
170
     0
171
     0
290
     0
174
     0
 93
       13
 44
0.0
173
     0
291
     1
 45
0.0
1001
ACAD
1000
AcDbSavedByObjectVersion
1070
     0
1000
AcDbSavedByObjectVersion
1070
     0
  0
VISUALSTYLE
  5
213
102
{ACAD_REACTORS
330
210
102
}
330
210
100
AcDbVisualStyle
  2
Gouraud
 70
     2
 71
     2
 72
     2
 73
     1
 90
        2
 40
-0.6
 41
30.0
 62
     5
 63
     7
 74
     0
 91
        4
 64
     7
 65
   257
 75
     1
175
     1
 42
1.0
 92
        0
 66
     7
 43
1.0
 76
     1
 77
     6
 78
     2
 67
     7
 79
     5
170
     0
171
     0
290
     0
174
     0
 93
       13
 44
0.0
173
     0
291
     1
 45
0.0
1001
ACAD
1000
AcDbSavedByObjectVersion
1070
     0
1000
AcDbSavedByObjectVersion
1070
     0
  0
VISUALSTYLE
  5
214
102
{ACAD_REACTORS
330
210
102
}
330
210
100
AcDbVisualStyle
  2
GouraudWithEdges
 70
     3
 71
     2
 72
     2
 73
     1
 90
        2
 40
-0.6
 41
30.0
 62
     5
 63
     7
 74
     1
 91
        4
 64
     7
 65
   257
 75
     1
175
     1
 42
1.0
 92
        0
 66
   257
 43
1.0
 76
     1
 77
     6
 78
     2
 67
     7
 79
     5
170
     0
171
     0
290
     0
174
     0
 93
       13
 44
0.0
173
     0
291
     1
 45
0.0
1001
ACAD
1000
AcDbSavedByObjectVersion
1070
     0
1000
AcDbSavedByObjectVersion
1070
     0
  0
VISUALSTYLE
  5
21E
102
{ACAD_REACTORS
330
210
102
}
330
210
100
AcDbVisualStyle
  2
Linepattern
 70
    14
 71
     2
 72
     2
 73
     0
 90
        0
 40
-0.6
 41
-30.0
 62
     5
 63
     7
 74
     1
 91
        4
 64
     7
 65
   257
 75
     7
175
     7
 42
1.0
 92
        8
 66
     7
 43
1.0
 76
     1
 77
     6
 78
     2
 67
     7
 79
     5
170
     0
171
     0
290
     0
174
     0
 93
        1
 44
0.0
173
     0
291
     1
 45
0.0
1001
ACAD
1000
AcDbSavedByObjectVersion
1070
     0
1000
AcDbSavedByObjectVersion
1070
     0
  0
VISUALSTYLE
  5
21A
102
{ACAD_REACTORS
330
210
102
}
330
210
100
AcDbVisualStyle
  2
Realistic
 70
     8
 71
     2
 72
     2
 73
     0
 90
        0
 40
-0.6
 41
-30.0
 62
     5
 63
     7
 74
     1
 91
        0
 64
     7
 65
   257
 75
     1
175
     1
 42
1.0
 92
        8
 66
     8
 43
1.0
 76
     1
 77
     6
 78
     2
 67
     7
 79
     5
170
     0
171
     0
290
     0
174
     0
 93
       13
 44
0.0
173
     0
291
     0
 45
0.0
1001
ACAD
1000
AcDbSavedByObjectVersion
1070
     0
1000
AcDbSavedByObjectVersion
1070
     0
  0
VISUALSTYLE
  5
21D
102
{ACAD_REACTORS
330
210
102
}
330
210
100
AcDbVisualStyle
  2
Thicken
 70
    13
 71
     2
 72
     2
 73
     0
 90
        0
 40
-0.6
 41
-30.0
 62
     5
 63
     7
 74
     1
 91
        4
 64
     7
 65
   257
 75
     1
175
     1
 42
1.0
 92
       12
 66
     7
 43
1.0
 76
     1
 77
     6
 78
     2
 67
     7
 79
     5
170
     0
171
     0
290
     0
174
     0
 93
        1
 44
0.0
173
     0
291
     1
 45
0.0
1001
ACAD
1000
AcDbSavedByObjectVersion
1070
     0
1000
AcDbSavedByObjectVersion
1070
     0
  0
DICTIONARYVAR
  5
293
102
{ACAD_REACTORS
330
290
102
}
330
290
100
DictionaryVariables
280
     0
  1
1:1
  0
DICTIONARYVAR
  5
292
102
{ACAD_REACTORS
330
290
102
}
330
290
100
DictionaryVariables
280
     0
  1
STANDARD
  0
DICTIONARYVAR
  5
291
102
{ACAD_REACTORS
330
290
102
}
330
290
100
DictionaryVariables
280
     0
  1
STANDARD
  0
DICTIONARYVAR
  5
296
102
{ACAD_REACTORS
330
290
102
}
330
290
100
DictionaryVariables
280
     0
  1
1
  0
DICTIONARYVAR
  5
295
102
{ACAD_REACTORS
330
290
102
}
330
290
100
DictionaryVariables
280
     0
  1
0
  0
DICTIONARYVAR
  5
294
102
{ACAD_REACTORS
330
290
102
}
330
290
100
DictionaryVariables
280
     0
  1
127
  0
DICTIONARY
  5
2C0
330
25A
100
AcDbDictionary
280
     1
281
     1
  3
ACAD_XREC_ROUNDTRIP
360
2C1
  0
DICTIONARY
  5
2C2
330
25E
100
AcDbDictionary
280
     1
281
     1
  3
ACAD_XREC_ROUNDTRIP
360
2C3
  0
DICTIONARY
  5
201
330
200
100
AcDbDictionary
280
     1
281
     1
  3
ACAD_XREC_ROUNDTRIP
360
29C
  3
BUMPTILE
360
203
  3
DIFFUSETILE
360
202
  3
OPACITYTILE
360
206
  3
REFLECTIONTILE
360
205
  3
REFRACTIONTILE
360
207
  3
SPECULARTILE
360
204
  0
DICTIONARY
  5
1F9
330
1F8
100
AcDbDictionary
280
     1
281
     1
  3
ACAD_XREC_ROUNDTRIP
360
29B
  3
BUMPTILE
360
1FB
  3
DIFFUSETILE
360
1FA
  3
OPACITYTILE
360
1FE
  3
REFLECTIONTILE
360
1FD
  3
REFRACTIONTILE
360
1FF
  3
SPECULARTILE
360
1FC
  0
DICTIONARY
  5
209
330
208
100
AcDbDictionary
280
     1
281
     1
  3
ACAD_XREC_ROUNDTRIP
360
29D
  3
BUMPTILE
360
20B
  3
DIFFUSETILE
360
20A
  3
OPACITYTILE
360
20E
  3
REFLECTIONTILE
360
20D
  3
REFRACTIONTILE
360
20F
  3
SPECULARTILE
360
20C
  0
DICTIONARY
  5
297
330
253
100
AcDbDictionary
280
     1
281
     1
  3
ACAD_ROUNDTRIP_2008_TABLESTYLE_CELLSTYLEMAP
360
2BD
  3
ACAD_XREC_ROUNDTRIP
360
2BF
  0
XRECORD
  5
2C1
102
{ACAD_REACTORS
330
2C0
102
}
330
2C0
100
AcDbXrecord
280
     1
102
SHADEPLOT
 70
     0
102
SHADEPLOTRESLEVEL
 70
     2
102
SHADEPLOTCUSTOMDPI
 70
   300
  0
XRECORD
  5
2C3
102
{ACAD_REACTORS
330
2C2
102
}
330
2C2
100
AcDbXrecord
280
     1
102
SHADEPLOT
 70
     0
102
SHADEPLOTRESLEVEL
 70
     2
102
SHADEPLOTCUSTOMDPI
 70
   300
  0
XRECORD
  5
29C
102
{ACAD_REACTORS
330
201
102
}
330
201
100
AcDbXrecord
280
     1
102
MATERIAL
148
0.0
149
0.0
149
0.0
 93
        0
 94
      127
282
     0
 72
     0
 77
     0
171
     0
175
     0
179
     0
273
     0
  0
XRECORD
  5
203
102
{ACAD_REACTORS
330
201
102
}
330
201
100
AcDbXrecord
280
     1
270
     1
271
     1
  0
XRECORD
  5
202
102
{ACAD_REACTORS
330
201
102
}
330
201
100
AcDbXrecord
280
     1
270
     1
271
     1
  0
XRECORD
  5
206
102
{ACAD_REACTORS
330
201
102
}
330
201
100
AcDbXrecord
280
     1
270
     1
271
     1
  0
XRECORD
  5
205
102
{ACAD_REACTORS
330
201
102
}
330
201
100
AcDbXrecord
280
     1
270
     1
271
     1
  0
XRECORD
  5
207
102
{ACAD_REACTORS
330
201
102
}
330
201
100
AcDbXrecord
280
     1
270
     1
271
     1
  0
XRECORD
  5
204
102
{ACAD_REACTORS
330
201
102
}
330
201
100
AcDbXrecord
280
     1
270
     1
271
     1
  0
XRECORD
  5
29B
102
{ACAD_REACTORS
330
1F9
102
}
330
1F9
100
AcDbXrecord
280
     1
102
MATERIAL
148
0.0
149
0.0
149
0.0
 93
        0
 94
      127
282
     0
 72
     0
 77
     0
171
     0
175
     0
179
     0
273
     0
  0
XRECORD
  5
1FB
102
{ACAD_REACTORS
330
1F9
102
}
330
1F9
100
AcDbXrecord
280
     1
270
     1
271
     1
  0
XRECORD
  5
1FA
102
{ACAD_REACTORS
330
1F9
102
}
330
1F9
100
AcDbXrecord
280
     1
270
     1
271
     1
  0
XRECORD
  5
1FE
102
{ACAD_REACTORS
330
1F9
102
}
330
1F9
100
AcDbXrecord
280
     1
270
     1
271
     1
  0
XRECORD
  5
1FD
102
{ACAD_REACTORS
330
1F9
102
}
330
1F9
100
AcDbXrecord
280
     1
270
     1
271
     1
  0
XRECORD
  5
1FF
102
{ACAD_REACTORS
330
1F9
102
}
330
1F9
100
AcDbXrecord
280
     1
270
     1
271
     1
  0
XRECORD
  5
1FC
102
{ACAD_REACTORS
330
1F9
102
}
330
1F9
100
AcDbXrecord
280
     1
270
     1
271
     1
  0
XRECORD
  5
29D
102
{ACAD_REACTORS
330
209
102
}
330
209
100
AcDbXrecord
280
     1
102
MATERIAL
148
0.0
149
0.0
149
0.0
 93
        0
 94
      127
282
     0
 72
     0
 77
     0
171
     0
175
     0
179
     0
273
     0
  0
XRECORD
  5
20B
102
{ACAD_REACTORS
330
209
102
}
330
209
100
AcDbXrecord
280
     1
270
     1
271
     1
  0
XRECORD
  5
20A
102
{ACAD_REACTORS
330
209
102
}
330
209
100
AcDbXrecord
280
     1
270
     1
271
     1
  0
XRECORD
  5
20E
102
{ACAD_REACTORS
330
209
102
}
330
209
100
AcDbXrecord
280
     1
270
     1
271
     1
  0
XRECORD
  5
20D
102
{ACAD_REACTORS
330
209
102
}
330
209
100
AcDbXrecord
280
     1
270
     1
271
     1
  0
XRECORD
  5
20F
102
{ACAD_REACTORS
330
209
102
}
330
209
100
AcDbXrecord
280
     1
270
     1
271
     1
  0
XRECORD
  5
20C
102
{ACAD_REACTORS
330
209
102
}
330
209
100
AcDbXrecord
280
     1
270
     1
271
     1
  0
CELLSTYLEMAP
  5
2BD
102
{ACAD_REACTORS
330
297
102
}
330
297
100
AcDbCellStyleMap
 90
        3
300
CELLSTYLE
  1
TABLEFORMAT_BEGIN
 90
        5
170
     1
 91
        0
 92
    32768
 62
   257
 93
        1
300
CONTENTFORMAT
  1
CONTENTFORMAT_BEGIN
 90
        0
 91
        0
 92
      512
 93
        0
300

 40
0.0
140
1.0
 94
        5
 62
     0
340
244
144
0.25
309
CONTENTFORMAT_END
171
     1
301
MARGIN
  1
CELLMARGIN_BEGIN
 40
0.06
 40
0.06
 40
0.06
 40
0.06
 40
0.18
 40
0.18
309
CELLMARGIN_END
 94
        6
 95
        1
302
GRIDFORMAT
  1
GRIDFORMAT_BEGIN
 90
        0
 91
        1
 62
     0
 92
       -2
340
0
 93
        0
 40
0.045
309
GRIDFORMAT_END
 95
        2
302
GRIDFORMAT
  1
GRIDFORMAT_BEGIN
 90
        0
 91
        1
 62
     0
 92
       -2
340
0
 93
        0
 40
0.045
309
GRIDFORMAT_END
 95
        4
302
GRIDFORMAT
  1
GRIDFORMAT_BEGIN
 90
        0
 91
        1
 62
     0
 92
       -2
340
0
 93
        0
 40
0.045
309
GRIDFORMAT_END
 95
        8
302
GRIDFORMAT
  1
GRIDFORMAT_BEGIN
 90
        0
 91
        1
 62
     0
 92
       -2
340
0
 93
        0
 40
0.045
309
GRIDFORMAT_END
 95
       16
302
GRIDFORMAT
  1
GRIDFORMAT_BEGIN
 90
        0
 91
        1
 62
     0
 92
       -2
340
0
 93
        0
 40
0.045
309
GRIDFORMAT_END
 95
       32
302
GRIDFORMAT
  1
GRIDFORMAT_BEGIN
 90
        0
 91
        1
 62
     0
 92
       -2
340
0
 93
        0
 40
0.045
309
GRIDFORMAT_END
309
TABLEFORMAT_END
  1
CELLSTYLE_BEGIN
 90
        1
 91
        1
300
_TITLE
309
CELLSTYLE_END
300
CELLSTYLE
  1
TABLEFORMAT_BEGIN
 90
        5
170
     1
 91
        0
 92
        0
 62
   257
 93
        1
300
CONTENTFORMAT
  1
CONTENTFORMAT_BEGIN
 90
        0
 91
        0
 92
      512
 93
        0
300

 40
0.0
140
1.0
 94
        5
 62
     0
340
244
144
0.18
309
CONTENTFORMAT_END
171
     1
301
MARGIN
  1
CELLMARGIN_BEGIN
 40
0.06
 40
0.06
 40
0.06
 40
0.06
 40
0.18
 40
0.18
309
CELLMARGIN_END
 94
        6
 95
        1
302
GRIDFORMAT
  1
GRIDFORMAT_BEGIN
 90
        0
 91
        1
 62
     0
 92
       -2
340
0
 93
        0
 40
0.045
309
GRIDFORMAT_END
 95
        2
302
GRIDFORMAT
  1
GRIDFORMAT_BEGIN
 90
        0
 91
        1
 62
     0
 92
       -2
340
0
 93
        0
 40
0.045
309
GRIDFORMAT_END
 95
        4
302
GRIDFORMAT
  1
GRIDFORMAT_BEGIN
 90
        0
 91
        1
 62
     0
 92
       -2
340
0
 93
        0
 40
0.045
309
GRIDFORMAT_END
 95
        8
302
GRIDFORMAT
  1
GRIDFORMAT_BEGIN
 90
        0
 91
        1
 62
     0
 92
       -2
340
0
 93
        0
 40
0.045
309
GRIDFORMAT_END
 95
       16
302
GRIDFORMAT
  1
GRIDFORMAT_BEGIN
 90
        0
 91
        1
 62
     0
 92
       -2
340
0
 93
        0
 40
0.045
309
GRIDFORMAT_END
 95
       32
302
GRIDFORMAT
  1
GRIDFORMAT_BEGIN
 90
        0
 91
        1
 62
     0
 92
       -2
340
0
 93
        0
 40
0.045
309
GRIDFORMAT_END
309
TABLEFORMAT_END
  1
CELLSTYLE_BEGIN
 90
        2
 91
        1
300
_HEADER
309
CELLSTYLE_END
300
CELLSTYLE
  1
TABLEFORMAT_BEGIN
 90
        5
170
     1
 91
        0
 92
        0
 62
   257
 93
        1
300
CONTENTFORMAT
  1
CONTENTFORMAT_BEGIN
 90
        0
 91
        0
 92
      512
 93
        0
300

 40
0.0
140
1.0
 94
        2
 62
     0
340
244
144
0.18
309
CONTENTFORMAT_END
171
     1
301
MARGIN
  1
CELLMARGIN_BEGIN
 40
0.06
 40
0.06
 40
0.06
 40
0.06
 40
0.18
 40
0.18
309
CELLMARGIN_END
 94
        6
 95
        1
302
GRIDFORMAT
  1
GRIDFORMAT_BEGIN
 90
        0
 91
        1
 62
     0
 92
       -2
340
0
 93
        0
 40
0.045
309
GRIDFORMAT_END
 95
        2
302
GRIDFORMAT
  1
GRIDFORMAT_BEGIN
 90
        0
 91
        1
 62
     0
 92
       -2
340
0
 93
        0
 40
0.045
309
GRIDFORMAT_END
 95
        4
302
GRIDFORMAT
  1
GRIDFORMAT_BEGIN
 90
        0
 91
        1
 62
     0
 92
       -2
340
0
 93
        0
 40
0.045
309
GRIDFORMAT_END
 95
        8
302
GRIDFORMAT
  1
GRIDFORMAT_BEGIN
 90
        0
 91
        1
 62
     0
 92
       -2
340
0
 93
        0
 40
0.045
309
GRIDFORMAT_END
 95
       16
302
GRIDFORMAT
  1
GRIDFORMAT_BEGIN
 90
        0
 91
        1
 62
     0
 92
       -2
340
0
 93
        0
 40
0.045
309
GRIDFORMAT_END
 95
       32
302
GRIDFORMAT
  1
GRIDFORMAT_BEGIN
 90
        0
 91
        1
 62
     0
 92
       -2
340
0
 93
        0
 40
0.045
309
GRIDFORMAT_END
309
TABLEFORMAT_END
  1
CELLSTYLE_BEGIN
 90
        3
 91
        2
300
_DATA
309
CELLSTYLE_END
  0
XRECORD
  5
2BF
102
{ACAD_REACTORS
330
297
102
}
330
297
100
AcDbXrecord
280
     1
102
ACAD_ROUNDTRIP_PRE2007_TABLESTYLE
 90
      512
 91
        0
  1

 92
      512
 93
        0
  2

 94
      512
 95
        0
  3

  0
ENDSEC
  0
EOF
