  0
SECTION
  2
HEADER
  9
$ACADVER
  1
AC1015
  9
$ACADMAINTVER
 70
    20
  9
$DWGCODEPAGE
  3
ANSI_932
  9
$INSBASE
 10
0.0
 20
0.0
 30
0.0
  9
$EXTMIN
 10
-1752.136208061289
 20
-707.423384414782
 30
-0.0000000000000015
  9
$EXTMAX
 10
1457.336442146141
 20
2611.711134018504
 30
0.0000000000000148
  9
$LIMMIN
 10
-4200.0
 20
-2970.0
  9
$LIMMAX
 10
4200.0
 20
2970.0
  9
$ORTHOMODE
 70
     0
  9
$REGENMODE
 70
     1
  9
$FILLMODE
 70
     1
  9
$QTEXTMODE
 70
     0
  9
$MIRRTEXT
 70
     0
  9
$LTSCALE
 40
20.0
  9
$ATTMODE
 70
     1
  9
$TEXTSIZE
 40
64.0
  9
$TRACEWID
 40
0.05
  9
$TEXTSTYLE
  7
STANDARD
  9
$CLAYER
  8
SIZE
  9
$CELTYPE
  6
CONTINUOUS
  9
$CECOLOR
 62
     7
  9
$CELTSCALE
 40
1.0
  9
$DISPSILH
 70
     0
  9
$DIMSCALE
 40
1.0
  9
$DIMASZ
 40
10.0
  9
$DIMEXO
 40
20.0
  9
$DIMDLI
 40
200.0
  9
$DIMRND
 40
0.0
  9
$DIMDLE
 40
0.0
  9
$DIMEXE
 40
30.0
  9
$DIMTP
 40
0.0
  9
$DIMTM
 40
0.0
  9
$DIMTXT
 40
64.0
  9
$DIMCEN
 40
0.0
  9
$DIMTSZ
 40
0.0
  9
$DIMTOL
 70
     0
  9
$DIMLIM
 70
     0
  9
$DIMTIH
 70
     0
  9
$DIMTOH
 70
     0
  9
$DIMSE1
 70
     0
  9
$DIMSE2
 70
     0
  9
$DIMTAD
 70
     1
  9
$DIMZIN
 70
     8
  9
$DIMBLK
  1
DOTBLANK
  9
$DIMASO
 70
     1
  9
$DIMSHO
 70
     0
  9
$DIMPOST
  1

  9
$DIMAPOST
  1

  9
$DIMALT
 70
     0
  9
$DIMALTD
 70
     2
  9
$DIMALTF
 40
25.4
  9
$DIMLFAC
 40
1.0
  9
$DIMTOFL
 70
     1
  9
$DIMTVP
 40
0.0
  9
$DIMTIX
 70
     1
  9
$DIMSOXD
 70
     0
  9
$DIMSAH
 70
     0
  9
$DIMBLK1
  1

  9
$DIMBLK2
  1

  9
$DIMSTYLE
  2
STANDARD
  9
$DIMCLRD
 70
     0
  9
$DIMCLRE
 70
     0
  9
$DIMCLRT
 70
     0
  9
$DIMTFAC
 40
1.0
  9
$DIMGAP
 40
0.09
  9
$DIMJUST
 70
     0
  9
$DIMSD1
 70
     0
  9
$DIMSD2
 70
     0
  9
$DIMTOLJ
 70
     1
  9
$DIMTZIN
 70
     0
  9
$DIMALTZ
 70
     0
  9
$DIMALTTZ
 70
     0
  9
$DIMUPT
 70
     0
  9
$DIMDEC
 70
     4
  9
$DIMTDEC
 70
     4
  9
$DIMALTU
 70
     2
  9
$DIMALTTD
 70
     2
  9
$DIMTXSTY
  7
STANDARD
  9
$DIMAUNIT
 70
     0
  9
$DIMADEC
 70
     0
  9
$DIMALTRND
 40
0.0
  9
$DIMAZIN
 70
     0
  9
$DIMDSEP
 70
    46
  9
$DIMATFIT
 70
     3
  9
$DIMFRAC
 70
     0
  9
$DIMLDRBLK
  1
DOTBLANK
  9
$DIMLUNIT
 70
     2
  9
$DIMLWD
 70
    -2
  9
$DIMLWE
 70
    -2
  9
$DIMTMOVE
 70
     0
  9
$LUNITS
 70
     2
  9
$LUPREC
 70
     4
  9
$SKETCHINC
 40
0.1
  9
$FILLETRAD
 40
0.0
  9
$AUNITS
 70
     1
  9
$AUPREC
 70
     3
  9
$MENU
  1
ACAD
  9
$ELEVATION
 40
0.0
  9
$PELEVATION
 40
0.0
  9
$THICKNESS
 40
0.0
  9
$LIMCHECK
 70
     0
  9
$CHAMFERA
 40
0.0
  9
$CHAMFERB
 40
0.0
  9
$CHAMFERC
 40
0.0
  9
$CHAMFERD
 40
0.0
  9
$SKPOLY
 70
     0
  9
$TDCREATE
 40
2449761.493622998
  9
$TDUCREATE
 40
2449761.160289664
  9
$TDUPDATE
 40
2457982.456343819
  9
$TDUUPDATE
 40
2457982.123010486
  9
$TDINDWG
 40
4.3337594097
  9
$TDUSRTIMER
 40
4.3337592940
  9
$USRTIMER
 70
     1
  9
$ANGBASE
 50
0.0
  9
$ANGDIR
 70
     0
  9
$PDMODE
 70
    35
  9
$PDSIZE
 40
100.0
  9
$PLINEWID
 40
0.0
  9
$SPLFRAME
 70
     0
  9
$SPLINETYPE
 70
     6
  9
$SPLINESEGS
 70
     8
  9
$HANDSEED
  5
89D
  9
$SURFTAB1
 70
     6
  9
$SURFTAB2
 70
     6
  9
$SURFTYPE
 70
     6
  9
$SURFU
 70
     6
  9
$SURFV
 70
     6
  9
$UCSBASE
  2

  9
$UCSNAME
  2

  9
$UCSORG
 10
0.0
 20
0.0
 30
0.0
  9
$UCSXDIR
 10
1.0
 20
0.0
 30
0.0
  9
$UCSYDIR
 10
0.0
 20
1.0
 30
0.0
  9
$UCSORTHOREF
  2

  9
$UCSORTHOVIEW
 70
     0
  9
$UCSORGTOP
 10
0.0
 20
0.0
 30
0.0
  9
$UCSORGBOTTOM
 10
0.0
 20
0.0
 30
0.0
  9
$UCSORGLEFT
 10
0.0
 20
0.0
 30
0.0
  9
$UCSORGRIGHT
 10
0.0
 20
0.0
 30
0.0
  9
$UCSORGFRONT
 10
0.0
 20
0.0
 30
0.0
  9
$UCSORGBACK
 10
0.0
 20
0.0
 30
0.0
  9
$PUCSBASE
  2

  9
$PUCSNAME
  2

  9
$PUCSORG
 10
0.0
 20
0.0
 30
0.0
  9
$PUCSXDIR
 10
1.0
 20
0.0
 30
0.0
  9
$PUCSYDIR
 10
0.0
 20
1.0
 30
0.0
  9
$PUCSORTHOREF
  2

  9
$PUCSORTHOVIEW
 70
     0
  9
$PUCSORGTOP
 10
0.0
 20
0.0
 30
0.0
  9
$PUCSORGBOTTOM
 10
0.0
 20
0.0
 30
0.0
  9
$PUCSORGLEFT
 10
0.0
 20
0.0
 30
0.0
  9
$PUCSORGRIGHT
 10
0.0
 20
0.0
 30
0.0
  9
$PUCSORGFRONT
 10
0.0
 20
0.0
 30
0.0
  9
$PUCSORGBACK
 10
0.0
 20
0.0
 30
0.0
  9
$USERI1
 70
     0
  9
$USERI2
 70
     0
  9
$USERI3
 70
     0
  9
$USERI4
 70
     0
  9
$USERI5
 70
     0
  9
$USERR1
 40
20.0
  9
$USERR2
 40
0.0
  9
$USERR3
 40
0.0
  9
$USERR4
 40
0.0
  9
$USERR5
 40
0.0
  9
$WORLDVIEW
 70
     1
  9
$SHADEDGE
 70
     3
  9
$SHADEDIF
 70
    70
  9
$TILEMODE
 70
     1
  9
$MAXACTVP
 70
    48
  9
$PINSBASE
 10
0.0
 20
0.0
 30
0.0
  9
$PLIMCHECK
 70
     0
  9
$PEXTMIN
 10
1.000000000000000E+20
 20
1.000000000000000E+20
 30
1.000000000000000E+20
  9
$PEXTMAX
 10
-1.000000000000000E+20
 20
-1.000000000000000E+20
 30
-1.000000000000000E+20
  9
$PLIMMIN
 10
0.0
 20
0.0
  9
$PLIMMAX
 10
12.0
 20
9.0
  9
$UNITMODE
 70
     0
  9
$VISRETAIN
 70
     1
  9
$PLINEGEN
 70
     0
  9
$PSLTSCALE
 70
     1
  9
$TREEDEPTH
 70
  3020
  9
$CMLSTYLE
  2
Standard
  9
$CMLJUST
 70
     0
  9
$CMLSCALE
 40
1.0
  9
$PROXYGRAPHICS
 70
     1
  9
$MEASUREMENT
 70
     0
  9
$CELWEIGHT
370
    -1
  9
$ENDCAPS
280
     0
  9
$JOINSTYLE
280
     0
  9
$LWDISPLAY
290
     0
  9
$INSUNITS
 70
     0
  9
$HYPERLINKBASE
  1

  9
$STYLESHEET
  1

  9
$XEDIT
290
     1
  9
$CEPSNTYPE
380
     0
  9
$PSTYLEMODE
290
     1
  9
$FINGERPRINTGUID
  2
{5E5D9C66-43EE-4D50-AB4E-CAACC62BDE36}
  9
$VERSIONGUID
  2
{389A66E3-4293-43E2-A50C-B7D9344B02A6}
  9
$EXTNAMES
290
     1
  9
$PSVPSCALE
 40
0.0
  9
$OLESTARTUP
290
     0
  0
ENDSEC
  0
SECTION
  2
CLASSES
  0
CLASS
  1
ACDBDICTIONARYWDFLT
  2
AcDbDictionaryWithDefault
  3
ObjectDBX Classes
 90
        0
280
     0
281
     0
  0
CLASS
  1
MATERIAL
  2
AcDbMaterial
  3
ObjectDBX Classes
 90
     1153
280
     0
281
     0
  0
CLASS
  1
VISUALSTYLE
  2
AcDbVisualStyle
  3
ObjectDBX Classes
 90
     4095
280
     0
281
     0
  0
CLASS
  1
SCALE
  2
AcDbScale
  3
ObjectDBX Classes
 90
     1153
280
     0
281
     0
  0
CLASS
  1
TABLESTYLE
  2
AcDbTableStyle
  3
ObjectDBX Classes
 90
     4095
280
     0
281
     0
  0
CLASS
  1
MLEADERSTYLE
  2
AcDbMLeaderStyle
  3
ACDB_MLEADERSTYLE_CLASS
 90
     4095
280
     0
281
     0
  0
CLASS
  1
DICTIONARYVAR
  2
AcDbDictionaryVar
  3
ObjectDBX Classes
 90
        0
280
     0
281
     0
  0
CLASS
  1
CELLSTYLEMAP
  2
AcDbCellStyleMap
  3
ObjectDBX Classes
 90
     1152
280
     0
281
     0
  0
CLASS
  1
ACDBPLACEHOLDER
  2
AcDbPlaceHolder
  3
ObjectDBX Classes
 90
        0
280
     0
281
     0
  0
CLASS
  1
LAYOUT
  2
AcDbLayout
  3
ObjectDBX Classes
 90
        0
280
     0
281
     0
  0
ENDSEC
  0
SECTION
  2
TABLES
  0
TABLE
  2
VPORT
  5
7BC
330
0
100
AcDbSymbolTable
 70
     1
  0
VPORT
  5
82D
330
7BC
100
AcDbSymbolTableRecord
100
AcDbViewportTableRecord
  2
*ACTIVE
 70
     0
 10
0.0
 20
0.0
 11
1.0
 21
1.0
 12
-147.3998829575739
 22
952.143874801861
 13
0.0
 23
0.0
 14
50.0
 24
50.0
 15
100.0
 25
100.0
 16
0.0
 26
0.0
 36
1.0
 17
0.0
 27
0.0
 37
0.0
 40
3342.646687395034
 41
1.802600472813238
 42
50.0
 43
0.0
 44
0.0
 50
0.0
 51
0.0
 71
     0
 72
  1000
 73
     1
 74
     0
 75
     0
 76
     0
 77
     0
 78
     0
281
     0
 65
     1
110
0.0
120
0.0
130
0.0
111
1.0
121
0.0
131
0.0
112
0.0
122
1.0
132
0.0
 79
     0
146
0.0
  0
ENDTAB
  0
TABLE
  2
LTYPE
  5
7B9
330
0
100
AcDbSymbolTable
 70
     2
  0
LTYPE
  5
816
330
7B9
100
AcDbSymbolTableRecord
100
AcDbLinetypeTableRecord
  2
ByBlock
 70
     0
  3

 72
    65
 73
     0
 40
0.0
  0
LTYPE
  5
817
330
7B9
100
AcDbSymbolTableRecord
100
AcDbLinetypeTableRecord
  2
ByLayer
 70
     0
  3

 72
    65
 73
     0
 40
0.0
  0
LTYPE
  5
818
330
7B9
100
AcDbSymbolTableRecord
100
AcDbLinetypeTableRecord
  2
CONTINUOUS
 70
     0
  3
実線
 72
    65
 73
     0
 40
0.0
  0
LTYPE
  5
82E
330
7B9
100
AcDbSymbolTableRecord
100
AcDbLinetypeTableRecord
  2
DASHDOT
 70
     0
  3
____ _ ____ _ ____ _ ____ _ ____ _ ____ _ ____
 72
    65
 73
     4
 40
5.5
 49
4.0
 74
     0
 49
-0.6
 74
     0
 49
0.3
 74
     0
 49
-0.6
 74
     0
  0
ENDTAB
  0
TABLE
  2
LAYER
  5
7B6
330
0
100
AcDbSymbolTable
 70
    12
  0
LAYER
  5
810
102
{ACAD_XDICTIONARY
360
847
102
}
330
7B6
100
AcDbSymbolTableRecord
100
AcDbLayerTableRecord
  2
0
 70
     0
 62
     7
  6
CONTINUOUS
370
    -3
390
7C3
  0
LAYER
  5
82C
102
{ACAD_XDICTIONARY
360
849
102
}
330
7B6
100
AcDbSymbolTableRecord
100
AcDbLayerTableRecord
  2
SIZE
 70
     0
 62
    30
  6
CONTINUOUS
370
    -3
390
7C3
  0
LAYER
  5
82F
102
{ACAD_XDICTIONARY
360
84B
102
}
330
7B6
100
AcDbSymbolTableRecord
100
AcDbLayerTableRecord
  2
OUTLINE
 70
     0
 62
     3
  6
CONTINUOUS
370
    -3
390
7C3
  0
LAYER
  5
830
102
{ACAD_XDICTIONARY
360
84D
102
}
330
7B6
100
AcDbSymbolTableRecord
100
AcDbLayerTableRecord
  2
DETAIL
 70
     0
 62
     5
  6
CONTINUOUS
370
    -3
390
7C3
  0
LAYER
  5
831
102
{ACAD_XDICTIONARY
360
84F
102
}
330
7B6
100
AcDbSymbolTableRecord
100
AcDbLayerTableRecord
  2
BASIS
 70
     0
 62
     6
  6
DASHDOT
370
    -3
390
7C3
  0
LAYER
  5
832
102
{ACAD_XDICTIONARY
360
851
102
}
330
7B6
100
AcDbSymbolTableRecord
100
AcDbLayerTableRecord
  2
NOTE
 70
     0
 62
     4
  6
CONTINUOUS
370
    -3
390
7C3
  0
LAYER
  5
833
102
{ACAD_XDICTIONARY
360
853
102
}
330
7B6
100
AcDbSymbolTableRecord
100
AcDbLayerTableRecord
  2
ARRANGE
 70
     0
 62
     1
  6
CONTINUOUS
370
    -3
390
7C3
  0
LAYER
  5
834
102
{ACAD_XDICTIONARY
360
855
102
}
330
7B6
100
AcDbSymbolTableRecord
100
AcDbLayerTableRecord
  2
FIX
 70
     0
 62
    11
  6
CONTINUOUS
370
    -3
390
7C3
  0
LAYER
  5
835
102
{ACAD_XDICTIONARY
360
857
102
}
330
7B6
100
AcDbSymbolTableRecord
100
AcDbLayerTableRecord
  2
SERVICESPACE
 70
     0
 62
     2
  6
DASHDOT
370
    -3
390
7C3
  0
LAYER
  5
836
102
{ACAD_XDICTIONARY
360
859
102
}
330
7B6
100
AcDbSymbolTableRecord
100
AcDbLayerTableRecord
  2
ETC
 70
     0
 62
    61
  6
CONTINUOUS
370
    -3
390
7C3
  0
LAYER
  5
837
102
{ACAD_XDICTIONARY
360
85B
102
}
330
7B6
100
AcDbSymbolTableRecord
100
AcDbLayerTableRecord
  2
SYMBOLLINE
 70
     0
 62
    15
  6
CONTINUOUS
370
    -3
390
7C3
  0
LAYER
  5
838
330
7B6
100
AcDbSymbolTableRecord
100
AcDbLayerTableRecord
  2
DEFPOINTS
 70
     0
 62
     7
  6
CONTINUOUS
290
     0
370
    -3
390
7C3
  0
ENDTAB
  0
TABLE
  2
STYLE
  5
7B7
330
0
100
AcDbSymbolTable
 70
     3
  0
STYLE
  5
811
330
7B7
100
AcDbSymbolTableRecord
100
AcDbTextStyleTableRecord
  2
STANDARD
 70
     0
 40
0.0
 41
0.9
 50
0.0
 71
     0
 42
64.0
  3
SIMPLEX
  4
BIGFONT
  0
STYLE
  5
815
330
7B7
100
AcDbSymbolTableRecord
100
AcDbTextStyleTableRecord
  2
Annotative
 70
     0
 40
0.0
 41
1.0
 50
0.0
 71
     0
 42
0.2
  3
txt
  4

1001
AcadAnnotative
1000
AnnotativeData
1002
{
1070
     1
1070
     1
1002
}
  0
STYLE
  5
839
330
7B7
100
AcDbSymbolTableRecord
100
AcDbTextStyleTableRecord
  2
STANDARD1
 70
     0
 40
0.0
 41
1.0
 50
0.0
 71
     0
 42
3.5
  3
MONOTXT
  4
BIGFONT
  0
ENDTAB
  0
TABLE
  2
VIEW
  5
7BA
330
0
100
AcDbSymbolTable
 70
     1
  0
VIEW
  5
83A
330
7BA
100
AcDbSymbolTableRecord
100
AcDbViewTableRecord
  2
ALL
 70
     0
 40
6056.230032000001
 10
0.0
 20
58.115016
 41
8400.0
 11
0.0
 21
0.0
 31
1.0
 12
0.0
 22
0.0
 32
0.0
 42
50.0
 43
0.0
 44
0.0
 50
0.0
 71
     0
281
     0
 72
     1
110
0.0
120
0.0
130
0.0
111
1.0
121
0.0
131
0.0
112
0.0
122
1.0
132
0.0
 79
     0
146
0.0
  0
ENDTAB
  0
TABLE
  2
UCS
  5
7BB
330
0
100
AcDbSymbolTable
 70
     0
  0
ENDTAB
  0
TABLE
  2
APPID
  5
7BD
330
0
100
AcDbSymbolTable
 70
     4
  0
APPID
  5
812
330
7BD
100
AcDbSymbolTableRecord
100
AcDbRegAppTableRecord
  2
ACAD
 70
     0
  0
APPID
  5
819
330
7BD
100
AcDbSymbolTableRecord
100
AcDbRegAppTableRecord
  2
AcadAnnotative
 70
     0
  0
APPID
  5
823
330
7BD
100
AcDbSymbolTableRecord
100
AcDbRegAppTableRecord
  2
ACAD_MLEADERVER
 70
     0
  0
APPID
  5
845
330
7BD
100
AcDbSymbolTableRecord
100
AcDbRegAppTableRecord
  2
ACAD_EXEMPT_FROM_CAD_STANDARDS
 70
     0
  0
ENDTAB
  0
TABLE
  2
DIMSTYLE
  5
7BE
330
0
100
AcDbSymbolTable
 70
     2
100
AcDbDimStyleTable
 71
     0
  0
DIMSTYLE
105
813
330
7BE
100
AcDbSymbolTableRecord
100
AcDbDimStyleTableRecord
  2
STANDARD
 70
     0
275
     1
279
     2
284
     8
285
     8
286
     8
340
811
  0
DIMSTYLE
105
814
330
7BE
100
AcDbSymbolTableRecord
100
AcDbDimStyleTableRecord
  2
Annotative
 70
     0
340
811
1001
AcadAnnotative
1000
AnnotativeData
1002
{
1070
     1
1070
     1
1002
}
  0
ENDTAB
  0
TABLE
  2
BLOCK_RECORD
  5
7B5
330
0
100
AcDbSymbolTable
 70
     3
  0
BLOCK_RECORD
  5
828
330
7B5
100
AcDbSymbolTableRecord
100
AcDbBlockTableRecord
  2
*Model_Space
340
82B
  0
BLOCK_RECORD
  5
824
330
7B5
100
AcDbSymbolTableRecord
100
AcDbBlockTableRecord
  2
*Paper_Space
340
827
  0
BLOCK_RECORD
  5
83F
330
7B5
100
AcDbSymbolTableRecord
100
AcDbBlockTableRecord
  2
$MODEL_SPACE
340
0
  0
BLOCK_RECORD
  5
841
330
7B5
100
AcDbSymbolTableRecord
100
AcDbBlockTableRecord
  2
$PAPER_SPACE
340
0
  0
BLOCK_RECORD
  5
843
330
7B5
100
AcDbSymbolTableRecord
100
AcDbBlockTableRecord
  2
_DOTBLANK
340
0
  0
ENDTAB
  0
ENDSEC
  0
SECTION
  2
BLOCKS
  0
BLOCK
  5
829
330
828
100
AcDbEntity
  8
0
100
AcDbBlockBegin
  2
*Model_Space
 70
     0
 10
0.0
 20
0.0
 30
0.0
  3
*Model_Space
  1

  0
ENDBLK
  5
82A
330
828
100
AcDbEntity
  8
0
100
AcDbBlockEnd
  0
BLOCK
  5
825
330
824
100
AcDbEntity
 67
     1
  8
0
100
AcDbBlockBegin
  2
*Paper_Space
 70
     0
 10
0.0
 20
0.0
 30
0.0
  3
*Paper_Space
  1

  0
ENDBLK
  5
826
330
824
100
AcDbEntity
 67
     1
  8
0
100
AcDbBlockEnd
  0
BLOCK
  5
840
330
83F
100
AcDbEntity
  8
0
100
AcDbBlockBegin
  2
$MODEL_SPACE
 70
     0
 10
0.0
 20
0.0
 30
0.0
  3
$MODEL_SPACE
  1

  0
ENDBLK
  5
796
330
83F
100
AcDbEntity
  8
0
100
AcDbBlockEnd
  0
BLOCK
  5
842
330
841
100
AcDbEntity
  8
0
100
AcDbBlockBegin
  2
$PAPER_SPACE
 70
     0
 10
0.0
 20
0.0
 30
0.0
  3
$PAPER_SPACE
  1

  0
ENDBLK
  5
793
330
841
100
AcDbEntity
  8
0
100
AcDbBlockEnd
  0
BLOCK
  5
844
330
843
100
AcDbEntity
  8
0
100
AcDbBlockBegin
  2
_DOTBLANK
 70
     0
 10
0.0
 20
0.0
 30
0.0
  3
_DOTBLANK
  1

  0
CIRCLE
  5
32
330
843
100
AcDbEntity
  8
0
  6
Continuous
 62
     7
100
AcDbCircle
 10
0.0
 20
0.0
 30
0.0
 40
0.5
  0
LINE
  5
33
330
843
100
AcDbEntity
  8
0
  6
Continuous
 62
     7
100
AcDbLine
 10
-0.5
 20
0.0
 30
0.0
 11
-1.0
 21
0.0
 31
0.0
  0
ENDBLK
  5
34
330
843
100
AcDbEntity
  8
0
100
AcDbBlockEnd
  0
ENDSEC
  0
SECTION
  2
ENTITIES
  0
LINE
  5
35
330
828
100
AcDbEntity
  8
DETAIL
100
AcDbLine
 10
490.0000239999998
 20
261.918171
 30
0.0
 11
490.0000239999998
 21
79.975014
 31
0.0
  0
LINE
  5
36
330
828
100
AcDbEntity
  8
DETAIL
100
AcDbLine
 10
440.015641
 20
593.9613009999998
 30
0.0
 11
440.015641
 21
80.0
 31
0.0
  0
LINE
  5
37
330
828
100
AcDbEntity
  8
DETAIL
100
AcDbLine
 10
-439.815703
 20
593.9613009999998
 30
0.0
 11
-439.815703
 21
80.0
 31
0.0
  0
LINE
  5
38
330
828
100
AcDbEntity
  8
DETAIL
100
AcDbLine
 10
445.0140789999998
 20
1650.0
 30
0.0
 11
445.0140789999998
 21
80.0
 31
0.0
  0
LINE
  5
39
330
828
100
AcDbEntity
  8
DETAIL
100
AcDbLine
 10
-444.8141419999998
 20
1650.0
 30
0.0
 11
-444.8141419999998
 21
80.0
 31
0.0
  0
LINE
  5
3A
330
828
100
AcDbEntity
  8
DETAIL
100
AcDbLine
 10
481.0
 20
0.0
 30
0.0
 11
-480.6029599999998
 21
0.0
 31
0.0
  0
LINE
  5
3B
330
828
100
AcDbEntity
  8
DETAIL
100
AcDbLine
 10
-481.0
 20
0.0
 30
0.0
 11
-481.0
 21
79.99977099999998
 31
0.0
  0
LINE
  5
3C
330
828
100
AcDbEntity
  8
DETAIL
100
AcDbLine
 10
-485.1015549999998
 20
34.989069
 30
0.0
 11
-485.1015549999998
 21
4.498594999999999
 31
0.0
  0
LINE
  5
3D
330
828
100
AcDbEntity
  8
DETAIL
100
AcDbLine
 10
-485.1015549999998
 20
4.498594999999999
 30
0.0
 11
-521.0
 21
4.498594999999999
 31
0.0
  0
LINE
  5
3E
330
828
100
AcDbEntity
  8
DETAIL
100
AcDbLine
 10
-480.6029599999998
 20
0.0
 30
0.0
 11
-521.0
 21
0.0
 31
0.0
  0
LINE
  5
3F
330
828
100
AcDbEntity
  8
DETAIL
100
AcDbLine
 10
-521.0
 20
4.498594999999999
 30
0.0
 11
-521.0
 21
0.0
 31
0.0
  0
LINE
  5
40
330
828
100
AcDbEntity
  8
DETAIL
100
AcDbLine
 10
-481.0
 20
34.989069
 30
0.0
 11
-485.1015549999998
 21
34.989069
 31
0.0
  0
LINE
  5
41
330
828
100
AcDbEntity
  8
DETAIL
100
AcDbLine
 10
-502.806333
 20
48.984696
 30
0.0
 11
-502.806333
 21
10.996564
 31
0.0
  0
LINE
  5
42
330
828
100
AcDbEntity
  8
DETAIL
100
AcDbLine
 10
-485.1015549999998
 20
10.996564
 30
0.0
 11
-502.806333
 21
10.996564
 31
0.0
  0
LINE
  5
43
330
828
100
AcDbEntity
  8
DETAIL
100
AcDbLine
 10
-481.0
 20
48.984696
 30
0.0
 11
-502.806333
 21
48.984696
 31
0.0
  0
LINE
  5
44
330
828
100
AcDbEntity
  8
DETAIL
100
AcDbLine
 10
-502.806333
 20
43.986258
 30
0.0
 11
-512.8032099999996
 21
43.986258
 31
0.0
  0
LINE
  5
45
330
828
100
AcDbEntity
  8
DETAIL
100
AcDbLine
 10
-502.806333
 20
15.995003
 30
0.0
 11
-512.8032099999996
 21
15.995003
 31
0.0
  0
LINE
  5
46
330
828
100
AcDbEntity
  8
DETAIL
100
AcDbLine
 10
-512.8032099999996
 20
43.986258
 30
0.0
 11
-512.8032099999996
 21
15.995003
 31
0.0
  0
LINE
  5
47
330
828
100
AcDbEntity
  8
DETAIL
100
AcDbLine
 10
-523.000024
 20
37.488288
 30
0.0
 11
-523.000024
 21
22.492973
 31
0.0
  0
LINE
  5
48
330
828
100
AcDbEntity
  8
DETAIL
100
AcDbLine
 10
-523.000024
 20
37.488288
 30
0.0
 11
-512.8032099999996
 21
37.488288
 31
0.0
  0
LINE
  5
49
330
828
100
AcDbEntity
  8
DETAIL
100
AcDbLine
 10
-523.000024
 20
22.492973
 30
0.0
 11
-512.8032099999996
 21
22.492973
 31
0.0
  0
LINE
  5
4A
330
828
100
AcDbEntity
  8
DETAIL
100
AcDbLine
 10
481.0
 20
0.0
 30
0.0
 11
481.0
 21
79.97524300000002
 31
0.0
  0
LINE
  5
4B
330
828
100
AcDbEntity
  8
DETAIL
100
AcDbLine
 10
480.802898
 20
0.0
 30
0.0
 11
521.0
 21
0.0
 31
0.0
  0
LINE
  5
4C
330
828
100
AcDbEntity
  8
DETAIL
100
AcDbLine
 10
485.3014919999998
 20
4.498594999999999
 30
0.0
 11
521.0
 21
4.498594999999999
 31
0.0
  0
LINE
  5
4D
330
828
100
AcDbEntity
  8
DETAIL
100
AcDbLine
 10
485.3014919999998
 20
10.996564
 30
0.0
 11
502.796027
 21
10.996564
 31
0.0
  0
LINE
  5
4E
330
828
100
AcDbEntity
  8
DETAIL
100
AcDbLine
 10
481.0
 20
48.984696
 30
0.0
 11
502.796027
 21
48.984696
 31
0.0
  0
LINE
  5
4F
330
828
100
AcDbEntity
  8
DETAIL
100
AcDbLine
 10
481.0
 20
34.989069
 30
0.0
 11
485.3014919999998
 21
34.989069
 31
0.0
  0
LINE
  5
50
330
828
100
AcDbEntity
  8
DETAIL
100
AcDbLine
 10
485.3014919999998
 20
34.989069
 30
0.0
 11
485.3014919999998
 21
4.498594999999999
 31
0.0
  0
LINE
  5
51
330
828
100
AcDbEntity
  8
DETAIL
100
AcDbLine
 10
521.0
 20
4.498594999999999
 30
0.0
 11
521.0
 21
0.0
 31
0.0
  0
LINE
  5
52
330
828
100
AcDbEntity
  8
DETAIL
100
AcDbLine
 10
502.796027
 20
48.984696
 30
0.0
 11
502.796027
 21
10.996564
 31
0.0
  0
LINE
  5
53
330
828
100
AcDbEntity
  8
DETAIL
100
AcDbLine
 10
439.215891
 20
1105.654567
 30
0.0
 11
-438.316172
 21
1105.654567
 31
0.0
  0
LINE
  5
54
330
828
100
AcDbEntity
  8
DETAIL
100
AcDbLine
 10
-170.0
 20
594.814166
 30
0.0
 11
-438.316172
 21
594.814166
 31
0.0
  0
LINE
  5
55
330
828
100
AcDbEntity
  8
DETAIL
100
AcDbLine
 10
-439.015953
 20
594.7610509999996
 30
0.0
 11
439.215891
 21
594.7610509999996
 31
0.0
  0
LINE
  5
56
330
828
100
AcDbEntity
  8
DETAIL
100
AcDbLine
 10
-439.015953
 20
1125.648321
 30
0.0
 11
439.215891
 21
1125.648321
 31
0.0
  0
LINE
  5
57
330
828
100
AcDbEntity
  8
DETAIL
100
AcDbLine
 10
-211.344886
 20
1016.002677
 30
0.0
 11
-13.406726
 21
1016.002677
 31
0.0
  0
LINE
  5
58
330
828
100
AcDbEntity
  8
DETAIL
100
AcDbLine
 10
-201.348009
 20
1035.99643
 30
0.0
 11
-23.403603
 21
1035.99643
 31
0.0
  0
LINE
  5
59
330
828
100
AcDbEntity
  8
DETAIL
100
AcDbLine
 10
-23.403603
 20
1030.140395
 30
0.0
 11
-201.348009
 21
1030.140395
 31
0.0
  0
LINE
  5
5A
330
828
100
AcDbEntity
  8
DETAIL
100
AcDbLine
 10
-211.344886
 20
975.8851700000001
 30
0.0
 11
-13.406726
 21
975.8851700000001
 31
0.0
  0
LINE
  5
5B
330
828
100
AcDbEntity
  8
DETAIL
100
AcDbLine
 10
-201.348009
 20
995.878923
 30
0.0
 11
-23.403603
 21
995.878923
 31
0.0
  0
LINE
  5
5C
330
828
100
AcDbEntity
  8
DETAIL
100
AcDbLine
 10
-23.403603
 20
990.022888
 30
0.0
 11
-201.348009
 21
990.022888
 31
0.0
  0
LINE
  5
5D
330
828
100
AcDbEntity
  8
DETAIL
100
AcDbLine
 10
-211.344886
 20
935.897663
 30
0.0
 11
-13.406726
 21
935.897663
 31
0.0
  0
LINE
  5
5E
330
828
100
AcDbEntity
  8
DETAIL
100
AcDbLine
 10
-201.348009
 20
955.891416
 30
0.0
 11
-23.403603
 21
955.891416
 31
0.0
  0
LINE
  5
5F
330
828
100
AcDbEntity
  8
DETAIL
100
AcDbLine
 10
-23.403603
 20
950.035381
 30
0.0
 11
-201.348009
 21
950.035381
 31
0.0
  0
LINE
  5
60
330
828
100
AcDbEntity
  8
DETAIL
100
AcDbLine
 10
-211.344886
 20
895.910156
 30
0.0
 11
-13.406726
 21
895.910156
 31
0.0
  0
LINE
  5
61
330
828
100
AcDbEntity
  8
DETAIL
100
AcDbLine
 10
-201.348009
 20
915.903909
 30
0.0
 11
-23.403603
 21
915.903909
 31
0.0
  0
LINE
  5
62
330
828
100
AcDbEntity
  8
DETAIL
100
AcDbLine
 10
-23.403603
 20
910.0478739999999
 30
0.0
 11
-201.348009
 21
910.0478739999999
 31
0.0
  0
LINE
  5
63
330
828
100
AcDbEntity
  8
DETAIL
100
AcDbLine
 10
-211.344886
 20
855.922649
 30
0.0
 11
-13.406726
 21
855.922649
 31
0.0
  0
LINE
  5
64
330
828
100
AcDbEntity
  8
DETAIL
100
AcDbLine
 10
-201.348009
 20
875.916402
 30
0.0
 11
-23.403603
 21
875.916402
 31
0.0
  0
LINE
  5
65
330
828
100
AcDbEntity
  8
DETAIL
100
AcDbLine
 10
-23.403603
 20
870.0603670000001
 30
0.0
 11
-201.348009
 21
870.0603670000001
 31
0.0
  0
LINE
  5
66
330
828
100
AcDbEntity
  8
DETAIL
100
AcDbLine
 10
-211.344886
 20
815.935142
 30
0.0
 11
-13.406726
 21
815.935142
 31
0.0
  0
LINE
  5
67
330
828
100
AcDbEntity
  8
DETAIL
100
AcDbLine
 10
-201.348009
 20
835.9288949999999
 30
0.0
 11
-23.403603
 21
835.9288949999999
 31
0.0
  0
LINE
  5
68
330
828
100
AcDbEntity
  8
DETAIL
100
AcDbLine
 10
-23.403603
 20
830.072861
 30
0.0
 11
-201.348009
 21
830.072861
 31
0.0
  0
LINE
  5
69
330
828
100
AcDbEntity
  8
DETAIL
100
AcDbLine
 10
-211.344886
 20
775.9476349999999
 30
0.0
 11
-13.406726
 21
775.9476349999999
 31
0.0
  0
LINE
  5
6A
330
828
100
AcDbEntity
  8
DETAIL
100
AcDbLine
 10
-201.348009
 20
795.9413879999997
 30
0.0
 11
-23.403603
 21
795.9413879999997
 31
0.0
  0
LINE
  5
6B
330
828
100
AcDbEntity
  8
DETAIL
100
AcDbLine
 10
-23.403603
 20
790.085354
 30
0.0
 11
-201.348009
 21
790.085354
 31
0.0
  0
LINE
  5
6C
330
828
100
AcDbEntity
  8
DETAIL
100
AcDbLine
 10
-211.344886
 20
735.960128
 30
0.0
 11
-13.406726
 21
735.960128
 31
0.0
  0
LINE
  5
6D
330
828
100
AcDbEntity
  8
DETAIL
100
AcDbLine
 10
-201.348009
 20
755.9538809999996
 30
0.0
 11
-23.403603
 21
755.9538809999996
 31
0.0
  0
LINE
  5
6E
330
828
100
AcDbEntity
  8
DETAIL
100
AcDbLine
 10
-23.403603
 20
750.0978469999997
 30
0.0
 11
-201.348009
 21
750.0978469999997
 31
0.0
  0
LINE
  5
6F
330
828
100
AcDbEntity
  8
DETAIL
100
AcDbLine
 10
-211.344886
 20
695.972621
 30
0.0
 11
-13.406726
 21
695.972621
 31
0.0
  0
LINE
  5
70
330
828
100
AcDbEntity
  8
DETAIL
100
AcDbLine
 10
-201.348009
 20
715.966374
 30
0.0
 11
-23.403603
 21
715.966374
 31
0.0
  0
LINE
  5
71
330
828
100
AcDbEntity
  8
DETAIL
100
AcDbLine
 10
-23.403603
 20
710.11034
 30
0.0
 11
-201.348009
 21
710.11034
 31
0.0
  0
LINE
  5
72
330
828
100
AcDbEntity
  8
DETAIL
100
AcDbLine
 10
-211.344886
 20
655.9851139999997
 30
0.0
 11
-13.406726
 21
655.9851139999997
 31
0.0
  0
LINE
  5
73
330
828
100
AcDbEntity
  8
DETAIL
100
AcDbLine
 10
-201.348009
 20
675.9788679999997
 30
0.0
 11
-23.403603
 21
675.9788679999997
 31
0.0
  0
LINE
  5
74
330
828
100
AcDbEntity
  8
DETAIL
100
AcDbLine
 10
-23.403603
 20
670.122833
 30
0.0
 11
-201.348009
 21
670.122833
 31
0.0
  0
LINE
  5
75
330
828
100
AcDbEntity
  8
DETAIL
100
AcDbLine
 10
-211.344886
 20
615.9976069999999
 30
0.0
 11
-13.406726
 21
615.9976069999999
 31
0.0
  0
LINE
  5
76
330
828
100
AcDbEntity
  8
DETAIL
100
AcDbLine
 10
-201.348009
 20
635.9913609999997
 30
0.0
 11
-23.403603
 21
635.9913609999997
 31
0.0
  0
LINE
  5
77
330
828
100
AcDbEntity
  8
DETAIL
100
AcDbLine
 10
-23.403603
 20
630.1353259999999
 30
0.0
 11
-201.348009
 21
630.1353259999999
 31
0.0
  0
LINE
  5
78
330
828
100
AcDbEntity
  8
DETAIL
100
AcDbLine
 10
-490.0000239999998
 20
1650.0
 30
0.0
 11
490.0000239999998
 21
1650.0
 31
0.0
  0
LINE
  5
79
330
828
100
AcDbEntity
  8
DETAIL
100
AcDbLine
 10
439.215891
 20
1650.0
 30
0.0
 11
-442.015016
 21
1650.0
 31
0.0
  0
LINE
  5
7A
330
828
100
AcDbEntity
  8
DETAIL
100
AcDbLine
 10
-439.815703
 20
1650.0
 30
0.0
 11
-439.815703
 21
1126.448071
 31
0.0
  0
LINE
  5
7B
330
828
100
AcDbEntity
  8
DETAIL
100
AcDbLine
 10
-439.3158589999998
 20
595.813854
 30
0.0
 11
-439.3158589999998
 21
1104.65488
 31
0.0
  0
LINE
  5
7C
330
828
100
AcDbEntity
  8
DETAIL
100
AcDbLine
 10
-427.02694
 20
825.932019
 30
0.0
 11
-427.02694
 21
815.935142
 31
0.0
  0
LINE
  5
7D
330
828
100
AcDbEntity
  8
DETAIL
100
AcDbLine
 10
-229.088781
 20
825.932019
 30
0.0
 11
-229.088781
 21
815.935142
 31
0.0
  0
LINE
  5
7E
330
828
100
AcDbEntity
  8
DETAIL
100
AcDbLine
 10
-211.344886
 20
825.932019
 30
0.0
 11
-211.344886
 21
815.935142
 31
0.0
  0
LINE
  5
7F
330
828
100
AcDbEntity
  8
DETAIL
100
AcDbLine
 10
-427.02694
 20
815.935142
 30
0.0
 11
-229.088781
 21
815.935142
 31
0.0
  0
LINE
  5
80
330
828
100
AcDbEntity
  8
DETAIL
100
AcDbLine
 10
-427.02694
 20
775.9476349999999
 30
0.0
 11
-229.088781
 21
775.9476349999999
 31
0.0
  0
LINE
  5
81
330
828
100
AcDbEntity
  8
DETAIL
100
AcDbLine
 10
-417.0300629999998
 20
795.9413879999997
 30
0.0
 11
-239.085658
 21
795.9413879999997
 31
0.0
  0
LINE
  5
82
330
828
100
AcDbEntity
  8
DETAIL
100
AcDbLine
 10
-239.085658
 20
790.085354
 30
0.0
 11
-417.0300629999998
 21
790.085354
 31
0.0
  0
LINE
  5
83
330
828
100
AcDbEntity
  8
DETAIL
100
AcDbLine
 10
-427.02694
 20
735.960128
 30
0.0
 11
-229.088781
 21
735.960128
 31
0.0
  0
LINE
  5
84
330
828
100
AcDbEntity
  8
DETAIL
100
AcDbLine
 10
-417.0300629999998
 20
755.9538809999996
 30
0.0
 11
-239.085658
 21
755.9538809999996
 31
0.0
  0
LINE
  5
85
330
828
100
AcDbEntity
  8
DETAIL
100
AcDbLine
 10
-239.085658
 20
750.0978469999997
 30
0.0
 11
-417.0300629999998
 21
750.0978469999997
 31
0.0
  0
LINE
  5
86
330
828
100
AcDbEntity
  8
DETAIL
100
AcDbLine
 10
-427.02694
 20
695.972621
 30
0.0
 11
-229.088781
 21
695.972621
 31
0.0
  0
LINE
  5
87
330
828
100
AcDbEntity
  8
DETAIL
100
AcDbLine
 10
-417.0300629999998
 20
715.966374
 30
0.0
 11
-239.085658
 21
715.966374
 31
0.0
  0
LINE
  5
88
330
828
100
AcDbEntity
  8
DETAIL
100
AcDbLine
 10
-239.085658
 20
710.11034
 30
0.0
 11
-417.0300629999998
 21
710.11034
 31
0.0
  0
LINE
  5
89
330
828
100
AcDbEntity
  8
DETAIL
100
AcDbLine
 10
-427.02694
 20
655.9851139999997
 30
0.0
 11
-229.088781
 21
655.9851139999997
 31
0.0
  0
LINE
  5
8A
330
828
100
AcDbEntity
  8
DETAIL
100
AcDbLine
 10
-417.0300629999998
 20
675.9788679999997
 30
0.0
 11
-239.085658
 21
675.9788679999997
 31
0.0
  0
LINE
  5
8B
330
828
100
AcDbEntity
  8
DETAIL
100
AcDbLine
 10
-239.085658
 20
670.122833
 30
0.0
 11
-417.0300629999998
 21
670.122833
 31
0.0
  0
LINE
  5
8C
330
828
100
AcDbEntity
  8
DETAIL
100
AcDbLine
 10
-427.02694
 20
615.9976069999999
 30
0.0
 11
-229.088781
 21
615.9976069999999
 31
0.0
  0
LINE
  5
8D
330
828
100
AcDbEntity
  8
DETAIL
100
AcDbLine
 10
-417.0300629999998
 20
635.9913609999997
 30
0.0
 11
-239.085658
 21
635.9913609999997
 31
0.0
  0
LINE
  5
8E
330
828
100
AcDbEntity
  8
DETAIL
100
AcDbLine
 10
-239.085658
 20
630.1353259999999
 30
0.0
 11
-417.0300629999998
 21
630.1353259999999
 31
0.0
  0
ARC
  5
8F
330
828
100
AcDbEntity
  8
DETAIL
100
AcDbCircle
 10
-417.0300629999998
 20
665.981991
 30
0.0
 40
9.996876999999999
100
AcDbArc
 50
90.0
 51
180.0
  0
LINE
  5
90
330
828
100
AcDbEntity
  8
DETAIL
100
AcDbLine
 10
-438.316172
 20
595.813854
 30
0.0
 11
-439.3158589999998
 21
595.813854
 31
0.0
  0
LINE
  5
91
330
828
100
AcDbEntity
  8
DETAIL
100
AcDbLine
 10
-438.316172
 20
595.813854
 30
0.0
 11
-438.316172
 21
594.814166
 31
0.0
  0
LINE
  5
92
330
828
100
AcDbEntity
  8
DETAIL
100
AcDbLine
 10
-439.015953
 20
593.9613009999998
 30
0.0
 11
-439.815703
 21
593.9613009999998
 31
0.0
  0
LINE
  5
93
330
828
100
AcDbEntity
  8
DETAIL
100
AcDbLine
 10
-439.015953
 20
594.7610509999996
 30
0.0
 11
-439.015953
 21
593.9613009999998
 31
0.0
  0
LINE
  5
94
330
828
100
AcDbEntity
  8
DETAIL
100
AcDbLine
 10
-427.02694
 20
665.981991
 30
0.0
 11
-427.02694
 21
655.9851139999997
 31
0.0
  0
LWPOLYLINE
  5
95
330
828
100
AcDbEntity
  8
DETAIL
100
AcDbPolyline
 90
        9
 70
     0
 43
0.0
 10
-417.0300629999998
 20
670.122833
 10
-418.9803569999998
 20
669.9870070000002
 10
-420.8557029999998
 20
669.584748
 10
-422.5840309999998
 20
668.9315149999997
 10
-424.0989230000001
 20
668.052412
 10
-425.342163
 20
666.9812209999999
 10
-426.265973
 20
665.7591089999997
 10
-426.8348529999998
 20
664.433039
 10
-427.02694
 20
663.053973
  0
LINE
  5
A0
330
828
100
AcDbEntity
  8
DETAIL
100
AcDbLine
 10
-427.02694
 20
625.9944839999997
 30
0.0
 11
-427.02694
 21
615.9976069999999
 31
0.0
  0
ARC
  5
A1
330
828
100
AcDbEntity
  8
DETAIL
100
AcDbCircle
 10
-417.0300629999998
 20
625.9944839999997
 30
0.0
 40
9.996876999999999
100
AcDbArc
 50
90.0
 51
180.0
  0
LWPOLYLINE
  5
A2
330
828
100
AcDbEntity
  8
DETAIL
100
AcDbPolyline
 90
        9
 70
     0
 43
0.0
 10
-417.0300629999998
 20
630.1353259999999
 10
-418.9803569999998
 20
629.9995
 10
-420.8557029999998
 20
629.597241
 10
-422.5840309999998
 20
628.944008
 10
-424.0989230000001
 20
628.064905
 10
-425.342163
 20
626.9937139999997
 10
-426.265973
 20
625.7716019999998
 10
-426.8348529999998
 20
624.4455320000001
 10
-427.02694
 20
623.066466
  0
LINE
  5
AD
330
828
100
AcDbEntity
  8
DETAIL
100
AcDbLine
 10
-427.02694
 20
785.944512
 30
0.0
 11
-427.02694
 21
775.9476349999999
 31
0.0
  0
ARC
  5
AE
330
828
100
AcDbEntity
  8
DETAIL
100
AcDbCircle
 10
-417.0300629999998
 20
785.944512
 30
0.0
 40
9.996876999999999
100
AcDbArc
 50
90.0
 51
180.0
  0
LWPOLYLINE
  5
AF
330
828
100
AcDbEntity
  8
DETAIL
100
AcDbPolyline
 90
        9
 70
     0
 43
0.0
 10
-417.0300629999998
 20
790.085354
 10
-418.9803569999998
 20
789.949527
 10
-420.8557029999998
 20
789.547269
 10
-422.5840309999998
 20
788.894036
 10
-424.0989230000001
 20
788.014933
 10
-425.342163
 20
786.943742
 10
-426.265973
 20
785.72163
 10
-426.8348529999998
 20
784.3955599999997
 10
-427.02694
 20
783.0164940000003
  0
LINE
  5
BA
330
828
100
AcDbEntity
  8
DETAIL
100
AcDbLine
 10
-427.02694
 20
745.9570049999999
 30
0.0
 11
-427.02694
 21
735.960128
 31
0.0
  0
ARC
  5
BB
330
828
100
AcDbEntity
  8
DETAIL
100
AcDbCircle
 10
-417.0300629999998
 20
745.9570049999999
 30
0.0
 40
9.996876999999999
100
AcDbArc
 50
90.0
 51
180.0
  0
LWPOLYLINE
  5
BC
330
828
100
AcDbEntity
  8
DETAIL
100
AcDbPolyline
 90
        9
 70
     0
 43
0.0
 10
-417.0300629999998
 20
750.0978469999997
 10
-418.9803569999998
 20
749.96202
 10
-420.8557029999998
 20
749.5597619999998
 10
-422.5840309999998
 20
748.906529
 10
-424.0989230000001
 20
748.0274259999996
 10
-425.342163
 20
746.956235
 10
-426.265973
 20
745.734123
 10
-426.8348529999998
 20
744.4080529999999
 10
-427.02694
 20
743.028987
  0
LINE
  5
C7
330
828
100
AcDbEntity
  8
DETAIL
100
AcDbLine
 10
-427.02694
 20
705.969498
 30
0.0
 11
-427.02694
 21
695.972621
 31
0.0
  0
ARC
  5
C8
330
828
100
AcDbEntity
  8
DETAIL
100
AcDbCircle
 10
-417.0300629999998
 20
705.969498
 30
0.0
 40
9.996876999999999
100
AcDbArc
 50
90.0
 51
180.0
  0
LWPOLYLINE
  5
C9
330
828
100
AcDbEntity
  8
DETAIL
100
AcDbPolyline
 90
        9
 70
     0
 43
0.0
 10
-417.0300629999998
 20
710.11034
 10
-418.9803569999998
 20
709.974514
 10
-420.8557029999998
 20
709.5722549999996
 10
-422.5840309999998
 20
708.9190219999997
 10
-424.0989230000001
 20
708.039919
 10
-425.342163
 20
706.9687280000001
 10
-426.265973
 20
705.746616
 10
-426.8348529999998
 20
704.4205459999997
 10
-427.02694
 20
703.0414799999999
  0
ARC
  5
D4
330
828
100
AcDbEntity
  8
DETAIL
100
AcDbCircle
 10
-239.085658
 20
665.981991
 30
0.0
 40
9.996876999999999
100
AcDbArc
 50
0.0
 51
90.0
  0
ARC
  5
D5
330
828
100
AcDbEntity
  8
DETAIL
100
AcDbCircle
 10
-201.348009
 20
665.981991
 30
0.0
 40
9.996876999999999
100
AcDbArc
 50
90.0
 51
180.0
  0
LWPOLYLINE
  5
D6
330
828
100
AcDbEntity
  8
DETAIL
100
AcDbPolyline
 90
        9
 70
     0
 43
0.0
 10
-201.348009
 20
670.122833
 10
-203.298303
 20
669.9870070000002
 10
-205.173648
 20
669.584748
 10
-206.901976
 20
668.9315149999997
 10
-208.416868
 20
668.052412
 10
-209.660108
 20
666.9812209999999
 10
-210.583919
 20
665.7591089999997
 10
-211.152799
 20
664.433039
 10
-211.344886
 20
663.053973
  0
ARC
  5
E1
330
828
100
AcDbEntity
  8
DETAIL
100
AcDbCircle
 10
-201.348009
 20
625.9944839999997
 30
0.0
 40
9.996876999999999
100
AcDbArc
 50
90.0
 51
180.0
  0
LWPOLYLINE
  5
E2
330
828
100
AcDbEntity
  8
DETAIL
100
AcDbPolyline
 90
        9
 70
     0
 43
0.0
 10
-201.348009
 20
630.1353259999999
 10
-203.298303
 20
629.9995
 10
-205.173648
 20
629.597241
 10
-206.901976
 20
628.944008
 10
-208.416868
 20
628.064905
 10
-209.660108
 20
626.9937139999997
 10
-210.583919
 20
625.7716019999998
 10
-211.152799
 20
624.4455320000001
 10
-211.344886
 20
623.066466
  0
LINE
  5
ED
330
828
100
AcDbEntity
  8
DETAIL
100
AcDbLine
 10
-229.088781
 20
665.981991
 30
0.0
 11
-229.088781
 21
655.9851139999997
 31
0.0
  0
LWPOLYLINE
  5
EE
330
828
100
AcDbEntity
  8
DETAIL
100
AcDbPolyline
 90
        9
 70
     0
 43
0.0
 10
-229.088781
 20
663.053973
 10
-229.280868
 20
664.433039
 10
-229.849748
 20
665.7591089999997
 10
-230.773558
 20
666.9812209999999
 10
-232.016798
 20
668.052412
 10
-233.53169
 20
668.9315149999997
 10
-235.260018
 20
669.584748
 10
-237.135364
 20
669.9870070000002
 10
-239.085658
 20
670.122833
  0
LINE
  5
F9
330
828
100
AcDbEntity
  8
DETAIL
100
AcDbLine
 10
-229.088781
 20
625.9944839999997
 30
0.0
 11
-229.088781
 21
615.9976069999999
 31
0.0
  0
ARC
  5
FA
330
828
100
AcDbEntity
  8
DETAIL
100
AcDbCircle
 10
-239.085658
 20
625.9944839999997
 30
0.0
 40
9.996876999999999
100
AcDbArc
 50
0.0
 51
90.0
  0
LWPOLYLINE
  5
FB
330
828
100
AcDbEntity
  8
DETAIL
100
AcDbPolyline
 90
        9
 70
     0
 43
0.0
 10
-229.088781
 20
623.066466
 10
-229.280868
 20
624.4455320000001
 10
-229.849748
 20
625.7716019999998
 10
-230.773558
 20
626.9937139999997
 10
-232.016798
 20
628.064905
 10
-233.53169
 20
628.944008
 10
-235.260018
 20
629.597241
 10
-237.135364
 20
629.9995
 10
-239.085658
 20
630.1353259999999
  0
LINE
  5
106
330
828
100
AcDbEntity
  8
DETAIL
100
AcDbLine
 10
-211.344886
 20
665.981991
 30
0.0
 11
-211.344886
 21
655.9851139999997
 31
0.0
  0
LINE
  5
107
330
828
100
AcDbEntity
  8
DETAIL
100
AcDbLine
 10
-211.344886
 20
625.9944839999997
 30
0.0
 11
-211.344886
 21
615.9976069999999
 31
0.0
  0
ARC
  5
108
330
828
100
AcDbEntity
  8
DETAIL
100
AcDbCircle
 10
-201.348009
 20
785.944512
 30
0.0
 40
9.996876999999999
100
AcDbArc
 50
90.0
 51
180.0
  0
LWPOLYLINE
  5
109
330
828
100
AcDbEntity
  8
DETAIL
100
AcDbPolyline
 90
        9
 70
     0
 43
0.0
 10
-201.348009
 20
790.085354
 10
-203.298303
 20
789.949527
 10
-205.173648
 20
789.547269
 10
-206.901976
 20
788.894036
 10
-208.416868
 20
788.014933
 10
-209.660108
 20
786.943742
 10
-210.583919
 20
785.72163
 10
-211.152799
 20
784.3955599999997
 10
-211.344886
 20
783.0164940000003
  0
ARC
  5
114
330
828
100
AcDbEntity
  8
DETAIL
100
AcDbCircle
 10
-201.348009
 20
745.9570049999999
 30
0.0
 40
9.996876999999999
100
AcDbArc
 50
90.0
 51
180.0
  0
LWPOLYLINE
  5
115
330
828
100
AcDbEntity
  8
DETAIL
100
AcDbPolyline
 90
        9
 70
     0
 43
0.0
 10
-201.348009
 20
750.0978469999997
 10
-203.298303
 20
749.96202
 10
-205.173648
 20
749.5597619999998
 10
-206.901976
 20
748.906529
 10
-208.416868
 20
748.0274259999996
 10
-209.660108
 20
746.956235
 10
-210.583919
 20
745.734123
 10
-211.152799
 20
744.4080529999999
 10
-211.344886
 20
743.028987
  0
ARC
  5
120
330
828
100
AcDbEntity
  8
DETAIL
100
AcDbCircle
 10
-201.348009
 20
705.969498
 30
0.0
 40
9.996876999999999
100
AcDbArc
 50
90.0
 51
180.0
  0
LWPOLYLINE
  5
121
330
828
100
AcDbEntity
  8
DETAIL
100
AcDbPolyline
 90
        9
 70
     0
 43
0.0
 10
-201.348009
 20
710.11034
 10
-203.298303
 20
709.974514
 10
-205.173648
 20
709.5722549999996
 10
-206.901976
 20
708.9190219999997
 10
-208.416868
 20
708.039919
 10
-209.660108
 20
706.9687280000001
 10
-210.583919
 20
705.746616
 10
-211.152799
 20
704.4205459999997
 10
-211.344886
 20
703.0414799999999
  0
LINE
  5
12C
330
828
100
AcDbEntity
  8
DETAIL
100
AcDbLine
 10
-229.088781
 20
785.944512
 30
0.0
 11
-229.088781
 21
775.9476349999999
 31
0.0
  0
ARC
  5
12D
330
828
100
AcDbEntity
  8
DETAIL
100
AcDbCircle
 10
-239.085658
 20
785.944512
 30
0.0
 40
9.996876999999999
100
AcDbArc
 50
0.0
 51
90.0
  0
LWPOLYLINE
  5
12E
330
828
100
AcDbEntity
  8
DETAIL
100
AcDbPolyline
 90
        9
 70
     0
 43
0.0
 10
-229.088781
 20
783.0164940000003
 10
-229.280868
 20
784.3955599999997
 10
-229.849748
 20
785.72163
 10
-230.773558
 20
786.943742
 10
-232.016798
 20
788.014933
 10
-233.53169
 20
788.894036
 10
-235.260018
 20
789.547269
 10
-237.135364
 20
789.949527
 10
-239.085658
 20
790.085354
  0
LINE
  5
139
330
828
100
AcDbEntity
  8
DETAIL
100
AcDbLine
 10
-229.088781
 20
745.9570049999999
 30
0.0
 11
-229.088781
 21
735.960128
 31
0.0
  0
ARC
  5
13A
330
828
100
AcDbEntity
  8
DETAIL
100
AcDbCircle
 10
-239.085658
 20
745.9570049999999
 30
0.0
 40
9.996876999999999
100
AcDbArc
 50
0.0
 51
90.0
  0
LWPOLYLINE
  5
13B
330
828
100
AcDbEntity
  8
DETAIL
100
AcDbPolyline
 90
        9
 70
     0
 43
0.0
 10
-229.088781
 20
743.028987
 10
-229.280868
 20
744.4080529999999
 10
-229.849748
 20
745.734123
 10
-230.773558
 20
746.956235
 10
-232.016798
 20
748.0274259999996
 10
-233.53169
 20
748.906529
 10
-235.260018
 20
749.5597619999998
 10
-237.135364
 20
749.96202
 10
-239.085658
 20
750.0978469999997
  0
LINE
  5
146
330
828
100
AcDbEntity
  8
DETAIL
100
AcDbLine
 10
-229.088781
 20
705.969498
 30
0.0
 11
-229.088781
 21
695.972621
 31
0.0
  0
ARC
  5
147
330
828
100
AcDbEntity
  8
DETAIL
100
AcDbCircle
 10
-239.085658
 20
705.969498
 30
0.0
 40
9.996876999999999
100
AcDbArc
 50
0.0
 51
90.0
  0
LWPOLYLINE
  5
148
330
828
100
AcDbEntity
  8
DETAIL
100
AcDbPolyline
 90
        9
 70
     0
 43
0.0
 10
-229.088781
 20
703.0414799999999
 10
-229.280868
 20
704.4205459999997
 10
-229.849748
 20
705.746616
 10
-230.773558
 20
706.9687280000001
 10
-232.016798
 20
708.039919
 10
-233.53169
 20
708.9190219999997
 10
-235.260018
 20
709.5722549999996
 10
-237.135364
 20
709.974514
 10
-239.085658
 20
710.11034
  0
LINE
  5
153
330
828
100
AcDbEntity
  8
DETAIL
100
AcDbLine
 10
-211.344886
 20
785.944512
 30
0.0
 11
-211.344886
 21
775.9476349999999
 31
0.0
  0
LINE
  5
154
330
828
100
AcDbEntity
  8
DETAIL
100
AcDbLine
 10
-211.344886
 20
745.9570049999999
 30
0.0
 11
-211.344886
 21
735.960128
 31
0.0
  0
LINE
  5
155
330
828
100
AcDbEntity
  8
DETAIL
100
AcDbLine
 10
-211.344886
 20
705.969498
 30
0.0
 11
-211.344886
 21
695.972621
 31
0.0
  0
LINE
  5
156
330
828
100
AcDbEntity
  8
DETAIL
100
AcDbLine
 10
-423.8207
 20
1125.648321
 30
0.0
 11
-423.8207
 21
1105.654567
 31
0.0
  0
LINE
  5
157
330
828
100
AcDbEntity
  8
DETAIL
100
AcDbLine
 10
-427.02694
 20
1016.002677
 30
0.0
 11
-229.088781
 21
1016.002677
 31
0.0
  0
LINE
  5
158
330
828
100
AcDbEntity
  8
DETAIL
100
AcDbLine
 10
-417.0300629999998
 20
1035.99643
 30
0.0
 11
-239.085658
 21
1035.99643
 31
0.0
  0
LINE
  5
159
330
828
100
AcDbEntity
  8
DETAIL
100
AcDbLine
 10
-239.085658
 20
1030.140395
 30
0.0
 11
-417.0300629999998
 21
1030.140395
 31
0.0
  0
LINE
  5
15A
330
828
100
AcDbEntity
  8
DETAIL
100
AcDbLine
 10
-427.02694
 20
975.8851700000001
 30
0.0
 11
-229.088781
 21
975.8851700000001
 31
0.0
  0
LINE
  5
15B
330
828
100
AcDbEntity
  8
DETAIL
100
AcDbLine
 10
-417.0300629999998
 20
995.878923
 30
0.0
 11
-239.085658
 21
995.878923
 31
0.0
  0
LINE
  5
15C
330
828
100
AcDbEntity
  8
DETAIL
100
AcDbLine
 10
-239.085658
 20
990.022888
 30
0.0
 11
-417.0300629999998
 21
990.022888
 31
0.0
  0
LINE
  5
15D
330
828
100
AcDbEntity
  8
DETAIL
100
AcDbLine
 10
-427.02694
 20
935.897663
 30
0.0
 11
-229.088781
 21
935.897663
 31
0.0
  0
LINE
  5
15E
330
828
100
AcDbEntity
  8
DETAIL
100
AcDbLine
 10
-417.0300629999998
 20
955.891416
 30
0.0
 11
-239.085658
 21
955.891416
 31
0.0
  0
LINE
  5
15F
330
828
100
AcDbEntity
  8
DETAIL
100
AcDbLine
 10
-239.085658
 20
950.035381
 30
0.0
 11
-417.0300629999998
 21
950.035381
 31
0.0
  0
LINE
  5
160
330
828
100
AcDbEntity
  8
DETAIL
100
AcDbLine
 10
-427.02694
 20
895.910156
 30
0.0
 11
-229.088781
 21
895.910156
 31
0.0
  0
LINE
  5
161
330
828
100
AcDbEntity
  8
DETAIL
100
AcDbLine
 10
-417.0300629999998
 20
915.903909
 30
0.0
 11
-239.085658
 21
915.903909
 31
0.0
  0
LINE
  5
162
330
828
100
AcDbEntity
  8
DETAIL
100
AcDbLine
 10
-239.085658
 20
910.0478739999999
 30
0.0
 11
-417.0300629999998
 21
910.0478739999999
 31
0.0
  0
LINE
  5
163
330
828
100
AcDbEntity
  8
DETAIL
100
AcDbLine
 10
-427.02694
 20
855.922649
 30
0.0
 11
-229.088781
 21
855.922649
 31
0.0
  0
LINE
  5
164
330
828
100
AcDbEntity
  8
DETAIL
100
AcDbLine
 10
-417.0300629999998
 20
875.916402
 30
0.0
 11
-239.085658
 21
875.916402
 31
0.0
  0
LINE
  5
165
330
828
100
AcDbEntity
  8
DETAIL
100
AcDbLine
 10
-239.085658
 20
870.0603670000001
 30
0.0
 11
-417.0300629999998
 21
870.0603670000001
 31
0.0
  0
LINE
  5
166
330
828
100
AcDbEntity
  8
DETAIL
100
AcDbLine
 10
-417.0300629999998
 20
835.9288949999999
 30
0.0
 11
-239.085658
 21
835.9288949999999
 31
0.0
  0
LINE
  5
167
330
828
100
AcDbEntity
  8
DETAIL
100
AcDbLine
 10
-239.085658
 20
830.072861
 30
0.0
 11
-417.0300629999998
 21
830.072861
 31
0.0
  0
LINE
  5
168
330
828
100
AcDbEntity
  8
DETAIL
100
AcDbLine
 10
-427.02694
 20
945.894539
 30
0.0
 11
-427.02694
 21
935.897663
 31
0.0
  0
ARC
  5
169
330
828
100
AcDbEntity
  8
DETAIL
100
AcDbCircle
 10
-417.0300629999998
 20
945.894539
 30
0.0
 40
9.996876999999999
100
AcDbArc
 50
90.0
 51
180.0
  0
LWPOLYLINE
  5
16A
330
828
100
AcDbEntity
  8
DETAIL
100
AcDbPolyline
 90
        9
 70
     0
 43
0.0
 10
-417.0300629999998
 20
950.035381
 10
-418.9803569999998
 20
949.8995550000001
 10
-420.8557029999998
 20
949.497297
 10
-422.5840309999998
 20
948.844064
 10
-424.0989230000001
 20
947.96496
 10
-425.342163
 20
946.8937699999999
 10
-426.265973
 20
945.6716569999999
 10
-426.8348529999998
 20
944.3455880000001
 10
-427.02694
 20
942.966522
  0
LINE
  5
175
330
828
100
AcDbEntity
  8
DETAIL
100
AcDbLine
 10
-427.02694
 20
905.9070329999999
 30
0.0
 11
-427.02694
 21
895.910156
 31
0.0
  0
ARC
  5
176
330
828
100
AcDbEntity
  8
DETAIL
100
AcDbCircle
 10
-417.0300629999998
 20
905.9070329999999
 30
0.0
 40
9.996876999999999
100
AcDbArc
 50
90.0
 51
180.0
  0
LWPOLYLINE
  5
177
330
828
100
AcDbEntity
  8
DETAIL
100
AcDbPolyline
 90
        9
 70
     0
 43
0.0
 10
-417.0300629999998
 20
910.0478739999999
 10
-418.9803569999998
 20
909.9120479999999
 10
-420.8557029999998
 20
909.50979
 10
-422.5840309999998
 20
908.856557
 10
-424.0989230000001
 20
907.9774529999999
 10
-425.342163
 20
906.9062629999999
 10
-426.265973
 20
905.68415
 10
-426.8348529999998
 20
904.3580809999999
 10
-427.02694
 20
902.979015
  0
LINE
  5
182
330
828
100
AcDbEntity
  8
DETAIL
100
AcDbLine
 10
-427.02694
 20
865.919526
 30
0.0
 11
-427.02694
 21
855.922649
 31
0.0
  0
ARC
  5
183
330
828
100
AcDbEntity
  8
DETAIL
100
AcDbCircle
 10
-417.0300629999998
 20
865.919526
 30
0.0
 40
9.996876999999999
100
AcDbArc
 50
90.0
 51
180.0
  0
LWPOLYLINE
  5
184
330
828
100
AcDbEntity
  8
DETAIL
100
AcDbPolyline
 90
        9
 70
     0
 43
0.0
 10
-417.0300629999998
 20
870.0603670000001
 10
-418.9803569999998
 20
869.9245409999999
 10
-420.8557029999998
 20
869.522283
 10
-422.5840309999998
 20
868.8690499999999
 10
-424.0989230000001
 20
867.989947
 10
-425.342163
 20
866.9187560000001
 10
-426.265973
 20
865.6966439999999
 10
-426.8348529999998
 20
864.3705739999997
 10
-427.02694
 20
862.9915079999998
  0
ARC
  5
18F
330
828
100
AcDbEntity
  8
DETAIL
100
AcDbCircle
 10
-417.0300629999998
 20
825.932019
 30
0.0
 40
9.996876999999999
100
AcDbArc
 50
90.0
 51
180.0
  0
LWPOLYLINE
  5
190
330
828
100
AcDbEntity
  8
DETAIL
100
AcDbPolyline
 90
        9
 70
     0
 43
0.0
 10
-417.0300629999998
 20
830.072861
 10
-418.9803569999998
 20
829.9370340000001
 10
-420.8557029999998
 20
829.534776
 10
-422.5840309999998
 20
828.8815429999997
 10
-424.0989230000001
 20
828.00244
 10
-425.342163
 20
826.931249
 10
-426.265973
 20
825.7091370000001
 10
-426.8348529999998
 20
824.3830669999999
 10
-427.02694
 20
823.0040009999999
  0
LINE
  5
19B
330
828
100
AcDbEntity
  8
DETAIL
100
AcDbLine
 10
-438.316172
 20
1104.65488
 30
0.0
 11
-438.316172
 21
1105.654567
 31
0.0
  0
LINE
  5
19C
330
828
100
AcDbEntity
  8
DETAIL
100
AcDbLine
 10
-438.316172
 20
1104.65488
 30
0.0
 11
-439.3158589999998
 21
1104.65488
 31
0.0
  0
LINE
  5
19D
330
828
100
AcDbEntity
  8
DETAIL
100
AcDbLine
 10
-427.02694
 20
1025.999553
 30
0.0
 11
-427.02694
 21
1016.002677
 31
0.0
  0
ARC
  5
19E
330
828
100
AcDbEntity
  8
DETAIL
100
AcDbCircle
 10
-417.0300629999998
 20
1025.999553
 30
0.0
 40
9.996876999999999
100
AcDbArc
 50
90.0
 51
180.0
  0
LWPOLYLINE
  5
19F
330
828
100
AcDbEntity
  8
DETAIL
100
AcDbPolyline
 90
        9
 70
     0
 43
0.0
 10
-417.0300629999998
 20
1030.140395
 10
-418.9803569999998
 20
1030.004569
 10
-420.8557029999998
 20
1029.60231
 10
-422.5840309999998
 20
1028.949078
 10
-424.0989230000001
 20
1028.069974
 10
-425.342163
 20
1026.998784
 10
-426.265973
 20
1025.776671
 10
-426.8348529999998
 20
1024.450602
 10
-427.02694
 20
1023.071536
  0
LINE
  5
1AA
330
828
100
AcDbEntity
  8
DETAIL
100
AcDbLine
 10
-427.02694
 20
985.882046
 30
0.0
 11
-427.02694
 21
975.8851700000001
 31
0.0
  0
ARC
  5
1AB
330
828
100
AcDbEntity
  8
DETAIL
100
AcDbCircle
 10
-417.0300629999998
 20
985.882046
 30
0.0
 40
9.996876999999999
100
AcDbArc
 50
90.0
 51
180.0
  0
LWPOLYLINE
  5
1AC
330
828
100
AcDbEntity
  8
DETAIL
100
AcDbPolyline
 90
        9
 70
     0
 43
0.0
 10
-417.0300629999998
 20
990.022888
 10
-418.9803569999998
 20
989.8870619999996
 10
-420.8557029999998
 20
989.484803
 10
-422.5840309999998
 20
988.831571
 10
-424.0989230000001
 20
987.952467
 10
-425.342163
 20
986.8812769999999
 10
-426.265973
 20
985.6591640000001
 10
-426.8348529999998
 20
984.333095
 10
-427.02694
 20
982.9540289999997
  0
ARC
  5
1B7
330
828
100
AcDbEntity
  8
DETAIL
100
AcDbCircle
 10
-201.348009
 20
945.894539
 30
0.0
 40
9.996876999999999
100
AcDbArc
 50
90.0
 51
180.0
  0
LWPOLYLINE
  5
1B8
330
828
100
AcDbEntity
  8
DETAIL
100
AcDbPolyline
 90
        9
 70
     0
 43
0.0
 10
-201.348009
 20
950.035381
 10
-203.298303
 20
949.8995550000001
 10
-205.173648
 20
949.497297
 10
-206.901976
 20
948.844064
 10
-208.416868
 20
947.96496
 10
-209.660108
 20
946.8937699999999
 10
-210.583919
 20
945.6716569999999
 10
-211.152799
 20
944.3455880000001
 10
-211.344886
 20
942.966522
  0
ARC
  5
1C3
330
828
100
AcDbEntity
  8
DETAIL
100
AcDbCircle
 10
-201.348009
 20
905.9070329999999
 30
0.0
 40
9.996876999999999
100
AcDbArc
 50
90.0
 51
180.0
  0
LWPOLYLINE
  5
1C4
330
828
100
AcDbEntity
  8
DETAIL
100
AcDbPolyline
 90
        9
 70
     0
 43
0.0
 10
-201.348009
 20
910.0478739999999
 10
-203.298303
 20
909.9120479999999
 10
-205.173648
 20
909.50979
 10
-206.901976
 20
908.856557
 10
-208.416868
 20
907.9774529999999
 10
-209.660108
 20
906.9062629999999
 10
-210.583919
 20
905.68415
 10
-211.152799
 20
904.3580809999999
 10
-211.344886
 20
902.979015
  0
ARC
  5
1CF
330
828
100
AcDbEntity
  8
DETAIL
100
AcDbCircle
 10
-201.348009
 20
865.919526
 30
0.0
 40
9.996876999999999
100
AcDbArc
 50
90.0
 51
180.0
  0
LWPOLYLINE
  5
1D0
330
828
100
AcDbEntity
  8
DETAIL
100
AcDbPolyline
 90
        9
 70
     0
 43
0.0
 10
-201.348009
 20
870.0603670000001
 10
-203.298303
 20
869.9245409999999
 10
-205.173648
 20
869.522283
 10
-206.901976
 20
868.8690499999999
 10
-208.416868
 20
867.989947
 10
-209.660108
 20
866.9187560000001
 10
-210.583919
 20
865.6966439999999
 10
-211.152799
 20
864.3705739999997
 10
-211.344886
 20
862.9915079999998
  0
ARC
  5
1DB
330
828
100
AcDbEntity
  8
DETAIL
100
AcDbCircle
 10
-201.348009
 20
825.932019
 30
0.0
 40
9.996876999999999
100
AcDbArc
 50
90.0
 51
180.0
  0
LWPOLYLINE
  5
1DC
330
828
100
AcDbEntity
  8
DETAIL
100
AcDbPolyline
 90
        9
 70
     0
 43
0.0
 10
-201.348009
 20
830.072861
 10
-203.298303
 20
829.9370340000001
 10
-205.173648
 20
829.534776
 10
-206.901976
 20
828.8815429999997
 10
-208.416868
 20
828.00244
 10
-209.660108
 20
826.931249
 10
-210.583919
 20
825.7091370000001
 10
-211.152799
 20
824.3830669999999
 10
-211.344886
 20
823.0040009999999
  0
LINE
  5
1E7
330
828
100
AcDbEntity
  8
DETAIL
100
AcDbLine
 10
-229.088781
 20
945.894539
 30
0.0
 11
-229.088781
 21
935.897663
 31
0.0
  0
ARC
  5
1E8
330
828
100
AcDbEntity
  8
DETAIL
100
AcDbCircle
 10
-239.085658
 20
945.894539
 30
0.0
 40
9.996876999999999
100
AcDbArc
 50
0.0
 51
90.0
  0
LWPOLYLINE
  5
1E9
330
828
100
AcDbEntity
  8
DETAIL
100
AcDbPolyline
 90
        9
 70
     0
 43
0.0
 10
-229.088781
 20
942.966522
 10
-229.280868
 20
944.3455880000001
 10
-229.849748
 20
945.6716569999999
 10
-230.773558
 20
946.8937699999999
 10
-232.016798
 20
947.96496
 10
-233.53169
 20
948.844064
 10
-235.260018
 20
949.497297
 10
-237.135364
 20
949.8995550000001
 10
-239.085658
 20
950.035381
  0
LINE
  5
1F4
330
828
100
AcDbEntity
  8
DETAIL
100
AcDbLine
 10
-229.088781
 20
905.9070329999999
 30
0.0
 11
-229.088781
 21
895.910156
 31
0.0
  0
ARC
  5
1F5
330
828
100
AcDbEntity
  8
DETAIL
100
AcDbCircle
 10
-239.085658
 20
905.9070329999999
 30
0.0
 40
9.996876999999999
100
AcDbArc
 50
0.0
 51
90.0
  0
LWPOLYLINE
  5
1F6
330
828
100
AcDbEntity
  8
DETAIL
100
AcDbPolyline
 90
        9
 70
     0
 43
0.0
 10
-229.088781
 20
902.979015
 10
-229.280868
 20
904.3580809999999
 10
-229.849748
 20
905.68415
 10
-230.773558
 20
906.9062629999999
 10
-232.016798
 20
907.9774529999999
 10
-233.53169
 20
908.856557
 10
-235.260018
 20
909.50979
 10
-237.135364
 20
909.9120479999999
 10
-239.085658
 20
910.0478739999999
  0
LINE
  5
201
330
828
100
AcDbEntity
  8
DETAIL
100
AcDbLine
 10
-229.088781
 20
865.919526
 30
0.0
 11
-229.088781
 21
855.922649
 31
0.0
  0
ARC
  5
202
330
828
100
AcDbEntity
  8
DETAIL
100
AcDbCircle
 10
-239.085658
 20
865.919526
 30
0.0
 40
9.996876999999999
100
AcDbArc
 50
0.0
 51
90.0
  0
LWPOLYLINE
  5
203
330
828
100
AcDbEntity
  8
DETAIL
100
AcDbPolyline
 90
        9
 70
     0
 43
0.0
 10
-229.088781
 20
862.9915079999998
 10
-229.280868
 20
864.3705739999997
 10
-229.849748
 20
865.6966439999999
 10
-230.773558
 20
866.9187560000001
 10
-232.016798
 20
867.989947
 10
-233.53169
 20
868.8690499999999
 10
-235.260018
 20
869.522283
 10
-237.135364
 20
869.9245409999999
 10
-239.085658
 20
870.0603670000001
  0
ARC
  5
20E
330
828
100
AcDbEntity
  8
DETAIL
100
AcDbCircle
 10
-239.085658
 20
825.932019
 30
0.0
 40
9.996876999999999
100
AcDbArc
 50
0.0
 51
90.0
  0
LWPOLYLINE
  5
20F
330
828
100
AcDbEntity
  8
DETAIL
100
AcDbPolyline
 90
        9
 70
     0
 43
0.0
 10
-229.088781
 20
823.0040009999999
 10
-229.280868
 20
824.3830669999999
 10
-229.849748
 20
825.7091370000001
 10
-230.773558
 20
826.931249
 10
-232.016798
 20
828.00244
 10
-233.53169
 20
828.8815429999997
 10
-235.260018
 20
829.534776
 10
-237.135364
 20
829.9370340000001
 10
-239.085658
 20
830.072861
  0
LINE
  5
21A
330
828
100
AcDbEntity
  8
DETAIL
100
AcDbLine
 10
-211.344886
 20
945.894539
 30
0.0
 11
-211.344886
 21
935.897663
 31
0.0
  0
LINE
  5
21B
330
828
100
AcDbEntity
  8
DETAIL
100
AcDbLine
 10
-211.344886
 20
905.9070329999999
 30
0.0
 11
-211.344886
 21
895.910156
 31
0.0
  0
LINE
  5
21C
330
828
100
AcDbEntity
  8
DETAIL
100
AcDbLine
 10
-211.344886
 20
865.919526
 30
0.0
 11
-211.344886
 21
855.922649
 31
0.0
  0
ARC
  5
21D
330
828
100
AcDbEntity
  8
DETAIL
100
AcDbCircle
 10
-201.348009
 20
1025.999553
 30
0.0
 40
9.996876999999999
100
AcDbArc
 50
90.0
 51
180.0
  0
LWPOLYLINE
  5
21E
330
828
100
AcDbEntity
  8
DETAIL
100
AcDbPolyline
 90
        9
 70
     0
 43
0.0
 10
-201.348009
 20
1030.140395
 10
-203.298303
 20
1030.004569
 10
-205.173648
 20
1029.60231
 10
-206.901976
 20
1028.949078
 10
-208.416868
 20
1028.069974
 10
-209.660108
 20
1026.998784
 10
-210.583919
 20
1025.776671
 10
-211.152799
 20
1024.450602
 10
-211.344886
 20
1023.071536
  0
ARC
  5
229
330
828
100
AcDbEntity
  8
DETAIL
100
AcDbCircle
 10
-201.348009
 20
985.882046
 30
0.0
 40
9.996876999999999
100
AcDbArc
 50
90.0
 51
180.0
  0
LWPOLYLINE
  5
22A
330
828
100
AcDbEntity
  8
DETAIL
100
AcDbPolyline
 90
        9
 70
     0
 43
0.0
 10
-201.348009
 20
990.022888
 10
-203.298303
 20
989.8870619999996
 10
-205.173648
 20
989.484803
 10
-206.901976
 20
988.831571
 10
-208.416868
 20
987.952467
 10
-209.660108
 20
986.8812769999999
 10
-210.583919
 20
985.6591640000001
 10
-211.152799
 20
984.333095
 10
-211.344886
 20
982.9540289999997
  0
LINE
  5
235
330
828
100
AcDbEntity
  8
DETAIL
100
AcDbLine
 10
-229.088781
 20
1025.999553
 30
0.0
 11
-229.088781
 21
1016.002677
 31
0.0
  0
ARC
  5
236
330
828
100
AcDbEntity
  8
DETAIL
100
AcDbCircle
 10
-239.085658
 20
1025.999553
 30
0.0
 40
9.996876999999999
100
AcDbArc
 50
0.0
 51
90.0
  0
LWPOLYLINE
  5
237
330
828
100
AcDbEntity
  8
DETAIL
100
AcDbPolyline
 90
        9
 70
     0
 43
0.0
 10
-229.088781
 20
1023.071536
 10
-229.280868
 20
1024.450602
 10
-229.849748
 20
1025.776671
 10
-230.773558
 20
1026.998784
 10
-232.016798
 20
1028.069974
 10
-233.53169
 20
1028.949078
 10
-235.260018
 20
1029.60231
 10
-237.135364
 20
1030.004569
 10
-239.085658
 20
1030.140395
  0
LINE
  5
242
330
828
100
AcDbEntity
  8
DETAIL
100
AcDbLine
 10
-229.088781
 20
985.882046
 30
0.0
 11
-229.088781
 21
975.8851700000001
 31
0.0
  0
ARC
  5
243
330
828
100
AcDbEntity
  8
DETAIL
100
AcDbCircle
 10
-239.085658
 20
985.882046
 30
0.0
 40
9.996876999999999
100
AcDbArc
 50
0.0
 51
90.0
  0
LWPOLYLINE
  5
244
330
828
100
AcDbEntity
  8
DETAIL
100
AcDbPolyline
 90
        9
 70
     0
 43
0.0
 10
-229.088781
 20
982.9540289999997
 10
-229.280868
 20
984.333095
 10
-229.849748
 20
985.6591640000001
 10
-230.773558
 20
986.8812769999999
 10
-232.016798
 20
987.952467
 10
-233.53169
 20
988.831571
 10
-235.260018
 20
989.484803
 10
-237.135364
 20
989.8870619999996
 10
-239.085658
 20
990.022888
  0
LINE
  5
24F
330
828
100
AcDbEntity
  8
DETAIL
100
AcDbLine
 10
-211.344886
 20
1025.999553
 30
0.0
 11
-211.344886
 21
1016.002677
 31
0.0
  0
LINE
  5
250
330
828
100
AcDbEntity
  8
DETAIL
100
AcDbLine
 10
-211.344886
 20
985.882046
 30
0.0
 11
-211.344886
 21
975.8851700000001
 31
0.0
  0
LINE
  5
251
330
828
100
AcDbEntity
  8
DETAIL
100
AcDbLine
 10
-439.015953
 20
1126.448071
 30
0.0
 11
-439.815703
 21
1126.448071
 31
0.0
  0
LINE
  5
252
330
828
100
AcDbEntity
  8
DETAIL
100
AcDbLine
 10
-439.015953
 20
1126.448071
 30
0.0
 11
-439.015953
 21
1125.648321
 31
0.0
  0
LINE
  5
253
330
828
100
AcDbEntity
  8
DETAIL
100
AcDbLine
 10
-490.0000239999998
 20
80.0
 30
0.0
 11
-490.0000239999998
 21
1650.0
 31
0.0
  0
LINE
  5
254
330
828
100
AcDbEntity
  8
DETAIL
100
AcDbLine
 10
-490.0000239999998
 20
1650.0
 30
0.0
 11
-442.015016
 21
1650.0
 31
0.0
  0
LINE
  5
255
330
828
100
AcDbEntity
  8
DETAIL
100
AcDbLine
 10
440.015641
 20
1650.0
 30
0.0
 11
440.015641
 21
1126.448071
 31
0.0
  0
LINE
  5
256
330
828
100
AcDbEntity
  8
DETAIL
100
AcDbLine
 10
440.5154849999998
 20
1104.65488
 30
0.0
 11
440.5154849999998
 21
595.813854
 31
0.0
  0
LINE
  5
257
330
828
100
AcDbEntity
  8
DETAIL
100
AcDbLine
 10
-13.406726
 20
825.932019
 30
0.0
 11
-13.406726
 21
815.935142
 31
0.0
  0
ARC
  5
258
330
828
100
AcDbEntity
  8
DETAIL
100
AcDbCircle
 10
-23.403603
 20
665.981991
 30
0.0
 40
9.996876999999999
100
AcDbArc
 50
0.0
 51
90.0
  0
LINE
  5
259
330
828
100
AcDbEntity
  8
DETAIL
100
AcDbLine
 10
439.5157969999998
 20
595.813854
 30
0.0
 11
439.5157969999998
 21
594.814166
 31
0.0
  0
LINE
  5
25A
330
828
100
AcDbEntity
  8
DETAIL
100
AcDbLine
 10
439.5157969999998
 20
595.813854
 30
0.0
 11
440.5154849999998
 21
595.813854
 31
0.0
  0
LINE
  5
25B
330
828
100
AcDbEntity
  8
DETAIL
100
AcDbLine
 10
439.215891
 20
593.9613009999998
 30
0.0
 11
439.215891
 21
594.7610509999996
 31
0.0
  0
LINE
  5
25C
330
828
100
AcDbEntity
  8
DETAIL
100
AcDbLine
 10
439.215891
 20
593.9613009999998
 30
0.0
 11
440.015641
 21
593.9613009999998
 31
0.0
  0
LINE
  5
25D
330
828
100
AcDbEntity
  8
DETAIL
100
AcDbLine
 10
-13.406726
 20
665.981991
 30
0.0
 11
-13.406726
 21
655.9851139999997
 31
0.0
  0
LWPOLYLINE
  5
25E
330
828
100
AcDbEntity
  8
DETAIL
100
AcDbPolyline
 90
        9
 70
     0
 43
0.0
 10
-13.406726
 20
663.053973
 10
-13.598813
 20
664.433039
 10
-14.167693
 20
665.7591089999997
 10
-15.091504
 20
666.9812209999999
 10
-16.334744
 20
668.052412
 10
-17.849636
 20
668.9315149999997
 10
-19.577964
 20
669.584748
 10
-21.453309
 20
669.9870070000002
 10
-23.403603
 20
670.122833
  0
LINE
  5
269
330
828
100
AcDbEntity
  8
DETAIL
100
AcDbLine
 10
-13.406726
 20
625.9944839999997
 30
0.0
 11
-13.406726
 21
615.9976069999999
 31
0.0
  0
ARC
  5
26A
330
828
100
AcDbEntity
  8
DETAIL
100
AcDbCircle
 10
-23.403603
 20
625.9944839999997
 30
0.0
 40
9.996876999999999
100
AcDbArc
 50
0.0
 51
90.0
  0
LWPOLYLINE
  5
26B
330
828
100
AcDbEntity
  8
DETAIL
100
AcDbPolyline
 90
        9
 70
     0
 43
0.0
 10
-13.406726
 20
623.066466
 10
-13.598813
 20
624.4455320000001
 10
-14.167693
 20
625.7716019999998
 10
-15.091504
 20
626.9937139999997
 10
-16.334744
 20
628.064905
 10
-17.849636
 20
628.944008
 10
-19.577964
 20
629.597241
 10
-21.453309
 20
629.9995
 10
-23.403603
 20
630.1353259999999
  0
LINE
  5
276
330
828
100
AcDbEntity
  8
DETAIL
100
AcDbLine
 10
-13.406726
 20
785.944512
 30
0.0
 11
-13.406726
 21
775.9476349999999
 31
0.0
  0
ARC
  5
277
330
828
100
AcDbEntity
  8
DETAIL
100
AcDbCircle
 10
-23.403603
 20
785.944512
 30
0.0
 40
9.996876999999999
100
AcDbArc
 50
0.0
 51
90.0
  0
LWPOLYLINE
  5
278
330
828
100
AcDbEntity
  8
DETAIL
100
AcDbPolyline
 90
        9
 70
     0
 43
0.0
 10
-13.406726
 20
783.0164940000003
 10
-13.598813
 20
784.3955599999997
 10
-14.167693
 20
785.72163
 10
-15.091504
 20
786.943742
 10
-16.334744
 20
788.014933
 10
-17.849636
 20
788.894036
 10
-19.577964
 20
789.547269
 10
-21.453309
 20
789.949527
 10
-23.403603
 20
790.085354
  0
LINE
  5
283
330
828
100
AcDbEntity
  8
DETAIL
100
AcDbLine
 10
-13.406726
 20
745.9570049999999
 30
0.0
 11
-13.406726
 21
735.960128
 31
0.0
  0
ARC
  5
284
330
828
100
AcDbEntity
  8
DETAIL
100
AcDbCircle
 10
-23.403603
 20
745.9570049999999
 30
0.0
 40
9.996876999999999
100
AcDbArc
 50
0.0
 51
90.0
  0
LWPOLYLINE
  5
285
330
828
100
AcDbEntity
  8
DETAIL
100
AcDbPolyline
 90
        9
 70
     0
 43
0.0
 10
-13.406726
 20
743.028987
 10
-13.598813
 20
744.4080529999999
 10
-14.167693
 20
745.734123
 10
-15.091504
 20
746.956235
 10
-16.334744
 20
748.0274259999996
 10
-17.849636
 20
748.906529
 10
-19.577964
 20
749.5597619999998
 10
-21.453309
 20
749.96202
 10
-23.403603
 20
750.0978469999997
  0
LINE
  5
290
330
828
100
AcDbEntity
  8
DETAIL
100
AcDbLine
 10
-13.406726
 20
705.969498
 30
0.0
 11
-13.406726
 21
695.972621
 31
0.0
  0
ARC
  5
291
330
828
100
AcDbEntity
  8
DETAIL
100
AcDbCircle
 10
-23.403603
 20
705.969498
 30
0.0
 40
9.996876999999999
100
AcDbArc
 50
0.0
 51
90.0
  0
LWPOLYLINE
  5
292
330
828
100
AcDbEntity
  8
DETAIL
100
AcDbPolyline
 90
        9
 70
     0
 43
0.0
 10
-13.406726
 20
703.0414799999999
 10
-13.598813
 20
704.4205459999997
 10
-14.167693
 20
705.746616
 10
-15.091504
 20
706.9687280000001
 10
-16.334744
 20
708.039919
 10
-17.849636
 20
708.9190219999997
 10
-19.577964
 20
709.5722549999996
 10
-21.453309
 20
709.974514
 10
-23.403603
 20
710.11034
  0
LINE
  5
29D
330
828
100
AcDbEntity
  8
DETAIL
100
AcDbLine
 10
424.020638
 20
1125.648321
 30
0.0
 11
424.020638
 21
1105.654567
 31
0.0
  0
LINE
  5
29E
330
828
100
AcDbEntity
  8
DETAIL
100
AcDbLine
 10
-13.406726
 20
945.894539
 30
0.0
 11
-13.406726
 21
935.897663
 31
0.0
  0
ARC
  5
29F
330
828
100
AcDbEntity
  8
DETAIL
100
AcDbCircle
 10
-23.403603
 20
945.894539
 30
0.0
 40
9.996876999999999
100
AcDbArc
 50
0.0
 51
90.0
  0
LWPOLYLINE
  5
2A0
330
828
100
AcDbEntity
  8
DETAIL
100
AcDbPolyline
 90
        9
 70
     0
 43
0.0
 10
-13.406726
 20
942.966522
 10
-13.598813
 20
944.3455880000001
 10
-14.167693
 20
945.6716569999999
 10
-15.091504
 20
946.8937699999999
 10
-16.334744
 20
947.96496
 10
-17.849636
 20
948.844064
 10
-19.577964
 20
949.497297
 10
-21.453309
 20
949.8995550000001
 10
-23.403603
 20
950.035381
  0
LINE
  5
2AB
330
828
100
AcDbEntity
  8
DETAIL
100
AcDbLine
 10
-13.406726
 20
905.9070329999999
 30
0.0
 11
-13.406726
 21
895.910156
 31
0.0
  0
ARC
  5
2AC
330
828
100
AcDbEntity
  8
DETAIL
100
AcDbCircle
 10
-23.403603
 20
905.9070329999999
 30
0.0
 40
9.996876999999999
100
AcDbArc
 50
0.0
 51
90.0
  0
LWPOLYLINE
  5
2AD
330
828
100
AcDbEntity
  8
DETAIL
100
AcDbPolyline
 90
        9
 70
     0
 43
0.0
 10
-13.406726
 20
902.979015
 10
-13.598813
 20
904.3580809999999
 10
-14.167693
 20
905.68415
 10
-15.091504
 20
906.9062629999999
 10
-16.334744
 20
907.9774529999999
 10
-17.849636
 20
908.856557
 10
-19.577964
 20
909.50979
 10
-21.453309
 20
909.9120479999999
 10
-23.403603
 20
910.0478739999999
  0
LINE
  5
2B8
330
828
100
AcDbEntity
  8
DETAIL
100
AcDbLine
 10
-13.406726
 20
865.919526
 30
0.0
 11
-13.406726
 21
855.922649
 31
0.0
  0
ARC
  5
2B9
330
828
100
AcDbEntity
  8
DETAIL
100
AcDbCircle
 10
-23.403603
 20
865.919526
 30
0.0
 40
9.996876999999999
100
AcDbArc
 50
0.0
 51
90.0
  0
LWPOLYLINE
  5
2BA
330
828
100
AcDbEntity
  8
DETAIL
100
AcDbPolyline
 90
        9
 70
     0
 43
0.0
 10
-13.406726
 20
862.9915079999998
 10
-13.598813
 20
864.3705739999997
 10
-14.167693
 20
865.6966439999999
 10
-15.091504
 20
866.9187560000001
 10
-16.334744
 20
867.989947
 10
-17.849636
 20
868.8690499999999
 10
-19.577964
 20
869.522283
 10
-21.453309
 20
869.9245409999999
 10
-23.403603
 20
870.0603670000001
  0
ARC
  5
2C5
330
828
100
AcDbEntity
  8
DETAIL
100
AcDbCircle
 10
-23.403603
 20
825.932019
 30
0.0
 40
9.996876999999999
100
AcDbArc
 50
0.0
 51
90.0
  0
LWPOLYLINE
  5
2C6
330
828
100
AcDbEntity
  8
DETAIL
100
AcDbPolyline
 90
        9
 70
     0
 43
0.0
 10
-13.406726
 20
823.0040009999999
 10
-13.598813
 20
824.3830669999999
 10
-14.167693
 20
825.7091370000001
 10
-15.091504
 20
826.931249
 10
-16.334744
 20
828.00244
 10
-17.849636
 20
828.8815429999997
 10
-19.577964
 20
829.534776
 10
-21.453309
 20
829.9370340000001
 10
-23.403603
 20
830.072861
  0
LINE
  5
2D1
330
828
100
AcDbEntity
  8
DETAIL
100
AcDbLine
 10
439.5157969999998
 20
1104.65488
 30
0.0
 11
439.5157969999998
 21
1105.654567
 31
0.0
  0
LINE
  5
2D2
330
828
100
AcDbEntity
  8
DETAIL
100
AcDbLine
 10
439.5157969999998
 20
1104.65488
 30
0.0
 11
440.5154849999998
 21
1104.65488
 31
0.0
  0
LINE
  5
2D3
330
828
100
AcDbEntity
  8
DETAIL
100
AcDbLine
 10
-13.406726
 20
1025.999553
 30
0.0
 11
-13.406726
 21
1016.002677
 31
0.0
  0
ARC
  5
2D4
330
828
100
AcDbEntity
  8
DETAIL
100
AcDbCircle
 10
-23.403603
 20
1025.999553
 30
0.0
 40
9.996876999999999
100
AcDbArc
 50
0.0
 51
90.0
  0
LWPOLYLINE
  5
2D5
330
828
100
AcDbEntity
  8
DETAIL
100
AcDbPolyline
 90
        9
 70
     0
 43
0.0
 10
-13.406726
 20
1023.071536
 10
-13.598813
 20
1024.450602
 10
-14.167693
 20
1025.776671
 10
-15.091504
 20
1026.998784
 10
-16.334744
 20
1028.069974
 10
-17.849636
 20
1028.949078
 10
-19.577964
 20
1029.60231
 10
-21.453309
 20
1030.004569
 10
-23.403603
 20
1030.140395
  0
LINE
  5
2E0
330
828
100
AcDbEntity
  8
DETAIL
100
AcDbLine
 10
-13.406726
 20
985.882046
 30
0.0
 11
-13.406726
 21
975.8851700000001
 31
0.0
  0
ARC
  5
2E1
330
828
100
AcDbEntity
  8
DETAIL
100
AcDbCircle
 10
-23.403603
 20
985.882046
 30
0.0
 40
9.996876999999999
100
AcDbArc
 50
0.0
 51
90.0
  0
LWPOLYLINE
  5
2E2
330
828
100
AcDbEntity
  8
DETAIL
100
AcDbPolyline
 90
        9
 70
     0
 43
0.0
 10
-13.406726
 20
982.9540289999997
 10
-13.598813
 20
984.333095
 10
-14.167693
 20
985.6591640000001
 10
-15.091504
 20
986.8812769999999
 10
-16.334744
 20
987.952467
 10
-17.849636
 20
988.831571
 10
-19.577964
 20
989.484803
 10
-21.453309
 20
989.8870619999996
 10
-23.403603
 20
990.022888
  0
LINE
  5
2ED
330
828
100
AcDbEntity
  8
DETAIL
100
AcDbLine
 10
439.215891
 20
1126.448071
 30
0.0
 11
440.015641
 21
1126.448071
 31
0.0
  0
LINE
  5
2EE
330
828
100
AcDbEntity
  8
DETAIL
100
AcDbLine
 10
439.215891
 20
1126.448071
 30
0.0
 11
439.215891
 21
1125.648321
 31
0.0
  0
LINE
  5
2EF
330
828
100
AcDbEntity
  8
DETAIL
100
AcDbLine
 10
439.215891
 20
1650.0
 30
0.0
 11
440.015641
 21
1650.0
 31
0.0
  0
LINE
  5
2F0
330
828
100
AcDbEntity
  8
DETAIL
100
AcDbLine
 10
490.0000239999998
 20
1650.0
 30
0.0
 11
442.015016
 21
1650.0
 31
0.0
  0
LINE
  5
2F1
330
828
100
AcDbEntity
  8
DETAIL
100
AcDbLine
 10
490.0000239999998
 20
1650.0
 30
0.0
 11
490.0000239999998
 21
80.774764
 31
0.0
  0
LINE
  5
2F2
330
828
100
AcDbEntity
  8
OUTLINE
100
AcDbLine
 10
490.0000239999998
 20
1650.0
 30
0.0
 11
490.0000239999998
 21
241.124667
 31
0.0
  0
LINE
  5
2F3
330
828
100
AcDbEntity
  8
OUTLINE
100
AcDbLine
 10
-490.0000239999998
 20
80.0
 30
0.0
 11
-490.0000239999998
 21
1650.0
 31
0.0
  0
LINE
  5
2F4
330
828
100
AcDbEntity
  8
OUTLINE
100
AcDbLine
 10
-481.0
 20
80.0
 30
0.0
 11
-490.0000239999998
 21
80.0
 31
0.0
  0
LINE
  5
2F5
330
828
100
AcDbEntity
  8
OUTLINE
100
AcDbLine
 10
481.0
 20
0.0
 30
0.0
 11
-480.6029599999998
 21
0.0
 31
0.0
  0
LINE
  5
2F6
330
828
100
AcDbEntity
  8
OUTLINE
100
AcDbLine
 10
-485.1015549999998
 20
4.498594999999999
 30
0.0
 11
-521.0
 21
4.498594999999999
 31
0.0
  0
LINE
  5
2F7
330
828
100
AcDbEntity
  8
OUTLINE
100
AcDbLine
 10
-521.0
 20
4.498594999999999
 30
0.0
 11
-521.0
 21
0.0
 31
0.0
  0
LINE
  5
2F8
330
828
100
AcDbEntity
  8
OUTLINE
100
AcDbLine
 10
-480.6029599999998
 20
0.0
 30
0.0
 11
-521.0
 21
0.0
 31
0.0
  0
LINE
  5
2F9
330
828
100
AcDbEntity
  8
OUTLINE
100
AcDbLine
 10
490.0000239999998
 20
261.918171
 30
0.0
 11
490.0000239999998
 21
241.124667
 31
0.0
  0
LINE
  5
2FA
330
828
100
AcDbEntity
  8
OUTLINE
100
AcDbLine
 10
521.0
 20
4.498594999999999
 30
0.0
 11
521.0
 21
0.0
 31
0.0
  0
LINE
  5
2FB
330
828
100
AcDbEntity
  8
OUTLINE
100
AcDbLine
 10
510.793528
 20
4.498594999999999
 30
0.0
 11
521.0
 21
4.498594999999999
 31
0.0
  0
LINE
  5
2FC
330
828
100
AcDbEntity
  8
OUTLINE
100
AcDbLine
 10
480.802898
 20
0.0
 30
0.0
 11
521.0
 21
0.0
 31
0.0
  0
LINE
  5
2FD
330
828
100
AcDbEntity
  8
OUTLINE
100
AcDbLine
 10
-485.1015549999998
 20
10.996564
 30
0.0
 11
-485.1015549999998
 21
4.498594999999999
 31
0.0
  0
LINE
  5
2FE
330
828
100
AcDbEntity
  8
OUTLINE
100
AcDbLine
 10
-481.0
 20
48.984696
 30
0.0
 11
-481.0
 21
79.975014
 31
0.0
  0
CIRCLE
  5
2FF
330
828
100
AcDbEntity
  8
FIX
100
AcDbCircle
 10
-507.0
 20
0.0
 30
0.0
 40
9.858928999999999
  0
LINE
  5
300
330
828
100
AcDbEntity
  8
NOTE
100
AcDbLine
 10
-507.0
 20
13.138752
 30
0.0
 11
-507.0
 21
-13.138752
 31
0.0
  0
LINE
  5
301
330
828
100
AcDbEntity
  8
NOTE
100
AcDbLine
 10
-493.861248
 20
0.0
 30
0.0
 11
-520.1387519999998
 21
0.0
 31
0.0
  0
LINE
  5
302
330
828
100
AcDbEntity
  8
NOTE
100
AcDbLine
 10
490.0000239999998
 20
158.633911
 30
0.0
 11
490.0000239999998
 21
101.366089
 31
0.0
  0
LINE
  5
303
330
828
100
AcDbEntity
  8
NOTE
100
AcDbLine
 10
518.633936
 20
130.0
 30
0.0
 11
461.3661129999998
 21
130.0
 31
0.0
  0
CIRCLE
  5
304
330
828
100
AcDbEntity
  8
FIX
100
AcDbCircle
 10
507.0
 20
0.0
 30
0.0
 40
9.858928999999999
  0
LINE
  5
305
330
828
100
AcDbEntity
  8
NOTE
100
AcDbLine
 10
520.1387519999998
 20
0.0
 30
0.0
 11
493.861248
 21
0.0
 31
0.0
  0
LINE
  5
306
330
828
100
AcDbEntity
  8
NOTE
100
AcDbLine
 10
507.0
 20
13.138752
 30
0.0
 11
507.0
 21
-13.138752
 31
0.0
  0
LINE
  5
307
330
828
100
AcDbEntity
  8
NOTE
100
AcDbLine
 10
502.796027
 20
56.125322
 30
0.0
 11
502.796027
 21
3.855937999999998
 31
0.0
  0
LINE
  5
308
330
828
100
AcDbEntity
  8
NOTE
100
AcDbLine
 10
528.930719
 20
30.0
 30
0.0
 11
476.6613349999998
 21
30.0
 31
0.0
  0
LINE
  5
309
330
828
100
AcDbEntity
  8
NOTE
100
AcDbLine
 10
-523.000024
 20
56.125322
 30
0.0
 11
-523.000024
 21
3.855937999999998
 31
0.0
  0
LINE
  5
30A
330
828
100
AcDbEntity
  8
NOTE
100
AcDbLine
 10
-496.865332
 20
30.0
 30
0.0
 11
-549.134716
 21
30.0
 31
0.0
  0
LINE
  5
30B
330
828
100
AcDbEntity
  8
NOTE
100
AcDbLine
 10
-490.0000239999998
 20
270.63641
 30
0.0
 11
-490.0000239999998
 21
229.36359
 31
0.0
  0
LINE
  5
30C
330
828
100
AcDbEntity
  8
NOTE
100
AcDbLine
 10
-510.6364339999998
 20
250.0
 30
0.0
 11
-469.363615
 21
250.0
 31
0.0
  0
LINE
  5
30D
330
828
100
AcDbEntity
  8
NOTE
100
AcDbLine
 10
-490.0000239999998
 20
210.63641
 30
0.0
 11
-490.0000239999998
 21
169.36359
 31
0.0
  0
LINE
  5
30E
330
828
100
AcDbEntity
  8
NOTE
100
AcDbLine
 10
-510.6364339999998
 20
190.0
 30
0.0
 11
-469.363615
 21
190.0
 31
0.0
  0
LINE
  5
30F
330
828
100
AcDbEntity
  8
NOTE
100
AcDbLine
 10
-518.633936
 20
130.0
 30
0.0
 11
-461.3661129999998
 21
130.0
 31
0.0
  0
LINE
  5
310
330
828
100
AcDbEntity
  8
NOTE
100
AcDbLine
 10
-490.0000239999998
 20
538.276499
 30
0.0
 11
-490.0000239999998
 21
471.7258629999998
 31
0.0
  0
LINE
  5
311
330
828
100
AcDbEntity
  8
NOTE
100
AcDbLine
 10
-456.7247059999998
 20
505.0011809999999
 30
0.0
 11
-523.275343
 21
505.0011809999999
 31
0.0
  0
LINE
  5
312
330
828
100
AcDbEntity
  8
NOTE
100
AcDbLine
 10
-672.582158
 20
900.424096
 30
0.0
 11
-490.0000239999998
 21
505.0011809999999
 31
0.0
  0
LINE
  5
313
330
828
100
AcDbEntity
  8
NOTE
100
AcDbLine
 10
-490.0000239999998
 20
505.0011809999999
 30
0.0
 11
-494.833116
 21
533.1518099999998
 31
0.0
  0
LINE
  5
314
330
828
100
AcDbEntity
  8
NOTE
100
AcDbLine
 10
-490.0000239999998
 20
505.0011809999999
 30
0.0
 11
-508.26092
 21
526.9637949999999
 31
0.0
  0
TEXT
  5
315
330
828
100
AcDbEntity
  8
NOTE
100
AcDbText
 10
-926.4217079999999
 20
912.5678629999999
 30
0.0
 40
50.0
  1
D1　Rc1
 50
0.000003
 41
0.6310000000000003
  7
STANDARD1
100
AcDbText
  0
LINE
  5
316
330
828
100
AcDbEntity
  8
NOTE
100
AcDbLine
 10
-1018.970158
 20
900.424096
 30
0.0
 11
-672.582158
 21
900.424096
 31
0.0
  0
TEXT
  5
317
330
828
100
AcDbEntity
  8
NOTE
100
AcDbText
 10
-988.7544719999999
 20
912.167739
 30
0.0
 40
50.0
  1
※
 50
0.000003
 41
0.6310000000000003
  7
STANDARD1
100
AcDbText
  0
LINE
  5
318
330
828
100
AcDbEntity
  8
NOTE
100
AcDbLine
 10
-1236.076711
 20
-532.1911899999999
 30
0.0
 11
-706.704323
 21
-532.1911899999999
 31
0.0
  0
TEXT
  5
319
330
828
100
AcDbEntity
  8
NOTE
100
AcDbText
 10
-1217.826488
 20
-517.909886
 30
0.0
 40
50.0
  1
AH　2×2-φ12（M10）
 50
0.000003
 41
0.6310000000000003
  7
STANDARD1
100
AcDbText
  0
LINE
  5
31A
330
828
100
AcDbEntity
  8
NOTE
100
AcDbLine
 10
-706.704323
 20
-532.1911899999999
 30
0.0
 11
-507.0
 21
0.0
 31
0.0
  0
LINE
  5
31B
330
828
100
AcDbEntity
  8
NOTE
100
AcDbLine
 10
-507.0
 20
0.0
 30
0.0
 11
-509.557624
 21
-28.44776400000001
 31
0.0
  0
LINE
  5
31C
330
828
100
AcDbEntity
  8
NOTE
100
AcDbLine
 10
-507.0
 20
0.0
 30
0.0
 11
-523.4388489999998
 21
-23.357674
 31
0.0
  0
LINE
  5
31D
330
828
100
AcDbEntity
  8
NOTE
100
AcDbLine
 10
-726.9128789999999
 20
433.2116019999999
 30
0.0
 11
-1020.005543
 21
433.2116019999999
 31
0.0
  0
LINE
  5
31E
330
828
100
AcDbEntity
  8
NOTE
100
AcDbLine
 10
-759.579283
 20
-155.502409
 30
0.0
 11
-1040.334207
 21
-155.502409
 31
0.0
  0
TEXT
  5
31F
330
828
100
AcDbEntity
  8
NOTE
100
AcDbText
 10
-943.5809179999999
 20
-141.221165
 30
0.0
 40
50.0
  1
EL3
 50
0.000003
 41
0.6310000000000003
  7
STANDARD1
100
AcDbText
  0
TEXT
  5
320
330
828
100
AcDbEntity
  8
NOTE
100
AcDbText
 10
-1008.547552
 20
-215.085669
 30
0.0
 40
50.0
  1
ﾉｯｸｱｳﾄφ43
 50
0.000003
 41
0.6310000000000003
  7
STANDARD1
100
AcDbText
  0
TEXT
  5
321
330
828
100
AcDbEntity
  8
NOTE
100
AcDbText
 10
-1015.627901
 20
447.675836
 30
0.0
 40
50.0
  1
EL2
 50
0.000003
 41
0.6310000000000003
  7
STANDARD1
100
AcDbText
  0
TEXT
  5
322
330
828
100
AcDbEntity
  8
NOTE
100
AcDbText
 10
-923.1745339999999
 20
440.833544
 30
0.0
 40
50.0
  1
ﾉｯｸｱｳﾄφ27
 50
0.000003
 41
0.6310000000000003
  7
STANDARD1
100
AcDbText
  0
LINE
  5
323
330
828
100
AcDbEntity
  8
NOTE
100
AcDbLine
 10
-724.734501
 20
719.018909
 30
0.0
 11
-1016.537299
 21
719.018909
 31
0.0
  0
TEXT
  5
324
330
828
100
AcDbEntity
  8
NOTE
100
AcDbText
 10
-982.0446249999999
 20
659.318558
 30
0.0
 40
50.0
  1
ﾉｯｸｱｳﾄφ27
 50
0.000003
 41
0.6310000000000003
  7
STANDARD1
100
AcDbText
  0
TEXT
  5
325
330
828
100
AcDbEntity
  8
NOTE
100
AcDbText
 10
-920.057423
 20
727.8613599999999
 30
0.0
 40
50.0
  1
EL1
 50
0.000003
 41
0.6310000000000003
  7
STANDARD1
100
AcDbText
  0
LINE
  5
326
330
828
100
AcDbEntity
  8
NOTE
100
AcDbLine
 10
-724.734501
 20
719.018909
 30
0.0
 11
-489.9523929999999
 21
249.943764
 31
0.0
  0
LINE
  5
327
330
828
100
AcDbEntity
  8
NOTE
100
AcDbLine
 10
-759.579283
 20
-155.502409
 30
0.0
 11
-490.0000239999998
 21
130.0
 31
0.0
  0
LINE
  5
328
330
828
100
AcDbEntity
  8
NOTE
100
AcDbLine
 10
-726.9128789999999
 20
433.2116019999999
 30
0.0
 11
-489.8815579999999
 21
189.987853
 31
0.0
  0
LINE
  5
329
330
828
100
AcDbEntity
  8
NOTE
100
AcDbLine
 10
-489.9523929999999
 20
249.943764
 30
0.0
 11
-495.6902809999998
 21
277.923995
 31
0.0
  0
LINE
  5
32A
330
828
100
AcDbEntity
  8
NOTE
100
AcDbLine
 10
-489.9523929999999
 20
249.943764
 30
0.0
 11
-508.911666
 21
271.30641
 31
0.0
  0
LINE
  5
32B
330
828
100
AcDbEntity
  8
NOTE
100
AcDbLine
 10
-489.8815579999999
 20
189.987853
 30
0.0
 11
-503.846346
 21
214.90374
 31
0.0
  0
LINE
  5
32C
330
828
100
AcDbEntity
  8
NOTE
100
AcDbLine
 10
-489.8815579999999
 20
189.987853
 30
0.0
 11
-514.433363
 21
204.583249
 31
0.0
  0
LINE
  5
32D
330
828
100
AcDbEntity
  8
NOTE
100
AcDbLine
 10
-490.0000239999998
 20
130.0
 30
0.0
 11
-503.5661199999998
 21
104.864811
 31
0.0
  0
LINE
  5
32E
330
828
100
AcDbEntity
  8
NOTE
100
AcDbLine
 10
-490.0000239999998
 20
130.0
 30
0.0
 11
-514.316203
 21
115.015336
 31
0.0
  0
LINE
  5
32F
330
828
100
AcDbEntity
  8
NOTE
100
AcDbLine
 10
-769.1665669999999
 20
-343.846781
 30
0.0
 11
-1052.367525
 21
-343.846781
 31
0.0
  0
TEXT
  5
330
330
828
100
AcDbEntity
  8
NOTE
100
AcDbText
 10
-972.4177789999997
 20
-332.313515
 30
0.0
 40
50.0
  1
D2　Rc1
 50
0.000003
 41
0.6310000000000003
  7
STANDARD1
100
AcDbText
  0
TEXT
  5
331
330
828
100
AcDbEntity
  8
NOTE
100
AcDbText
 10
-1032.401833
 20
-334.974964
 30
0.0
 40
50.0
  1
※
 50
0.000003
 41
0.6310000000000003
  7
STANDARD1
100
AcDbText
  0
LINE
  5
332
330
828
100
AcDbEntity
  8
NOTE
100
AcDbLine
 10
-769.1665669999999
 20
-343.846781
 30
0.0
 11
-523.000024
 21
29.99063
 31
0.0
  0
LINE
  5
333
330
828
100
AcDbEntity
  8
NOTE
100
AcDbLine
 10
-523.000024
 20
29.99063
 30
0.0
 11
-544.1740269999996
 21
10.820907
 31
0.0
  0
LINE
  5
334
330
828
100
AcDbEntity
  8
NOTE
100
AcDbLine
 10
-523.000024
 20
29.99063
 30
0.0
 11
-531.752387
 21
2.802160999999999
 31
0.0
  0
LINE
  5
335
330
828
100
AcDbEntity
  8
NOTE
100
AcDbLine
 10
627.2398139999998
 20
-329.074691
 30
0.0
 11
887.7259699999997
 21
-329.074691
 31
0.0
  0
TEXT
  5
336
330
828
100
AcDbEntity
  8
NOTE
100
AcDbText
 10
657.7302599999998
 20
-317.541425
 30
0.0
 40
50.0
  1
D4　Rc1
 50
0.000003
 41
0.6310000000000003
  7
STANDARD1
100
AcDbText
  0
LINE
  5
337
330
828
100
AcDbEntity
  8
NOTE
100
AcDbLine
 10
627.2398139999998
 20
-329.074691
 30
0.0
 11
502.798669
 21
29.99962
 31
0.0
  0
LINE
  5
338
330
828
100
AcDbEntity
  8
NOTE
100
AcDbLine
 10
502.798669
 20
29.99962
 30
0.0
 11
518.5605699999999
 21
6.179897
 31
0.0
  0
LINE
  5
339
330
828
100
AcDbEntity
  8
NOTE
100
AcDbLine
 10
502.798669
 20
29.99962
 30
0.0
 11
504.5390139999998
 21
1.490183999999999
 31
0.0
  0
LINE
  5
33A
330
828
100
AcDbEntity
  8
NOTE
100
AcDbLine
 10
510.6364339999998
 20
250.0
 30
0.0
 11
469.363615
 21
250.0
 31
0.0
  0
LINE
  5
33B
330
828
100
AcDbEntity
  8
NOTE
100
AcDbLine
 10
490.0000239999998
 20
270.63641
 30
0.0
 11
490.0000239999998
 21
229.36359
 31
0.0
  0
LINE
  5
33C
330
828
100
AcDbEntity
  8
NOTE
100
AcDbLine
 10
510.6364339999998
 20
190.0
 30
0.0
 11
469.363615
 21
190.0
 31
0.0
  0
LINE
  5
33D
330
828
100
AcDbEntity
  8
NOTE
100
AcDbLine
 10
490.0000239999998
 20
210.63641
 30
0.0
 11
490.0000239999998
 21
169.36359
 31
0.0
  0
TEXT
  5
33E
330
828
100
AcDbEntity
  8
NOTE
100
AcDbText
 10
924.410825
 20
619.190149
 30
0.0
 40
50.0
  1
EL6
 50
0.000003
 41
0.6310000000000003
  7
STANDARD1
100
AcDbText
  0
LINE
  5
33F
330
828
100
AcDbEntity
  8
NOTE
100
AcDbLine
 10
833.0564199999999
 20
612.0539919999997
 30
0.0
 11
1104.049511
 21
612.0539919999997
 31
0.0
  0
TEXT
  5
340
330
828
100
AcDbEntity
  8
NOTE
100
AcDbText
 10
866.857176
 20
547.1355919999998
 30
0.0
 40
50.0
  1
ﾉｯｸｱｳﾄφ43
 50
0.000003
 41
0.6310000000000003
  7
STANDARD1
100
AcDbText
  0
LINE
  5
341
330
828
100
AcDbEntity
  8
NOTE
100
AcDbLine
 10
847.740298
 20
777.052133
 30
0.0
 11
1103.149144
 21
777.052133
 31
0.0
  0
TEXT
  5
342
330
828
100
AcDbEntity
  8
NOTE
100
AcDbText
 10
871.728418
 20
712.8452129999997
 30
0.0
 40
50.0
  1
ﾉｯｸｱｳﾄφ27
 50
0.000003
 41
0.6310000000000003
  7
STANDARD1
100
AcDbText
  0
TEXT
  5
343
330
828
100
AcDbEntity
  8
NOTE
100
AcDbText
 10
917.1762949999999
 20
787.646687
 30
0.0
 40
50.0
  1
EL5
 50
0.000003
 41
0.6310000000000003
  7
STANDARD1
100
AcDbText
  0
LINE
  5
344
330
828
100
AcDbEntity
  8
NOTE
100
AcDbLine
 10
852.0103070000001
 20
939.671651
 30
0.0
 11
1101.693324
 21
939.671651
 31
0.0
  0
TEXT
  5
345
330
828
100
AcDbEntity
  8
NOTE
100
AcDbText
 10
868.200006
 20
876.5245769999996
 30
0.0
 40
50.0
  1
ﾉｯｸｱｳﾄφ27
 50
0.000003
 41
0.6310000000000003
  7
STANDARD1
100
AcDbText
  0
TEXT
  5
346
330
828
100
AcDbEntity
  8
NOTE
100
AcDbText
 10
918.177694
 20
948.514102
 30
0.0
 40
50.0
  1
EL4
 50
0.000003
 41
0.6310000000000003
  7
STANDARD1
100
AcDbText
  0
LINE
  5
347
330
828
100
AcDbEntity
  8
NOTE
100
AcDbLine
 10
847.740298
 20
777.052133
 30
0.0
 11
490.0000239999998
 21
189.95268
 31
0.0
  0
LINE
  5
348
330
828
100
AcDbEntity
  8
NOTE
100
AcDbLine
 10
833.0564199999999
 20
612.0539919999997
 30
0.0
 11
490.0000239999998
 21
130.0
 31
0.0
  0
LINE
  5
349
330
828
100
AcDbEntity
  8
NOTE
100
AcDbLine
 10
852.0103070000001
 20
939.671651
 30
0.0
 11
490.0000239999998
 21
250.0
 31
0.0
  0
LINE
  5
34A
330
828
100
AcDbEntity
  8
NOTE
100
AcDbLine
 10
490.0000239999998
 20
250.0
 30
0.0
 11
496.2515259999998
 21
277.869973
 31
0.0
  0
LINE
  5
34B
330
828
100
AcDbEntity
  8
NOTE
100
AcDbLine
 10
490.0000239999998
 20
250.0
 30
0.0
 11
509.34897
 21
271.010354
 31
0.0
  0
LINE
  5
34C
330
828
100
AcDbEntity
  8
NOTE
100
AcDbLine
 10
490.0000239999998
 20
189.95268
 30
0.0
 11
497.96765
 21
217.381381
 31
0.0
  0
LINE
  5
34D
330
828
100
AcDbEntity
  8
NOTE
100
AcDbLine
 10
490.0000239999998
 20
189.95268
 30
0.0
 11
510.614541
 21
209.722818
 31
0.0
  0
LINE
  5
34E
330
828
100
AcDbEntity
  8
NOTE
100
AcDbLine
 10
490.0000239999998
 20
130.0
 30
0.0
 11
500.0802639999998
 21
156.724623
 31
0.0
  0
LINE
  5
34F
330
828
100
AcDbEntity
  8
NOTE
100
AcDbLine
 10
490.0000239999998
 20
130.0
 30
0.0
 11
512.09208
 21
148.104082
 31
0.0
  0
LINE
  5
350
330
828
100
AcDbEntity
  8
NOTE
100
AcDbLine
 10
523.275343
 20
505.0
 30
0.0
 11
456.7247059999998
 21
505.0
 31
0.0
  0
LINE
  5
351
330
828
100
AcDbEntity
  8
NOTE
100
AcDbLine
 10
490.0000239999998
 20
538.2753179999999
 30
0.0
 11
490.0000239999998
 21
471.724682
 31
0.0
  0
LINE
  5
352
330
828
100
AcDbEntity
  8
NOTE
100
AcDbLine
 10
856.885499
 20
1106.461256
 30
0.0
 11
490.0000239999998
 21
505.0
 31
0.0
  0
TEXT
  5
353
330
828
100
AcDbEntity
  8
NOTE
100
AcDbText
 10
884.273409
 20
1117.902972
 30
0.0
 40
50.0
  1
D3　Rc1
 50
359.999997
 41
0.6310000000000003
  7
STANDARD1
100
AcDbText
  0
LINE
  5
354
330
828
100
AcDbEntity
  8
NOTE
100
AcDbLine
 10
490.0000239999998
 20
505.0
 30
0.0
 11
498.0493559999998
 21
532.4048349999998
 31
0.0
  0
LINE
  5
355
330
828
100
AcDbEntity
  8
NOTE
100
AcDbLine
 10
490.0000239999998
 20
505.0
 30
0.0
 11
510.6733669999998
 21
524.708617
 31
0.0
  0
LINE
  5
356
330
828
100
AcDbEntity
  8
NOTE
100
AcDbLine
 10
856.885499
 20
1106.461256
 30
0.0
 11
1095.839699
 21
1106.461256
 31
0.0
  0
LINE
  5
357
330
828
100
AcDbEntity
  8
NOTE
100
AcDbLine
 10
-490.0000239999998
 20
158.633911
 30
0.0
 11
-490.0000239999998
 21
101.366089
 31
0.0
  0
LINE
  5
358
330
828
100
AcDbEntity
  8
SIZE
100
AcDbLine
 10
500.802898
 20
0.0
 30
0.0
 11
941.340414
 21
0.0
 31
0.0
  0
LINE
  5
359
330
828
100
AcDbEntity
  8
SIZE
100
AcDbLine
 10
510.0000239999998
 20
130.0
 30
0.0
 11
941.340414
 21
130.0
 31
0.0
  0
LINE
  5
35A
330
828
100
AcDbEntity
  8
SIZE
100
AcDbLine
 10
911.340414
 20
120.0
 30
0.0
 11
911.340414
 21
10.0
 31
0.0
  0
LINE
  5
35B
330
828
100
AcDbEntity
  8
SIZE
100
AcDbLine
 10
911.340414
 20
0.0
 30
0.0
 11
911.340414
 21
-187.142857
 31
0.0
  0
CIRCLE
  5
35C
330
828
100
AcDbEntity
  8
SIZE
100
AcDbCircle
 10
911.340414
 20
130.0
 30
0.0
 40
5.0
  0
LINE
  5
35D
330
828
100
AcDbEntity
  8
SIZE
100
AcDbLine
 10
911.340414
 20
125.0
 30
0.0
 11
911.340414
 21
120.0
 31
0.0
  0
CIRCLE
  5
35E
330
828
100
AcDbEntity
  8
SIZE
100
AcDbCircle
 10
911.340414
 20
0.0
 30
0.0
 40
5.0
  0
LINE
  5
35F
330
828
100
AcDbEntity
  8
SIZE
100
AcDbLine
 10
911.340414
 20
5.0
 30
0.0
 11
911.340414
 21
10.0
 31
0.0
  0
TEXT
  5
360
330
828
100
AcDbEntity
  8
SIZE
100
AcDbText
 10
891.340414
 20
-167.1428575714285
 30
0.0
 40
64.0
  1
130
 50
90.0
 41
0.9
 72
     1
 11
891.340414
 21
-98.57142899999999
 31
0.0
100
AcDbText
  0
LINE
  5
364
330
828
100
AcDbEntity
  8
SIZE
100
AcDbLine
 10
510.0000239999998
 20
130.0
 30
0.0
 11
941.340414
 21
130.0
 31
0.0
  0
LINE
  5
365
330
828
100
AcDbEntity
  8
SIZE
100
AcDbLine
 10
510.0000239999998
 20
190.0
 30
0.0
 11
941.340414
 21
190.0
 31
0.0
  0
LINE
  5
366
330
828
100
AcDbEntity
  8
SIZE
100
AcDbLine
 10
911.340414
 20
120.0
 30
0.0
 11
911.340414
 21
110.0
 31
0.0
  0
LINE
  5
367
330
828
100
AcDbEntity
  8
SIZE
100
AcDbLine
 10
911.340414
 20
200.0
 30
0.0
 11
911.340414
 21
210.0
 31
0.0
  0
LINE
  5
368
330
828
100
AcDbEntity
  8
SIZE
100
AcDbLine
 10
911.340414
 20
160.0
 30
0.0
 11
1074.92003
 21
216.440519
 31
0.0
  0
LINE
  5
369
330
828
100
AcDbEntity
  8
SIZE
100
AcDbLine
 10
1074.92003
 20
216.440519
 30
0.0
 11
1074.92003
 21
349.697662
 31
0.0
  0
TEXT
  5
36A
330
828
100
AcDbEntity
  8
SIZE
100
AcDbText
 10
1054.92003
 20
236.4405185714286
 30
0.0
 40
64.0
  1
60
 50
90.0
 41
0.9
 72
     1
 11
1054.92003
 21
283.06909
 31
0.0
100
AcDbText
  0
LINE
  5
36B
330
828
100
AcDbEntity
  8
SIZE
100
AcDbLine
 10
911.340414
 20
130.0
 30
0.0
 11
911.340414
 21
190.0
 31
0.0
  0
LINE
  5
36C
330
828
100
AcDbEntity
  8
SIZE
100
AcDbLine
 10
911.340414
 20
130.0
 30
0.0
 11
911.340414
 21
190.0
 31
0.0
  0
CIRCLE
  5
36D
330
828
100
AcDbEntity
  8
SIZE
100
AcDbCircle
 10
911.340414
 20
130.0
 30
0.0
 40
5.0
  0
LINE
  5
36E
330
828
100
AcDbEntity
  8
SIZE
100
AcDbLine
 10
911.340414
 20
125.0
 30
0.0
 11
911.340414
 21
120.0
 31
0.0
  0
CIRCLE
  5
36F
330
828
100
AcDbEntity
  8
SIZE
100
AcDbCircle
 10
911.340414
 20
190.0
 30
0.0
 40
5.0
  0
LINE
  5
370
330
828
100
AcDbEntity
  8
SIZE
100
AcDbLine
 10
911.340414
 20
195.0
 30
0.0
 11
911.340414
 21
200.0
 31
0.0
  0
LINE
  5
374
330
828
100
AcDbEntity
  8
SIZE
100
AcDbLine
 10
510.0000239999998
 20
190.0
 30
0.0
 11
941.340414
 21
190.0
 31
0.0
  0
LINE
  5
375
330
828
100
AcDbEntity
  8
SIZE
100
AcDbLine
 10
511.18687
 20
250.0
 30
0.0
 11
941.340414
 21
250.0
 31
0.0
  0
LINE
  5
376
330
828
100
AcDbEntity
  8
SIZE
100
AcDbLine
 10
911.340414
 20
200.0
 30
0.0
 11
911.340414
 21
240.0
 31
0.0
  0
LINE
  5
377
330
828
100
AcDbEntity
  8
SIZE
100
AcDbLine
 10
911.340414
 20
401.2883569999998
 30
0.0
 11
911.340414
 21
250.0
 31
0.0
  0
TEXT
  5
378
330
828
100
AcDbEntity
  8
SIZE
100
AcDbText
 10
891.340414
 20
288.0312135714286
 30
0.0
 40
64.0
  1
60
 50
90.0
 41
0.9
 72
     1
 11
891.340414
 21
334.659785
 31
0.0
100
AcDbText
  0
CIRCLE
  5
379
330
828
100
AcDbEntity
  8
SIZE
100
AcDbCircle
 10
911.340414
 20
190.0
 30
0.0
 40
5.0
  0
LINE
  5
37A
330
828
100
AcDbEntity
  8
SIZE
100
AcDbLine
 10
911.340414
 20
195.0
 30
0.0
 11
911.340414
 21
200.0
 31
0.0
  0
CIRCLE
  5
37B
330
828
100
AcDbEntity
  8
SIZE
100
AcDbCircle
 10
911.340414
 20
250.0
 30
0.0
 40
5.0
  0
LINE
  5
37C
330
828
100
AcDbEntity
  8
SIZE
100
AcDbLine
 10
911.340414
 20
245.0
 30
0.0
 11
911.340414
 21
240.0
 31
0.0
  0
LINE
  5
380
330
828
100
AcDbEntity
  8
SIZE
100
AcDbLine
 10
500.802898
 20
0.0
 30
0.0
 11
1271.607932
 21
0.0
 31
0.0
  0
LINE
  5
381
330
828
100
AcDbEntity
  8
SIZE
100
AcDbLine
 10
510.0000239999998
 20
505.0
 30
0.0
 11
1271.607932
 21
505.0
 31
0.0
  0
LINE
  5
382
330
828
100
AcDbEntity
  8
SIZE
100
AcDbLine
 10
1241.607932
 20
10.0
 30
0.0
 11
1241.607932
 21
495.0
 31
0.0
  0
CIRCLE
  5
383
330
828
100
AcDbEntity
  8
SIZE
100
AcDbCircle
 10
1241.607932
 20
0.0
 30
0.0
 40
5.0
  0
LINE
  5
384
330
828
100
AcDbEntity
  8
SIZE
100
AcDbLine
 10
1241.607932
 20
5.0
 30
0.0
 11
1241.607932
 21
10.0
 31
0.0
  0
CIRCLE
  5
385
330
828
100
AcDbEntity
  8
SIZE
100
AcDbCircle
 10
1241.607932
 20
505.0
 30
0.0
 40
5.0
  0
LINE
  5
386
330
828
100
AcDbEntity
  8
SIZE
100
AcDbLine
 10
1241.607932
 20
500.0
 30
0.0
 11
1241.607932
 21
495.0
 31
0.0
  0
TEXT
  5
387
330
828
100
AcDbEntity
  8
SIZE
100
AcDbText
 10
1221.607932
 20
178.4428571428571
 30
0.0
 40
64.0
  1
505
 50
90.0
 41
0.9
 72
     1
 11
1221.607932
 21
252.5
 31
0.0
100
AcDbText
  0
LINE
  5
38B
330
828
100
AcDbEntity
  8
BASIS
100
AcDbLine
 10
0.0
 20
1817.047817
 30
0.0
 11
0.0
 21
-97.727388
 31
0.0
  0
TEXT
  5
38C
330
828
100
AcDbEntity
  8
ETC
100
AcDbText
 10
-1539.513729
 20
2138.403872
 30
0.0
 40
90.0
  1
KFH-P5A1_DUCT_2
 50
359.999997
 41
0.6030590000000001
  7
STANDARD1
100
AcDbText
  0
TEXT
  5
38D
330
828
100
AcDbEntity
  8
NOTE
100
AcDbText
 10
-1039.559492
 20
-423.4044029999997
 30
0.0
 40
50.0
  1
【※はプラグ付】
 50
359.999997
 41
0.6310000000000003
  7
STANDARD1
100
AcDbText
  0
LINE
  5
38E
330
828
100
AcDbEntity
  8
OUTLINE
100
AcDbLine
 10
490.0000239999998
 20
79.975014
 30
0.0
 11
490.0000239999998
 21
241.124667
 31
0.0
  0
LINE
  5
38F
330
828
100
AcDbEntity
  8
OUTLINE
100
AcDbLine
 10
481.0
 20
79.97524300000002
 30
0.0
 11
481.0
 21
34.989069
 31
0.0
  0
LINE
  5
390
330
828
100
AcDbEntity
  8
OUTLINE
100
AcDbLine
 10
481.0
 20
34.989069
 30
0.0
 11
485.3014919999998
 21
34.989069
 31
0.0
  0
LINE
  5
391
330
828
100
AcDbEntity
  8
OUTLINE
100
AcDbLine
 10
485.3014919999998
 20
34.989069
 30
0.0
 11
485.3014919999998
 21
4.498594999999999
 31
0.0
  0
LINE
  5
392
330
828
100
AcDbEntity
  8
OUTLINE
100
AcDbLine
 10
485.3014919999998
 20
4.498594999999999
 30
0.0
 11
510.793528
 21
4.498594999999999
 31
0.0
  0
LINE
  5
393
330
828
100
AcDbEntity
  8
OUTLINE
100
AcDbLine
 10
-481.0
 20
48.984696
 30
0.0
 11
-481.0
 21
34.989069
 31
0.0
  0
LINE
  5
394
330
828
100
AcDbEntity
  8
OUTLINE
100
AcDbLine
 10
-481.0
 20
34.989069
 30
0.0
 11
-485.1015549999998
 21
34.989069
 31
0.0
  0
LINE
  5
395
330
828
100
AcDbEntity
  8
OUTLINE
100
AcDbLine
 10
-485.1015549999998
 20
34.989069
 30
0.0
 11
-485.1015549999998
 21
10.996564
 31
0.0
  0
TEXT
  5
396
330
828
100
AcDbEntity
  8
NOTE
100
AcDbText
 10
-1012.134926
 20
832.7333239999997
 30
0.0
 40
50.0
  1
【※はプラグ付】
 50
359.999997
 41
0.6310000000000003
  7
STANDARD1
100
AcDbText
  0
LINE
  5
397
330
828
100
AcDbEntity
  8
DETAIL
100
AcDbLine
 10
24.45173
 20
630.116249
 30
0.0
 11
202.39597
 21
629.872515
 31
0.0
  0
LINE
  5
398
330
828
100
AcDbEntity
  8
DETAIL
100
AcDbLine
 10
202.403991
 20
635.728544
 30
0.0
 11
24.459752
 21
635.9722780000002
 31
0.0
  0
LINE
  5
399
330
828
100
AcDbEntity
  8
DETAIL
100
AcDbLine
 10
212.373472
 20
615.7211160000001
 30
0.0
 11
14.435498
 21
615.992236
 31
0.0
  0
LINE
  5
39A
330
828
100
AcDbEntity
  8
DETAIL
100
AcDbLine
 10
24.506502
 20
670.103718
 30
0.0
 11
202.450741
 21
669.8599839999998
 31
0.0
  0
LINE
  5
39B
330
828
100
AcDbEntity
  8
DETAIL
100
AcDbLine
 10
202.458762
 20
675.7160139999997
 30
0.0
 11
24.514523
 21
675.959748
 31
0.0
  0
LINE
  5
39C
330
828
100
AcDbEntity
  8
DETAIL
100
AcDbLine
 10
212.428244
 20
655.708586
 30
0.0
 11
14.49027
 21
655.979706
 31
0.0
  0
LINE
  5
39D
330
828
100
AcDbEntity
  8
DETAIL
100
AcDbLine
 10
24.561274
 20
710.0911879999999
 30
0.0
 11
202.505513
 21
709.8474539999998
 31
0.0
  0
LINE
  5
39E
330
828
100
AcDbEntity
  8
DETAIL
100
AcDbLine
 10
202.513534
 20
715.703483
 30
0.0
 11
24.569295
 21
715.947217
 31
0.0
  0
LINE
  5
39F
330
828
100
AcDbEntity
  8
DETAIL
100
AcDbLine
 10
212.483016
 20
695.6960549999997
 30
0.0
 11
14.545042
 21
695.967175
 31
0.0
  0
LINE
  5
3A0
330
828
100
AcDbEntity
  8
DETAIL
100
AcDbLine
 10
24.616046
 20
750.078657
 30
0.0
 11
202.560285
 21
749.834923
 31
0.0
  0
LINE
  5
3A1
330
828
100
AcDbEntity
  8
DETAIL
100
AcDbLine
 10
202.568306
 20
755.6909519999996
 30
0.0
 11
24.624067
 21
755.934686
 31
0.0
  0
LINE
  5
3A2
330
828
100
AcDbEntity
  8
DETAIL
100
AcDbLine
 10
212.537787
 20
735.683525
 30
0.0
 11
14.599813
 21
735.954645
 31
0.0
  0
LINE
  5
3A3
330
828
100
AcDbEntity
  8
DETAIL
100
AcDbLine
 10
24.670817
 20
790.0661269999996
 30
0.0
 11
202.615056
 21
789.8223929999996
 31
0.0
  0
LINE
  5
3A4
330
828
100
AcDbEntity
  8
DETAIL
100
AcDbLine
 10
202.623077
 20
795.6784219999997
 30
0.0
 11
24.678838
 21
795.9221559999997
 31
0.0
  0
LINE
  5
3A5
330
828
100
AcDbEntity
  8
DETAIL
100
AcDbLine
 10
212.592559
 20
775.6709940000003
 30
0.0
 11
14.654585
 21
775.9421139999997
 31
0.0
  0
LINE
  5
3A6
330
828
100
AcDbEntity
  8
DETAIL
100
AcDbLine
 10
24.72558900000001
 20
830.0535959999999
 30
0.0
 11
202.669828
 21
829.8098620000001
 31
0.0
  0
LINE
  5
3A7
330
828
100
AcDbEntity
  8
DETAIL
100
AcDbLine
 10
202.677849
 20
835.665891
 30
0.0
 11
24.73361000000001
 21
835.909625
 31
0.0
  0
LINE
  5
3A8
330
828
100
AcDbEntity
  8
DETAIL
100
AcDbLine
 10
212.647331
 20
815.658464
 30
0.0
 11
14.709357
 21
815.9295829999999
 31
0.0
  0
LINE
  5
3A9
330
828
100
AcDbEntity
  8
DETAIL
100
AcDbLine
 10
24.780361
 20
870.041065
 30
0.0
 11
202.7246
 21
869.7973310000001
 31
0.0
  0
LINE
  5
3AA
330
828
100
AcDbEntity
  8
DETAIL
100
AcDbLine
 10
202.732621
 20
875.6533609999996
 30
0.0
 11
24.788382
 21
875.897095
 31
0.0
  0
LINE
  5
3AB
330
828
100
AcDbEntity
  8
DETAIL
100
AcDbLine
 10
212.702102
 20
855.645933
 30
0.0
 11
14.764129
 21
855.9170529999999
 31
0.0
  0
LINE
  5
3AC
330
828
100
AcDbEntity
  8
DETAIL
100
AcDbLine
 10
24.835132
 20
910.028535
 30
0.0
 11
202.779371
 21
909.7848009999999
 31
0.0
  0
LINE
  5
3AD
330
828
100
AcDbEntity
  8
DETAIL
100
AcDbLine
 10
202.787392
 20
915.64083
 30
0.0
 11
24.843153
 21
915.884564
 31
0.0
  0
LINE
  5
3AE
330
828
100
AcDbEntity
  8
DETAIL
100
AcDbLine
 10
212.756874
 20
895.6334029999997
 30
0.0
 11
14.8189
 21
895.904522
 31
0.0
  0
LINE
  5
3AF
330
828
100
AcDbEntity
  8
DETAIL
100
AcDbLine
 10
24.889904
 20
950.0160039999999
 30
0.0
 11
202.834143
 21
949.7722699999997
 31
0.0
  0
LINE
  5
3B0
330
828
100
AcDbEntity
  8
DETAIL
100
AcDbLine
 10
202.842164
 20
955.6283
 30
0.0
 11
24.897925
 21
955.872034
 31
0.0
  0
LINE
  5
3B1
330
828
100
AcDbEntity
  8
DETAIL
100
AcDbLine
 10
212.811646
 20
935.6208719999999
 30
0.0
 11
14.873672
 21
935.8919919999999
 31
0.0
  0
LINE
  5
3B2
330
828
100
AcDbEntity
  8
DETAIL
100
AcDbLine
 10
24.944676
 20
990.003474
 30
0.0
 11
202.888915
 21
989.75974
 31
0.0
  0
LINE
  5
3B3
330
828
100
AcDbEntity
  8
DETAIL
100
AcDbLine
 10
202.896936
 20
995.6157689999999
 30
0.0
 11
24.952697
 21
995.8595029999999
 31
0.0
  0
LINE
  5
3B4
330
828
100
AcDbEntity
  8
DETAIL
100
AcDbLine
 10
212.866417
 20
975.608341
 30
0.0
 11
14.928444
 21
975.879461
 31
0.0
  0
LINE
  5
3B5
330
828
100
AcDbEntity
  8
DETAIL
100
AcDbLine
 10
24.999625
 20
1030.120943
 30
0.0
 11
202.943864
 21
1029.877209
 31
0.0
  0
LINE
  5
3B6
330
828
100
AcDbEntity
  8
DETAIL
100
AcDbLine
 10
202.951886
 20
1035.733238
 30
0.0
 11
25.007647
 21
1035.976972
 31
0.0
  0
LINE
  5
3B7
330
828
100
AcDbEntity
  8
DETAIL
100
AcDbLine
 10
212.921367
 20
1015.725811
 30
0.0
 11
14.983393
 21
1015.996931
 31
0.0
  0
ARC
  5
3B8
330
828
100
AcDbEntity
  8
DETAIL
100
AcDbCircle
 10
202.664156
 20
825.6690240000001
 30
0.0
 40
9.996876999999999
100
AcDbArc
 50
359.921521
 51
89.921521
  0
ARC
  5
3B9
330
828
100
AcDbEntity
  8
DETAIL
100
AcDbCircle
 10
418.3460219999998
 20
825.394146
 30
0.0
 40
9.996876999999999
100
AcDbArc
 50
359.921521
 51
89.921521
  0
ARC
  5
3BA
330
828
100
AcDbEntity
  8
DETAIL
100
AcDbCircle
 10
240.401783
 20
825.63788
 30
0.0
 40
9.996876999999999
100
AcDbArc
 50
89.921521
 51
179.921521
  0
LWPOLYLINE
  5
3BB
330
828
100
AcDbEntity
  8
DETAIL
100
AcDbPolyline
 90
        9
 70
     0
 43
0.0
 10
418.351694
 20
829.534984
 10
420.3018
 20
829.3964859999999
 10
422.176593
 20
828.991659
 10
423.904024
 20
828.3360599999998
 10
425.417711
 20
827.4548819999999
 10
426.659483
 20
826.3819900000001
 10
427.5816179999998
 20
825.1586129999997
 10
428.1486809999998
 20
823.8317659999999
 10
428.338879
 20
822.452438
  0
LWPOLYLINE
  5
3C6
330
828
100
AcDbEntity
  8
DETAIL
100
AcDbPolyline
 90
        9
 70
     0
 43
0.0
 10
418.187379
 20
709.572575
 10
420.1374849999998
 20
709.434078
 10
422.012278
 20
709.0292509999997
 10
423.7397089999998
 20
708.373652
 10
425.253396
 20
707.492474
 10
426.495167
 20
706.419582
 10
427.417303
 20
705.196205
 10
427.984366
 20
703.869358
 10
428.1745639999998
 20
702.4900299999996
  0
ARC
  5
3D1
330
828
100
AcDbEntity
  8
DETAIL
100
AcDbCircle
 10
418.1817069999998
 20
705.4317369999997
 30
0.0
 40
9.996876999999999
100
AcDbArc
 50
359.921521
 51
89.921521
  0
LWPOLYLINE
  5
3D2
330
828
100
AcDbEntity
  8
DETAIL
100
AcDbPolyline
 90
        9
 70
     0
 43
0.0
 10
418.242151
 20
749.560045
 10
420.192257
 20
749.4215469999996
 10
422.0670489999998
 20
749.01672
 10
423.794481
 20
748.361121
 10
425.3081679999998
 20
747.4799429999997
 10
426.549939
 20
746.4070509999997
 10
427.472075
 20
745.183674
 10
428.039138
 20
743.8568269999997
 10
428.229336
 20
742.4774989999997
  0
ARC
  5
3DD
330
828
100
AcDbEntity
  8
DETAIL
100
AcDbCircle
 10
418.236479
 20
745.419207
 30
0.0
 40
9.996876999999999
100
AcDbArc
 50
359.921521
 51
89.921521
  0
LWPOLYLINE
  5
3DE
330
828
100
AcDbEntity
  8
DETAIL
100
AcDbPolyline
 90
        9
 70
     0
 43
0.0
 10
418.296923
 20
789.547514
 10
420.2470289999998
 20
789.4090169999997
 10
422.1218209999998
 20
789.0041899999999
 10
423.849253
 20
788.3485900000001
 10
425.3629389999998
 20
787.4674129999997
 10
426.604711
 20
786.3945209999997
 10
427.5268469999998
 20
785.171144
 10
428.093909
 20
783.844297
 10
428.2841079999998
 20
782.464969
  0
ARC
  5
3E9
330
828
100
AcDbEntity
  8
DETAIL
100
AcDbCircle
 10
418.2912509999998
 20
785.4066759999997
 30
0.0
 40
9.996876999999999
100
AcDbArc
 50
359.921521
 51
89.921521
  0
LWPOLYLINE
  5
3EA
330
828
100
AcDbEntity
  8
DETAIL
100
AcDbPolyline
 90
        9
 70
     0
 43
0.0
 10
418.0778359999997
 20
629.5976369999997
 10
420.027942
 20
629.4591389999998
 10
421.902734
 20
629.0543119999997
 10
423.630166
 20
628.398713
 10
425.143853
 20
627.5175349999997
 10
426.3856239999998
 20
626.4446429999998
 10
427.3077599999998
 20
625.221266
 10
427.874823
 20
623.894419
 10
428.065021
 20
622.5150909999999
  0
ARC
  5
3F5
330
828
100
AcDbEntity
  8
DETAIL
100
AcDbCircle
 10
418.0721639999998
 20
625.456798
 30
0.0
 40
9.996876999999999
100
AcDbArc
 50
359.921521
 51
89.921521
  0
LWPOLYLINE
  5
3F6
330
828
100
AcDbEntity
  8
DETAIL
100
AcDbPolyline
 90
        9
 70
     0
 43
0.0
 10
418.1326069999998
 20
669.5851059999998
 10
420.0827139999998
 20
669.4466089999997
 10
421.9575059999998
 20
669.041782
 10
423.6849379999998
 20
668.386182
 10
425.1986239999998
 20
667.505005
 10
426.440396
 20
666.4321119999997
 10
427.362532
 20
665.2087349999998
 10
427.929594
 20
663.881888
 10
428.119792
 20
662.50256
  0
ARC
  5
401
330
828
100
AcDbEntity
  8
DETAIL
100
AcDbCircle
 10
418.1269359999998
 20
665.4442679999997
 30
0.0
 40
9.996876999999999
100
AcDbArc
 50
359.921521
 51
89.921521
  0
LINE
  5
402
330
828
100
AcDbEntity
  8
DETAIL
100
AcDbLine
 10
428.0553379999998
 20
615.446238
 30
0.0
 11
230.117365
 21
615.717358
 31
0.0
  0
LINE
  5
403
330
828
100
AcDbEntity
  8
DETAIL
100
AcDbLine
 10
428.1101099999998
 20
655.433708
 30
0.0
 11
230.172136
 21
655.704828
 31
0.0
  0
LINE
  5
404
330
828
100
AcDbEntity
  8
DETAIL
100
AcDbLine
 10
428.164882
 20
695.4211769999997
 30
0.0
 11
230.226908
 21
695.6922969999997
 31
0.0
  0
LINE
  5
405
330
828
100
AcDbEntity
  8
DETAIL
100
AcDbLine
 10
428.219654
 20
735.4086469999997
 30
0.0
 11
230.28168
 21
735.6797659999998
 31
0.0
  0
LINE
  5
406
330
828
100
AcDbEntity
  8
DETAIL
100
AcDbLine
 10
428.274425
 20
775.396116
 30
0.0
 11
230.336451
 21
775.667236
 31
0.0
  0
LINE
  5
407
330
828
100
AcDbEntity
  8
DETAIL
100
AcDbLine
 10
428.3291969999998
 20
815.383585
 30
0.0
 11
230.391223
 21
815.654705
 31
0.0
  0
LINE
  5
408
330
828
100
AcDbEntity
  8
DETAIL
100
AcDbLine
 10
428.0690309999998
 20
625.4431059999997
 30
0.0
 11
428.0553379999998
 21
615.446238
 31
0.0
  0
LINE
  5
409
330
828
100
AcDbEntity
  8
DETAIL
100
AcDbLine
 10
428.1238029999998
 20
665.4305749999998
 30
0.0
 11
428.1101099999998
 21
655.433708
 31
0.0
  0
LINE
  5
40A
330
828
100
AcDbEntity
  8
DETAIL
100
AcDbLine
 10
439.316918
 20
595.2538889999997
 30
0.0
 11
440.316605
 21
595.25252
 31
0.0
  0
LINE
  5
40B
330
828
100
AcDbEntity
  8
DETAIL
100
AcDbLine
 10
439.316918
 20
595.2538889999997
 30
0.0
 11
439.315549
 21
594.2542019999997
 31
0.0
  0
LINE
  5
40C
330
828
100
AcDbEntity
  8
DETAIL
100
AcDbLine
 10
440.014161
 20
593.4003799999998
 30
0.0
 11
440.813911
 21
593.399285
 31
0.0
  0
LINE
  5
40D
330
828
100
AcDbEntity
  8
DETAIL
100
AcDbLine
 10
440.015257
 20
594.2001289999997
 30
0.0
 11
440.014161
 21
593.4003799999998
 31
0.0
  0
LINE
  5
40E
330
828
100
AcDbEntity
  8
DETAIL
100
AcDbLine
 10
428.178575
 20
705.418044
 30
0.0
 11
428.164882
 21
695.4211769999997
 31
0.0
  0
LINE
  5
40F
330
828
100
AcDbEntity
  8
DETAIL
100
AcDbLine
 10
428.233346
 20
745.4055139999996
 30
0.0
 11
428.219654
 21
735.4086469999997
 31
0.0
  0
LINE
  5
410
330
828
100
AcDbEntity
  8
DETAIL
100
AcDbLine
 10
428.288118
 20
785.3929829999997
 30
0.0
 11
428.274425
 21
775.396116
 31
0.0
  0
LINE
  5
411
330
828
100
AcDbEntity
  8
DETAIL
100
AcDbLine
 10
428.34289
 20
825.380453
 30
0.0
 11
428.3291969999998
 21
815.383585
 31
0.0
  0
LINE
  5
412
330
828
100
AcDbEntity
  8
DETAIL
100
AcDbLine
 10
240.133597
 20
629.841371
 30
0.0
 11
418.0778359999997
 21
629.5976369999997
 31
0.0
  0
LINE
  5
413
330
828
100
AcDbEntity
  8
DETAIL
100
AcDbLine
 10
418.0858569999998
 20
635.4536659999999
 30
0.0
 11
240.141618
 21
635.6974
 31
0.0
  0
LINE
  5
414
330
828
100
AcDbEntity
  8
DETAIL
100
AcDbLine
 10
240.188368
 20
669.82884
 30
0.0
 11
418.1326069999998
 21
669.5851059999998
 31
0.0
  0
LINE
  5
415
330
828
100
AcDbEntity
  8
DETAIL
100
AcDbLine
 10
418.1406289999998
 20
675.4411349999998
 30
0.0
 11
240.19639
 21
675.684869
 31
0.0
  0
LINE
  5
416
330
828
100
AcDbEntity
  8
DETAIL
100
AcDbLine
 10
212.387165
 20
625.717984
 30
0.0
 11
212.373472
 21
615.7211160000001
 31
0.0
  0
LINE
  5
417
330
828
100
AcDbEntity
  8
DETAIL
100
AcDbLine
 10
212.441937
 20
665.705453
 30
0.0
 11
212.428244
 21
655.708586
 31
0.0
  0
LWPOLYLINE
  5
418
330
828
100
AcDbEntity
  8
DETAIL
100
AcDbPolyline
 90
        9
 70
     0
 43
0.0
 10
202.39597
 20
629.872515
 10
204.346076
 20
629.734017
 10
206.220868
 20
629.32919
 10
207.9483
 20
628.6735909999999
 10
209.461986
 20
627.792413
 10
210.703758
 20
626.7195209999997
 10
211.625894
 20
625.496144
 10
212.192956
 20
624.169297
 10
212.383155
 20
622.789969
  0
ARC
  5
423
330
828
100
AcDbEntity
  8
DETAIL
100
AcDbCircle
 10
202.390298
 20
625.731677
 30
0.0
 40
9.996876999999999
100
AcDbArc
 50
359.921521
 51
89.921521
  0
LWPOLYLINE
  5
424
330
828
100
AcDbEntity
  8
DETAIL
100
AcDbPolyline
 90
        9
 70
     0
 43
0.0
 10
202.450741
 20
669.8599839999998
 10
204.400847
 20
669.721487
 10
206.27564
 20
669.3166599999997
 10
208.003071
 20
668.6610599999998
 10
209.516758
 20
667.779883
 10
210.75853
 20
666.70699
 10
211.680665
 20
665.483614
 10
212.247728
 20
664.156766
 10
212.437926
 20
662.7774389999999
  0
ARC
  5
42F
330
828
100
AcDbEntity
  8
DETAIL
100
AcDbCircle
 10
202.445069
 20
665.7191459999998
 30
0.0
 40
9.996876999999999
100
AcDbArc
 50
359.921521
 51
89.921521
  0
LINE
  5
430
330
828
100
AcDbEntity
  8
DETAIL
100
AcDbLine
 10
230.131058
 20
625.7142250000002
 30
0.0
 11
230.117365
 21
615.717358
 31
0.0
  0
LINE
  5
431
330
828
100
AcDbEntity
  8
DETAIL
100
AcDbLine
 10
230.185829
 20
665.701695
 30
0.0
 11
230.172136
 21
655.704828
 31
0.0
  0
LWPOLYLINE
  5
432
330
828
100
AcDbEntity
  8
DETAIL
100
AcDbPolyline
 90
        9
 70
     0
 43
0.0
 10
230.127047
 20
622.786211
 10
230.321023
 20
624.165012
 10
230.891719
 20
625.4903009999998
 10
231.817202
 20
626.7111469999997
 10
233.061908
 20
627.7806339999997
 10
234.578003
 20
628.657661
 10
236.307224
 20
629.308526
 10
238.183119
 20
629.708216
 10
240.133597
 20
629.841371
  0
ARC
  5
43D
330
828
100
AcDbEntity
  8
DETAIL
100
AcDbCircle
 10
240.127925
 20
625.7005330000001
 30
0.0
 40
9.996876999999999
100
AcDbArc
 50
89.921521
 51
179.921521
  0
LWPOLYLINE
  5
43E
330
828
100
AcDbEntity
  8
DETAIL
100
AcDbPolyline
 90
        9
 70
     0
 43
0.0
 10
230.181819
 20
662.77368
 10
230.375795
 20
664.152482
 10
230.94649
 20
665.4777709999997
 10
231.871974
 20
666.698617
 10
233.11668
 20
667.768103
 10
234.632775
 20
668.6451309999998
 10
236.361996
 20
669.2959959999996
 10
238.23789
 20
669.6956849999998
 10
240.188368
 20
669.82884
  0
ARC
  5
449
330
828
100
AcDbEntity
  8
DETAIL
100
AcDbCircle
 10
240.182697
 20
665.688002
 30
0.0
 40
9.996876999999999
100
AcDbArc
 50
89.921521
 51
179.921521
  0
LINE
  5
44A
330
828
100
AcDbEntity
  8
DETAIL
100
AcDbLine
 10
240.407455
 20
829.778718
 30
0.0
 11
418.351694
 21
829.534984
 31
0.0
  0
LINE
  5
44B
330
828
100
AcDbEntity
  8
DETAIL
100
AcDbLine
 10
418.3597149999997
 20
835.391013
 30
0.0
 11
240.415476
 21
835.6347469999999
 31
0.0
  0
LINE
  5
44C
330
828
100
AcDbEntity
  8
DETAIL
100
AcDbLine
 10
240.24314
 20
709.8163089999997
 30
0.0
 11
418.187379
 21
709.572575
 31
0.0
  0
LINE
  5
44D
330
828
100
AcDbEntity
  8
DETAIL
100
AcDbLine
 10
418.1954
 20
715.4286049999996
 30
0.0
 11
240.251161
 21
715.6723389999997
 31
0.0
  0
LINE
  5
44E
330
828
100
AcDbEntity
  8
DETAIL
100
AcDbLine
 10
240.297912
 20
749.8037789999997
 30
0.0
 11
418.242151
 21
749.560045
 31
0.0
  0
LINE
  5
44F
330
828
100
AcDbEntity
  8
DETAIL
100
AcDbLine
 10
418.250172
 20
755.416074
 30
0.0
 11
240.305933
 21
755.659808
 31
0.0
  0
LINE
  5
450
330
828
100
AcDbEntity
  8
DETAIL
100
AcDbLine
 10
240.352684
 20
789.791248
 30
0.0
 11
418.296923
 21
789.547514
 31
0.0
  0
LINE
  5
451
330
828
100
AcDbEntity
  8
DETAIL
100
AcDbLine
 10
418.3049439999998
 20
795.403544
 30
0.0
 11
240.360705
 21
795.647278
 31
0.0
  0
LINE
  5
452
330
828
100
AcDbEntity
  8
DETAIL
100
AcDbLine
 10
212.496708
 20
705.692923
 30
0.0
 11
212.483016
 21
695.6960549999997
 31
0.0
  0
LINE
  5
453
330
828
100
AcDbEntity
  8
DETAIL
100
AcDbLine
 10
212.55148
 20
745.6803919999996
 30
0.0
 11
212.537787
 21
735.683525
 31
0.0
  0
LINE
  5
454
330
828
100
AcDbEntity
  8
DETAIL
100
AcDbLine
 10
212.606252
 20
785.667862
 30
0.0
 11
212.592559
 21
775.6709940000003
 31
0.0
  0
LINE
  5
455
330
828
100
AcDbEntity
  8
DETAIL
100
AcDbLine
 10
212.661024
 20
825.6553309999997
 30
0.0
 11
212.647331
 21
815.658464
 31
0.0
  0
LWPOLYLINE
  5
456
330
828
100
AcDbEntity
  8
DETAIL
100
AcDbPolyline
 90
        9
 70
     0
 43
0.0
 10
202.669828
 20
829.8098620000001
 10
204.619934
 20
829.671365
 10
206.494726
 20
829.2665379999997
 10
208.222158
 20
828.610938
 10
209.735845
 20
827.7297610000001
 10
210.977616
 20
826.6568679999997
 10
211.899752
 20
825.433491
 10
212.466815
 20
824.106644
 10
212.657013
 20
822.7273159999999
  0
LWPOLYLINE
  5
461
330
828
100
AcDbEntity
  8
DETAIL
100
AcDbPolyline
 90
        9
 70
     0
 43
0.0
 10
202.505513
 20
709.8474539999998
 10
204.455619
 20
709.7089559999997
 10
206.330411
 20
709.304129
 10
208.057843
 20
708.6485299999996
 10
209.57153
 20
707.7673519999997
 10
210.8133009999999
 20
706.6944599999997
 10
211.735437
 20
705.471083
 10
212.3025
 20
704.1442359999997
 10
212.492698
 20
702.7649079999996
  0
ARC
  5
46C
330
828
100
AcDbEntity
  8
DETAIL
100
AcDbCircle
 10
202.499841
 20
705.706616
 30
0.0
 40
9.996876999999999
100
AcDbArc
 50
359.921521
 51
89.921521
  0
LWPOLYLINE
  5
46D
330
828
100
AcDbEntity
  8
DETAIL
100
AcDbPolyline
 90
        9
 70
     0
 43
0.0
 10
202.560285
 20
749.834923
 10
204.510391
 20
749.6964259999997
 10
206.385183
 20
749.291599
 10
208.112615
 20
748.6359989999997
 10
209.626301
 20
747.754822
 10
210.868073
 20
746.681929
 10
211.790209
 20
745.4585530000001
 10
212.357272
 20
744.131705
 10
212.54747
 20
742.7523769999996
  0
ARC
  5
478
330
828
100
AcDbEntity
  8
DETAIL
100
AcDbCircle
 10
202.554613
 20
745.6940849999997
 30
0.0
 40
9.996876999999999
100
AcDbArc
 50
359.921521
 51
89.921521
  0
LWPOLYLINE
  5
479
330
828
100
AcDbEntity
  8
DETAIL
100
AcDbPolyline
 90
        9
 70
     0
 43
0.0
 10
202.615056
 20
789.8223929999996
 10
204.565162
 20
789.683895
 10
206.439955
 20
789.2790679999997
 10
208.167386
 20
788.623469
 10
209.681073
 20
787.742291
 10
210.922845
 20
786.6693989999999
 10
211.84498
 20
785.4460219999999
 10
212.412043
 20
784.1191750000001
 10
212.602241
 20
782.7398469999997
  0
ARC
  5
484
330
828
100
AcDbEntity
  8
DETAIL
100
AcDbCircle
 10
202.609384
 20
785.681554
 30
0.0
 40
9.996876999999999
100
AcDbArc
 50
359.921521
 51
89.921521
  0
LINE
  5
485
330
828
100
AcDbEntity
  8
DETAIL
100
AcDbLine
 10
230.240601
 20
705.6891639999999
 30
0.0
 11
230.226908
 21
695.6922969999997
 31
0.0
  0
LINE
  5
486
330
828
100
AcDbEntity
  8
DETAIL
100
AcDbLine
 10
230.295373
 20
745.676634
 30
0.0
 11
230.28168
 21
735.6797659999998
 31
0.0
  0
LINE
  5
487
330
828
100
AcDbEntity
  8
DETAIL
100
AcDbLine
 10
230.350144
 20
785.664103
 30
0.0
 11
230.336451
 21
775.667236
 31
0.0
  0
LINE
  5
488
330
828
100
AcDbEntity
  8
DETAIL
100
AcDbLine
 10
230.404916
 20
825.651573
 30
0.0
 11
230.391223
 21
815.654705
 31
0.0
  0
LWPOLYLINE
  5
489
330
828
100
AcDbEntity
  8
DETAIL
100
AcDbPolyline
 90
        9
 70
     0
 43
0.0
 10
230.400905
 20
822.723558
 10
230.594881
 20
824.10236
 10
231.165577
 20
825.4276480000001
 10
232.091061
 20
826.6484939999996
 10
233.335767
 20
827.7179809999999
 10
234.851862
 20
828.595009
 10
236.581083
 20
829.2458730000001
 10
238.456977
 20
829.645563
 10
240.407455
 20
829.778718
  0
LWPOLYLINE
  5
494
330
828
100
AcDbEntity
  8
DETAIL
100
AcDbPolyline
 90
        9
 70
     0
 43
0.0
 10
230.23659
 20
702.76115
 10
230.430566
 20
704.1399509999997
 10
231.001262
 20
705.46524
 10
231.926746
 20
706.686086
 10
233.171452
 20
707.755573
 10
234.687546
 20
708.6326
 10
236.416768
 20
709.2834650000003
 10
238.292662
 20
709.6831549999997
 10
240.24314
 20
709.8163089999997
  0
ARC
  5
49F
330
828
100
AcDbEntity
  8
DETAIL
100
AcDbCircle
 10
240.237468
 20
705.6754709999997
 30
0.0
 40
9.996876999999999
100
AcDbArc
 50
89.921521
 51
179.921521
  0
LWPOLYLINE
  5
4A0
330
828
100
AcDbEntity
  8
DETAIL
100
AcDbPolyline
 90
        9
 70
     0
 43
0.0
 10
230.291362
 20
742.748619
 10
230.485338
 20
744.127421
 10
231.056034
 20
745.4527099999997
 10
231.981517
 20
746.673556
 10
233.226223
 20
747.7430419999997
 10
234.742318
 20
748.62007
 10
236.471539
 20
749.270935
 10
238.347434
 20
749.6706239999999
 10
240.297912
 20
749.8037789999997
  0
ARC
  5
4AB
330
828
100
AcDbEntity
  8
DETAIL
100
AcDbCircle
 10
240.29224
 20
745.662941
 30
0.0
 40
9.996876999999999
100
AcDbArc
 50
89.921521
 51
179.921521
  0
LWPOLYLINE
  5
4AC
330
828
100
AcDbEntity
  8
DETAIL
100
AcDbPolyline
 90
        9
 70
     0
 43
0.0
 10
230.346134
 20
782.736089
 10
230.54011
 20
784.1148900000002
 10
231.110805
 20
785.440179
 10
232.036289
 20
786.6610249999999
 10
233.280995
 20
787.7305119999999
 10
234.79709
 20
788.607539
 10
236.526311
 20
789.258404
 10
238.402205
 20
789.658094
 10
240.352684
 20
789.791248
  0
ARC
  5
4B7
330
828
100
AcDbEntity
  8
DETAIL
100
AcDbCircle
 10
240.347012
 20
785.6504099999997
 30
0.0
 40
9.996876999999999
100
AcDbArc
 50
89.921521
 51
179.921521
  0
LWPOLYLINE
  5
4B8
330
828
100
AcDbEntity
  8
DETAIL
100
AcDbPolyline
 90
        9
 70
     0
 43
0.0
 10
418.625731
 20
1029.602331
 10
420.575837
 20
1029.463833
 10
422.4506289999998
 20
1029.059006
 10
424.178061
 20
1028.403407
 10
425.691748
 20
1027.522229
 10
426.933519
 20
1026.449337
 10
427.8556549999998
 20
1025.22596
 10
428.422718
 20
1023.899113
 10
428.612916
 20
1022.519785
  0
ARC
  5
4C3
330
828
100
AcDbEntity
  8
DETAIL
100
AcDbCircle
 10
418.6200589999998
 20
1025.461493
 30
0.0
 40
9.996876999999999
100
AcDbArc
 50
359.921521
 51
89.921521
  0
LWPOLYLINE
  5
4C4
330
828
100
AcDbEntity
  8
DETAIL
100
AcDbPolyline
 90
        9
 70
     0
 43
0.0
 10
418.570781
 20
989.4848620000001
 10
420.5208869999998
 20
989.3463640000003
 10
422.395679
 20
988.941537
 10
424.123111
 20
988.2859379999999
 10
425.636798
 20
987.40476
 10
426.878569
 20
986.331868
 10
427.800705
 20
985.1084909999999
 10
428.3677679999998
 20
983.7816439999999
 10
428.557966
 20
982.4023160000001
  0
LWPOLYLINE
  5
4CF
330
828
100
AcDbEntity
  8
DETAIL
100
AcDbPolyline
 90
        9
 70
     0
 43
0.0
 10
418.406466
 20
869.5224529999999
 10
420.3565719999998
 20
869.383956
 10
422.231364
 20
868.979129
 10
423.9587959999998
 20
868.3235289999997
 10
425.4724829999998
 20
867.4423519999997
 10
426.714254
 20
866.369459
 10
427.63639
 20
865.1460829999999
 10
428.203453
 20
863.8192349999997
 10
428.393651
 20
862.4399080000001
  0
ARC
  5
4DA
330
828
100
AcDbEntity
  8
DETAIL
100
AcDbCircle
 10
418.4007939999998
 20
865.381615
 30
0.0
 40
9.996876999999999
100
AcDbArc
 50
359.921521
 51
89.921521
  0
LWPOLYLINE
  5
4DB
330
828
100
AcDbEntity
  8
DETAIL
100
AcDbPolyline
 90
        9
 70
     0
 43
0.0
 10
418.4612379999999
 20
909.509923
 10
420.411344
 20
909.3714250000001
 10
422.286136
 20
908.9665979999999
 10
424.0135679999998
 20
908.310999
 10
425.5272539999998
 20
907.429821
 10
426.769026
 20
906.356929
 10
427.6911619999999
 20
905.133552
 10
428.2582249999999
 20
903.806705
 10
428.448423
 20
902.427377
  0
ARC
  5
4E6
330
828
100
AcDbEntity
  8
DETAIL
100
AcDbCircle
 10
418.455566
 20
905.3690849999997
 30
0.0
 40
9.996876999999999
100
AcDbArc
 50
359.921521
 51
89.921521
  0
LWPOLYLINE
  5
4E7
330
828
100
AcDbEntity
  8
DETAIL
100
AcDbPolyline
 90
        9
 70
     0
 43
0.0
 10
418.516009
 20
949.4973919999999
 10
420.466115
 20
949.3588949999999
 10
422.340908
 20
948.9540680000001
 10
424.068339
 20
948.2984679999999
 10
425.582026
 20
947.417291
 10
426.8237980000001
 20
946.344398
 10
427.745933
 20
945.121022
 10
428.312996
 20
943.7941739999999
 10
428.503194
 20
942.4148459999999
  0
ARC
  5
4F2
330
828
100
AcDbEntity
  8
DETAIL
100
AcDbCircle
 10
418.510337
 20
945.3565539999999
 30
0.0
 40
9.996876999999999
100
AcDbArc
 50
359.921521
 51
89.921521
  0
ARC
  5
4F3
330
828
100
AcDbEntity
  8
DETAIL
100
AcDbCircle
 10
418.565109
 20
985.344023
 30
0.0
 40
9.996876999999999
100
AcDbArc
 50
359.921521
 51
89.921521
  0
LINE
  5
4F4
330
828
100
AcDbEntity
  8
DETAIL
100
AcDbLine
 10
428.383969
 20
855.3710550000001
 30
0.0
 11
230.445995
 21
855.642175
 31
0.0
  0
LINE
  5
4F5
330
828
100
AcDbEntity
  8
DETAIL
100
AcDbLine
 10
428.43874
 20
895.358524
 30
0.0
 11
230.500766
 21
895.629644
 31
0.0
  0
LINE
  5
4F6
330
828
100
AcDbEntity
  8
DETAIL
100
AcDbLine
 10
428.493512
 20
935.3459939999996
 30
0.0
 11
230.555538
 21
935.617114
 31
0.0
  0
LINE
  5
4F7
330
828
100
AcDbEntity
  8
DETAIL
100
AcDbLine
 10
428.5482839999998
 20
975.3334630000001
 30
0.0
 11
230.61031
 21
975.6045830000001
 31
0.0
  0
LINE
  5
4F8
330
828
100
AcDbEntity
  8
DETAIL
100
AcDbLine
 10
428.603233
 20
1015.450933
 30
0.0
 11
230.66526
 21
1015.722052
 31
0.0
  0
LINE
  5
4F9
330
828
100
AcDbEntity
  8
DETAIL
100
AcDbLine
 10
428.5619769999998
 20
985.3303309999999
 30
0.0
 11
428.5482839999998
 21
975.3334630000001
 31
0.0
  0
LINE
  5
4FA
330
828
100
AcDbEntity
  8
DETAIL
100
AcDbLine
 10
428.397661
 20
865.367922
 30
0.0
 11
428.383969
 21
855.3710550000001
 31
0.0
  0
LINE
  5
4FB
330
828
100
AcDbEntity
  8
DETAIL
100
AcDbLine
 10
428.4524329999999
 20
905.3553919999997
 30
0.0
 11
428.43874
 21
895.358524
 31
0.0
  0
LINE
  5
4FC
330
828
100
AcDbEntity
  8
DETAIL
100
AcDbLine
 10
428.507205
 20
945.3428609999999
 30
0.0
 11
428.493512
 21
935.3459939999996
 31
0.0
  0
LINE
  5
4FD
330
828
100
AcDbEntity
  8
DETAIL
100
AcDbLine
 10
428.616926
 20
1025.4478
 30
0.0
 11
428.603233
 21
1015.450933
 31
0.0
  0
ARC
  5
4FE
330
828
100
AcDbEntity
  8
DETAIL
100
AcDbCircle
 10
202.883243
 20
985.618902
 30
0.0
 40
9.996876999999999
100
AcDbArc
 50
359.921521
 51
89.921521
  0
ARC
  5
4FF
330
828
100
AcDbEntity
  8
DETAIL
100
AcDbCircle
 10
240.62087
 20
985.587757
 30
0.0
 40
9.996876999999999
100
AcDbArc
 50
89.921521
 51
179.921521
  0
LINE
  5
500
330
828
100
AcDbEntity
  8
DETAIL
100
AcDbLine
 10
240.462227
 20
869.7661869999999
 30
0.0
 11
418.406466
 21
869.5224529999999
 31
0.0
  0
LINE
  5
501
330
828
100
AcDbEntity
  8
DETAIL
100
AcDbLine
 10
418.4144869999998
 20
875.3784829999997
 30
0.0
 11
240.470248
 21
875.6222169999999
 31
0.0
  0
LINE
  5
502
330
828
100
AcDbEntity
  8
DETAIL
100
AcDbLine
 10
240.516999
 20
909.753657
 30
0.0
 11
418.4612379999999
 21
909.509923
 31
0.0
  0
LINE
  5
503
330
828
100
AcDbEntity
  8
DETAIL
100
AcDbLine
 10
418.469259
 20
915.3659519999999
 30
0.0
 11
240.52502
 21
915.6096859999999
 31
0.0
  0
LINE
  5
504
330
828
100
AcDbEntity
  8
DETAIL
100
AcDbLine
 10
240.57177
 20
949.7411259999999
 30
0.0
 11
418.516009
 21
949.4973919999999
 31
0.0
  0
LINE
  5
505
330
828
100
AcDbEntity
  8
DETAIL
100
AcDbLine
 10
418.52403
 20
955.3534210000002
 30
0.0
 11
240.579791
 21
955.597155
 31
0.0
  0
LINE
  5
506
330
828
100
AcDbEntity
  8
DETAIL
100
AcDbLine
 10
240.626542
 20
989.7285960000001
 30
0.0
 11
418.570781
 21
989.4848620000001
 31
0.0
  0
LINE
  5
507
330
828
100
AcDbEntity
  8
DETAIL
100
AcDbLine
 10
212.88011
 20
985.605209
 30
0.0
 11
212.866417
 21
975.608341
 31
0.0
  0
LINE
  5
508
330
828
100
AcDbEntity
  8
DETAIL
100
AcDbLine
 10
212.715795
 20
865.6428
 30
0.0
 11
212.702102
 21
855.645933
 31
0.0
  0
LINE
  5
509
330
828
100
AcDbEntity
  8
DETAIL
100
AcDbLine
 10
212.770567
 20
905.6302699999999
 30
0.0
 11
212.756874
 21
895.6334029999997
 31
0.0
  0
LINE
  5
50A
330
828
100
AcDbEntity
  8
DETAIL
100
AcDbLine
 10
212.825339
 20
945.617739
 30
0.0
 11
212.811646
 21
935.6208719999999
 31
0.0
  0
LWPOLYLINE
  5
50B
330
828
100
AcDbEntity
  8
DETAIL
100
AcDbPolyline
 90
        9
 70
     0
 43
0.0
 10
202.888915
 20
989.75974
 10
204.839021
 20
989.6212420000001
 10
206.713813
 20
989.2164149999999
 10
208.441245
 20
988.560816
 10
209.954932
 20
987.679638
 10
211.196703
 20
986.606746
 10
212.118839
 20
985.383369
 10
212.685902
 20
984.056522
 10
212.8761
 20
982.677194
  0
LWPOLYLINE
  5
516
330
828
100
AcDbEntity
  8
DETAIL
100
AcDbPolyline
 90
        9
 70
     0
 43
0.0
 10
202.7246
 20
869.7973310000001
 10
204.674706
 20
869.6588339999998
 10
206.549498
 20
869.2540069999999
 10
208.27693
 20
868.598408
 10
209.790616
 20
867.71723
 10
211.032388
 20
866.644338
 10
211.954524
 20
865.4209609999996
 10
212.521587
 20
864.094114
 10
212.711785
 20
862.7147859999999
  0
ARC
  5
521
330
828
100
AcDbEntity
  8
DETAIL
100
AcDbCircle
 10
202.718928
 20
865.656493
 30
0.0
 40
9.996876999999999
100
AcDbArc
 50
359.921521
 51
89.921521
  0
LWPOLYLINE
  5
522
330
828
100
AcDbEntity
  8
DETAIL
100
AcDbPolyline
 90
        9
 70
     0
 43
0.0
 10
202.779371
 20
909.7848009999999
 10
204.729477
 20
909.646303
 10
206.60427
 20
909.241476
 10
208.331701
 20
908.5858769999999
 10
209.845388
 20
907.7046989999999
 10
211.08716
 20
906.6318069999999
 10
212.009295
 20
905.4084299999999
 10
212.576358
 20
904.0815829999999
 10
212.766556
 20
902.7022549999999
  0
ARC
  5
52D
330
828
100
AcDbEntity
  8
DETAIL
100
AcDbCircle
 10
202.7737
 20
905.6439629999999
 30
0.0
 40
9.996876999999999
100
AcDbArc
 50
359.921521
 51
89.921521
  0
LWPOLYLINE
  5
52E
330
828
100
AcDbEntity
  8
DETAIL
100
AcDbPolyline
 90
        9
 70
     0
 43
0.0
 10
202.834143
 20
949.7722699999997
 10
204.784249
 20
949.633773
 10
206.659042
 20
949.228946
 10
208.386473
 20
948.5733460000004
 10
209.90016
 20
947.6921690000001
 10
211.141931
 20
946.619276
 10
212.064067
 20
945.3958999999999
 10
212.63113
 20
944.0690530000001
 10
212.821328
 20
942.6897249999999
  0
ARC
  5
539
330
828
100
AcDbEntity
  8
DETAIL
100
AcDbCircle
 10
202.828471
 20
945.631432
 30
0.0
 40
9.996876999999999
100
AcDbArc
 50
359.921521
 51
89.921521
  0
LINE
  5
53A
330
828
100
AcDbEntity
  8
DETAIL
100
AcDbLine
 10
230.624003
 20
985.60145
 30
0.0
 11
230.61031
 21
975.6045830000001
 31
0.0
  0
LINE
  5
53B
330
828
100
AcDbEntity
  8
DETAIL
100
AcDbLine
 10
230.459688
 20
865.6390420000001
 30
0.0
 11
230.445995
 21
855.642175
 31
0.0
  0
LINE
  5
53C
330
828
100
AcDbEntity
  8
DETAIL
100
AcDbLine
 10
230.514459
 20
905.6265119999999
 30
0.0
 11
230.500766
 21
895.629644
 31
0.0
  0
LINE
  5
53D
330
828
100
AcDbEntity
  8
DETAIL
100
AcDbLine
 10
230.569231
 20
945.6139809999999
 30
0.0
 11
230.555538
 21
935.617114
 31
0.0
  0
LWPOLYLINE
  5
53E
330
828
100
AcDbEntity
  8
DETAIL
100
AcDbPolyline
 90
        9
 70
     0
 43
0.0
 10
230.619992
 20
982.6734360000001
 10
230.813968
 20
984.0522369999996
 10
231.384664
 20
985.377526
 10
232.3101470000001
 20
986.598372
 10
233.554853
 20
987.667859
 10
235.070948
 20
988.5448859999996
 10
236.800169
 20
989.1957509999999
 10
238.676064
 20
989.5954409999999
 10
240.626542
 20
989.7285960000001
  0
LWPOLYLINE
  5
549
330
828
100
AcDbEntity
  8
DETAIL
100
AcDbPolyline
 90
        9
 70
     0
 43
0.0
 10
230.455677
 20
862.7110269999999
 10
230.649653
 20
864.0898289999999
 10
231.220349
 20
865.4151179999999
 10
232.145832
 20
866.6359640000001
 10
233.390538
 20
867.7054509999997
 10
234.906633
 20
868.5824779999999
 10
236.635854
 20
869.2333429999999
 10
238.511749
 20
869.633033
 10
240.462227
 20
869.7661869999999
  0
ARC
  5
554
330
828
100
AcDbEntity
  8
DETAIL
100
AcDbCircle
 10
240.456555
 20
865.625349
 30
0.0
 40
9.996876999999999
100
AcDbArc
 50
89.921521
 51
179.921521
  0
LWPOLYLINE
  5
555
330
828
100
AcDbEntity
  8
DETAIL
100
AcDbPolyline
 90
        9
 70
     0
 43
0.0
 10
230.510449
 20
902.698497
 10
230.704425
 20
904.077299
 10
231.27512
 20
905.402587
 10
232.200604
 20
906.623433
 10
233.44531
 20
907.69292
 10
234.961405
 20
908.569948
 10
236.690626
 20
909.2208119999996
 10
238.56652
 20
909.6205019999999
 10
240.516999
 20
909.753657
  0
ARC
  5
560
330
828
100
AcDbEntity
  8
DETAIL
100
AcDbCircle
 10
240.511327
 20
905.6128189999999
 30
0.0
 40
9.996876999999999
100
AcDbArc
 50
89.921521
 51
179.921521
  0
LWPOLYLINE
  5
561
330
828
100
AcDbEntity
  8
DETAIL
100
AcDbPolyline
 90
        9
 70
     0
 43
0.0
 10
230.565221
 20
942.6859659999999
 10
230.759196
 20
944.0647679999999
 10
231.329892
 20
945.390057
 10
232.255376
 20
946.6109029999996
 10
233.500082
 20
947.6803889999999
 10
235.016177
 20
948.5574169999999
 10
236.745398
 20
949.208282
 10
238.621292
 20
949.6079710000001
 10
240.57177
 20
949.7411259999999
  0
ARC
  5
56C
330
828
100
AcDbEntity
  8
DETAIL
100
AcDbCircle
 10
240.566098
 20
945.6002879999999
 30
0.0
 40
9.996876999999999
100
AcDbArc
 50
89.921521
 51
179.921521
  0
LINE
  5
56D
330
828
100
AcDbEntity
  8
DETAIL
100
AcDbLine
 10
418.578802
 20
995.340891
 30
0.0
 11
240.634563
 21
995.584625
 31
0.0
  0
LINE
  5
56E
330
828
100
AcDbEntity
  8
DETAIL
100
AcDbLine
 10
240.681492
 20
1029.846065
 30
0.0
 11
418.625731
 21
1029.602331
 31
0.0
  0
LINE
  5
56F
330
828
100
AcDbEntity
  8
DETAIL
100
AcDbLine
 10
418.633752
 20
1035.45836
 30
0.0
 11
240.689513
 21
1035.702094
 31
0.0
  0
LINE
  5
570
330
828
100
AcDbEntity
  8
DETAIL
100
AcDbLine
 10
212.93506
 20
1025.722678
 30
0.0
 11
212.921367
 21
1015.725811
 31
0.0
  0
LWPOLYLINE
  5
571
330
828
100
AcDbEntity
  8
DETAIL
100
AcDbPolyline
 90
        9
 70
     0
 43
0.0
 10
202.943864
 20
1029.877209
 10
204.89397
 20
1029.738712
 10
206.768763
 20
1029.333885
 10
208.496195
 20
1028.678285
 10
210.009881
 20
1027.797108
 10
211.251653
 20
1026.724215
 10
212.173789
 20
1025.500839
 10
212.7408509999999
 20
1024.173991
 10
212.931049
 20
1022.794663
  0
ARC
  5
57C
330
828
100
AcDbEntity
  8
DETAIL
100
AcDbCircle
 10
202.938193
 20
1025.736371
 30
0.0
 40
9.996876999999999
100
AcDbArc
 50
359.921521
 51
89.921521
  0
LINE
  5
57D
330
828
100
AcDbEntity
  8
DETAIL
100
AcDbLine
 10
230.678953
 20
1025.71892
 30
0.0
 11
230.66526
 21
1015.722052
 31
0.0
  0
LWPOLYLINE
  5
57E
330
828
100
AcDbEntity
  8
DETAIL
100
AcDbPolyline
 90
        9
 70
     0
 43
0.0
 10
230.674942
 20
1022.790905
 10
230.868918
 20
1024.169707
 10
231.439613
 20
1025.494996
 10
232.365097
 20
1026.715842
 10
233.609803
 20
1027.785328
 10
235.125898
 20
1028.662356
 10
236.855119
 20
1029.313221
 10
238.731014
 20
1029.71291
 10
240.681492
 20
1029.846065
  0
ARC
  5
589
330
828
100
AcDbEntity
  8
DETAIL
100
AcDbCircle
 10
240.67582
 20
1025.705227
 30
0.0
 40
9.996876999999999
100
AcDbArc
 50
89.921521
 51
179.921521
  0
ARC
  5
58A
330
828
100
AcDbEntity
  8
DETAIL
100
AcDbCircle
 10
24.719917
 20
825.9127580000001
 30
0.0
 40
9.996876999999999
100
AcDbArc
 50
89.921521
 51
179.921521
  0
LWPOLYLINE
  5
58B
330
828
100
AcDbEntity
  8
DETAIL
100
AcDbPolyline
 90
        9
 70
     0
 43
0.0
 10
14.445181
 20
623.0610889999998
 10
14.639157
 20
624.439891
 10
15.209852
 20
625.7651789999997
 10
16.135336
 20
626.986025
 10
17.380042
 20
628.055512
 10
18.896137
 20
628.93254
 10
20.625358
 20
629.5834039999999
 10
22.501252
 20
629.983094
 10
24.45173
 20
630.116249
  0
ARC
  5
596
330
828
100
AcDbEntity
  8
DETAIL
100
AcDbCircle
 10
24.446059
 20
625.975411
 30
0.0
 40
9.996876999999999
100
AcDbArc
 50
89.921521
 51
179.921521
  0
LINE
  5
597
330
828
100
AcDbEntity
  8
DETAIL
100
AcDbLine
 10
14.449191
 20
625.989104
 30
0.0
 11
14.435498
 21
615.992236
 31
0.0
  0
LWPOLYLINE
  5
598
330
828
100
AcDbEntity
  8
DETAIL
100
AcDbPolyline
 90
        9
 70
     0
 43
0.0
 10
14.499952
 20
663.0485579999997
 10
14.693928
 20
664.4273599999998
 10
15.264624
 20
665.752649
 10
16.190108
 20
666.973495
 10
17.434814
 20
668.042982
 10
18.950908
 20
668.9200089999998
 10
20.68013
 20
669.570874
 10
22.556024
 20
669.9705639999997
 10
24.506502
 20
670.103718
  0
LINE
  5
5A3
330
828
100
AcDbEntity
  8
DETAIL
100
AcDbLine
 10
14.503963
 20
665.976573
 30
0.0
 11
14.49027
 21
655.979706
 31
0.0
  0
ARC
  5
5A4
330
828
100
AcDbEntity
  8
DETAIL
100
AcDbCircle
 10
24.50083
 20
665.9628799999998
 30
0.0
 40
9.996876999999999
100
AcDbArc
 50
89.921521
 51
179.921521
  0
LWPOLYLINE
  5
5A5
330
828
100
AcDbEntity
  8
DETAIL
100
AcDbPolyline
 90
        9
 70
     0
 43
0.0
 10
14.719039
 20
822.9984360000001
 10
14.913015
 20
824.3772380000001
 10
15.48371099999999
 20
825.7025269999996
 10
16.409194
 20
826.9233730000001
 10
17.6539
 20
827.9928589999999
 10
19.169995
 20
828.8698870000001
 10
20.899216
 20
829.5207519999999
 10
22.775111
 20
829.9204409999996
 10
24.72558900000001
 20
830.0535959999999
  0
LWPOLYLINE
  5
5B0
330
828
100
AcDbEntity
  8
DETAIL
100
AcDbPolyline
 90
        9
 70
     0
 43
0.0
 10
14.554724
 20
703.036028
 10
14.7487
 20
704.4148299999997
 10
15.319396
 20
705.7401179999997
 10
16.244879
 20
706.960964
 10
17.489585
 20
708.0304509999997
 10
19.00567999999999
 20
708.9074789999997
 10
20.734901
 20
709.5583429999996
 10
22.610796
 20
709.958033
 10
24.561274
 20
710.0911879999999
  0
ARC
  5
5BB
330
828
100
AcDbEntity
  8
DETAIL
100
AcDbCircle
 10
24.555602
 20
705.9503499999997
 30
0.0
 40
9.996876999999999
100
AcDbArc
 50
89.921521
 51
179.921521
  0
LINE
  5
5BC
330
828
100
AcDbEntity
  8
DETAIL
100
AcDbLine
 10
14.558735
 20
705.9640429999997
 30
0.0
 11
14.545042
 21
695.967175
 31
0.0
  0
LWPOLYLINE
  5
5BD
330
828
100
AcDbEntity
  8
DETAIL
100
AcDbPolyline
 90
        9
 70
     0
 43
0.0
 10
14.609496
 20
743.023497
 10
14.803472
 20
744.4022989999997
 10
15.374167
 20
745.727588
 10
16.299651
 20
746.948434
 10
17.544357
 20
748.01792
 10
19.060452
 20
748.894948
 10
20.789673
 20
749.5458129999997
 10
22.665567
 20
749.9455019999997
 10
24.616046
 20
750.078657
  0
ARC
  5
5C8
330
828
100
AcDbEntity
  8
DETAIL
100
AcDbCircle
 10
24.610374
 20
745.9378189999996
 30
0.0
 40
9.996876999999999
100
AcDbArc
 50
89.921521
 51
179.921521
  0
LINE
  5
5C9
330
828
100
AcDbEntity
  8
DETAIL
100
AcDbLine
 10
14.613506
 20
745.9515119999996
 30
0.0
 11
14.599813
 21
735.954645
 31
0.0
  0
LWPOLYLINE
  5
5CA
330
828
100
AcDbEntity
  8
DETAIL
100
AcDbPolyline
 90
        9
 70
     0
 43
0.0
 10
14.664268
 20
783.0109669999997
 10
14.858243
 20
784.389768
 10
15.428939
 20
785.7150569999999
 10
16.354423
 20
786.935903
 10
17.599129
 20
788.00539
 10
19.115224
 20
788.882417
 10
20.844445
 20
789.533282
 10
22.720339
 20
789.9329719999997
 10
24.670817
 20
790.0661269999996
  0
ARC
  5
5D5
330
828
100
AcDbEntity
  8
DETAIL
100
AcDbCircle
 10
24.66514500000001
 20
785.925288
 30
0.0
 40
9.996876999999999
100
AcDbArc
 50
89.921521
 51
179.921521
  0
LINE
  5
5D6
330
828
100
AcDbEntity
  8
DETAIL
100
AcDbLine
 10
14.668278
 20
785.938981
 30
0.0
 11
14.654585
 21
775.9421139999997
 31
0.0
  0
LINE
  5
5D7
330
828
100
AcDbEntity
  8
DETAIL
100
AcDbLine
 10
14.72305
 20
825.9264509999997
 30
0.0
 11
14.709357
 21
815.9295829999999
 31
0.0
  0
ARC
  5
5D8
330
828
100
AcDbEntity
  8
DETAIL
100
AcDbCircle
 10
24.939004
 20
985.862636
 30
0.0
 40
9.996876999999999
100
AcDbArc
 50
89.921521
 51
179.921521
  0
LWPOLYLINE
  5
5D9
330
828
100
AcDbEntity
  8
DETAIL
100
AcDbPolyline
 90
        9
 70
     0
 43
0.0
 10
14.938126
 20
982.948314
 10
15.132102
 20
984.327116
 10
15.702797
 20
985.652404
 10
16.628281
 20
986.87325
 10
17.872987
 20
987.942737
 10
19.389082
 20
988.819765
 10
21.118303
 20
989.470629
 10
22.994198
 20
989.870319
 10
24.944676
 20
990.003474
  0
LINE
  5
5E4
330
828
100
AcDbEntity
  8
DETAIL
100
AcDbLine
 10
14.942137
 20
985.8763289999997
 30
0.0
 11
14.928444
 21
975.879461
 31
0.0
  0
LWPOLYLINE
  5
5E5
330
828
100
AcDbEntity
  8
DETAIL
100
AcDbPolyline
 90
        9
 70
     0
 43
0.0
 10
14.773811
 20
862.9859059999999
 10
14.967787
 20
864.364707
 10
15.538482
 20
865.689996
 10
16.463966
 20
866.910842
 10
17.708672
 20
867.9803289999997
 10
19.224767
 20
868.8573560000001
 10
20.953988
 20
869.508221
 10
22.829882
 20
869.9079109999999
 10
24.780361
 20
870.041065
  0
ARC
  5
5F0
330
828
100
AcDbEntity
  8
DETAIL
100
AcDbCircle
 10
24.774689
 20
865.900227
 30
0.0
 40
9.996876999999999
100
AcDbArc
 50
89.921521
 51
179.921521
  0
LINE
  5
5F1
330
828
100
AcDbEntity
  8
DETAIL
100
AcDbLine
 10
14.777821
 20
865.91392
 30
0.0
 11
14.764129
 21
855.9170529999999
 31
0.0
  0
LWPOLYLINE
  5
5F2
330
828
100
AcDbEntity
  8
DETAIL
100
AcDbPolyline
 90
        9
 70
     0
 43
0.0
 10
14.828583
 20
902.973375
 10
15.022559
 20
904.3521769999999
 10
15.593254
 20
905.677466
 10
16.518738
 20
906.8983119999996
 10
17.763444
 20
907.9677979999999
 10
19.279539
 20
908.8448259999999
 10
21.00876
 20
909.495691
 10
22.884654
 20
909.89538
 10
24.835132
 20
910.028535
  0
ARC
  5
5FD
330
828
100
AcDbEntity
  8
DETAIL
100
AcDbCircle
 10
24.829461
 20
905.8876970000001
 30
0.0
 40
9.996876999999999
100
AcDbArc
 50
89.921521
 51
179.921521
  0
LINE
  5
5FE
330
828
100
AcDbEntity
  8
DETAIL
100
AcDbLine
 10
14.832593
 20
905.90139
 30
0.0
 11
14.8189
 21
895.904522
 31
0.0
  0
LWPOLYLINE
  5
5FF
330
828
100
AcDbEntity
  8
DETAIL
100
AcDbPolyline
 90
        9
 70
     0
 43
0.0
 10
14.883354
 20
942.9608449999999
 10
15.07733
 20
944.339646
 10
15.648026
 20
945.6649350000001
 10
16.573509
 20
946.8857809999999
 10
17.818215
 20
947.9552680000001
 10
19.33431
 20
948.8322949999997
 10
21.063531
 20
949.4831599999999
 10
22.939426
 20
949.88285
 10
24.889904
 20
950.0160039999999
  0
ARC
  5
60A
330
828
100
AcDbEntity
  8
DETAIL
100
AcDbCircle
 10
24.884232
 20
945.875166
 30
0.0
 40
9.996876999999999
100
AcDbArc
 50
89.921521
 51
179.921521
  0
LINE
  5
60B
330
828
100
AcDbEntity
  8
DETAIL
100
AcDbLine
 10
14.887365
 20
945.888859
 30
0.0
 11
14.873672
 21
935.8919919999999
 31
0.0
  0
LWPOLYLINE
  5
60C
330
828
100
AcDbEntity
  8
DETAIL
100
AcDbPolyline
 90
        9
 70
     0
 43
0.0
 10
14.993076
 20
1023.065783
 10
15.187052
 20
1024.444585
 10
15.757747
 20
1025.769874
 10
16.683231
 20
1026.99072
 10
17.927937
 20
1028.060206
 10
19.444032
 20
1028.937234
 10
21.173253
 20
1029.588099
 10
23.049147
 20
1029.987788
 10
24.999625
 20
1030.120943
  0
ARC
  5
617
330
828
100
AcDbEntity
  8
DETAIL
100
AcDbCircle
 10
24.993954
 20
1025.980105
 30
0.0
 40
9.996876999999999
100
AcDbArc
 50
89.921521
 51
179.921521
  0
LINE
  5
618
330
828
100
AcDbEntity
  8
DETAIL
100
AcDbLine
 10
14.997086
 20
1025.993798
 30
0.0
 11
14.983393
 21
1015.996931
 31
0.0
  0
LINE
  5
619
330
828
100
AcDbEntity
  8
OUTLINE
100
AcDbLine
 10
-490.0000239999998
 20
1650.0
 30
0.0
 11
490.0000239999998
 21
1650.0
 31
0.0
  0
LINE
  5
61A
330
828
100
AcDbEntity
  8
SIZE
100
AcDbLine
 10
-481.0
 20
-20.0
 30
0.0
 11
-481.0
 21
-337.267131
 31
0.0
  0
LINE
  5
61B
330
828
100
AcDbEntity
  8
SIZE
100
AcDbLine
 10
481.0
 20
-20.0
 30
0.0
 11
481.0
 21
-337.267131
 31
0.0
  0
LINE
  5
61C
330
828
100
AcDbEntity
  8
SIZE
100
AcDbLine
 10
-471.0
 20
-307.267131
 30
0.0
 11
471.0
 21
-307.267131
 31
0.0
  0
CIRCLE
  5
61D
330
828
100
AcDbEntity
  8
SIZE
100
AcDbCircle
 10
-481.0
 20
-307.267131
 30
0.0
 40
5.0
  0
LINE
  5
61E
330
828
100
AcDbEntity
  8
SIZE
100
AcDbLine
 10
-476.0
 20
-307.267131
 30
0.0
 11
-471.0
 21
-307.267131
 31
0.0
  0
CIRCLE
  5
61F
330
828
100
AcDbEntity
  8
SIZE
100
AcDbCircle
 10
481.0
 20
-307.267131
 30
0.0
 40
5.0
  0
LINE
  5
620
330
828
100
AcDbEntity
  8
SIZE
100
AcDbLine
 10
476.0
 20
-307.267131
 30
0.0
 11
471.0
 21
-307.267131
 31
0.0
  0
TEXT
  5
621
330
828
100
AcDbEntity
  8
SIZE
100
AcDbText
 10
-74.05714285714285
 20
-287.267131
 30
0.0
 40
64.0
  1
962
 41
0.9
 72
     1
 11
0.0
 21
-287.267131
 31
0.0
100
AcDbText
  0
LINE
  5
625
330
828
100
AcDbEntity
  8
SIZE
100
AcDbLine
 10
507.0
 20
-20.0
 30
0.0
 11
507.0
 21
-516.482856
 31
0.0
  0
LINE
  5
626
330
828
100
AcDbEntity
  8
SIZE
100
AcDbLine
 10
-507.0
 20
-20.0
 30
0.0
 11
-507.0
 21
-516.482856
 31
0.0
  0
LINE
  5
627
330
828
100
AcDbEntity
  8
SIZE
100
AcDbLine
 10
497.0
 20
-486.4828559999998
 30
0.0
 11
-497.0
 21
-486.4828559999998
 31
0.0
  0
CIRCLE
  5
628
330
828
100
AcDbEntity
  8
SIZE
100
AcDbCircle
 10
507.0
 20
-486.4828559999998
 30
0.0
 40
5.0
  0
LINE
  5
629
330
828
100
AcDbEntity
  8
SIZE
100
AcDbLine
 10
502.0
 20
-486.4828559999998
 30
0.0
 11
497.0
 21
-486.4828559999998
 31
0.0
  0
CIRCLE
  5
62A
330
828
100
AcDbEntity
  8
SIZE
100
AcDbCircle
 10
-507.0
 20
-486.4828559999998
 30
0.0
 40
5.0
  0
LINE
  5
62B
330
828
100
AcDbEntity
  8
SIZE
100
AcDbLine
 10
-502.0
 20
-486.4828559999998
 30
0.0
 11
-497.0
 21
-486.4828559999998
 31
0.0
  0
TEXT
  5
62C
330
828
100
AcDbEntity
  8
SIZE
100
AcDbText
 10
-91.88571428571426
 20
-466.482856
 30
0.0
 40
64.0
  1
1014
 41
0.9
 72
     1
 11
0.0
 21
-466.482856
 31
0.0
100
AcDbText
  0
LINE
  5
630
330
828
100
AcDbEntity
  8
SIZE
100
AcDbLine
 10
-521.0
 20
-17.750703
 30
0.0
 11
-521.0
 21
-707.399736
 31
0.0
  0
LINE
  5
631
330
828
100
AcDbEntity
  8
SIZE
100
AcDbLine
 10
521.0
 20
-17.750703
 30
0.0
 11
521.0
 21
-707.399736
 31
0.0
  0
LINE
  5
632
330
828
100
AcDbEntity
  8
SIZE
100
AcDbLine
 10
-511.0
 20
-677.399736
 30
0.0
 11
511.0
 21
-677.399736
 31
0.0
  0
CIRCLE
  5
633
330
828
100
AcDbEntity
  8
SIZE
100
AcDbCircle
 10
-521.0
 20
-677.399736
 30
0.0
 40
5.0
  0
LINE
  5
634
330
828
100
AcDbEntity
  8
SIZE
100
AcDbLine
 10
-516.0
 20
-677.399736
 30
0.0
 11
-511.0
 21
-677.399736
 31
0.0
  0
CIRCLE
  5
635
330
828
100
AcDbEntity
  8
SIZE
100
AcDbCircle
 10
521.0
 20
-677.399736
 30
0.0
 40
5.0
  0
LINE
  5
636
330
828
100
AcDbEntity
  8
SIZE
100
AcDbLine
 10
516.0
 20
-677.399736
 30
0.0
 11
511.0
 21
-677.399736
 31
0.0
  0
TEXT
  5
637
330
828
100
AcDbEntity
  8
SIZE
100
AcDbText
 10
-95.99999999999999
 20
-657.399736
 30
0.0
 40
64.0
  1
1042
 41
0.9
 72
     1
 11
0.0
 21
-657.399736
 31
0.0
100
AcDbText
  0
LINE
  5
63B
330
828
100
AcDbEntity
  8
SIZE
100
AcDbLine
 10
-541.0
 20
0.0
 30
0.0
 11
-1116.20836
 21
0.0
 31
0.0
  0
LINE
  5
63C
330
828
100
AcDbEntity
  8
SIZE
100
AcDbLine
 10
-569.134716
 20
30.0
 30
0.0
 11
-1116.20836
 21
30.0
 31
0.0
  0
LINE
  5
63D
330
828
100
AcDbEntity
  8
SIZE
100
AcDbLine
 10
-1086.20836
 20
40.0
 30
0.0
 11
-1086.20836
 21
50.0
 31
0.0
  0
LINE
  5
63E
330
828
100
AcDbEntity
  8
SIZE
100
AcDbLine
 10
-1086.20836
 20
-10.0
 30
0.0
 11
-1086.20836
 21
-153.257143
 31
0.0
  0
LINE
  5
63F
330
828
100
AcDbEntity
  8
SIZE
100
AcDbLine
 10
-1086.20836
 20
30.0
 30
0.0
 11
-1086.20836
 21
0.0
 31
0.0
  0
CIRCLE
  5
640
330
828
100
AcDbEntity
  8
SIZE
100
AcDbCircle
 10
-1086.20836
 20
30.0
 30
0.0
 40
5.0
  0
LINE
  5
641
330
828
100
AcDbEntity
  8
SIZE
100
AcDbLine
 10
-1086.20836
 20
35.0
 30
0.0
 11
-1086.20836
 21
40.0
 31
0.0
  0
CIRCLE
  5
642
330
828
100
AcDbEntity
  8
SIZE
100
AcDbCircle
 10
-1086.20836
 20
0.0
 30
0.0
 40
5.0
  0
LINE
  5
643
330
828
100
AcDbEntity
  8
SIZE
100
AcDbLine
 10
-1086.20836
 20
-5.0
 30
0.0
 11
-1086.20836
 21
-10.0
 31
0.0
  0
TEXT
  5
644
330
828
100
AcDbEntity
  8
SIZE
100
AcDbText
 10
-1106.20836
 20
-133.2571424285714
 30
0.0
 40
64.0
  1
30
 50
90.0
 41
0.9
 72
     1
 11
-1106.20836
 21
-86.628571
 31
0.0
100
AcDbText
  0
LINE
  5
648
330
828
100
AcDbEntity
  8
SIZE
100
AcDbLine
 10
-541.0
 20
0.0
 30
0.0
 11
-1284.668531
 21
0.0
 31
0.0
  0
LINE
  5
649
330
828
100
AcDbEntity
  8
SIZE
100
AcDbLine
 10
-538.633936
 20
130.0
 30
0.0
 11
-1284.668531
 21
130.0
 31
0.0
  0
LINE
  5
64A
330
828
100
AcDbEntity
  8
SIZE
100
AcDbLine
 10
-1254.668531
 20
120.0
 30
0.0
 11
-1254.668531
 21
10.0
 31
0.0
  0
LINE
  5
64B
330
828
100
AcDbEntity
  8
SIZE
100
AcDbLine
 10
-1254.668531
 20
0.0
 30
0.0
 11
-1254.668531
 21
-187.142857
 31
0.0
  0
CIRCLE
  5
64C
330
828
100
AcDbEntity
  8
SIZE
100
AcDbCircle
 10
-1254.668531
 20
130.0
 30
0.0
 40
5.0
  0
LINE
  5
64D
330
828
100
AcDbEntity
  8
SIZE
100
AcDbLine
 10
-1254.668531
 20
125.0
 30
0.0
 11
-1254.668531
 21
120.0
 31
0.0
  0
CIRCLE
  5
64E
330
828
100
AcDbEntity
  8
SIZE
100
AcDbCircle
 10
-1254.668531
 20
0.0
 30
0.0
 40
5.0
  0
LINE
  5
64F
330
828
100
AcDbEntity
  8
SIZE
100
AcDbLine
 10
-1254.668531
 20
5.0
 30
0.0
 11
-1254.668531
 21
10.0
 31
0.0
  0
TEXT
  5
650
330
828
100
AcDbEntity
  8
SIZE
100
AcDbText
 10
-1274.668531
 20
-167.1428575714285
 30
0.0
 40
64.0
  1
130
 50
90.0
 41
0.9
 72
     1
 11
-1274.668531
 21
-98.57142899999999
 31
0.0
100
AcDbText
  0
LINE
  5
654
330
828
100
AcDbEntity
  8
SIZE
100
AcDbLine
 10
-538.633936
 20
130.0
 30
0.0
 11
-1284.668531
 21
130.0
 31
0.0
  0
LINE
  5
655
330
828
100
AcDbEntity
  8
SIZE
100
AcDbLine
 10
-530.636434
 20
190.0
 30
0.0
 11
-1284.668531
 21
190.0
 31
0.0
  0
LINE
  5
656
330
828
100
AcDbEntity
  8
SIZE
100
AcDbLine
 10
-1254.668531
 20
120.0
 30
0.0
 11
-1254.668531
 21
110.0
 31
0.0
  0
LINE
  5
657
330
828
100
AcDbEntity
  8
SIZE
100
AcDbLine
 10
-1254.668531
 20
200.0
 30
0.0
 11
-1254.668531
 21
210.0
 31
0.0
  0
LINE
  5
658
330
828
100
AcDbEntity
  8
SIZE
100
AcDbLine
 10
-1254.668531
 20
160.0
 30
0.0
 11
-1121.289778
 21
274.419728
 31
0.0
  0
LINE
  5
659
330
828
100
AcDbEntity
  8
SIZE
100
AcDbLine
 10
-1121.289778
 20
274.419728
 30
0.0
 11
-1121.289778
 21
407.676871
 31
0.0
  0
TEXT
  5
65A
330
828
100
AcDbEntity
  8
SIZE
100
AcDbText
 10
-1141.289777999999
 20
294.4197285714285
 30
0.0
 40
64.0
  1
60
 50
90.0
 41
0.9
 72
     1
 11
-1141.289777999999
 21
341.0483
 31
0.0
100
AcDbText
  0
LINE
  5
65B
330
828
100
AcDbEntity
  8
SIZE
100
AcDbLine
 10
-1254.668531
 20
130.0
 30
0.0
 11
-1254.668531
 21
190.0
 31
0.0
  0
LINE
  5
65C
330
828
100
AcDbEntity
  8
SIZE
100
AcDbLine
 10
-1254.668531
 20
130.0
 30
0.0
 11
-1254.668531
 21
190.0
 31
0.0
  0
CIRCLE
  5
65D
330
828
100
AcDbEntity
  8
SIZE
100
AcDbCircle
 10
-1254.668531
 20
130.0
 30
0.0
 40
5.0
  0
LINE
  5
65E
330
828
100
AcDbEntity
  8
SIZE
100
AcDbLine
 10
-1254.668531
 20
125.0
 30
0.0
 11
-1254.668531
 21
120.0
 31
0.0
  0
CIRCLE
  5
65F
330
828
100
AcDbEntity
  8
SIZE
100
AcDbCircle
 10
-1254.668531
 20
190.0
 30
0.0
 40
5.0
  0
LINE
  5
660
330
828
100
AcDbEntity
  8
SIZE
100
AcDbLine
 10
-1254.668531
 20
195.0
 30
0.0
 11
-1254.668531
 21
200.0
 31
0.0
  0
LINE
  5
664
330
828
100
AcDbEntity
  8
SIZE
100
AcDbLine
 10
-530.636434
 20
190.0
 30
0.0
 11
-1284.668531
 21
190.0
 31
0.0
  0
LINE
  5
665
330
828
100
AcDbEntity
  8
SIZE
100
AcDbLine
 10
-530.636434
 20
250.0
 30
0.0
 11
-1284.668531
 21
250.0
 31
0.0
  0
LINE
  5
666
330
828
100
AcDbEntity
  8
SIZE
100
AcDbLine
 10
-1254.668531
 20
200.0
 30
0.0
 11
-1254.668531
 21
240.0
 31
0.0
  0
LINE
  5
667
330
828
100
AcDbEntity
  8
SIZE
100
AcDbLine
 10
-1254.668531
 20
407.4197029999998
 30
0.0
 11
-1254.668531
 21
250.0
 31
0.0
  0
TEXT
  5
668
330
828
100
AcDbEntity
  8
SIZE
100
AcDbText
 10
-1274.668531
 20
294.1625595714286
 30
0.0
 40
64.0
  1
60
 50
90.0
 41
0.9
 72
     1
 11
-1274.668531
 21
340.791131
 31
0.0
100
AcDbText
  0
CIRCLE
  5
669
330
828
100
AcDbEntity
  8
SIZE
100
AcDbCircle
 10
-1254.668531
 20
190.0
 30
0.0
 40
5.0
  0
LINE
  5
66A
330
828
100
AcDbEntity
  8
SIZE
100
AcDbLine
 10
-1254.668531
 20
195.0
 30
0.0
 11
-1254.668531
 21
200.0
 31
0.0
  0
CIRCLE
  5
66B
330
828
100
AcDbEntity
  8
SIZE
100
AcDbCircle
 10
-1254.668531
 20
250.0
 30
0.0
 40
5.0
  0
LINE
  5
66C
330
828
100
AcDbEntity
  8
SIZE
100
AcDbLine
 10
-1254.668531
 20
245.0
 30
0.0
 11
-1254.668531
 21
240.0
 31
0.0
  0
LINE
  5
670
330
828
100
AcDbEntity
  8
SIZE
100
AcDbLine
 10
-543.2753429999998
 20
505.0011809999999
 30
0.0
 11
-1498.075337
 21
505.0011809999999
 31
0.0
  0
LINE
  5
671
330
828
100
AcDbEntity
  8
SIZE
100
AcDbLine
 10
-540.1387519999998
 20
0.0
 30
0.0
 11
-1498.075337
 21
0.0
 31
0.0
  0
LINE
  5
672
330
828
100
AcDbEntity
  8
SIZE
100
AcDbLine
 10
-1468.075337
 20
495.0011809999998
 30
0.0
 11
-1468.075337
 21
10.0
 31
0.0
  0
CIRCLE
  5
673
330
828
100
AcDbEntity
  8
SIZE
100
AcDbCircle
 10
-1468.075337
 20
505.0011809999999
 30
0.0
 40
5.0
  0
LINE
  5
674
330
828
100
AcDbEntity
  8
SIZE
100
AcDbLine
 10
-1468.075337
 20
500.001181
 30
0.0
 11
-1468.075337
 21
495.0011809999998
 31
0.0
  0
CIRCLE
  5
675
330
828
100
AcDbEntity
  8
SIZE
100
AcDbCircle
 10
-1468.075337
 20
0.0
 30
0.0
 40
5.0
  0
LINE
  5
676
330
828
100
AcDbEntity
  8
SIZE
100
AcDbLine
 10
-1468.075337
 20
5.0
 30
0.0
 11
-1468.075337
 21
10.0
 31
0.0
  0
TEXT
  5
677
330
828
100
AcDbEntity
  8
SIZE
100
AcDbText
 10
-1488.075337
 20
178.4434481428571
 30
0.0
 40
64.0
  1
505
 50
90.0
 41
0.9
 72
     1
 11
-1488.075337
 21
252.500591
 31
0.0
100
AcDbText
  0
LINE
  5
67B
330
828
100
AcDbEntity
  8
SIZE
100
AcDbLine
 10
-541.0
 20
0.0
 30
0.0
 11
-1697.619629
 21
0.0
 31
0.0
  0
LINE
  5
67C
330
828
100
AcDbEntity
  8
SIZE
100
AcDbLine
 10
-510.0000239999998
 20
80.0
 30
0.0
 11
-1697.619629
 21
80.0
 31
0.0
  0
LINE
  5
67D
330
828
100
AcDbEntity
  8
SIZE
100
AcDbLine
 10
-1667.619629
 20
70.0
 30
0.0
 11
-1667.619629
 21
10.0
 31
0.0
  0
LINE
  5
67E
330
828
100
AcDbEntity
  8
SIZE
100
AcDbLine
 10
-1667.619629
 20
0.0
 30
0.0
 11
-1667.619629
 21
-143.257143
 31
0.0
  0
CIRCLE
  5
67F
330
828
100
AcDbEntity
  8
SIZE
100
AcDbCircle
 10
-1667.619629
 20
80.0
 30
0.0
 40
5.0
  0
LINE
  5
680
330
828
100
AcDbEntity
  8
SIZE
100
AcDbLine
 10
-1667.619629
 20
75.0
 30
0.0
 11
-1667.619629
 21
70.0
 31
0.0
  0
CIRCLE
  5
681
330
828
100
AcDbEntity
  8
SIZE
100
AcDbCircle
 10
-1667.619629
 20
0.0
 30
0.0
 40
5.0
  0
LINE
  5
682
330
828
100
AcDbEntity
  8
SIZE
100
AcDbLine
 10
-1667.619629
 20
5.0
 30
0.0
 11
-1667.619629
 21
10.0
 31
0.0
  0
TEXT
  5
683
330
828
100
AcDbEntity
  8
SIZE
100
AcDbText
 10
-1687.619629
 20
-123.2571424285714
 30
0.0
 40
64.0
  1
80
 50
90.0
 41
0.9
 72
     1
 11
-1687.619629
 21
-76.628571
 31
0.0
100
AcDbText
  0
LINE
  5
687
330
828
100
AcDbEntity
  8
SIZE
100
AcDbLine
 10
-510.0000239999998
 20
80.0
 30
0.0
 11
-1697.619629
 21
80.0
 31
0.0
  0
LINE
  5
688
330
828
100
AcDbEntity
  8
SIZE
100
AcDbLine
 10
-447.02694
 20
615.9976069999999
 30
0.0
 11
-1697.619629
 21
615.9976069999999
 31
0.0
  0
LINE
  5
689
330
828
100
AcDbEntity
  8
SIZE
100
AcDbLine
 10
-1667.619629
 20
90.0
 30
0.0
 11
-1667.619629
 21
605.997607
 31
0.0
  0
CIRCLE
  5
68A
330
828
100
AcDbEntity
  8
SIZE
100
AcDbCircle
 10
-1667.619629
 20
80.0
 30
0.0
 40
5.0
  0
LINE
  5
68B
330
828
100
AcDbEntity
  8
SIZE
100
AcDbLine
 10
-1667.619629
 20
85.0
 30
0.0
 11
-1667.619629
 21
90.0
 31
0.0
  0
CIRCLE
  5
68C
330
828
100
AcDbEntity
  8
SIZE
100
AcDbCircle
 10
-1667.619629
 20
615.9976069999999
 30
0.0
 40
5.0
  0
LINE
  5
68D
330
828
100
AcDbEntity
  8
SIZE
100
AcDbLine
 10
-1667.619629
 20
610.997607
 30
0.0
 11
-1667.619629
 21
605.997607
 31
0.0
  0
TEXT
  5
68E
330
828
100
AcDbEntity
  8
SIZE
100
AcDbText
 10
-1687.619629
 20
275.3130897142857
 30
0.0
 40
64.0
  1
536
 50
90.0
 41
0.9
 72
     1
 11
-1687.619629
 21
347.998804
 31
0.0
100
AcDbText
  0
LINE
  5
692
330
828
100
AcDbEntity
  8
SIZE
100
AcDbLine
 10
-447.02694
 20
615.9976069999999
 30
0.0
 11
-1697.619629
 21
615.9976069999999
 31
0.0
  0
LINE
  5
693
330
828
100
AcDbEntity
  8
SIZE
100
AcDbLine
 10
-437.030063
 20
1035.99643
 30
0.0
 11
-1697.619629
 21
1035.99643
 31
0.0
  0
LINE
  5
694
330
828
100
AcDbEntity
  8
SIZE
100
AcDbLine
 10
-1667.619629
 20
625.997607
 30
0.0
 11
-1667.619629
 21
1025.99643
 31
0.0
  0
CIRCLE
  5
695
330
828
100
AcDbEntity
  8
SIZE
100
AcDbCircle
 10
-1667.619629
 20
615.9976069999999
 30
0.0
 40
5.0
  0
LINE
  5
696
330
828
100
AcDbEntity
  8
SIZE
100
AcDbLine
 10
-1667.619629
 20
620.997607
 30
0.0
 11
-1667.619629
 21
625.997607
 31
0.0
  0
CIRCLE
  5
697
330
828
100
AcDbEntity
  8
SIZE
100
AcDbCircle
 10
-1667.619629
 20
1035.99643
 30
0.0
 40
5.0
  0
LINE
  5
698
330
828
100
AcDbEntity
  8
SIZE
100
AcDbLine
 10
-1667.619629
 20
1030.99643
 30
0.0
 11
-1667.619629
 21
1025.99643
 31
0.0
  0
TEXT
  5
699
330
828
100
AcDbEntity
  8
SIZE
100
AcDbText
 10
-1687.619629
 20
751.9398761428572
 30
0.0
 40
64.0
  1
420
 50
90.0
 41
0.9
 72
     1
 11
-1687.619629
 21
825.997019
 31
0.0
100
AcDbText
  0
LINE
  5
69D
330
828
100
AcDbEntity
  8
SIZE
100
AcDbLine
 10
548.930719
 20
30.0
 30
0.0
 11
778.8039309999996
 21
30.0
 31
0.0
  0
LINE
  5
69E
330
828
100
AcDbEntity
  8
SIZE
100
AcDbLine
 10
540.1387519999998
 20
0.0
 30
0.0
 11
778.8039309999996
 21
0.0
 31
0.0
  0
LINE
  5
69F
330
828
100
AcDbEntity
  8
SIZE
100
AcDbLine
 10
748.8039309999996
 20
40.0
 30
0.0
 11
748.8039309999996
 21
50.0
 31
0.0
  0
LINE
  5
6A0
330
828
100
AcDbEntity
  8
SIZE
100
AcDbLine
 10
748.8039309999996
 20
-10.0
 30
0.0
 11
748.8039309999996
 21
-153.257143
 31
0.0
  0
LINE
  5
6A1
330
828
100
AcDbEntity
  8
SIZE
100
AcDbLine
 10
748.8039309999996
 20
30.0
 30
0.0
 11
748.8039309999996
 21
0.0
 31
0.0
  0
CIRCLE
  5
6A2
330
828
100
AcDbEntity
  8
SIZE
100
AcDbCircle
 10
748.8039309999996
 20
30.0
 30
0.0
 40
5.0
  0
LINE
  5
6A3
330
828
100
AcDbEntity
  8
SIZE
100
AcDbLine
 10
748.8039309999996
 20
35.0
 30
0.0
 11
748.8039309999996
 21
40.0
 31
0.0
  0
CIRCLE
  5
6A4
330
828
100
AcDbEntity
  8
SIZE
100
AcDbCircle
 10
748.8039309999996
 20
0.0
 30
0.0
 40
5.0
  0
LINE
  5
6A5
330
828
100
AcDbEntity
  8
SIZE
100
AcDbLine
 10
748.8039309999996
 20
-5.0
 30
0.0
 11
748.8039309999996
 21
-10.0
 31
0.0
  0
TEXT
  5
6A6
330
828
100
AcDbEntity
  8
SIZE
100
AcDbText
 10
728.8039309999996
 20
-133.2571424285714
 30
0.0
 40
64.0
  1
30
 50
90.0
 41
0.9
 72
     1
 11
728.8039309999996
 21
-86.628571
 31
0.0
100
AcDbText
  0
TEXT
  5
6AA
330
828
100
AcDbEntity
  8
NOTE
100
AcDbText
 10
89.281774
 20
1758.348232
 30
0.0
 40
50.0
  1
空気吹出
 50
359.999997
 41
0.6310000000000003
  7
STANDARD1
100
AcDbText
  0
LINE
  5
6AB
330
828
100
AcDbEntity
  8
NOTE
100
AcDbLine
 10
287.53463
 20
1829.873823
 30
0.0
 11
243.548373
 21
1781.888815
 31
0.0
  0
LINE
  5
6AC
330
828
100
AcDbEntity
  8
NOTE
100
AcDbLine
 10
267.540877
 20
1749.898809
 30
0.0
 11
307.5283839999999
 21
1749.898809
 31
0.0
  0
LINE
  5
6AD
330
828
100
AcDbEntity
  8
NOTE
100
AcDbLine
 10
267.540877
 20
1781.888815
 30
0.0
 11
267.540877
 21
1749.898809
 31
0.0
  0
LINE
  5
6AE
330
828
100
AcDbEntity
  8
NOTE
100
AcDbLine
 10
243.548373
 20
1781.888815
 30
0.0
 11
267.540877
 21
1781.888815
 31
0.0
  0
LINE
  5
6AF
330
828
100
AcDbEntity
  8
NOTE
100
AcDbLine
 10
307.5283839999999
 20
1781.888815
 30
0.0
 11
307.5283839999999
 21
1749.898809
 31
0.0
  0
LINE
  5
6B0
330
828
100
AcDbEntity
  8
NOTE
100
AcDbLine
 10
307.5283839999999
 20
1781.888815
 30
0.0
 11
331.520888
 21
1781.888815
 31
0.0
  0
LINE
  5
6B1
330
828
100
AcDbEntity
  8
NOTE
100
AcDbLine
 10
287.53463
 20
1829.873823
 30
0.0
 11
331.520888
 21
1781.888815
 31
0.0
  0
LINE
  5
6B2
330
828
100
AcDbEntity
  8
DETAIL
100
AcDbLine
 10
441.000024
 20
1725.0
 30
0.0
 11
-438.999976
 21
1725.0
 31
0.0
  0
LINE
  5
6B3
330
828
100
AcDbEntity
  8
DETAIL
100
AcDbLine
 10
-418.999976
 20
1650.0
 30
0.0
 11
-418.999976
 21
1725.0
 31
0.0
  0
LINE
  5
6B4
330
828
100
AcDbEntity
  8
DETAIL
100
AcDbLine
 10
421.000024
 20
1650.0
 30
0.0
 11
421.000024
 21
1725.0
 31
0.0
  0
LINE
  5
6B5
330
828
100
AcDbEntity
  8
NOTE
100
AcDbLine
 10
-438.999976
 20
1725.0
 30
0.0
 11
-422.999976
 21
1725.0
 31
0.0
  0
LINE
  5
6B6
330
828
100
AcDbEntity
  8
NOTE
100
AcDbLine
 10
-422.999976
 20
1725.0
 30
0.0
 11
-438.999976
 21
1725.0
 31
0.0
  0
LINE
  5
6B7
330
828
100
AcDbEntity
  8
NOTE
100
AcDbLine
 10
-430.999976
 20
1733.0
 30
0.0
 11
-430.999976
 21
1717.0
 31
0.0
  0
LINE
  5
6B8
330
828
100
AcDbEntity
  8
NOTE
100
AcDbLine
 10
-406.9999759999998
 20
1725.0
 30
0.0
 11
-390.999976
 21
1725.0
 31
0.0
  0
LINE
  5
6B9
330
828
100
AcDbEntity
  8
NOTE
100
AcDbLine
 10
-390.999976
 20
1725.0
 30
0.0
 11
-406.9999759999998
 21
1725.0
 31
0.0
  0
LINE
  5
6BA
330
828
100
AcDbEntity
  8
NOTE
100
AcDbLine
 10
-398.999976
 20
1733.0
 30
0.0
 11
-398.999976
 21
1717.0
 31
0.0
  0
LINE
  5
6BB
330
828
100
AcDbEntity
  8
NOTE
100
AcDbLine
 10
-246.999976
 20
1725.0
 30
0.0
 11
-230.999976
 21
1725.0
 31
0.0
  0
LINE
  5
6BC
330
828
100
AcDbEntity
  8
NOTE
100
AcDbLine
 10
-230.999976
 20
1725.0
 30
0.0
 11
-246.999976
 21
1725.0
 31
0.0
  0
LINE
  5
6BD
330
828
100
AcDbEntity
  8
NOTE
100
AcDbLine
 10
-238.999976
 20
1733.0
 30
0.0
 11
-238.999976
 21
1717.0
 31
0.0
  0
LINE
  5
6BE
330
828
100
AcDbEntity
  8
NOTE
100
AcDbLine
 10
-86.99997600000001
 20
1725.0
 30
0.0
 11
-70.999976
 21
1725.0
 31
0.0
  0
LINE
  5
6BF
330
828
100
AcDbEntity
  8
NOTE
100
AcDbLine
 10
-70.999976
 20
1725.0
 30
0.0
 11
-86.99997600000001
 21
1725.0
 31
0.0
  0
LINE
  5
6C0
330
828
100
AcDbEntity
  8
NOTE
100
AcDbLine
 10
-78.999976
 20
1733.0
 30
0.0
 11
-78.999976
 21
1717.0
 31
0.0
  0
LINE
  5
6C1
330
828
100
AcDbEntity
  8
NOTE
100
AcDbLine
 10
73.000024
 20
1725.0
 30
0.0
 11
89.00002399999998
 21
1725.0
 31
0.0
  0
LINE
  5
6C2
330
828
100
AcDbEntity
  8
NOTE
100
AcDbLine
 10
89.00002399999998
 20
1725.0
 30
0.0
 11
73.000024
 21
1725.0
 31
0.0
  0
LINE
  5
6C3
330
828
100
AcDbEntity
  8
NOTE
100
AcDbLine
 10
81.00002399999999
 20
1733.0
 30
0.0
 11
81.00002399999999
 21
1717.0
 31
0.0
  0
LINE
  5
6C4
330
828
100
AcDbEntity
  8
NOTE
100
AcDbLine
 10
233.000024
 20
1725.0
 30
0.0
 11
249.000024
 21
1725.0
 31
0.0
  0
LINE
  5
6C5
330
828
100
AcDbEntity
  8
NOTE
100
AcDbLine
 10
249.000024
 20
1725.0
 30
0.0
 11
233.000024
 21
1725.0
 31
0.0
  0
LINE
  5
6C6
330
828
100
AcDbEntity
  8
NOTE
100
AcDbLine
 10
241.000024
 20
1733.0
 30
0.0
 11
241.000024
 21
1717.0
 31
0.0
  0
LINE
  5
6C7
330
828
100
AcDbEntity
  8
NOTE
100
AcDbLine
 10
393.000024
 20
1725.0
 30
0.0
 11
409.000024
 21
1725.0
 31
0.0
  0
LINE
  5
6C8
330
828
100
AcDbEntity
  8
NOTE
100
AcDbLine
 10
409.000024
 20
1725.0
 30
0.0
 11
393.000024
 21
1725.0
 31
0.0
  0
LINE
  5
6C9
330
828
100
AcDbEntity
  8
NOTE
100
AcDbLine
 10
401.000024
 20
1733.0
 30
0.0
 11
401.000024
 21
1717.0
 31
0.0
  0
LINE
  5
6CA
330
828
100
AcDbEntity
  8
NOTE
100
AcDbLine
 10
425.000024
 20
1725.0
 30
0.0
 11
441.000024
 21
1725.0
 31
0.0
  0
LINE
  5
6CB
330
828
100
AcDbEntity
  8
NOTE
100
AcDbLine
 10
441.000024
 20
1725.0
 30
0.0
 11
425.000024
 21
1725.0
 31
0.0
  0
LINE
  5
6CC
330
828
100
AcDbEntity
  8
NOTE
100
AcDbLine
 10
433.000024
 20
1733.0
 30
0.0
 11
433.000024
 21
1717.0
 31
0.0
  0
LINE
  5
6CD
330
828
100
AcDbEntity
  8
OUTLINE
100
AcDbLine
 10
-418.999976
 20
1650.0
 30
0.0
 11
-418.999976
 21
1725.0
 31
0.0
  0
LINE
  5
6CE
330
828
100
AcDbEntity
  8
OUTLINE
100
AcDbLine
 10
-438.999976
 20
1725.0
 30
0.0
 11
441.000024
 21
1725.0
 31
0.0
  0
LINE
  5
6CF
330
828
100
AcDbEntity
  8
OUTLINE
100
AcDbLine
 10
421.000024
 20
1725.0
 30
0.0
 11
421.000024
 21
1650.0
 31
0.0
  0
TEXT
  5
6D0
330
828
100
AcDbEntity
  8
NOTE
100
AcDbText
 10
-230.205108
 20
1758.348226
 30
0.0
 40
50.0
  1
空気吹出
 50
0.000003
 41
0.6310000000000003
  7
STANDARD1
100
AcDbText
  0
LINE
  5
6D1
330
828
100
AcDbEntity
  8
NOTE
100
AcDbLine
 10
-267.540877
 20
1749.898809
 30
0.0
 11
-307.5283839999999
 21
1749.898809
 31
0.0
  0
LINE
  5
6D2
330
828
100
AcDbEntity
  8
NOTE
100
AcDbLine
 10
-267.540877
 20
1781.888815
 30
0.0
 11
-267.540877
 21
1749.898809
 31
0.0
  0
LINE
  5
6D3
330
828
100
AcDbEntity
  8
NOTE
100
AcDbLine
 10
-307.5283839999999
 20
1781.888815
 30
0.0
 11
-307.5283839999999
 21
1749.898809
 31
0.0
  0
LINE
  5
6D4
330
828
100
AcDbEntity
  8
NOTE
100
AcDbLine
 10
-307.5283839999999
 20
1781.888815
 30
0.0
 11
-331.520888
 21
1781.888815
 31
0.0
  0
LINE
  5
6D5
330
828
100
AcDbEntity
  8
NOTE
100
AcDbLine
 10
-287.53463
 20
1829.873823
 30
0.0
 11
-331.520888
 21
1781.888815
 31
0.0
  0
LINE
  5
6D6
330
828
100
AcDbEntity
  8
NOTE
100
AcDbLine
 10
-287.53463
 20
1829.873823
 30
0.0
 11
-243.548373
 21
1781.888815
 31
0.0
  0
LINE
  5
6D7
330
828
100
AcDbEntity
  8
NOTE
100
AcDbLine
 10
-243.548373
 20
1781.888815
 30
0.0
 11
-267.540877
 21
1781.888815
 31
0.0
  0
LINE
  5
6D8
330
828
100
AcDbEntity
  8
SIZE
100
AcDbLine
 10
401.000024
 20
1753.0
 30
0.0
 11
401.000024
 21
1877.190829
 31
0.0
  0
LINE
  5
6D9
330
828
100
AcDbEntity
  8
SIZE
100
AcDbLine
 10
241.000024
 20
1753.0
 30
0.0
 11
241.000024
 21
1877.190829
 31
0.0
  0
LINE
  5
6DA
330
828
100
AcDbEntity
  8
SIZE
100
AcDbLine
 10
411.0000239999997
 20
1847.190829
 30
0.0
 11
421.000024
 21
1847.190829
 31
0.0
  0
LINE
  5
6DB
330
828
100
AcDbEntity
  8
SIZE
100
AcDbLine
 10
231.000024
 20
1847.190829
 30
0.0
 11
221.000024
 21
1847.190829
 31
0.0
  0
LINE
  5
6DC
330
828
100
AcDbEntity
  8
SIZE
100
AcDbLine
 10
401.000024
 20
1847.190829
 30
0.0
 11
241.000024
 21
1847.190829
 31
0.0
  0
CIRCLE
  5
6DD
330
828
100
AcDbEntity
  8
SIZE
100
AcDbCircle
 10
401.000024
 20
1847.190829
 30
0.0
 40
5.0
  0
LINE
  5
6DE
330
828
100
AcDbEntity
  8
SIZE
100
AcDbLine
 10
406.0000239999998
 20
1847.190829
 30
0.0
 11
411.0000239999997
 21
1847.190829
 31
0.0
  0
CIRCLE
  5
6DF
330
828
100
AcDbEntity
  8
SIZE
100
AcDbCircle
 10
241.000024
 20
1847.190829
 30
0.0
 40
5.0
  0
LINE
  5
6E0
330
828
100
AcDbEntity
  8
SIZE
100
AcDbLine
 10
236.000024
 20
1847.190829
 30
0.0
 11
231.000024
 21
1847.190829
 31
0.0
  0
TEXT
  5
6E1
330
828
100
AcDbEntity
  8
SIZE
100
AcDbText
 10
252.4285954285714
 20
1867.190829
 30
0.0
 40
64.0
  1
160
 41
0.9
 72
     1
 11
321.000024
 21
1867.190829
 31
0.0
100
AcDbText
  0
LINE
  5
6E5
330
828
100
AcDbEntity
  8
SIZE
100
AcDbLine
 10
-398.999976
 20
1753.0
 30
0.0
 11
-398.999976
 21
1989.076417999999
 31
0.0
  0
LINE
  5
6E6
330
828
100
AcDbEntity
  8
SIZE
100
AcDbLine
 10
401.000024
 20
1753.0
 30
0.0
 11
401.000024
 21
1989.076417999999
 31
0.0
  0
LINE
  5
6E7
330
828
100
AcDbEntity
  8
SIZE
100
AcDbLine
 10
-388.999976
 20
1959.076418
 30
0.0
 11
391.000024
 21
1959.076418
 31
0.0
  0
CIRCLE
  5
6E8
330
828
100
AcDbEntity
  8
SIZE
100
AcDbCircle
 10
-398.999976
 20
1959.076418
 30
0.0
 40
5.0
  0
LINE
  5
6E9
330
828
100
AcDbEntity
  8
SIZE
100
AcDbLine
 10
-393.999976
 20
1959.076418
 30
0.0
 11
-388.999976
 21
1959.076418
 31
0.0
  0
CIRCLE
  5
6EA
330
828
100
AcDbEntity
  8
SIZE
100
AcDbCircle
 10
401.000024
 20
1959.076418
 30
0.0
 40
5.0
  0
LINE
  5
6EB
330
828
100
AcDbEntity
  8
SIZE
100
AcDbLine
 10
396.000024
 20
1959.076418
 30
0.0
 11
391.000024
 21
1959.076418
 31
0.0
  0
TEXT
  5
6EC
330
828
100
AcDbEntity
  8
SIZE
100
AcDbText
 10
-277.3999759999998
 20
1983.838323
 30
0.0
 40
64.0
  1
5X160(=800)
 41
0.9
 72
     1
 11
1.000024
 21
1983.838323
 31
0.0
100
AcDbText
  0
LINE
  5
6F0
330
828
100
AcDbEntity
  8
SIZE
100
AcDbLine
 10
401.000024
 20
1753.0
 30
0.0
 11
401.000024
 21
1989.076417999999
 31
0.0
  0
LINE
  5
6F1
330
828
100
AcDbEntity
  8
SIZE
100
AcDbLine
 10
433.000024
 20
1753.0
 30
0.0
 11
433.000024
 21
1989.076417999999
 31
0.0
  0
LINE
  5
6F2
330
828
100
AcDbEntity
  8
SIZE
100
AcDbLine
 10
391.000024
 20
1959.076418
 30
0.0
 11
381.000024
 21
1959.076418
 31
0.0
  0
LINE
  5
6F3
330
828
100
AcDbEntity
  8
SIZE
100
AcDbLine
 10
443.000024
 20
1959.076418
 30
0.0
 11
453.0000239999998
 21
1959.076418
 31
0.0
  0
LINE
  5
6F4
330
828
100
AcDbEntity
  8
SIZE
100
AcDbLine
 10
417.000024
 20
1959.076418
 30
0.0
 11
498.1388759999998
 21
2096.652313
 31
0.0
  0
LINE
  5
6F5
330
828
100
AcDbEntity
  8
SIZE
100
AcDbLine
 10
498.1388759999998
 20
2096.652313
 30
0.0
 11
631.396019
 21
2096.652313
 31
0.0
  0
TEXT
  5
6F6
330
828
100
AcDbEntity
  8
SIZE
100
AcDbText
 10
518.1388765714286
 20
2116.652313
 30
0.0
 40
64.0
  1
32
 41
0.9
 72
     1
 11
564.767448
 21
2116.652313
 31
0.0
100
AcDbText
  0
LINE
  5
6F7
330
828
100
AcDbEntity
  8
SIZE
100
AcDbLine
 10
401.000024
 20
1959.076418
 30
0.0
 11
433.000024
 21
1959.076418
 31
0.0
  0
LINE
  5
6F8
330
828
100
AcDbEntity
  8
SIZE
100
AcDbLine
 10
401.000024
 20
1959.076418
 30
0.0
 11
433.000024
 21
1959.076418
 31
0.0
  0
CIRCLE
  5
6F9
330
828
100
AcDbEntity
  8
SIZE
100
AcDbCircle
 10
401.000024
 20
1959.076418
 30
0.0
 40
5.0
  0
LINE
  5
6FA
330
828
100
AcDbEntity
  8
SIZE
100
AcDbLine
 10
396.000024
 20
1959.076418
 30
0.0
 11
391.000024
 21
1959.076418
 31
0.0
  0
CIRCLE
  5
6FB
330
828
100
AcDbEntity
  8
SIZE
100
AcDbCircle
 10
433.000024
 20
1959.076418
 30
0.0
 40
5.0
  0
LINE
  5
6FC
330
828
100
AcDbEntity
  8
SIZE
100
AcDbLine
 10
438.000024
 20
1959.076418
 30
0.0
 11
443.000024
 21
1959.076418
 31
0.0
  0
LINE
  5
700
330
828
100
AcDbEntity
  8
SIZE
100
AcDbLine
 10
433.000024
 20
1753.0
 30
0.0
 11
433.000024
 21
1989.076417999999
 31
0.0
  0
LINE
  5
701
330
828
100
AcDbEntity
  8
SIZE
100
AcDbLine
 10
441.000024
 20
1745.0
 30
0.0
 11
441.000024
 21
1989.076417999999
 31
0.0
  0
LINE
  5
702
330
828
100
AcDbEntity
  8
SIZE
100
AcDbLine
 10
423.0000239999998
 20
1959.076418
 30
0.0
 11
413.000024
 21
1959.076418
 31
0.0
  0
LINE
  5
703
330
828
100
AcDbEntity
  8
SIZE
100
AcDbLine
 10
451.000024
 20
1959.076418
 30
0.0
 11
461.0000239999997
 21
1959.076418
 31
0.0
  0
LINE
  5
704
330
828
100
AcDbEntity
  8
SIZE
100
AcDbLine
 10
574.196006
 20
1959.076418
 30
0.0
 11
441.000024
 21
1959.076418
 31
0.0
  0
TEXT
  5
705
330
828
100
AcDbEntity
  8
SIZE
100
AcDbText
 10
515.7960059999997
 20
1979.076418
 30
0.0
 40
64.0
  1
8
 41
0.9
 72
     1
 11
534.9960059999999
 21
1979.076418
 31
0.0
100
AcDbText
  0
LINE
  5
706
330
828
100
AcDbEntity
  8
SIZE
100
AcDbLine
 10
433.000024
 20
1959.076418
 30
0.0
 11
441.000024
 21
1959.076418
 31
0.0
  0
LINE
  5
707
330
828
100
AcDbEntity
  8
SIZE
100
AcDbLine
 10
433.000024
 20
1959.076418
 30
0.0
 11
441.000024
 21
1959.076418
 31
0.0
  0
CIRCLE
  5
708
330
828
100
AcDbEntity
  8
SIZE
100
AcDbCircle
 10
433.000024
 20
1959.076418
 30
0.0
 40
5.0
  0
LINE
  5
709
330
828
100
AcDbEntity
  8
SIZE
100
AcDbLine
 10
428.0000239999998
 20
1959.076418
 30
0.0
 11
423.0000239999998
 21
1959.076418
 31
0.0
  0
CIRCLE
  5
70A
330
828
100
AcDbEntity
  8
SIZE
100
AcDbCircle
 10
441.000024
 20
1959.076418
 30
0.0
 40
5.0
  0
LINE
  5
70B
330
828
100
AcDbEntity
  8
SIZE
100
AcDbLine
 10
446.000024
 20
1959.076418
 30
0.0
 11
451.000024
 21
1959.076418
 31
0.0
  0
LINE
  5
70F
330
828
100
AcDbEntity
  8
SIZE
100
AcDbLine
 10
-418.999976
 20
1745.0
 30
0.0
 11
-418.999976
 21
2130.902571
 31
0.0
  0
LINE
  5
710
330
828
100
AcDbEntity
  8
SIZE
100
AcDbLine
 10
421.000024
 20
1745.0
 30
0.0
 11
421.000024
 21
2130.902571
 31
0.0
  0
LINE
  5
711
330
828
100
AcDbEntity
  8
SIZE
100
AcDbLine
 10
-408.999976
 20
2100.902571
 30
0.0
 11
411.0000239999997
 21
2100.902571
 31
0.0
  0
CIRCLE
  5
712
330
828
100
AcDbEntity
  8
SIZE
100
AcDbCircle
 10
-418.999976
 20
2100.902571
 30
0.0
 40
5.0
  0
LINE
  5
713
330
828
100
AcDbEntity
  8
SIZE
100
AcDbLine
 10
-413.999976
 20
2100.902571
 30
0.0
 11
-408.999976
 21
2100.902571
 31
0.0
  0
CIRCLE
  5
714
330
828
100
AcDbEntity
  8
SIZE
100
AcDbCircle
 10
421.000024
 20
2100.902571
 30
0.0
 40
5.0
  0
LINE
  5
715
330
828
100
AcDbEntity
  8
SIZE
100
AcDbLine
 10
416.000024
 20
2100.902571
 30
0.0
 11
411.0000239999997
 21
2100.902571
 31
0.0
  0
TEXT
  5
716
330
828
100
AcDbEntity
  8
SIZE
100
AcDbText
 10
-73.05711885714287
 20
2120.902571
 30
0.0
 40
64.0
  1
840
 41
0.9
 72
     1
 11
1.000024
 21
2120.902571
 31
0.0
100
AcDbText
  0
LINE
  5
71A
330
828
100
AcDbEntity
  8
SIZE
100
AcDbLine
 10
-430.999976
 20
1753.0
 30
0.0
 11
-430.999976
 21
2270.969416
 31
0.0
  0
LINE
  5
71B
330
828
100
AcDbEntity
  8
SIZE
100
AcDbLine
 10
433.000024
 20
1753.0
 30
0.0
 11
433.000024
 21
2270.969416
 31
0.0
  0
LINE
  5
71C
330
828
100
AcDbEntity
  8
SIZE
100
AcDbLine
 10
-420.999976
 20
2240.969416
 30
0.0
 11
423.0000239999998
 21
2240.969416
 31
0.0
  0
CIRCLE
  5
71D
330
828
100
AcDbEntity
  8
SIZE
100
AcDbCircle
 10
-430.999976
 20
2240.969416
 30
0.0
 40
5.0
  0
LINE
  5
71E
330
828
100
AcDbEntity
  8
SIZE
100
AcDbLine
 10
-425.999976
 20
2240.969416
 30
0.0
 11
-420.999976
 21
2240.969416
 31
0.0
  0
CIRCLE
  5
71F
330
828
100
AcDbEntity
  8
SIZE
100
AcDbCircle
 10
433.000024
 20
2240.969416
 30
0.0
 40
5.0
  0
LINE
  5
720
330
828
100
AcDbEntity
  8
SIZE
100
AcDbLine
 10
428.0000239999998
 20
2240.969416
 30
0.0
 11
423.0000239999998
 21
2240.969416
 31
0.0
  0
TEXT
  5
721
330
828
100
AcDbEntity
  8
SIZE
100
AcDbText
 10
-74.42854742857142
 20
2260.969416
 30
0.0
 40
64.0
  1
864
 41
0.9
 72
     1
 11
1.000024
 21
2260.969416
 31
0.0
100
AcDbText
  0
LINE
  5
725
330
828
100
AcDbEntity
  8
SIZE
100
AcDbLine
 10
433.000024
 20
1753.0
 30
0.0
 11
433.000024
 21
2270.969416
 31
0.0
  0
LINE
  5
726
330
828
100
AcDbEntity
  8
SIZE
100
AcDbLine
 10
490.0000239999998
 20
1670.0
 30
0.0
 11
490.0000239999998
 21
2270.969416
 31
0.0
  0
LINE
  5
727
330
828
100
AcDbEntity
  8
SIZE
100
AcDbLine
 10
423.0000239999998
 20
2240.969416
 30
0.0
 11
413.000024
 21
2240.969416
 31
0.0
  0
LINE
  5
728
330
828
100
AcDbEntity
  8
SIZE
100
AcDbLine
 10
500.000024
 20
2240.969416
 30
0.0
 11
510.0000239999998
 21
2240.969416
 31
0.0
  0
LINE
  5
729
330
828
100
AcDbEntity
  8
SIZE
100
AcDbLine
 10
643.767385
 20
2240.969416
 30
0.0
 11
490.0000239999998
 21
2240.969416
 31
0.0
  0
TEXT
  5
72A
330
828
100
AcDbEntity
  8
SIZE
100
AcDbText
 10
530.5102425714284
 20
2260.969416
 30
0.0
 40
64.0
  1
57
 41
0.9
 72
     1
 11
577.1388139999998
 21
2260.969416
 31
0.0
100
AcDbText
  0
LINE
  5
72B
330
828
100
AcDbEntity
  8
SIZE
100
AcDbLine
 10
433.000024
 20
2240.969416
 30
0.0
 11
490.0000239999998
 21
2240.969416
 31
0.0
  0
LINE
  5
72C
330
828
100
AcDbEntity
  8
SIZE
100
AcDbLine
 10
433.000024
 20
2240.969416
 30
0.0
 11
490.0000239999998
 21
2240.969416
 31
0.0
  0
CIRCLE
  5
72D
330
828
100
AcDbEntity
  8
SIZE
100
AcDbCircle
 10
433.000024
 20
2240.969416
 30
0.0
 40
5.0
  0
LINE
  5
72E
330
828
100
AcDbEntity
  8
SIZE
100
AcDbLine
 10
428.0000239999998
 20
2240.969416
 30
0.0
 11
423.0000239999998
 21
2240.969416
 31
0.0
  0
CIRCLE
  5
72F
330
828
100
AcDbEntity
  8
SIZE
100
AcDbCircle
 10
490.0000239999998
 20
2240.969416
 30
0.0
 40
5.0
  0
LINE
  5
730
330
828
100
AcDbEntity
  8
SIZE
100
AcDbLine
 10
495.000024
 20
2240.969416
 30
0.0
 11
500.000024
 21
2240.969416
 31
0.0
  0
LINE
  5
734
330
828
100
AcDbEntity
  8
SIZE
100
AcDbLine
 10
-438.999976
 20
1745.0
 30
0.0
 11
-438.999976
 21
2385.553183
 31
0.0
  0
LINE
  5
735
330
828
100
AcDbEntity
  8
SIZE
100
AcDbLine
 10
441.000024
 20
1745.0
 30
0.0
 11
441.000024
 21
2385.553183
 31
0.0
  0
LINE
  5
736
330
828
100
AcDbEntity
  8
SIZE
100
AcDbLine
 10
-428.9999759999998
 20
2355.553183
 30
0.0
 11
431.0000239999998
 21
2355.553183
 31
0.0
  0
CIRCLE
  5
737
330
828
100
AcDbEntity
  8
SIZE
100
AcDbCircle
 10
-438.999976
 20
2355.553183
 30
0.0
 40
5.0
  0
LINE
  5
738
330
828
100
AcDbEntity
  8
SIZE
100
AcDbLine
 10
-433.999976
 20
2355.553183
 30
0.0
 11
-428.9999759999998
 21
2355.553183
 31
0.0
  0
CIRCLE
  5
739
330
828
100
AcDbEntity
  8
SIZE
100
AcDbCircle
 10
441.000024
 20
2355.553183
 30
0.0
 40
5.0
  0
LINE
  5
73A
330
828
100
AcDbEntity
  8
SIZE
100
AcDbLine
 10
436.0000239999997
 20
2355.553183
 30
0.0
 11
431.0000239999998
 21
2355.553183
 31
0.0
  0
TEXT
  5
73B
330
828
100
AcDbEntity
  8
SIZE
100
AcDbText
 10
-73.05711885714285
 20
2375.553183
 30
0.0
 40
64.0
  1
880
 41
0.9
 72
     1
 11
1.000024
 21
2375.553183
 31
0.0
100
AcDbText
  0
LINE
  5
73F
330
828
100
AcDbEntity
  8
NOTE
100
AcDbLine
 10
-430.999976
 20
1725.0
 30
0.0
 11
-455.55178
 21
1739.595396
 31
0.0
  0
LINE
  5
740
330
828
100
AcDbEntity
  8
NOTE
100
AcDbLine
 10
-668.031297
 20
1968.223749
 30
0.0
 11
-430.999976
 21
1725.0
 31
0.0
  0
LINE
  5
741
330
828
100
AcDbEntity
  8
NOTE
100
AcDbLine
 10
-430.999976
 20
1725.0
 30
0.0
 11
-444.9647639999998
 21
1749.915886
 31
0.0
  0
TEXT
  5
742
330
828
100
AcDbEntity
  8
NOTE
100
AcDbText
 10
-839.3423779999999
 20
1977.626981
 30
0.0
 40
50.0
  1
18-%%C3
 50
0.000003
 41
0.6310000000000003
  7
STANDARD1
100
AcDbText
  0
LINE
  5
743
330
828
100
AcDbEntity
  8
NOTE
100
AcDbLine
 10
-668.031297
 20
1968.223749
 30
0.0
 11
-861.1239600000001
 21
1968.223749
 31
0.0
  0
LINE
  5
744
330
828
100
AcDbEntity
  8
SIZE
100
AcDbLine
 10
541.0
 20
0.0
 30
0.0
 11
1456.727638
 21
0.0
 31
0.0
  0
LINE
  5
745
330
828
100
AcDbEntity
  8
SIZE
100
AcDbLine
 10
510.0000239999998
 20
1650.0
 30
0.0
 11
1456.727638
 21
1650.0
 31
0.0
  0
LINE
  5
746
330
828
100
AcDbEntity
  8
SIZE
100
AcDbLine
 10
1426.727638
 20
10.0
 30
0.0
 11
1426.727638
 21
1640.0
 31
0.0
  0
CIRCLE
  5
747
330
828
100
AcDbEntity
  8
SIZE
100
AcDbCircle
 10
1426.727638
 20
0.0
 30
0.0
 40
5.0
  0
LINE
  5
748
330
828
100
AcDbEntity
  8
SIZE
100
AcDbLine
 10
1426.727638
 20
5.0
 30
0.0
 11
1426.727638
 21
10.0
 31
0.0
  0
CIRCLE
  5
749
330
828
100
AcDbEntity
  8
SIZE
100
AcDbCircle
 10
1426.727638
 20
1650.0
 30
0.0
 40
5.0
  0
LINE
  5
74A
330
828
100
AcDbEntity
  8
SIZE
100
AcDbLine
 10
1426.727638
 20
1645.0
 30
0.0
 11
1426.727638
 21
1640.0
 31
0.0
  0
TEXT
  5
74B
330
828
100
AcDbEntity
  8
SIZE
100
AcDbText
 10
1406.727638
 20
729.0
 30
0.0
 40
64.0
  1
1650
 50
90.0
 41
0.9
 72
     1
 11
1406.727638
 21
825.0
 31
0.0
100
AcDbText
  0
LINE
  5
74F
330
828
100
AcDbEntity
  8
SIZE
100
AcDbLine
 10
510.0000239999998
 20
1650.0
 30
0.0
 11
1456.727638
 21
1650.0
 31
0.0
  0
LINE
  5
750
330
828
100
AcDbEntity
  8
SIZE
100
AcDbLine
 10
461.0000239999997
 20
1725.0
 30
0.0
 11
1456.727638
 21
1725.0
 31
0.0
  0
LINE
  5
751
330
828
100
AcDbEntity
  8
SIZE
100
AcDbLine
 10
1426.727638
 20
1660.0
 30
0.0
 11
1426.727638
 21
1715.0
 31
0.0
  0
LINE
  5
752
330
828
100
AcDbEntity
  8
SIZE
100
AcDbLine
 10
1426.727638
 20
1880.938202
 30
0.0
 11
1426.727638
 21
1725.0
 31
0.0
  0
TEXT
  5
753
330
828
100
AcDbEntity
  8
SIZE
100
AcDbText
 10
1406.727638
 20
1767.681058571428
 30
0.0
 40
64.0
  1
75
 50
90.0
 41
0.9
 72
     1
 11
1406.727638
 21
1814.30963
 31
0.0
100
AcDbText
  0
CIRCLE
  5
754
330
828
100
AcDbEntity
  8
SIZE
100
AcDbCircle
 10
1426.727638
 20
1650.0
 30
0.0
 40
5.0
  0
LINE
  5
755
330
828
100
AcDbEntity
  8
SIZE
100
AcDbLine
 10
1426.727638
 20
1655.0
 30
0.0
 11
1426.727638
 21
1660.0
 31
0.0
  0
CIRCLE
  5
756
330
828
100
AcDbEntity
  8
SIZE
100
AcDbCircle
 10
1426.727638
 20
1725.0
 30
0.0
 40
5.0
  0
LINE
  5
757
330
828
100
AcDbEntity
  8
SIZE
100
AcDbLine
 10
1426.727638
 20
1720.0
 30
0.0
 11
1426.727638
 21
1715.0
 31
0.0
  0
LINE
  5
75B
330
828
100
AcDbEntity
  8
SIZE
100
AcDbLine
 10
490.0000239999998
 20
1670.0
 30
0.0
 11
490.0000239999998
 21
2540.681078
 31
0.0
  0
LINE
  5
75C
330
828
100
AcDbEntity
  8
SIZE
100
AcDbLine
 10
-490.0000239999998
 20
1670.0
 30
0.0
 11
-490.0000239999998
 21
2540.681078
 31
0.0
  0
LINE
  5
75D
330
828
100
AcDbEntity
  8
SIZE
100
AcDbLine
 10
480.000024
 20
2510.681078
 30
0.0
 11
-480.000024
 21
2510.681078
 31
0.0
  0
CIRCLE
  5
75E
330
828
100
AcDbEntity
  8
SIZE
100
AcDbCircle
 10
490.0000239999998
 20
2510.681078
 30
0.0
 40
5.0
  0
LINE
  5
75F
330
828
100
AcDbEntity
  8
SIZE
100
AcDbLine
 10
485.0000239999998
 20
2510.681078
 30
0.0
 11
480.000024
 21
2510.681078
 31
0.0
  0
CIRCLE
  5
760
330
828
100
AcDbEntity
  8
SIZE
100
AcDbCircle
 10
-490.0000239999998
 20
2510.681078
 30
0.0
 40
5.0
  0
LINE
  5
761
330
828
100
AcDbEntity
  8
SIZE
100
AcDbLine
 10
-485.0000239999998
 20
2510.681078
 30
0.0
 11
-480.000024
 21
2510.681078
 31
0.0
  0
TEXT
  5
762
330
828
100
AcDbEntity
  8
SIZE
100
AcDbText
 10
-74.05714285714285
 20
2530.681078000001
 30
0.0
 40
64.0
  1
980
 41
0.9
 72
     1
 11
0.0
 21
2530.681078000001
 31
0.0
100
AcDbText
  0
LINE
  5
766
330
828
100
AcDbEntity
  8
SIZE
100
AcDbLine
 10
-490.0000239999998
 20
1670.0
 30
0.0
 11
-490.0000239999998
 21
2540.681078
 31
0.0
  0
LINE
  5
767
330
828
100
AcDbEntity
  8
SIZE
100
AcDbLine
 10
-523.000024
 20
76.134692
 30
0.0
 11
-523.000024
 21
2540.681078
 31
0.0
  0
LINE
  5
768
330
828
100
AcDbEntity
  8
SIZE
100
AcDbLine
 10
-480.000024
 20
2510.681078
 30
0.0
 11
-470.000024
 21
2510.681078
 31
0.0
  0
LINE
  5
769
330
828
100
AcDbEntity
  8
SIZE
100
AcDbLine
 10
-533.000024
 20
2510.681078
 30
0.0
 11
-543.000024
 21
2510.681078
 31
0.0
  0
LINE
  5
76A
330
828
100
AcDbEntity
  8
SIZE
100
AcDbLine
 10
-751.5954569999999
 20
2510.681078
 30
0.0
 11
-523.000024
 21
2510.681078
 31
0.0
  0
TEXT
  5
76B
330
828
100
AcDbEntity
  8
SIZE
100
AcDbText
 10
-743.5954568571428
 20
2535.442983
 30
0.0
 40
64.0
  1
(33)
 41
0.9
 72
     1
 11
-659.938314
 21
2535.442983
 31
0.0
100
AcDbText
  0
LINE
  5
76C
330
828
100
AcDbEntity
  8
SIZE
100
AcDbLine
 10
-490.0000239999998
 20
2510.681078
 30
0.0
 11
-523.000024
 21
2510.681078
 31
0.0
  0
LINE
  5
76D
330
828
100
AcDbEntity
  8
SIZE
100
AcDbLine
 10
-490.0000239999998
 20
2510.681078
 30
0.0
 11
-523.000024
 21
2510.681078
 31
0.0
  0
CIRCLE
  5
76E
330
828
100
AcDbEntity
  8
SIZE
100
AcDbCircle
 10
-490.0000239999998
 20
2510.681078
 30
0.0
 40
5.0
  0
LINE
  5
76F
330
828
100
AcDbEntity
  8
SIZE
100
AcDbLine
 10
-485.0000239999998
 20
2510.681078
 30
0.0
 11
-480.000024
 21
2510.681078
 31
0.0
  0
CIRCLE
  5
770
330
828
100
AcDbEntity
  8
SIZE
100
AcDbCircle
 10
-523.000024
 20
2510.681078
 30
0.0
 40
5.0
  0
LINE
  5
771
330
828
100
AcDbEntity
  8
SIZE
100
AcDbLine
 10
-528.000024
 20
2510.681078
 30
0.0
 11
-533.000024
 21
2510.681078
 31
0.0
  0
LINE
  5
775
330
828
100
AcDbEntity
  8
DETAIL
100
AcDbLine
 10
490.0000239999998
 20
79.975014
 30
0.0
 11
-490.0000239999998
 21
80.0
 31
0.0
  0
LINE
  5
776
330
828
100
AcDbEntity
  8
OUTLINE
100
AcDbLine
 10
481.0
 20
79.97524300000002
 30
0.0
 11
490.0000239999998
 21
79.975014
 31
0.0
  0
LINE
  5
777
330
828
100
AcDbEntity
  8
OUTLINE
100
AcDbLine
 10
-490.0000239999998
 20
80.0
 30
0.0
 11
-481.0
 21
79.99977099999998
 31
0.0
  0
LINE
  5
778
330
828
100
AcDbEntity
  8
ARRANGE
100
AcDbLine
 10
-59.86223999999999
 20
59.86223999999999
 30
0.0
 11
59.86223999999999
 21
-59.86223999999999
 31
0.0
  0
LINE
  5
779
330
828
100
AcDbEntity
  8
ARRANGE
100
AcDbLine
 10
59.86223999999999
 20
59.86223999999999
 30
0.0
 11
-59.86223999999999
 21
-59.86223999999999
 31
0.0
  0
CIRCLE
  5
77A
330
828
100
AcDbEntity
  8
ARRANGE
100
AcDbCircle
 10
0.0
 20
0.0
 30
0.0
 40
47.47290699999999
  0
ENDSEC
  0
SECTION
  2
OBJECTS
  0
DICTIONARY
  5
7C0
330
0
100
AcDbDictionary
281
     1
  3
ACAD_COLOR
350
81E
  3
ACAD_GROUP
350
7C1
  3
ACAD_LAYOUT
350
81D
  3
ACAD_MATERIAL
350
7C4
  3
ACAD_MLEADERSTYLE
350
821
  3
ACAD_MLINESTYLE
350
81A
  3
ACAD_PLOTSETTINGS
350
81C
  3
ACAD_PLOTSTYLENAME
350
7C2
  3
ACAD_SCALELIST
350
7EE
  3
ACAD_TABLESTYLE
350
81F
  3
ACAD_VISUALSTYLE
350
7DD
  3
ACDB_RECOMPOSE_DATA
350
879
  3
AcDbVariableDictionary
350
85D
  3
DWGPROPS
350
897
  0
DICTIONARY
  5
847
330
810
100
AcDbDictionary
280
     1
281
     1
  3
ADSK_XREC_LAYER_RECONCILED
360
848
  0
DICTIONARY
  5
849
330
82C
100
AcDbDictionary
280
     1
281
     1
  3
ADSK_XREC_LAYER_RECONCILED
360
84A
  0
DICTIONARY
  5
84B
330
82F
100
AcDbDictionary
280
     1
281
     1
  3
ADSK_XREC_LAYER_RECONCILED
360
84C
  0
DICTIONARY
  5
84D
330
830
100
AcDbDictionary
280
     1
281
     1
  3
ADSK_XREC_LAYER_RECONCILED
360
84E
  0
DICTIONARY
  5
84F
330
831
100
AcDbDictionary
280
     1
281
     1
  3
ADSK_XREC_LAYER_RECONCILED
360
850
  0
DICTIONARY
  5
851
330
832
100
AcDbDictionary
280
     1
281
     1
  3
ADSK_XREC_LAYER_RECONCILED
360
852
  0
DICTIONARY
  5
853
330
833
100
AcDbDictionary
280
     1
281
     1
  3
ADSK_XREC_LAYER_RECONCILED
360
854
  0
DICTIONARY
  5
855
330
834
100
AcDbDictionary
280
     1
281
     1
  3
ADSK_XREC_LAYER_RECONCILED
360
856
  0
DICTIONARY
  5
857
330
835
100
AcDbDictionary
280
     1
281
     1
  3
ADSK_XREC_LAYER_RECONCILED
360
858
  0
DICTIONARY
  5
859
330
836
100
AcDbDictionary
280
     1
281
     1
  3
ADSK_XREC_LAYER_RECONCILED
360
85A
  0
DICTIONARY
  5
85B
330
837
100
AcDbDictionary
280
     1
281
     1
  3
ADSK_XREC_LAYER_RECONCILED
360
85C
  0
DICTIONARY
  5
81E
102
{ACAD_REACTORS
330
7C0
102
}
330
7C0
100
AcDbDictionary
281
     1
  0
DICTIONARY
  5
7C1
102
{ACAD_REACTORS
330
7C0
102
}
330
7C0
100
AcDbDictionary
281
     1
  0
DICTIONARY
  5
81D
102
{ACAD_REACTORS
330
7C0
102
}
330
7C0
100
AcDbDictionary
281
     1
  3
Layout1
350
827
  3
Model
350
82B
  0
DICTIONARY
  5
7C4
102
{ACAD_REACTORS
330
7C0
102
}
330
7C0
100
AcDbDictionary
281
     1
  3
ByBlock
350
7CD
  3
ByLayer
350
7C5
  3
Global
350
7D5
  0
DICTIONARY
  5
821
102
{ACAD_REACTORS
330
7C0
102
}
330
7C0
100
AcDbDictionary
281
     1
  3
Standard
350
822
  0
DICTIONARY
  5
81A
102
{ACAD_REACTORS
330
7C0
102
}
330
7C0
100
AcDbDictionary
281
     1
  3
Standard
350
81B
  0
DICTIONARY
  5
81C
102
{ACAD_REACTORS
330
7C0
102
}
330
7C0
100
AcDbDictionary
281
     1
  0
ACDBDICTIONARYWDFLT
  5
7C2
102
{ACAD_REACTORS
330
7C0
102
}
330
7C0
100
AcDbDictionary
281
     1
  3
Normal
350
7C3
100
AcDbDictionaryWithDefault
340
7C3
  0
DICTIONARY
  5
7EE
102
{ACAD_REACTORS
330
7C0
102
}
330
7C0
100
AcDbDictionary
281
     1
  3
A0
350
7EF
  3
A1
350
7F0
  3
A2
350
7F1
  3
A3
350
7F2
  3
A4
350
7F3
  3
A5
350
7F4
  3
A6
350
7F5
  3
A7
350
7F6
  3
A8
350
7F7
  3
A9
350
7F8
  3
B0
350
7F9
  3
B1
350
7FA
  3
B2
350
7FB
  3
B3
350
7FC
  3
B4
350
7FD
  3
B5
350
7FE
  3
B6
350
7FF
  3
B7
350
800
  3
B8
350
801
  3
B9
350
802
  3
C0
350
803
  3
C1
350
804
  3
C2
350
805
  3
C3
350
806
  3
C4
350
807
  3
C5
350
808
  3
C6
350
809
  3
C7
350
80A
  3
C8
350
80B
  3
C9
350
80C
  3
D0
350
80D
  3
D1
350
80E
  3
D2
350
80F
  0
DICTIONARY
  5
81F
102
{ACAD_REACTORS
330
7C0
102
}
330
7C0
100
AcDbDictionary
281
     1
  3
Standard
350
820
  0
DICTIONARY
  5
7DD
102
{ACAD_REACTORS
330
7C0
102
}
330
7C0
100
AcDbDictionary
281
     1
  3
2dWireframe
350
7E3
  3
3D Hidden
350
7E5
  3
3dWireframe
350
7E4
  3
Basic
350
7E2
  3
Brighten
350
7E9
  3
ColorChange
350
7ED
  3
Conceptual
350
7E6
  3
Dim
350
7E8
  3
Facepattern
350
7EC
  3
Flat
350
7DE
  3
FlatWithEdges
350
7DF
  3
Gouraud
350
7E0
  3
GouraudWithEdges
350
7E1
  3
Linepattern
350
7EB
  3
Realistic
350
7E7
  3
Thicken
350
7EA
  0
XRECORD
  5
879
102
{ACAD_REACTORS
330
7C0
102
}
330
7C0
100
AcDbXrecord
280
     1
 90
        1
330
820
  0
DICTIONARY
  5
85D
102
{ACAD_REACTORS
330
7C0
102
}
330
7C0
100
AcDbDictionary
281
     1
  3
CANNOSCALE
350
860
  3
CMLEADERSTYLE
350
85F
  3
CTABLESTYLE
350
85E
  3
DIMASSOC
350
863
  3
INDEXCTL
350
862
  3
SORTENTS
350
861
  0
XRECORD
  5
897
102
{ACAD_REACTORS
330
7C0
102
}
330
7C0
100
AcDbXrecord
280
     1
  1
DWGPROPS COOKIE
  2

  3

  4

  6

  7

  8
lijl
  9

300
=
301
=
302
=
303
=
304
=
305
=
306
=
307
=
308
=
309
=
 40
4.333759328703703
 41
2449761.493622998
 42
2457982.456343819
  1

 90
        0
  0
XRECORD
  5
848
102
{ACAD_REACTORS
330
847
102
}
330
847
100
AcDbXrecord
280
     1
290
     1
  0
XRECORD
  5
84A
102
{ACAD_REACTORS
330
849
102
}
330
849
100
AcDbXrecord
280
     1
290
     1
  0
XRECORD
  5
84C
102
{ACAD_REACTORS
330
84B
102
}
330
84B
100
AcDbXrecord
280
     1
290
     1
  0
XRECORD
  5
84E
102
{ACAD_REACTORS
330
84D
102
}
330
84D
100
AcDbXrecord
280
     1
290
     1
  0
XRECORD
  5
850
102
{ACAD_REACTORS
330
84F
102
}
330
84F
100
AcDbXrecord
280
     1
290
     1
  0
XRECORD
  5
852
102
{ACAD_REACTORS
330
851
102
}
330
851
100
AcDbXrecord
280
     1
290
     1
  0
XRECORD
  5
854
102
{ACAD_REACTORS
330
853
102
}
330
853
100
AcDbXrecord
280
     1
290
     1
  0
XRECORD
  5
856
102
{ACAD_REACTORS
330
855
102
}
330
855
100
AcDbXrecord
280
     1
290
     1
  0
XRECORD
  5
858
102
{ACAD_REACTORS
330
857
102
}
330
857
100
AcDbXrecord
280
     1
290
     1
  0
XRECORD
  5
85A
102
{ACAD_REACTORS
330
859
102
}
330
859
100
AcDbXrecord
280
     1
290
     1
  0
XRECORD
  5
85C
102
{ACAD_REACTORS
330
85B
102
}
330
85B
100
AcDbXrecord
280
     1
290
     1
  0
LAYOUT
  5
827
102
{ACAD_XDICTIONARY
360
899
102
}
102
{ACAD_REACTORS
330
81D
102
}
330
81D
100
AcDbPlotSettings
  1

  2
FX DocuWide 2050
  4

  6

 40
0.0
 41
0.0
 42
0.0
 43
0.0
 44
0.0
 45
0.0
 46
0.0
 47
0.0
 48
0.0
 49
0.0
140
0.0
141
0.0
142
1.0
143
1.0
 70
   688
 72
     0
 73
     0
 74
     5
  7

 75
    16
147
1.0
148
0.0
149
0.0
100
AcDbLayout
  1
Layout1
 70
     1
 71
     1
 10
0.0
 20
0.0
 11
12.0
 21
9.0
 12
0.0
 22
0.0
 32
0.0
 14
1.000000000000000E+20
 24
1.000000000000000E+20
 34
1.000000000000000E+20
 15
-1.000000000000000E+20
 25
-1.000000000000000E+20
 35
-1.000000000000000E+20
146
0.0
 13
0.0
 23
0.0
 33
0.0
 16
1.0
 26
0.0
 36
0.0
 17
0.0
 27
1.0
 37
0.0
 76
     0
330
824
  0
LAYOUT
  5
82B
102
{ACAD_XDICTIONARY
360
89B
102
}
102
{ACAD_REACTORS
330
81D
102
}
330
81D
100
AcDbPlotSettings
  1

  2
FX DocuWide 2050
  4

  6

 40
0.0
 41
0.0
 42
0.0
 43
0.0
 44
0.0
 45
0.0
 46
0.0
 47
0.0
 48
0.0
 49
0.0
140
0.0
141
0.0
142
1.0
143
1.0
 70
  1712
 72
     0
 73
     0
 74
     0
  7

 75
     0
147
1.0
148
0.0
149
0.0
100
AcDbLayout
  1
Model
 70
     1
 71
     0
 10
0.0
 20
0.0
 11
12.0
 21
9.0
 12
0.0
 22
0.0
 32
0.0
 14
0.0
 24
0.0
 34
0.0
 15
0.0
 25
0.0
 35
0.0
146
0.0
 13
0.0
 23
0.0
 33
0.0
 16
1.0
 26
0.0
 36
0.0
 17
0.0
 27
1.0
 37
0.0
 76
     0
330
828
331
82D
  0
MATERIAL
  5
7CD
102
{ACAD_XDICTIONARY
360
7CE
102
}
102
{ACAD_REACTORS
330
7C4
102
}
330
7C4
100
AcDbMaterial
  1
ByBlock
 72
     0
 43
0.0208333333333333
 43
0.0
 43
0.0
 43
0.0
 43
0.0
 43
0.0208333333333333
 43
0.0
 43
0.0
 43
0.0
 43
0.0
 43
1.0
 43
0.0
 43
0.0
 43
0.0
 43
0.0
 43
1.0
 77
     0
 47
0.0208333333333333
 47
0.0
 47
0.0
 47
0.0
 47
0.0
 47
0.0208333333333333
 47
0.0
 47
0.0
 47
0.0
 47
0.0
 47
1.0
 47
0.0
 47
0.0
 47
0.0
 47
0.0
 47
1.0
171
     0
 49
0.0208333333333333
 49
0.0
 49
0.0
 49
0.0
 49
0.0
 49
0.0208333333333333
 49
0.0
 49
0.0
 49
0.0
 49
0.0
 49
1.0
 49
0.0
 49
0.0
 49
0.0
 49
0.0
 49
1.0
175
     0
142
0.0208333333333333
142
0.0
142
0.0
142
0.0
142
0.0
142
0.0208333333333333
142
0.0
142
0.0
142
0.0
142
0.0
142
1.0
142
0.0
142
0.0
142
0.0
142
0.0
142
1.0
179
     0
144
0.0208333333333333
144
0.0
144
0.0
144
0.0
144
0.0
144
0.0208333333333333
144
0.0
144
0.0
144
0.0
144
0.0
144
1.0
144
0.0
144
0.0
144
0.0
144
0.0
144
1.0
147
0.0208333333333333
147
0.0
147
0.0
147
0.0
147
0.0
147
0.0208333333333333
147
0.0
147
0.0
147
0.0
147
0.0
147
1.0
147
0.0
147
0.0
147
0.0
147
0.0
147
1.0
  0
MATERIAL
  5
7C5
102
{ACAD_XDICTIONARY
360
7C6
102
}
102
{ACAD_REACTORS
330
7C4
102
}
330
7C4
100
AcDbMaterial
  1
ByLayer
 72
     0
 43
0.0208333333333333
 43
0.0
 43
0.0
 43
0.0
 43
0.0
 43
0.0208333333333333
 43
0.0
 43
0.0
 43
0.0
 43
0.0
 43
1.0
 43
0.0
 43
0.0
 43
0.0
 43
0.0
 43
1.0
 77
     0
 47
0.0208333333333333
 47
0.0
 47
0.0
 47
0.0
 47
0.0
 47
0.0208333333333333
 47
0.0
 47
0.0
 47
0.0
 47
0.0
 47
1.0
 47
0.0
 47
0.0
 47
0.0
 47
0.0
 47
1.0
171
     0
 49
0.0208333333333333
 49
0.0
 49
0.0
 49
0.0
 49
0.0
 49
0.0208333333333333
 49
0.0
 49
0.0
 49
0.0
 49
0.0
 49
1.0
 49
0.0
 49
0.0
 49
0.0
 49
0.0
 49
1.0
175
     0
142
0.0208333333333333
142
0.0
142
0.0
142
0.0
142
0.0
142
0.0208333333333333
142
0.0
142
0.0
142
0.0
142
0.0
142
1.0
142
0.0
142
0.0
142
0.0
142
0.0
142
1.0
179
     0
144
0.0208333333333333
144
0.0
144
0.0
144
0.0
144
0.0
144
0.0208333333333333
144
0.0
144
0.0
144
0.0
144
0.0
144
1.0
144
0.0
144
0.0
144
0.0
144
0.0
144
1.0
147
0.0208333333333333
147
0.0
147
0.0
147
0.0
147
0.0
147
0.0208333333333333
147
0.0
147
0.0
147
0.0
147
0.0
147
1.0
147
0.0
147
0.0
147
0.0
147
0.0
147
1.0
  0
MATERIAL
  5
7D5
102
{ACAD_XDICTIONARY
360
7D6
102
}
102
{ACAD_REACTORS
330
7C4
102
}
330
7C4
100
AcDbMaterial
  1
Global
 72
     0
 43
0.0208333333333333
 43
0.0
 43
0.0
 43
0.0
 43
0.0
 43
0.0208333333333333
 43
0.0
 43
0.0
 43
0.0
 43
0.0
 43
1.0
 43
0.0
 43
0.0
 43
0.0
 43
0.0
 43
1.0
 77
     0
 47
0.0208333333333333
 47
0.0
 47
0.0
 47
0.0
 47
0.0
 47
0.0208333333333333
 47
0.0
 47
0.0
 47
0.0
 47
0.0
 47
1.0
 47
0.0
 47
0.0
 47
0.0
 47
0.0
 47
1.0
171
     0
 49
0.0208333333333333
 49
0.0
 49
0.0
 49
0.0
 49
0.0
 49
0.0208333333333333
 49
0.0
 49
0.0
 49
0.0
 49
0.0
 49
1.0
 49
0.0
 49
0.0
 49
0.0
 49
0.0
 49
1.0
175
     0
142
0.0208333333333333
142
0.0
142
0.0
142
0.0
142
0.0
142
0.0208333333333333
142
0.0
142
0.0
142
0.0
142
0.0
142
1.0
142
0.0
142
0.0
142
0.0
142
0.0
142
1.0
179
     0
144
0.0208333333333333
144
0.0
144
0.0
144
0.0
144
0.0
144
0.0208333333333333
144
0.0
144
0.0
144
0.0
144
0.0
144
1.0
144
0.0
144
0.0
144
0.0
144
0.0
144
1.0
147
0.0208333333333333
147
0.0
147
0.0
147
0.0
147
0.0
147
0.0208333333333333
147
0.0
147
0.0
147
0.0
147
0.0
147
1.0
147
0.0
147
0.0
147
0.0
147
0.0
147
1.0
  0
MLEADERSTYLE
  5
822
102
{ACAD_REACTORS
330
821
102
}
330
821
100
AcDbMLeaderStyle
170
     2
171
     1
172
     0
 90
        2
 40
0.0
 41
0.0
173
     1
 91
-1056964608
340
816
 92
       -2
290
     1
 42
0.09
291
     1
 43
0.36
  3
Standard
 44
0.18
300

342
811
174
     1
178
     6
175
     1
176
     0
 93
-1056964608
 45
0.18
292
     0
297
     0
 46
0.18
 94
-1056964608
 47
1.0
 49
1.0
140
1.0
293
     1
141
0.0
294
     1
177
     0
142
1.0
295
     0
296
     0
143
0.125
1001
ACAD_MLEADERVER
1070
     2
  0
MLINESTYLE
  5
81B
102
{ACAD_REACTORS
330
81A
102
}
330
81A
100
AcDbMlineStyle
  2
STANDARD
 70
     0
  3

 62
   256
 51
90.0
 52
90.0
 71
     2
 49
0.5
 62
   256
  6
BYLAYER
 49
-0.5
 62
   256
  6
BYLAYER
  0
ACDBPLACEHOLDER
  5
7C3
102
{ACAD_REACTORS
330
7C2
102
}
330
7C2
  0
SCALE
  5
7EF
102
{ACAD_REACTORS
330
7EE
102
}
330
7EE
100
AcDbScale
 70
     0
300
1:1
140
1.0
141
1.0
290
     1
  0
SCALE
  5
7F0
102
{ACAD_REACTORS
330
7EE
102
}
330
7EE
100
AcDbScale
 70
     0
300
1:2
140
1.0
141
2.0
290
     0
  0
SCALE
  5
7F1
102
{ACAD_REACTORS
330
7EE
102
}
330
7EE
100
AcDbScale
 70
     0
300
1:4
140
1.0
141
4.0
290
     0
  0
SCALE
  5
7F2
102
{ACAD_REACTORS
330
7EE
102
}
330
7EE
100
AcDbScale
 70
     0
300
1:5
140
1.0
141
5.0
290
     0
  0
SCALE
  5
7F3
102
{ACAD_REACTORS
330
7EE
102
}
330
7EE
100
AcDbScale
 70
     0
300
1:8
140
1.0
141
8.0
290
     0
  0
SCALE
  5
7F4
102
{ACAD_REACTORS
330
7EE
102
}
330
7EE
100
AcDbScale
 70
     0
300
1:10
140
1.0
141
10.0
290
     0
  0
SCALE
  5
7F5
102
{ACAD_REACTORS
330
7EE
102
}
330
7EE
100
AcDbScale
 70
     0
300
1:16
140
1.0
141
16.0
290
     0
  0
SCALE
  5
7F6
102
{ACAD_REACTORS
330
7EE
102
}
330
7EE
100
AcDbScale
 70
     0
300
1:20
140
1.0
141
20.0
290
     0
  0
SCALE
  5
7F7
102
{ACAD_REACTORS
330
7EE
102
}
330
7EE
100
AcDbScale
 70
     0
300
1:30
140
1.0
141
30.0
290
     0
  0
SCALE
  5
7F8
102
{ACAD_REACTORS
330
7EE
102
}
330
7EE
100
AcDbScale
 70
     0
300
1:40
140
1.0
141
40.0
290
     0
  0
SCALE
  5
7F9
102
{ACAD_REACTORS
330
7EE
102
}
330
7EE
100
AcDbScale
 70
     0
300
1:50
140
1.0
141
50.0
290
     0
  0
SCALE
  5
7FA
102
{ACAD_REACTORS
330
7EE
102
}
330
7EE
100
AcDbScale
 70
     0
300
1:100
140
1.0
141
100.0
290
     0
  0
SCALE
  5
7FB
102
{ACAD_REACTORS
330
7EE
102
}
330
7EE
100
AcDbScale
 70
     0
300
2:1
140
2.0
141
1.0
290
     0
  0
SCALE
  5
7FC
102
{ACAD_REACTORS
330
7EE
102
}
330
7EE
100
AcDbScale
 70
     0
300
4:1
140
4.0
141
1.0
290
     0
  0
SCALE
  5
7FD
102
{ACAD_REACTORS
330
7EE
102
}
330
7EE
100
AcDbScale
 70
     0
300
8:1
140
8.0
141
1.0
290
     0
  0
SCALE
  5
7FE
102
{ACAD_REACTORS
330
7EE
102
}
330
7EE
100
AcDbScale
 70
     0
300
10:1
140
10.0
141
1.0
290
     0
  0
SCALE
  5
7FF
102
{ACAD_REACTORS
330
7EE
102
}
330
7EE
100
AcDbScale
 70
     0
300
100:1
140
100.0
141
1.0
290
     0
  0
SCALE
  5
800
102
{ACAD_REACTORS
330
7EE
102
}
330
7EE
100
AcDbScale
 70
     0
300
1/128" = 1'-0"
140
0.0078125
141
12.0
290
     0
  0
SCALE
  5
801
102
{ACAD_REACTORS
330
7EE
102
}
330
7EE
100
AcDbScale
 70
     0
300
1/64" = 1'-0"
140
0.015625
141
12.0
290
     0
  0
SCALE
  5
802
102
{ACAD_REACTORS
330
7EE
102
}
330
7EE
100
AcDbScale
 70
     0
300
1/32" = 1'-0"
140
0.03125
141
12.0
290
     0
  0
SCALE
  5
803
102
{ACAD_REACTORS
330
7EE
102
}
330
7EE
100
AcDbScale
 70
     0
300
1/16" = 1'-0"
140
0.0625
141
12.0
290
     0
  0
SCALE
  5
804
102
{ACAD_REACTORS
330
7EE
102
}
330
7EE
100
AcDbScale
 70
     0
300
3/32" = 1'-0"
140
0.09375
141
12.0
290
     0
  0
SCALE
  5
805
102
{ACAD_REACTORS
330
7EE
102
}
330
7EE
100
AcDbScale
 70
     0
300
1/8" = 1'-0"
140
0.125
141
12.0
290
     0
  0
SCALE
  5
806
102
{ACAD_REACTORS
330
7EE
102
}
330
7EE
100
AcDbScale
 70
     0
300
3/16" = 1'-0"
140
0.1875
141
12.0
290
     0
  0
SCALE
  5
807
102
{ACAD_REACTORS
330
7EE
102
}
330
7EE
100
AcDbScale
 70
     0
300
1/4" = 1'-0"
140
0.25
141
12.0
290
     0
  0
SCALE
  5
808
102
{ACAD_REACTORS
330
7EE
102
}
330
7EE
100
AcDbScale
 70
     0
300
3/8" = 1'-0"
140
0.375
141
12.0
290
     0
  0
SCALE
  5
809
102
{ACAD_REACTORS
330
7EE
102
}
330
7EE
100
AcDbScale
 70
     0
300
1/2" = 1'-0"
140
0.5
141
12.0
290
     0
  0
SCALE
  5
80A
102
{ACAD_REACTORS
330
7EE
102
}
330
7EE
100
AcDbScale
 70
     0
300
3/4" = 1'-0"
140
0.75
141
12.0
290
     0
  0
SCALE
  5
80B
102
{ACAD_REACTORS
330
7EE
102
}
330
7EE
100
AcDbScale
 70
     0
300
1" = 1'-0"
140
1.0
141
12.0
290
     0
  0
SCALE
  5
80C
102
{ACAD_REACTORS
330
7EE
102
}
330
7EE
100
AcDbScale
 70
     0
300
1-1/2" = 1'-0"
140
1.5
141
12.0
290
     0
  0
SCALE
  5
80D
102
{ACAD_REACTORS
330
7EE
102
}
330
7EE
100
AcDbScale
 70
     0
300
3" = 1'-0"
140
3.0
141
12.0
290
     0
  0
SCALE
  5
80E
102
{ACAD_REACTORS
330
7EE
102
}
330
7EE
100
AcDbScale
 70
     0
300
6" = 1'-0"
140
6.0
141
12.0
290
     0
  0
SCALE
  5
80F
102
{ACAD_REACTORS
330
7EE
102
}
330
7EE
100
AcDbScale
 70
     0
300
1'-0" = 1'-0"
140
12.0
141
12.0
290
     0
  0
TABLESTYLE
  5
820
102
{ACAD_XDICTIONARY
360
877
102
}
102
{ACAD_REACTORS
330
81F
102
}
330
81F
100
AcDbTableStyle
  3
Standard
 70
     0
 71
     0
 40
0.06
 41
0.06
280
     0
281
     0
  7
STANDARD
140
0.18
170
     2
 62
     0
 63
     7
283
     0
274
    -2
284
     1
 64
     0
275
    -2
285
     1
 65
     0
276
    -2
286
     1
 66
     0
277
    -2
287
     1
 67
     0
278
    -2
288
     1
 68
     0
279
    -2
289
     1
 69
     0
  7
STANDARD
140
0.25
170
     5
 62
     0
 63
     7
283
     0
274
    -2
284
     1
 64
     0
275
    -2
285
     1
 65
     0
276
    -2
286
     1
 66
     0
277
    -2
287
     1
 67
     0
278
    -2
288
     1
 68
     0
279
    -2
289
     1
 69
     0
  7
STANDARD
140
0.18
170
     5
 62
     0
 63
     7
283
     0
274
    -2
284
     1
 64
     0
275
    -2
285
     1
 65
     0
276
    -2
286
     1
 66
     0
277
    -2
287
     1
 67
     0
278
    -2
288
     1
 68
     0
279
    -2
289
     1
 69
     0
  0
VISUALSTYLE
  5
7E3
102
{ACAD_REACTORS
330
7DD
102
}
330
7DD
100
AcDbVisualStyle
  2
2dWireframe
 70
     4
 71
     0
 72
     2
 73
     0
 90
        0
 40
-0.6
 41
-30.0
 62
     5
 63
     7
 74
     1
 91
        4
 64
     7
 65
   257
 75
     1
175
     1
 42
1.0
 92
        0
 66
   257
 43
1.0
 76
     1
 77
     6
 78
     2
 67
     7
 79
     5
170
     0
171
     0
290
     0
174
     0
 93
        1
 44
0.0
173
     0
291
     0
 45
0.0
1001
ACAD
1000
AcDbSavedByObjectVersion
1070
     0
1000
AcDbSavedByObjectVersion
1070
     0
1000
AcDbSavedByObjectVersion
1070
     0
  0
VISUALSTYLE
  5
7E5
102
{ACAD_REACTORS
330
7DD
102
}
330
7DD
100
AcDbVisualStyle
  2
3D Hidden
 70
     6
 71
     1
 72
     2
 73
     2
 90
        0
 40
-0.6
 41
-30.0
 62
     5
 63
     7
 74
     2
 91
        2
 64
     7
 65
   257
 75
     2
175
     1
 42
40.0
 92
        0
 66
   257
 43
1.0
 76
     1
 77
     6
 78
     2
 67
     7
 79
     3
170
     0
171
     0
290
     0
174
     0
 93
        1
 44
0.0
173
     0
291
     0
 45
0.0
1001
ACAD
1000
AcDbSavedByObjectVersion
1070
     0
1000
AcDbSavedByObjectVersion
1070
     0
1000
AcDbSavedByObjectVersion
1070
     0
  0
VISUALSTYLE
  5
7E4
102
{ACAD_REACTORS
330
7DD
102
}
330
7DD
100
AcDbVisualStyle
  2
3dWireframe
 70
     5
 71
     0
 72
     2
 73
     0
 90
        0
 40
-0.6
 41
-30.0
 62
     5
 63
     7
 74
     1
 91
        4
 64
     7
 65
   257
 75
     1
175
     1
 42
1.0
 92
        0
 66
   257
 43
1.0
 76
     1
 77
     6
 78
     2
 67
     7
 79
     5
170
     0
171
     0
290
     0
174
     0
 93
        1
 44
0.0
173
     0
291
     0
 45
0.0
1001
ACAD
1000
AcDbSavedByObjectVersion
1070
     0
1000
AcDbSavedByObjectVersion
1070
     0
1000
AcDbSavedByObjectVersion
1070
     0
  0
VISUALSTYLE
  5
7E2
102
{ACAD_REACTORS
330
7DD
102
}
330
7DD
100
AcDbVisualStyle
  2
Basic
 70
     7
 71
     1
 72
     0
 73
     1
 90
        0
 40
-0.6
 41
-30.0
 62
     5
 63
     7
 74
     0
 91
        4
 64
     7
 65
   257
 75
     1
175
     1
 42
1.0
 92
        8
 66
     7
 43
1.0
 76
     1
 77
     6
 78
     2
 67
     7
 79
     5
170
     0
171
     0
290
     0
174
     0
 93
        1
 44
0.0
173
     0
291
     1
 45
0.0
1001
ACAD
1000
AcDbSavedByObjectVersion
1070
     0
1000
AcDbSavedByObjectVersion
1070
     0
1000
AcDbSavedByObjectVersion
1070
     0
  0
VISUALSTYLE
  5
7E9
102
{ACAD_REACTORS
330
7DD
102
}
330
7DD
100
AcDbVisualStyle
  2
Brighten
 70
    12
 71
     2
 72
     2
 73
     0
 90
        0
 40
-0.6
 41
-30.0
 62
     5
 63
     7
 74
     1
 91
        4
 64
     7
 65
   257
 75
     1
175
     1
 42
1.0
 92
        8
 66
     7
 43
1.0
 76
     1
 77
     6
 78
     2
 67
     7
 79
     5
170
     0
171
     0
290
     0
174
     0
 93
        1
 44
50.0
173
     0
291
     1
 45
0.0
1001
ACAD
1000
AcDbSavedByObjectVersion
1070
     0
1000
AcDbSavedByObjectVersion
1070
     0
1000
AcDbSavedByObjectVersion
1070
     0
  0
VISUALSTYLE
  5
7ED
102
{ACAD_REACTORS
330
7DD
102
}
330
7DD
100
AcDbVisualStyle
  2
ColorChange
 70
    16
 71
     2
 72
     2
 73
     3
 90
        0
 40
-0.6
 41
-30.0
 62
     5
 63
     8
 74
     1
 91
        4
 64
     7
 65
   257
 75
     1
175
     1
 42
1.0
 92
        8
 66
     8
 43
1.0
 76
     1
 77
     6
 78
     2
 67
     7
 79
     5
170
     0
171
     0
290
     0
174
     0
 93
        1
 44
0.0
173
     0
291
     1
 45
0.0
1001
ACAD
1000
AcDbSavedByObjectVersion
1070
     0
1000
AcDbSavedByObjectVersion
1070
     0
1000
AcDbSavedByObjectVersion
1070
     0
  0
VISUALSTYLE
  5
7E6
102
{ACAD_REACTORS
330
7DD
102
}
330
7DD
100
AcDbVisualStyle
  2
Conceptual
 70
     9
 71
     3
 72
     2
 73
     0
 90
        0
 40
-0.6
 41
-30.0
 62
     5
 63
     7
 74
     2
 91
        2
 64
     7
 65
   257
 75
     1
175
     1
 42
40.0
 92
        8
 66
     7
 43
1.0
 76
     1
 77
     6
 78
     2
 67
     7
 79
     3
170
     0
171
     0
290
     0
174
     0
 93
        1
 44
0.0
173
     0
291
     0
 45
0.0
1001
ACAD
1000
AcDbSavedByObjectVersion
1070
     0
1000
AcDbSavedByObjectVersion
1070
     0
1000
AcDbSavedByObjectVersion
1070
     0
  0
VISUALSTYLE
  5
7E8
102
{ACAD_REACTORS
330
7DD
102
}
330
7DD
100
AcDbVisualStyle
  2
Dim
 70
    11
 71
     2
 72
     2
 73
     0
 90
        0
 40
-0.6
 41
-30.0
 62
     5
 63
     7
 74
     1
 91
        4
 64
     7
 65
   257
 75
     1
175
     1
 42
1.0
 92
        8
 66
     7
 43
1.0
 76
     1
 77
     6
 78
     2
 67
     7
 79
     5
170
     0
171
     0
290
     0
174
     0
 93
        1
 44
-50.0
173
     0
291
     1
 45
0.0
1001
ACAD
1000
AcDbSavedByObjectVersion
1070
     0
1000
AcDbSavedByObjectVersion
1070
     0
1000
AcDbSavedByObjectVersion
1070
     0
  0
VISUALSTYLE
  5
7EC
102
{ACAD_REACTORS
330
7DD
102
}
330
7DD
100
AcDbVisualStyle
  2
Facepattern
 70
    15
 71
     2
 72
     2
 73
     0
 90
        0
 40
-0.6
 41
-30.0
 62
     5
 63
     7
 74
     1
 91
        4
 64
     7
 65
   257
 75
     1
175
     1
 42
1.0
 92
        8
 66
     7
 43
1.0
 76
     1
 77
     6
 78
     2
 67
     7
 79
     5
170
     0
171
     0
290
     0
174
     0
 93
        1
 44
0.0
173
     0
291
     1
 45
0.0
1001
ACAD
1000
AcDbSavedByObjectVersion
1070
     0
1000
AcDbSavedByObjectVersion
1070
     0
1000
AcDbSavedByObjectVersion
1070
     0
  0
VISUALSTYLE
  5
7DE
102
{ACAD_REACTORS
330
7DD
102
}
330
7DD
100
AcDbVisualStyle
  2
Flat
 70
     0
 71
     2
 72
     1
 73
     1
 90
        2
 40
-0.6
 41
30.0
 62
     5
 63
     7
 74
     0
 91
        4
 64
     7
 65
   257
 75
     1
175
     1
 42
1.0
 92
        8
 66
     7
 43
1.0
 76
     1
 77
     6
 78
     2
 67
     7
 79
     5
170
     0
171
     0
290
     0
174
     0
 93
       13
 44
0.0
173
     0
291
     1
 45
0.0
1001
ACAD
1000
AcDbSavedByObjectVersion
1070
     0
1000
AcDbSavedByObjectVersion
1070
     0
1000
AcDbSavedByObjectVersion
1070
     0
  0
VISUALSTYLE
  5
7DF
102
{ACAD_REACTORS
330
7DD
102
}
330
7DD
100
AcDbVisualStyle
  2
FlatWithEdges
 70
     1
 71
     2
 72
     1
 73
     1
 90
        2
 40
-0.6
 41
30.0
 62
     5
 63
     7
 74
     1
 91
        4
 64
     7
 65
   257
 75
     1
175
     1
 42
1.0
 92
        0
 66
   257
 43
1.0
 76
     1
 77
     6
 78
     2
 67
     7
 79
     5
170
     0
171
     0
290
     0
174
     0
 93
       13
 44
0.0
173
     0
291
     1
 45
0.0
1001
ACAD
1000
AcDbSavedByObjectVersion
1070
     0
1000
AcDbSavedByObjectVersion
1070
     0
1000
AcDbSavedByObjectVersion
1070
     0
  0
VISUALSTYLE
  5
7E0
102
{ACAD_REACTORS
330
7DD
102
}
330
7DD
100
AcDbVisualStyle
  2
Gouraud
 70
     2
 71
     2
 72
     2
 73
     1
 90
        2
 40
-0.6
 41
30.0
 62
     5
 63
     7
 74
     0
 91
        4
 64
     7
 65
   257
 75
     1
175
     1
 42
1.0
 92
        0
 66
     7
 43
1.0
 76
     1
 77
     6
 78
     2
 67
     7
 79
     5
170
     0
171
     0
290
     0
174
     0
 93
       13
 44
0.0
173
     0
291
     1
 45
0.0
1001
ACAD
1000
AcDbSavedByObjectVersion
1070
     0
1000
AcDbSavedByObjectVersion
1070
     0
1000
AcDbSavedByObjectVersion
1070
     0
  0
VISUALSTYLE
  5
7E1
102
{ACAD_REACTORS
330
7DD
102
}
330
7DD
100
AcDbVisualStyle
  2
GouraudWithEdges
 70
     3
 71
     2
 72
     2
 73
     1
 90
        2
 40
-0.6
 41
30.0
 62
     5
 63
     7
 74
     1
 91
        4
 64
     7
 65
   257
 75
     1
175
     1
 42
1.0
 92
        0
 66
   257
 43
1.0
 76
     1
 77
     6
 78
     2
 67
     7
 79
     5
170
     0
171
     0
290
     0
174
     0
 93
       13
 44
0.0
173
     0
291
     1
 45
0.0
1001
ACAD
1000
AcDbSavedByObjectVersion
1070
     0
1000
AcDbSavedByObjectVersion
1070
     0
1000
AcDbSavedByObjectVersion
1070
     0
  0
VISUALSTYLE
  5
7EB
102
{ACAD_REACTORS
330
7DD
102
}
330
7DD
100
AcDbVisualStyle
  2
Linepattern
 70
    14
 71
     2
 72
     2
 73
     0
 90
        0
 40
-0.6
 41
-30.0
 62
     5
 63
     7
 74
     1
 91
        4
 64
     7
 65
   257
 75
     7
175
     7
 42
1.0
 92
        8
 66
     7
 43
1.0
 76
     1
 77
     6
 78
     2
 67
     7
 79
     5
170
     0
171
     0
290
     0
174
     0
 93
        1
 44
0.0
173
     0
291
     1
 45
0.0
1001
ACAD
1000
AcDbSavedByObjectVersion
1070
     0
1000
AcDbSavedByObjectVersion
1070
     0
1000
AcDbSavedByObjectVersion
1070
     0
  0
VISUALSTYLE
  5
7E7
102
{ACAD_REACTORS
330
7DD
102
}
330
7DD
100
AcDbVisualStyle
  2
Realistic
 70
     8
 71
     2
 72
     2
 73
     0
 90
        0
 40
-0.6
 41
-30.0
 62
     5
 63
     7
 74
     1
 91
        0
 64
     7
 65
   257
 75
     1
175
     1
 42
1.0
 92
        8
 66
     8
 43
1.0
 76
     1
 77
     6
 78
     2
 67
     7
 79
     5
170
     0
171
     0
290
     0
174
     0
 93
       13
 44
0.0
173
     0
291
     0
 45
0.0
1001
ACAD
1000
AcDbSavedByObjectVersion
1070
     0
1000
AcDbSavedByObjectVersion
1070
     0
1000
AcDbSavedByObjectVersion
1070
     0
  0
VISUALSTYLE
  5
7EA
102
{ACAD_REACTORS
330
7DD
102
}
330
7DD
100
AcDbVisualStyle
  2
Thicken
 70
    13
 71
     2
 72
     2
 73
     0
 90
        0
 40
-0.6
 41
-30.0
 62
     5
 63
     7
 74
     1
 91
        4
 64
     7
 65
   257
 75
     1
175
     1
 42
1.0
 92
       12
 66
     7
 43
1.0
 76
     1
 77
     6
 78
     2
 67
     7
 79
     5
170
     0
171
     0
290
     0
174
     0
 93
        1
 44
0.0
173
     0
291
     1
 45
0.0
1001
ACAD
1000
AcDbSavedByObjectVersion
1070
     0
1000
AcDbSavedByObjectVersion
1070
     0
1000
AcDbSavedByObjectVersion
1070
     0
  0
DICTIONARYVAR
  5
860
102
{ACAD_REACTORS
330
85D
102
}
330
85D
100
DictionaryVariables
280
     0
  1
1:1
  0
DICTIONARYVAR
  5
85F
102
{ACAD_REACTORS
330
85D
102
}
330
85D
100
DictionaryVariables
280
     0
  1
STANDARD
  0
DICTIONARYVAR
  5
85E
102
{ACAD_REACTORS
330
85D
102
}
330
85D
100
DictionaryVariables
280
     0
  1
STANDARD
  0
DICTIONARYVAR
  5
863
102
{ACAD_REACTORS
330
85D
102
}
330
85D
100
DictionaryVariables
280
     0
  1
1
  0
DICTIONARYVAR
  5
862
102
{ACAD_REACTORS
330
85D
102
}
330
85D
100
DictionaryVariables
280
     0
  1
0
  0
DICTIONARYVAR
  5
861
102
{ACAD_REACTORS
330
85D
102
}
330
85D
100
DictionaryVariables
280
     0
  1
127
  0
DICTIONARY
  5
899
330
827
100
AcDbDictionary
280
     1
281
     1
  3
ACAD_XREC_ROUNDTRIP
360
89A
  0
DICTIONARY
  5
89B
330
82B
100
AcDbDictionary
280
     1
281
     1
  3
ACAD_XREC_ROUNDTRIP
360
89C
  0
DICTIONARY
  5
7CE
330
7CD
100
AcDbDictionary
280
     1
281
     1
  3
ACAD_XREC_ROUNDTRIP
360
87C
  3
BUMPTILE
360
7D0
  3
DIFFUSETILE
360
7CF
  3
OPACITYTILE
360
7D3
  3
REFLECTIONTILE
360
7D2
  3
REFRACTIONTILE
360
7D4
  3
SPECULARTILE
360
7D1
  0
DICTIONARY
  5
7C6
330
7C5
100
AcDbDictionary
280
     1
281
     1
  3
ACAD_XREC_ROUNDTRIP
360
87B
  3
BUMPTILE
360
7C8
  3
DIFFUSETILE
360
7C7
  3
OPACITYTILE
360
7CB
  3
REFLECTIONTILE
360
7CA
  3
REFRACTIONTILE
360
7CC
  3
SPECULARTILE
360
7C9
  0
DICTIONARY
  5
7D6
330
7D5
100
AcDbDictionary
280
     1
281
     1
  3
ACAD_XREC_ROUNDTRIP
360
87D
  3
BUMPTILE
360
7D8
  3
DIFFUSETILE
360
7D7
  3
OPACITYTILE
360
7DB
  3
REFLECTIONTILE
360
7DA
  3
REFRACTIONTILE
360
7DC
  3
SPECULARTILE
360
7D9
  0
DICTIONARY
  5
877
330
820
100
AcDbDictionary
280
     1
281
     1
  3
ACAD_ROUNDTRIP_2008_TABLESTYLE_CELLSTYLEMAP
360
896
  3
ACAD_XREC_ROUNDTRIP
360
898
  0
XRECORD
  5
89A
102
{ACAD_REACTORS
330
899
102
}
330
899
100
AcDbXrecord
280
     1
102
SHADEPLOT
 70
     0
102
SHADEPLOTRESLEVEL
 70
     2
102
SHADEPLOTCUSTOMDPI
 70
   300
  0
XRECORD
  5
89C
102
{ACAD_REACTORS
330
89B
102
}
330
89B
100
AcDbXrecord
280
     1
102
SHADEPLOT
 70
     0
102
SHADEPLOTRESLEVEL
 70
     2
102
SHADEPLOTCUSTOMDPI
 70
   300
  0
XRECORD
  5
87C
102
{ACAD_REACTORS
330
7CE
102
}
330
7CE
100
AcDbXrecord
280
     1
102
MATERIAL
148
0.0
149
0.0
149
0.0
 93
        0
 94
      127
282
     0
 72
     0
 77
     0
171
     0
175
     0
179
     0
273
     0
  0
XRECORD
  5
7D0
102
{ACAD_REACTORS
330
7CE
102
}
330
7CE
100
AcDbXrecord
280
     1
270
     1
271
     1
  0
XRECORD
  5
7CF
102
{ACAD_REACTORS
330
7CE
102
}
330
7CE
100
AcDbXrecord
280
     1
270
     1
271
     1
  0
XRECORD
  5
7D3
102
{ACAD_REACTORS
330
7CE
102
}
330
7CE
100
AcDbXrecord
280
     1
270
     1
271
     1
  0
XRECORD
  5
7D2
102
{ACAD_REACTORS
330
7CE
102
}
330
7CE
100
AcDbXrecord
280
     1
270
     1
271
     1
  0
XRECORD
  5
7D4
102
{ACAD_REACTORS
330
7CE
102
}
330
7CE
100
AcDbXrecord
280
     1
270
     1
271
     1
  0
XRECORD
  5
7D1
102
{ACAD_REACTORS
330
7CE
102
}
330
7CE
100
AcDbXrecord
280
     1
270
     1
271
     1
  0
XRECORD
  5
87B
102
{ACAD_REACTORS
330
7C6
102
}
330
7C6
100
AcDbXrecord
280
     1
102
MATERIAL
148
0.0
149
0.0
149
0.0
 93
        0
 94
      127
282
     0
 72
     0
 77
     0
171
     0
175
     0
179
     0
273
     0
  0
XRECORD
  5
7C8
102
{ACAD_REACTORS
330
7C6
102
}
330
7C6
100
AcDbXrecord
280
     1
270
     1
271
     1
  0
XRECORD
  5
7C7
102
{ACAD_REACTORS
330
7C6
102
}
330
7C6
100
AcDbXrecord
280
     1
270
     1
271
     1
  0
XRECORD
  5
7CB
102
{ACAD_REACTORS
330
7C6
102
}
330
7C6
100
AcDbXrecord
280
     1
270
     1
271
     1
  0
XRECORD
  5
7CA
102
{ACAD_REACTORS
330
7C6
102
}
330
7C6
100
AcDbXrecord
280
     1
270
     1
271
     1
  0
XRECORD
  5
7CC
102
{ACAD_REACTORS
330
7C6
102
}
330
7C6
100
AcDbXrecord
280
     1
270
     1
271
     1
  0
XRECORD
  5
7C9
102
{ACAD_REACTORS
330
7C6
102
}
330
7C6
100
AcDbXrecord
280
     1
270
     1
271
     1
  0
XRECORD
  5
87D
102
{ACAD_REACTORS
330
7D6
102
}
330
7D6
100
AcDbXrecord
280
     1
102
MATERIAL
148
0.0
149
0.0
149
0.0
 93
        0
 94
      127
282
     0
 72
     0
 77
     0
171
     0
175
     0
179
     0
273
     0
  0
XRECORD
  5
7D8
102
{ACAD_REACTORS
330
7D6
102
}
330
7D6
100
AcDbXrecord
280
     1
270
     1
271
     1
  0
XRECORD
  5
7D7
102
{ACAD_REACTORS
330
7D6
102
}
330
7D6
100
AcDbXrecord
280
     1
270
     1
271
     1
  0
XRECORD
  5
7DB
102
{ACAD_REACTORS
330
7D6
102
}
330
7D6
100
AcDbXrecord
280
     1
270
     1
271
     1
  0
XRECORD
  5
7DA
102
{ACAD_REACTORS
330
7D6
102
}
330
7D6
100
AcDbXrecord
280
     1
270
     1
271
     1
  0
XRECORD
  5
7DC
102
{ACAD_REACTORS
330
7D6
102
}
330
7D6
100
AcDbXrecord
280
     1
270
     1
271
     1
  0
XRECORD
  5
7D9
102
{ACAD_REACTORS
330
7D6
102
}
330
7D6
100
AcDbXrecord
280
     1
270
     1
271
     1
  0
CELLSTYLEMAP
  5
896
102
{ACAD_REACTORS
330
877
102
}
330
877
100
AcDbCellStyleMap
 90
        3
300
CELLSTYLE
  1
TABLEFORMAT_BEGIN
 90
        5
170
     1
 91
        0
 92
    32768
 62
   257
 93
        1
300
CONTENTFORMAT
  1
CONTENTFORMAT_BEGIN
 90
        0
 91
        0
 92
      512
 93
        0
300

 40
0.0
140
1.0
 94
        5
 62
     0
340
811
144
0.25
309
CONTENTFORMAT_END
171
     1
301
MARGIN
  1
CELLMARGIN_BEGIN
 40
0.06
 40
0.06
 40
0.06
 40
0.06
 40
0.18
 40
0.18
309
CELLMARGIN_END
 94
        6
 95
        1
302
GRIDFORMAT
  1
GRIDFORMAT_BEGIN
 90
        0
 91
        1
 62
     0
 92
       -2
340
0
 93
        0
 40
0.045
309
GRIDFORMAT_END
 95
        2
302
GRIDFORMAT
  1
GRIDFORMAT_BEGIN
 90
        0
 91
        1
 62
     0
 92
       -2
340
0
 93
        0
 40
0.045
309
GRIDFORMAT_END
 95
        4
302
GRIDFORMAT
  1
GRIDFORMAT_BEGIN
 90
        0
 91
        1
 62
     0
 92
       -2
340
0
 93
        0
 40
0.045
309
GRIDFORMAT_END
 95
        8
302
GRIDFORMAT
  1
GRIDFORMAT_BEGIN
 90
        0
 91
        1
 62
     0
 92
       -2
340
0
 93
        0
 40
0.045
309
GRIDFORMAT_END
 95
       16
302
GRIDFORMAT
  1
GRIDFORMAT_BEGIN
 90
        0
 91
        1
 62
     0
 92
       -2
340
0
 93
        0
 40
0.045
309
GRIDFORMAT_END
 95
       32
302
GRIDFORMAT
  1
GRIDFORMAT_BEGIN
 90
        0
 91
        1
 62
     0
 92
       -2
340
0
 93
        0
 40
0.045
309
GRIDFORMAT_END
309
TABLEFORMAT_END
  1
CELLSTYLE_BEGIN
 90
        1
 91
        1
300
_TITLE
309
CELLSTYLE_END
300
CELLSTYLE
  1
TABLEFORMAT_BEGIN
 90
        5
170
     1
 91
        0
 92
        0
 62
   257
 93
        1
300
CONTENTFORMAT
  1
CONTENTFORMAT_BEGIN
 90
        0
 91
        0
 92
      512
 93
        0
300

 40
0.0
140
1.0
 94
        5
 62
     0
340
811
144
0.18
309
CONTENTFORMAT_END
171
     1
301
MARGIN
  1
CELLMARGIN_BEGIN
 40
0.06
 40
0.06
 40
0.06
 40
0.06
 40
0.18
 40
0.18
309
CELLMARGIN_END
 94
        6
 95
        1
302
GRIDFORMAT
  1
GRIDFORMAT_BEGIN
 90
        0
 91
        1
 62
     0
 92
       -2
340
0
 93
        0
 40
0.045
309
GRIDFORMAT_END
 95
        2
302
GRIDFORMAT
  1
GRIDFORMAT_BEGIN
 90
        0
 91
        1
 62
     0
 92
       -2
340
0
 93
        0
 40
0.045
309
GRIDFORMAT_END
 95
        4
302
GRIDFORMAT
  1
GRIDFORMAT_BEGIN
 90
        0
 91
        1
 62
     0
 92
       -2
340
0
 93
        0
 40
0.045
309
GRIDFORMAT_END
 95
        8
302
GRIDFORMAT
  1
GRIDFORMAT_BEGIN
 90
        0
 91
        1
 62
     0
 92
       -2
340
0
 93
        0
 40
0.045
309
GRIDFORMAT_END
 95
       16
302
GRIDFORMAT
  1
GRIDFORMAT_BEGIN
 90
        0
 91
        1
 62
     0
 92
       -2
340
0
 93
        0
 40
0.045
309
GRIDFORMAT_END
 95
       32
302
GRIDFORMAT
  1
GRIDFORMAT_BEGIN
 90
        0
 91
        1
 62
     0
 92
       -2
340
0
 93
        0
 40
0.045
309
GRIDFORMAT_END
309
TABLEFORMAT_END
  1
CELLSTYLE_BEGIN
 90
        2
 91
        1
300
_HEADER
309
CELLSTYLE_END
300
CELLSTYLE
  1
TABLEFORMAT_BEGIN
 90
        5
170
     1
 91
        0
 92
        0
 62
   257
 93
        1
300
CONTENTFORMAT
  1
CONTENTFORMAT_BEGIN
 90
        0
 91
        0
 92
      512
 93
        0
300

 40
0.0
140
1.0
 94
        2
 62
     0
340
811
144
0.18
309
CONTENTFORMAT_END
171
     1
301
MARGIN
  1
CELLMARGIN_BEGIN
 40
0.06
 40
0.06
 40
0.06
 40
0.06
 40
0.18
 40
0.18
309
CELLMARGIN_END
 94
        6
 95
        1
302
GRIDFORMAT
  1
GRIDFORMAT_BEGIN
 90
        0
 91
        1
 62
     0
 92
       -2
340
0
 93
        0
 40
0.045
309
GRIDFORMAT_END
 95
        2
302
GRIDFORMAT
  1
GRIDFORMAT_BEGIN
 90
        0
 91
        1
 62
     0
 92
       -2
340
0
 93
        0
 40
0.045
309
GRIDFORMAT_END
 95
        4
302
GRIDFORMAT
  1
GRIDFORMAT_BEGIN
 90
        0
 91
        1
 62
     0
 92
       -2
340
0
 93
        0
 40
0.045
309
GRIDFORMAT_END
 95
        8
302
GRIDFORMAT
  1
GRIDFORMAT_BEGIN
 90
        0
 91
        1
 62
     0
 92
       -2
340
0
 93
        0
 40
0.045
309
GRIDFORMAT_END
 95
       16
302
GRIDFORMAT
  1
GRIDFORMAT_BEGIN
 90
        0
 91
        1
 62
     0
 92
       -2
340
0
 93
        0
 40
0.045
309
GRIDFORMAT_END
 95
       32
302
GRIDFORMAT
  1
GRIDFORMAT_BEGIN
 90
        0
 91
        1
 62
     0
 92
       -2
340
0
 93
        0
 40
0.045
309
GRIDFORMAT_END
309
TABLEFORMAT_END
  1
CELLSTYLE_BEGIN
 90
        3
 91
        2
300
_DATA
309
CELLSTYLE_END
  0
XRECORD
  5
898
102
{ACAD_REACTORS
330
877
102
}
330
877
100
AcDbXrecord
280
     1
102
ACAD_ROUNDTRIP_PRE2007_TABLESTYLE
 90
      512
 91
        0
  1

 92
      512
 93
        0
  2

 94
      512
 95
        0
  3

  0
ENDSEC
  0
EOF
