  0
SECTION
  2
HEADER
  9
$ACADVER
  1
AC1015
  9
$ACADMAINTVER
 70
    20
  9
$DWGCODEPAGE
  3
ANSI_932
  9
$INSBASE
 10
0.0
 20
0.0
 30
0.0
  9
$EXTMIN
 10
-1228.022637955761
 20
-935.3100539999999
 30
0.0
  9
$EXTMAX
 10
1123.326049
 20
2087.412277
 30
0.0
  9
$LIMMIN
 10
-4200.0
 20
-2970.0
  9
$LIMMAX
 10
4200.0
 20
2970.0
  9
$ORTHOMODE
 70
     0
  9
$REGENMODE
 70
     1
  9
$FILLMODE
 70
     1
  9
$QTEXTMODE
 70
     0
  9
$MIRRTEXT
 70
     0
  9
$LTSCALE
 40
20.0
  9
$ATTMODE
 70
     1
  9
$TEXTSIZE
 40
64.0
  9
$TRACEWID
 40
0.05
  9
$TEXTSTYLE
  7
STANDARD
  9
$CLAYER
  8
SIZE
  9
$CELTYPE
  6
CONTINUOUS
  9
$CECOLOR
 62
     7
  9
$CELTSCALE
 40
1.0
  9
$DISPSILH
 70
     0
  9
$DIMSCALE
 40
1.0
  9
$DIMASZ
 40
10.0
  9
$DIMEXO
 40
20.0
  9
$DIMDLI
 40
200.0
  9
$DIMRND
 40
0.0
  9
$DIMDLE
 40
0.0
  9
$DIMEXE
 40
30.0
  9
$DIMTP
 40
0.0
  9
$DIMTM
 40
0.0
  9
$DIMTXT
 40
64.0
  9
$DIMCEN
 40
0.0
  9
$DIMTSZ
 40
0.0
  9
$DIMTOL
 70
     0
  9
$DIMLIM
 70
     0
  9
$DIMTIH
 70
     0
  9
$DIMTOH
 70
     0
  9
$DIMSE1
 70
     0
  9
$DIMSE2
 70
     0
  9
$DIMTAD
 70
     1
  9
$DIMZIN
 70
     8
  9
$DIMBLK
  1
DOTBLANK
  9
$DIMASO
 70
     1
  9
$DIMSHO
 70
     0
  9
$DIMPOST
  1

  9
$DIMAPOST
  1

  9
$DIMALT
 70
     0
  9
$DIMALTD
 70
     2
  9
$DIMALTF
 40
25.4
  9
$DIMLFAC
 40
1.0
  9
$DIMTOFL
 70
     1
  9
$DIMTVP
 40
0.0
  9
$DIMTIX
 70
     1
  9
$DIMSOXD
 70
     0
  9
$DIMSAH
 70
     0
  9
$DIMBLK1
  1

  9
$DIMBLK2
  1

  9
$DIMSTYLE
  2
STANDARD
  9
$DIMCLRD
 70
     0
  9
$DIMCLRE
 70
     0
  9
$DIMCLRT
 70
     0
  9
$DIMTFAC
 40
1.0
  9
$DIMGAP
 40
0.09
  9
$DIMJUST
 70
     0
  9
$DIMSD1
 70
     0
  9
$DIMSD2
 70
     0
  9
$DIMTOLJ
 70
     1
  9
$DIMTZIN
 70
     0
  9
$DIMALTZ
 70
     0
  9
$DIMALTTZ
 70
     0
  9
$DIMUPT
 70
     0
  9
$DIMDEC
 70
     4
  9
$DIMTDEC
 70
     4
  9
$DIMALTU
 70
     2
  9
$DIMALTTD
 70
     2
  9
$DIMTXSTY
  7
STANDARD
  9
$DIMAUNIT
 70
     0
  9
$DIMADEC
 70
     0
  9
$DIMALTRND
 40
0.0
  9
$DIMAZIN
 70
     0
  9
$DIMDSEP
 70
    46
  9
$DIMATFIT
 70
     3
  9
$DIMFRAC
 70
     0
  9
$DIMLDRBLK
  1
DOTBLANK
  9
$DIMLUNIT
 70
     2
  9
$DIMLWD
 70
    -2
  9
$DIMLWE
 70
    -2
  9
$DIMTMOVE
 70
     0
  9
$LUNITS
 70
     2
  9
$LUPREC
 70
     4
  9
$SKETCHINC
 40
0.1
  9
$FILLETRAD
 40
0.0
  9
$AUNITS
 70
     1
  9
$AUPREC
 70
     3
  9
$MENU
  1
ACAD
  9
$ELEVATION
 40
0.0
  9
$PELEVATION
 40
0.0
  9
$THICKNESS
 40
0.0
  9
$LIMCHECK
 70
     0
  9
$CHAMFERA
 40
0.0
  9
$CHAMFERB
 40
0.0
  9
$CHAMFERC
 40
0.0
  9
$CHAMFERD
 40
0.0
  9
$SKPOLY
 70
     0
  9
$TDCREATE
 40
2449761.535289665
  9
$TDUCREATE
 40
2449761.160289664
  9
$TDUPDATE
 40
2458150.728430475
  9
$TDUUPDATE
 40
2458150.353430475
  9
$TDINDWG
 40
4.2128256713
  9
$TDUSRTIMER
 40
4.2128254861
  9
$USRTIMER
 70
     1
  9
$ANGBASE
 50
0.0
  9
$ANGDIR
 70
     0
  9
$PDMODE
 70
    35
  9
$PDSIZE
 40
100.0
  9
$PLINEWID
 40
0.0
  9
$SPLFRAME
 70
     0
  9
$SPLINETYPE
 70
     6
  9
$SPLINESEGS
 70
     8
  9
$HANDSEED
  5
3C9
  9
$SURFTAB1
 70
     6
  9
$SURFTAB2
 70
     6
  9
$SURFTYPE
 70
     6
  9
$SURFU
 70
     6
  9
$SURFV
 70
     6
  9
$UCSBASE
  2

  9
$UCSNAME
  2

  9
$UCSORG
 10
0.0
 20
0.0
 30
0.0
  9
$UCSXDIR
 10
1.0
 20
0.0
 30
0.0
  9
$UCSYDIR
 10
0.0
 20
1.0
 30
0.0
  9
$UCSORTHOREF
  2

  9
$UCSORTHOVIEW
 70
     0
  9
$UCSORGTOP
 10
0.0
 20
0.0
 30
0.0
  9
$UCSORGBOTTOM
 10
0.0
 20
0.0
 30
0.0
  9
$UCSORGLEFT
 10
0.0
 20
0.0
 30
0.0
  9
$UCSORGRIGHT
 10
0.0
 20
0.0
 30
0.0
  9
$UCSORGFRONT
 10
0.0
 20
0.0
 30
0.0
  9
$UCSORGBACK
 10
0.0
 20
0.0
 30
0.0
  9
$PUCSBASE
  2

  9
$PUCSNAME
  2

  9
$PUCSORG
 10
0.0
 20
0.0
 30
0.0
  9
$PUCSXDIR
 10
1.0
 20
0.0
 30
0.0
  9
$PUCSYDIR
 10
0.0
 20
1.0
 30
0.0
  9
$PUCSORTHOREF
  2

  9
$PUCSORTHOVIEW
 70
     0
  9
$PUCSORGTOP
 10
0.0
 20
0.0
 30
0.0
  9
$PUCSORGBOTTOM
 10
0.0
 20
0.0
 30
0.0
  9
$PUCSORGLEFT
 10
0.0
 20
0.0
 30
0.0
  9
$PUCSORGRIGHT
 10
0.0
 20
0.0
 30
0.0
  9
$PUCSORGFRONT
 10
0.0
 20
0.0
 30
0.0
  9
$PUCSORGBACK
 10
0.0
 20
0.0
 30
0.0
  9
$USERI1
 70
     0
  9
$USERI2
 70
     0
  9
$USERI3
 70
     0
  9
$USERI4
 70
     0
  9
$USERI5
 70
     0
  9
$USERR1
 40
20.0
  9
$USERR2
 40
0.0
  9
$USERR3
 40
0.0
  9
$USERR4
 40
0.0
  9
$USERR5
 40
0.0
  9
$WORLDVIEW
 70
     1
  9
$SHADEDGE
 70
     3
  9
$SHADEDIF
 70
    70
  9
$TILEMODE
 70
     1
  9
$MAXACTVP
 70
    48
  9
$PINSBASE
 10
0.0
 20
0.0
 30
0.0
  9
$PLIMCHECK
 70
     0
  9
$PEXTMIN
 10
1.000000000000000E+20
 20
1.000000000000000E+20
 30
1.000000000000000E+20
  9
$PEXTMAX
 10
-1.000000000000000E+20
 20
-1.000000000000000E+20
 30
-1.000000000000000E+20
  9
$PLIMMIN
 10
0.0
 20
0.0
  9
$PLIMMAX
 10
12.0
 20
9.0
  9
$UNITMODE
 70
     0
  9
$VISRETAIN
 70
     1
  9
$PLINEGEN
 70
     0
  9
$PSLTSCALE
 70
     1
  9
$TREEDEPTH
 70
  3020
  9
$CMLSTYLE
  2
Standard
  9
$CMLJUST
 70
     0
  9
$CMLSCALE
 40
1.0
  9
$PROXYGRAPHICS
 70
     1
  9
$MEASUREMENT
 70
     0
  9
$CELWEIGHT
370
    -1
  9
$ENDCAPS
280
     0
  9
$JOINSTYLE
280
     0
  9
$LWDISPLAY
290
     0
  9
$INSUNITS
 70
     0
  9
$HYPERLINKBASE
  1

  9
$STYLESHEET
  1

  9
$XEDIT
290
     1
  9
$CEPSNTYPE
380
     0
  9
$PSTYLEMODE
290
     1
  9
$FINGERPRINTGUID
  2
{73A02001-75E4-4C14-A586-C1449CFD5307}
  9
$VERSIONGUID
  2
{746FA009-8C6F-4CD5-A5C9-71CC82DB0AB4}
  9
$EXTNAMES
290
     1
  9
$PSVPSCALE
 40
0.0
  9
$OLESTARTUP
290
     0
  0
ENDSEC
  0
SECTION
  2
CLASSES
  0
CLASS
  1
ACDBDICTIONARYWDFLT
  2
AcDbDictionaryWithDefault
  3
ObjectDBX Classes
 90
        0
280
     0
281
     0
  0
CLASS
  1
MATERIAL
  2
AcDbMaterial
  3
ObjectDBX Classes
 90
     1153
280
     0
281
     0
  0
CLASS
  1
VISUALSTYLE
  2
AcDbVisualStyle
  3
ObjectDBX Classes
 90
     4095
280
     0
281
     0
  0
CLASS
  1
SCALE
  2
AcDbScale
  3
ObjectDBX Classes
 90
     1153
280
     0
281
     0
  0
CLASS
  1
TABLESTYLE
  2
AcDbTableStyle
  3
ObjectDBX Classes
 90
     4095
280
     0
281
     0
  0
CLASS
  1
MLEADERSTYLE
  2
AcDbMLeaderStyle
  3
ACDB_MLEADERSTYLE_CLASS
 90
     4095
280
     0
281
     0
  0
CLASS
  1
CELLSTYLEMAP
  2
AcDbCellStyleMap
  3
ObjectDBX Classes
 90
     1152
280
     0
281
     0
  0
CLASS
  1
DICTIONARYVAR
  2
AcDbDictionaryVar
  3
ObjectDBX Classes
 90
        0
280
     0
281
     0
  0
CLASS
  1
ACDBPLACEHOLDER
  2
AcDbPlaceHolder
  3
ObjectDBX Classes
 90
        0
280
     0
281
     0
  0
CLASS
  1
LAYOUT
  2
AcDbLayout
  3
ObjectDBX Classes
 90
        0
280
     0
281
     0
  0
ENDSEC
  0
SECTION
  2
TABLES
  0
TABLE
  2
VPORT
  5
254
330
0
100
AcDbSymbolTable
 70
     1
  0
VPORT
  5
2C5
330
254
100
AcDbSymbolTableRecord
100
AcDbViewportTableRecord
  2
*ACTIVE
 70
     0
 10
0.0
 20
0.0
 11
1.0
 21
1.0
 12
189.470008739405
 22
-15.65632300997549
 13
0.0
 23
0.0
 14
50.0
 24
50.0
 15
100.0
 25
100.0
 16
0.0
 26
0.0
 36
1.0
 17
0.0
 27
0.0
 37
0.0
 40
361.3936009234349
 41
2.673633440514469
 42
50.0
 43
0.0
 44
0.0
 50
0.0
 51
0.0
 71
     0
 72
  1000
 73
     1
 74
     0
 75
     0
 76
     0
 77
     0
 78
     0
281
     0
 65
     1
110
0.0
120
0.0
130
0.0
111
1.0
121
0.0
131
0.0
112
0.0
122
1.0
132
0.0
 79
     0
146
0.0
1001
ACAD_NAV_VCDISPLAY
1070
     3
  0
ENDTAB
  0
TABLE
  2
LTYPE
  5
251
330
0
100
AcDbSymbolTable
 70
     2
  0
LTYPE
  5
2AE
330
251
100
AcDbSymbolTableRecord
100
AcDbLinetypeTableRecord
  2
ByBlock
 70
     0
  3

 72
    65
 73
     0
 40
0.0
  0
LTYPE
  5
2AF
330
251
100
AcDbSymbolTableRecord
100
AcDbLinetypeTableRecord
  2
ByLayer
 70
     0
  3

 72
    65
 73
     0
 40
0.0
  0
LTYPE
  5
2B0
330
251
100
AcDbSymbolTableRecord
100
AcDbLinetypeTableRecord
  2
CONTINUOUS
 70
     0
  3
実線
 72
    65
 73
     0
 40
0.0
  0
LTYPE
  5
2C6
330
251
100
AcDbSymbolTableRecord
100
AcDbLinetypeTableRecord
  2
DASHDOT
 70
     0
  3
____ _ ____ _ ____ _ ____ _ ____ _ ____ _ ____
 72
    65
 73
     4
 40
5.5
 49
4.0
 74
     0
 49
-0.6
 74
     0
 49
0.3
 74
     0
 49
-0.6
 74
     0
  0
ENDTAB
  0
TABLE
  2
LAYER
  5
24E
330
0
100
AcDbSymbolTable
 70
    12
  0
LAYER
  5
2A8
102
{ACAD_XDICTIONARY
360
2EA
102
}
330
24E
100
AcDbSymbolTableRecord
100
AcDbLayerTableRecord
  2
0
 70
     0
 62
     7
  6
CONTINUOUS
370
    -3
390
25B
  0
LAYER
  5
2C4
102
{ACAD_XDICTIONARY
360
2EC
102
}
330
24E
100
AcDbSymbolTableRecord
100
AcDbLayerTableRecord
  2
SIZE
 70
     0
 62
    30
  6
CONTINUOUS
370
    -3
390
25B
  0
LAYER
  5
2C7
102
{ACAD_XDICTIONARY
360
2EE
102
}
330
24E
100
AcDbSymbolTableRecord
100
AcDbLayerTableRecord
  2
OUTLINE
 70
     0
 62
     3
  6
CONTINUOUS
370
    -3
390
25B
  0
LAYER
  5
2C8
102
{ACAD_XDICTIONARY
360
2F0
102
}
330
24E
100
AcDbSymbolTableRecord
100
AcDbLayerTableRecord
  2
DETAIL
 70
     0
 62
     5
  6
CONTINUOUS
370
    -3
390
25B
  0
LAYER
  5
2C9
102
{ACAD_XDICTIONARY
360
2F2
102
}
330
24E
100
AcDbSymbolTableRecord
100
AcDbLayerTableRecord
  2
BASIS
 70
     0
 62
     6
  6
DASHDOT
370
    -3
390
25B
  0
LAYER
  5
2CA
102
{ACAD_XDICTIONARY
360
2F4
102
}
330
24E
100
AcDbSymbolTableRecord
100
AcDbLayerTableRecord
  2
NOTE
 70
     0
 62
     4
  6
CONTINUOUS
370
    -3
390
25B
  0
LAYER
  5
2CB
102
{ACAD_XDICTIONARY
360
2F6
102
}
330
24E
100
AcDbSymbolTableRecord
100
AcDbLayerTableRecord
  2
ARRANGE
 70
     0
 62
     1
  6
CONTINUOUS
370
    -3
390
25B
  0
LAYER
  5
2CC
102
{ACAD_XDICTIONARY
360
2F8
102
}
330
24E
100
AcDbSymbolTableRecord
100
AcDbLayerTableRecord
  2
FIX
 70
     0
 62
    11
  6
CONTINUOUS
370
    -3
390
25B
  0
LAYER
  5
2CD
102
{ACAD_XDICTIONARY
360
2FA
102
}
330
24E
100
AcDbSymbolTableRecord
100
AcDbLayerTableRecord
  2
SERVICESPACE
 70
     0
 62
     2
  6
DASHDOT
370
    -3
390
25B
  0
LAYER
  5
2CE
102
{ACAD_XDICTIONARY
360
2FC
102
}
330
24E
100
AcDbSymbolTableRecord
100
AcDbLayerTableRecord
  2
ETC
 70
     0
 62
    61
  6
CONTINUOUS
370
    -3
390
25B
  0
LAYER
  5
2CF
102
{ACAD_XDICTIONARY
360
2FE
102
}
330
24E
100
AcDbSymbolTableRecord
100
AcDbLayerTableRecord
  2
SYMBOLLINE
 70
     0
 62
    15
  6
CONTINUOUS
370
    -3
390
25B
  0
LAYER
  5
2D0
330
24E
100
AcDbSymbolTableRecord
100
AcDbLayerTableRecord
  2
DEFPOINTS
 70
     0
 62
     7
  6
CONTINUOUS
290
     0
370
    -3
390
25B
  0
ENDTAB
  0
TABLE
  2
STYLE
  5
24F
330
0
100
AcDbSymbolTable
 70
     4
  0
STYLE
  5
2A9
330
24F
100
AcDbSymbolTableRecord
100
AcDbTextStyleTableRecord
  2
STANDARD
 70
     0
 40
0.0
 41
0.9
 50
0.0
 71
     0
 42
64.0
  3
SIMPLEX
  4
BIGFONT
  0
STYLE
  5
2AD
330
24F
100
AcDbSymbolTableRecord
100
AcDbTextStyleTableRecord
  2
Annotative
 70
     0
 40
0.0
 41
1.0
 50
0.0
 71
     0
 42
0.2
  3
txt
  4

1001
AcadAnnotative
1000
AnnotativeData
1002
{
1070
     1
1070
     1
1002
}
  0
STYLE
  5
2D1
330
24F
100
AcDbSymbolTableRecord
100
AcDbTextStyleTableRecord
  2
STANDARD1
 70
     0
 40
0.0
 41
1.0
 50
0.0
 71
     0
 42
3.5
  3
MONOTXT
  4
BIGFONT
  0
STYLE
  5
381
330
24F
100
AcDbSymbolTableRecord
100
AcDbTextStyleTableRecord
  2
KAIGAI_STANDARD_1
 70
     0
 40
53.0
 41
0.51
 50
0.0
 71
     0
 42
53.0
  3
MONOTXT.shx
  4
BIGFONT.shx
  0
ENDTAB
  0
TABLE
  2
VIEW
  5
252
330
0
100
AcDbSymbolTable
 70
     1
  0
VIEW
  5
2D2
330
252
100
AcDbSymbolTableRecord
100
AcDbViewTableRecord
  2
ALL
 70
     0
 40
6056.230032000001
 10
0.0
 20
58.115016
 41
8400.0
 11
0.0
 21
0.0
 31
1.0
 12
0.0
 22
0.0
 32
0.0
 42
50.0
 43
0.0
 44
0.0
 50
0.0
 71
     0
281
     0
 72
     1
110
0.0
120
0.0
130
0.0
111
1.0
121
0.0
131
0.0
112
0.0
122
1.0
132
0.0
 79
     0
146
0.0
  0
ENDTAB
  0
TABLE
  2
UCS
  5
253
330
0
100
AcDbSymbolTable
 70
     0
  0
ENDTAB
  0
TABLE
  2
APPID
  5
255
330
0
100
AcDbSymbolTable
 70
     5
  0
APPID
  5
2AA
330
255
100
AcDbSymbolTableRecord
100
AcDbRegAppTableRecord
  2
ACAD
 70
     0
  0
APPID
  5
2B1
330
255
100
AcDbSymbolTableRecord
100
AcDbRegAppTableRecord
  2
AcadAnnotative
 70
     0
  0
APPID
  5
2BB
330
255
100
AcDbSymbolTableRecord
100
AcDbRegAppTableRecord
  2
ACAD_MLEADERVER
 70
     0
  0
APPID
  5
2DD
330
255
100
AcDbSymbolTableRecord
100
AcDbRegAppTableRecord
  2
ACAD_EXEMPT_FROM_CAD_STANDARDS
 70
     0
  0
APPID
  5
33D
330
255
100
AcDbSymbolTableRecord
100
AcDbRegAppTableRecord
  2
ACAD_NAV_VCDISPLAY
 70
     0
  0
ENDTAB
  0
TABLE
  2
DIMSTYLE
  5
256
330
0
100
AcDbSymbolTable
 70
     2
100
AcDbDimStyleTable
 71
     0
  0
DIMSTYLE
105
2AB
330
256
100
AcDbSymbolTableRecord
100
AcDbDimStyleTableRecord
  2
STANDARD
 70
     0
275
     1
279
     2
284
     8
285
     8
286
     8
340
2A9
  0
DIMSTYLE
105
2AC
330
256
100
AcDbSymbolTableRecord
100
AcDbDimStyleTableRecord
  2
Annotative
 70
     0
340
2A9
1001
AcadAnnotative
1000
AnnotativeData
1002
{
1070
     1
1070
     1
1002
}
  0
ENDTAB
  0
TABLE
  2
BLOCK_RECORD
  5
24D
330
0
100
AcDbSymbolTable
 70
     4
  0
BLOCK_RECORD
  5
2C0
330
24D
100
AcDbSymbolTableRecord
100
AcDbBlockTableRecord
  2
*Model_Space
340
2C3
  0
BLOCK_RECORD
  5
2BC
330
24D
100
AcDbSymbolTableRecord
100
AcDbBlockTableRecord
  2
*Paper_Space
340
2BF
  0
BLOCK_RECORD
  5
2D7
330
24D
100
AcDbSymbolTableRecord
100
AcDbBlockTableRecord
  2
$MODEL_SPACE
340
0
  0
BLOCK_RECORD
  5
2D9
330
24D
100
AcDbSymbolTableRecord
100
AcDbBlockTableRecord
  2
$PAPER_SPACE
340
0
  0
BLOCK_RECORD
  5
2DB
330
24D
100
AcDbSymbolTableRecord
100
AcDbBlockTableRecord
  2
_DOTBLANK
340
0
  0
ENDTAB
  0
ENDSEC
  0
SECTION
  2
BLOCKS
  0
BLOCK
  5
2C1
330
2C0
100
AcDbEntity
  8
0
100
AcDbBlockBegin
  2
*Model_Space
 70
     0
 10
0.0
 20
0.0
 30
0.0
  3
*Model_Space
  1

  0
ENDBLK
  5
2C2
330
2C0
100
AcDbEntity
  8
0
100
AcDbBlockEnd
  0
BLOCK
  5
2BD
330
2BC
100
AcDbEntity
 67
     1
  8
0
100
AcDbBlockBegin
  2
*Paper_Space
 70
     0
 10
0.0
 20
0.0
 30
0.0
  3
*Paper_Space
  1

  0
ENDBLK
  5
2BE
330
2BC
100
AcDbEntity
 67
     1
  8
0
100
AcDbBlockEnd
  0
BLOCK
  5
2D8
330
2D7
100
AcDbEntity
  8
0
100
AcDbBlockBegin
  2
$MODEL_SPACE
 70
     0
 10
0.0
 20
0.0
 30
0.0
  3
$MODEL_SPACE
  1

  0
ENDBLK
  5
22E
330
2D7
100
AcDbEntity
  8
0
100
AcDbBlockEnd
  0
BLOCK
  5
2DA
330
2D9
100
AcDbEntity
  8
0
100
AcDbBlockBegin
  2
$PAPER_SPACE
 70
     0
 10
0.0
 20
0.0
 30
0.0
  3
$PAPER_SPACE
  1

  0
ENDBLK
  5
22B
330
2D9
100
AcDbEntity
  8
0
100
AcDbBlockEnd
  0
BLOCK
  5
2DC
330
2DB
100
AcDbEntity
  8
0
100
AcDbBlockBegin
  2
_DOTBLANK
 70
     0
 10
0.0
 20
0.0
 30
0.0
  3
_DOTBLANK
  1

  0
CIRCLE
  5
32
330
2DB
100
AcDbEntity
  8
0
  6
Continuous
 62
     7
100
AcDbCircle
 10
0.0
 20
0.0
 30
0.0
 40
0.5
  0
LINE
  5
33
330
2DB
100
AcDbEntity
  8
0
  6
Continuous
 62
     7
100
AcDbLine
 10
-0.5
 20
0.0
 30
0.0
 11
-1.0
 21
0.0
 31
0.0
  0
ENDBLK
  5
34
330
2DB
100
AcDbEntity
  8
0
100
AcDbBlockEnd
  0
ENDSEC
  0
SECTION
  2
ENTITIES
  0
LINE
  5
35
330
2C0
100
AcDbEntity
  8
NOTE
100
AcDbLine
 10
-449.939546
 20
389.381447
 30
0.0
 11
-142.497277
 21
130.0
 31
0.0
  0
LINE
  5
36
330
2C0
100
AcDbEntity
  8
NOTE
100
AcDbLine
 10
-142.497277
 20
190.0
 30
0.0
 11
-155.588156
 21
215.385933
 31
0.0
  0
LINE
  5
37
330
2C0
100
AcDbEntity
  8
NOTE
100
AcDbLine
 10
-142.497277
 20
190.0
 30
0.0
 11
-166.527277
 21
205.439423
 31
0.0
  0
LINE
  5
38
330
2C0
100
AcDbEntity
  8
NOTE
100
AcDbLine
 10
-473.813196
 20
554.379588
 30
0.0
 11
-142.497277
 21
190.0
 31
0.0
  0
LINE
  5
39
330
2C0
100
AcDbEntity
  8
NOTE
100
AcDbLine
 10
-367.987912
 20
-438.7792969999998
 30
0.0
 11
7.5
 21
30.0
 31
0.0
  0
LINE
  5
3A
330
2C0
100
AcDbEntity
  8
NOTE
100
AcDbLine
 10
-620.9692629999997
 20
-438.7792969999998
 30
0.0
 11
-367.987912
 21
-438.7792969999998
 31
0.0
  0
CIRCLE
  5
3B
330
2C0
100
AcDbEntity
  8
DETAIL
100
AcDbCircle
 10
-143.503647
 20
19.993753
 30
0.0
 40
4.998438
  0
LINE
  5
3C
330
2C0
100
AcDbEntity
  8
DETAIL
100
AcDbLine
 10
-113.513016
 20
34.989069
 30
0.0
 11
-113.513016
 21
0.0
 31
0.0
  0
LINE
  5
3D
330
2C0
100
AcDbEntity
  8
DETAIL
100
AcDbLine
 10
-173.494277
 20
34.989069
 30
0.0
 11
-113.513016
 21
34.989069
 31
0.0
  0
LINE
  5
3E
330
2C0
100
AcDbEntity
  8
DETAIL
100
AcDbLine
 10
-173.494277
 20
34.989069
 30
0.0
 11
-173.494277
 21
0.0
 31
0.0
  0
LINE
  5
3F
330
2C0
100
AcDbEntity
  8
DETAIL
100
AcDbLine
 10
-173.494277
 20
4.498594999999999
 30
0.0
 11
-113.513016
 21
4.498594999999999
 31
0.0
  0
LINE
  5
40
330
2C0
100
AcDbEntity
  8
NOTE
100
AcDbLine
 10
33.634692
 20
30.0
 30
0.0
 11
-18.634692
 21
30.0
 31
0.0
  0
LINE
  5
41
330
2C0
100
AcDbEntity
  8
NOTE
100
AcDbLine
 10
7.5
 20
56.125322
 30
0.0
 11
7.5
 21
3.855937999999998
 31
0.0
  0
LINE
  5
42
330
2C0
100
AcDbEntity
  8
NOTE
100
AcDbLine
 10
7.5
 20
30.0
 30
0.0
 11
-15.484253
 21
13.042972
 31
0.0
  0
LINE
  5
43
330
2C0
100
AcDbEntity
  8
NOTE
100
AcDbLine
 10
7.5
 20
30.0
 30
0.0
 11
-3.926433
 21
3.822655999999998
 31
0.0
  0
CIRCLE
  5
44
330
2C0
100
AcDbEntity
  8
DETAIL
100
AcDbCircle
 10
7.5
 20
29.99063
 30
0.0
 40
15.14077
  0
CIRCLE
  5
45
330
2C0
100
AcDbEntity
  8
DETAIL
100
AcDbCircle
 10
7.5
 20
29.99063
 30
0.0
 40
18.994066
  0
CIRCLE
  5
46
330
2C0
100
AcDbEntity
  8
DETAIL
100
AcDbCircle
 10
-142.497277
 20
190.0
 30
0.0
 40
13.495784
  0
CIRCLE
  5
47
330
2C0
100
AcDbEntity
  8
DETAIL
100
AcDbCircle
 10
-142.497277
 20
130.0
 30
0.0
 40
21.493285
  0
LINE
  5
48
330
2C0
100
AcDbEntity
  8
NOTE
100
AcDbLine
 10
-121.860868
 20
190.0
 30
0.0
 11
-163.133687
 21
190.0
 31
0.0
  0
LINE
  5
49
330
2C0
100
AcDbEntity
  8
NOTE
100
AcDbLine
 10
-142.497277
 20
210.63641
 30
0.0
 11
-142.497277
 21
169.36359
 31
0.0
  0
LINE
  5
4A
330
2C0
100
AcDbEntity
  8
NOTE
100
AcDbLine
 10
-113.8633659999999
 20
130.0
 30
0.0
 11
-171.1311889999999
 21
130.0
 31
0.0
  0
LINE
  5
4B
330
2C0
100
AcDbEntity
  8
NOTE
100
AcDbLine
 10
-142.497277
 20
158.633911
 30
0.0
 11
-142.497277
 21
101.366089
 31
0.0
  0
LINE
  5
4C
330
2C0
100
AcDbEntity
  8
NOTE
100
AcDbLine
 10
-142.497277
 20
130.0
 30
0.0
 11
-158.817316
 21
153.4408409999999
 31
0.0
  0
LINE
  5
4D
330
2C0
100
AcDbEntity
  8
NOTE
100
AcDbLine
 10
-142.497277
 20
130.0
 30
0.0
 11
-168.351266
 21
142.140344
 31
0.0
  0
CIRCLE
  5
4E
330
2C0
100
AcDbEntity
  8
DETAIL
100
AcDbCircle
 10
157.496353
 20
19.940941
 30
0.0
 40
4.998438
  0
LINE
  5
4F
330
2C0
100
AcDbEntity
  8
DETAIL
100
AcDbLine
 10
127.505723
 20
34.936256
 30
0.0
 11
127.505723
 21
0.0
 31
0.0
  0
LINE
  5
50
330
2C0
100
AcDbEntity
  8
DETAIL
100
AcDbLine
 10
187.486984
 20
34.936256
 30
0.0
 11
127.505723
 21
34.936256
 31
0.0
  0
LINE
  5
51
330
2C0
100
AcDbEntity
  8
DETAIL
100
AcDbLine
 10
187.486984
 20
34.936256
 30
0.0
 11
187.486984
 21
0.0
 31
0.0
  0
LINE
  5
52
330
2C0
100
AcDbEntity
  8
DETAIL
100
AcDbLine
 10
187.486984
 20
4.445782
 30
0.0
 11
127.505723
 21
4.445782
 31
0.0
  0
LINE
  5
53
330
2C0
100
AcDbEntity
  8
NOTE
100
AcDbLine
 10
-478.4580570000001
 20
717.4856349999997
 30
0.0
 11
-142.497277
 21
250.0
 31
0.0
  0
LINE
  5
54
330
2C0
100
AcDbEntity
  8
NOTE
100
AcDbLine
 10
-368.477084
 20
1071.399993
 30
0.0
 11
150.0
 21
505.0
 31
0.0
  0
TEXT
  5
55
330
2C0
100
AcDbEntity
  8
NOTE
100
AcDbText
 10
-539.653187
 20
809.021289
 30
0.0
 40
50.0
  1
吸込口
 50
0.000003
 41
0.6310000000000004
  7
STANDARD1
100
AcDbText
  0
TEXT
  5
56
330
2C0
100
AcDbEntity
  8
NOTE
100
AcDbText
 10
-705.326395
 20
490.172667
 30
0.0
 40
50.0
  1
ﾉｯｸｱｳﾄ\U+03C627
 50
0.000003
 41
0.6310000000000004
  7
STANDARD1
100
AcDbText
  0
LINE
  5
57
330
2C0
100
AcDbEntity
  8
NOTE
100
AcDbLine
 10
-747.1766599999997
 20
389.381447
 30
0.0
 11
-449.939546
 21
389.381447
 31
0.0
  0
TEXT
  5
58
330
2C0
100
AcDbEntity
  8
NOTE
100
AcDbText
 10
-710.197637
 20
324.463047
 30
0.0
 40
50.0
  1
ﾉｯｸｱｳﾄ\U+03C643
 50
0.000003
 41
0.6310000000000004
  7
STANDARD1
100
AcDbText
  0
LINE
  5
59
330
2C0
100
AcDbEntity
  8
NOTE
100
AcDbLine
 10
-747.1766599999997
 20
554.379588
 30
0.0
 11
-473.813196
 21
554.379588
 31
0.0
  0
LINE
  5
5A
330
2C0
100
AcDbEntity
  8
NOTE
100
AcDbLine
 10
-745.0969709999997
 20
717.4856349999997
 30
0.0
 11
-478.4580570000001
 21
717.4856349999997
 31
0.0
  0
TEXT
  5
5B
330
2C0
100
AcDbEntity
  8
NOTE
100
AcDbText
 10
-708.2624499999996
 20
654.338561
 30
0.0
 40
50.0
  1
ﾉｯｸｱｳﾄ\U+03C627
 50
0.000003
 41
0.6310000000000004
  7
STANDARD1
100
AcDbText
  0
LINE
  5
5C
330
2C0
100
AcDbEntity
  8
NOTE
100
AcDbLine
 10
-458.663624
 20
891.2568999999999
 30
0.0
 11
-522.643635
 21
891.2568999999999
 31
0.0
  0
LINE
  5
5D
330
2C0
100
AcDbEntity
  8
NOTE
100
AcDbLine
 10
-458.663624
 20
931.2444069999999
 30
0.0
 11
-522.643635
 21
931.2444069999999
 31
0.0
  0
LINE
  5
5E
330
2C0
100
AcDbEntity
  8
NOTE
100
AcDbLine
 10
-617.5713319999998
 20
1071.399993
 30
0.0
 11
-367.977084
 21
1071.399993
 31
0.0
  0
LINE
  5
5F
330
2C0
100
AcDbEntity
  8
NOTE
100
AcDbLine
 10
-522.643635
 20
931.2444069999999
 30
0.0
 11
-522.643635
 21
891.2568999999999
 31
0.0
  0
LINE
  5
60
330
2C0
100
AcDbEntity
  8
NOTE
100
AcDbLine
 10
-410.678616
 20
911.250654
 30
0.0
 11
-458.663624
 21
867.264396
 31
0.0
  0
LINE
  5
61
330
2C0
100
AcDbEntity
  8
NOTE
100
AcDbLine
 10
-458.663624
 20
891.2568999999999
 30
0.0
 11
-458.663624
 21
867.264396
 31
0.0
  0
LINE
  5
62
330
2C0
100
AcDbEntity
  8
NOTE
100
AcDbLine
 10
-410.678616
 20
911.250654
 30
0.0
 11
-458.663624
 21
955.2369119999999
 31
0.0
  0
LINE
  5
63
330
2C0
100
AcDbEntity
  8
NOTE
100
AcDbLine
 10
-458.663624
 20
955.2369119999999
 30
0.0
 11
-458.663624
 21
931.2444069999999
 31
0.0
  0
TEXT
  5
64
330
2C0
100
AcDbEntity
  8
NOTE
100
AcDbText
 10
337.152182
 20
567.828882
 30
0.0
 40
50.0
  1
後吸込口
 50
0.000003
 41
0.6310000000000004
  7
STANDARD1
100
AcDbText
  0
LINE
  5
65
330
2C0
100
AcDbEntity
  8
NOTE
100
AcDbLine
 10
347.791641
 20
670.05824
 30
0.0
 11
395.776649
 21
626.071982
 31
0.0
  0
LINE
  5
66
330
2C0
100
AcDbEntity
  8
NOTE
100
AcDbLine
 10
347.791641
 20
670.05824
 30
0.0
 11
395.776649
 21
714.0444969999999
 31
0.0
  0
ARC
  5
67
330
2C0
100
AcDbEntity
  8
DETAIL
100
AcDbCircle
 10
150.5
 20
509.9984379999998
 30
0.0
 40
25.99188
100
AcDbArc
 50
0.0
 51
180.0
  0
CIRCLE
  5
68
330
2C0
100
AcDbEntity
  8
DETAIL
100
AcDbCircle
 10
150.5
 20
505.0
 30
0.0
 40
18.994066
  0
CIRCLE
  5
69
330
2C0
100
AcDbEntity
  8
DETAIL
100
AcDbCircle
 10
150.5
 20
505.0
 30
0.0
 40
18.994066
  0
CIRCLE
  5
6A
330
2C0
100
AcDbEntity
  8
DETAIL
100
AcDbCircle
 10
150.5
 20
505.0
 30
0.0
 40
18.994066
  0
LINE
  5
6B
330
2C0
100
AcDbEntity
  8
NOTE
100
AcDbLine
 10
150.5
 20
538.2753179999999
 30
0.0
 11
150.5
 21
471.724682
 31
0.0
  0
LINE
  5
6C
330
2C0
100
AcDbEntity
  8
NOTE
100
AcDbLine
 10
150.5
 20
505.0
 30
0.0
 11
137.324268
 21
530.341996
 31
0.0
  0
LINE
  5
6D
330
2C0
100
AcDbEntity
  8
NOTE
100
AcDbLine
 10
150.5
 20
505.0
 30
0.0
 11
126.418483
 21
520.3589459999998
 31
0.0
  0
CIRCLE
  5
6E
330
2C0
100
AcDbEntity
  8
DETAIL
100
AcDbCircle
 10
-142.497277
 20
250.0
 30
0.0
 40
13.495784
  0
LINE
  5
6F
330
2C0
100
AcDbEntity
  8
NOTE
100
AcDbLine
 10
-121.860868
 20
250.0
 30
0.0
 11
-163.133687
 21
250.0
 31
0.0
  0
LINE
  5
70
330
2C0
100
AcDbEntity
  8
NOTE
100
AcDbLine
 10
-142.497277
 20
270.63641
 30
0.0
 11
-142.497277
 21
229.36359
 31
0.0
  0
LINE
  5
71
330
2C0
100
AcDbEntity
  8
NOTE
100
AcDbLine
 10
-142.497277
 20
250.0
 30
0.0
 11
-152.594847
 21
276.71808
 31
0.0
  0
LINE
  5
72
330
2C0
100
AcDbEntity
  8
NOTE
100
AcDbLine
 10
-142.497277
 20
250.0
 30
0.0
 11
-164.601069
 21
268.089751
 31
0.0
  0
ARC
  5
73
330
2C0
100
AcDbEntity
  8
DETAIL
100
AcDbCircle
 10
150.5
 20
500.001562
 30
0.0
 40
25.99188
100
AcDbArc
 50
180.0
 51
0.0
  0
LINE
  5
74
330
2C0
100
AcDbEntity
  8
DETAIL
100
AcDbLine
 10
176.49188
 20
500.001562
 30
0.0
 11
176.49188
 21
509.9984379999998
 31
0.0
  0
LINE
  5
75
330
2C0
100
AcDbEntity
  8
DETAIL
100
AcDbLine
 10
124.50812
 20
500.001562
 30
0.0
 11
124.50812
 21
509.9984379999998
 31
0.0
  0
CIRCLE
  5
76
330
2C0
100
AcDbEntity
  8
DETAIL
100
AcDbCircle
 10
150.5
 20
505.0
 30
0.0
 40
13.995627
  0
LINE
  5
77
330
2C0
100
AcDbEntity
  8
DETAIL
100
AcDbLine
 10
124.634408
 20
512.557534
 30
0.0
 11
132.095003
 21
509.6936799999999
 31
0.0
  0
LINE
  5
78
330
2C0
100
AcDbEntity
  8
DETAIL
100
AcDbLine
 10
168.32602
 20
511.558013
 30
0.0
 11
176.392973
 21
512.2637799999998
 31
0.0
  0
LINE
  5
79
330
2C0
100
AcDbEntity
  8
NOTE
100
AcDbLine
 10
183.775318
 20
505.0
 30
0.0
 11
117.224682
 21
505.0
 31
0.0
  0
LINE
  5
7A
330
2C0
100
AcDbEntity
  8
NOTE
100
AcDbLine
 10
459.7566599999998
 20
690.0519929999997
 30
0.0
 11
459.7566599999998
 21
650.064486
 31
0.0
  0
LINE
  5
7B
330
2C0
100
AcDbEntity
  8
NOTE
100
AcDbLine
 10
395.776649
 20
650.064486
 30
0.0
 11
395.776649
 21
626.071982
 31
0.0
  0
LINE
  5
7C
330
2C0
100
AcDbEntity
  8
NOTE
100
AcDbLine
 10
395.776649
 20
650.064486
 30
0.0
 11
459.7566599999998
 21
650.064486
 31
0.0
  0
LINE
  5
7D
330
2C0
100
AcDbEntity
  8
NOTE
100
AcDbLine
 10
395.776649
 20
690.0519929999997
 30
0.0
 11
459.7566599999998
 21
690.0519929999997
 31
0.0
  0
LINE
  5
7E
330
2C0
100
AcDbEntity
  8
NOTE
100
AcDbLine
 10
395.776649
 20
714.0444969999999
 30
0.0
 11
395.776649
 21
690.0519929999997
 31
0.0
  0
TEXT
  5
7F
330
2C0
100
AcDbEntity
  8
NOTE
100
AcDbText
 10
-484.25883
 20
1635.698555
 30
0.0
 40
50.0
  1
空気吹出
 50
0.000003
 41
0.6310000000000004
  7
STANDARD1
100
AcDbText
  0
LINE
  5
80
330
2C0
100
AcDbEntity
  8
NOTE
100
AcDbLine
 10
-460.312208
 20
1744.852943
 30
0.0
 11
-412.3272
 21
1700.866685
 31
0.0
  0
LINE
  5
81
330
2C0
100
AcDbEntity
  8
NOTE
100
AcDbLine
 10
-412.3272
 20
1724.85919
 30
0.0
 11
-412.3272
 21
1700.866685
 31
0.0
  0
LINE
  5
82
330
2C0
100
AcDbEntity
  8
NOTE
100
AcDbLine
 10
-460.312208
 20
1744.852943
 30
0.0
 11
-412.3272
 21
1788.839201
 31
0.0
  0
LINE
  5
83
330
2C0
100
AcDbEntity
  8
NOTE
100
AcDbLine
 10
-412.3272
 20
1724.85919
 30
0.0
 11
-348.347189
 21
1724.85919
 31
0.0
  0
LINE
  5
84
330
2C0
100
AcDbEntity
  8
NOTE
100
AcDbLine
 10
-412.3272
 20
1764.846696
 30
0.0
 11
-348.347189
 21
1764.846696
 31
0.0
  0
LINE
  5
85
330
2C0
100
AcDbEntity
  8
NOTE
100
AcDbLine
 10
-412.3272
 20
1788.839201
 30
0.0
 11
-412.3272
 21
1764.846696
 31
0.0
  0
LINE
  5
86
330
2C0
100
AcDbEntity
  8
NOTE
100
AcDbLine
 10
-348.347189
 20
1764.846696
 30
0.0
 11
-348.347189
 21
1724.85919
 31
0.0
  0
LINE
  5
87
330
2C0
100
AcDbEntity
  8
DETAIL
100
AcDbLine
 10
242.5
 20
1850.0
 30
0.0
 11
-242.5
 21
1850.0
 31
0.0
  0
LINE
  5
88
330
2C0
100
AcDbEntity
  8
DETAIL
100
AcDbLine
 10
-243.62373
 20
1650.0
 30
0.0
 11
242.5
 21
1650.0
 31
0.0
  0
LINE
  5
89
330
2C0
100
AcDbEntity
  8
DETAIL
100
AcDbLine
 10
242.5
 20
1650.0
 30
0.0
 11
242.5
 21
1850.0
 31
0.0
  0
ARC
  5
8A
330
2C0
100
AcDbEntity
  8
DETAIL
100
AcDbCircle
 10
-160.846669
 20
1669.17717
 30
0.0
 40
19.193961
100
AcDbArc
 50
267.603249
 51
0.9925270000000001
  0
ARC
  5
8B
330
2C0
100
AcDbEntity
  8
DETAIL
100
AcDbCircle
 10
-176.644656
 20
1669.509648
 30
0.0
 40
14.995315
100
AcDbArc
 50
270.0
 51
0.0
  0
ARC
  5
8C
330
2C0
100
AcDbEntity
  8
DETAIL
100
AcDbCircle
 10
-176.644656
 20
1809.465922
 30
0.0
 40
14.995315
100
AcDbArc
 50
0.0
 51
90.0
  0
ARC
  5
8D
330
2C0
100
AcDbEntity
  8
DETAIL
100
AcDbCircle
 10
-161.649341
 20
1809.465922
 30
0.0
 40
19.993753
100
AcDbArc
 50
0.0
 51
90.0
  0
LINE
  5
8E
330
2C0
100
AcDbEntity
  8
DETAIL
100
AcDbLine
 10
-141.655587
 20
1669.509648
 30
0.0
 11
-141.655587
 21
1809.465922
 31
0.0
  0
ARC
  5
8F
330
2C0
100
AcDbEntity
  8
DETAIL
100
AcDbCircle
 10
-232.627166
 20
1739.487785
 30
0.0
 40
3.998751
100
AcDbArc
 50
90.0
 51
270.0
  0
LINE
  5
90
330
2C0
100
AcDbEntity
  8
DETAIL
100
AcDbLine
 10
-236.625916
 20
1824.461237
 30
0.0
 11
-236.625916
 21
1654.514333
 31
0.0
  0
LINE
  5
91
330
2C0
100
AcDbEntity
  8
DETAIL
100
AcDbLine
 10
-161.649341
 20
1809.465922
 30
0.0
 11
-161.649341
 21
1669.509648
 31
0.0
  0
LINE
  5
92
330
2C0
100
AcDbEntity
  8
DETAIL
100
AcDbLine
 10
-243.62373
 20
1650.0
 30
0.0
 11
-243.62373
 21
1654.514333
 31
0.0
  0
LINE
  5
93
330
2C0
100
AcDbEntity
  8
DETAIL
100
AcDbLine
 10
-232.627166
 20
1735.489034
 30
0.0
 11
-161.649341
 21
1735.489034
 31
0.0
  0
ARC
  5
94
330
2C0
100
AcDbEntity
  8
DETAIL
100
AcDbCircle
 10
-232.627166
 20
1694.50184
 30
0.0
 40
3.998751
100
AcDbArc
 50
90.0
 51
270.0
  0
LINE
  5
95
330
2C0
100
AcDbEntity
  8
DETAIL
100
AcDbLine
 10
-232.627166
 20
1698.500591
 30
0.0
 11
-161.649341
 21
1698.500591
 31
0.0
  0
LINE
  5
96
330
2C0
100
AcDbEntity
  8
DETAIL
100
AcDbLine
 10
-232.627166
 20
1690.503089
 30
0.0
 11
-161.649341
 21
1690.503089
 31
0.0
  0
LINE
  5
97
330
2C0
100
AcDbEntity
  8
DETAIL
100
AcDbLine
 10
-226.62904
 20
1735.489034
 30
0.0
 11
-226.62904
 21
1698.500591
 31
0.0
  0
LINE
  5
98
330
2C0
100
AcDbEntity
  8
DETAIL
100
AcDbLine
 10
-243.62373
 20
1654.514333
 30
0.0
 11
-237.625604
 21
1654.514333
 31
0.0
  0
ARC
  5
99
330
2C0
100
AcDbEntity
  8
DETAIL
100
AcDbCircle
 10
-227.628727
 20
1655.514021
 30
0.0
 40
0.999688
100
AcDbArc
 50
270.0
 51
0.0
  0
LINE
  5
9A
330
2C0
100
AcDbEntity
  8
DETAIL
100
AcDbLine
 10
-237.625604
 20
1654.514333
 30
0.0
 11
-176.644656
 21
1654.514333
 31
0.0
  0
LINE
  5
9B
330
2C0
100
AcDbEntity
  8
DETAIL
100
AcDbLine
 10
-226.62904
 20
1690.503089
 30
0.0
 11
-226.62904
 21
1655.514021
 31
0.0
  0
LINE
  5
9C
330
2C0
100
AcDbEntity
  8
DETAIL
100
AcDbLine
 10
-242.5
 20
1829.459676
 30
0.0
 11
-242.5
 21
1850.0
 31
0.0
  0
LINE
  5
9D
330
2C0
100
AcDbEntity
  8
DETAIL
100
AcDbLine
 10
-241.624355
 20
1829.459676
 30
0.0
 11
-161.649341
 21
1829.459676
 31
0.0
  0
LINE
  5
9E
330
2C0
100
AcDbEntity
  8
DETAIL
100
AcDbLine
 10
-243.62373
 20
1829.459676
 30
0.0
 11
-241.624355
 21
1829.459676
 31
0.0
  0
LINE
  5
9F
330
2C0
100
AcDbEntity
  8
DETAIL
100
AcDbLine
 10
-243.62373
 20
1824.461237
 30
0.0
 11
-237.625604
 21
1824.461237
 31
0.0
  0
LINE
  5
A0
330
2C0
100
AcDbEntity
  8
DETAIL
100
AcDbLine
 10
-226.62904
 20
1780.47498
 30
0.0
 11
-226.62904
 21
1743.486536
 31
0.0
  0
ARC
  5
A1
330
2C0
100
AcDbEntity
  8
DETAIL
100
AcDbCircle
 10
-232.627166
 20
1784.47373
 30
0.0
 40
3.998751
100
AcDbArc
 50
90.0
 51
270.0
  0
LINE
  5
A2
330
2C0
100
AcDbEntity
  8
DETAIL
100
AcDbLine
 10
-232.627166
 20
1788.472481
 30
0.0
 11
-161.649341
 21
1788.472481
 31
0.0
  0
LINE
  5
A3
330
2C0
100
AcDbEntity
  8
DETAIL
100
AcDbLine
 10
-232.627166
 20
1780.47498
 30
0.0
 11
-161.649341
 21
1780.47498
 31
0.0
  0
LINE
  5
A4
330
2C0
100
AcDbEntity
  8
DETAIL
100
AcDbLine
 10
-232.627166
 20
1743.486536
 30
0.0
 11
-161.649341
 21
1743.486536
 31
0.0
  0
ARC
  5
A5
330
2C0
100
AcDbEntity
  8
DETAIL
100
AcDbCircle
 10
-227.628727
 20
1823.46155
 30
0.0
 40
0.999688
100
AcDbArc
 50
0.0
 51
90.0
  0
LINE
  5
A6
330
2C0
100
AcDbEntity
  8
DETAIL
100
AcDbLine
 10
-226.62904
 20
1823.46155
 30
0.0
 11
-226.62904
 21
1788.472481
 31
0.0
  0
LINE
  5
A7
330
2C0
100
AcDbEntity
  8
DETAIL
100
AcDbLine
 10
-237.625604
 20
1824.461237
 30
0.0
 11
-176.644656
 21
1824.461237
 31
0.0
  0
LINE
  5
A8
330
2C0
100
AcDbEntity
  8
DETAIL
100
AcDbLine
 10
-243.62373
 20
1829.459676
 30
0.0
 11
-243.62373
 21
1824.461237
 31
0.0
  0
LINE
  5
A9
330
2C0
100
AcDbEntity
  8
DETAIL
100
AcDbLine
 10
242.5
 20
1650.0
 30
0.0
 11
242.5
 21
80.0
 31
0.0
  0
ARC
  5
AA
330
2C0
100
AcDbEntity
  8
DETAIL
100
AcDbCircle
 10
244.887145
 20
1045.473369
 30
0.0
 40
7.612855
100
AcDbArc
 50
251.725631
 51
108.274369
  0
ARC
  5
AB
330
2C0
100
AcDbEntity
  8
DETAIL
100
AcDbCircle
 10
244.887145
 20
1225.417151
 30
0.0
 40
7.612855
100
AcDbArc
 50
251.725631
 51
108.274369
  0
ARC
  5
AC
330
2C0
100
AcDbEntity
  8
DETAIL
100
AcDbCircle
 10
244.887145
 20
1405.360932
 30
0.0
 40
7.612855
100
AcDbArc
 50
251.725631
 51
108.274369
  0
LINE
  5
AD
330
2C0
100
AcDbEntity
  8
DETAIL
100
AcDbLine
 10
-242.5
 20
80.0
 30
0.0
 11
-242.5
 21
1650.0
 31
0.0
  0
ARC
  5
AE
330
2C0
100
AcDbEntity
  8
DETAIL
100
AcDbCircle
 10
244.887145
 20
429.8657
 30
0.0
 40
7.612855
100
AcDbArc
 50
251.725631
 51
108.274369
  0
LINE
  5
AF
330
2C0
100
AcDbEntity
  8
DETAIL
100
AcDbLine
 10
-242.5
 20
80.0
 30
0.0
 11
242.5
 21
80.0
 31
0.0
  0
LINE
  5
B0
330
2C0
100
AcDbEntity
  8
DETAIL
100
AcDbLine
 10
235.496353
 20
80.0
 30
0.0
 11
235.496353
 21
0.0
 31
0.0
  0
LINE
  5
B1
330
2C0
100
AcDbEntity
  8
DETAIL
100
AcDbLine
 10
-220.503647
 20
80.0
 30
0.0
 11
-220.503647
 21
0.0
 31
0.0
  0
LINE
  5
B2
330
2C0
100
AcDbEntity
  8
OUTLINE
100
AcDbLine
 10
-242.5
 20
80.0
 30
0.0
 11
-242.5
 21
1650.0
 31
0.0
  0
LINE
  5
B3
330
2C0
100
AcDbEntity
  8
OUTLINE
100
AcDbLine
 10
242.5
 20
1549.515895
 30
0.0
 11
242.5
 21
1412.589839
 31
0.0
  0
LINE
  5
B4
330
2C0
100
AcDbEntity
  8
OUTLINE
100
AcDbLine
 10
-242.5
 20
80.0
 30
0.0
 11
242.5
 21
80.0
 31
0.0
  0
LINE
  5
B5
330
2C0
100
AcDbEntity
  8
OUTLINE
100
AcDbLine
 10
-220.503647
 20
80.0
 30
0.0
 11
-220.503647
 21
0.0
 31
0.0
  0
LINE
  5
B6
330
2C0
100
AcDbEntity
  8
OUTLINE
100
AcDbLine
 10
235.496353
 20
80.0
 30
0.0
 11
235.496353
 21
0.0
 31
0.0
  0
LINE
  5
B7
330
2C0
100
AcDbEntity
  8
OUTLINE
100
AcDbLine
 10
-236.625916
 20
1824.461237
 30
0.0
 11
-236.625916
 21
1654.514333
 31
0.0
  0
LINE
  5
B8
330
2C0
100
AcDbEntity
  8
OUTLINE
100
AcDbLine
 10
242.5
 20
1650.0
 30
0.0
 11
242.5
 21
1850.0
 31
0.0
  0
LINE
  5
B9
330
2C0
100
AcDbEntity
  8
OUTLINE
100
AcDbLine
 10
-243.62373
 20
1650.0
 30
0.0
 11
-242.5
 21
1650.0
 31
0.0
  0
LINE
  5
BA
330
2C0
100
AcDbEntity
  8
OUTLINE
100
AcDbLine
 10
-243.62373
 20
1650.0
 30
0.0
 11
-243.62373
 21
1654.514333
 31
0.0
  0
LINE
  5
BB
330
2C0
100
AcDbEntity
  8
OUTLINE
100
AcDbLine
 10
-243.62373
 20
1654.514333
 30
0.0
 11
-237.625604
 21
1654.514333
 31
0.0
  0
LINE
  5
BC
330
2C0
100
AcDbEntity
  8
OUTLINE
100
AcDbLine
 10
-237.625604
 20
1654.514333
 30
0.0
 11
-236.625916
 21
1654.514333
 31
0.0
  0
LINE
  5
BD
330
2C0
100
AcDbEntity
  8
OUTLINE
100
AcDbLine
 10
242.5
 20
1850.0
 30
0.0
 11
-242.5
 21
1850.0
 31
0.0
  0
LINE
  5
BE
330
2C0
100
AcDbEntity
  8
OUTLINE
100
AcDbLine
 10
-243.62373
 20
1829.459676
 30
0.0
 11
-242.5
 21
1829.459676
 31
0.0
  0
LINE
  5
BF
330
2C0
100
AcDbEntity
  8
OUTLINE
100
AcDbLine
 10
-243.62373
 20
1829.459676
 30
0.0
 11
-243.62373
 21
1824.461237
 31
0.0
  0
LINE
  5
C0
330
2C0
100
AcDbEntity
  8
OUTLINE
100
AcDbLine
 10
-243.62373
 20
1824.461237
 30
0.0
 11
-237.625604
 21
1824.461237
 31
0.0
  0
LINE
  5
C1
330
2C0
100
AcDbEntity
  8
OUTLINE
100
AcDbLine
 10
-237.625604
 20
1824.461237
 30
0.0
 11
-236.625916
 21
1824.461237
 31
0.0
  0
LINE
  5
C2
330
2C0
100
AcDbEntity
  8
OUTLINE
100
AcDbLine
 10
-242.5
 20
1829.459676
 30
0.0
 11
-242.5
 21
1850.0
 31
0.0
  0
LINE
  5
C4
330
2C0
100
AcDbEntity
  8
OUTLINE
100
AcDbLine
 10
242.5
 20
1850.0
 30
0.0
 11
242.5
 21
80.0
 31
0.0
  0
LINE
  5
C5
330
2C0
100
AcDbEntity
  8
DETAIL
100
AcDbLine
 10
-220.503647
 20
0.0
 30
0.0
 11
235.496353
 21
0.0
 31
0.0
  0
LINE
  5
C6
330
2C0
100
AcDbEntity
  8
OUTLINE
100
AcDbLine
 10
-220.503647
 20
0.0
 30
0.0
 11
235.496353
 21
0.0
 31
0.0
  0
CIRCLE
  5
C7
330
2C0
100
AcDbEntity
  8
FIX
100
AcDbCircle
 10
-143.503647
 20
0.0
 30
0.0
 40
9.858928999999999
  0
LINE
  5
C8
330
2C0
100
AcDbEntity
  8
NOTE
100
AcDbLine
 10
-143.503647
 20
13.138752
 30
0.0
 11
-143.503647
 21
-13.138752
 31
0.0
  0
LINE
  5
C9
330
2C0
100
AcDbEntity
  8
NOTE
100
AcDbLine
 10
-130.364894
 20
0.0
 30
0.0
 11
-156.642399
 21
0.0
 31
0.0
  0
CIRCLE
  5
CA
330
2C0
100
AcDbEntity
  8
FIX
100
AcDbCircle
 10
157.496353
 20
0.0
 30
0.0
 40
9.858928999999999
  0
LINE
  5
CB
330
2C0
100
AcDbEntity
  8
NOTE
100
AcDbLine
 10
157.496353
 20
13.138752
 30
0.0
 11
157.496353
 21
-13.138752
 31
0.0
  0
LINE
  5
CC
330
2C0
100
AcDbEntity
  8
NOTE
100
AcDbLine
 10
170.635106
 20
0.0
 30
0.0
 11
144.357601
 21
0.0
 31
0.0
  0
LINE
  5
CD
330
2C0
100
AcDbEntity
  8
NOTE
100
AcDbLine
 10
-897.4567099999998
 20
-327.801429
 30
0.0
 11
-385.278646
 21
-327.801429
 31
0.0
  0
TEXT
  5
CE
330
2C0
100
AcDbEntity
  8
NOTE
100
AcDbText
 10
-879.2064869999999
 20
-313.520124
 30
0.0
 40
50.0
  1
AH　2\U+00D72-\U+03C612（M10）
 50
0.000003
 41
0.6310000000000004
  7
STANDARD1
100
AcDbText
  0
LINE
  5
CF
330
2C0
100
AcDbEntity
  8
NOTE
100
AcDbLine
 10
-385.278646
 20
-327.801429
 30
0.0
 11
-143.503647
 21
0.0
 31
0.0
  0
LINE
  5
D0
330
2C0
100
AcDbEntity
  8
NOTE
100
AcDbLine
 10
-143.503647
 20
0.0
 30
0.0
 11
-153.937337
 21
-26.588621
 31
0.0
  0
LINE
  5
D1
330
2C0
100
AcDbEntity
  8
NOTE
100
AcDbLine
 10
-143.503647
 20
0.0
 30
0.0
 11
-165.833799
 21
-17.809576
 31
0.0
  0
TEXT
  5
D2
330
2C0
100
AcDbEntity
  8
NOTE
100
AcDbText
 10
-585.780378
 20
-427.2460309999998
 30
0.0
 40
50.0
  1
D4　Rc1
 50
0.000003
 41
0.6310000000000004
  7
STANDARD1
100
AcDbText
  0
TEXT
  5
D3
330
2C0
100
AcDbEntity
  8
NOTE
100
AcDbText
 10
-587.2041059999998
 20
1082.933259
 30
0.0
 40
50.0
  1
D3　Rc1
 50
0.000003
 41
0.6310000000000004
  7
STANDARD1
100
AcDbText
  0
TEXT
  5
D4
330
2C0
100
AcDbEntity
  8
NOTE
100
AcDbText
 10
-663.2953539999999
 20
726.328087
 30
0.0
 40
50.0
  1
EL4
 50
0.000003
 41
0.6310000000000004
  7
STANDARD1
100
AcDbText
  0
TEXT
  5
D5
330
2C0
100
AcDbEntity
  8
NOTE
100
AcDbText
 10
-659.878518
 20
564.974142
 30
0.0
 40
50.0
  1
EL5
 50
0.000003
 41
0.6310000000000004
  7
STANDARD1
100
AcDbText
  0
TEXT
  5
D6
330
2C0
100
AcDbEntity
  8
NOTE
100
AcDbText
 10
-652.643988
 20
396.517604
 30
0.0
 40
50.0
  1
EL6
 50
0.000003
 41
0.6310000000000004
  7
STANDARD1
100
AcDbText
  0
LINE
  5
D8
330
2C0
100
AcDbEntity
  8
SIZE
100
AcDbLine
 10
242.5
 20
60.0
 30
0.0
 11
242.5
 21
-555.078425
 31
0.0
  0
LINE
  5
D9
330
2C0
100
AcDbEntity
  8
SIZE
100
AcDbLine
 10
7.500038
 20
9.990828
 30
0.0
 11
7.500038
 21
-555.078425
 31
0.0
  0
LINE
  5
DA
330
2C0
100
AcDbEntity
  8
SIZE
100
AcDbLine
 10
232.5
 20
-525.078425
 30
0.0
 11
17.500038
 21
-525.078425
 31
0.0
  0
LINE
  5
DB
330
2C0
100
AcDbEntity
  8
SIZE
100
AcDbLine
 10
443.818957
 20
-525.078425
 30
0.0
 11
242.5
 21
-525.078425
 31
0.0
  0
TEXT
  5
DC
330
2C0
100
AcDbEntity
  8
SIZE
100
AcDbText
 10
275.7046711428571
 20
-505.0784249999998
 30
0.0
 40
64.0
  1
235
 41
0.9
 72
     1
 11
349.761814
 21
-505.0784249999998
 31
0.0
100
AcDbText
  0
CIRCLE
  5
DD
330
2C0
100
AcDbEntity
  8
SIZE
100
AcDbCircle
 10
242.5
 20
-525.078425
 30
0.0
 40
5.0
  0
LINE
  5
DE
330
2C0
100
AcDbEntity
  8
SIZE
100
AcDbLine
 10
237.5
 20
-525.078425
 30
0.0
 11
232.5
 21
-525.078425
 31
0.0
  0
CIRCLE
  5
DF
330
2C0
100
AcDbEntity
  8
SIZE
100
AcDbCircle
 10
7.500038
 20
-525.078425
 30
0.0
 40
5.0
  0
LINE
  5
E0
330
2C0
100
AcDbEntity
  8
SIZE
100
AcDbLine
 10
12.500038
 20
-525.078425
 30
0.0
 11
17.500038
 21
-525.078425
 31
0.0
  0
LINE
  5
E4
330
2C0
100
AcDbEntity
  8
SIZE
100
AcDbLine
 10
150.5
 20
525.0
 30
0.0
 11
150.5
 21
790.9566589999997
 31
0.0
  0
LINE
  5
E5
330
2C0
100
AcDbEntity
  8
SIZE
100
AcDbLine
 10
242.5
 20
525.0
 30
0.0
 11
242.5
 21
790.9566589999997
 31
0.0
  0
LINE
  5
E6
330
2C0
100
AcDbEntity
  8
SIZE
100
AcDbLine
 10
160.5
 20
760.956659
 30
0.0
 11
232.5
 21
760.956659
 31
0.0
  0
LINE
  5
E7
330
2C0
100
AcDbEntity
  8
SIZE
100
AcDbLine
 10
398.247721
 20
760.956659
 30
0.0
 11
242.5
 21
760.956659
 31
0.0
  0
TEXT
  5
E8
330
2C0
100
AcDbEntity
  8
SIZE
100
AcDbText
 10
284.9905775714286
 20
780.9566589999997
 30
0.0
 40
64.0
  1
92
 41
0.9
 72
     1
 11
331.619149
 21
780.9566589999997
 31
0.0
100
AcDbText
  0
CIRCLE
  5
E9
330
2C0
100
AcDbEntity
  8
SIZE
100
AcDbCircle
 10
150.5
 20
760.956659
 30
0.0
 40
5.0
  0
LINE
  5
EA
330
2C0
100
AcDbEntity
  8
SIZE
100
AcDbLine
 10
155.5
 20
760.956659
 30
0.0
 11
160.5
 21
760.956659
 31
0.0
  0
CIRCLE
  5
EB
330
2C0
100
AcDbEntity
  8
SIZE
100
AcDbCircle
 10
242.5
 20
760.956659
 30
0.0
 40
5.0
  0
LINE
  5
EC
330
2C0
100
AcDbEntity
  8
SIZE
100
AcDbLine
 10
237.5
 20
760.956659
 30
0.0
 11
232.5
 21
760.956659
 31
0.0
  0
LINE
  5
F0
330
2C0
100
AcDbEntity
  8
SIZE
100
AcDbLine
 10
162.503647
 20
505.0011809999999
 30
0.0
 11
679.3585440000001
 21
505.0011809999999
 31
0.0
  0
LINE
  5
F1
330
2C0
100
AcDbEntity
  8
SIZE
100
AcDbLine
 10
222.237808
 20
0.0
 30
0.0
 11
679.3585440000001
 21
0.0
 31
0.0
  0
LINE
  5
F2
330
2C0
100
AcDbEntity
  8
SIZE
100
AcDbLine
 10
649.358544
 20
495.0011809999998
 30
0.0
 11
649.358544
 21
10.0
 31
0.0
  0
CIRCLE
  5
F3
330
2C0
100
AcDbEntity
  8
SIZE
100
AcDbCircle
 10
649.358544
 20
505.0011809999999
 30
0.0
 40
5.0
  0
LINE
  5
F4
330
2C0
100
AcDbEntity
  8
SIZE
100
AcDbLine
 10
649.358544
 20
500.001181
 30
0.0
 11
649.358544
 21
495.0011809999998
 31
0.0
  0
CIRCLE
  5
F5
330
2C0
100
AcDbEntity
  8
SIZE
100
AcDbCircle
 10
649.358544
 20
0.0
 30
0.0
 40
5.0
  0
LINE
  5
F6
330
2C0
100
AcDbEntity
  8
SIZE
100
AcDbLine
 10
649.358544
 20
5.0
 30
0.0
 11
649.358544
 21
10.0
 31
0.0
  0
TEXT
  5
F7
330
2C0
100
AcDbEntity
  8
SIZE
100
AcDbText
 10
629.3585440000001
 20
168.8772151428571
 30
0.0
 40
64.0
  1
505
 50
90.0
 41
0.9
 72
     1
 11
629.3585440000001
 21
242.934358
 31
0.0
100
AcDbText
  0
LINE
  5
FB
330
2C0
100
AcDbEntity
  8
SIZE
100
AcDbLine
 10
-199.127542
 20
130.0
 30
0.0
 11
-838.3732469999996
 21
130.0
 31
0.0
  0
LINE
  5
FC
330
2C0
100
AcDbEntity
  8
SIZE
100
AcDbLine
 10
-191.130041
 20
190.0
 30
0.0
 11
-838.3732469999996
 21
190.0
 31
0.0
  0
LINE
  5
FD
330
2C0
100
AcDbEntity
  8
SIZE
100
AcDbLine
 10
-808.3732469999999
 20
120.0
 30
0.0
 11
-808.3732469999999
 21
110.0
 31
0.0
  0
LINE
  5
FE
330
2C0
100
AcDbEntity
  8
SIZE
100
AcDbLine
 10
-808.3732469999999
 20
200.0
 30
0.0
 11
-808.3732469999999
 21
210.0
 31
0.0
  0
LINE
  5
FF
330
2C0
100
AcDbEntity
  8
SIZE
100
AcDbLine
 10
-808.3732469999999
 20
160.0
 30
0.0
 11
-953.305865
 21
195.786498
 31
0.0
  0
LINE
  5
100
330
2C0
100
AcDbEntity
  8
SIZE
100
AcDbLine
 10
-953.305865
 20
195.786498
 30
0.0
 11
-953.305865
 21
329.043641
 31
0.0
  0
TEXT
  5
101
330
2C0
100
AcDbEntity
  8
SIZE
100
AcDbText
 10
-973.305865
 20
215.7864985714286
 30
0.0
 40
64.0
  1
60
 50
90.0
 41
0.9
 72
     1
 11
-973.305865
 21
262.41507
 31
0.0
100
AcDbText
  0
LINE
  5
102
330
2C0
100
AcDbEntity
  8
SIZE
100
AcDbLine
 10
-808.3732469999999
 20
130.0
 30
0.0
 11
-808.3732469999999
 21
190.0
 31
0.0
  0
LINE
  5
103
330
2C0
100
AcDbEntity
  8
SIZE
100
AcDbLine
 10
-808.3732469999999
 20
130.0
 30
0.0
 11
-808.3732469999999
 21
190.0
 31
0.0
  0
CIRCLE
  5
104
330
2C0
100
AcDbEntity
  8
SIZE
100
AcDbCircle
 10
-808.3732469999999
 20
130.0
 30
0.0
 40
5.0
  0
LINE
  5
105
330
2C0
100
AcDbEntity
  8
SIZE
100
AcDbLine
 10
-808.3732469999999
 20
125.0
 30
0.0
 11
-808.3732469999999
 21
120.0
 31
0.0
  0
CIRCLE
  5
106
330
2C0
100
AcDbEntity
  8
SIZE
100
AcDbCircle
 10
-808.3732469999999
 20
190.0
 30
0.0
 40
5.0
  0
LINE
  5
107
330
2C0
100
AcDbEntity
  8
SIZE
100
AcDbLine
 10
-808.3732469999999
 20
195.0
 30
0.0
 11
-808.3732469999999
 21
200.0
 31
0.0
  0
LINE
  5
10B
330
2C0
100
AcDbEntity
  8
SIZE
100
AcDbLine
 10
-191.130041
 20
190.0
 30
0.0
 11
-838.3732469999996
 21
190.0
 31
0.0
  0
LINE
  5
10C
330
2C0
100
AcDbEntity
  8
SIZE
100
AcDbLine
 10
-191.130041
 20
250.0
 30
0.0
 11
-838.3732469999996
 21
250.0
 31
0.0
  0
LINE
  5
10D
330
2C0
100
AcDbEntity
  8
SIZE
100
AcDbLine
 10
-808.3732469999999
 20
200.0
 30
0.0
 11
-808.3732469999999
 21
240.0
 31
0.0
  0
LINE
  5
10E
330
2C0
100
AcDbEntity
  8
SIZE
100
AcDbLine
 10
-808.3732469999999
 20
394.243578
 30
0.0
 11
-808.3732469999999
 21
250.0
 31
0.0
  0
TEXT
  5
10F
330
2C0
100
AcDbEntity
  8
SIZE
100
AcDbText
 10
-828.373247
 20
280.9864355714286
 30
0.0
 40
64.0
  1
60
 50
90.0
 41
0.9
 72
     1
 11
-828.373247
 21
327.615007
 31
0.0
100
AcDbText
  0
CIRCLE
  5
110
330
2C0
100
AcDbEntity
  8
SIZE
100
AcDbCircle
 10
-808.3732469999999
 20
190.0
 30
0.0
 40
5.0
  0
LINE
  5
111
330
2C0
100
AcDbEntity
  8
SIZE
100
AcDbLine
 10
-808.3732469999999
 20
195.0
 30
0.0
 11
-808.3732469999999
 21
200.0
 31
0.0
  0
CIRCLE
  5
112
330
2C0
100
AcDbEntity
  8
SIZE
100
AcDbCircle
 10
-808.3732469999999
 20
250.0
 30
0.0
 40
5.0
  0
LINE
  5
113
330
2C0
100
AcDbEntity
  8
SIZE
100
AcDbLine
 10
-808.3732469999999
 20
245.0
 30
0.0
 11
-808.3732469999999
 21
240.0
 31
0.0
  0
LINE
  5
117
330
2C0
100
AcDbEntity
  8
SIZE
100
AcDbLine
 10
-248.54
 20
0.0
 30
0.0
 11
-838.3732469999996
 21
0.0
 31
0.0
  0
LINE
  5
118
330
2C0
100
AcDbEntity
  8
SIZE
100
AcDbLine
 10
-199.127542
 20
130.0
 30
0.0
 11
-838.3732469999996
 21
130.0
 31
0.0
  0
LINE
  5
119
330
2C0
100
AcDbEntity
  8
SIZE
100
AcDbLine
 10
-808.3732469999999
 20
120.0
 30
0.0
 11
-808.3732469999999
 21
10.0
 31
0.0
  0
LINE
  5
11A
330
2C0
100
AcDbEntity
  8
SIZE
100
AcDbLine
 10
-808.3732469999999
 20
0.0
 30
0.0
 11
-808.3732469999999
 21
-187.142857
 31
0.0
  0
CIRCLE
  5
11B
330
2C0
100
AcDbEntity
  8
SIZE
100
AcDbCircle
 10
-808.3732469999999
 20
130.0
 30
0.0
 40
5.0
  0
LINE
  5
11C
330
2C0
100
AcDbEntity
  8
SIZE
100
AcDbLine
 10
-808.3732469999999
 20
125.0
 30
0.0
 11
-808.3732469999999
 21
120.0
 31
0.0
  0
CIRCLE
  5
11D
330
2C0
100
AcDbEntity
  8
SIZE
100
AcDbCircle
 10
-808.3732469999999
 20
0.0
 30
0.0
 40
5.0
  0
LINE
  5
11E
330
2C0
100
AcDbEntity
  8
SIZE
100
AcDbLine
 10
-808.3732469999999
 20
5.0
 30
0.0
 11
-808.3732469999999
 21
10.0
 31
0.0
  0
TEXT
  5
11F
330
2C0
100
AcDbEntity
  8
SIZE
100
AcDbText
 10
-828.373247
 20
-167.1428575714285
 30
0.0
 40
64.0
  1
130
 50
90.0
 41
0.9
 72
     1
 11
-828.373247
 21
-98.57142899999999
 31
0.0
100
AcDbText
  0
LINE
  5
123
330
2C0
100
AcDbEntity
  8
BASIS
100
AcDbLine
 10
0.0
 20
1868.004526
 30
0.0
 11
0.0
 21
-97.727388
 31
0.0
  0
TEXT
  5
124
330
2C0
100
AcDbEntity
  8
ETC
100
AcDbText
 10
-1228.022637955761
 20
1949.368355634272
 30
0.0
 40
90.0
  1
KFH-P5A1_PLENUM_4
 50
359.999997
 41
0.6030590000000001
  7
STANDARD1
100
AcDbText
  0
LINE
  5
125
330
2C0
100
AcDbEntity
  8
SIZE
100
AcDbLine
 10
242.5
 20
60.0
 30
0.0
 11
242.5
 21
-746.7949929999997
 31
0.0
  0
LINE
  5
126
330
2C0
100
AcDbEntity
  8
SIZE
100
AcDbLine
 10
157.496353
 20
-0.059059
 30
0.0
 11
157.496353
 21
-746.7949929999997
 31
0.0
  0
LINE
  5
127
330
2C0
100
AcDbEntity
  8
SIZE
100
AcDbLine
 10
232.5
 20
-716.7949929999998
 30
0.0
 11
167.496353
 21
-716.7949929999998
 31
0.0
  0
LINE
  5
128
330
2C0
100
AcDbEntity
  8
SIZE
100
AcDbLine
 10
402.392325
 20
-716.7949929999998
 30
0.0
 11
242.5
 21
-716.7949929999998
 31
0.0
  0
TEXT
  5
129
330
2C0
100
AcDbEntity
  8
SIZE
100
AcDbText
 10
289.1351815714285
 20
-696.7949929999997
 30
0.0
 40
64.0
  1
85
 41
0.9
 72
     1
 11
335.7637529999999
 21
-696.7949929999997
 31
0.0
100
AcDbText
  0
CIRCLE
  5
12A
330
2C0
100
AcDbEntity
  8
SIZE
100
AcDbCircle
 10
242.5
 20
-716.7949929999998
 30
0.0
 40
5.0
  0
LINE
  5
12B
330
2C0
100
AcDbEntity
  8
SIZE
100
AcDbLine
 10
237.5
 20
-716.7949929999998
 30
0.0
 11
232.5
 21
-716.7949929999998
 31
0.0
  0
CIRCLE
  5
12C
330
2C0
100
AcDbEntity
  8
SIZE
100
AcDbCircle
 10
157.496353
 20
-716.7949929999998
 30
0.0
 40
5.0
  0
LINE
  5
12D
330
2C0
100
AcDbEntity
  8
SIZE
100
AcDbLine
 10
162.496353
 20
-716.7949929999998
 30
0.0
 11
167.496353
 21
-716.7949929999998
 31
0.0
  0
LINE
  5
131
330
2C0
100
AcDbEntity
  8
SIZE
100
AcDbLine
 10
156.996353
 20
-0.059059
 30
0.0
 11
156.996353
 21
-746.7949929999997
 31
0.0
  0
LINE
  5
132
330
2C0
100
AcDbEntity
  8
SIZE
100
AcDbLine
 10
-143.003647
 20
-0.006247
 30
0.0
 11
-143.003647
 21
-746.7949929999997
 31
0.0
  0
LINE
  5
133
330
2C0
100
AcDbEntity
  8
SIZE
100
AcDbLine
 10
146.996353
 20
-716.7949929999998
 30
0.0
 11
-133.003647
 21
-716.7949929999998
 31
0.0
  0
CIRCLE
  5
134
330
2C0
100
AcDbEntity
  8
SIZE
100
AcDbCircle
 10
156.996353
 20
-716.7949929999998
 30
0.0
 40
5.0
  0
LINE
  5
135
330
2C0
100
AcDbEntity
  8
SIZE
100
AcDbLine
 10
151.996353
 20
-716.7949929999998
 30
0.0
 11
146.996353
 21
-716.7949929999998
 31
0.0
  0
CIRCLE
  5
136
330
2C0
100
AcDbEntity
  8
SIZE
100
AcDbCircle
 10
-143.003647
 20
-716.7949929999998
 30
0.0
 40
5.0
  0
LINE
  5
137
330
2C0
100
AcDbEntity
  8
SIZE
100
AcDbLine
 10
-138.003647
 20
-716.7949929999998
 30
0.0
 11
-133.003647
 21
-716.7949929999998
 31
0.0
  0
TEXT
  5
138
330
2C0
100
AcDbEntity
  8
SIZE
100
AcDbText
 10
-67.06078985714285
 20
-696.7949929999997
 30
0.0
 40
64.0
  1
300
 41
0.9
 72
     1
 11
6.996353
 21
-696.7949929999997
 31
0.0
100
AcDbText
  0
LINE
  5
13C
330
2C0
100
AcDbEntity
  8
SIZE
100
AcDbLine
 10
242.5
 20
1875.0
 30
0.0
 11
242.5
 21
2033.412277
 31
0.0
  0
LINE
  5
13D
330
2C0
100
AcDbEntity
  8
SIZE
100
AcDbLine
 10
252.5
 20
1413.61294
 30
0.0
 11
252.5
 21
2033.412277
 31
0.0
  0
LINE
  5
13E
330
2C0
100
AcDbEntity
  8
SIZE
100
AcDbLine
 10
233.5
 20
2003.412277
 30
0.0
 11
223.5
 21
2003.412277
 31
0.0
  0
LINE
  5
13F
330
2C0
100
AcDbEntity
  8
SIZE
100
AcDbLine
 10
263.5
 20
2003.412277
 30
0.0
 11
273.5
 21
2003.412277
 31
0.0
  0
LINE
  5
140
330
2C0
100
AcDbEntity
  8
SIZE
100
AcDbLine
 10
411.1685089999999
 20
2003.412277
 30
0.0
 11
253.5
 21
2003.412277
 31
0.0
  0
TEXT
  5
141
330
2C0
100
AcDbEntity
  8
SIZE
100
AcDbText
 10
239.3340294285714
 20
2023.412277
 30
0.0
 40
64.0
  1
（10）
 41
0.9
 72
     1
 11
348.225458
 21
2023.412277
 31
0.0
100
AcDbText
  0
LINE
  5
142
330
2C0
100
AcDbEntity
  8
SIZE
100
AcDbLine
 10
243.5
 20
2003.412277
 30
0.0
 11
253.5
 21
2003.412277
 31
0.0
  0
LINE
  5
143
330
2C0
100
AcDbEntity
  8
SIZE
100
AcDbLine
 10
243.5
 20
2003.412277
 30
0.0
 11
253.5
 21
2003.412277
 31
0.0
  0
CIRCLE
  5
144
330
2C0
100
AcDbEntity
  8
SIZE
100
AcDbCircle
 10
253.5
 20
2003.412277
 30
0.0
 40
5.0
  0
LINE
  5
145
330
2C0
100
AcDbEntity
  8
SIZE
100
AcDbLine
 10
258.5
 20
2003.412277
 30
0.0
 11
263.5
 21
2003.412277
 31
0.0
  0
LINE
  5
146
330
2C0
100
AcDbEntity
  8
SIZE
100
AcDbLine
 10
-220.503647
 20
20.0
 30
0.0
 11
-220.503647
 21
-935.3100539999999
 31
0.0
  0
LINE
  5
147
330
2C0
100
AcDbEntity
  8
SIZE
100
AcDbLine
 10
235.496353
 20
20.0
 30
0.0
 11
235.496353
 21
-935.3100539999999
 31
0.0
  0
LINE
  5
148
330
2C0
100
AcDbEntity
  8
SIZE
100
AcDbLine
 10
-210.503647
 20
-905.310054
 30
0.0
 11
225.496353
 21
-905.310054
 31
0.0
  0
CIRCLE
  5
149
330
2C0
100
AcDbEntity
  8
SIZE
100
AcDbCircle
 10
-220.503647
 20
-905.310054
 30
0.0
 40
5.0
  0
LINE
  5
14A
330
2C0
100
AcDbEntity
  8
SIZE
100
AcDbLine
 10
-215.503647
 20
-905.310054
 30
0.0
 11
-210.503647
 21
-905.310054
 31
0.0
  0
CIRCLE
  5
14B
330
2C0
100
AcDbEntity
  8
SIZE
100
AcDbCircle
 10
235.496353
 20
-905.310054
 30
0.0
 40
5.0
  0
LINE
  5
14C
330
2C0
100
AcDbEntity
  8
SIZE
100
AcDbLine
 10
230.496353
 20
-905.310054
 30
0.0
 11
225.496353
 21
-905.310054
 31
0.0
  0
TEXT
  5
14D
330
2C0
100
AcDbEntity
  8
SIZE
100
AcDbText
 10
-65.18936128571429
 20
-885.3100539999998
 30
0.0
 40
64.0
  1
456
 41
0.9
 72
     1
 11
7.496353
 21
-885.3100539999998
 31
0.0
100
AcDbText
  0
LINE
  5
151
330
2C0
100
AcDbEntity
  8
SIZE
100
AcDbLine
 10
235.496353
 20
20.0
 30
0.0
 11
235.496353
 21
-935.3100539999999
 31
0.0
  0
LINE
  5
152
330
2C0
100
AcDbEntity
  8
SIZE
100
AcDbLine
 10
242.5
 20
60.0
 30
0.0
 11
242.5
 21
-935.3100539999999
 31
0.0
  0
LINE
  5
153
330
2C0
100
AcDbEntity
  8
SIZE
100
AcDbLine
 10
225.496353
 20
-905.310054
 30
0.0
 11
215.496353
 21
-905.310054
 31
0.0
  0
LINE
  5
154
330
2C0
100
AcDbEntity
  8
SIZE
100
AcDbLine
 10
252.5
 20
-905.310054
 30
0.0
 11
262.5
 21
-905.310054
 31
0.0
  0
LINE
  5
155
330
2C0
100
AcDbEntity
  8
SIZE
100
AcDbLine
 10
348.502673
 20
-905.310054
 30
0.0
 11
242.5
 21
-905.310054
 31
0.0
  0
TEXT
  5
156
330
2C0
100
AcDbEntity
  8
SIZE
100
AcDbText
 10
290.102673
 20
-885.3100539999998
 30
0.0
 40
64.0
  1
7
 41
0.9
 72
     1
 11
309.302673
 21
-885.3100539999998
 31
0.0
100
AcDbText
  0
LINE
  5
157
330
2C0
100
AcDbEntity
  8
SIZE
100
AcDbLine
 10
235.496353
 20
-905.310054
 30
0.0
 11
242.5
 21
-905.310054
 31
0.0
  0
LINE
  5
158
330
2C0
100
AcDbEntity
  8
SIZE
100
AcDbLine
 10
235.496353
 20
-905.310054
 30
0.0
 11
242.5
 21
-905.310054
 31
0.0
  0
CIRCLE
  5
159
330
2C0
100
AcDbEntity
  8
SIZE
100
AcDbCircle
 10
235.496353
 20
-905.310054
 30
0.0
 40
5.0
  0
LINE
  5
15A
330
2C0
100
AcDbEntity
  8
SIZE
100
AcDbLine
 10
230.496353
 20
-905.310054
 30
0.0
 11
225.496353
 21
-905.310054
 31
0.0
  0
CIRCLE
  5
15B
330
2C0
100
AcDbEntity
  8
SIZE
100
AcDbCircle
 10
242.5
 20
-905.310054
 30
0.0
 40
5.0
  0
LINE
  5
15C
330
2C0
100
AcDbEntity
  8
SIZE
100
AcDbLine
 10
247.5
 20
-905.310054
 30
0.0
 11
252.5
 21
-905.310054
 31
0.0
  0
LINE
  5
160
330
2C0
100
AcDbEntity
  8
SIZE
100
AcDbLine
 10
242.5
 20
1875.0
 30
0.0
 11
242.5
 21
2033.412277
 31
0.0
  0
LINE
  5
161
330
2C0
100
AcDbEntity
  8
SIZE
100
AcDbLine
 10
-242.5
 20
1875.0
 30
0.0
 11
-242.5
 21
2033.412277
 31
0.0
  0
LINE
  5
162
330
2C0
100
AcDbEntity
  8
SIZE
100
AcDbLine
 10
232.5
 20
2003.412277
 30
0.0
 11
-232.5
 21
2003.412277
 31
0.0
  0
CIRCLE
  5
163
330
2C0
100
AcDbEntity
  8
SIZE
100
AcDbCircle
 10
242.5
 20
2003.412277
 30
0.0
 40
5.0
  0
LINE
  5
164
330
2C0
100
AcDbEntity
  8
SIZE
100
AcDbLine
 10
237.5
 20
2003.412277
 30
0.0
 11
232.5
 21
2003.412277
 31
0.0
  0
CIRCLE
  5
165
330
2C0
100
AcDbEntity
  8
SIZE
100
AcDbCircle
 10
-242.5
 20
2003.412277
 30
0.0
 40
5.0
  0
LINE
  5
166
330
2C0
100
AcDbEntity
  8
SIZE
100
AcDbLine
 10
-237.5
 20
2003.412277
 30
0.0
 11
-232.5
 21
2003.412277
 31
0.0
  0
TEXT
  5
167
330
2C0
100
AcDbEntity
  8
SIZE
100
AcDbText
 10
-74.05714285714282
 20
2023.412277
 30
0.0
 40
64.0
  1
485
 41
0.9
 72
     1
 11
0.0
 21
2023.412277
 31
0.0
100
AcDbText
  0
LINE
  5
16B
330
2C0
100
AcDbEntity
  8
SIZE
100
AcDbLine
 10
262.5
 20
1850.0
 30
0.0
 11
717.2648569999997
 21
1850.0
 31
0.0
  0
LINE
  5
16C
330
2C0
100
AcDbEntity
  8
SIZE
100
AcDbLine
 10
262.5
 20
1650.0
 30
0.0
 11
717.2648569999997
 21
1650.0
 31
0.0
  0
LINE
  5
16D
330
2C0
100
AcDbEntity
  8
SIZE
100
AcDbLine
 10
687.2648569999999
 20
1840.0
 30
0.0
 11
687.2648569999999
 21
1660.0
 31
0.0
  0
CIRCLE
  5
16E
330
2C0
100
AcDbEntity
  8
SIZE
100
AcDbCircle
 10
687.2648569999999
 20
1850.0
 30
0.0
 40
5.0
  0
LINE
  5
16F
330
2C0
100
AcDbEntity
  8
SIZE
100
AcDbLine
 10
687.2648569999999
 20
1845.0
 30
0.0
 11
687.2648569999999
 21
1840.0
 31
0.0
  0
CIRCLE
  5
170
330
2C0
100
AcDbEntity
  8
SIZE
100
AcDbCircle
 10
687.2648569999999
 20
1650.0
 30
0.0
 40
5.0
  0
LINE
  5
171
330
2C0
100
AcDbEntity
  8
SIZE
100
AcDbLine
 10
687.2648569999999
 20
1655.0
 30
0.0
 11
687.2648569999999
 21
1660.0
 31
0.0
  0
TEXT
  5
172
330
2C0
100
AcDbEntity
  8
SIZE
100
AcDbText
 10
667.2648569999998
 20
1683.049136142857
 30
0.0
 40
64.0
  1
200
 50
90.0
 41
0.9
 72
     1
 11
667.2648569999998
 21
1757.106279
 31
0.0
100
AcDbText
  0
LINE
  5
176
330
2C0
100
AcDbEntity
  8
SIZE
100
AcDbLine
 10
262.5
 20
1850.0
 30
0.0
 11
1123.326049
 21
1850.0
 31
0.0
  0
LINE
  5
177
330
2C0
100
AcDbEntity
  8
SIZE
100
AcDbLine
 10
255.496353
 20
0.0
 30
0.0
 11
1123.326049
 21
0.0
 31
0.0
  0
LINE
  5
178
330
2C0
100
AcDbEntity
  8
SIZE
100
AcDbLine
 10
1093.326049
 20
1840.0
 30
0.0
 11
1093.326049
 21
10.0
 31
0.0
  0
CIRCLE
  5
179
330
2C0
100
AcDbEntity
  8
SIZE
100
AcDbCircle
 10
1093.326049
 20
1850.0
 30
0.0
 40
5.0
  0
LINE
  5
17A
330
2C0
100
AcDbEntity
  8
SIZE
100
AcDbLine
 10
1093.326049
 20
1845.0
 30
0.0
 11
1093.326049
 21
1840.0
 31
0.0
  0
CIRCLE
  5
17B
330
2C0
100
AcDbEntity
  8
SIZE
100
AcDbCircle
 10
1093.326049
 20
0.0
 30
0.0
 40
5.0
  0
LINE
  5
17C
330
2C0
100
AcDbEntity
  8
SIZE
100
AcDbLine
 10
1093.326049
 20
5.0
 30
0.0
 11
1093.326049
 21
10.0
 31
0.0
  0
TEXT
  5
17D
330
2C0
100
AcDbEntity
  8
SIZE
100
AcDbText
 10
1073.326049
 20
831.4999999999999
 30
0.0
 40
64.0
  1
1850
 50
90.0
 41
0.9
 72
     1
 11
1073.326049
 21
927.5
 31
0.0
100
AcDbText
  0
LINE
  5
181
330
2C0
100
AcDbEntity
  8
SIZE
100
AcDbLine
 10
-142.497277
 20
270.0
 30
0.0
 11
-142.497277
 21
918.1746569999999
 31
0.0
  0
LINE
  5
182
330
2C0
100
AcDbEntity
  8
SIZE
100
AcDbLine
 10
242.5
 20
270.0
 30
0.0
 11
242.5
 21
918.1746569999999
 31
0.0
  0
LINE
  5
183
330
2C0
100
AcDbEntity
  8
SIZE
100
AcDbLine
 10
-132.497277
 20
888.174657
 30
0.0
 11
232.5
 21
888.174657
 31
0.0
  0
TEXT
  5
184
330
2C0
100
AcDbEntity
  8
SIZE
100
AcDbText
 10
15.07127714285714
 20
908.945238
 30
0.0
 40
64.0
  1
385
 41
0.9
 72
     1
 11
89.12841999999995
 21
908.945238
 31
0.0
100
AcDbText
  0
CIRCLE
  5
185
330
2C0
100
AcDbEntity
  8
SIZE
100
AcDbCircle
 10
-142.497277
 20
888.174657
 30
0.0
 40
5.0
  0
LINE
  5
186
330
2C0
100
AcDbEntity
  8
SIZE
100
AcDbLine
 10
-137.497277
 20
888.174657
 30
0.0
 11
-132.497277
 21
888.174657
 31
0.0
  0
CIRCLE
  5
187
330
2C0
100
AcDbEntity
  8
SIZE
100
AcDbCircle
 10
242.5
 20
888.174657
 30
0.0
 40
5.0
  0
LINE
  5
188
330
2C0
100
AcDbEntity
  8
SIZE
100
AcDbLine
 10
237.5
 20
888.174657
 30
0.0
 11
232.5
 21
888.174657
 31
0.0
  0
LINE
  5
18C
330
2C0
100
AcDbEntity
  8
SIZE
100
AcDbLine
 10
-38.634692
 20
30.0
 30
0.0
 11
-392.480915
 21
30.0
 31
0.0
  0
LINE
  5
18D
330
2C0
100
AcDbEntity
  8
SIZE
100
AcDbLine
 10
-240.503647
 20
0.0
 30
0.0
 11
-392.480915
 21
0.0
 31
0.0
  0
LINE
  5
18E
330
2C0
100
AcDbEntity
  8
SIZE
100
AcDbLine
 10
-362.480915
 20
40.0
 30
0.0
 11
-362.480915
 21
50.0
 31
0.0
  0
LINE
  5
18F
330
2C0
100
AcDbEntity
  8
SIZE
100
AcDbLine
 10
-362.480915
 20
-10.0
 30
0.0
 11
-362.480915
 21
-153.257143
 31
0.0
  0
LINE
  5
190
330
2C0
100
AcDbEntity
  8
SIZE
100
AcDbLine
 10
-362.480915
 20
30.0
 30
0.0
 11
-362.480915
 21
0.0
 31
0.0
  0
CIRCLE
  5
191
330
2C0
100
AcDbEntity
  8
SIZE
100
AcDbCircle
 10
-362.480915
 20
30.0
 30
0.0
 40
5.0
  0
LINE
  5
192
330
2C0
100
AcDbEntity
  8
SIZE
100
AcDbLine
 10
-362.480915
 20
35.0
 30
0.0
 11
-362.480915
 21
40.0
 31
0.0
  0
CIRCLE
  5
193
330
2C0
100
AcDbEntity
  8
SIZE
100
AcDbCircle
 10
-362.480915
 20
0.0
 30
0.0
 40
5.0
  0
LINE
  5
194
330
2C0
100
AcDbEntity
  8
SIZE
100
AcDbLine
 10
-362.480915
 20
-5.0
 30
0.0
 11
-362.480915
 21
-10.0
 31
0.0
  0
TEXT
  5
195
330
2C0
100
AcDbEntity
  8
SIZE
100
AcDbText
 10
-382.480915
 20
-133.2571424285714
 30
0.0
 40
64.0
  1
30
 50
90.0
 41
0.9
 72
     1
 11
-382.480915
 21
-86.628571
 31
0.0
100
AcDbText
  0
LINE
  5
199
330
2C0
100
AcDbEntity
  8
SIZE
100
AcDbLine
 10
-262.5
 20
80.0
 30
0.0
 11
-603.7113259999999
 21
80.0
 31
0.0
  0
LINE
  5
19A
330
2C0
100
AcDbEntity
  8
SIZE
100
AcDbLine
 10
-240.503647
 20
0.0
 30
0.0
 11
-603.7113259999999
 21
0.0
 31
0.0
  0
LINE
  5
19B
330
2C0
100
AcDbEntity
  8
SIZE
100
AcDbLine
 10
-573.711326
 20
70.0
 30
0.0
 11
-573.711326
 21
10.0
 31
0.0
  0
LINE
  5
19C
330
2C0
100
AcDbEntity
  8
SIZE
100
AcDbLine
 10
-573.711326
 20
0.0
 30
0.0
 11
-573.711326
 21
-153.83036
 31
0.0
  0
CIRCLE
  5
19D
330
2C0
100
AcDbEntity
  8
SIZE
100
AcDbCircle
 10
-573.711326
 20
80.0
 30
0.0
 40
5.0
  0
LINE
  5
19E
330
2C0
100
AcDbEntity
  8
SIZE
100
AcDbLine
 10
-573.711326
 20
75.0
 30
0.0
 11
-573.711326
 21
70.0
 31
0.0
  0
CIRCLE
  5
19F
330
2C0
100
AcDbEntity
  8
SIZE
100
AcDbCircle
 10
-573.711326
 20
0.0
 30
0.0
 40
5.0
  0
LINE
  5
1A0
330
2C0
100
AcDbEntity
  8
SIZE
100
AcDbLine
 10
-573.711326
 20
5.0
 30
0.0
 11
-573.711326
 21
10.0
 31
0.0
  0
TEXT
  5
1A1
330
2C0
100
AcDbEntity
  8
SIZE
100
AcDbText
 10
-593.711326
 20
-133.8303594285714
 30
0.0
 40
64.0
  1
80
 50
90.0
 41
0.9
 72
     1
 11
-593.711326
 21
-87.20178799999997
 31
0.0
100
AcDbText
  0
LINE
  5
24B
330
2C0
100
AcDbEntity
  8
OUTLINE
100
AcDbLine
 10
242.5
 20
1650.0
 30
0.0
 11
-242.5
 21
1650.0
 31
0.0
  0
CIRCLE
  5
389
330
2C0
100
AcDbEntity
  8
ARRANGE
  6
Continuous
 62
     1
100
AcDbCircle
 10
0.0
 20
0.0
 30
0.0
 40
40.0
  0
LINE
  5
38A
330
2C0
100
AcDbEntity
  8
ARRANGE
  6
Continuous
 62
     1
100
AcDbLine
 10
-39.59797974644789
 20
39.59797974644607
 30
0.0
 11
39.59797974644789
 21
-39.59797974644789
 31
0.0
  0
LINE
  5
38B
330
2C0
100
AcDbEntity
  8
ARRANGE
  6
Continuous
 62
     1
100
AcDbLine
 10
39.59797974644789
 20
39.59797974644607
 30
0.0
 11
-39.59797974644789
 21
-39.59797974644789
 31
0.0
  0
ENDSEC
  0
SECTION
  2
OBJECTS
  0
DICTIONARY
  5
258
330
0
100
AcDbDictionary
281
     1
  3
ACAD_CIP_PREVIOUS_PRODUCT_INFO
350
33C
  3
ACAD_COLOR
350
2B6
  3
ACAD_GROUP
350
259
  3
ACAD_LAYOUT
350
2B5
  3
ACAD_MATERIAL
350
25C
  3
ACAD_MLEADERSTYLE
350
2B9
  3
ACAD_MLINESTYLE
350
2B2
  3
ACAD_PLOTSETTINGS
350
2B4
  3
ACAD_PLOTSTYLENAME
350
25A
  3
ACAD_SCALELIST
350
286
  3
ACAD_TABLESTYLE
350
2B7
  3
ACAD_VISUALSTYLE
350
275
  3
ACDB_RECOMPOSE_DATA
350
38E
  3
AcDbVariableDictionary
350
300
  3
DWGPROPS
350
38F
  0
DICTIONARY
  5
2EA
330
2A8
100
AcDbDictionary
280
     1
281
     1
  3
ADSK_XREC_LAYER_RECONCILED
360
2EB
  0
DICTIONARY
  5
2EC
330
2C4
100
AcDbDictionary
280
     1
281
     1
  3
ADSK_XREC_LAYER_RECONCILED
360
2ED
  0
DICTIONARY
  5
2EE
330
2C7
100
AcDbDictionary
280
     1
281
     1
  3
ADSK_XREC_LAYER_RECONCILED
360
2EF
  0
DICTIONARY
  5
2F0
330
2C8
100
AcDbDictionary
280
     1
281
     1
  3
ADSK_XREC_LAYER_RECONCILED
360
2F1
  0
DICTIONARY
  5
2F2
330
2C9
100
AcDbDictionary
280
     1
281
     1
  3
ADSK_XREC_LAYER_RECONCILED
360
2F3
  0
DICTIONARY
  5
2F4
330
2CA
100
AcDbDictionary
280
     1
281
     1
  3
ADSK_XREC_LAYER_RECONCILED
360
2F5
  0
DICTIONARY
  5
2F6
330
2CB
100
AcDbDictionary
280
     1
281
     1
  3
ADSK_XREC_LAYER_RECONCILED
360
2F7
  0
DICTIONARY
  5
2F8
330
2CC
100
AcDbDictionary
280
     1
281
     1
  3
ADSK_XREC_LAYER_RECONCILED
360
2F9
  0
DICTIONARY
  5
2FA
330
2CD
100
AcDbDictionary
280
     1
281
     1
  3
ADSK_XREC_LAYER_RECONCILED
360
2FB
  0
DICTIONARY
  5
2FC
330
2CE
100
AcDbDictionary
280
     1
281
     1
  3
ADSK_XREC_LAYER_RECONCILED
360
2FD
  0
DICTIONARY
  5
2FE
330
2CF
100
AcDbDictionary
280
     1
281
     1
  3
ADSK_XREC_LAYER_RECONCILED
360
2FF
  0
XRECORD
  5
33C
102
{ACAD_REACTORS
330
258
102
}
330
258
100
AcDbXrecord
280
     1
300
ACD
300
2012
300
BDSPRM_F_S
  0
DICTIONARY
  5
2B6
102
{ACAD_REACTORS
330
258
102
}
330
258
100
AcDbDictionary
281
     1
  0
DICTIONARY
  5
259
102
{ACAD_REACTORS
330
258
102
}
330
258
100
AcDbDictionary
281
     1
  0
DICTIONARY
  5
2B5
102
{ACAD_REACTORS
330
258
102
}
330
258
100
AcDbDictionary
281
     1
  3
Layout1
350
2BF
  3
Model
350
2C3
  0
DICTIONARY
  5
25C
102
{ACAD_REACTORS
330
258
102
}
330
258
100
AcDbDictionary
281
     1
  3
ByBlock
350
265
  3
ByLayer
350
25D
  3
Global
350
26D
  0
DICTIONARY
  5
2B9
102
{ACAD_REACTORS
330
258
102
}
330
258
100
AcDbDictionary
281
     1
  3
Standard
350
2BA
  0
DICTIONARY
  5
2B2
102
{ACAD_REACTORS
330
258
102
}
330
258
100
AcDbDictionary
281
     1
  3
Standard
350
2B3
  0
DICTIONARY
  5
2B4
102
{ACAD_REACTORS
330
258
102
}
330
258
100
AcDbDictionary
281
     1
  0
ACDBDICTIONARYWDFLT
  5
25A
102
{ACAD_REACTORS
330
258
102
}
330
258
100
AcDbDictionary
281
     1
  3
Normal
350
25B
100
AcDbDictionaryWithDefault
340
25B
  0
DICTIONARY
  5
286
102
{ACAD_REACTORS
330
258
102
}
330
258
100
AcDbDictionary
281
     1
  3
A0
350
287
  3
A1
350
288
  3
A2
350
289
  3
A3
350
28A
  3
A4
350
28B
  3
A5
350
28C
  3
A6
350
28D
  3
A7
350
28E
  3
A8
350
28F
  3
A9
350
290
  3
B0
350
291
  3
B1
350
292
  3
B2
350
293
  3
B3
350
294
  3
B4
350
295
  3
B5
350
296
  3
B6
350
297
  3
B7
350
298
  3
B8
350
299
  3
B9
350
29A
  3
C0
350
29B
  3
C1
350
29C
  3
C2
350
29D
  3
C3
350
29E
  3
C4
350
29F
  3
C5
350
2A0
  3
C6
350
2A1
  3
C7
350
2A2
  3
C8
350
2A3
  3
C9
350
2A4
  3
D0
350
2A5
  3
D1
350
2A6
  3
D2
350
2A7
  0
DICTIONARY
  5
2B7
102
{ACAD_REACTORS
330
258
102
}
330
258
100
AcDbDictionary
281
     1
  3
Standard
350
2B8
  0
DICTIONARY
  5
275
102
{ACAD_REACTORS
330
258
102
}
330
258
100
AcDbDictionary
281
     1
  3
2dWireframe
350
27B
  3
3D Hidden
350
27D
  3
3dWireframe
350
27C
  3
Basic
350
27A
  3
Brighten
350
281
  3
ColorChange
350
285
  3
Conceptual
350
27E
  3
Dim
350
280
  3
EdgeColorOff
350
33A
  3
Facepattern
350
284
  3
Flat
350
276
  3
FlatWithEdges
350
277
  3
Gouraud
350
278
  3
GouraudWithEdges
350
279
  3
Hidden
350
332
  3
JitterOff
350
338
  3
Linepattern
350
283
  3
OverhangOff
350
339
  3
Realistic
350
27F
  3
Shaded
350
337
  3
Shaded with edges
350
336
  3
Shades of Gray
350
333
  3
Sketchy
350
334
  3
Thicken
350
282
  3
Wireframe
350
331
  3
X-Ray
350
335
  0
XRECORD
  5
38E
102
{ACAD_REACTORS
330
258
102
}
330
258
100
AcDbXrecord
280
     1
 90
        1
330
2B8
  0
DICTIONARY
  5
300
102
{ACAD_REACTORS
330
258
102
}
330
258
100
AcDbDictionary
281
     1
  3
CANNOSCALE
350
303
  3
CMLEADERSTYLE
350
302
  3
CTABLESTYLE
350
301
  3
DIMASSOC
350
306
  3
INDEXCTL
350
305
  3
SORTENTS
350
304
  3
XCLIPFRAME
350
38C
  0
XRECORD
  5
38F
102
{ACAD_REACTORS
330
258
102
}
330
258
100
AcDbXrecord
280
     1
  1
DWGPROPS COOKIE
  2

  3

  4

  6

  7

  8
prohiokamot
  9

300
=
301
=
302
=
303
=
304
=
305
=
306
=
307
=
308
=
309
=
 40
4.212825081018518
 41
2449761.535289665
 42
2458150.728430475
  1

 90
        0
  0
XRECORD
  5
2EB
102
{ACAD_REACTORS
330
2EA
102
}
330
2EA
100
AcDbXrecord
280
     1
290
     1
  0
XRECORD
  5
2ED
102
{ACAD_REACTORS
330
2EC
102
}
330
2EC
100
AcDbXrecord
280
     1
290
     1
  0
XRECORD
  5
2EF
102
{ACAD_REACTORS
330
2EE
102
}
330
2EE
100
AcDbXrecord
280
     1
290
     1
  0
XRECORD
  5
2F1
102
{ACAD_REACTORS
330
2F0
102
}
330
2F0
100
AcDbXrecord
280
     1
290
     1
  0
XRECORD
  5
2F3
102
{ACAD_REACTORS
330
2F2
102
}
330
2F2
100
AcDbXrecord
280
     1
290
     1
  0
XRECORD
  5
2F5
102
{ACAD_REACTORS
330
2F4
102
}
330
2F4
100
AcDbXrecord
280
     1
290
     1
  0
XRECORD
  5
2F7
102
{ACAD_REACTORS
330
2F6
102
}
330
2F6
100
AcDbXrecord
280
     1
290
     1
  0
XRECORD
  5
2F9
102
{ACAD_REACTORS
330
2F8
102
}
330
2F8
100
AcDbXrecord
280
     1
290
     1
  0
XRECORD
  5
2FB
102
{ACAD_REACTORS
330
2FA
102
}
330
2FA
100
AcDbXrecord
280
     1
290
     1
  0
XRECORD
  5
2FD
102
{ACAD_REACTORS
330
2FC
102
}
330
2FC
100
AcDbXrecord
280
     1
290
     1
  0
XRECORD
  5
2FF
102
{ACAD_REACTORS
330
2FE
102
}
330
2FE
100
AcDbXrecord
280
     1
290
     1
  0
LAYOUT
  5
2BF
102
{ACAD_XDICTIONARY
360
3B1
102
}
102
{ACAD_REACTORS
330
2B5
102
}
330
2B5
100
AcDbPlotSettings
  1

  2
FX DocuWide 2050
  4

  6

 40
0.0
 41
0.0
 42
0.0
 43
0.0
 44
0.0
 45
0.0
 46
0.0
 47
0.0
 48
0.0
 49
0.0
140
0.0
141
0.0
142
1.0
143
1.0
 70
   688
 72
     0
 73
     0
 74
     5
  7

 75
    16
147
1.0
148
0.0
149
0.0
100
AcDbLayout
  1
Layout1
 70
     1
 71
     1
 10
0.0
 20
0.0
 11
12.0
 21
9.0
 12
0.0
 22
0.0
 32
0.0
 14
1.000000000000000E+20
 24
1.000000000000000E+20
 34
1.000000000000000E+20
 15
-1.000000000000000E+20
 25
-1.000000000000000E+20
 35
-1.000000000000000E+20
146
0.0
 13
0.0
 23
0.0
 33
0.0
 16
1.0
 26
0.0
 36
0.0
 17
0.0
 27
1.0
 37
0.0
 76
     0
330
2BC
  0
LAYOUT
  5
2C3
102
{ACAD_XDICTIONARY
360
3B3
102
}
102
{ACAD_REACTORS
330
2B5
102
}
330
2B5
100
AcDbPlotSettings
  1

  2
FX DocuWide 2050
  4

  6

 40
0.0
 41
0.0
 42
0.0
 43
0.0
 44
0.0
 45
0.0
 46
0.0
 47
0.0
 48
0.0
 49
0.0
140
0.0
141
0.0
142
1.0
143
1.0
 70
  1712
 72
     0
 73
     0
 74
     0
  7

 75
     0
147
1.0
148
0.0
149
0.0
100
AcDbLayout
  1
Model
 70
     1
 71
     0
 10
0.0
 20
0.0
 11
12.0
 21
9.0
 12
0.0
 22
0.0
 32
0.0
 14
0.0
 24
0.0
 34
0.0
 15
0.0
 25
0.0
 35
0.0
146
0.0
 13
0.0
 23
0.0
 33
0.0
 16
1.0
 26
0.0
 36
0.0
 17
0.0
 27
1.0
 37
0.0
 76
     0
330
2C0
331
2C5
  0
MATERIAL
  5
265
102
{ACAD_XDICTIONARY
360
266
102
}
102
{ACAD_REACTORS
330
25C
102
}
330
25C
100
AcDbMaterial
  1
ByBlock
 72
     0
 43
0.0208333333333333
 43
0.0
 43
0.0
 43
0.0
 43
0.0
 43
0.0208333333333333
 43
0.0
 43
0.0
 43
0.0
 43
0.0
 43
1.0
 43
0.0
 43
0.0
 43
0.0
 43
0.0
 43
1.0
 77
     0
 47
0.0208333333333333
 47
0.0
 47
0.0
 47
0.0
 47
0.0
 47
0.0208333333333333
 47
0.0
 47
0.0
 47
0.0
 47
0.0
 47
1.0
 47
0.0
 47
0.0
 47
0.0
 47
0.0
 47
1.0
171
     0
 49
0.0208333333333333
 49
0.0
 49
0.0
 49
0.0
 49
0.0
 49
0.0208333333333333
 49
0.0
 49
0.0
 49
0.0
 49
0.0
 49
1.0
 49
0.0
 49
0.0
 49
0.0
 49
0.0
 49
1.0
175
     0
142
0.0208333333333333
142
0.0
142
0.0
142
0.0
142
0.0
142
0.0208333333333333
142
0.0
142
0.0
142
0.0
142
0.0
142
1.0
142
0.0
142
0.0
142
0.0
142
0.0
142
1.0
179
     0
144
0.0208333333333333
144
0.0
144
0.0
144
0.0
144
0.0
144
0.0208333333333333
144
0.0
144
0.0
144
0.0
144
0.0
144
1.0
144
0.0
144
0.0
144
0.0
144
0.0
144
1.0
147
0.0208333333333333
147
0.0
147
0.0
147
0.0
147
0.0
147
0.0208333333333333
147
0.0
147
0.0
147
0.0
147
0.0
147
1.0
147
0.0
147
0.0
147
0.0
147
0.0
147
1.0
  0
MATERIAL
  5
25D
102
{ACAD_XDICTIONARY
360
25E
102
}
102
{ACAD_REACTORS
330
25C
102
}
330
25C
100
AcDbMaterial
  1
ByLayer
 72
     0
 43
0.0208333333333333
 43
0.0
 43
0.0
 43
0.0
 43
0.0
 43
0.0208333333333333
 43
0.0
 43
0.0
 43
0.0
 43
0.0
 43
1.0
 43
0.0
 43
0.0
 43
0.0
 43
0.0
 43
1.0
 77
     0
 47
0.0208333333333333
 47
0.0
 47
0.0
 47
0.0
 47
0.0
 47
0.0208333333333333
 47
0.0
 47
0.0
 47
0.0
 47
0.0
 47
1.0
 47
0.0
 47
0.0
 47
0.0
 47
0.0
 47
1.0
171
     0
 49
0.0208333333333333
 49
0.0
 49
0.0
 49
0.0
 49
0.0
 49
0.0208333333333333
 49
0.0
 49
0.0
 49
0.0
 49
0.0
 49
1.0
 49
0.0
 49
0.0
 49
0.0
 49
0.0
 49
1.0
175
     0
142
0.0208333333333333
142
0.0
142
0.0
142
0.0
142
0.0
142
0.0208333333333333
142
0.0
142
0.0
142
0.0
142
0.0
142
1.0
142
0.0
142
0.0
142
0.0
142
0.0
142
1.0
179
     0
144
0.0208333333333333
144
0.0
144
0.0
144
0.0
144
0.0
144
0.0208333333333333
144
0.0
144
0.0
144
0.0
144
0.0
144
1.0
144
0.0
144
0.0
144
0.0
144
0.0
144
1.0
147
0.0208333333333333
147
0.0
147
0.0
147
0.0
147
0.0
147
0.0208333333333333
147
0.0
147
0.0
147
0.0
147
0.0
147
1.0
147
0.0
147
0.0
147
0.0
147
0.0
147
1.0
  0
MATERIAL
  5
26D
102
{ACAD_XDICTIONARY
360
26E
102
}
102
{ACAD_REACTORS
330
25C
102
}
330
25C
100
AcDbMaterial
  1
Global
 72
     0
 43
0.0208333333333333
 43
0.0
 43
0.0
 43
0.0
 43
0.0
 43
0.0208333333333333
 43
0.0
 43
0.0
 43
0.0
 43
0.0
 43
1.0
 43
0.0
 43
0.0
 43
0.0
 43
0.0
 43
1.0
 77
     0
 47
0.0208333333333333
 47
0.0
 47
0.0
 47
0.0
 47
0.0
 47
0.0208333333333333
 47
0.0
 47
0.0
 47
0.0
 47
0.0
 47
1.0
 47
0.0
 47
0.0
 47
0.0
 47
0.0
 47
1.0
171
     0
 49
0.0208333333333333
 49
0.0
 49
0.0
 49
0.0
 49
0.0
 49
0.0208333333333333
 49
0.0
 49
0.0
 49
0.0
 49
0.0
 49
1.0
 49
0.0
 49
0.0
 49
0.0
 49
0.0
 49
1.0
175
     0
142
0.0208333333333333
142
0.0
142
0.0
142
0.0
142
0.0
142
0.0208333333333333
142
0.0
142
0.0
142
0.0
142
0.0
142
1.0
142
0.0
142
0.0
142
0.0
142
0.0
142
1.0
179
     0
144
0.0208333333333333
144
0.0
144
0.0
144
0.0
144
0.0
144
0.0208333333333333
144
0.0
144
0.0
144
0.0
144
0.0
144
1.0
144
0.0
144
0.0
144
0.0
144
0.0
144
1.0
147
0.0208333333333333
147
0.0
147
0.0
147
0.0
147
0.0
147
0.0208333333333333
147
0.0
147
0.0
147
0.0
147
0.0
147
1.0
147
0.0
147
0.0
147
0.0
147
0.0
147
1.0
  0
MLEADERSTYLE
  5
2BA
102
{ACAD_REACTORS
330
2B9
102
}
330
2B9
100
AcDbMLeaderStyle
170
     2
171
     1
172
     0
 90
        2
 40
0.0
 41
0.0
173
     1
 91
-1056964608
340
2AE
 92
       -2
290
     1
 42
0.09
291
     1
 43
0.36
  3
Standard
 44
0.18
300

342
2A9
174
     1
178
     6
175
     1
176
     0
 93
-1056964608
 45
0.18
292
     0
297
     0
 46
0.18
 94
-1056964608
 47
1.0
 49
1.0
140
1.0
293
     1
141
0.0
294
     1
177
     0
142
1.0
295
     0
296
     0
143
0.125
1001
ACAD_MLEADERVER
1070
     2
  0
MLINESTYLE
  5
2B3
102
{ACAD_REACTORS
330
2B2
102
}
330
2B2
100
AcDbMlineStyle
  2
STANDARD
 70
     0
  3

 62
   256
 51
90.0
 52
90.0
 71
     2
 49
0.5
 62
   256
  6
BYLAYER
 49
-0.5
 62
   256
  6
BYLAYER
  0
ACDBPLACEHOLDER
  5
25B
102
{ACAD_REACTORS
330
25A
102
}
330
25A
  0
SCALE
  5
287
102
{ACAD_REACTORS
330
286
102
}
330
286
100
AcDbScale
 70
     0
300
1:1
140
1.0
141
1.0
290
     1
  0
SCALE
  5
288
102
{ACAD_REACTORS
330
286
102
}
330
286
100
AcDbScale
 70
     0
300
1:2
140
1.0
141
2.0
290
     0
  0
SCALE
  5
289
102
{ACAD_REACTORS
330
286
102
}
330
286
100
AcDbScale
 70
     0
300
1:4
140
1.0
141
4.0
290
     0
  0
SCALE
  5
28A
102
{ACAD_REACTORS
330
286
102
}
330
286
100
AcDbScale
 70
     0
300
1:5
140
1.0
141
5.0
290
     0
  0
SCALE
  5
28B
102
{ACAD_REACTORS
330
286
102
}
330
286
100
AcDbScale
 70
     0
300
1:8
140
1.0
141
8.0
290
     0
  0
SCALE
  5
28C
102
{ACAD_REACTORS
330
286
102
}
330
286
100
AcDbScale
 70
     0
300
1:10
140
1.0
141
10.0
290
     0
  0
SCALE
  5
28D
102
{ACAD_REACTORS
330
286
102
}
330
286
100
AcDbScale
 70
     0
300
1:16
140
1.0
141
16.0
290
     0
  0
SCALE
  5
28E
102
{ACAD_REACTORS
330
286
102
}
330
286
100
AcDbScale
 70
     0
300
1:20
140
1.0
141
20.0
290
     0
  0
SCALE
  5
28F
102
{ACAD_REACTORS
330
286
102
}
330
286
100
AcDbScale
 70
     0
300
1:30
140
1.0
141
30.0
290
     0
  0
SCALE
  5
290
102
{ACAD_REACTORS
330
286
102
}
330
286
100
AcDbScale
 70
     0
300
1:40
140
1.0
141
40.0
290
     0
  0
SCALE
  5
291
102
{ACAD_REACTORS
330
286
102
}
330
286
100
AcDbScale
 70
     0
300
1:50
140
1.0
141
50.0
290
     0
  0
SCALE
  5
292
102
{ACAD_REACTORS
330
286
102
}
330
286
100
AcDbScale
 70
     0
300
1:100
140
1.0
141
100.0
290
     0
  0
SCALE
  5
293
102
{ACAD_REACTORS
330
286
102
}
330
286
100
AcDbScale
 70
     0
300
2:1
140
2.0
141
1.0
290
     0
  0
SCALE
  5
294
102
{ACAD_REACTORS
330
286
102
}
330
286
100
AcDbScale
 70
     0
300
4:1
140
4.0
141
1.0
290
     0
  0
SCALE
  5
295
102
{ACAD_REACTORS
330
286
102
}
330
286
100
AcDbScale
 70
     0
300
8:1
140
8.0
141
1.0
290
     0
  0
SCALE
  5
296
102
{ACAD_REACTORS
330
286
102
}
330
286
100
AcDbScale
 70
     0
300
10:1
140
10.0
141
1.0
290
     0
  0
SCALE
  5
297
102
{ACAD_REACTORS
330
286
102
}
330
286
100
AcDbScale
 70
     0
300
100:1
140
100.0
141
1.0
290
     0
  0
SCALE
  5
298
102
{ACAD_REACTORS
330
286
102
}
330
286
100
AcDbScale
 70
     0
300
1/128" = 1'-0"
140
0.0078125
141
12.0
290
     0
  0
SCALE
  5
299
102
{ACAD_REACTORS
330
286
102
}
330
286
100
AcDbScale
 70
     0
300
1/64" = 1'-0"
140
0.015625
141
12.0
290
     0
  0
SCALE
  5
29A
102
{ACAD_REACTORS
330
286
102
}
330
286
100
AcDbScale
 70
     0
300
1/32" = 1'-0"
140
0.03125
141
12.0
290
     0
  0
SCALE
  5
29B
102
{ACAD_REACTORS
330
286
102
}
330
286
100
AcDbScale
 70
     0
300
1/16" = 1'-0"
140
0.0625
141
12.0
290
     0
  0
SCALE
  5
29C
102
{ACAD_REACTORS
330
286
102
}
330
286
100
AcDbScale
 70
     0
300
3/32" = 1'-0"
140
0.09375
141
12.0
290
     0
  0
SCALE
  5
29D
102
{ACAD_REACTORS
330
286
102
}
330
286
100
AcDbScale
 70
     0
300
1/8" = 1'-0"
140
0.125
141
12.0
290
     0
  0
SCALE
  5
29E
102
{ACAD_REACTORS
330
286
102
}
330
286
100
AcDbScale
 70
     0
300
3/16" = 1'-0"
140
0.1875
141
12.0
290
     0
  0
SCALE
  5
29F
102
{ACAD_REACTORS
330
286
102
}
330
286
100
AcDbScale
 70
     0
300
1/4" = 1'-0"
140
0.25
141
12.0
290
     0
  0
SCALE
  5
2A0
102
{ACAD_REACTORS
330
286
102
}
330
286
100
AcDbScale
 70
     0
300
3/8" = 1'-0"
140
0.375
141
12.0
290
     0
  0
SCALE
  5
2A1
102
{ACAD_REACTORS
330
286
102
}
330
286
100
AcDbScale
 70
     0
300
1/2" = 1'-0"
140
0.5
141
12.0
290
     0
  0
SCALE
  5
2A2
102
{ACAD_REACTORS
330
286
102
}
330
286
100
AcDbScale
 70
     0
300
3/4" = 1'-0"
140
0.75
141
12.0
290
     0
  0
SCALE
  5
2A3
102
{ACAD_REACTORS
330
286
102
}
330
286
100
AcDbScale
 70
     0
300
1" = 1'-0"
140
1.0
141
12.0
290
     0
  0
SCALE
  5
2A4
102
{ACAD_REACTORS
330
286
102
}
330
286
100
AcDbScale
 70
     0
300
1-1/2" = 1'-0"
140
1.5
141
12.0
290
     0
  0
SCALE
  5
2A5
102
{ACAD_REACTORS
330
286
102
}
330
286
100
AcDbScale
 70
     0
300
3" = 1'-0"
140
3.0
141
12.0
290
     0
  0
SCALE
  5
2A6
102
{ACAD_REACTORS
330
286
102
}
330
286
100
AcDbScale
 70
     0
300
6" = 1'-0"
140
6.0
141
12.0
290
     0
  0
SCALE
  5
2A7
102
{ACAD_REACTORS
330
286
102
}
330
286
100
AcDbScale
 70
     0
300
1'-0" = 1'-0"
140
12.0
141
12.0
290
     0
  0
TABLESTYLE
  5
2B8
102
{ACAD_XDICTIONARY
360
313
102
}
102
{ACAD_REACTORS
330
2B7
102
}
330
2B7
100
AcDbTableStyle
  3
Standard
 70
     0
 71
     0
 40
0.06
 41
0.06
280
     0
281
     0
  7
STANDARD
140
0.18
170
     2
 62
     0
 63
     7
283
     0
274
    -2
284
     1
 64
     0
275
    -2
285
     1
 65
     0
276
    -2
286
     1
 66
     0
277
    -2
287
     1
 67
     0
278
    -2
288
     1
 68
     0
279
    -2
289
     1
 69
     0
  7
STANDARD
140
0.25
170
     5
 62
     0
 63
     7
283
     0
274
    -2
284
     1
 64
     0
275
    -2
285
     1
 65
     0
276
    -2
286
     1
 66
     0
277
    -2
287
     1
 67
     0
278
    -2
288
     1
 68
     0
279
    -2
289
     1
 69
     0
  7
STANDARD
140
0.18
170
     5
 62
     0
 63
     7
283
     0
274
    -2
284
     1
 64
     0
275
    -2
285
     1
 65
     0
276
    -2
286
     1
 66
     0
277
    -2
287
     1
 67
     0
278
    -2
288
     1
 68
     0
279
    -2
289
     1
 69
     0
  0
VISUALSTYLE
  5
27B
102
{ACAD_XDICTIONARY
360
39A
102
}
102
{ACAD_REACTORS
330
275
102
}
330
275
100
AcDbVisualStyle
  2

 70
     4
 71
     0
 72
     2
 73
     0
 90
        0
 40
-0.6
 41
-30.0
 62
     5
 63
     7
 74
     1
 91
        4
 64
     7
 65
   257
 75
     1
175
     1
 42
1.0
 92
        0
 66
   257
 43
1.0
 76
     1
 77
     6
 78
     2
 67
     7
 79
     5
170
     0
171
     0
290
     0
174
     0
 93
        1
 44
0.0
173
     0
291
     0
 45
0.0
1001
ACAD
1000
AcDbSavedByObjectVersion
1070
     0
  0
VISUALSTYLE
  5
27D
102
{ACAD_XDICTIONARY
360
39E
102
}
102
{ACAD_REACTORS
330
275
102
}
330
275
100
AcDbVisualStyle
  2

 70
     6
 71
     1
 72
     2
 73
     2
 90
        0
 40
-0.6
 41
-30.0
 62
     5
 63
     7
 74
     2
 91
        2
 64
     7
 65
   257
 75
     2
175
     1
 42
40.0
 92
        0
 66
   257
 43
1.0
 76
     1
 77
     6
 78
     2
 67
     7
 79
     3
170
     0
171
     0
290
     0
174
     0
 93
        1
 44
0.0
173
     0
291
     0
 45
0.0
1001
ACAD
1000
AcDbSavedByObjectVersion
1070
     0
  0
VISUALSTYLE
  5
27C
102
{ACAD_XDICTIONARY
360
39C
102
}
102
{ACAD_REACTORS
330
275
102
}
330
275
100
AcDbVisualStyle
  2

 70
     5
 71
     0
 72
     2
 73
     0
 90
        0
 40
-0.6
 41
-30.0
 62
     5
 63
     7
 74
     1
 91
        4
 64
     7
 65
   257
 75
     1
175
     1
 42
1.0
 92
        0
 66
   257
 43
1.0
 76
     1
 77
     6
 78
     2
 67
     7
 79
     5
170
     0
171
     0
290
     0
174
     0
 93
        1
 44
0.0
173
     0
291
     0
 45
0.0
1001
ACAD
1000
AcDbSavedByObjectVersion
1070
     0
  0
VISUALSTYLE
  5
27A
102
{ACAD_XDICTIONARY
360
398
102
}
102
{ACAD_REACTORS
330
275
102
}
330
275
100
AcDbVisualStyle
  2

 70
     7
 71
     1
 72
     0
 73
     1
 90
        0
 40
-0.6
 41
-30.0
 62
     5
 63
     7
 74
     0
 91
        4
 64
     7
 65
   257
 75
     1
175
     1
 42
1.0
 92
        8
 66
     7
 43
1.0
 76
     1
 77
     6
 78
     2
 67
     7
 79
     5
170
     0
171
     0
290
     0
174
     0
 93
        1
 44
0.0
173
     0
291
     1
 45
0.0
1001
ACAD
1000
AcDbSavedByObjectVersion
1070
     0
  0
VISUALSTYLE
  5
281
102
{ACAD_XDICTIONARY
360
3A6
102
}
102
{ACAD_REACTORS
330
275
102
}
330
275
100
AcDbVisualStyle
  2

 70
    12
 71
     2
 72
     2
 73
     0
 90
        0
 40
-0.6
 41
-30.0
 62
     5
 63
     7
 74
     1
 91
        4
 64
     7
 65
   257
 75
     1
175
     1
 42
1.0
 92
        8
 66
     7
 43
1.0
 76
     1
 77
     6
 78
     2
 67
     7
 79
     5
170
     0
171
     0
290
     0
174
     0
 93
        1
 44
50.0
173
     0
291
     1
 45
0.0
1001
ACAD
1000
AcDbSavedByObjectVersion
1070
     0
  0
VISUALSTYLE
  5
285
102
{ACAD_XDICTIONARY
360
3AE
102
}
102
{ACAD_REACTORS
330
275
102
}
330
275
100
AcDbVisualStyle
  2

 70
    16
 71
     2
 72
     2
 73
     3
 90
        0
 40
-0.6
 41
-30.0
 62
     5
 63
     8
 74
     1
 91
        4
 64
     7
 65
   257
 75
     1
175
     1
 42
1.0
 92
        8
 66
     8
 43
1.0
 76
     1
 77
     6
 78
     2
 67
     7
 79
     5
170
     0
171
     0
290
     0
174
     0
 93
        1
 44
0.0
173
     0
291
     1
 45
0.0
1001
ACAD
1000
AcDbSavedByObjectVersion
1070
     0
  0
VISUALSTYLE
  5
27E
102
{ACAD_XDICTIONARY
360
3A0
102
}
102
{ACAD_REACTORS
330
275
102
}
330
275
100
AcDbVisualStyle
  2

 70
     9
 71
     3
 72
     2
 73
     0
 90
        0
 40
-0.6
 41
-30.0
 62
     5
 63
     7
 74
     2
 91
        2
 64
     7
 65
   257
 75
     1
175
     1
 42
40.0
 92
        8
 66
     7
 43
1.0
 76
     1
 77
     6
 78
     2
 67
     7
 79
     3
170
     0
171
     0
290
     0
174
     0
 93
        1
 44
0.0
173
     0
291
     0
 45
0.0
1001
ACAD
1000
AcDbSavedByObjectVersion
1070
     0
  0
VISUALSTYLE
  5
280
102
{ACAD_XDICTIONARY
360
3A4
102
}
102
{ACAD_REACTORS
330
275
102
}
330
275
100
AcDbVisualStyle
  2

 70
    11
 71
     2
 72
     2
 73
     0
 90
        0
 40
-0.6
 41
-30.0
 62
     5
 63
     7
 74
     1
 91
        4
 64
     7
 65
   257
 75
     1
175
     1
 42
1.0
 92
        8
 66
     7
 43
1.0
 76
     1
 77
     6
 78
     2
 67
     7
 79
     5
170
     0
171
     0
290
     0
174
     0
 93
        1
 44
-50.0
173
     0
291
     1
 45
0.0
1001
ACAD
1000
AcDbSavedByObjectVersion
1070
     0
  0
VISUALSTYLE
  5
33A
102
{ACAD_XDICTIONARY
360
3C7
102
}
102
{ACAD_REACTORS
330
275
102
}
330
275
100
AcDbVisualStyle
  2

 70
    22
 71
     2
 72
     2
 73
     0
 90
        0
 40
-0.6
 41
-30.0
 62
     5
 63
     7
 74
     1
 91
        4
 64
     7
 65
   257
 75
     1
175
     1
 42
1.0
 92
        8
 66
     7
 43
1.0
 76
     1
 77
     6
 78
     2
 67
     7
 79
     5
170
     0
171
     0
290
     0
174
     0
 93
        1
 44
0.0
173
     0
291
     1
 45
0.0
1001
ACAD
1000
AcDbSavedByObjectVersion
1070
     0
  0
VISUALSTYLE
  5
284
102
{ACAD_XDICTIONARY
360
3AC
102
}
102
{ACAD_REACTORS
330
275
102
}
330
275
100
AcDbVisualStyle
  2

 70
    15
 71
     2
 72
     2
 73
     0
 90
        0
 40
-0.6
 41
-30.0
 62
     5
 63
     7
 74
     1
 91
        4
 64
     7
 65
   257
 75
     1
175
     1
 42
1.0
 92
        8
 66
     7
 43
1.0
 76
     1
 77
     6
 78
     2
 67
     7
 79
     5
170
     0
171
     0
290
     0
174
     0
 93
        1
 44
0.0
173
     0
291
     1
 45
0.0
1001
ACAD
1000
AcDbSavedByObjectVersion
1070
     0
  0
VISUALSTYLE
  5
276
102
{ACAD_XDICTIONARY
360
390
102
}
102
{ACAD_REACTORS
330
275
102
}
330
275
100
AcDbVisualStyle
  2

 70
     0
 71
     2
 72
     1
 73
     1
 90
        2
 40
-0.6
 41
30.0
 62
     5
 63
     7
 74
     0
 91
        4
 64
     7
 65
   257
 75
     1
175
     1
 42
1.0
 92
        8
 66
     7
 43
1.0
 76
     1
 77
     6
 78
     2
 67
     7
 79
     5
170
     0
171
     0
290
     0
174
     0
 93
       13
 44
0.0
173
     0
291
     1
 45
0.0
1001
ACAD
1000
AcDbSavedByObjectVersion
1070
     0
  0
VISUALSTYLE
  5
277
102
{ACAD_XDICTIONARY
360
392
102
}
102
{ACAD_REACTORS
330
275
102
}
330
275
100
AcDbVisualStyle
  2

 70
     1
 71
     2
 72
     1
 73
     1
 90
        2
 40
-0.6
 41
30.0
 62
     5
 63
     7
 74
     1
 91
        4
 64
     7
 65
   257
 75
     1
175
     1
 42
1.0
 92
        0
 66
   257
 43
1.0
 76
     1
 77
     6
 78
     2
 67
     7
 79
     5
170
     0
171
     0
290
     0
174
     0
 93
       13
 44
0.0
173
     0
291
     1
 45
0.0
1001
ACAD
1000
AcDbSavedByObjectVersion
1070
     0
  0
VISUALSTYLE
  5
278
102
{ACAD_XDICTIONARY
360
394
102
}
102
{ACAD_REACTORS
330
275
102
}
330
275
100
AcDbVisualStyle
  2

 70
     2
 71
     2
 72
     2
 73
     1
 90
        2
 40
-0.6
 41
30.0
 62
     5
 63
     7
 74
     0
 91
        4
 64
     7
 65
   257
 75
     1
175
     1
 42
1.0
 92
        0
 66
     7
 43
1.0
 76
     1
 77
     6
 78
     2
 67
     7
 79
     5
170
     0
171
     0
290
     0
174
     0
 93
       13
 44
0.0
173
     0
291
     1
 45
0.0
1001
ACAD
1000
AcDbSavedByObjectVersion
1070
     0
  0
VISUALSTYLE
  5
279
102
{ACAD_XDICTIONARY
360
396
102
}
102
{ACAD_REACTORS
330
275
102
}
330
275
100
AcDbVisualStyle
  2

 70
     3
 71
     2
 72
     2
 73
     1
 90
        2
 40
-0.6
 41
30.0
 62
     5
 63
     7
 74
     1
 91
        4
 64
     7
 65
   257
 75
     1
175
     1
 42
1.0
 92
        0
 66
   257
 43
1.0
 76
     1
 77
     6
 78
     2
 67
     7
 79
     5
170
     0
171
     0
290
     0
174
     0
 93
       13
 44
0.0
173
     0
291
     1
 45
0.0
1001
ACAD
1000
AcDbSavedByObjectVersion
1070
     0
  0
VISUALSTYLE
  5
332
102
{ACAD_XDICTIONARY
360
3B7
102
}
102
{ACAD_REACTORS
330
275
102
}
330
275
100
AcDbVisualStyle
  2

 70
     6
 71
     1
 72
     2
 73
     2
 90
        0
 40
-0.6
 41
-30.0
 62
     5
 63
     7
 74
     2
 91
        2
 64
     7
 65
   257
 75
     2
175
     1
 42
40.0
 92
        0
 66
   257
 43
1.0
 76
     1
 77
     6
 78
     2
 67
     7
 79
     3
170
     0
171
     0
290
     0
174
     0
 93
        1
 44
0.0
173
     0
291
     0
 45
0.0
1001
ACAD
1000
AcDbSavedByObjectVersion
1070
     0
  0
VISUALSTYLE
  5
338
102
{ACAD_XDICTIONARY
360
3C3
102
}
102
{ACAD_REACTORS
330
275
102
}
330
275
100
AcDbVisualStyle
  2

 70
    20
 71
     2
 72
     2
 73
     0
 90
        0
 40
-0.6
 41
-30.0
 62
     5
 63
     7
 74
     1
 91
        4
 64
     7
 65
   257
 75
     1
175
     1
 42
1.0
 92
       10
 66
     7
 43
1.0
 76
     1
 77
     6
 78
     2
 67
     7
 79
     5
170
     0
171
     0
290
     0
174
     0
 93
        1
 44
0.0
173
     0
291
     1
 45
0.0
1001
ACAD
1000
AcDbSavedByObjectVersion
1070
     0
  0
VISUALSTYLE
  5
283
102
{ACAD_XDICTIONARY
360
3AA
102
}
102
{ACAD_REACTORS
330
275
102
}
330
275
100
AcDbVisualStyle
  2

 70
    14
 71
     2
 72
     2
 73
     0
 90
        0
 40
-0.6
 41
-30.0
 62
     5
 63
     7
 74
     1
 91
        4
 64
     7
 65
   257
 75
     7
175
     7
 42
1.0
 92
        8
 66
     7
 43
1.0
 76
     1
 77
     6
 78
     2
 67
     7
 79
     5
170
     0
171
     0
290
     0
174
     0
 93
        1
 44
0.0
173
     0
291
     1
 45
0.0
1001
ACAD
1000
AcDbSavedByObjectVersion
1070
     0
  0
VISUALSTYLE
  5
339
102
{ACAD_XDICTIONARY
360
3C5
102
}
102
{ACAD_REACTORS
330
275
102
}
330
275
100
AcDbVisualStyle
  2

 70
    21
 71
     2
 72
     2
 73
     0
 90
        0
 40
-0.6
 41
-30.0
 62
     5
 63
     7
 74
     1
 91
        4
 64
     7
 65
   257
 75
     1
175
     1
 42
1.0
 92
        9
 66
     7
 43
1.0
 76
     1
 77
     6
 78
     2
 67
     7
 79
     5
170
     0
171
     0
290
     0
174
     0
 93
        1
 44
0.0
173
     0
291
     1
 45
0.0
1001
ACAD
1000
AcDbSavedByObjectVersion
1070
     0
  0
VISUALSTYLE
  5
27F
102
{ACAD_XDICTIONARY
360
3A2
102
}
102
{ACAD_REACTORS
330
275
102
}
330
275
100
AcDbVisualStyle
  2

 70
     8
 71
     2
 72
     2
 73
     0
 90
        0
 40
-0.6
 41
-30.0
 62
     5
 63
     7
 74
     1
 91
        0
 64
     7
 65
   257
 75
     1
175
     1
 42
1.0
 92
        8
 66
     8
 43
1.0
 76
     1
 77
     6
 78
     2
 67
     7
 79
     5
170
     0
171
     0
290
     0
174
     0
 93
       13
 44
0.0
173
     0
291
     0
 45
0.0
1001
ACAD
1000
AcDbSavedByObjectVersion
1070
     0
  0
VISUALSTYLE
  5
337
102
{ACAD_XDICTIONARY
360
3C1
102
}
102
{ACAD_REACTORS
330
275
102
}
330
275
100
AcDbVisualStyle
  2

 70
    27
 71
     2
 72
     2
 73
     1
 90
        2
 40
-0.6
 41
30.0
 62
     5
 63
     7
 74
     0
 91
        4
 64
     7
 65
   257
 75
     1
175
     1
 42
1.0
 92
        8
 66
   257
 43
1.0
 76
     1
 77
     6
 78
     2
 67
     8
 79
     3
170
     0
171
     0
290
     0
174
     0
 93
        5
 44
0.0
173
     0
291
     0
 45
0.0
1001
ACAD
1000
AcDbSavedByObjectVersion
1070
     0
  0
VISUALSTYLE
  5
336
102
{ACAD_XDICTIONARY
360
3BF
102
}
102
{ACAD_REACTORS
330
275
102
}
330
275
100
AcDbVisualStyle
  2

 70
    26
 71
     2
 72
     2
 73
     1
 90
        2
 40
-0.6
 41
30.0
 62
     5
 63
     7
 74
     1
 91
       10
 64
     7
 65
   257
 75
     2
175
     1
 42
1.0
 92
        8
 66
   257
 43
1.0
 76
     1
 77
     6
 78
     2
 67
     7
 79
     3
170
     0
171
     0
290
     0
174
     0
 93
        5
 44
0.0
173
     0
291
     0
 45
0.0
1001
ACAD
1000
AcDbSavedByObjectVersion
1070
     0
  0
VISUALSTYLE
  5
333
102
{ACAD_XDICTIONARY
360
3B9
102
}
102
{ACAD_REACTORS
330
275
102
}
330
275
100
AcDbVisualStyle
  2

 70
    23
 71
     2
 72
     2
 73
     3
 90
        0
 40
-0.6
 41
-30.0
 62
     5
 63
     7
 74
     2
 91
        2
 64
     7
 65
     7
 75
     1
175
     1
 42
40.0
 92
        8
 66
     7
 43
1.0
 76
     1
 77
     6
 78
     2
 67
     7
 79
     3
170
     0
171
     0
290
     0
174
     0
 93
        1
 44
0.0
173
     0
291
     0
 45
0.0
1001
ACAD
1000
AcDbSavedByObjectVersion
1070
     0
  0
VISUALSTYLE
  5
334
102
{ACAD_XDICTIONARY
360
3BB
102
}
102
{ACAD_REACTORS
330
275
102
}
330
275
100
AcDbVisualStyle
  2

 70
    24
 71
     1
 72
     2
 73
     2
 90
        0
 40
-0.6
 41
-30.0
 62
     5
 63
     7
 74
     2
 91
        2
 64
     7
 65
     7
 75
     1
175
     1
 42
40.0
 92
       11
 66
     7
 43
1.0
 76
     1
 77
     6
 78
     2
 67
     7
 79
     6
170
     0
171
     0
290
     0
174
     0
 93
        1
 44
0.0
173
     0
291
     0
 45
0.0
1001
ACAD
1000
AcDbSavedByObjectVersion
1070
     0
  0
VISUALSTYLE
  5
282
102
{ACAD_XDICTIONARY
360
3A8
102
}
102
{ACAD_REACTORS
330
275
102
}
330
275
100
AcDbVisualStyle
  2

 70
    13
 71
     2
 72
     2
 73
     0
 90
        0
 40
-0.6
 41
-30.0
 62
     5
 63
     7
 74
     1
 91
        4
 64
     7
 65
   257
 75
     1
175
     1
 42
1.0
 92
       12
 66
     7
 43
1.0
 76
     1
 77
     6
 78
     2
 67
     7
 79
     5
170
     0
171
     0
290
     0
174
     0
 93
        1
 44
0.0
173
     0
291
     1
 45
0.0
1001
ACAD
1000
AcDbSavedByObjectVersion
1070
     0
  0
VISUALSTYLE
  5
331
102
{ACAD_XDICTIONARY
360
3B5
102
}
102
{ACAD_REACTORS
330
275
102
}
330
275
100
AcDbVisualStyle
  2

 70
     5
 71
     0
 72
     2
 73
     0
 90
        0
 40
-0.6
 41
-30.0
 62
     5
 63
     7
 74
     1
 91
        4
 64
     7
 65
   257
 75
     1
175
     1
 42
1.0
 92
        0
 66
   257
 43
1.0
 76
     1
 77
     6
 78
     2
 67
     7
 79
     3
170
     0
171
     0
290
     0
174
     0
 93
        1
 44
0.0
173
     0
291
     0
 45
0.0
1001
ACAD
1000
AcDbSavedByObjectVersion
1070
     0
  0
VISUALSTYLE
  5
335
102
{ACAD_XDICTIONARY
360
3BD
102
}
102
{ACAD_REACTORS
330
275
102
}
330
275
100
AcDbVisualStyle
  2

 70
    25
 71
     2
 72
     2
 73
     1
 90
        1
 40
0.5
 41
-30.0
 62
     5
 63
     7
 74
     1
 91
        0
 64
     7
 65
   257
 75
     1
175
     1
 42
1.0
 92
        8
 66
     7
 43
1.0
 76
     1
 77
     6
 78
     2
 67
     7
 79
     3
170
     0
171
     0
290
     0
174
     0
 93
       13
 44
0.0
173
     0
291
     0
 45
0.0
1001
ACAD
1000
AcDbSavedByObjectVersion
1070
     0
  0
DICTIONARYVAR
  5
303
102
{ACAD_REACTORS
330
300
102
}
330
300
100
DictionaryVariables
280
     0
  1
1:1
  0
DICTIONARYVAR
  5
302
102
{ACAD_REACTORS
330
300
102
}
330
300
100
DictionaryVariables
280
     0
  1
STANDARD
  0
DICTIONARYVAR
  5
301
102
{ACAD_REACTORS
330
300
102
}
330
300
100
DictionaryVariables
280
     0
  1
STANDARD
  0
DICTIONARYVAR
  5
306
102
{ACAD_REACTORS
330
300
102
}
330
300
100
DictionaryVariables
280
     0
  1
1
  0
DICTIONARYVAR
  5
305
102
{ACAD_REACTORS
330
300
102
}
330
300
100
DictionaryVariables
280
     0
  1
0
  0
DICTIONARYVAR
  5
304
102
{ACAD_REACTORS
330
300
102
}
330
300
100
DictionaryVariables
280
     0
  1
127
  0
DICTIONARYVAR
  5
38C
102
{ACAD_REACTORS
330
300
102
}
330
300
100
DictionaryVariables
280
     0
  1
2
  0
DICTIONARY
  5
3B1
330
2BF
100
AcDbDictionary
280
     1
281
     1
  3
ACAD_XREC_ROUNDTRIP
360
3B2
  0
DICTIONARY
  5
3B3
330
2C3
100
AcDbDictionary
280
     1
281
     1
  3
ACAD_XREC_ROUNDTRIP
360
3B4
  0
DICTIONARY
  5
266
330
265
100
AcDbDictionary
280
     1
281
     1
  3
ACAD_XREC_ROUNDTRIP
360
318
  3
BUMPTILE
360
268
  3
DIFFUSETILE
360
267
  3
OPACITYTILE
360
26B
  3
REFLECTIONTILE
360
26A
  3
REFRACTIONTILE
360
26C
  3
SPECULARTILE
360
269
  0
DICTIONARY
  5
25E
330
25D
100
AcDbDictionary
280
     1
281
     1
  3
ACAD_XREC_ROUNDTRIP
360
317
  3
BUMPTILE
360
260
  3
DIFFUSETILE
360
25F
  3
OPACITYTILE
360
263
  3
REFLECTIONTILE
360
262
  3
REFRACTIONTILE
360
264
  3
SPECULARTILE
360
261
  0
DICTIONARY
  5
26E
330
26D
100
AcDbDictionary
280
     1
281
     1
  3
ACAD_XREC_ROUNDTRIP
360
319
  3
BUMPTILE
360
270
  3
DIFFUSETILE
360
26F
  3
OPACITYTILE
360
273
  3
REFLECTIONTILE
360
272
  3
REFRACTIONTILE
360
274
  3
SPECULARTILE
360
271
  0
DICTIONARY
  5
313
330
2B8
100
AcDbDictionary
280
     1
281
     1
  3
ACAD_ROUNDTRIP_2008_TABLESTYLE_CELLSTYLEMAP
360
38D
  3
ACAD_XREC_ROUNDTRIP
360
3B0
  0
DICTIONARY
  5
39A
330
27B
100
AcDbDictionary
280
     1
281
     1
  3
ACAD_XREC_ROUNDTRIP
360
39B
  0
DICTIONARY
  5
39E
330
27D
100
AcDbDictionary
280
     1
281
     1
  3
ACAD_XREC_ROUNDTRIP
360
39F
  0
DICTIONARY
  5
39C
330
27C
100
AcDbDictionary
280
     1
281
     1
  3
ACAD_XREC_ROUNDTRIP
360
39D
  0
DICTIONARY
  5
398
330
27A
100
AcDbDictionary
280
     1
281
     1
  3
ACAD_XREC_ROUNDTRIP
360
399
  0
DICTIONARY
  5
3A6
330
281
100
AcDbDictionary
280
     1
281
     1
  3
ACAD_XREC_ROUNDTRIP
360
3A7
  0
DICTIONARY
  5
3AE
330
285
100
AcDbDictionary
280
     1
281
     1
  3
ACAD_XREC_ROUNDTRIP
360
3AF
  0
DICTIONARY
  5
3A0
330
27E
100
AcDbDictionary
280
     1
281
     1
  3
ACAD_XREC_ROUNDTRIP
360
3A1
  0
DICTIONARY
  5
3A4
330
280
100
AcDbDictionary
280
     1
281
     1
  3
ACAD_XREC_ROUNDTRIP
360
3A5
  0
DICTIONARY
  5
3C7
330
33A
100
AcDbDictionary
280
     1
281
     1
  3
ACAD_XREC_ROUNDTRIP
360
3C8
  0
DICTIONARY
  5
3AC
330
284
100
AcDbDictionary
280
     1
281
     1
  3
ACAD_XREC_ROUNDTRIP
360
3AD
  0
DICTIONARY
  5
390
330
276
100
AcDbDictionary
280
     1
281
     1
  3
ACAD_XREC_ROUNDTRIP
360
391
  0
DICTIONARY
  5
392
330
277
100
AcDbDictionary
280
     1
281
     1
  3
ACAD_XREC_ROUNDTRIP
360
393
  0
DICTIONARY
  5
394
330
278
100
AcDbDictionary
280
     1
281
     1
  3
ACAD_XREC_ROUNDTRIP
360
395
  0
DICTIONARY
  5
396
330
279
100
AcDbDictionary
280
     1
281
     1
  3
ACAD_XREC_ROUNDTRIP
360
397
  0
DICTIONARY
  5
3B7
330
332
100
AcDbDictionary
280
     1
281
     1
  3
ACAD_XREC_ROUNDTRIP
360
3B8
  0
DICTIONARY
  5
3C3
330
338
100
AcDbDictionary
280
     1
281
     1
  3
ACAD_XREC_ROUNDTRIP
360
3C4
  0
DICTIONARY
  5
3AA
330
283
100
AcDbDictionary
280
     1
281
     1
  3
ACAD_XREC_ROUNDTRIP
360
3AB
  0
DICTIONARY
  5
3C5
330
339
100
AcDbDictionary
280
     1
281
     1
  3
ACAD_XREC_ROUNDTRIP
360
3C6
  0
DICTIONARY
  5
3A2
330
27F
100
AcDbDictionary
280
     1
281
     1
  3
ACAD_XREC_ROUNDTRIP
360
3A3
  0
DICTIONARY
  5
3C1
330
337
100
AcDbDictionary
280
     1
281
     1
  3
ACAD_XREC_ROUNDTRIP
360
3C2
  0
DICTIONARY
  5
3BF
330
336
100
AcDbDictionary
280
     1
281
     1
  3
ACAD_XREC_ROUNDTRIP
360
3C0
  0
DICTIONARY
  5
3B9
330
333
100
AcDbDictionary
280
     1
281
     1
  3
ACAD_XREC_ROUNDTRIP
360
3BA
  0
DICTIONARY
  5
3BB
330
334
100
AcDbDictionary
280
     1
281
     1
  3
ACAD_XREC_ROUNDTRIP
360
3BC
  0
DICTIONARY
  5
3A8
330
282
100
AcDbDictionary
280
     1
281
     1
  3
ACAD_XREC_ROUNDTRIP
360
3A9
  0
DICTIONARY
  5
3B5
330
331
100
AcDbDictionary
280
     1
281
     1
  3
ACAD_XREC_ROUNDTRIP
360
3B6
  0
DICTIONARY
  5
3BD
330
335
100
AcDbDictionary
280
     1
281
     1
  3
ACAD_XREC_ROUNDTRIP
360
3BE
  0
XRECORD
  5
3B2
102
{ACAD_REACTORS
330
3B1
102
}
330
3B1
100
AcDbXrecord
280
     1
102
SHADEPLOT
 70
     0
102
SHADEPLOTRESLEVEL
 70
     2
102
SHADEPLOTCUSTOMDPI
 70
   300
  0
XRECORD
  5
3B4
102
{ACAD_REACTORS
330
3B3
102
}
330
3B3
100
AcDbXrecord
280
     1
102
SHADEPLOT
 70
     0
102
SHADEPLOTRESLEVEL
 70
     2
102
SHADEPLOTCUSTOMDPI
 70
   300
  0
XRECORD
  5
318
102
{ACAD_REACTORS
330
266
102
}
330
266
100
AcDbXrecord
280
     1
102
MATERIAL
148
0.0
149
0.0
149
0.0
 93
        0
 94
      127
282
     0
 72
     0
 77
     0
171
     0
175
     0
179
     0
273
     0
  0
XRECORD
  5
268
102
{ACAD_REACTORS
330
266
102
}
330
266
100
AcDbXrecord
280
     1
270
     1
271
     1
  0
XRECORD
  5
267
102
{ACAD_REACTORS
330
266
102
}
330
266
100
AcDbXrecord
280
     1
270
     1
271
     1
  0
XRECORD
  5
26B
102
{ACAD_REACTORS
330
266
102
}
330
266
100
AcDbXrecord
280
     1
270
     1
271
     1
  0
XRECORD
  5
26A
102
{ACAD_REACTORS
330
266
102
}
330
266
100
AcDbXrecord
280
     1
270
     1
271
     1
  0
XRECORD
  5
26C
102
{ACAD_REACTORS
330
266
102
}
330
266
100
AcDbXrecord
280
     1
270
     1
271
     1
  0
XRECORD
  5
269
102
{ACAD_REACTORS
330
266
102
}
330
266
100
AcDbXrecord
280
     1
270
     1
271
     1
  0
XRECORD
  5
317
102
{ACAD_REACTORS
330
25E
102
}
330
25E
100
AcDbXrecord
280
     1
102
MATERIAL
148
0.0
149
0.0
149
0.0
 93
        0
 94
      127
282
     0
 72
     0
 77
     0
171
     0
175
     0
179
     0
273
     0
  0
XRECORD
  5
260
102
{ACAD_REACTORS
330
25E
102
}
330
25E
100
AcDbXrecord
280
     1
270
     1
271
     1
  0
XRECORD
  5
25F
102
{ACAD_REACTORS
330
25E
102
}
330
25E
100
AcDbXrecord
280
     1
270
     1
271
     1
  0
XRECORD
  5
263
102
{ACAD_REACTORS
330
25E
102
}
330
25E
100
AcDbXrecord
280
     1
270
     1
271
     1
  0
XRECORD
  5
262
102
{ACAD_REACTORS
330
25E
102
}
330
25E
100
AcDbXrecord
280
     1
270
     1
271
     1
  0
XRECORD
  5
264
102
{ACAD_REACTORS
330
25E
102
}
330
25E
100
AcDbXrecord
280
     1
270
     1
271
     1
  0
XRECORD
  5
261
102
{ACAD_REACTORS
330
25E
102
}
330
25E
100
AcDbXrecord
280
     1
270
     1
271
     1
  0
XRECORD
  5
319
102
{ACAD_REACTORS
330
26E
102
}
330
26E
100
AcDbXrecord
280
     1
102
MATERIAL
148
0.0
149
0.0
149
0.0
 93
        0
 94
      127
282
     0
 72
     0
 77
     0
171
     0
175
     0
179
     0
273
     0
  0
XRECORD
  5
270
102
{ACAD_REACTORS
330
26E
102
}
330
26E
100
AcDbXrecord
280
     1
270
     1
271
     1
  0
XRECORD
  5
26F
102
{ACAD_REACTORS
330
26E
102
}
330
26E
100
AcDbXrecord
280
     1
270
     1
271
     1
  0
XRECORD
  5
273
102
{ACAD_REACTORS
330
26E
102
}
330
26E
100
AcDbXrecord
280
     1
270
     1
271
     1
  0
XRECORD
  5
272
102
{ACAD_REACTORS
330
26E
102
}
330
26E
100
AcDbXrecord
280
     1
270
     1
271
     1
  0
XRECORD
  5
274
102
{ACAD_REACTORS
330
26E
102
}
330
26E
100
AcDbXrecord
280
     1
270
     1
271
     1
  0
XRECORD
  5
271
102
{ACAD_REACTORS
330
26E
102
}
330
26E
100
AcDbXrecord
280
     1
270
     1
271
     1
  0
CELLSTYLEMAP
  5
38D
102
{ACAD_REACTORS
330
313
102
}
330
313
100
AcDbCellStyleMap
 90
        3
300
CELLSTYLE
  1
TABLEFORMAT_BEGIN
 90
        5
170
     1
 91
        0
 92
    32768
 62
   257
 93
        1
300
CONTENTFORMAT
  1
CONTENTFORMAT_BEGIN
 90
        0
 91
        0
 92
      512
 93
        0
300

 40
0.0
140
1.0
 94
        5
 62
     0
340
2A9
144
0.25
309
CONTENTFORMAT_END
171
     1
301
MARGIN
  1
CELLMARGIN_BEGIN
 40
0.06
 40
0.06
 40
0.06
 40
0.06
 40
0.18
 40
0.18
309
CELLMARGIN_END
 94
        6
 95
        1
302
GRIDFORMAT
  1
GRIDFORMAT_BEGIN
 90
        0
 91
        1
 62
     0
 92
       -2
340
0
 93
        0
 40
0.045
309
GRIDFORMAT_END
 95
        2
302
GRIDFORMAT
  1
GRIDFORMAT_BEGIN
 90
        0
 91
        1
 62
     0
 92
       -2
340
0
 93
        0
 40
0.045
309
GRIDFORMAT_END
 95
        4
302
GRIDFORMAT
  1
GRIDFORMAT_BEGIN
 90
        0
 91
        1
 62
     0
 92
       -2
340
0
 93
        0
 40
0.045
309
GRIDFORMAT_END
 95
        8
302
GRIDFORMAT
  1
GRIDFORMAT_BEGIN
 90
        0
 91
        1
 62
     0
 92
       -2
340
0
 93
        0
 40
0.045
309
GRIDFORMAT_END
 95
       16
302
GRIDFORMAT
  1
GRIDFORMAT_BEGIN
 90
        0
 91
        1
 62
     0
 92
       -2
340
0
 93
        0
 40
0.045
309
GRIDFORMAT_END
 95
       32
302
GRIDFORMAT
  1
GRIDFORMAT_BEGIN
 90
        0
 91
        1
 62
     0
 92
       -2
340
0
 93
        0
 40
0.045
309
GRIDFORMAT_END
309
TABLEFORMAT_END
  1
CELLSTYLE_BEGIN
 90
        1
 91
        1
300
_TITLE
309
CELLSTYLE_END
300
CELLSTYLE
  1
TABLEFORMAT_BEGIN
 90
        5
170
     1
 91
        0
 92
        0
 62
   257
 93
        1
300
CONTENTFORMAT
  1
CONTENTFORMAT_BEGIN
 90
        0
 91
        0
 92
      512
 93
        0
300

 40
0.0
140
1.0
 94
        5
 62
     0
340
2A9
144
0.18
309
CONTENTFORMAT_END
171
     1
301
MARGIN
  1
CELLMARGIN_BEGIN
 40
0.06
 40
0.06
 40
0.06
 40
0.06
 40
0.18
 40
0.18
309
CELLMARGIN_END
 94
        6
 95
        1
302
GRIDFORMAT
  1
GRIDFORMAT_BEGIN
 90
        0
 91
        1
 62
     0
 92
       -2
340
0
 93
        0
 40
0.045
309
GRIDFORMAT_END
 95
        2
302
GRIDFORMAT
  1
GRIDFORMAT_BEGIN
 90
        0
 91
        1
 62
     0
 92
       -2
340
0
 93
        0
 40
0.045
309
GRIDFORMAT_END
 95
        4
302
GRIDFORMAT
  1
GRIDFORMAT_BEGIN
 90
        0
 91
        1
 62
     0
 92
       -2
340
0
 93
        0
 40
0.045
309
GRIDFORMAT_END
 95
        8
302
GRIDFORMAT
  1
GRIDFORMAT_BEGIN
 90
        0
 91
        1
 62
     0
 92
       -2
340
0
 93
        0
 40
0.045
309
GRIDFORMAT_END
 95
       16
302
GRIDFORMAT
  1
GRIDFORMAT_BEGIN
 90
        0
 91
        1
 62
     0
 92
       -2
340
0
 93
        0
 40
0.045
309
GRIDFORMAT_END
 95
       32
302
GRIDFORMAT
  1
GRIDFORMAT_BEGIN
 90
        0
 91
        1
 62
     0
 92
       -2
340
0
 93
        0
 40
0.045
309
GRIDFORMAT_END
309
TABLEFORMAT_END
  1
CELLSTYLE_BEGIN
 90
        2
 91
        1
300
_HEADER
309
CELLSTYLE_END
300
CELLSTYLE
  1
TABLEFORMAT_BEGIN
 90
        5
170
     1
 91
        0
 92
        0
 62
   257
 93
        1
300
CONTENTFORMAT
  1
CONTENTFORMAT_BEGIN
 90
        0
 91
        0
 92
      512
 93
        0
300

 40
0.0
140
1.0
 94
        2
 62
     0
340
2A9
144
0.18
309
CONTENTFORMAT_END
171
     1
301
MARGIN
  1
CELLMARGIN_BEGIN
 40
0.06
 40
0.06
 40
0.06
 40
0.06
 40
0.18
 40
0.18
309
CELLMARGIN_END
 94
        6
 95
        1
302
GRIDFORMAT
  1
GRIDFORMAT_BEGIN
 90
        0
 91
        1
 62
     0
 92
       -2
340
0
 93
        0
 40
0.045
309
GRIDFORMAT_END
 95
        2
302
GRIDFORMAT
  1
GRIDFORMAT_BEGIN
 90
        0
 91
        1
 62
     0
 92
       -2
340
0
 93
        0
 40
0.045
309
GRIDFORMAT_END
 95
        4
302
GRIDFORMAT
  1
GRIDFORMAT_BEGIN
 90
        0
 91
        1
 62
     0
 92
       -2
340
0
 93
        0
 40
0.045
309
GRIDFORMAT_END
 95
        8
302
GRIDFORMAT
  1
GRIDFORMAT_BEGIN
 90
        0
 91
        1
 62
     0
 92
       -2
340
0
 93
        0
 40
0.045
309
GRIDFORMAT_END
 95
       16
302
GRIDFORMAT
  1
GRIDFORMAT_BEGIN
 90
        0
 91
        1
 62
     0
 92
       -2
340
0
 93
        0
 40
0.045
309
GRIDFORMAT_END
 95
       32
302
GRIDFORMAT
  1
GRIDFORMAT_BEGIN
 90
        0
 91
        1
 62
     0
 92
       -2
340
0
 93
        0
 40
0.045
309
GRIDFORMAT_END
309
TABLEFORMAT_END
  1
CELLSTYLE_BEGIN
 90
        3
 91
        2
300
_DATA
309
CELLSTYLE_END
  0
XRECORD
  5
3B0
102
{ACAD_REACTORS
330
313
102
}
330
313
100
AcDbXrecord
280
     1
102
ACAD_ROUNDTRIP_PRE2007_TABLESTYLE
 90
      512
 91
        0
  1

 92
      512
 93
        0
  2

 94
      512
 95
        0
  3

  0
XRECORD
  5
39B
102
{ACAD_REACTORS
330
39A
102
}
330
39A
100
AcDbXrecord
280
     1
102
RTVSPropertyOp0
 70
     1
102
RTVSPropertyOp1
 70
     1
102
RTVSPropertyOp2
 70
     1
102
RTVSPropertyOp3
 70
     1
102
RTVSPropertyOp4
 70
     1
102
RTVSPropertyOp5
 70
     1
102
RTVSPropertyOp6
 70
     1
102
RTVSPropertyOp7
 70
     1
102
RTVSPropertyOp8
 70
     1
102
RTVSPropertyOp9
 70
     1
102
RTVSPropertyOp10
 70
     1
102
RTVSPropertyOp11
 70
     1
102
RTVSPropertyOp12
 70
     1
102
RTVSPropertyOp13
 70
     1
102
RTVSPropertyOp14
 70
     1
102
RTVSPropertyOp15
 70
     1
102
RTVSPropertyOp16
 70
     1
102
RTVSPropertyOp17
 70
     1
102
RTVSPropertyOp18
 70
     1
102
RTVSPropertyOp19
 70
     1
102
RTVSPropertyOp20
 70
     1
102
RTVSPropertyOp21
 70
     1
102
RTVSPropertyOp22
 70
     1
102
RTVSPropertyOp23
 70
     1
102
RTVSPropertyOp24
 70
     1
102
RTVSPropertyOp25
 70
     1
102
RTVSPropertyOp26
 70
     1
102
RTVSPropertyOp27
 70
     1
102
RTVSPropertyOp28
 70
     1
102
RTVSPropertyOp29
 70
     1
102
RTVSPropertyOp30
 70
     1
102
RTVSPropertyOp31
 70
     1
102
RTVSPropertyOp32
 70
     1
  0
XRECORD
  5
39F
102
{ACAD_REACTORS
330
39E
102
}
330
39E
100
AcDbXrecord
280
     1
102
RTVSPropertyOp0
 70
     1
102
RTVSPropertyOp1
 70
     1
102
RTVSPropertyOp2
 70
     1
102
RTVSPropertyOp3
 70
     1
102
RTVSPropertyOp4
 70
     1
102
RTVSPropertyOp5
 70
     1
102
RTVSPropertyOp6
 70
     1
102
RTVSPropertyOp7
 70
     1
102
RTVSPropertyOp8
 70
     1
102
RTVSPropertyOp9
 70
     1
102
RTVSPropertyOp10
 70
     1
102
RTVSPropertyOp11
 70
     1
102
RTVSPropertyOp12
 70
     1
102
RTVSPropertyOp13
 70
     1
102
RTVSPropertyOp14
 70
     1
102
RTVSPropertyOp15
 70
     1
102
RTVSPropertyOp16
 70
     1
102
RTVSPropertyOp17
 70
     1
102
RTVSPropertyOp18
 70
     1
102
RTVSPropertyOp19
 70
     1
102
RTVSPropertyOp20
 70
     1
102
RTVSPropertyOp21
 70
     1
102
RTVSPropertyOp22
 70
     1
102
RTVSPropertyOp23
 70
     1
102
RTVSPropertyOp24
 70
     1
102
RTVSPropertyOp25
 70
     1
102
RTVSPropertyOp26
 70
     1
102
RTVSPropertyOp27
 70
     1
102
RTVSPropertyOp28
 70
     1
102
RTVSPropertyOp29
 70
     1
102
RTVSPropertyOp30
 70
     1
102
RTVSPropertyOp31
 70
     1
102
RTVSPropertyOp32
 70
     1
  0
XRECORD
  5
39D
102
{ACAD_REACTORS
330
39C
102
}
330
39C
100
AcDbXrecord
280
     1
102
RTVSPropertyOp0
 70
     1
102
RTVSPropertyOp1
 70
     1
102
RTVSPropertyOp2
 70
     1
102
RTVSPropertyOp3
 70
     1
102
RTVSPropertyOp4
 70
     1
102
RTVSPropertyOp5
 70
     1
102
RTVSPropertyOp6
 70
     1
102
RTVSPropertyOp7
 70
     1
102
RTVSPropertyOp8
 70
     1
102
RTVSPropertyOp9
 70
     1
102
RTVSPropertyOp10
 70
     1
102
RTVSPropertyOp11
 70
     1
102
RTVSPropertyOp12
 70
     1
102
RTVSPropertyOp13
 70
     1
102
RTVSPropertyOp14
 70
     1
102
RTVSPropertyOp15
 70
     1
102
RTVSPropertyOp16
 70
     1
102
RTVSPropertyOp17
 70
     1
102
RTVSPropertyOp18
 70
     1
102
RTVSPropertyOp19
 70
     1
102
RTVSPropertyOp20
 70
     1
102
RTVSPropertyOp21
 70
     1
102
RTVSPropertyOp22
 70
     1
102
RTVSPropertyOp23
 70
     1
102
RTVSPropertyOp24
 70
     1
102
RTVSPropertyOp25
 70
     1
102
RTVSPropertyOp26
 70
     1
102
RTVSPropertyOp27
 70
     1
102
RTVSPropertyOp28
 70
     1
102
RTVSPropertyOp29
 70
     1
102
RTVSPropertyOp30
 70
     1
102
RTVSPropertyOp31
 70
     1
102
RTVSPropertyOp32
 70
     1
  0
XRECORD
  5
399
102
{ACAD_REACTORS
330
398
102
}
330
398
100
AcDbXrecord
280
     1
102
RTVSPropertyOp0
 70
     1
102
RTVSPropertyOp1
 70
     1
102
RTVSPropertyOp2
 70
     1
102
RTVSPropertyOp3
 70
     1
102
RTVSPropertyOp4
 70
     1
102
RTVSPropertyOp5
 70
     1
102
RTVSPropertyOp6
 70
     1
102
RTVSPropertyOp7
 70
     1
102
RTVSPropertyOp8
 70
     1
102
RTVSPropertyOp9
 70
     1
102
RTVSPropertyOp10
 70
     1
102
RTVSPropertyOp11
 70
     1
102
RTVSPropertyOp12
 70
     1
102
RTVSPropertyOp13
 70
     1
102
RTVSPropertyOp14
 70
     1
102
RTVSPropertyOp15
 70
     1
102
RTVSPropertyOp16
 70
     1
102
RTVSPropertyOp17
 70
     1
102
RTVSPropertyOp18
 70
     1
102
RTVSPropertyOp19
 70
     1
102
RTVSPropertyOp20
 70
     1
102
RTVSPropertyOp21
 70
     1
102
RTVSPropertyOp22
 70
     1
102
RTVSPropertyOp23
 70
     1
102
RTVSPropertyOp24
 70
     1
102
RTVSPropertyOp25
 70
     1
102
RTVSPropertyOp26
 70
     1
102
RTVSPropertyOp27
 70
     1
102
RTVSPropertyOp28
 70
     1
102
RTVSPropertyOp29
 70
     1
102
RTVSPropertyOp30
 70
     1
102
RTVSPropertyOp31
 70
     1
102
RTVSPropertyOp32
 70
     1
  0
XRECORD
  5
3A7
102
{ACAD_REACTORS
330
3A6
102
}
330
3A6
100
AcDbXrecord
280
     1
102
RTVSPropertyOp0
 70
     1
102
RTVSPropertyOp1
 70
     1
102
RTVSPropertyOp2
 70
     1
102
RTVSPropertyOp3
 70
     1
102
RTVSPropertyOp4
 70
     1
102
RTVSPropertyOp5
 70
     1
102
RTVSPropertyOp6
 70
     1
102
RTVSPropertyOp7
 70
     1
102
RTVSPropertyOp8
 70
     1
102
RTVSPropertyOp9
 70
     1
102
RTVSPropertyOp10
 70
     1
102
RTVSPropertyOp11
 70
     1
102
RTVSPropertyOp12
 70
     1
102
RTVSPropertyOp13
 70
     1
102
RTVSPropertyOp14
 70
     1
102
RTVSPropertyOp15
 70
     1
102
RTVSPropertyOp16
 70
     1
102
RTVSPropertyOp17
 70
     1
102
RTVSPropertyOp18
 70
     1
102
RTVSPropertyOp19
 70
     1
102
RTVSPropertyOp20
 70
     1
102
RTVSPropertyOp21
 70
     1
102
RTVSPropertyOp22
 70
     1
102
RTVSPropertyOp23
 70
     1
102
RTVSPropertyOp24
 70
     1
102
RTVSPropertyOp25
 70
     1
102
RTVSPropertyOp26
 70
     1
102
RTVSPropertyOp27
 70
     1
102
RTVSPropertyOp28
 70
     1
102
RTVSPropertyOp29
 70
     1
102
RTVSPropertyOp30
 70
     1
102
RTVSPropertyOp31
 70
     1
102
RTVSPropertyOp32
 70
     1
  0
XRECORD
  5
3AF
102
{ACAD_REACTORS
330
3AE
102
}
330
3AE
100
AcDbXrecord
280
     1
102
RTVSPropertyOp0
 70
     1
102
RTVSPropertyOp1
 70
     1
102
RTVSPropertyOp2
 70
     1
102
RTVSPropertyOp3
 70
     1
102
RTVSPropertyOp4
 70
     1
102
RTVSPropertyOp5
 70
     1
102
RTVSPropertyOp6
 70
     1
102
RTVSPropertyOp7
 70
     1
102
RTVSPropertyOp8
 70
     1
102
RTVSPropertyOp9
 70
     1
102
RTVSPropertyOp10
 70
     1
102
RTVSPropertyOp11
 70
     1
102
RTVSPropertyOp12
 70
     1
102
RTVSPropertyOp13
 70
     1
102
RTVSPropertyOp14
 70
     1
102
RTVSPropertyOp15
 70
     1
102
RTVSPropertyOp16
 70
     1
102
RTVSPropertyOp17
 70
     1
102
RTVSPropertyOp18
 70
     1
102
RTVSPropertyOp19
 70
     1
102
RTVSPropertyOp20
 70
     1
102
RTVSPropertyOp21
 70
     1
102
RTVSPropertyOp22
 70
     1
102
RTVSPropertyOp23
 70
     1
102
RTVSPropertyOp24
 70
     1
102
RTVSPropertyOp25
 70
     1
102
RTVSPropertyOp26
 70
     1
102
RTVSPropertyOp27
 70
     1
102
RTVSPropertyOp28
 70
     1
102
RTVSPropertyOp29
 70
     1
102
RTVSPropertyOp30
 70
     1
102
RTVSPropertyOp31
 70
     1
102
RTVSPropertyOp32
 70
     1
  0
XRECORD
  5
3A1
102
{ACAD_REACTORS
330
3A0
102
}
330
3A0
100
AcDbXrecord
280
     1
102
RTVSPropertyOp0
 70
     1
102
RTVSPropertyOp1
 70
     1
102
RTVSPropertyOp2
 70
     1
102
RTVSPropertyOp3
 70
     1
102
RTVSPropertyOp4
 70
     1
102
RTVSPropertyOp5
 70
     1
102
RTVSPropertyOp6
 70
     1
102
RTVSPropertyOp7
 70
     1
102
RTVSPropertyOp8
 70
     1
102
RTVSPropertyOp9
 70
     1
102
RTVSPropertyOp10
 70
     1
102
RTVSPropertyOp11
 70
     1
102
RTVSPropertyOp12
 70
     1
102
RTVSPropertyOp13
 70
     1
102
RTVSPropertyOp14
 70
     1
102
RTVSPropertyOp15
 70
     1
102
RTVSPropertyOp16
 70
     1
102
RTVSPropertyOp17
 70
     1
102
RTVSPropertyOp18
 70
     1
102
RTVSPropertyOp19
 70
     1
102
RTVSPropertyOp20
 70
     1
102
RTVSPropertyOp21
 70
     1
102
RTVSPropertyOp22
 70
     1
102
RTVSPropertyOp23
 70
     1
102
RTVSPropertyOp24
 70
     1
102
RTVSPropertyOp25
 70
     1
102
RTVSPropertyOp26
 70
     1
102
RTVSPropertyOp27
 70
     1
102
RTVSPropertyOp28
 70
     1
102
RTVSPropertyOp29
 70
     1
102
RTVSPropertyOp30
 70
     1
102
RTVSPropertyOp31
 70
     1
102
RTVSPropertyOp32
 70
     1
  0
XRECORD
  5
3A5
102
{ACAD_REACTORS
330
3A4
102
}
330
3A4
100
AcDbXrecord
280
     1
102
RTVSPropertyOp0
 70
     1
102
RTVSPropertyOp1
 70
     1
102
RTVSPropertyOp2
 70
     1
102
RTVSPropertyOp3
 70
     1
102
RTVSPropertyOp4
 70
     1
102
RTVSPropertyOp5
 70
     1
102
RTVSPropertyOp6
 70
     1
102
RTVSPropertyOp7
 70
     1
102
RTVSPropertyOp8
 70
     1
102
RTVSPropertyOp9
 70
     1
102
RTVSPropertyOp10
 70
     1
102
RTVSPropertyOp11
 70
     1
102
RTVSPropertyOp12
 70
     1
102
RTVSPropertyOp13
 70
     1
102
RTVSPropertyOp14
 70
     1
102
RTVSPropertyOp15
 70
     1
102
RTVSPropertyOp16
 70
     1
102
RTVSPropertyOp17
 70
     1
102
RTVSPropertyOp18
 70
     1
102
RTVSPropertyOp19
 70
     1
102
RTVSPropertyOp20
 70
     1
102
RTVSPropertyOp21
 70
     1
102
RTVSPropertyOp22
 70
     1
102
RTVSPropertyOp23
 70
     1
102
RTVSPropertyOp24
 70
     1
102
RTVSPropertyOp25
 70
     1
102
RTVSPropertyOp26
 70
     1
102
RTVSPropertyOp27
 70
     1
102
RTVSPropertyOp28
 70
     1
102
RTVSPropertyOp29
 70
     1
102
RTVSPropertyOp30
 70
     1
102
RTVSPropertyOp31
 70
     1
102
RTVSPropertyOp32
 70
     1
  0
XRECORD
  5
3C8
102
{ACAD_REACTORS
330
3C7
102
}
330
3C7
100
AcDbXrecord
280
     1
102
RTVSPropertyOp0
 70
     0
102
RTVSPropertyOp1
 70
     0
102
RTVSPropertyOp2
 70
     0
102
RTVSPropertyOp3
 70
     0
102
RTVSPropertyOp4
 70
     0
102
RTVSPropertyOp5
 70
     0
102
RTVSPropertyOp6
 70
     0
102
RTVSPropertyOp7
 70
     0
102
RTVSPropertyOp8
 70
     0
102
RTVSPropertyOp9
 70
     0
102
RTVSPropertyOp10
 70
     0
102
RTVSPropertyOp11
 70
     0
102
RTVSPropertyOp12
 70
     0
102
RTVSPropertyOp13
 70
     0
102
RTVSPropertyOp14
 70
     2
102
RTVSPropertyOp15
 70
     0
102
RTVSPropertyOp16
 70
     0
102
RTVSPropertyOp17
 70
     0
102
RTVSPropertyOp18
 70
     0
102
RTVSPropertyOp19
 70
     0
102
RTVSPropertyOp20
 70
     0
102
RTVSPropertyOp21
 70
     0
102
RTVSPropertyOp22
 70
     0
102
RTVSPropertyOp23
 70
     0
102
RTVSPropertyOp24
 70
     0
102
RTVSPropertyOp25
 70
     0
102
RTVSPropertyOp26
 70
     0
102
RTVSPropertyOp27
 70
     0
102
RTVSPropertyOp28
 70
     0
102
RTVSPropertyOp29
 70
     0
102
RTVSPropertyOp30
 70
     0
102
RTVSPropertyOp31
 70
     0
102
RTVSPropertyOp32
 70
     0
  0
XRECORD
  5
3AD
102
{ACAD_REACTORS
330
3AC
102
}
330
3AC
100
AcDbXrecord
280
     1
102
RTVSPropertyOp0
 70
     1
102
RTVSPropertyOp1
 70
     1
102
RTVSPropertyOp2
 70
     1
102
RTVSPropertyOp3
 70
     1
102
RTVSPropertyOp4
 70
     1
102
RTVSPropertyOp5
 70
     1
102
RTVSPropertyOp6
 70
     1
102
RTVSPropertyOp7
 70
     1
102
RTVSPropertyOp8
 70
     1
102
RTVSPropertyOp9
 70
     1
102
RTVSPropertyOp10
 70
     1
102
RTVSPropertyOp11
 70
     1
102
RTVSPropertyOp12
 70
     1
102
RTVSPropertyOp13
 70
     1
102
RTVSPropertyOp14
 70
     1
102
RTVSPropertyOp15
 70
     1
102
RTVSPropertyOp16
 70
     1
102
RTVSPropertyOp17
 70
     1
102
RTVSPropertyOp18
 70
     1
102
RTVSPropertyOp19
 70
     1
102
RTVSPropertyOp20
 70
     1
102
RTVSPropertyOp21
 70
     1
102
RTVSPropertyOp22
 70
     1
102
RTVSPropertyOp23
 70
     1
102
RTVSPropertyOp24
 70
     1
102
RTVSPropertyOp25
 70
     1
102
RTVSPropertyOp26
 70
     1
102
RTVSPropertyOp27
 70
     1
102
RTVSPropertyOp28
 70
     1
102
RTVSPropertyOp29
 70
     1
102
RTVSPropertyOp30
 70
     1
102
RTVSPropertyOp31
 70
     1
102
RTVSPropertyOp32
 70
     1
  0
XRECORD
  5
391
102
{ACAD_REACTORS
330
390
102
}
330
390
100
AcDbXrecord
280
     1
102
RTVSPropertyOp0
 70
     1
102
RTVSPropertyOp1
 70
     1
102
RTVSPropertyOp2
 70
     1
102
RTVSPropertyOp3
 70
     1
102
RTVSPropertyOp4
 70
     1
102
RTVSPropertyOp5
 70
     1
102
RTVSPropertyOp6
 70
     1
102
RTVSPropertyOp7
 70
     1
102
RTVSPropertyOp8
 70
     1
102
RTVSPropertyOp9
 70
     1
102
RTVSPropertyOp10
 70
     1
102
RTVSPropertyOp11
 70
     1
102
RTVSPropertyOp12
 70
     1
102
RTVSPropertyOp13
 70
     1
102
RTVSPropertyOp14
 70
     1
102
RTVSPropertyOp15
 70
     1
102
RTVSPropertyOp16
 70
     1
102
RTVSPropertyOp17
 70
     1
102
RTVSPropertyOp18
 70
     1
102
RTVSPropertyOp19
 70
     1
102
RTVSPropertyOp20
 70
     1
102
RTVSPropertyOp21
 70
     1
102
RTVSPropertyOp22
 70
     1
102
RTVSPropertyOp23
 70
     1
102
RTVSPropertyOp24
 70
     1
102
RTVSPropertyOp25
 70
     1
102
RTVSPropertyOp26
 70
     1
102
RTVSPropertyOp27
 70
     1
102
RTVSPropertyOp28
 70
     1
102
RTVSPropertyOp29
 70
     1
102
RTVSPropertyOp30
 70
     1
102
RTVSPropertyOp31
 70
     1
102
RTVSPropertyOp32
 70
     1
  0
XRECORD
  5
393
102
{ACAD_REACTORS
330
392
102
}
330
392
100
AcDbXrecord
280
     1
102
RTVSPropertyOp0
 70
     1
102
RTVSPropertyOp1
 70
     1
102
RTVSPropertyOp2
 70
     1
102
RTVSPropertyOp3
 70
     1
102
RTVSPropertyOp4
 70
     1
102
RTVSPropertyOp5
 70
     1
102
RTVSPropertyOp6
 70
     1
102
RTVSPropertyOp7
 70
     1
102
RTVSPropertyOp8
 70
     1
102
RTVSPropertyOp9
 70
     1
102
RTVSPropertyOp10
 70
     1
102
RTVSPropertyOp11
 70
     1
102
RTVSPropertyOp12
 70
     1
102
RTVSPropertyOp13
 70
     1
102
RTVSPropertyOp14
 70
     1
102
RTVSPropertyOp15
 70
     1
102
RTVSPropertyOp16
 70
     1
102
RTVSPropertyOp17
 70
     1
102
RTVSPropertyOp18
 70
     1
102
RTVSPropertyOp19
 70
     1
102
RTVSPropertyOp20
 70
     1
102
RTVSPropertyOp21
 70
     1
102
RTVSPropertyOp22
 70
     1
102
RTVSPropertyOp23
 70
     1
102
RTVSPropertyOp24
 70
     1
102
RTVSPropertyOp25
 70
     1
102
RTVSPropertyOp26
 70
     1
102
RTVSPropertyOp27
 70
     1
102
RTVSPropertyOp28
 70
     1
102
RTVSPropertyOp29
 70
     1
102
RTVSPropertyOp30
 70
     1
102
RTVSPropertyOp31
 70
     1
102
RTVSPropertyOp32
 70
     1
  0
XRECORD
  5
395
102
{ACAD_REACTORS
330
394
102
}
330
394
100
AcDbXrecord
280
     1
102
RTVSPropertyOp0
 70
     1
102
RTVSPropertyOp1
 70
     1
102
RTVSPropertyOp2
 70
     1
102
RTVSPropertyOp3
 70
     1
102
RTVSPropertyOp4
 70
     1
102
RTVSPropertyOp5
 70
     1
102
RTVSPropertyOp6
 70
     1
102
RTVSPropertyOp7
 70
     1
102
RTVSPropertyOp8
 70
     1
102
RTVSPropertyOp9
 70
     1
102
RTVSPropertyOp10
 70
     1
102
RTVSPropertyOp11
 70
     1
102
RTVSPropertyOp12
 70
     1
102
RTVSPropertyOp13
 70
     1
102
RTVSPropertyOp14
 70
     1
102
RTVSPropertyOp15
 70
     1
102
RTVSPropertyOp16
 70
     1
102
RTVSPropertyOp17
 70
     1
102
RTVSPropertyOp18
 70
     1
102
RTVSPropertyOp19
 70
     1
102
RTVSPropertyOp20
 70
     1
102
RTVSPropertyOp21
 70
     1
102
RTVSPropertyOp22
 70
     1
102
RTVSPropertyOp23
 70
     1
102
RTVSPropertyOp24
 70
     1
102
RTVSPropertyOp25
 70
     1
102
RTVSPropertyOp26
 70
     1
102
RTVSPropertyOp27
 70
     1
102
RTVSPropertyOp28
 70
     1
102
RTVSPropertyOp29
 70
     1
102
RTVSPropertyOp30
 70
     1
102
RTVSPropertyOp31
 70
     1
102
RTVSPropertyOp32
 70
     1
  0
XRECORD
  5
397
102
{ACAD_REACTORS
330
396
102
}
330
396
100
AcDbXrecord
280
     1
102
RTVSPropertyOp0
 70
     1
102
RTVSPropertyOp1
 70
     1
102
RTVSPropertyOp2
 70
     1
102
RTVSPropertyOp3
 70
     1
102
RTVSPropertyOp4
 70
     1
102
RTVSPropertyOp5
 70
     1
102
RTVSPropertyOp6
 70
     1
102
RTVSPropertyOp7
 70
     1
102
RTVSPropertyOp8
 70
     1
102
RTVSPropertyOp9
 70
     1
102
RTVSPropertyOp10
 70
     1
102
RTVSPropertyOp11
 70
     1
102
RTVSPropertyOp12
 70
     1
102
RTVSPropertyOp13
 70
     1
102
RTVSPropertyOp14
 70
     1
102
RTVSPropertyOp15
 70
     1
102
RTVSPropertyOp16
 70
     1
102
RTVSPropertyOp17
 70
     1
102
RTVSPropertyOp18
 70
     1
102
RTVSPropertyOp19
 70
     1
102
RTVSPropertyOp20
 70
     1
102
RTVSPropertyOp21
 70
     1
102
RTVSPropertyOp22
 70
     1
102
RTVSPropertyOp23
 70
     1
102
RTVSPropertyOp24
 70
     1
102
RTVSPropertyOp25
 70
     1
102
RTVSPropertyOp26
 70
     1
102
RTVSPropertyOp27
 70
     1
102
RTVSPropertyOp28
 70
     1
102
RTVSPropertyOp29
 70
     1
102
RTVSPropertyOp30
 70
     1
102
RTVSPropertyOp31
 70
     1
102
RTVSPropertyOp32
 70
     1
  0
XRECORD
  5
3B8
102
{ACAD_REACTORS
330
3B7
102
}
330
3B7
100
AcDbXrecord
280
     1
102
RTVSPropertyOp0
 70
     1
102
RTVSPropertyOp1
 70
     1
102
RTVSPropertyOp2
 70
     1
102
RTVSPropertyOp3
 70
     1
102
RTVSPropertyOp4
 70
     1
102
RTVSPropertyOp5
 70
     1
102
RTVSPropertyOp6
 70
     1
102
RTVSPropertyOp7
 70
     1
102
RTVSPropertyOp8
 70
     1
102
RTVSPropertyOp9
 70
     1
102
RTVSPropertyOp10
 70
     1
102
RTVSPropertyOp11
 70
     1
102
RTVSPropertyOp12
 70
     1
102
RTVSPropertyOp13
 70
     1
102
RTVSPropertyOp14
 70
     1
102
RTVSPropertyOp15
 70
     1
102
RTVSPropertyOp16
 70
     1
102
RTVSPropertyOp17
 70
     1
102
RTVSPropertyOp18
 70
     1
102
RTVSPropertyOp19
 70
     1
102
RTVSPropertyOp20
 70
     1
102
RTVSPropertyOp21
 70
     1
102
RTVSPropertyOp22
 70
     1
102
RTVSPropertyOp23
 70
     1
102
RTVSPropertyOp24
 70
     1
102
RTVSPropertyOp25
 70
     1
102
RTVSPropertyOp26
 70
     1
102
RTVSPropertyOp27
 70
     1
102
RTVSPropertyOp28
 70
     1
102
RTVSPropertyOp29
 70
     1
102
RTVSPropertyOp30
 70
     1
102
RTVSPropertyOp31
 70
     1
102
RTVSPropertyOp32
 70
     1
  0
XRECORD
  5
3C4
102
{ACAD_REACTORS
330
3C3
102
}
330
3C3
100
AcDbXrecord
280
     1
102
RTVSPropertyOp0
 70
     0
102
RTVSPropertyOp1
 70
     0
102
RTVSPropertyOp2
 70
     0
102
RTVSPropertyOp3
 70
     0
102
RTVSPropertyOp4
 70
     0
102
RTVSPropertyOp5
 70
     0
102
RTVSPropertyOp6
 70
     0
102
RTVSPropertyOp7
 70
     0
102
RTVSPropertyOp8
 70
     0
102
RTVSPropertyOp9
 70
     0
102
RTVSPropertyOp10
 70
     0
102
RTVSPropertyOp11
 70
     0
102
RTVSPropertyOp12
 70
     0
102
RTVSPropertyOp13
 70
     0
102
RTVSPropertyOp14
 70
     2
102
RTVSPropertyOp15
 70
     0
102
RTVSPropertyOp16
 70
     0
102
RTVSPropertyOp17
 70
     0
102
RTVSPropertyOp18
 70
     0
102
RTVSPropertyOp19
 70
     0
102
RTVSPropertyOp20
 70
     0
102
RTVSPropertyOp21
 70
     0
102
RTVSPropertyOp22
 70
     0
102
RTVSPropertyOp23
 70
     0
102
RTVSPropertyOp24
 70
     0
102
RTVSPropertyOp25
 70
     0
102
RTVSPropertyOp26
 70
     0
102
RTVSPropertyOp27
 70
     0
102
RTVSPropertyOp28
 70
     0
102
RTVSPropertyOp29
 70
     0
102
RTVSPropertyOp30
 70
     0
102
RTVSPropertyOp31
 70
     0
102
RTVSPropertyOp32
 70
     0
  0
XRECORD
  5
3AB
102
{ACAD_REACTORS
330
3AA
102
}
330
3AA
100
AcDbXrecord
280
     1
102
RTVSPropertyOp0
 70
     1
102
RTVSPropertyOp1
 70
     1
102
RTVSPropertyOp2
 70
     1
102
RTVSPropertyOp3
 70
     1
102
RTVSPropertyOp4
 70
     1
102
RTVSPropertyOp5
 70
     1
102
RTVSPropertyOp6
 70
     1
102
RTVSPropertyOp7
 70
     1
102
RTVSPropertyOp8
 70
     1
102
RTVSPropertyOp9
 70
     1
102
RTVSPropertyOp10
 70
     1
102
RTVSPropertyOp11
 70
     1
102
RTVSPropertyOp12
 70
     1
102
RTVSPropertyOp13
 70
     1
102
RTVSPropertyOp14
 70
     1
102
RTVSPropertyOp15
 70
     1
102
RTVSPropertyOp16
 70
     1
102
RTVSPropertyOp17
 70
     1
102
RTVSPropertyOp18
 70
     1
102
RTVSPropertyOp19
 70
     1
102
RTVSPropertyOp20
 70
     1
102
RTVSPropertyOp21
 70
     1
102
RTVSPropertyOp22
 70
     1
102
RTVSPropertyOp23
 70
     1
102
RTVSPropertyOp24
 70
     1
102
RTVSPropertyOp25
 70
     1
102
RTVSPropertyOp26
 70
     1
102
RTVSPropertyOp27
 70
     1
102
RTVSPropertyOp28
 70
     1
102
RTVSPropertyOp29
 70
     1
102
RTVSPropertyOp30
 70
     1
102
RTVSPropertyOp31
 70
     1
102
RTVSPropertyOp32
 70
     1
  0
XRECORD
  5
3C6
102
{ACAD_REACTORS
330
3C5
102
}
330
3C5
100
AcDbXrecord
280
     1
102
RTVSPropertyOp0
 70
     0
102
RTVSPropertyOp1
 70
     0
102
RTVSPropertyOp2
 70
     0
102
RTVSPropertyOp3
 70
     0
102
RTVSPropertyOp4
 70
     0
102
RTVSPropertyOp5
 70
     0
102
RTVSPropertyOp6
 70
     0
102
RTVSPropertyOp7
 70
     0
102
RTVSPropertyOp8
 70
     0
102
RTVSPropertyOp9
 70
     0
102
RTVSPropertyOp10
 70
     0
102
RTVSPropertyOp11
 70
     0
102
RTVSPropertyOp12
 70
     0
102
RTVSPropertyOp13
 70
     0
102
RTVSPropertyOp14
 70
     2
102
RTVSPropertyOp15
 70
     0
102
RTVSPropertyOp16
 70
     0
102
RTVSPropertyOp17
 70
     0
102
RTVSPropertyOp18
 70
     0
102
RTVSPropertyOp19
 70
     0
102
RTVSPropertyOp20
 70
     0
102
RTVSPropertyOp21
 70
     0
102
RTVSPropertyOp22
 70
     0
102
RTVSPropertyOp23
 70
     0
102
RTVSPropertyOp24
 70
     0
102
RTVSPropertyOp25
 70
     0
102
RTVSPropertyOp26
 70
     0
102
RTVSPropertyOp27
 70
     0
102
RTVSPropertyOp28
 70
     0
102
RTVSPropertyOp29
 70
     0
102
RTVSPropertyOp30
 70
     0
102
RTVSPropertyOp31
 70
     0
102
RTVSPropertyOp32
 70
     0
  0
XRECORD
  5
3A3
102
{ACAD_REACTORS
330
3A2
102
}
330
3A2
100
AcDbXrecord
280
     1
102
RTVSPropertyOp0
 70
     1
102
RTVSPropertyOp1
 70
     1
102
RTVSPropertyOp2
 70
     1
102
RTVSPropertyOp3
 70
     1
102
RTVSPropertyOp4
 70
     1
102
RTVSPropertyOp5
 70
     1
102
RTVSPropertyOp6
 70
     1
102
RTVSPropertyOp7
 70
     1
102
RTVSPropertyOp8
 70
     1
102
RTVSPropertyOp9
 70
     1
102
RTVSPropertyOp10
 70
     1
102
RTVSPropertyOp11
 70
     1
102
RTVSPropertyOp12
 70
     1
102
RTVSPropertyOp13
 70
     1
102
RTVSPropertyOp14
 70
     1
102
RTVSPropertyOp15
 70
     1
102
RTVSPropertyOp16
 70
     1
102
RTVSPropertyOp17
 70
     1
102
RTVSPropertyOp18
 70
     1
102
RTVSPropertyOp19
 70
     1
102
RTVSPropertyOp20
 70
     1
102
RTVSPropertyOp21
 70
     1
102
RTVSPropertyOp22
 70
     1
102
RTVSPropertyOp23
 70
     1
102
RTVSPropertyOp24
 70
     1
102
RTVSPropertyOp25
 70
     1
102
RTVSPropertyOp26
 70
     1
102
RTVSPropertyOp27
 70
     1
102
RTVSPropertyOp28
 70
     1
102
RTVSPropertyOp29
 70
     1
102
RTVSPropertyOp30
 70
     1
102
RTVSPropertyOp31
 70
     1
102
RTVSPropertyOp32
 70
     1
  0
XRECORD
  5
3C2
102
{ACAD_REACTORS
330
3C1
102
}
330
3C1
100
AcDbXrecord
280
     1
102
RTVSPropertyOp0
 70
     1
102
RTVSPropertyOp1
 70
     1
102
RTVSPropertyOp2
 70
     1
102
RTVSPropertyOp3
 70
     1
102
RTVSPropertyOp4
 70
     1
102
RTVSPropertyOp5
 70
     1
102
RTVSPropertyOp6
 70
     1
102
RTVSPropertyOp7
 70
     1
102
RTVSPropertyOp8
 70
     1
102
RTVSPropertyOp9
 70
     1
102
RTVSPropertyOp10
 70
     1
102
RTVSPropertyOp11
 70
     1
102
RTVSPropertyOp12
 70
     1
102
RTVSPropertyOp13
 70
     1
102
RTVSPropertyOp14
 70
     1
102
RTVSPropertyOp15
 70
     1
102
RTVSPropertyOp16
 70
     1
102
RTVSPropertyOp17
 70
     1
102
RTVSPropertyOp18
 70
     1
102
RTVSPropertyOp19
 70
     1
102
RTVSPropertyOp20
 70
     1
102
RTVSPropertyOp21
 70
     1
102
RTVSPropertyOp22
 70
     1
102
RTVSPropertyOp23
 70
     1
102
RTVSPropertyOp24
 70
     1
102
RTVSPropertyOp25
 70
     1
102
RTVSPropertyOp26
 70
     1
102
RTVSPropertyOp27
 70
     1
102
RTVSPropertyOp28
 70
     1
102
RTVSPropertyOp29
 70
     1
102
RTVSPropertyOp30
 70
     1
102
RTVSPropertyOp31
 70
     1
102
RTVSPropertyOp32
 70
     1
  0
XRECORD
  5
3C0
102
{ACAD_REACTORS
330
3BF
102
}
330
3BF
100
AcDbXrecord
280
     1
102
RTVSPropertyOp0
 70
     1
102
RTVSPropertyOp1
 70
     1
102
RTVSPropertyOp2
 70
     1
102
RTVSPropertyOp3
 70
     1
102
RTVSPropertyOp4
 70
     1
102
RTVSPropertyOp5
 70
     1
102
RTVSPropertyOp6
 70
     1
102
RTVSPropertyOp7
 70
     1
102
RTVSPropertyOp8
 70
     1
102
RTVSPropertyOp9
 70
     1
102
RTVSPropertyOp10
 70
     1
102
RTVSPropertyOp11
 70
     1
102
RTVSPropertyOp12
 70
     1
102
RTVSPropertyOp13
 70
     1
102
RTVSPropertyOp14
 70
     1
102
RTVSPropertyOp15
 70
     1
102
RTVSPropertyOp16
 70
     1
102
RTVSPropertyOp17
 70
     1
102
RTVSPropertyOp18
 70
     1
102
RTVSPropertyOp19
 70
     1
102
RTVSPropertyOp20
 70
     1
102
RTVSPropertyOp21
 70
     1
102
RTVSPropertyOp22
 70
     1
102
RTVSPropertyOp23
 70
     1
102
RTVSPropertyOp24
 70
     1
102
RTVSPropertyOp25
 70
     1
102
RTVSPropertyOp26
 70
     1
102
RTVSPropertyOp27
 70
     1
102
RTVSPropertyOp28
 70
     1
102
RTVSPropertyOp29
 70
     1
102
RTVSPropertyOp30
 70
     1
102
RTVSPropertyOp31
 70
     1
102
RTVSPropertyOp32
 70
     1
  0
XRECORD
  5
3BA
102
{ACAD_REACTORS
330
3B9
102
}
330
3B9
100
AcDbXrecord
280
     1
102
RTVSPropertyOp0
 70
     1
102
RTVSPropertyOp1
 70
     1
102
RTVSPropertyOp2
 70
     1
102
RTVSPropertyOp3
 70
     1
102
RTVSPropertyOp4
 70
     1
102
RTVSPropertyOp5
 70
     1
102
RTVSPropertyOp6
 70
     1
102
RTVSPropertyOp7
 70
     1
102
RTVSPropertyOp8
 70
     1
102
RTVSPropertyOp9
 70
     1
102
RTVSPropertyOp10
 70
     1
102
RTVSPropertyOp11
 70
     1
102
RTVSPropertyOp12
 70
     1
102
RTVSPropertyOp13
 70
     1
102
RTVSPropertyOp14
 70
     1
102
RTVSPropertyOp15
 70
     1
102
RTVSPropertyOp16
 70
     1
102
RTVSPropertyOp17
 70
     1
102
RTVSPropertyOp18
 70
     1
102
RTVSPropertyOp19
 70
     1
102
RTVSPropertyOp20
 70
     1
102
RTVSPropertyOp21
 70
     1
102
RTVSPropertyOp22
 70
     1
102
RTVSPropertyOp23
 70
     1
102
RTVSPropertyOp24
 70
     1
102
RTVSPropertyOp25
 70
     1
102
RTVSPropertyOp26
 70
     1
102
RTVSPropertyOp27
 70
     1
102
RTVSPropertyOp28
 70
     1
102
RTVSPropertyOp29
 70
     1
102
RTVSPropertyOp30
 70
     1
102
RTVSPropertyOp31
 70
     1
102
RTVSPropertyOp32
 70
     1
  0
XRECORD
  5
3BC
102
{ACAD_REACTORS
330
3BB
102
}
330
3BB
100
AcDbXrecord
280
     1
102
RTVSPropertyOp0
 70
     1
102
RTVSPropertyOp1
 70
     1
102
RTVSPropertyOp2
 70
     1
102
RTVSPropertyOp3
 70
     1
102
RTVSPropertyOp4
 70
     1
102
RTVSPropertyOp5
 70
     1
102
RTVSPropertyOp6
 70
     1
102
RTVSPropertyOp7
 70
     1
102
RTVSPropertyOp8
 70
     1
102
RTVSPropertyOp9
 70
     1
102
RTVSPropertyOp10
 70
     1
102
RTVSPropertyOp11
 70
     1
102
RTVSPropertyOp12
 70
     1
102
RTVSPropertyOp13
 70
     1
102
RTVSPropertyOp14
 70
     1
102
RTVSPropertyOp15
 70
     1
102
RTVSPropertyOp16
 70
     1
102
RTVSPropertyOp17
 70
     1
102
RTVSPropertyOp18
 70
     1
102
RTVSPropertyOp19
 70
     1
102
RTVSPropertyOp20
 70
     1
102
RTVSPropertyOp21
 70
     1
102
RTVSPropertyOp22
 70
     1
102
RTVSPropertyOp23
 70
     1
102
RTVSPropertyOp24
 70
     1
102
RTVSPropertyOp25
 70
     1
102
RTVSPropertyOp26
 70
     1
102
RTVSPropertyOp27
 70
     1
102
RTVSPropertyOp28
 70
     1
102
RTVSPropertyOp29
 70
     1
102
RTVSPropertyOp30
 70
     1
102
RTVSPropertyOp31
 70
     1
102
RTVSPropertyOp32
 70
     1
  0
XRECORD
  5
3A9
102
{ACAD_REACTORS
330
3A8
102
}
330
3A8
100
AcDbXrecord
280
     1
102
RTVSPropertyOp0
 70
     1
102
RTVSPropertyOp1
 70
     1
102
RTVSPropertyOp2
 70
     1
102
RTVSPropertyOp3
 70
     1
102
RTVSPropertyOp4
 70
     1
102
RTVSPropertyOp5
 70
     1
102
RTVSPropertyOp6
 70
     1
102
RTVSPropertyOp7
 70
     1
102
RTVSPropertyOp8
 70
     1
102
RTVSPropertyOp9
 70
     1
102
RTVSPropertyOp10
 70
     1
102
RTVSPropertyOp11
 70
     1
102
RTVSPropertyOp12
 70
     1
102
RTVSPropertyOp13
 70
     1
102
RTVSPropertyOp14
 70
     1
102
RTVSPropertyOp15
 70
     1
102
RTVSPropertyOp16
 70
     1
102
RTVSPropertyOp17
 70
     1
102
RTVSPropertyOp18
 70
     1
102
RTVSPropertyOp19
 70
     1
102
RTVSPropertyOp20
 70
     1
102
RTVSPropertyOp21
 70
     1
102
RTVSPropertyOp22
 70
     1
102
RTVSPropertyOp23
 70
     1
102
RTVSPropertyOp24
 70
     1
102
RTVSPropertyOp25
 70
     1
102
RTVSPropertyOp26
 70
     1
102
RTVSPropertyOp27
 70
     1
102
RTVSPropertyOp28
 70
     1
102
RTVSPropertyOp29
 70
     1
102
RTVSPropertyOp30
 70
     1
102
RTVSPropertyOp31
 70
     1
102
RTVSPropertyOp32
 70
     1
  0
XRECORD
  5
3B6
102
{ACAD_REACTORS
330
3B5
102
}
330
3B5
100
AcDbXrecord
280
     1
102
RTVSPropertyOp0
 70
     1
102
RTVSPropertyOp1
 70
     1
102
RTVSPropertyOp2
 70
     1
102
RTVSPropertyOp3
 70
     1
102
RTVSPropertyOp4
 70
     1
102
RTVSPropertyOp5
 70
     1
102
RTVSPropertyOp6
 70
     1
102
RTVSPropertyOp7
 70
     1
102
RTVSPropertyOp8
 70
     1
102
RTVSPropertyOp9
 70
     1
102
RTVSPropertyOp10
 70
     1
102
RTVSPropertyOp11
 70
     1
102
RTVSPropertyOp12
 70
     1
102
RTVSPropertyOp13
 70
     1
102
RTVSPropertyOp14
 70
     1
102
RTVSPropertyOp15
 70
     1
102
RTVSPropertyOp16
 70
     1
102
RTVSPropertyOp17
 70
     1
102
RTVSPropertyOp18
 70
     1
102
RTVSPropertyOp19
 70
     1
102
RTVSPropertyOp20
 70
     1
102
RTVSPropertyOp21
 70
     1
102
RTVSPropertyOp22
 70
     1
102
RTVSPropertyOp23
 70
     1
102
RTVSPropertyOp24
 70
     1
102
RTVSPropertyOp25
 70
     1
102
RTVSPropertyOp26
 70
     1
102
RTVSPropertyOp27
 70
     1
102
RTVSPropertyOp28
 70
     1
102
RTVSPropertyOp29
 70
     1
102
RTVSPropertyOp30
 70
     1
102
RTVSPropertyOp31
 70
     1
102
RTVSPropertyOp32
 70
     1
  0
XRECORD
  5
3BE
102
{ACAD_REACTORS
330
3BD
102
}
330
3BD
100
AcDbXrecord
280
     1
102
RTVSPropertyOp0
 70
     1
102
RTVSPropertyOp1
 70
     1
102
RTVSPropertyOp2
 70
     1
102
RTVSPropertyOp3
 70
     1
102
RTVSPropertyOp4
 70
     1
102
RTVSPropertyOp5
 70
     1
102
RTVSPropertyOp6
 70
     1
102
RTVSPropertyOp7
 70
     1
102
RTVSPropertyOp8
 70
     1
102
RTVSPropertyOp9
 70
     1
102
RTVSPropertyOp10
 70
     1
102
RTVSPropertyOp11
 70
     1
102
RTVSPropertyOp12
 70
     1
102
RTVSPropertyOp13
 70
     1
102
RTVSPropertyOp14
 70
     1
102
RTVSPropertyOp15
 70
     1
102
RTVSPropertyOp16
 70
     1
102
RTVSPropertyOp17
 70
     1
102
RTVSPropertyOp18
 70
     1
102
RTVSPropertyOp19
 70
     1
102
RTVSPropertyOp20
 70
     1
102
RTVSPropertyOp21
 70
     1
102
RTVSPropertyOp22
 70
     1
102
RTVSPropertyOp23
 70
     1
102
RTVSPropertyOp24
 70
     1
102
RTVSPropertyOp25
 70
     1
102
RTVSPropertyOp26
 70
     1
102
RTVSPropertyOp27
 70
     1
102
RTVSPropertyOp28
 70
     1
102
RTVSPropertyOp29
 70
     1
102
RTVSPropertyOp30
 70
     1
102
RTVSPropertyOp31
 70
     1
102
RTVSPropertyOp32
 70
     1
  0
ENDSEC
  0
EOF
