  0
SECTION
  2
HEADER
  9
$ACADVER
  1
AC1009
  9
$INSBASE
 10
0.0
 20
0.0
 30
0.0
  9
$EXTMIN
 10
-1082.9148277039751
 20
-756.02701616986087
 30
-0.0015258207003583
  9
$EXTMAX
 10
779.93307758497031
 20
600.68488460197841
 30
0.0000000349246037
  9
$LIMMIN
 10
-4267.1522210604817
 20
-2696.0832101984129
  9
$LIMMAX
 10
7190.7174225864646
 20
5141.155363923066
  9
$ORTHOMODE
 70
     1
  9
$REGENMODE
 70
     1
  9
$FILLMODE
 70
     1
  9
$QTEXTMODE
 70
     0
  9
$MIRRTEXT
 70
     0
  9
$DRAGMODE
 70
     2
  9
$LTSCALE
 40
20.0
  9
$OSMODE
 70
   431
  9
$ATTMODE
 70
     1
  9
$TEXTSIZE
 40
64.0
  9
$TRACEWID
 40
0.05
  9
$TEXTSTYLE
  7
STANDARD_MODELNAME
  9
$CLAYER
  8
SYMBOLLINE
  9
$CELTYPE
  6
CONTINUOUS
  9
$CECOLOR
 62
     7
  9
$DIMSCALE
 40
1.0
  9
$DIMASZ
 40
30.0
  9
$DIMEXO
 40
20.0
  9
$DIMDLI
 40
80.0
  9
$DIMRND
 40
0.0
  9
$DIMDLE
 40
0.0
  9
$DIMEXE
 40
20.0
  9
$DIMTP
 40
0.0
  9
$DIMTM
 40
0.0
  9
$DIMTXT
 40
60.0
  9
$DIMCEN
 40
0.09
  9
$DIMTSZ
 40
0.0
  9
$DIMTOL
 70
     0
  9
$DIMLIM
 70
     0
  9
$DIMTIH
 70
     0
  9
$DIMTOH
 70
     0
  9
$DIMSE1
 70
     0
  9
$DIMSE2
 70
     0
  9
$DIMTAD
 70
     1
  9
$DIMZIN
 70
     8
  9
$DIMBLK
  1
SMALL
  9
$DIMASO
 70
     1
  9
$DIMSHO
 70
     0
  9
$DIMPOST
  1

  9
$DIMAPOST
  1

  9
$DIMALT
 70
     0
  9
$DIMALTD
 70
     2
  9
$DIMALTF
 40
25.399999999999999
  9
$DIMLFAC
 40
1.0
  9
$DIMTOFL
 70
     1
  9
$DIMTVP
 40
0.0
  9
$DIMTIX
 70
     0
  9
$DIMSOXD
 70
     0
  9
$DIMSAH
 70
     0
  9
$DIMBLK1
  1

  9
$DIMBLK2
  1

  9
$DIMSTYLE
  2
STANDARD
  9
$DIMCLRD
 70
     0
  9
$DIMCLRE
 70
     0
  9
$DIMCLRT
 70
     0
  9
$DIMTFAC
 40
1.0
  9
$DIMGAP
 40
0.09
  9
$LUNITS
 70
     2
  9
$LUPREC
 70
     4
  9
$SKETCHINC
 40
0.1
  9
$FILLETRAD
 40
0.0
  9
$AUNITS
 70
     1
  9
$AUPREC
 70
     3
  9
$MENU
  1
ACAD
  9
$ELEVATION
 40
0.0
  9
$PELEVATION
 40
0.0
  9
$THICKNESS
 40
0.0
  9
$LIMCHECK
 70
     0
  9
$BLIPMODE
 70
     0
  9
$CHAMFERA
 40
0.0
  9
$CHAMFERB
 40
0.0
  9
$SKPOLY
 70
     0
  9
$TDCREATE
 40
2450330.4399309959
  9
$TDUPDATE
 40
2456594.6517891549
  9
$TDINDWG
 40
4.0004350230999997
  9
$TDUSRTIMER
 40
4.0003914583000002
  9
$USRTIMER
 70
     1
  9
$ANGBASE
 50
0.0
  9
$ANGDIR
 70
     0
  9
$PDMODE
 70
     3
  9
$PDSIZE
 40
-2.0
  9
$PLINEWID
 40
0.0
  9
$COORDS
 70
     1
  9
$SPLFRAME
 70
     0
  9
$SPLINETYPE
 70
     6
  9
$SPLINESEGS
 70
     8
  9
$ATTDIA
 70
     0
  9
$ATTREQ
 70
     1
  9
$HANDLING
 70
     1
  9
$HANDSEED
  5
508D
  9
$SURFTAB1
 70
     6
  9
$SURFTAB2
 70
     6
  9
$SURFTYPE
 70
     6
  9
$SURFU
 70
     6
  9
$SURFV
 70
     6
  9
$UCSNAME
  2

  9
$UCSORG
 10
0.0
 20
0.0
 30
0.0
  9
$UCSXDIR
 10
1.0
 20
0.0
 30
0.0
  9
$UCSYDIR
 10
0.0
 20
1.0
 30
0.0
  9
$PUCSNAME
  2

  9
$PUCSORG
 10
0.0
 20
0.0
 30
0.0
  9
$PUCSXDIR
 10
1.0
 20
0.0
 30
0.0
  9
$PUCSYDIR
 10
0.0
 20
1.0
 30
0.0
  9
$USERI1
 70
     0
  9
$USERI2
 70
     0
  9
$USERI3
 70
     0
  9
$USERI4
 70
     0
  9
$USERI5
 70
     0
  9
$USERR1
 40
20.0
  9
$USERR2
 40
0.0
  9
$USERR3
 40
0.0
  9
$USERR4
 40
0.0
  9
$USERR5
 40
0.0
  9
$WORLDVIEW
 70
     1
  9
$SHADEDGE
 70
     3
  9
$SHADEDIF
 70
    70
  9
$TILEMODE
 70
     1
  9
$MAXACTVP
 70
    64
  9
$PLIMCHECK
 70
     0
  9
$PEXTMIN
 10
1.0000000000000000E+020
 20
1.0000000000000000E+020
 30
1.0000000000000000E+020
  9
$PEXTMAX
 10
-1.0000000000000000E+020
 20
-1.0000000000000000E+020
 30
-1.0000000000000000E+020
  9
$PLIMMIN
 10
0.0
 20
0.0
  9
$PLIMMAX
 10
12.0
 20
9.0
  9
$UNITMODE
 70
     0
  9
$VISRETAIN
 70
     1
  9
$PLINEGEN
 70
     0
  9
$PSLTSCALE
 70
     1
  0
ENDSEC
  0
SECTION
  2
TABLES
  0
TABLE
  2
VPORT
 70
     1
  0
VPORT
  2
*ACTIVE
 70
     0
 10
0.0
 20
0.0
 11
1.0
 21
1.0
 12
-151.49087505950229
 22
-77.671065783941231
 13
0.0
 23
0.0
 14
50.0
 24
50.0
 15
100.0
 25
100.0
 16
0.0
 26
0.0
 36
1.0
 17
0.0
 27
0.0
 37
0.0
 40
1367.0291015381649
 41
1.552030456852791
 42
50.0
 43
0.0
 44
0.0
 50
0.0
 51
0.0
 71
     0
 72
  1000
 73
     1
 74
     0
 75
     0
 76
     0
 77
     0
 78
     0
  0
ENDTAB
  0
TABLE
  2
LTYPE
 70
     5
  0
LTYPE
  2
CONTINUOUS
 70
     0
  3
実線
 72
    65
 73
     0
 40
0.0
  0
LTYPE
  2
DASHDOT
 70
     0
  3
____ _ ____ _ ____ _ ____ _ ____ _ ____ _ ____
 72
    65
 73
     4
 40
5.5
 49
4.0
 49
-0.6
 49
0.3
 49
-0.6
  0
LTYPE
  2
CENTER
 70
     0
  3
Center ____ _ ____ _ ____ _ ____ _ ____ _ ____
 72
    65
 73
     4
 40
7.0
 49
4.299999999999998
 49
-0.7
 49
1.3
 49
-0.7
  0
LTYPE
  2
DASHED
 70
     0
  3
Dashed __ __ __ __ __ __ __ __ __ __ __ __ __ _
 72
    65
 73
     2
 40
2.5
 49
1.8
 49
-0.7
  0
ENDTAB
  0
TABLE
  2
LAYER
 70
    12
  0
LAYER
  2
0
 70
     0
 62
     7
  6
CONTINUOUS
  0
LAYER
  2
SYMBOLLINE
 70
     0
 62
    15
  6
CONTINUOUS
  0
LAYER
  2
SIZE
 70
     0
 62
    30
  6
CONTINUOUS
  0
LAYER
  2
OUTLINE
 70
     0
 62
     3
  6
CONTINUOUS
  0
LAYER
  2
DETAIL
 70
     0
 62
     5
  6
CONTINUOUS
  0
LAYER
  2
BASIS
 70
     0
 62
     6
  6
DASHDOT
  0
LAYER
  2
NOTE
 70
     0
 62
     4
  6
CONTINUOUS
  0
LAYER
  2
ARRANGE
 70
     0
 62
     1
  6
CONTINUOUS
  0
LAYER
  2
FIX
 70
     0
 62
    11
  6
CONTINUOUS
  0
LAYER
  2
SERVICESPACE
 70
     0
 62
     2
  6
DASHDOT
  0
LAYER
  2
ETC
 70
     0
 62
    61
  6
CONTINUOUS
  0
LAYER
  2
DEFPOINTS
 70
     0
 62
     7
  6
CONTINUOUS
  0
ENDTAB
  0
TABLE
  2
STYLE
 70
     4
  0
STYLE
  2
STANDARD
 70
     0
 40
0.0
 41
0.9
 50
0.0
 71
     0
 42
64.0
  3
SIMPLEX
  4
BIGFONT
  0
STYLE
  2
ANNOTATIVE
 70
     0
 40
0.0
 41
1.0
 50
0.0
 71
     0
 42
0.2
  3
txt
  4

  0
STYLE
  2
STANDARD_MODELNAME
 70
     0
 40
80.0
 41
0.8
 50
0.0
 71
     0
 42
64.0
  3
MONOTXT.shx
  4
BIGFONT.shx
  0
STYLE
  2
STANDARD1
 70
     0
 40
60.0
 41
0.7
 50
0.0
 71
     0
 42
64.0
  3
MONOTXT.shx
  4
BIGFONT.shx
  0
ENDTAB
  0
TABLE
  2
VIEW
 70
     1
  0
VIEW
  2
ALL
 70
     0
 40
9000.0
 10
241.50664699999999
 20
0.0
 41
12483.01
 11
0.0
 21
0.0
 31
1.0
 12
0.0
 22
0.0
 32
0.0
 42
50.0
 43
0.0
 44
0.0
 50
0.0
 71
     0
  0
ENDTAB
  0
TABLE
  2
UCS
 70
     0
  0
ENDTAB
  0
TABLE
  2
APPID
 70
     4
  0
APPID
  2
ACAD
 70
     0
  0
APPID
  2
ACADANNOTATIVE
 70
     0
  0
APPID
  2
ACAD_MLEADERVER
 70
     0
  0
APPID
  2
ACAD_EXEMPT_FROM_CAD_STANDARDS
 70
     0
  0
ENDTAB
  0
TABLE
  2
DIMSTYLE
 70
     3
  0
DIMSTYLE
  2
STANDARD
 70
     0
  3

  4

  5

  6

  7

 40
1.0
 41
0.18
 42
0.0625
 43
0.38
 44
0.18
 45
0.0
 46
0.0
 47
0.0
 48
0.0
140
0.18
141
0.09
142
0.0
143
25.399999999999999
144
1.0
145
0.0
146
1.0
147
0.09
 71
     0
 72
     0
 73
     1
 74
     1
 75
     0
 76
     0
 77
     0
 78
     0
170
     0
171
     2
172
     0
173
     0
174
     0
175
     0
176
     0
177
     0
178
     0
  0
DIMSTYLE
  2
ANNOTATIVE
 70
     0
  3

  4

  5

  6

  7

 40
1.0
 41
0.18
 42
0.0625
 43
0.38
 44
0.18
 45
0.0
 46
0.0
 47
0.0
 48
0.0
140
0.18
141
0.09
142
0.0
143
25.399999999999999
144
1.0
145
0.0
146
1.0
147
0.09
 71
     0
 72
     0
 73
     1
 74
     1
 75
     0
 76
     0
 77
     0
 78
     0
170
     0
171
     2
172
     0
173
     0
174
     0
175
     0
176
     0
177
     0
178
     0
  0
ENDTAB
  0
ENDSEC
  0
SECTION
  2
BLOCKS
  0
BLOCK
  8
0
  2
$MODEL_SPACE
 70
     0
 10
0.0
 20
0.0
 30
0.0
  3
$MODEL_SPACE
  1

  0
ENDBLK
  5
4F85
  8
0
  0
BLOCK
 67
     1
  8
0
  2
$PAPER_SPACE
 70
     0
 10
0.0
 20
0.0
 30
0.0
  3
$PAPER_SPACE
  1

  0
ENDBLK
  5
4F81
 67
     1
  8
0
  0
BLOCK
  8
0
  2
_SMALL
 70
     0
 10
0.0
 20
0.0
 30
0.0
  3
_SMALL
  1

  0
CIRCLE
  5
8F
  8
0
  6
CONTINUOUS
 62
     7
 10
0.0
 20
0.0
 30
0.0
 40
0.25
  0
ENDBLK
  5
90
  8
0
  0
BLOCK
  8
0
 62
     7
  2
A$C3DD306D0
 70
     0
 10
0.0
 20
0.0
 30
0.0
  3
A$C3DD306D0
  1

  0
LINE
  5
3A83
  8
DETAIL
  6
CONTINUOUS
 62
     5
 10
-0.0000004547300705
 20
4.5707280512456201
 30
0.0
 11
23.514361545270731
 21
-0.0000009487544048
 31
0.0
  0
ENDBLK
  5
3A87
  8
0
 62
     7
  0
BLOCK
  8
0
 62
     7
  2
A$C2C1C0512
 70
     0
 10
0.0
 20
0.0
 30
0.0
  3
A$C2C1C0512
  1

  0
ARC
  5
3B1A
  8
DETAIL
  6
CONTINUOUS
 62
     5
 10
8.8853109027440969
 20
-1.432232504054354
 30
0.0
 40
9.0
 50
150.1901580000345
 51
170.843203000003
  0
ENDBLK
  5
3B1E
  8
0
 62
     7
  0
BLOCK
  8
0
 62
     7
  2
A$C6E3947D3
 70
     0
 10
0.0
 20
0.0
 30
0.0
  3
A$C6E3947D3
  1

  0
ARC
  5
3B38
  8
DETAIL
  6
CONTINUOUS
 62
     5
 10
12.42182503701374
 20
-0.7325318625101147
 30
0.0
 40
12.44340313516709
 50
153.0707807263272
 51
176.6250979305849
  0
ENDBLK
  5
3B3C
  8
0
 62
     7
  0
BLOCK
  8
0
 62
     7
  2
A$C3E58376E
 70
     0
 10
0.0
 20
0.0
 30
0.0
  3
A$C3E58376E
  1

  0
LINE
  5
3B78
  8
DETAIL
  6
CONTINUOUS
 62
     5
 10
-0.0000011014353731
 20
22.108585078578031
 30
0.0
 11
0.5501668985643882
 21
-0.0000009214221848
 31
0.0
  0
ENDBLK
  5
3B7C
  8
0
 62
     7
  0
BLOCK
  8
0
 62
     7
  2
A$C2243122B
 70
     0
 10
0.0
 20
0.0
 30
0.0
  3
A$C2243122B
  1

  0
ARC
  5
3C0E
  8
DETAIL
  6
CONTINUOUS
 62
     5
 10
-1.0375527279993451
 20
1.9784977061519911
 30
0.0
 40
2.234047765507706
 50
297.6731115761508
 51
1.580396955288041
  0
ENDBLK
  5
3C12
  8
0
 62
     7
  0
BLOCK
  8
0
 62
     7
  2
A$C5A4A5BAF
 70
     0
 10
0.0
 20
0.0
 30
0.0
  3
A$C5A4A5BAF
  1

  0
ARC
  5
3C5E
  8
DETAIL
  6
CONTINUOUS
 62
     5
 10
-1.6396035565738301
 20
2.7364422269447002
 30
0.0
 40
3.1900509640147341
 50
300.9289547608501
 51
16.36243349807641
  0
ENDBLK
  5
3C62
  8
0
 62
     7
  0
BLOCK
  8
0
 62
     7
  2
A$C640205F4
 70
     0
 10
0.0
 20
0.0
 30
0.0
  3
A$C640205F4
  1

  0
ARC
  5
3C9A
  8
DETAIL
  6
CONTINUOUS
 62
     5
 10
-12.69679756113373
 20
-7.2159110117126861
 30
0.0
 40
17.932425490480082
 50
23.72795982225762
 51
44.924675042328722
  0
ENDBLK
  5
3C9E
  8
0
 62
     7
  0
BLOCK
  8
0
 62
     7
  2
A$C333B63AB
 70
     0
 10
0.0
 20
0.0
 30
0.0
  3
A$C333B63AB
  1

  0
ARC
  5
3CA8
  8
DETAIL
  6
CONTINUOUS
 62
     5
 10
0.489111059877331
 20
0.4999836875967977
 30
0.0
 40
0.5
 50
191.97824299999169
 51
319.51766999998728
  0
ENDBLK
  5
3CAC
  8
0
 62
     7
  0
BLOCK
  8
0
 62
     7
  2
A$C1C8C330A
 70
     0
 10
0.0
 20
0.0
 30
0.0
  3
A$C1C8C330A
  1

  0
LINE
  5
3CE1
  8
DETAIL
  6
CONTINUOUS
 62
     5
 10
0.1048263595835124
 20
0.3684878259614521
 30
0.0
 11
0.9571123595833341
 21
0.0000013259614136
 31
0.0
  0
ARC
  5
3CE2
  8
DETAIL
  6
CONTINUOUS
 62
     5
 10
0.0650239612734254
 20
0.2978066330054432
 30
0.0
 40
0.0811175810100276
 50
60.61501926574141
 51
143.28168564169641
  0
ENDBLK
  5
3CE6
  8
0
 62
     7
  0
ENDSEC
  0
SECTION
  2
ENTITIES
  0
ARC
  5
91
  8
DETAIL
  6
CONTINUOUS
 62
     5
 10
51.300000000000182
 20
-178.80000000000021
 30
0.0
 40
1.0
 50
270.0
 51
0.0
  0
ARC
  5
9D
  8
DETAIL
  6
CONTINUOUS
 62
     5
 10
113.8000000000002
 20
-70.100000000000364
 30
0.0
 40
2.0
 50
270.0
 51
0.0
  0
ARC
  5
9E
  8
DETAIL
  6
CONTINUOUS
 62
     5
 10
113.8000000000002
 20
15.899999999999631
 30
0.0
 40
2.0
 50
0.0
 51
90.0
  0
LINE
  5
9F
  8
DETAIL
  6
CONTINUOUS
 62
     5
 10
115.8000000000002
 20
-70.100000000000364
 30
0.0
 11
115.8000000000002
 21
15.899999999999631
 31
0.0
  0
LINE
  5
A0
  8
DETAIL
  6
CONTINUOUS
 62
     5
 10
119.0
 20
-31.5
 30
0.0
 11
119.0
 21
-126.10000000000031
 31
0.0
  0
LINE
  5
A1
  8
DETAIL
  6
CONTINUOUS
 62
     5
 10
126.0
 20
-23.5
 30
0.0
 11
115.8000000000002
 21
-23.5
 31
0.0
  0
LINE
  5
A2
  8
DETAIL
  6
CONTINUOUS
 62
     5
 10
126.0
 20
-31.5
 30
0.0
 11
115.8000000000002
 21
-31.5
 31
0.0
  0
LINE
  5
A3
  8
DETAIL
  6
CONTINUOUS
 62
     5
 10
126.0
 20
-18.5
 30
0.0
 11
133.0
 21
-18.5
 31
0.0
  0
LINE
  5
A4
  8
DETAIL
  6
CONTINUOUS
 62
     5
 10
126.0
 20
-36.5
 30
0.0
 11
133.0
 21
-36.5
 31
0.0
  0
LINE
  5
A5
  8
DETAIL
  6
CONTINUOUS
 62
     5
 10
126.0
 20
-36.5
 30
0.0
 11
126.0
 21
-18.5
 31
0.0
  0
LINE
  5
A6
  8
DETAIL
  6
CONTINUOUS
 62
     5
 10
126.0
 20
-23.5
 30
0.0
 11
126.0
 21
-24.5
 31
0.0
  0
LINE
  5
A7
  8
DETAIL
  6
CONTINUOUS
 62
     5
 10
126.0
 20
-23.5
 30
0.0
 11
126.0
 21
-24.5
 31
0.0
  0
LINE
  5
A8
  8
DETAIL
  6
CONTINUOUS
 62
     5
 10
103.1999999999998
 20
17.899999999999629
 30
0.0
 11
113.8000000000002
 21
17.899999999999629
 31
0.0
  0
LINE
  5
A9
  8
DETAIL
  6
CONTINUOUS
 62
     5
 10
103.1999999999998
 20
-72.10000000000035
 30
0.0
 11
113.8000000000002
 21
-72.10000000000035
 31
0.0
  0
LINE
  5
AA
  8
DETAIL
  6
CONTINUOUS
 62
     5
 10
119.0
 20
81.405488999999733
 30
0.0
 11
119.0
 21
-23.5
 31
0.0
  0
ARC
  5
AB
  8
DETAIL
  6
CONTINUOUS
 62
     5
 10
43.199999999999811
 20
-70.100000000000364
 30
0.0
 40
2.0
 50
180.0
 51
270.0
  0
ARC
  5
AC
  8
DETAIL
  6
CONTINUOUS
 62
     5
 10
43.199999999999811
 20
15.899999999999631
 30
0.0
 40
2.0
 50
90.0
 51
180.0
  0
LINE
  5
AE
  8
NOTE
  6
CENTER
 62
     4
 10
-190.0
 20
179.75
 30
0.0
 11
-190.0
 21
160.25
 31
0.0
  0
LINE
  5
B0
  8
NOTE
  6
CENTER
 62
     4
 10
-220.25
 20
170.0
 30
0.0
 11
-239.75
 21
170.0
 31
0.0
  0
LINE
  5
B1
  8
NOTE
  6
CENTER
 62
     4
 10
87.5
 20
170.0
 30
0.0
 11
72.5
 21
170.0
 31
0.0
  0
LINE
  5
B2
  8
NOTE
  6
CENTER
 62
     4
 10
-230.0
 20
179.75
 30
0.0
 11
-230.0
 21
160.25
 31
0.0
  0
ARC
  5
B4
  8
DETAIL
  6
CONTINUOUS
 62
     5
 10
-165.7437220000001
 20
34.518340999999971
 30
0.0
 40
11.5
 50
236.61994599996589
 51
27.34296400001158
  0
ARC
  5
B5
  8
DETAIL
  6
CONTINUOUS
 62
     5
 10
-165.7437220000001
 20
34.518340999999971
 30
0.0
 40
9.0
 50
240.82101600002511
 51
23.141894999993632
  0
LINE
  5
B8
  8
DETAIL
  6
CONTINUOUS
 62
     5
 10
-183.78610296387021
 20
26.158151959847292
 30
0.0
 11
-202.6052159999999
 21
9.2243729999991046
 31
0.0
  0
LINE
  5
C2
  8
DETAIL
  6
CONTINUOUS
 62
     5
 10
-189.3215719999998
 20
-165.8646040000003
 30
0.0
 11
-182.381351
 21
-172.80482500000011
 31
0.0
  0
LINE
  5
C4
  8
DETAIL
  6
CONTINUOUS
 62
     5
 10
-240.0
 20
178.39999999999961
 30
0.0
 11
-240.0
 21
-152.58159599999999
 31
0.0
  0
LINE
  5
C5
  8
DETAIL
  6
CONTINUOUS
 62
     5
 10
-238.39999999999961
 20
180.0
 30
0.0
 11
-238.39999999999961
 21
178.39999999999961
 31
0.0
  0
LINE
  5
C6
  8
DETAIL
  6
CONTINUOUS
 62
     5
 10
-197.84292900000031
 20
-124.3333760000005
 30
0.0
 11
-214.6013590000002
 21
-107.5749450000003
 31
0.0
  0
LINE
  5
C7
  8
DETAIL
  6
CONTINUOUS
 62
     5
 10
-219.19246099999961
 20
-36.681594000000587
 30
0.0
 11
-219.19246099999961
 21
-38.134613000000172
 31
0.0
  0
LINE
  5
C8
  8
DETAIL
  6
CONTINUOUS
 62
     5
 10
-219.19246099999961
 20
-96.491046000000082
 30
0.0
 11
-219.19246099999961
 21
-88.134613000000186
 31
0.0
  0
LINE
  5
C9
  8
DETAIL
  6
CONTINUOUS
 62
     5
 10
-212.84246100000021
 20
-36.681594000000587
 30
0.0
 11
-212.84246100000021
 21
-38.134613000000172
 31
0.0
  0
LINE
  5
CA
  8
DETAIL
  6
CONTINUOUS
 62
     5
 10
-212.84246100000021
 20
-96.491046000000082
 30
0.0
 11
-212.84246100000021
 21
-88.134613000000186
 31
0.0
  0
LINE
  5
CB
  8
DETAIL
  6
CONTINUOUS
 62
     5
 10
-193.352801
 20
-119.8432480000001
 30
0.0
 11
-210.11123099999989
 21
-103.0848170000008
 31
0.0
  0
LINE
  5
CD
  8
DETAIL
  6
CONTINUOUS
 62
     5
 10
-228.65943799999971
 20
138.48199199999911
 30
0.0
 11
-226.5876589999998
 21
121.60870799999969
 31
0.0
  0
LINE
  5
CE
  8
DETAIL
  6
CONTINUOUS
 62
     5
 10
-191.97572000000031
 20
-102.99829600000059
 30
0.0
 11
-191.97572000000031
 21
-101.99829600000059
 31
0.0
  0
LINE
  5
CF
  8
DETAIL
  6
CONTINUOUS
 62
     5
 10
-190.22572000000031
 20
-104.74829600000059
 30
0.0
 11
-190.22572000000031
 21
-102.99829600000059
 31
0.0
  0
LINE
  5
D0
  8
DETAIL
  6
CONTINUOUS
 62
     5
 10
-190.22572000000031
 20
-101.99829600000059
 30
0.0
 11
-190.22572000000031
 21
-100.24829600000059
 31
0.0
  0
LINE
  5
D1
  8
DETAIL
  6
CONTINUOUS
 62
     5
 10
-189.22572000000031
 20
-100.24829600000059
 30
0.0
 11
-189.22572000000031
 21
-101.99829600000059
 31
0.0
  0
LINE
  5
D2
  8
DETAIL
  6
CONTINUOUS
 62
     5
 10
-189.22572000000031
 20
-102.99829600000059
 30
0.0
 11
-189.22572000000031
 21
-104.74829600000059
 31
0.0
  0
LINE
  5
D3
  8
DETAIL
  6
CONTINUOUS
 62
     5
 10
-187.47572000000031
 20
-101.99829600000059
 30
0.0
 11
-187.47572000000031
 21
-102.99829600000059
 31
0.0
  0
LINE
  5
D4
  8
DETAIL
  6
CONTINUOUS
 62
     5
 10
-178.12564800000021
 20
139.96102999999951
 30
0.0
 11
-182.1093650000002
 21
137.6610299999993
 31
0.0
  0
LINE
  5
D5
  8
DETAIL
  6
CONTINUOUS
 62
     5
 10
-178.12564800000021
 20
130.76102999999961
 30
0.0
 11
-174.14193100000011
 21
133.06102999999979
 31
0.0
  0
LINE
  5
D7
  8
DETAIL
  6
CONTINUOUS
 62
     5
 10
51.300000000000182
 20
-179.80000000000001
 30
0.0
 11
-96.700000000000017
 21
-179.8000000000001
 31
0.0
  0
LINE
  5
D8
  8
DETAIL
  6
CONTINUOUS
 62
     5
 10
-170.9873909999996
 20
-107.8015970000006
 30
0.0
 11
-172.61373600000019
 21
-106.1752510000006
 31
0.0
  0
LINE
  5
D9
  8
DETAIL
  6
CONTINUOUS
 62
     5
 10
-159.5
 20
-104.5
 30
0.0
 11
-151.25
 21
-117.5
 31
0.0
  0
LINE
  5
DA
  8
DETAIL
  6
CONTINUOUS
 62
     5
 10
-194.62588400000001
 20
-0.7100700000000871
 30
0.0
 11
-194.87203099999971
 21
0.1374759999998787
 31
0.0
  0
LINE
  5
DB
  8
DETAIL
  6
CONTINUOUS
 62
     5
 10
-197.2180459999999
 20
-0.3684160000002521
 30
0.0
 11
-197.0430530000003
 21
-1.0501460000004941
 31
0.0
  0
LINE
  5
DC
  8
DETAIL
  6
CONTINUOUS
 62
     5
 10
-197.0430530000003
 20
-1.0501460000004941
 30
0.0
 11
-196.2827450000004
 21
-2.8110730000007602
 31
0.0
  0
LINE
  5
DD
  8
DETAIL
  6
CONTINUOUS
 62
     5
 10
-196.2827450000004
 20
-2.8110730000007602
 30
0.0
 11
-195.10485499999959
 21
-4.446636000000578
 31
0.0
  0
LINE
  5
DE
  8
DETAIL
  6
CONTINUOUS
 62
     5
 10
-195.10485499999959
 20
-4.446636000000578
 30
0.0
 11
-193.52468200000021
 21
-5.9227020000007524
 31
0.0
  0
LINE
  5
DF
  8
DETAIL
  6
CONTINUOUS
 62
     5
 10
-193.52468200000021
 20
-5.9227020000007524
 30
0.0
 11
-191.7356929999994
 21
-7.1017070000007152
 31
0.0
  0
LINE
  5
E0
  8
DETAIL
  6
CONTINUOUS
 62
     5
 10
-197.31868300000039
 20
0.2091939999991155
 30
0.0
 11
-197.2143189999997
 21
-0.3859570000004169
 31
0.0
  0
LINE
  5
E1
  8
DETAIL
  6
CONTINUOUS
 62
     5
 10
-194.86509599999951
 20
0.104856999999356
 30
0.0
 11
-194.98030399999971
 21
0.9089449999992211
 31
0.0
  0
LINE
  5
E2
  8
DETAIL
  6
CONTINUOUS
 62
     5
 10
-194.98030399999971
 20
0.9089449999992211
 30
0.0
 11
-194.87119999999959
 21
2.6262719999995161
 31
0.0
  0
LINE
  5
E3
  8
DETAIL
  6
CONTINUOUS
 62
     5
 10
-194.87119999999959
 20
2.6262719999995161
 30
0.0
 11
-194.3091350000004
 21
4.385473999999701
 31
0.0
  0
LINE
  5
E4
  8
DETAIL
  6
CONTINUOUS
 62
     5
 10
-194.3091350000004
 20
4.385473999999701
 30
0.0
 11
-193.3145270000004
 21
6.1666819999991267
 31
0.0
  0
LINE
  5
E5
  8
DETAIL
  6
CONTINUOUS
 62
     5
 10
-193.3145270000004
 20
6.1666819999991267
 30
0.0
 11
-191.9095649999999
 21
7.938178999999761
 31
0.0
  0
LINE
  5
E6
  8
DETAIL
  6
CONTINUOUS
 62
     5
 10
-191.9095649999999
 20
7.938178999999761
 30
0.0
 11
-190.0887860000002
 21
9.697016000000076
 31
0.0
  0
LINE
  5
E7
  8
DETAIL
  6
CONTINUOUS
 62
     5
 10
-190.0887860000002
 20
9.697016000000076
 30
0.0
 11
-187.8920550000002
 21
11.390166999999559
 31
0.0
  0
LINE
  5
E8
  8
DETAIL
  6
CONTINUOUS
 62
     5
 10
-187.8920550000002
 20
11.390166999999559
 30
0.0
 11
-185.36637499999921
 21
12.97696599999926
 31
0.0
  0
LINE
  5
E9
  8
DETAIL
  6
CONTINUOUS
 62
     5
 10
-185.36637499999921
 20
12.97696599999926
 30
0.0
 11
-182.54197500000001
 21
14.434361999999959
 31
0.0
  0
LINE
  5
EA
  8
DETAIL
  6
CONTINUOUS
 62
     5
 10
-182.54197500000001
 20
14.434361999999959
 30
0.0
 11
-179.4737999999997
 21
15.729133999999251
 31
0.0
  0
LINE
  5
EB
  8
DETAIL
  6
CONTINUOUS
 62
     5
 10
-179.4737999999997
 20
15.729133999999251
 30
0.0
 11
-176.2292290000004
 21
16.830913999999211
 31
0.0
  0
LINE
  5
EC
  8
DETAIL
  6
CONTINUOUS
 62
     5
 10
-176.2292290000004
 20
16.830913999999211
 30
0.0
 11
-173.02077300000019
 21
17.683917999999721
 31
0.0
  0
LINE
  5
ED
  8
DETAIL
  6
CONTINUOUS
 62
     5
 10
-223.0521769999996
 20
150.25308599999971
 30
0.0
 11
-221.7116139999998
 21
139.33507800000001
 31
0.0
  0
LINE
  5
EE
  8
DETAIL
  6
CONTINUOUS
 62
     5
 10
-206.67516599999999
 20
152.26392999999911
 30
0.0
 11
-203.26282400000039
 21
124.47263699999981
 31
0.0
  0
LINE
  5
EF
  8
DETAIL
  6
DASHED
 62
     5
 10
-181.7612639999997
 20
-35.823347000000467
 30
0.0
 11
-181.56627300000031
 21
-37.411420000000341
 31
0.0
  0
LINE
  5
F0
  8
DETAIL
  6
CONTINUOUS
 62
     5
 10
-164.50571899999969
 20
-23.752819000000269
 30
0.0
 11
-164.92438800000031
 21
-15.764141999999991
 31
0.0
  0
LINE
  5
F1
  8
DETAIL
  6
CONTINUOUS
 62
     5
 10
-182.1093650000002
 20
137.6610299999993
 30
0.0
 11
-182.1093650000002
 21
133.06102999999979
 31
0.0
  0
LINE
  5
F2
  8
DETAIL
  6
CONTINUOUS
 62
     5
 10
-174.14193100000011
 20
133.06102999999979
 30
0.0
 11
-174.14193100000011
 21
137.6610299999993
 31
0.0
  0
LINE
  5
F3
  8
DETAIL
  6
DASHED
 62
     5
 10
-177.3218260000003
 20
20.910288999999469
 30
0.0
 11
-177.41827000000001
 21
19.081351999999239
 31
0.0
  0
LINE
  5
F4
  8
DETAIL
  6
CONTINUOUS
 62
     5
 10
-188.750653
 20
-160.2130910000005
 30
0.0
 11
-188.9950390000003
 21
-162.63226300000039
 31
0.0
  0
LINE
  5
F5
  8
DETAIL
  6
CONTINUOUS
 62
     5
 10
-189.27746099999959
 20
-165.42795300000029
 30
0.0
 11
-189.3215719999998
 21
-165.8646040000003
 31
0.0
  0
LINE
  5
F6
  8
DETAIL
  6
CONTINUOUS
 62
     5
 10
240.0
 20
-178.4000000000004
 30
0.0
 11
238.39999999999961
 21
-178.4000000000004
 31
0.0
  0
LINE
  5
F7
  8
DETAIL
  6
CONTINUOUS
 62
     5
 10
237.0
 20
-162.0
 30
0.0
 11
229.68651700000009
 21
-162.0
 31
0.0
  0
LINE
  5
F8
  8
DETAIL
  6
CONTINUOUS
 62
     5
 10
220.3134819999996
 20
-162.0
 30
0.0
 11
202.01623699999971
 21
-162.0
 31
0.0
  0
LINE
  5
F9
  8
DETAIL
  6
CONTINUOUS
 62
     5
 10
181.9795350000004
 20
-162.0
 30
0.0
 11
134.0
 21
-162.0
 31
0.0
  0
LINE
  5
FA
  8
DETAIL
  6
DASHED
 62
     5
 10
-194.98380100000031
 20
-36.753886000000414
 30
0.0
 11
-190.64209099999971
 21
-42.515530000000567
 31
0.0
  0
LINE
  5
FB
  8
DETAIL
  6
DASHED
 62
     5
 10
-202.82007200000041
 20
-25.025489999999991
 30
0.0
 11
-194.34489199999999
 21
-36.27243400000043
 31
0.0
  0
LINE
  5
FC
  8
DETAIL
  6
DASHED
 62
     5
 10
-189.16928300000001
 20
-43.140699000000488
 30
0.0
 11
-185.1808799999998
 21
-48.433488000000573
 31
0.0
  0
LINE
  5
FD
  8
DETAIL
  6
DASHED
 62
     5
 10
-159.5
 20
-82.513167000000067
 30
0.0
 11
-164.1377860000002
 21
-76.358618000000192
 31
0.0
  0
LINE
  5
FE
  8
DETAIL
  6
DASHED
 62
     5
 10
-198.4409111026126
 20
-15.01802007164661
 30
0.0
 11
-196.02792400000001
 21
-18.220161000000189
 31
0.0
  0
LINE
  5
FF
  8
DETAIL
  6
DASHED
 62
     5
 10
-191.41833200000011
 20
-24.337297000000039
 30
0.0
 11
-186.7418820000002
 21
-30.543155000000301
 31
0.0
  0
LINE
  5
100
  8
DETAIL
  6
DASHED
 62
     5
 10
-181.56627300000031
 20
-37.411420000000341
 30
0.0
 11
-177.57786999999999
 21
-42.704209000000432
 31
0.0
  0
LINE
  5
101
  8
DETAIL
  6
DASHED
 62
     5
 10
-186.1029740000003
 20
-30.06170300000031
 30
0.0
 11
-181.7612639999997
 21
-35.823347000000467
 31
0.0
  0
LINE
  5
102
  8
DETAIL
  6
CONTINUOUS
 62
     5
 10
-143.76329600000011
 20
10.67133699999976
 30
0.0
 11
-143.91913199999999
 21
12.45660399999997
 31
0.0
  0
LINE
  5
103
  8
DETAIL
  6
CONTINUOUS
 62
     5
 10
-146.26658899999981
 20
11.957562999999929
 30
0.0
 11
-146.17735499999981
 21
10.48300199999994
 31
0.0
  0
LINE
  5
104
  8
DETAIL
  6
CONTINUOUS
 62
     5
 10
-146.17735499999981
 20
10.48300199999994
 30
0.0
 11
-146.50704299999961
 21
8.9523259999996299
 31
0.0
  0
LINE
  5
105
  8
DETAIL
  6
CONTINUOUS
 62
     5
 10
-146.50704299999961
 20
8.9523259999996299
 30
0.0
 11
-147.24255699999941
 21
7.3812979999993331
 31
0.0
  0
LINE
  5
106
  8
DETAIL
  6
CONTINUOUS
 62
     5
 10
-147.24255699999941
 20
7.3812979999993331
 30
0.0
 11
-148.36333699999969
 21
5.7990049999998492
 31
0.0
  0
LINE
  5
107
  8
DETAIL
  6
CONTINUOUS
 62
     5
 10
-148.36333699999969
 20
5.7990049999998492
 30
0.0
 11
-149.85341700000021
 21
4.2308849999999421
 31
0.0
  0
LINE
  5
108
  8
DETAIL
  6
CONTINUOUS
 62
     5
 10
-149.85341700000021
 20
4.2308849999999421
 30
0.0
 11
-151.70949900000051
 21
2.6895979999999322
 31
0.0
  0
LINE
  5
109
  8
DETAIL
  6
CONTINUOUS
 62
     5
 10
-151.70949900000051
 20
2.6895979999999322
 30
0.0
 11
-153.89750400000051
 21
1.215758999999706
 31
0.0
  0
LINE
  5
10A
  8
DETAIL
  6
CONTINUOUS
 62
     5
 10
-153.89750400000051
 20
1.215758999999706
 30
0.0
 11
-156.3713250000001
 21
-0.1540820000009262
 31
0.0
  0
LINE
  5
10B
  8
DETAIL
  6
CONTINUOUS
 62
     5
 10
-156.3713250000001
 20
-0.1540820000009262
 30
0.0
 11
-158.7322000000004
 21
-1.231094000000666
 31
0.0
  0
LINE
  5
10C
  8
DETAIL
  6
CONTINUOUS
 62
     5
 10
-167.27845400000021
 20
-3.909707000000707
 30
0.0
 11
-168.2035070000002
 21
-4.1220480000001771
 31
0.0
  0
LINE
  5
10D
  8
DETAIL
  6
CONTINUOUS
 62
     5
 10
-157.51531199999951
 20
-23.38646700000027
 30
0.0
 11
-157.9339810000001
 21
-15.39779000000089
 31
0.0
  0
LINE
  5
10E
  8
DETAIL
  6
CONTINUOUS
 62
     5
 10
-159.5
 20
-104.5
 30
0.0
 11
-159.5
 21
-78.555260000000089
 31
0.0
  0
LINE
  5
10F
  8
DETAIL
  6
CONTINUOUS
 62
     5
 10
-147.60000000000031
 20
-39.0
 30
0.0
 11
-147.60000000000031
 21
-31.751471999999922
 31
0.0
  0
LINE
  5
111
  8
DETAIL
  6
CONTINUOUS
 62
     5
 10
-146.17500000000021
 20
-21.966194000000549
 30
0.0
 11
-146.17500000000021
 21
-30.326472000000649
 31
0.0
  0
LINE
  5
14D
  8
DETAIL
  6
CONTINUOUS
 62
     5
 10
-182.381351
 20
-172.80482500000011
 30
0.0
 11
-174.6612400000003
 21
-172.02493600000071
 31
0.0
  0
LINE
  5
14E
  8
DETAIL
  6
CONTINUOUS
 62
     5
 10
215.5
 20
-157.25
 30
0.0
 11
214.5
 21
-157.25
 31
0.0
  0
LINE
  5
14F
  8
DETAIL
  6
CONTINUOUS
 62
     5
 10
156.5
 20
-157.25
 30
0.0
 11
155.5
 21
-157.25
 31
0.0
  0
LINE
  5
150
  8
DETAIL
  6
CONTINUOUS
 62
     5
 10
217.25
 20
-155.5
 30
0.0
 11
215.5
 21
-155.5
 31
0.0
  0
LINE
  5
151
  8
DETAIL
  6
CONTINUOUS
 62
     5
 10
214.5
 20
-155.5
 30
0.0
 11
212.75
 21
-155.5
 31
0.0
  0
LINE
  5
152
  8
DETAIL
  6
CONTINUOUS
 62
     5
 10
158.25
 20
-155.5
 30
0.0
 11
156.5
 21
-155.5
 31
0.0
  0
LINE
  5
153
  8
DETAIL
  6
CONTINUOUS
 62
     5
 10
155.5
 20
-155.5
 30
0.0
 11
153.75
 21
-155.5
 31
0.0
  0
LINE
  5
154
  8
DETAIL
  6
CONTINUOUS
 62
     5
 10
153.75
 20
-154.5
 30
0.0
 11
155.5
 21
-154.5
 31
0.0
  0
LINE
  5
155
  8
DETAIL
  6
CONTINUOUS
 62
     5
 10
156.5
 20
-154.5
 30
0.0
 11
158.25
 21
-154.5
 31
0.0
  0
LINE
  5
156
  8
DETAIL
  6
CONTINUOUS
 62
     5
 10
212.75
 20
-154.5
 30
0.0
 11
214.5
 21
-154.5
 31
0.0
  0
LINE
  5
157
  8
DETAIL
  6
CONTINUOUS
 62
     5
 10
215.5
 20
-154.5
 30
0.0
 11
217.25
 21
-154.5
 31
0.0
  0
LINE
  5
158
  8
DETAIL
  6
CONTINUOUS
 62
     5
 10
155.5
 20
-152.75
 30
0.0
 11
156.5
 21
-152.75
 31
0.0
  0
LINE
  5
159
  8
DETAIL
  6
CONTINUOUS
 62
     5
 10
214.5
 20
-152.75
 30
0.0
 11
215.5
 21
-152.75
 31
0.0
  0
LINE
  5
15D
  8
DETAIL
  6
CONTINUOUS
 62
     5
 10
143.0
 20
-149.2000000000007
 30
0.0
 11
134.19999999999979
 21
-149.2000000000007
 31
0.0
  0
LINE
  5
160
  8
DETAIL
  6
CONTINUOUS
 62
     5
 10
220.2349999999997
 20
-148.5337200000003
 30
0.0
 11
229.7650000000003
 21
-148.5337200000003
 31
0.0
  0
LINE
  5
161
  8
DETAIL
  6
CONTINUOUS
 62
     5
 10
143.0
 20
-148.2000000000007
 30
0.0
 11
134.19999999999979
 21
-148.2000000000007
 31
0.0
  0
LINE
  5
162
  8
DETAIL
  6
CONTINUOUS
 62
     5
 10
143.0
 20
-148.2000000000007
 30
0.0
 11
176.23721599999951
 21
-148.2000000000007
 31
0.0
  0
LINE
  5
163
  8
DETAIL
  6
CONTINUOUS
 62
     5
 10
185.76721599999999
 20
-148.2000000000007
 30
0.0
 11
198.23499999999959
 21
-148.2000000000007
 31
0.0
  0
LINE
  5
164
  8
DETAIL
  6
CONTINUOUS
 62
     5
 10
207.7650000000003
 20
-148.2000000000007
 30
0.0
 11
220.2349999999997
 21
-148.2000000000007
 31
0.0
  0
LINE
  5
165
  8
DETAIL
  6
CONTINUOUS
 62
     5
 10
229.7650000000003
 20
-148.2000000000007
 30
0.0
 11
237.0
 21
-148.2000000000007
 31
0.0
  0
LINE
  5
166
  8
DETAIL
  6
CONTINUOUS
 62
     5
 10
119.0
 20
-148.0
 30
0.0
 11
238.5
 21
-148.0
 31
0.0
  0
LINE
  5
167
  8
DETAIL
  6
CONTINUOUS
 62
     5
 10
205.17584600000009
 20
-140.7000000000007
 30
0.0
 11
202.5
 21
-140.7000000000007
 31
0.0
  0
LINE
  5
168
  8
DETAIL
  6
CONTINUOUS
 62
     5
 10
201.5
 20
-140.7000000000007
 30
0.0
 11
198.8241529999996
 21
-140.7000000000007
 31
0.0
  0
LINE
  5
169
  8
DETAIL
  6
CONTINUOUS
 62
     5
 10
198.8241529999996
 20
-139.7000000000007
 30
0.0
 11
201.5
 21
-139.7000000000007
 31
0.0
  0
LINE
  5
16A
  8
DETAIL
  6
CONTINUOUS
 62
     5
 10
202.5
 20
-139.7000000000007
 30
0.0
 11
205.17584600000009
 21
-139.7000000000007
 31
0.0
  0
LINE
  5
16B
  8
DETAIL
  6
DASHED
 62
     5
 10
-156.2943763146103
 20
-67.326132530044816
 30
0.0
 11
-182.15297900000041
 21
-51.86893500000042
 31
0.0
  0
LINE
  5
16C
  8
DETAIL
  6
CONTINUOUS
 62
     5
 10
-139.82499999999979
 20
-7.966106000000762
 30
0.0
 11
-139.82499999999979
 21
-15.27469100000053
 31
0.0
  0
LINE
  5
16D
  8
DETAIL
  6
CONTINUOUS
 62
     5
 10
-139.82499999999979
 20
-21.633405000000501
 30
0.0
 11
-139.82499999999979
 21
-30.326472000000649
 31
0.0
  0
LINE
  5
16E
  8
DETAIL
  6
CONTINUOUS
 62
     5
 10
-138.39999999999961
 20
-39.0
 30
0.0
 11
-138.39999999999961
 21
-31.751471999999922
 31
0.0
  0
LINE
  5
171
  8
DETAIL
  6
CONTINUOUS
 62
     5
 10
-159.9022729999997
 20
46.626871999999807
 30
0.0
 11
-182.31505600000031
 21
26.459444000000079
 31
0.0
  0
LINE
  5
173
  8
DETAIL
  6
CONTINUOUS
 62
     5
 10
-177.41827000000001
 20
19.081351999999239
 30
0.0
 11
-177.63731499999989
 21
18.884250999999491
 31
0.0
  0
LINE
  5
174
  8
DETAIL
  6
DASHED
 62
     5
 10
-182.63730000000021
 20
14.38517399999909
 30
0.0
 11
-194.53461200000021
 21
3.6797569999998792
 31
0.0
  0
LINE
  5
175
  8
DETAIL
  6
CONTINUOUS
 62
     5
 10
-14.25627799999984
 20
160.08165899999941
 30
0.0
 11
-18.239994999999912
 21
157.78165899999931
 31
0.0
  0
LINE
  5
176
  8
DETAIL
  6
CONTINUOUS
 62
     5
 10
-14.25627799999984
 20
150.88165899999959
 30
0.0
 11
-10.27256099999977
 21
153.1816589999998
 31
0.0
  0
LINE
  5
178
  8
DETAIL
  6
DASHED
 62
     5
 10
-93.901030000000006
 20
-93.531109000000455
 30
0.0
 11
-119.6512490000004
 21
-78.138700000000426
 31
0.0
  0
LINE
  5
179
  8
DETAIL
  6
DASHED
 62
     5
 10
-151.40985100000029
 20
-59.154729000000771
 30
0.0
 11
-177.26845399999999
 21
-43.69753200000013
 31
0.0
  0
LINE
  5
17A
  8
DETAIL
  6
CONTINUOUS
 62
     5
 10
-110.89123499999999
 20
-81.863676000000837
 30
0.0
 11
-110.9485029999996
 21
-81.808719000000565
 31
0.0
  0
LINE
  5
17B
  8
DETAIL
  6
CONTINUOUS
 62
     5
 10
-138.39999999999961
 20
-31.751471999999922
 30
0.0
 11
-139.82499999999979
 21
-30.326472000000649
 31
0.0
  0
LINE
  5
17C
  8
DETAIL
  6
CONTINUOUS
 62
     5
 10
-183.7861030000004
 20
26.158151999999969
 30
0.0
 11
-177.41827000000001
 21
19.081351999999239
 31
0.0
  0
LINE
  5
17D
  8
DETAIL
  6
CONTINUOUS
 62
     5
 10
-176.9639360000001
 20
20.512552999999571
 30
0.0
 11
-182.31505600000031
 21
26.459444000000079
 31
0.0
  0
LINE
  5
17E
  8
DETAIL
  6
CONTINUOUS
 62
     5
 10
-146.49071499999991
 20
12.70880599999964
 30
0.0
 11
-146.26288199999999
 21
11.93999099999928
 31
0.0
  0
LINE
  5
17F
  8
DETAIL
  6
CONTINUOUS
 62
     5
 10
-143.91708000000011
 20
12.4469139999992
 30
0.0
 11
-144.0750459999999
 21
13.06093299999975
 31
0.0
  0
LINE
  5
180
  8
DETAIL
  6
CONTINUOUS
 62
     5
 10
-144.0750459999999
 20
13.06093299999975
 30
0.0
 11
-144.80822400000031
 21
14.71937099999923
 31
0.0
  0
LINE
  5
181
  8
DETAIL
  6
CONTINUOUS
 62
     5
 10
-144.80822400000031
 20
14.71937099999923
 30
0.0
 11
-145.96310499999981
 21
16.251800999999428
 31
0.0
  0
LINE
  5
182
  8
DETAIL
  6
CONTINUOUS
 62
     5
 10
-145.96310499999981
 20
16.251800999999428
 30
0.0
 11
-147.526194
 21
17.622814999999719
 31
0.0
  0
LINE
  5
183
  8
DETAIL
  6
CONTINUOUS
 62
     5
 10
-147.526194
 20
17.622814999999719
 30
0.0
 11
-149.4848099999999
 21
18.81221000000005
 31
0.0
  0
LINE
  5
184
  8
DETAIL
  6
CONTINUOUS
 62
     5
 10
-149.4848099999999
 20
18.81221000000005
 30
0.0
 11
-151.80850699999971
 21
19.792697999999291
 31
0.0
  0
LINE
  5
185
  8
DETAIL
  6
CONTINUOUS
 62
     5
 10
-151.80850699999971
 20
19.792697999999291
 30
0.0
 11
-154.43732800000001
 21
20.541181999999921
 31
0.0
  0
LINE
  5
186
  8
DETAIL
  6
CONTINUOUS
 62
     5
 10
-154.43732800000001
 20
20.541181999999921
 30
0.0
 11
-157.31075700000019
 21
21.047976999999261
 31
0.0
  0
LINE
  5
187
  8
DETAIL
  6
CONTINUOUS
 62
     5
 10
-157.31075700000019
 20
21.047976999999261
 30
0.0
 11
-160.37309900000031
 21
21.311696999999189
 31
0.0
  0
LINE
  5
188
  8
DETAIL
  6
CONTINUOUS
 62
     5
 10
-160.37309900000031
 20
21.311696999999189
 30
0.0
 11
-163.60007099999979
 21
21.335010999999209
 31
0.0
  0
LINE
  5
189
  8
DETAIL
  6
CONTINUOUS
 62
     5
 10
-163.60007099999979
 20
21.335010999999209
 30
0.0
 11
-166.9404320000003
 21
21.117977999999319
 31
0.0
  0
LINE
  5
18A
  8
DETAIL
  6
CONTINUOUS
 62
     5
 10
-166.9404320000003
 20
21.117977999999319
 30
0.0
 11
-170.33236099999979
 21
20.665186999999602
 31
0.0
  0
LINE
  5
18B
  8
DETAIL
  6
CONTINUOUS
 62
     5
 10
-170.33236099999979
 20
20.665186999999602
 30
0.0
 11
-173.5616650000002
 21
20.022172999999391
 31
0.0
  0
LINE
  5
18C
  8
DETAIL
  6
CONTINUOUS
 62
     5
 10
-146.26877099999999
 20
11.96776899999986
 30
0.0
 11
-146.26658899999981
 21
11.957562999999929
 31
0.0
  0
LINE
  5
18D
  8
DETAIL
  6
CONTINUOUS
 62
     5
 10
-143.91913199999999
 20
12.45660399999997
 30
0.0
 11
-143.92241699999971
 21
12.47197400000004
 31
0.0
  0
LINE
  5
197
  8
DETAIL
  6
CONTINUOUS
 62
     5
 10
52.300000000000182
 20
-111.60000000000031
 30
0.0
 11
51.5
 21
-111.60000000000031
 31
0.0
  0
LINE
  5
199
  8
DETAIL
  6
CONTINUOUS
 62
     5
 10
-70.0
 20
-110.8000000000002
 30
0.0
 11
51.5
 21
-110.8000000000002
 31
0.0
  0
LINE
  5
19A
  8
DETAIL
  6
CONTINUOUS
 62
     5
 10
16.0
 20
-110.0
 30
0.0
 11
32.949999999999811
 21
-110.0
 31
0.0
  0
LINE
  5
19B
  8
DETAIL
  6
CONTINUOUS
 62
     5
 10
33.050000000000189
 20
-110.0
 30
0.0
 11
50.0
 21
-110.0
 31
0.0
  0
LINE
  5
19C
  8
DETAIL
  6
CONTINUOUS
 62
     5
 10
50.0
 20
-109.8000000000002
 30
0.0
 11
34.699999999999811
 21
-109.8000000000002
 31
0.0
  0
LINE
  5
19D
  8
DETAIL
  6
CONTINUOUS
 62
     5
 10
16.0
 20
-109.8000000000002
 30
0.0
 11
31.300000000000178
 21
-109.8000000000002
 31
0.0
  0
LINE
  5
19E
  8
DETAIL
  6
CONTINUOUS
 62
     5
 10
-189.22572000000031
 20
-104.74829600000059
 30
0.0
 11
-190.22572000000031
 21
-104.74829600000059
 31
0.0
  0
LINE
  5
19F
  8
DETAIL
  6
CONTINUOUS
 62
     5
 10
-187.47572000000031
 20
-102.99829600000059
 30
0.0
 11
-189.22572000000031
 21
-102.99829600000059
 31
0.0
  0
LINE
  5
1A0
  8
DETAIL
  6
CONTINUOUS
 62
     5
 10
-190.22572000000031
 20
-102.99829600000059
 30
0.0
 11
-191.97572000000031
 21
-102.99829600000059
 31
0.0
  0
LINE
  5
1A1
  8
DETAIL
  6
CONTINUOUS
 62
     5
 10
-191.97572000000031
 20
-101.99829600000059
 30
0.0
 11
-190.22572000000031
 21
-101.99829600000059
 31
0.0
  0
LINE
  5
1A2
  8
DETAIL
  6
CONTINUOUS
 62
     5
 10
-189.22572000000031
 20
-101.99829600000059
 30
0.0
 11
-187.47572000000031
 21
-101.99829600000059
 31
0.0
  0
LINE
  5
1A3
  8
DETAIL
  6
CONTINUOUS
 62
     5
 10
-190.22572000000031
 20
-100.24829600000059
 30
0.0
 11
-189.22572000000031
 21
-100.24829600000059
 31
0.0
  0
LINE
  5
1A5
  8
DETAIL
  6
CONTINUOUS
 62
     5
 10
-190.64209099999971
 20
-42.515530000000567
 30
0.0
 11
-189.16928300000001
 21
-43.140699000000488
 31
0.0
  0
LINE
  5
1A6
  8
DETAIL
  6
CONTINUOUS
 62
     5
 10
-119.131832
 20
-1.7848150000008891
 30
0.0
 11
-120.7015650000003
 21
5.6001999999998571
 31
0.0
  0
LINE
  5
1A7
  8
DETAIL
  6
CONTINUOUS
 62
     5
 10
-112.0417010000001
 20
-0.2777610000002824
 30
0.0
 11
-113.6114349999998
 21
7.107252999999214
 31
0.0
  0
LINE
  5
1A8
  8
DETAIL
  6
CONTINUOUS
 62
     5
 10
-111.5795600000001
 20
0.4338739999993777
 30
0.0
 11
-112.8997989999998
 21
6.6451119999992443
 31
0.0
  0
LINE
  5
1A9
  8
DETAIL
  6
CONTINUOUS
 62
     5
 10
-97.700000000000017
 20
-130.5
 30
0.0
 11
-97.700000000000017
 21
-178.80000000000021
 31
0.0
  0
LINE
  5
1AB
  8
DETAIL
  6
CONTINUOUS
 62
     5
 10
-112.0417010000001
 20
-0.2777610000002824
 30
0.0
 11
-111.5795600000001
 21
0.4338739999993777
 31
0.0
  0
LINE
  5
1AC
  8
DETAIL
  6
DASHED
 62
     5
 10
-194.9831130000002
 20
-36.753368000000599
 30
0.0
 11
-186.1036610000001
 21
-30.06222100000014
 31
0.0
  0
LINE
  5
1CA
  8
DETAIL
  6
CONTINUOUS
 62
     5
 10
56.208287999999811
 20
116.1096049999996
 30
0.0
 11
104.1129490000003
 21
130.04856799999919
 31
0.0
  0
LINE
  5
1CB
  8
DETAIL
  6
CONTINUOUS
 62
     5
 10
58.049564975942083
 20
110.03289321411749
 30
0.0
 11
105.8870509999997
 21
123.9514319999998
 31
0.0
  0
LINE
  5
1CC
  8
DETAIL
  6
CONTINUOUS
 62
     5
 10
17.199999999999822
 20
-83.0
 30
0.0
 11
27.166068999999879
 21
-83.0
 31
0.0
  0
LINE
  5
1CD
  8
DETAIL
  6
CONTINUOUS
 62
     5
 10
33.966846999999689
 20
-83.0
 30
0.0
 11
49.800000000000182
 21
-83.0
 31
0.0
  0
LINE
  5
1CE
  8
DETAIL
  6
CONTINUOUS
 62
     5
 10
-155.475289
 20
-80.700000000000728
 30
0.0
 11
-159.5
 21
-80.700000000000728
 31
0.0
  0
LINE
  5
1CF
  8
DETAIL
  6
CONTINUOUS
 62
     5
 10
79.0
 20
-76.300000000000196
 30
0.0
 11
77.399999999999622
 21
-76.300000000000196
 31
0.0
  0
LINE
  5
1D3
  8
DETAIL
  6
CONTINUOUS
 62
     5
 10
-76.379903000000013
 20
-1.6483880000005211
 30
0.0
 11
-76.379903000000013
 21
-0.6483880000005229
 31
0.0
  0
LINE
  5
1D4
  8
DETAIL
  6
CONTINUOUS
 62
     5
 10
-74.629903000000013
 20
-3.3983880000005202
 30
0.0
 11
-74.629903000000013
 21
-1.6483880000005211
 31
0.0
  0
LINE
  5
1D5
  8
DETAIL
  6
CONTINUOUS
 62
     5
 10
-74.629903000000013
 20
-0.6483880000005229
 30
0.0
 11
-74.629903000000013
 21
1.101611999999474
 31
0.0
  0
LINE
  5
1D6
  8
DETAIL
  6
CONTINUOUS
 62
     5
 10
-73.629903000000013
 20
1.101611999999474
 30
0.0
 11
-73.629903000000013
 21
-0.6483880000005229
 31
0.0
  0
LINE
  5
1D7
  8
DETAIL
  6
CONTINUOUS
 62
     5
 10
-73.629903000000013
 20
-1.6483880000005211
 30
0.0
 11
-73.629903000000013
 21
-3.3983880000005202
 31
0.0
  0
LINE
  5
1D8
  8
DETAIL
  6
CONTINUOUS
 62
     5
 10
-71.879903000000013
 20
-0.6483880000005229
 30
0.0
 11
-71.879903000000013
 21
-1.6483880000005211
 31
0.0
  0
LINE
  5
1DA
  8
DETAIL
  6
CONTINUOUS
 62
     5
 10
-147.60000000000031
 20
-31.751471999999922
 30
0.0
 11
-146.17500000000021
 21
-30.326472000000649
 31
0.0
  0
LINE
  5
1DC
  8
DETAIL
  6
DASHED
 62
     5
 10
-190.64209099999971
 20
-42.515530000000567
 30
0.0
 11
-181.7612639999997
 21
-35.823347000000467
 31
0.0
  0
LINE
  5
1DD
  8
DETAIL
  6
DASHED
 62
     5
 10
-189.16928300000001
 20
-43.140699000000488
 30
0.0
 11
-181.56627300000031
 21
-37.411420000000341
 31
0.0
  0
LINE
  5
1F6
  8
DETAIL
  6
CONTINUOUS
 62
     5
 10
-190.3821669999997
 20
-5.0893329999998951
 30
0.0
 11
-190.93218100000001
 21
-4.8050350000003164
 31
0.0
  0
LINE
  5
1F7
  8
DETAIL
  6
CONTINUOUS
 62
     5
 10
-190.93218100000001
 20
-4.8050350000003164
 30
0.0
 11
-192.57184099999989
 21
-3.592696000000613
 31
0.0
  0
LINE
  5
1F8
  8
DETAIL
  6
CONTINUOUS
 62
     5
 10
-192.57184099999989
 20
-3.592696000000613
 30
0.0
 11
-193.81228600000031
 21
-2.224325000000134
 31
0.0
  0
LINE
  5
1F9
  8
DETAIL
  6
CONTINUOUS
 62
     5
 10
-193.81228600000031
 20
-2.224325000000134
 30
0.0
 11
-194.62588400000001
 21
-0.7100700000000871
 31
0.0
  0
LINE
  5
1FA
  8
DETAIL
  6
CONTINUOUS
 62
     5
 10
-84.703531000000112
 20
-32.08921600000032
 30
0.0
 11
-97.846755999999914
 21
-27.04400400000031
 31
0.0
  0
LINE
  5
1FB
  8
DETAIL
  6
CONTINUOUS
 62
     5
 10
-82.444478999999774
 20
-26.154613000000609
 30
0.0
 11
-101.95475499999969
 21
-18.665320000000062
 31
0.0
  0
LINE
  5
1FC
  8
DETAIL
  6
CONTINUOUS
 62
     5
 10
-113.6114349999998
 20
7.107252999999214
 30
0.0
 11
-112.8997989999998
 21
6.6451119999992443
 31
0.0
  0
LINE
  5
1FF
  8
DETAIL
  6
CONTINUOUS
 62
     5
 10
-77.244391999999579
 20
-13.192472000000629
 30
0.0
 11
-76.237479000000349
 21
-14.43590600000061
 31
0.0
  0
LINE
  5
200
  8
DETAIL
  6
CONTINUOUS
 62
     5
 10
-3.8656339999997722
 20
-103.80769100000001
 30
0.0
 11
-12.29852800000026
 21
-93.393935000000056
 31
0.0
  0
LINE
  5
201
  8
DETAIL
  6
CONTINUOUS
 62
     5
 10
-12.29852800000026
 20
-93.393935000000056
 30
0.0
 11
-13.30544000000009
 21
-92.150502000000415
 31
0.0
  0
LINE
  5
202
  8
DETAIL
  6
CONTINUOUS
 62
     5
 10
-77.244391999999579
 20
-13.192472000000629
 30
0.0
 11
-85.677284999999699
 21
-2.7787160000007121
 31
0.0
  0
LINE
  5
203
  8
DETAIL
  6
CONTINUOUS
 62
     5
 10
-134.75
 20
-117.5
 30
0.0
 11
-126.5
 21
-104.5
 31
0.0
  0
LINE
  5
204
  8
DETAIL
  6
CONTINUOUS
 62
     5
 10
-170.9873909999996
 20
-104.266063
 30
0.0
 11
-172.61373600000019
 21
-105.8924080000006
 31
0.0
  0
LINE
  5
20D
  8
DETAIL
  6
CONTINUOUS
 62
     5
 10
-1.874353000000152
 20
59.238969999999433
 30
0.0
 11
-5.8580700000002244
 21
56.938969999999252
 31
0.0
  0
LINE
  5
211
  8
DETAIL
  6
CONTINUOUS
 62
     5
 10
-150.74702600000001
 20
0.4662069999994858
 30
0.0
 11
-149.71161099999969
 21
1.19736499999999
 31
0.0
  0
LINE
  5
212
  8
DETAIL
  6
CONTINUOUS
 62
     5
 10
-149.71161099999969
 20
1.19736499999999
 30
0.0
 11
-147.64265299999991
 21
3.0304589999996061
 31
0.0
  0
LINE
  5
213
  8
DETAIL
  6
CONTINUOUS
 62
     5
 10
-147.64265299999991
 20
3.0304589999996061
 30
0.0
 11
-145.9963680000001
 21
4.928421999999955
 31
0.0
  0
LINE
  5
214
  8
DETAIL
  6
CONTINUOUS
 62
     5
 10
-145.9963680000001
 20
4.928421999999955
 30
0.0
 11
-144.79596899999979
 21
6.855835999999722
 31
0.0
  0
LINE
  5
215
  8
DETAIL
  6
CONTINUOUS
 62
     5
 10
-144.79596899999979
 20
6.855835999999722
 30
0.0
 11
-144.0501720000002
 21
8.7825809999994817
 31
0.0
  0
LINE
  5
216
  8
DETAIL
  6
CONTINUOUS
 62
     5
 10
-144.0501720000002
 20
8.7825809999994817
 30
0.0
 11
-143.76329600000011
 21
10.67133699999976
 31
0.0
  0
LINE
  5
217
  8
DETAIL
  6
CONTINUOUS
 62
     5
 10
-208.59952799999971
 20
-6.4982800000007011
 30
0.0
 11
-196.40350599999951
 21
-2.531382000000121
 31
0.0
  0
LINE
  5
21F
  8
DETAIL
  6
CONTINUOUS
 62
     5
 10
-138.39999999999961
 20
-39.0
 30
0.0
 11
-147.60000000000031
 21
-39.0
 31
0.0
  0
LINE
  5
221
  8
DETAIL
  6
CONTINUOUS
 62
     5
 10
52.300000000000182
 20
-113.9141589999999
 30
0.0
 11
66.0
 21
-127.6141590000006
 31
0.0
  0
LINE
  5
223
  8
DETAIL
  6
CONTINUOUS
 62
     5
 10
-61.701473000000071
 20
-0.6060640000005151
 30
0.0
 11
-60.694559999999889
 21
-1.849498000000493
 31
0.0
  0
LINE
  5
224
  8
DETAIL
  6
CONTINUOUS
 62
     5
 10
11.677284999999751
 20
-91.221283000000767
 30
0.0
 11
3.2443910000001761
 21
-80.807528000000218
 31
0.0
  0
LINE
  5
225
  8
DETAIL
  6
CONTINUOUS
 62
     5
 10
3.2443910000001761
 20
-80.807528000000218
 30
0.0
 11
2.2374790000003482
 21
-79.564094000000296
 31
0.0
  0
LINE
  5
227
  8
DETAIL
  6
CONTINUOUS
 62
     5
 10
-18.239994999999912
 20
157.78165899999931
 30
0.0
 11
-18.239994999999912
 21
153.1816589999998
 31
0.0
  0
LINE
  5
22C
  8
DETAIL
  6
CONTINUOUS
 62
     5
 10
-61.827336999999702
 20
-0.4506350000001478
 30
0.0
 11
-77.37025600000014
 21
-13.037043000000271
 31
0.0
  0
LINE
  5
22D
  8
DETAIL
  6
CONTINUOUS
 62
     5
 10
-61.701473000000071
 20
-0.6060640000005151
 30
0.0
 11
-77.244391999999579
 21
-13.192472000000629
 31
0.0
  0
LINE
  5
22E
  8
DETAIL
  6
CONTINUOUS
 62
     5
 10
-60.694559999999889
 20
-1.849498000000493
 30
0.0
 11
-76.237479000000349
 21
-14.43590600000061
 31
0.0
  0
LINE
  5
22F
  8
DETAIL
  6
CONTINUOUS
 62
     5
 10
-1.874353000000152
 20
50.038969999999608
 30
0.0
 11
2.1093639999999141
 21
52.33896999999979
 31
0.0
  0
LINE
  5
231
  8
DETAIL
  6
CONTINUOUS
 62
     5
 10
61.872524000000332
 20
56.316976000000061
 30
0.0
 11
49.584592999999579
 21
51.339046999999482
 31
0.0
  0
LINE
  5
232
  8
DETAIL
  6
CONTINUOUS
 62
     5
 10
-157.5153030000001
 20
-23.38664700000027
 30
0.0
 11
-164.505709
 21
-23.752997999999931
 31
0.0
  0
LINE
  5
234
  8
DETAIL
  6
CONTINUOUS
 62
     5
 10
-164.54888699999981
 20
-22.929129000000088
 30
0.0
 11
-201.63633300000041
 21
-24.872800000000101
 31
0.0
  0
LINE
  5
235
  8
DETAIL
  6
CONTINUOUS
 62
     5
 10
-138.39999999999961
 20
-31.751471999999922
 30
0.0
 11
-147.60000000000031
 21
-31.751471999999922
 31
0.0
  0
LINE
  5
236
  8
DETAIL
  6
CONTINUOUS
 62
     5
 10
-139.82499999999979
 20
-30.326472000000649
 30
0.0
 11
-146.17500000000021
 21
-30.326472000000649
 31
0.0
  0
LINE
  5
238
  8
DETAIL
  6
CONTINUOUS
 62
     5
 10
-10.27256099999977
 20
153.1816589999998
 30
0.0
 11
-10.27256099999977
 21
157.78165899999931
 31
0.0
  0
LINE
  5
239
  8
DETAIL
  6
CONTINUOUS
 62
     5
 10
-5.8580700000002244
 20
56.938969999999252
 30
0.0
 11
-5.8580700000002244
 21
52.33896999999979
 31
0.0
  0
LINE
  5
23A
  8
DETAIL
  6
CONTINUOUS
 62
     5
 10
2.1093639999999141
 20
52.33896999999979
 30
0.0
 11
2.1093639999999141
 21
56.938969999999252
 31
0.0
  0
LINE
  5
23B
  8
DETAIL
  6
CONTINUOUS
 62
     5
 10
139.7100499999996
 20
170.19999999999979
 30
0.0
 11
139.77005000000011
 21
170.25999999999931
 31
0.0
  0
LINE
  5
23C
  8
DETAIL
  6
CONTINUOUS
 62
     5
 10
-188.2196729999994
 20
-168.45264800000041
 30
0.0
 11
-193.47533799999999
 21
-173.70831300000009
 31
0.0
  0
LINE
  5
23D
  8
DETAIL
  6
CONTINUOUS
 62
     5
 10
49.723336000000018
 20
61.77503499999964
 30
0.0
 11
55.156221999999609
 21
65.533979999999247
 31
0.0
  0
LINE
  5
23E
  8
DETAIL
  6
CONTINUOUS
 62
     5
 10
17.57979599999998
 20
38.805715999999848
 30
0.0
 11
50.064722000000081
 21
61.281622999999847
 31
0.0
  0
LINE
  5
23F
  8
DETAIL
  6
CONTINUOUS
 62
     5
 10
56.156981243712131
 20
65.496779620651978
 30
0.0
 11
68.027164999999499
 21
73.709608999999546
 31
0.0
  0
LINE
  5
240
  8
DETAIL
  6
CONTINUOUS
 62
     5
 10
68.027164999999499
 20
73.709608999999546
 30
0.0
 11
96.29933999999956
 21
93.270765999999654
 31
0.0
  0
LINE
  5
241
  8
DETAIL
  6
CONTINUOUS
 62
     5
 10
21.192794999999929
 20
33.583767999999523
 30
0.0
 11
53.67772100000002
 21
56.059674999999523
 31
0.0
  0
LINE
  5
242
  8
DETAIL
  6
CONTINUOUS
 62
     5
 10
59.769980327929147
 20
60.274831679851808
 30
0.0
 11
99.912339000000443
 21
88.048818999999654
 31
0.0
  0
LINE
  5
243
  8
DETAIL
  6
CONTINUOUS
 62
     5
 10
54.019107000000083
 20
55.566262999999701
 30
0.0
 11
59.451992999999668
 21
59.325206999999871
 31
0.0
  0
LINE
  5
244
  8
DETAIL
  6
CONTINUOUS
 62
     5
 10
64.256744000000253
 20
50.43157099999916
 30
0.0
 11
51.966077000000041
 21
45.452532999999669
 31
0.0
  0
LINE
  5
245
  8
DETAIL
  6
CONTINUOUS
 62
     5
 10
7.6810139999997773
 20
27.512332999999671
 30
0.0
 11
3.1155650000000601
 21
25.662835999999519
 31
0.0
  0
LINE
  5
247
  8
DETAIL
  6
CONTINUOUS
 62
     5
 10
-164.88122000000021
 20
-16.58783100000073
 30
0.0
 11
-201.9686670000001
 21
-18.531502000000721
 31
0.0
  0
LINE
  5
248
  8
DETAIL
  6
CONTINUOUS
 62
     5
 10
-157.93398999999951
 20
-15.397609999999981
 30
0.0
 11
-164.92439699999969
 21
-15.7639620000009
 31
0.0
  0
LINE
  5
249
  8
DETAIL
  6
CONTINUOUS
 62
     5
 10
-73.629903000000013
 20
-3.3983880000005202
 30
0.0
 11
-74.629903000000013
 21
-3.3983880000005202
 31
0.0
  0
LINE
  5
24A
  8
DETAIL
  6
CONTINUOUS
 62
     5
 10
-71.879903000000013
 20
-1.6483880000005211
 30
0.0
 11
-73.629903000000013
 21
-1.6483880000005211
 31
0.0
  0
LINE
  5
24B
  8
DETAIL
  6
CONTINUOUS
 62
     5
 10
-74.629903000000013
 20
-1.6483880000005211
 30
0.0
 11
-76.379903000000013
 21
-1.6483880000005211
 31
0.0
  0
LINE
  5
24C
  8
DETAIL
  6
CONTINUOUS
 62
     5
 10
-76.379903000000013
 20
-0.6483880000005229
 30
0.0
 11
-74.629903000000013
 21
-0.6483880000005229
 31
0.0
  0
LINE
  5
24D
  8
DETAIL
  6
CONTINUOUS
 62
     5
 10
-73.629903000000013
 20
-0.6483880000005229
 30
0.0
 11
-71.879903000000013
 21
-0.6483880000005229
 31
0.0
  0
LINE
  5
24E
  8
DETAIL
  6
CONTINUOUS
 62
     5
 10
-74.629903000000013
 20
1.101611999999474
 30
0.0
 11
-73.629903000000013
 21
1.101611999999474
 31
0.0
  0
LINE
  5
269
  8
DETAIL
  6
CONTINUOUS
 62
     5
 10
27.625438000000031
 20
-100.6716540000006
 30
0.0
 11
27.926465999999891
 21
-104.3978970000007
 31
0.0
  0
LINE
  5
284
  8
DETAIL
  6
CONTINUOUS
 62
     5
 10
27.07527000000027
 20
-78.563068000000371
 30
0.0
 11
27.625438000000031
 21
-100.6716540000006
 31
0.0
  0
LINE
  5
285
  8
DETAIL
  6
CONTINUOUS
 62
     5
 10
27.07527000000027
 20
-78.563068000000371
 30
0.0
 11
25.53064199999972
 21
-2.349845000000641
 31
0.0
  0
LINE
  5
286
  8
DETAIL
  6
CONTINUOUS
 62
     5
 10
15.80000000000018
 20
-110.0
 30
0.0
 11
15.80000000000018
 21
-110.8000000000002
 31
0.0
  0
LINE
  5
287
  8
DETAIL
  6
CONTINUOUS
 62
     5
 10
16.0
 20
-84.200000000000699
 30
0.0
 11
16.0
 21
-109.8000000000002
 31
0.0
  0
LINE
  5
288
  8
DETAIL
  6
CONTINUOUS
 62
     5
 10
17.899999999999629
 20
142.5
 30
0.0
 11
17.899999999999629
 21
137.5
 31
0.0
  0
LINE
  5
289
  8
DETAIL
  6
CONTINUOUS
 62
     5
 10
21.818739000000281
 20
143.5
 30
0.0
 11
21.818739000000281
 21
142.5
 31
0.0
  0
LINE
  5
28A
  8
DETAIL
  6
CONTINUOUS
 62
     5
 10
21.818739000000281
 20
142.5
 30
0.0
 11
21.818739000000281
 21
137.5
 31
0.0
  0
LINE
  5
28B
  8
DETAIL
  6
CONTINUOUS
 62
     5
 10
21.818739000000281
 20
137.5
 30
0.0
 11
21.818739000000281
 21
136.5
 31
0.0
  0
LINE
  5
28C
  8
DETAIL
  6
CONTINUOUS
 62
     5
 10
24.314911999999818
 20
143.5
 30
0.0
 11
24.314911999999818
 21
136.5
 31
0.0
  0
LINE
  5
28D
  8
DETAIL
  6
CONTINUOUS
 62
     5
 10
25.53177500000038
 20
-2.244416000000454
 30
0.0
 11
26.81291200000032
 21
28.411532999999508
 31
0.0
  0
LINE
  5
28E
  8
DETAIL
  6
CONTINUOUS
 62
     5
 10
27.686665000000179
 20
49.319306999999753
 30
0.0
 11
28.457080999999562
 21
67.754375999999851
 31
0.0
  0
LINE
  5
290
  8
DETAIL
  6
CONTINUOUS
 62
     5
 10
26.353068000000349
 20
87.905287999999956
 30
0.0
 11
25.780297999900981
 21
77.090829611988198
 31
0.0
  0
LINE
  5
291
  8
DETAIL
  6
CONTINUOUS
 62
     5
 10
25.33738199999971
 20
68.728125999999975
 30
0.0
 11
24.235376999999971
 21
47.921164999999732
 31
0.0
  0
LINE
  5
292
  8
DETAIL
  6
CONTINUOUS
 62
     5
 10
23.12546199999997
 20
26.964866999999689
 30
0.0
 11
20.690473999999998
 21
-19.01014000000032
 31
0.0
  0
LINE
  5
294
  8
DETAIL
  6
CONTINUOUS
 62
     5
 10
22.692440941865179
 20
71.00723299222166
 30
0.0
 11
22.320214999999731
 21
69.092294999999453
 31
0.0
  0
LINE
  5
29A
  8
DETAIL
  6
CONTINUOUS
 62
     5
 10
48.852144000000408
 20
94.56427099999928
 30
0.0
 11
45.461073000000397
 21
81.90923599999951
 31
0.0
  0
LINE
  5
29B
  8
DETAIL
  6
CONTINUOUS
 62
     5
 10
-160.2277160000003
 20
-176.2378820000003
 30
0.0
 11
-141.44829500000009
 21
-157.45846000000071
 31
0.0
  0
LINE
  5
29C
  8
DETAIL
  6
CONTINUOUS
 62
     5
 10
-83.351312509075058
 20
5.408530123042854
 30
0.0
 11
12.93896399999994
 21
29.899238999999401
 31
0.0
  0
LINE
  5
29D
  8
DETAIL
  6
CONTINUOUS
 62
     5
 10
-119.131832
 20
-1.7848150000008891
 30
0.0
 11
-112.0417010000001
 21
-0.2777610000002824
 31
0.0
  0
LINE
  5
29F
  8
DETAIL
  6
CONTINUOUS
 62
     5
 10
-95.857936999999765
 20
3.7756089999993439
 30
0.0
 11
-111.5795600000001
 21
0.4338739999993777
 31
0.0
  0
LINE
  5
2A1
  8
DETAIL
  6
CONTINUOUS
 62
     5
 10
-167.2883819999997
 20
-9.3880820000003968
 30
0.0
 11
-166.16475499999979
 21
-9.1492480000006235
 31
0.0
  0
LINE
  5
2A4
  8
DETAIL
  6
CONTINUOUS
 62
     5
 10
-60.254214999999931
 20
17.835275999999791
 30
0.0
 11
-69.708972999999787
 21
15.825604999999991
 31
0.0
  0
LINE
  5
2A6
  8
DETAIL
  6
CONTINUOUS
 62
     5
 10
-120.7015650000003
 20
5.6001999999998571
 30
0.0
 11
-113.6114349999998
 21
7.107252999999214
 31
0.0
  0
LINE
  5
2A7
  8
DETAIL
  6
CONTINUOUS
 62
     5
 10
-179.35138900000041
 20
-10.96120500000052
 30
0.0
 11
-198.04325699999981
 21
-14.933512500000241
 31
0.0
  0
LINE
  5
2AA
  8
DETAIL
  6
CONTINUOUS
 62
     5
 10
79.0
 20
21.299999999999269
 30
0.0
 11
77.399999999999622
 21
21.299999999999269
 31
0.0
  0
LINE
  5
2AB
  8
DETAIL
  6
CONTINUOUS
 62
     5
 10
-181.95716600000009
 20
26.061707999999271
 30
0.0
 11
-183.7861030000004
 21
26.158151999999969
 31
0.0
  0
LINE
  5
2AC
  8
DETAIL
  6
CONTINUOUS
 62
     5
 10
-182.1093650000002
 20
133.06102999999979
 30
0.0
 11
-178.12564800000021
 21
130.76102999999961
 31
0.0
  0
LINE
  5
2AD
  8
DETAIL
  6
CONTINUOUS
 62
     5
 10
11.3737229999997
 20
36.053304999999462
 30
0.0
 11
11.374039000000259
 21
36.052018999999753
 31
0.0
  0
LINE
  5
2B7
  8
DETAIL
  6
CONTINUOUS
 62
     5
 10
34.642756082720247
 20
-104.053105965258
 30
0.0
 11
34.528180000000248
 21
-102.61009100000039
 31
0.0
  0
LINE
  5
2C1
  8
DETAIL
  6
CONTINUOUS
 62
     5
 10
33.13892800000032
 20
-51.408551000000422
 30
0.0
 11
32.909991999999868
 21
-50.013385000000198
 31
0.0
  0
LINE
  5
2FB
  8
DETAIL
  6
CONTINUOUS
 62
     5
 10
34.528180000000248
 20
-102.61009100000039
 30
0.0
 11
33.13892800000032
 21
-51.408551000000422
 31
0.0
  0
LINE
  5
30A
  8
DETAIL
  6
CONTINUOUS
 62
     5
 10
30.4496509999999
 20
-77.265553000000196
 30
0.0
 11
28.92994399999953
 21
-2.280951000000639
 31
0.0
  0
LINE
  5
30E
  8
DETAIL
  6
CONTINUOUS
 62
     5
 10
26.533666999999699
 20
143.5
 30
0.0
 11
26.533666999999699
 21
136.5
 31
0.0
  0
LINE
  5
30F
  8
DETAIL
  6
CONTINUOUS
 62
     5
 10
26.694144000000051
 20
165.5
 30
0.0
 11
26.694144000000051
 21
143.5
 31
0.0
  0
LINE
  5
310
  8
DETAIL
  6
CONTINUOUS
 62
     5
 10
26.694144000000051
 20
136.5
 30
0.0
 11
26.694144000000051
 21
112.527082999999
 31
0.0
  0
LINE
  5
311
  8
DETAIL
  6
CONTINUOUS
 62
     5
 10
26.694144000000051
 20
106.1293959999993
 30
0.0
 11
26.694144000000051
 21
98.943663000000015
 31
0.0
  0
LINE
  5
312
  8
DETAIL
  6
CONTINUOUS
 62
     5
 10
27.258216000000171
 20
143.5
 30
0.0
 11
27.258216000000171
 21
136.5
 31
0.0
  0
LINE
  5
313
  8
DETAIL
  6
CONTINUOUS
 62
     5
 10
31.300000000000178
 20
-110.0
 30
0.0
 11
31.300000000000178
 21
-104.2963570000001
 31
0.0
  0
LINE
  5
314
  8
DETAIL
  6
CONTINUOUS
 62
     5
 10
32.541784000000007
 20
143.5
 30
0.0
 11
32.541784000000007
 21
136.5
 31
0.0
  0
LINE
  5
315
  8
DETAIL
  6
CONTINUOUS
 62
     5
 10
32.949999999999811
 20
-110.8000000000002
 30
0.0
 11
32.949999999999811
 21
-110.0
 31
0.0
  0
LINE
  5
316
  8
DETAIL
  6
CONTINUOUS
 62
     5
 10
33.044144000000408
 20
162.32499999999979
 30
0.0
 11
33.044144000000408
 21
143.5
 31
0.0
  0
LINE
  5
317
  8
DETAIL
  6
CONTINUOUS
 62
     5
 10
33.044144000000408
 20
136.5
 30
0.0
 11
33.044144000000408
 21
113.3067649999993
 31
0.0
  0
LINE
  5
318
  8
DETAIL
  6
CONTINUOUS
 62
     5
 10
33.044144000000408
 20
106.9090779999997
 30
0.0
 11
33.044144000000408
 21
97.886817999999948
 31
0.0
  0
LINE
  5
319
  8
DETAIL
  6
CONTINUOUS
 62
     5
 10
33.050000000000189
 20
-110.8000000000002
 30
0.0
 11
33.050000000000189
 21
-110.0
 31
0.0
  0
LINE
  5
31A
  8
DETAIL
  6
CONTINUOUS
 62
     5
 10
33.266332000000148
 20
143.5
 30
0.0
 11
33.266332000000148
 21
136.5
 31
0.0
  0
LINE
  5
31B
  8
DETAIL
  6
CONTINUOUS
 62
     5
 10
34.699999999999811
 20
-110.0
 30
0.0
 11
34.638924490189282
 21
-104.0048494248727
 31
0.0
  0
LINE
  5
31C
  8
DETAIL
  6
CONTINUOUS
 62
     5
 10
35.485087000000021
 20
143.5
 30
0.0
 11
35.485087000000021
 21
136.5
 31
0.0
  0
LINE
  5
31D
  8
DETAIL
  6
CONTINUOUS
 62
     5
 10
37.981260999999897
 20
143.5
 30
0.0
 11
37.981260999999897
 21
142.5
 31
0.0
  0
LINE
  5
31E
  8
DETAIL
  6
CONTINUOUS
 62
     5
 10
37.981260999999897
 20
142.5
 30
0.0
 11
37.981260999999897
 21
137.5
 31
0.0
  0
LINE
  5
31F
  8
DETAIL
  6
CONTINUOUS
 62
     5
 10
37.981260999999897
 20
137.5
 30
0.0
 11
37.981260999999897
 21
136.5
 31
0.0
  0
LINE
  5
320
  8
DETAIL
  6
CONTINUOUS
 62
     5
 10
40.0
 20
75.0
 30
0.0
 11
40.0
 21
107.7631489999994
 31
0.0
  0
LINE
  5
321
  8
DETAIL
  6
CONTINUOUS
 62
     5
 10
40.0
 20
114.1608369999994
 30
0.0
 11
40.0
 21
137.5
 31
0.0
  0
LINE
  5
322
  8
DETAIL
  6
CONTINUOUS
 62
     5
 10
40.0
 20
142.5
 30
0.0
 11
40.0
 21
145.0
 31
0.0
  0
LINE
  5
323
  8
DETAIL
  6
CONTINUOUS
 62
     5
 10
41.899999999999622
 20
142.5
 30
0.0
 11
41.899999999999622
 21
137.5
 31
0.0
  0
LINE
  5
324
  8
DETAIL
  6
CONTINUOUS
 62
     5
 10
28.93101200000001
 20
-2.3336840000001722
 30
0.0
 11
30.274483000000149
 21
29.813840999999229
 31
0.0
  0
LINE
  5
325
  8
DETAIL
  6
CONTINUOUS
 62
     5
 10
31.148236000000001
 20
50.72161499999946
 30
0.0
 11
31.822364999999991
 21
66.852650999999241
 31
0.0
  0
LINE
  5
327
  8
DETAIL
  6
CONTINUOUS
 62
     5
 10
32.770738999999601
 20
89.014944999999869
 30
0.0
 11
32.154180649393922
 21
77.373701641599382
 31
0.0
  0
LINE
  5
35C
  8
DETAIL
  6
CONTINUOUS
 62
     5
 10
60.690598999999558
 20
42.5
 30
0.0
 11
58.38119800000004
 21
38.5
 31
0.0
  0
LINE
  5
35D
  8
DETAIL
  6
CONTINUOUS
 62
     5
 10
65.309401000000435
 20
34.5
 30
0.0
 11
67.61880199999996
 21
38.5
 31
0.0
  0
LINE
  5
360
  8
DETAIL
  6
CONTINUOUS
 62
     5
 10
-97.700000000000017
 20
-134.09999999999931
 30
0.0
 11
-111.39999999999981
 21
-147.80000000000001
 31
0.0
  0
LINE
  5
361
  8
DETAIL
  6
CONTINUOUS
 62
     5
 10
22.512748999999541
 20
-18.289142000000531
 30
0.0
 11
7.7846710000003441
 21
-24.540841
 31
0.0
  0
LINE
  5
362
  8
DETAIL
  6
CONTINUOUS
 62
     5
 10
24.99389100000008
 20
-24.1343480000005
 30
0.0
 11
10.26581400000032
 21
-30.38604600000053
 31
0.0
  0
LINE
  5
363
  8
DETAIL
  6
CONTINUOUS
 62
     5
 10
-85.133394000000337
 20
11.506077999999439
 30
0.0
 11
11.3737229999997
 21
36.053304999999462
 31
0.0
  0
LINE
  5
365
  8
DETAIL
  6
CONTINUOUS
 62
     5
 10
-168.2040869999999
 20
-4.119228999999903
 30
0.0
 11
-170.0578050000004
 21
-4.5132480000002033
 31
0.0
  0
LINE
  5
366
  8
DETAIL
  6
CONTINUOUS
 62
     5
 10
-180.671628
 20
-4.7499670000006491
 30
0.0
 11
-199.17344599999981
 21
-8.6825080000007802
 31
0.0
  0
LINE
  5
367
  8
DETAIL
  6
CONTINUOUS
 62
     5
 10
-173.02077300000019
 20
17.683917999999721
 30
0.0
 11
-169.79462299999969
 21
18.321558999999969
 31
0.0
  0
LINE
  5
368
  8
DETAIL
  6
CONTINUOUS
 62
     5
 10
-169.79462299999969
 20
18.321558999999969
 30
0.0
 11
-166.42148100000031
 21
18.756948999999612
 31
0.0
  0
LINE
  5
369
  8
DETAIL
  6
CONTINUOUS
 62
     5
 10
-166.42148100000031
 20
18.756948999999612
 30
0.0
 11
-163.12576999999959
 21
18.94610800000007
 31
0.0
  0
LINE
  5
36A
  8
DETAIL
  6
CONTINUOUS
 62
     5
 10
-163.12576999999959
 20
18.94610800000007
 30
0.0
 11
-159.98530899999969
 21
18.888181999999691
 31
0.0
  0
LINE
  5
36B
  8
DETAIL
  6
CONTINUOUS
 62
     5
 10
-159.98530899999969
 20
18.888181999999691
 30
0.0
 11
-157.06068899999991
 21
18.590457999999671
 31
0.0
  0
LINE
  5
36C
  8
DETAIL
  6
CONTINUOUS
 62
     5
 10
-157.06068899999991
 20
18.590457999999671
 30
0.0
 11
-154.38840400000009
 21
18.061352999999141
 31
0.0
  0
LINE
  5
36D
  8
DETAIL
  6
CONTINUOUS
 62
     5
 10
-154.38840400000009
 20
18.061352999999141
 30
0.0
 11
-152.04136600000029
 21
17.322220999999441
 31
0.0
  0
LINE
  5
36E
  8
DETAIL
  6
CONTINUOUS
 62
     5
 10
-152.04136600000029
 20
17.322220999999441
 30
0.0
 11
-150.0589209999998
 21
16.39858399999957
 31
0.0
  0
LINE
  5
36F
  8
DETAIL
  6
CONTINUOUS
 62
     5
 10
-150.0589209999998
 20
16.39858399999957
 30
0.0
 11
-148.45638799999961
 21
15.307570999999371
 31
0.0
  0
LINE
  5
370
  8
DETAIL
  6
CONTINUOUS
 62
     5
 10
-148.45638799999961
 20
15.307570999999371
 30
0.0
 11
-147.26181499999981
 21
14.07492399999955
 31
0.0
  0
LINE
  5
371
  8
DETAIL
  6
CONTINUOUS
 62
     5
 10
-147.26181499999981
 20
14.07492399999955
 30
0.0
 11
-146.49071499999991
 21
12.70880599999964
 31
0.0
  0
LINE
  5
373
  8
DETAIL
  6
CONTINUOUS
 62
     5
 10
60.690598999999558
 20
34.5
 30
0.0
 11
65.309401000000435
 21
34.5
 31
0.0
  0
LINE
  5
374
  8
DETAIL
  6
CONTINUOUS
 62
     5
 10
62.083332999999563
 20
35.75
 30
0.0
 11
63.916666000000063
 21
35.75
 31
0.0
  0
LINE
  5
375
  8
DETAIL
  6
CONTINUOUS
 62
     5
 10
60.25
 20
37.583332999999598
 30
0.0
 11
62.083332999999563
 21
37.583332999999598
 31
0.0
  0
LINE
  5
376
  8
DETAIL
  6
CONTINUOUS
 62
     5
 10
63.916666000000063
 20
37.583332999999598
 30
0.0
 11
65.75
 21
37.583332999999598
 31
0.0
  0
LINE
  5
377
  8
DETAIL
  6
CONTINUOUS
 62
     5
 10
65.75
 20
39.416666999999507
 30
0.0
 11
63.916666000000063
 21
39.416666999999507
 31
0.0
  0
LINE
  5
378
  8
DETAIL
  6
CONTINUOUS
 62
     5
 10
62.083332999999563
 20
39.416666999999507
 30
0.0
 11
60.25
 21
39.416666999999507
 31
0.0
  0
LINE
  5
379
  8
DETAIL
  6
CONTINUOUS
 62
     5
 10
63.916666000000063
 20
41.25
 30
0.0
 11
62.083332999999563
 21
41.25
 31
0.0
  0
LINE
  5
37A
  8
DETAIL
  6
CONTINUOUS
 62
     5
 10
65.309401000000435
 20
42.5
 30
0.0
 11
60.690598999999558
 21
42.5
 31
0.0
  0
LINE
  5
37B
  8
DETAIL
  6
CONTINUOUS
 62
     5
 10
-174.14193100000011
 20
137.6610299999993
 30
0.0
 11
-178.12564800000021
 21
139.96102999999951
 31
0.0
  0
LINE
  5
37C
  8
DETAIL
  6
CONTINUOUS
 62
     5
 10
-5.8580700000002244
 20
52.33896999999979
 30
0.0
 11
-1.874353000000152
 21
50.038969999999608
 31
0.0
  0
LINE
  5
37D
  8
DETAIL
  6
CONTINUOUS
 62
     5
 10
2.1093639999999141
 20
56.938969999999252
 30
0.0
 11
-1.874353000000152
 21
59.238969999999433
 31
0.0
  0
LINE
  5
380
  8
DETAIL
  6
CONTINUOUS
 62
     5
 10
-0.0448800000003757
 20
150.16541099999981
 30
0.0
 11
1.9990580000003311
 21
141.83702199999971
 31
0.0
  0
LINE
  5
381
  8
DETAIL
  6
CONTINUOUS
 62
     5
 10
4.960422000000106
 20
144.0277159999996
 30
0.0
 11
5.2831880000003331
 21
142.71700199999941
 31
0.0
  0
LINE
  5
385
  8
DETAIL
  6
CONTINUOUS
 62
     5
 10
14.3346709999996
 20
134.39022399999971
 30
0.0
 11
10.17390499999965
 21
151.3097779999998
 31
0.0
  0
LINE
  5
388
  8
DETAIL
  6
CONTINUOUS
 62
     5
 10
2.8918270000003741
 20
152.47118399999999
 30
0.0
 11
4.960422000000106
 21
144.0277159999996
 31
0.0
  0
LINE
  5
391
  8
DETAIL
  6
CONTINUOUS
 62
     5
 10
-3.4734420000004311
 20
165.40752499999959
 30
0.0
 11
-0.0448800000003757
 21
150.16541099999981
 31
0.0
  0
LINE
  5
3F3
  8
DETAIL
  6
CONTINUOUS
 62
     5
 10
24.494544000000129
 20
52.814499000000069
 30
0.0
 11
22.931639000000359
 21
65.543338999999833
 31
0.0
  0
LINE
  5
3F4
  8
DETAIL
  6
CONTINUOUS
 62
     5
 10
23.917819999999669
 20
112.4884459999994
 30
0.0
 11
24.762445999999731
 21
105.6095229999991
 31
0.0
  0
LINE
  5
3F5
  8
DETAIL
  6
CONTINUOUS
 62
     5
 10
48.0
 20
23.299999999999269
 30
0.0
 11
48.0
 21
23.099999999999451
 31
0.0
  0
LINE
  5
3F6
  8
DETAIL
  6
CONTINUOUS
 62
     5
 10
48.0
 20
-78.300000000000196
 30
0.0
 11
48.0
 21
-78.10000000000035
 31
0.0
  0
LINE
  5
3F7
  8
DETAIL
  6
CONTINUOUS
 62
     5
 10
51.0
 20
-84.200000000000699
 30
0.0
 11
51.0
 21
-110.8000000000002
 31
0.0
  0
LINE
  5
3F8
  8
DETAIL
  6
CONTINUOUS
 62
     5
 10
51.5
 20
-110.8000000000002
 30
0.0
 11
51.5
 21
-111.60000000000031
 31
0.0
  0
LINE
  5
3F9
  8
DETAIL
  6
CONTINUOUS
 62
     5
 10
52.300000000000182
 20
-111.60000000000031
 30
0.0
 11
52.300000000000182
 21
-178.80000000000021
 31
0.0
  0
LINE
  5
3FB
  8
DETAIL
  6
CONTINUOUS
 62
     5
 10
60.25
 20
39.416666999999507
 30
0.0
 11
60.25
 21
37.583332999999598
 31
0.0
  0
LINE
  5
3FC
  8
DETAIL
  6
CONTINUOUS
 62
     5
 10
62.083332999999563
 20
41.25
 30
0.0
 11
62.083332999999563
 21
39.416666999999507
 31
0.0
  0
LINE
  5
3FD
  8
DETAIL
  6
CONTINUOUS
 62
     5
 10
62.083332999999563
 20
37.583332999999598
 30
0.0
 11
62.083332999999563
 21
35.75
 31
0.0
  0
LINE
  5
3FE
  8
DETAIL
  6
CONTINUOUS
 62
     5
 10
63.916666000000063
 20
35.75
 30
0.0
 11
63.916666000000063
 21
37.583332999999598
 31
0.0
  0
LINE
  5
3FF
  8
DETAIL
  6
CONTINUOUS
 62
     5
 10
63.916666000000063
 20
39.416666999999507
 30
0.0
 11
63.916666000000063
 21
41.25
 31
0.0
  0
LINE
  5
400
  8
DETAIL
  6
CONTINUOUS
 62
     5
 10
65.75
 20
37.583332999999598
 30
0.0
 11
65.75
 21
39.416666999999507
 31
0.0
  0
LINE
  5
402
  8
DETAIL
  6
CONTINUOUS
 62
     5
 10
107.9943940000003
 20
125.9444319999993
 30
0.0
 11
107.8834759999999
 21
125.6710189999994
 31
0.0
  0
LINE
  5
403
  8
DETAIL
  6
CONTINUOUS
 62
     5
 10
-173.5616650000002
 20
20.022172999999391
 30
0.0
 11
-176.7822050000004
 21
19.170661000000109
 31
0.0
  0
LINE
  5
404
  8
DETAIL
  6
CONTINUOUS
 62
     5
 10
-176.7822050000004
 20
19.170661000000109
 30
0.0
 11
-180.06128700000039
 21
18.07236599999942
 31
0.0
  0
LINE
  5
405
  8
DETAIL
  6
CONTINUOUS
 62
     5
 10
-180.06128700000039
 20
18.07236599999942
 30
0.0
 11
-183.1910550000002
 21
16.778102999999639
 31
0.0
  0
LINE
  5
406
  8
DETAIL
  6
CONTINUOUS
 62
     5
 10
-183.1910550000002
 20
16.778102999999639
 30
0.0
 11
-186.11098399999989
 21
15.311002999999801
 31
0.0
  0
LINE
  5
407
  8
DETAIL
  6
CONTINUOUS
 62
     5
 10
-186.11098399999989
 20
15.311002999999801
 30
0.0
 11
-188.77496499999961
 21
13.6927799999994
 31
0.0
  0
LINE
  5
408
  8
DETAIL
  6
CONTINUOUS
 62
     5
 10
-188.77496499999961
 20
13.6927799999994
 30
0.0
 11
-191.15111700000031
 21
11.9380829999991
 31
0.0
  0
LINE
  5
409
  8
DETAIL
  6
CONTINUOUS
 62
     5
 10
-191.15111700000031
 20
11.9380829999991
 30
0.0
 11
-193.20222199999989
 21
10.06512999999995
 31
0.0
  0
LINE
  5
40A
  8
DETAIL
  6
CONTINUOUS
 62
     5
 10
-193.20222199999989
 20
10.06512999999995
 30
0.0
 11
-194.8795740000005
 21
8.1077009999999063
 31
0.0
  0
LINE
  5
40B
  8
DETAIL
  6
CONTINUOUS
 62
     5
 10
-194.8795740000005
 20
8.1077009999999063
 30
0.0
 11
-196.14163499999989
 21
6.1089769999998671
 31
0.0
  0
LINE
  5
40C
  8
DETAIL
  6
CONTINUOUS
 62
     5
 10
-196.14163499999989
 20
6.1089769999998671
 30
0.0
 11
-196.96984100000009
 21
4.1104169999998703
 31
0.0
  0
LINE
  5
40D
  8
DETAIL
  6
CONTINUOUS
 62
     5
 10
-196.96984100000009
 20
4.1104169999998703
 30
0.0
 11
-197.36200699999969
 21
2.131438999999772
 31
0.0
  0
LINE
  5
40E
  8
DETAIL
  6
CONTINUOUS
 62
     5
 10
-197.36200699999969
 20
2.131438999999772
 30
0.0
 11
-197.31868300000039
 21
0.2091939999991155
 31
0.0
  0
LINE
  5
40F
  8
DETAIL
  6
CONTINUOUS
 62
     5
 10
46.256473000000369
 20
68.407268999999346
 30
0.0
 11
45.35462556873302
 21
68.296536301273491
 31
0.0
  0
LINE
  5
411
  8
DETAIL
  6
CONTINUOUS
 62
     5
 10
22.733129999999619
 20
65.518965999999637
 30
0.0
 11
25.183347999999569
 21
65.819814999999849
 31
0.0
  0
LINE
  5
412
  8
DETAIL
  6
CONTINUOUS
 62
     5
 10
-7.1286000000000032
 20
74.816564999999173
 30
0.0
 11
22.320214999999731
 21
69.092294999999453
 31
0.0
  0
LINE
  5
413
  8
DETAIL
  6
CONTINUOUS
 62
     5
 10
37.727006000000067
 20
65.270507999999609
 30
0.0
 11
25.48907199999984
 21
68.615597499999708
 31
0.0
  0
LINE
  5
414
  8
DETAIL
  6
CONTINUOUS
 62
     5
 10
58.38119800000004
 20
38.5
 30
0.0
 11
60.690598999999558
 21
34.5
 31
0.0
  0
LINE
  5
442
  8
DETAIL
  6
CONTINUOUS
 62
     5
 10
27.72381500000029
 20
83.175143999999804
 30
0.0
 11
18.602488999999871
 21
114.65080499999929
 31
0.0
  0
LINE
  5
443
  8
DETAIL
  6
CONTINUOUS
 62
     5
 10
30.98945800000001
 20
84.121493999999984
 30
0.0
 11
13.919738999999931
 21
143.02526099999969
 31
0.0
  0
LINE
  5
446
  8
DETAIL
  6
CONTINUOUS
 62
     5
 10
48.323803000000211
 20
51.570218999999291
 30
0.0
 11
48.234948000000259
 21
52.293888999999581
 31
0.0
  0
LINE
  5
447
  8
DETAIL
  6
CONTINUOUS
 62
     5
 10
47.361076000000132
 20
59.411003999999593
 30
0.0
 11
46.256473000000369
 21
68.407268999999346
 31
0.0
  0
LINE
  5
448
  8
DETAIL
  6
CONTINUOUS
 62
     5
 10
76.699999999999804
 20
115.4587879999999
 30
0.0
 11
76.699999999999804
 21
106.0
 31
0.0
  0
LINE
  5
449
  8
DETAIL
  6
CONTINUOUS
 62
     5
 10
77.199999999999804
 20
23.299999999999269
 30
0.0
 11
77.199999999999804
 21
23.099999999999451
 31
0.0
  0
LINE
  5
44A
  8
DETAIL
  6
CONTINUOUS
 62
     5
 10
77.199999999999804
 20
23.099999999999451
 30
0.0
 11
77.199999999999804
 21
21.5
 31
0.0
  0
LINE
  5
44B
  8
DETAIL
  6
CONTINUOUS
 62
     5
 10
77.199999999999804
 20
-78.300000000000196
 30
0.0
 11
77.199999999999804
 21
-78.10000000000035
 31
0.0
  0
LINE
  5
44C
  8
DETAIL
  6
CONTINUOUS
 62
     5
 10
77.199999999999804
 20
-78.10000000000035
 30
0.0
 11
77.199999999999804
 21
-76.5
 31
0.0
  0
LINE
  5
44D
  8
DETAIL
  6
CONTINUOUS
 62
     5
 10
77.399999999999622
 20
-76.300000000000196
 30
0.0
 11
77.399999999999622
 21
21.299999999999269
 31
0.0
  0
LINE
  5
44E
  8
DETAIL
  6
CONTINUOUS
 62
     5
 10
77.5
 20
106.0
 30
0.0
 11
77.5
 21
115.69156699999979
 31
0.0
  0
LINE
  5
44F
  8
DETAIL
  6
CONTINUOUS
 62
     5
 10
79.0
 20
-76.300000000000196
 30
0.0
 11
79.0
 21
21.299999999999269
 31
0.0
  0
LINE
  5
451
  8
DETAIL
  6
CONTINUOUS
 62
     5
 10
-13.30544000000009
 20
-92.150502000000415
 30
0.0
 11
2.2374790000003482
 21
-79.564094000000296
 31
0.0
  0
LINE
  5
452
  8
DETAIL
  6
CONTINUOUS
 62
     5
 10
-12.29852800000026
 20
-93.393935000000056
 30
0.0
 11
3.2443910000001761
 21
-80.807528000000218
 31
0.0
  0
LINE
  5
453
  8
DETAIL
  6
CONTINUOUS
 62
     5
 10
-12.17266399999971
 20
-93.549365000000776
 30
0.0
 11
3.3702560000001491
 21
-80.962957000000642
 31
0.0
  0
LINE
  5
454
  8
DETAIL
  6
CONTINUOUS
 62
     5
 10
-3.8656339999997722
 20
-103.80769100000001
 30
0.0
 11
11.677284999999751
 21
-91.221283000000767
 31
0.0
  0
LINE
  5
455
  8
DETAIL
  6
CONTINUOUS
 62
     5
 10
110.0
 20
75.0
 30
0.0
 11
81.052592000000004
 21
75.0
 31
0.0
  0
LINE
  5
456
  8
DETAIL
  6
CONTINUOUS
 62
     5
 10
64.006542000000081
 20
75.0
 30
0.0
 11
49.7355609999995
 21
75.0
 31
0.0
  0
LINE
  5
457
  8
DETAIL
  6
CONTINUOUS
 62
     5
 10
42.59228499999972
 20
75.0
 30
0.0
 11
40.0
 21
75.0
 31
0.0
  0
LINE
  5
458
  8
DETAIL
  6
CONTINUOUS
 62
     5
 10
-5.6021280000004481
 20
82.669581999999536
 30
0.0
 11
17.750767101079411
 21
78.130238986038094
 31
0.0
  0
LINE
  5
459
  8
DETAIL
  6
CONTINUOUS
 62
     5
 10
39.37050699999962
 20
71.404136999999537
 30
0.0
 11
27.98272699999961
 21
74.455482999999731
 31
0.0
  0
LINE
  5
45B
  8
DETAIL
  6
CONTINUOUS
 62
     5
 10
67.61880199999996
 20
38.5
 30
0.0
 11
65.309401000000435
 21
42.5
 31
0.0
  0
LINE
  5
46D
  8
DETAIL
  6
CONTINUOUS
 62
     5
 10
110.0
 20
100.77371799999941
 30
0.0
 11
110.0
 21
79.020770999999485
 31
0.0
  0
LINE
  5
46E
  8
DETAIL
  6
CONTINUOUS
 62
     5
 10
110.0
 20
78.199605999999221
 30
0.0
 11
110.0
 21
75.0
 31
0.0
  0
LINE
  5
46F
  8
DETAIL
  6
CONTINUOUS
 62
     5
 10
-5.0115720000003421
 20
101.9341699999995
 30
0.0
 11
10.589853000000399
 21
103.849784
 31
0.0
  0
LINE
  5
470
  8
DETAIL
  6
CONTINUOUS
 62
     5
 10
16.954461000000261
 20
104.6312600000001
 30
0.0
 11
21.349662999999961
 21
105.1709229999997
 31
0.0
  0
LINE
  5
471
  8
DETAIL
  6
CONTINUOUS
 62
     5
 10
24.72825199999988
 20
105.8880140000001
 30
0.0
 11
52.81023000000004
 21
109.3360479999992
 31
0.0
  0
LINE
  5
472
  8
DETAIL
  6
CONTINUOUS
 62
     5
 10
23.954380999999561
 20
112.19068299999979
 30
0.0
 11
54.017522971928848
 21
115.8819718623016
 31
0.0
  0
LINE
  5
473
  8
DETAIL
  6
CONTINUOUS
 62
     5
 10
-5.8585640000001131
 20
108.8323659999996
 30
0.0
 11
8.7733820000003107
 21
110.62894299999969
 31
0.0
  0
LINE
  5
474
  8
DETAIL
  6
CONTINUOUS
 62
     5
 10
15.137990000000171
 20
111.41041899999981
 30
0.0
 11
19.39021899999987
 21
111.93252699999979
 31
0.0
  0
LINE
  5
475
  8
DETAIL
  6
CONTINUOUS
 62
     5
 10
22.808476000000152
 20
112.35223599999971
 30
0.0
 11
23.917819999999669
 21
112.4884459999994
 31
0.0
  0
LINE
  5
476
  8
DETAIL
  6
CONTINUOUS
 62
     5
 10
67.292799902707841
 20
87.270569028683397
 30
0.0
 11
81.500637000000097
 21
83.031731999999423
 31
0.0
  0
LINE
  5
47B
  8
DETAIL
  6
CONTINUOUS
 62
     5
 10
54.483105999999673
 20
91.04716299999923
 30
0.0
 11
60.154956000000311
 21
89.374969999999806
 31
0.0
  0
LINE
  5
47C
  8
DETAIL
  6
CONTINUOUS
 62
     5
 10
56.348955999999824
 20
94.146996999999828
 30
0.0
 11
58.193925999999927
 21
93.602836000000025
 31
0.0
  0
LINE
  5
47F
  8
DETAIL
  6
CONTINUOUS
 62
     5
 10
66.069038999999975
 20
94.928954999999405
 30
0.0
 11
81.420584999999846
 21
90.395211999999447
 31
0.0
  0
LINE
  5
482
  8
DETAIL
  6
CONTINUOUS
 62
     5
 10
65.007230000000135
 20
98.891678999999385
 30
0.0
 11
79.072129999999547
 21
94.740522000000041
 31
0.0
  0
LINE
  5
483
  8
DETAIL
  6
CONTINUOUS
 62
     5
 10
80.076062000000107
 20
94.443495999999854
 30
0.0
 11
87.230227000000014
 21
92.309357999999534
 31
0.0
  0
LINE
  5
48A
  8
DETAIL
  6
CONTINUOUS
 62
     5
 10
82.664160000000265
 20
90.025012999999475
 30
0.0
 11
87.292360000000386
 21
88.642699999999422
 31
0.0
  0
LINE
  5
48D
  8
DETAIL
  6
CONTINUOUS
 62
     5
 10
119.0
 20
104.267914
 30
0.0
 11
119.0
 21
82.354749000000055
 31
0.0
  0
LINE
  5
48E
  8
DETAIL
  6
CONTINUOUS
 62
     5
 10
119.0
 20
-126.10000000000031
 30
0.0
 11
119.0
 21
-148.0
 31
0.0
  0
LINE
  5
48F
  8
DETAIL
  6
CONTINUOUS
 62
     5
 10
205.17584600000009
 20
126.6999999999998
 30
0.0
 11
202.5
 21
126.6999999999998
 31
0.0
  0
LINE
  5
490
  8
DETAIL
  6
CONTINUOUS
 62
     5
 10
201.5
 20
126.6999999999998
 30
0.0
 11
198.8241529999996
 21
126.6999999999998
 31
0.0
  0
LINE
  5
491
  8
DETAIL
  6
CONTINUOUS
 62
     5
 10
198.8241529999996
 20
127.6999999999998
 30
0.0
 11
201.5
 21
127.6999999999998
 31
0.0
  0
LINE
  5
492
  8
DETAIL
  6
CONTINUOUS
 62
     5
 10
202.5
 20
127.6999999999998
 30
0.0
 11
205.17584600000009
 21
127.6999999999998
 31
0.0
  0
LINE
  5
493
  8
DETAIL
  6
CONTINUOUS
 62
     5
 10
130.5256760000002
 20
135.0
 30
0.0
 11
238.5
 21
135.0
 31
0.0
  0
LINE
  5
494
  8
DETAIL
  6
CONTINUOUS
 62
     5
 10
237.0
 20
135.19999999999979
 30
0.0
 11
229.7650000000003
 21
135.19999999999979
 31
0.0
  0
LINE
  5
495
  8
DETAIL
  6
CONTINUOUS
 62
     5
 10
220.2349999999997
 20
135.19999999999979
 30
0.0
 11
207.7650000000003
 21
135.19999999999979
 31
0.0
  0
LINE
  5
496
  8
DETAIL
  6
CONTINUOUS
 62
     5
 10
198.23499999999959
 20
135.19999999999979
 30
0.0
 11
185.76721599999999
 21
135.19999999999979
 31
0.0
  0
LINE
  5
497
  8
DETAIL
  6
CONTINUOUS
 62
     5
 10
176.23721599999951
 20
135.19999999999979
 30
0.0
 11
143.0
 21
135.19999999999979
 31
0.0
  0
LINE
  5
498
  8
DETAIL
  6
CONTINUOUS
 62
     5
 10
37.981260999999897
 20
136.5
 30
0.0
 11
21.818739000000281
 21
136.5
 31
0.0
  0
LINE
  5
4AD
  8
DETAIL
  6
CONTINUOUS
 62
     5
 10
77.5
 20
113.4438599999994
 30
0.0
 11
82.966090700395355
 21
111.8319631798708
 31
0.0
  0
LINE
  5
4AE
  8
DETAIL
  6
CONTINUOUS
 62
     5
 10
77.5
 20
106.14845799999959
 30
0.0
 11
94.540492000000071
 21
101.06595899999949
 31
0.0
  0
LINE
  5
4AF
  8
DETAIL
  6
CONTINUOUS
 62
     5
 10
77.5
 20
109.7962309999993
 30
0.0
 11
87.379812718988347
 21
106.87311499058841
 31
0.0
  0
LINE
  5
4B2
  8
DETAIL
  6
CONTINUOUS
 62
     5
 10
79.890438999999787
 20
116.3871199999994
 30
0.0
 11
80.552195999999626
 21
116.1920460000001
 31
0.0
  0
LINE
  5
4B4
  8
DETAIL
  6
CONTINUOUS
 62
     5
 10
77.768167999999548
 20
102.4215389999999
 30
0.0
 11
90.522789999999986
 21
98.628315999999344
 31
0.0
  0
LINE
  5
4BA
  8
DETAIL
  6
CONTINUOUS
 62
     5
 10
73.663246000000072
 20
114.5751749999999
 30
0.0
 11
76.699999999999804
 21
113.6795829999992
 31
0.0
  0
LINE
  5
4BC
  8
DETAIL
  6
CONTINUOUS
 62
     5
 10
78.575372999999644
 20
98.535542999999976
 30
0.0
 11
88.30007524018869
 21
95.644469226874989
 31
0.0
  0
LINE
  5
4CA
  8
DETAIL
  6
CONTINUOUS
 62
     5
 10
61.981523999999808
 20
107.0928069999991
 30
0.0
 11
76.895551951191251
 21
102.67885563821579
 31
0.0
  0
LINE
  5
4CB
  8
DETAIL
  6
CONTINUOUS
 62
     5
 10
67.449493000000075
 20
112.7671409999993
 30
0.0
 11
76.699999999999804
 21
110.0319650000001
 31
0.0
  0
LINE
  5
4D2
  8
DETAIL
  6
CONTINUOUS
 62
     5
 10
63.043615999999922
 20
103.1290239999998
 30
0.0
 11
77.627205769235204
 21
98.815284556768503
 31
0.0
  0
LINE
  5
4D9
  8
DETAIL
  6
CONTINUOUS
 62
     5
 10
61.275849999999991
 20
110.9707769999995
 30
0.0
 11
76.699999999999804
 21
106.3842209999993
 31
0.0
  0
LINE
  5
4EF
  8
DETAIL
  6
CONTINUOUS
 62
     5
 10
57.30644350000005
 20
123.3130754999993
 30
0.0
 11
68.316866000000104
 21
119.6328739999999
 31
0.0
  0
LINE
  5
4F5
  8
DETAIL
  6
CONTINUOUS
 62
     5
 10
-18.239994999999912
 20
153.1816589999998
 30
0.0
 11
-14.25627799999984
 21
150.88165899999959
 31
0.0
  0
LINE
  5
4F6
  8
DETAIL
  6
CONTINUOUS
 62
     5
 10
-10.27256099999977
 20
157.78165899999931
 30
0.0
 11
-14.25627799999984
 21
160.08165899999941
 31
0.0
  0
LINE
  5
4F7
  8
DETAIL
  6
CONTINUOUS
 62
     5
 10
132.5
 20
127.0
 30
0.0
 11
132.5
 21
106.0
 31
0.0
  0
LINE
  5
4FA
  8
DETAIL
  6
CONTINUOUS
 62
     5
 10
132.80000000000021
 20
135.0
 30
0.0
 11
132.80000000000021
 21
-148.0
 31
0.0
  0
LINE
  5
4FC
  8
DETAIL
  6
CONTINUOUS
 62
     5
 10
133.0
 20
160.79999999999919
 30
0.0
 11
133.0
 21
170.19999999999979
 31
0.0
  0
LINE
  5
4FD
  8
DETAIL
  6
CONTINUOUS
 62
     5
 10
134.0
 20
-162.0
 30
0.0
 11
134.0
 21
-149.1801869999999
 31
0.0
  0
LINE
  5
4FF
  8
DETAIL
  6
CONTINUOUS
 62
     5
 10
134.0
 20
139.0
 30
0.0
 11
134.0
 21
149.0
 31
0.0
  0
LINE
  5
500
  8
DETAIL
  6
CONTINUOUS
 62
     5
 10
134.19999999999979
 20
135.0
 30
0.0
 11
134.19999999999979
 21
-148.0
 31
0.0
  0
LINE
  5
505
  8
DETAIL
  6
CONTINUOUS
 62
     5
 10
139.7100499999996
 20
160.79999999999919
 30
0.0
 11
139.7100499999996
 21
170.19999999999979
 31
0.0
  0
LINE
  5
506
  8
DETAIL
  6
CONTINUOUS
 62
     5
 10
139.77005000000011
 20
160.73999999999981
 30
0.0
 11
139.77005000000011
 21
170.25999999999931
 31
0.0
  0
LINE
  5
507
  8
DETAIL
  6
CONTINUOUS
 62
     5
 10
143.0
 20
-149.2000000000007
 30
0.0
 11
143.0
 21
-148.2000000000007
 31
0.0
  0
LINE
  5
508
  8
DETAIL
  6
CONTINUOUS
 62
     5
 10
-226.5876589999998
 20
121.60870799999969
 30
0.0
 11
-203.06431499999951
 21
124.4970109999995
 31
0.0
  0
LINE
  5
509
  8
DETAIL
  6
CONTINUOUS
 62
     5
 10
41.898715999999681
 20
137.5
 30
0.0
 11
37.981260999999897
 21
137.5
 31
0.0
  0
LINE
  5
50A
  8
DETAIL
  6
CONTINUOUS
 62
     5
 10
21.818739000000281
 20
137.5
 30
0.0
 11
17.901283000000149
 21
137.5
 31
0.0
  0
LINE
  5
50E
  8
DETAIL
  6
CONTINUOUS
 62
     5
 10
166.5
 20
139.75
 30
0.0
 11
165.5
 21
139.75
 31
0.0
  0
LINE
  5
50F
  8
DETAIL
  6
CONTINUOUS
 62
     5
 10
168.25
 20
141.5
 30
0.0
 11
166.5
 21
141.5
 31
0.0
  0
LINE
  5
510
  8
DETAIL
  6
CONTINUOUS
 62
     5
 10
165.5
 20
141.5
 30
0.0
 11
163.75
 21
141.5
 31
0.0
  0
LINE
  5
511
  8
DETAIL
  6
CONTINUOUS
 62
     5
 10
41.898715999999681
 20
142.5
 30
0.0
 11
37.981260999999897
 21
142.5
 31
0.0
  0
LINE
  5
512
  8
DETAIL
  6
CONTINUOUS
 62
     5
 10
21.818739000000281
 20
142.5
 30
0.0
 11
17.901283000000149
 21
142.5
 31
0.0
  0
LINE
  5
513
  8
DETAIL
  6
CONTINUOUS
 62
     5
 10
163.75
 20
142.5
 30
0.0
 11
165.5
 21
142.5
 31
0.0
  0
LINE
  5
514
  8
DETAIL
  6
CONTINUOUS
 62
     5
 10
166.5
 20
142.5
 30
0.0
 11
168.25
 21
142.5
 31
0.0
  0
LINE
  5
515
  8
DETAIL
  6
CONTINUOUS
 62
     5
 10
37.981260999999897
 20
143.5
 30
0.0
 11
21.818739000000281
 21
143.5
 31
0.0
  0
LINE
  5
516
  8
DETAIL
  6
CONTINUOUS
 62
     5
 10
165.5
 20
144.25
 30
0.0
 11
166.5
 21
144.25
 31
0.0
  0
LINE
  5
517
  8
DETAIL
  6
CONTINUOUS
 62
     5
 10
40.0
 20
145.0
 30
0.0
 11
56.420551000000152
 21
145.0
 31
0.0
  0
LINE
  5
518
  8
DETAIL
  6
CONTINUOUS
 62
     5
 10
134.0
 20
149.0
 30
0.0
 11
175.882216
 21
149.0
 31
0.0
  0
LINE
  5
519
  8
DETAIL
  6
CONTINUOUS
 62
     5
 10
186.1222159999997
 20
149.0
 30
0.0
 11
197.88000000000011
 21
149.0
 31
0.0
  0
LINE
  5
51A
  8
DETAIL
  6
CONTINUOUS
 62
     5
 10
208.11999999999989
 20
149.0
 30
0.0
 11
219.88000000000011
 21
149.0
 31
0.0
  0
LINE
  5
51B
  8
DETAIL
  6
CONTINUOUS
 62
     5
 10
230.11999999999989
 20
149.0
 30
0.0
 11
237.0
 21
149.0
 31
0.0
  0
LINE
  5
51E
  8
DETAIL
  6
CONTINUOUS
 62
     5
 10
153.75
 20
-155.5
 30
0.0
 11
153.75
 21
-154.5
 31
0.0
  0
LINE
  5
51F
  8
DETAIL
  6
CONTINUOUS
 62
     5
 10
155.5
 20
-157.25
 30
0.0
 11
155.5
 21
-155.5
 31
0.0
  0
LINE
  5
520
  8
DETAIL
  6
CONTINUOUS
 62
     5
 10
155.5
 20
-154.5
 30
0.0
 11
155.5
 21
-152.75
 31
0.0
  0
LINE
  5
521
  8
DETAIL
  6
CONTINUOUS
 62
     5
 10
156.5
 20
-152.75
 30
0.0
 11
156.5
 21
-154.5
 31
0.0
  0
LINE
  5
522
  8
DETAIL
  6
CONTINUOUS
 62
     5
 10
156.5
 20
-155.5
 30
0.0
 11
156.5
 21
-157.25
 31
0.0
  0
LINE
  5
523
  8
DETAIL
  6
CONTINUOUS
 62
     5
 10
158.25
 20
-154.5
 30
0.0
 11
158.25
 21
-155.5
 31
0.0
  0
LINE
  5
524
  8
DETAIL
  6
CONTINUOUS
 62
     5
 10
163.75
 20
141.5
 30
0.0
 11
163.75
 21
142.5
 31
0.0
  0
LINE
  5
525
  8
DETAIL
  6
CONTINUOUS
 62
     5
 10
165.5
 20
139.75
 30
0.0
 11
165.5
 21
141.5
 31
0.0
  0
LINE
  5
526
  8
DETAIL
  6
CONTINUOUS
 62
     5
 10
165.5
 20
142.5
 30
0.0
 11
165.5
 21
144.25
 31
0.0
  0
LINE
  5
527
  8
DETAIL
  6
CONTINUOUS
 62
     5
 10
166.5
 20
144.25
 30
0.0
 11
166.5
 21
142.5
 31
0.0
  0
LINE
  5
528
  8
DETAIL
  6
CONTINUOUS
 62
     5
 10
166.5
 20
141.5
 30
0.0
 11
166.5
 21
139.75
 31
0.0
  0
LINE
  5
529
  8
DETAIL
  6
CONTINUOUS
 62
     5
 10
168.25
 20
142.5
 30
0.0
 11
168.25
 21
141.5
 31
0.0
  0
LINE
  5
52A
  8
DETAIL
  6
CONTINUOUS
 62
     5
 10
-228.65943799999971
 20
138.48199199999911
 30
0.0
 11
-221.7116139999998
 21
139.33507800000001
 31
0.0
  0
LINE
  5
52B
  8
DETAIL
  6
CONTINUOUS
 62
     5
 10
-206.4766570000001
 20
152.2883039999997
 30
0.0
 11
-223.0521769999996
 21
150.25308599999971
 31
0.0
  0
LINE
  5
52C
  8
DETAIL
  6
CONTINUOUS
 62
     5
 10
168.0
 20
160.73999999999981
 30
0.0
 11
139.77005000000011
 21
160.73999999999981
 31
0.0
  0
LINE
  5
52D
  8
DETAIL
  6
CONTINUOUS
 62
     5
 10
133.0
 20
160.79999999999919
 30
0.0
 11
139.7100499999996
 21
160.79999999999919
 31
0.0
  0
LINE
  5
52E
  8
DETAIL
  6
CONTINUOUS
 62
     5
 10
68.822548000000111
 20
162.32499999999979
 30
0.0
 11
29.86914400000023
 21
162.32499999999979
 31
0.0
  0
LINE
  5
52F
  8
DETAIL
  6
CONTINUOUS
 62
     5
 10
88.190182000000263
 20
162.32499999999979
 30
0.0
 11
128.9264720000001
 21
162.32499999999979
 31
0.0
  0
LINE
  5
530
  8
DETAIL
  6
CONTINUOUS
 62
     5
 10
84.821241999999984
 20
168.6749999999993
 30
0.0
 11
29.86914400000023
 21
168.6749999999993
 31
0.0
  0
LINE
  5
531
  8
DETAIL
  6
CONTINUOUS
 62
     5
 10
87.390067999999701
 20
168.6749999999993
 30
0.0
 11
128.9264720000001
 21
168.6749999999993
 31
0.0
  0
LINE
  5
532
  8
DETAIL
  6
CONTINUOUS
 62
     5
 10
133.0
 20
170.19999999999979
 30
0.0
 11
139.7100499999996
 21
170.19999999999979
 31
0.0
  0
LINE
  5
533
  8
DETAIL
  6
CONTINUOUS
 62
     5
 10
168.0
 20
170.25999999999999
 30
0.0
 11
139.77005000000011
 21
170.25999999999931
 31
0.0
  0
LINE
  5
534
  8
DETAIL
  6
CONTINUOUS
 62
     5
 10
240.0
 20
178.39999999999961
 30
0.0
 11
238.39999999999961
 21
178.39999999999961
 31
0.0
  0
LINE
  5
535
  8
DETAIL
  6
CONTINUOUS
 62
     5
 10
-240.0
 20
178.39999999999961
 30
0.0
 11
-238.39999999999961
 21
178.39999999999961
 31
0.0
  0
LINE
  5
538
  8
DETAIL
  6
CONTINUOUS
 62
     5
 10
176.23721599999951
 20
135.0
 30
0.0
 11
176.23721599999951
 21
143.5
 31
0.0
  0
LINE
  5
539
  8
DETAIL
  6
CONTINUOUS
 62
     5
 10
176.2399999999997
 20
151.5
 30
0.0
 11
176.2399999999997
 21
152.5
 31
0.0
  0
LINE
  5
53A
  8
DETAIL
  6
CONTINUOUS
 62
     5
 10
185.7600000000001
 20
151.5
 30
0.0
 11
185.7600000000001
 21
164.23999999999981
 31
0.0
  0
LINE
  5
53C
  8
DETAIL
  6
CONTINUOUS
 62
     5
 10
185.76721599999999
 20
135.0
 30
0.0
 11
185.76721599999999
 21
143.5
 31
0.0
  0
LINE
  5
53D
  8
DETAIL
  6
CONTINUOUS
 62
     5
 10
238.39999999999961
 20
180.0
 30
0.0
 11
-238.39999999999961
 21
180.0
 31
0.0
  0
LINE
  5
53E
  8
DETAIL
  6
CONTINUOUS
 62
     5
 10
198.23499999999959
 20
143.5
 30
0.0
 11
198.23499999999959
 21
135.0
 31
0.0
  0
LINE
  5
540
  8
DETAIL
  6
CONTINUOUS
 62
     5
 10
198.23999999999981
 20
151.5
 30
0.0
 11
198.24210300000021
 21
151.7126889999999
 31
0.0
  0
LINE
  5
541
  8
DETAIL
  6
CONTINUOUS
 62
     5
 10
201.5
 20
-143.37584600000079
 30
0.0
 11
201.5
 21
-140.7000000000007
 31
0.0
  0
LINE
  5
542
  8
DETAIL
  6
CONTINUOUS
 62
     5
 10
201.5
 20
-139.7000000000007
 30
0.0
 11
201.5
 21
-137.0241530000003
 31
0.0
  0
LINE
  5
543
  8
DETAIL
  6
CONTINUOUS
 62
     5
 10
201.5
 20
124.0241539999997
 30
0.0
 11
201.5
 21
126.6999999999998
 31
0.0
  0
LINE
  5
544
  8
DETAIL
  6
CONTINUOUS
 62
     5
 10
201.5
 20
127.6999999999998
 30
0.0
 11
201.5
 21
130.37584699999931
 31
0.0
  0
LINE
  5
545
  8
DETAIL
  6
CONTINUOUS
 62
     5
 10
202.5
 20
130.37584699999931
 30
0.0
 11
202.5
 21
127.6999999999998
 31
0.0
  0
LINE
  5
546
  8
DETAIL
  6
CONTINUOUS
 62
     5
 10
202.5
 20
126.6999999999998
 30
0.0
 11
202.5
 21
124.0241539999997
 31
0.0
  0
LINE
  5
547
  8
DETAIL
  6
CONTINUOUS
 62
     5
 10
202.5
 20
-137.0241530000003
 30
0.0
 11
202.5
 21
-139.7000000000007
 31
0.0
  0
LINE
  5
548
  8
DETAIL
  6
CONTINUOUS
 62
     5
 10
202.5
 20
-140.7000000000007
 30
0.0
 11
202.5
 21
-143.37584600000079
 31
0.0
  0
LINE
  5
54A
  8
DETAIL
  6
CONTINUOUS
 62
     5
 10
207.7650000000003
 20
143.5
 30
0.0
 11
207.7650000000003
 21
135.0
 31
0.0
  0
LINE
  5
54B
  8
DETAIL
  6
CONTINUOUS
 62
     5
 10
207.7650000000003
 20
-148.0
 30
0.0
 11
207.7650000000003
 21
-148.5337200000003
 31
0.0
  0
LINE
  5
54C
  8
DETAIL
  6
CONTINUOUS
 62
     5
 10
212.75
 20
-155.5
 30
0.0
 11
212.75
 21
-154.5
 31
0.0
  0
LINE
  5
54D
  8
DETAIL
  6
CONTINUOUS
 62
     5
 10
214.5
 20
-157.25
 30
0.0
 11
214.5
 21
-155.5
 31
0.0
  0
LINE
  5
54E
  8
DETAIL
  6
CONTINUOUS
 62
     5
 10
214.5
 20
-154.5
 30
0.0
 11
214.5
 21
-152.75
 31
0.0
  0
LINE
  5
54F
  8
DETAIL
  6
CONTINUOUS
 62
     5
 10
215.5
 20
-152.75
 30
0.0
 11
215.5
 21
-154.5
 31
0.0
  0
LINE
  5
550
  8
DETAIL
  6
CONTINUOUS
 62
     5
 10
215.5
 20
-155.5
 30
0.0
 11
215.5
 21
-157.25
 31
0.0
  0
LINE
  5
551
  8
DETAIL
  6
CONTINUOUS
 62
     5
 10
139.7100499999996
 20
160.79999999999919
 30
0.0
 11
139.77005000000011
 21
160.73999999999981
 31
0.0
  0
LINE
  5
552
  8
DETAIL
  6
CONTINUOUS
 62
     5
 10
217.25
 20
-154.5
 30
0.0
 11
217.25
 21
-155.5
 31
0.0
  0
LINE
  5
553
  8
DETAIL
  6
CONTINUOUS
 62
     5
 10
220.2349999999997
 20
-161.2337200000002
 30
0.0
 11
220.2349999999997
 21
-148.0
 31
0.0
  0
LINE
  5
554
  8
DETAIL
  6
CONTINUOUS
 62
     5
 10
220.2349999999997
 20
135.0
 30
0.0
 11
220.2349999999997
 21
143.5
 31
0.0
  0
LINE
  5
557
  8
DETAIL
  6
CONTINUOUS
 62
     5
 10
229.7650000000003
 20
-161.2337200000002
 30
0.0
 11
229.7650000000003
 21
-148.0
 31
0.0
  0
LINE
  5
558
  8
DETAIL
  6
CONTINUOUS
 62
     5
 10
229.7650000000003
 20
135.0
 30
0.0
 11
229.7650000000003
 21
143.5
 31
0.0
  0
LINE
  5
559
  8
DETAIL
  6
CONTINUOUS
 62
     5
 10
237.0
 20
149.0
 30
0.0
 11
237.0
 21
135.0
 31
0.0
  0
LINE
  5
55A
  8
DETAIL
  6
CONTINUOUS
 62
     5
 10
237.0
 20
-162.0
 30
0.0
 11
237.0
 21
-148.0
 31
0.0
  0
LINE
  5
55B
  8
DETAIL
  6
CONTINUOUS
 62
     5
 10
237.30000000000021
 20
135.0
 30
0.0
 11
237.30000000000021
 21
-148.0
 31
0.0
  0
LINE
  5
55C
  8
DETAIL
  6
CONTINUOUS
 62
     5
 10
238.39999999999961
 20
180.0
 30
0.0
 11
238.39999999999961
 21
178.39999999999961
 31
0.0
  0
LINE
  5
55D
  8
DETAIL
  6
CONTINUOUS
 62
     5
 10
238.39999999999961
 20
-180.0
 30
0.0
 11
238.39999999999961
 21
-178.4000000000004
 31
0.0
  0
LINE
  5
55E
  8
DETAIL
  6
CONTINUOUS
 62
     5
 10
238.5
 20
135.0
 30
0.0
 11
238.5
 21
-148.0
 31
0.0
  0
LINE
  5
55F
  8
DETAIL
  6
CONTINUOUS
 62
     5
 10
240.0
 20
-178.4000000000004
 30
0.0
 11
240.0
 21
178.39999999999961
 31
0.0
  0
ARC
  5
560
  8
DETAIL
  6
CONTINUOUS
 62
     5
 10
-203.5174610000004
 20
-96.491046000000082
 30
0.0
 40
15.675000000000001
 50
180.0
 51
224.99999999998161
  0
ARC
  5
561
  8
DETAIL
  6
CONTINUOUS
 62
     5
 10
-203.5174610000004
 20
-96.491046000000082
 30
0.0
 40
9.3249999999999993
 50
180.0
 51
224.99999999998161
  0
ARC
  5
562
  8
DETAIL
  6
CONTINUOUS
 62
     5
 10
-172.75515799999991
 20
-106.03383000000029
 30
0.0
 40
2.5
 50
315.00000000001842
 51
44.999999999981569
  0
ARC
  5
563
  8
DETAIL
  6
CONTINUOUS
 62
     5
 10
-172.75515799999991
 20
-106.03383000000029
 30
0.0
 40
0.2
 50
315.00000000001842
 51
44.999999999981569
  0
ARC
  5
564
  8
DETAIL
  6
DASHED
 62
     5
 10
-187.38127900000021
 20
-7.694532000000434
 30
0.0
 40
22.760000000000002
 50
131.98145499995951
 51
178.3373029999764
  0
ARC
  5
565
  8
DETAIL
  6
DASHED
 62
     5
 10
-187.38127900000021
 20
-7.694532000000434
 30
0.0
 40
22.760000000000002
 50
202.66225799998409
 51
211.19299099998511
  0
ARC
  5
566
  8
DETAIL
  6
CONTINUOUS
 62
     5
 10
-161.4646709999997
 20
-7.9653630000002531
 30
0.0
 40
21.639671
 50
359.99803299999451
 51
6.2719280000207203
  0
ARC
  5
567
  8
DETAIL
  6
CONTINUOUS
 62
     5
 10
-201.01746100000031
 20
-36.681594000000587
 30
0.0
 40
18.175000000000001
 50
93.000000000006082
 51
180.0
  0
ARC
  5
568
  8
DETAIL
  6
DASHED
 62
     5
 10
-187.38127900000021
 20
-7.694532000000434
 30
0.0
 40
13.24
 50
138.92269100004
 51
162.36287899995779
  0
ARC
  5
56A
  8
DETAIL
  6
CONTINUOUS
 62
     5
 10
-201.01746100000031
 20
-36.681594000000587
 30
0.0
 40
11.824999999999999
 50
93.000000000006082
 51
180.0
  0
ARC
  5
56B
  8
DETAIL
  6
DASHED
 62
     5
 10
-179.7107169999999
 20
-47.783234000000441
 30
0.0
 40
5.5599999999999987
 50
28.16389600002244
 51
269.42394400006208
  0
ARC
  5
56C
  8
DETAIL
  6
DASHED
 62
     5
 10
-179.7107169999999
 20
-47.783234000000441
 30
0.0
 40
4.759999999999998
 50
59.130773999997778
 51
239.13077399999781
  0
ARC
  5
56D
  8
DETAIL
  6
CONTINUOUS
 62
     5
 10
-96.338532934646707
 20
-97.644435830337514
 30
0.0
 40
4.7813050697044801
 50
231.4789454610349
 51
59.349580244663208
  0
ARC
  5
56F
  8
DETAIL
  6
CONTINUOUS
 62
     5
 10
-96.700000000000017
 20
-178.80000000000021
 30
0.0
 40
1.0
 50
180.0
 51
270.0
  0
CIRCLE
  5
570
  8
DETAIL
  6
CONTINUOUS
 62
     5
 10
-37.0
 20
-47.0
 30
0.0
 40
50.0
  0
ARC
  5
572
  8
DETAIL
  6
CONTINUOUS
 62
     5
 10
-155.15557900000019
 20
-2.880677000000103
 30
0.0
 40
13.089365000000001
 50
74.857194000002593
 51
105.51185699999139
  0
ARC
  5
573
  8
DETAIL
  6
CONTINUOUS
 62
     5
 10
-203.97091699999959
 20
152.39446799999951
 30
0.0
 40
2.5
 50
97.000000000031449
 51
186.99999999997971
  0
ARC
  5
574
  8
DETAIL
  6
CONTINUOUS
 62
     5
 10
-203.97091699999959
 20
152.39446799999951
 30
0.0
 40
0.2
 50
97.000000000031449
 51
186.99999999997971
  0
ARC
  5
579
  8
DETAIL
  6
CONTINUOUS
 62
     5
 10
15.80000000000018
 20
-109.8000000000002
 30
0.0
 40
0.2
 50
270.0
 51
0.0
  0
ARC
  5
57A
  8
DETAIL
  6
CONTINUOUS
 62
     5
 10
17.199999999999822
 20
-84.200000000000699
 30
0.0
 40
1.1999999999999991
 50
90.0
 51
180.0
  0
ARC
  5
57B
  8
DETAIL
  6
CONTINUOUS
 62
     5
 10
23.7533199999998
 20
-21.211745000000519
 30
0.0
 40
3.774999999999999
 50
56.071163000014742
 51
145.42339399996561
  0
ARC
  5
57C
  8
DETAIL
  6
CONTINUOUS
 62
     5
 10
23.7533199999998
 20
-21.211745000000519
 30
0.0
 40
3.774999999999999
 50
261.37792499997289
 51
306.05405399994231
  0
ARC
  5
57D
  8
DETAIL
  6
CONTINUOUS
 62
     5
 10
23.7533199999998
 20
-21.211745000000519
 30
0.0
 40
3.174999999999998
 50
293.00000000000432
 51
314.33106899999439
  0
ARC
  5
57E
  8
DETAIL
  6
CONTINUOUS
 62
     5
 10
23.7533199999998
 20
-21.211745000000519
 30
0.0
 40
3.174999999999998
 50
47.76365199997457
 51
113.00000000000431
  0
ARC
  5
583
  8
DETAIL
  6
CONTINUOUS
 62
     5
 10
77.199999999999804
 20
-76.300000000000196
 30
0.0
 40
1.8
 50
270.0
 51
0.0
  0
ARC
  5
584
  8
DETAIL
  6
CONTINUOUS
 62
     5
 10
49.800000000000182
 20
-84.200000000000699
 30
0.0
 40
1.1999999999999991
 50
0.0
 51
90.0
  0
ARC
  5
585
  8
DETAIL
  6
CONTINUOUS
 62
     5
 10
77.199999999999804
 20
-76.300000000000196
 30
0.0
 40
0.2
 50
270.0
 51
0.0
  0
ARC
  5
588
  8
DETAIL
  6
CONTINUOUS
 62
     5
 10
134.19999999999979
 20
-148.0
 30
0.0
 40
1.1999999999999991
 50
180.0
 51
270.0
  0
ARC
  5
589
  8
DETAIL
  6
CONTINUOUS
 62
     5
 10
134.19999999999979
 20
-148.0
 30
0.0
 40
0.2
 50
180.0
 51
270.0
  0
ARC
  5
58A
  8
DETAIL
  6
CONTINUOUS
 62
     5
 10
225.0
 20
-161.2337200000002
 30
0.0
 40
4.764999999999997
 50
180.0
 51
0.0
  0
ARC
  5
58D
  8
DETAIL
  6
CONTINUOUS
 62
     5
 10
202.0
 20
-140.2000000000007
 30
0.0
 40
3.2149649999999981
 50
81.052887999937681
 51
98.947112000062333
  0
ARC
  5
58E
  8
DETAIL
  6
CONTINUOUS
 62
     5
 10
202.0
 20
-140.2000000000007
 30
0.0
 40
3.2149649999999981
 50
261.0528879999377
 51
278.9471120000623
  0
ARC
  5
58F
  8
DETAIL
  6
CONTINUOUS
 62
     5
 10
202.0
 20
-140.2000000000007
 30
0.0
 40
3.2149649999999981
 50
351.05288799998908
 51
8.9471120000108453
  0
ARC
  5
590
  8
DETAIL
  6
CONTINUOUS
 62
     5
 10
202.0
 20
-140.2000000000007
 30
0.0
 40
3.2149649999999981
 50
171.05288799998911
 51
188.9471120000108
  0
ARC
  5
591
  8
DETAIL
  6
CONTINUOUS
 62
     5
 10
27.230292999999609
 20
-2.3153980000006391
 30
0.0
 40
1.7
 50
1.161050000015079
 51
181.16105000001511
  0
ARC
  5
595
  8
DETAIL
  6
CONTINUOUS
 62
     5
 10
77.199999999999804
 20
21.299999999999269
 30
0.0
 40
1.8
 50
0.0
 51
90.0
  0
ARC
  5
596
  8
DETAIL
  6
CONTINUOUS
 62
     5
 10
77.199999999999804
 20
21.299999999999269
 30
0.0
 40
0.2
 50
0.0
 51
90.0
  0
ARC
  5
598
  8
DETAIL
  6
CONTINUOUS
 62
     5
 10
29.86914400000023
 20
165.5
 30
0.0
 40
3.174999999999998
 50
90.0
 51
270.0
  0
ARC
  5
59B
  8
DETAIL
  6
CONTINUOUS
 62
     5
 10
57.095000000000248
 20
113.06099999999969
 30
0.0
 40
3.174999999999998
 50
106.2225560000372
 51
287.49667099995492
  0
ARC
  5
59D
  8
DETAIL
  6
CONTINUOUS
 62
     5
 10
98.105838999999847
 20
90.659792999999794
 30
0.0
 40
3.174999999999998
 50
304.67886700003771
 51
124.6788670000376
  0
ARC
  5
5A2
  8
DETAIL
  6
CONTINUOUS
 62
     5
 10
105.0
 20
106.0
 30
0.0
 40
28.300000000000001
 50
180.0
 51
225.92145800006699
  0
ARC
  5
5A3
  8
DETAIL
  6
CONTINUOUS
 62
     5
 10
105.0
 20
106.0
 30
0.0
 40
28.300000000000001
 50
239.5260880000211
 51
349.21373900002271
  0
ARC
  5
5A4
  8
DETAIL
  6
CONTINUOUS
 62
     5
 10
105.0
 20
106.0
 30
0.0
 40
27.5
 50
252.59630799993661
 51
0.0
  0
ARC
  5
5A5
  8
DETAIL
  6
CONTINUOUS
 62
     5
 10
105.0
 20
106.0
 30
0.0
 40
27.5
 50
180.0
 51
226.2529710000166
  0
ARC
  5
5A6
  8
DETAIL
  6
CONTINUOUS
 62
     5
 10
105.0
 20
127.0
 30
0.0
 40
28.300000000000001
 50
20.692776000014089
 51
189.78194899998729
  0
ARC
  5
5A7
  8
DETAIL
  6
CONTINUOUS
 62
     5
 10
105.0
 20
127.0
 30
0.0
 40
28.300000000000001
 50
10.78626099997728
 51
13.0704179999909
  0
ARC
  5
5A9
  8
DETAIL
  6
CONTINUOUS
 62
     5
 10
105.0
 20
127.0
 30
0.0
 40
27.5
 50
0.0
 51
15.17797400001384
  0
ARC
  5
5AA
  8
DETAIL
  6
CONTINUOUS
 62
     5
 10
105.0
 20
127.0
 30
0.0
 40
26.75
 50
203.0493189999967
 51
251.96670299994159
  0
ARC
  5
5AB
  8
DETAIL
  6
CONTINUOUS
 62
     5
 10
105.0
 20
127.0
 30
0.0
 40
26.75
 50
251.92712400002719
 51
189.4069739999924
  0
ARC
  5
5AC
  8
DETAIL
  6
CONTINUOUS
 62
     5
 10
105.0
 20
127.0
 30
0.0
 40
3.174999999999998
 50
286.22356999998323
 51
106.25417699995739
  0
ARC
  5
5B1
  8
DETAIL
  6
CONTINUOUS
 62
     5
 10
202.0
 20
127.1999999999998
 30
0.0
 40
3.2149649999999981
 50
81.052887999937681
 51
98.947112000062333
  0
ARC
  5
5B2
  8
DETAIL
  6
CONTINUOUS
 62
     5
 10
202.0
 20
127.1999999999998
 30
0.0
 40
3.2149649999999981
 50
261.0528879999377
 51
278.9471120000623
  0
ARC
  5
5B3
  8
DETAIL
  6
CONTINUOUS
 62
     5
 10
202.0
 20
127.1999999999998
 30
0.0
 40
3.2149649999999981
 50
351.05288799998908
 51
8.9471120000108453
  0
ARC
  5
5B4
  8
DETAIL
  6
CONTINUOUS
 62
     5
 10
202.0
 20
127.1999999999998
 30
0.0
 40
3.2149649999999981
 50
171.05288799998911
 51
188.9471120000108
  0
ARC
  5
5B5
  8
DETAIL
  6
CONTINUOUS
 62
     5
 10
168.0
 20
152.5
 30
0.0
 40
17.760000000000002
 50
0.0
 51
90.0
  0
ARC
  5
5B6
  8
DETAIL
  6
CONTINUOUS
 62
     5
 10
168.0
 20
152.5
 30
0.0
 40
8.2400000000000002
 50
0.0
 51
90.0
  0
ARC
  5
5B7
  8
DETAIL
  6
CONTINUOUS
 62
     5
 10
181.0
 20
164.23999999999981
 30
0.0
 40
4.759999999999998
 50
0.0
 51
136.96069600002591
  0
LINE
  5
1A8C
  8
DETAIL
  6
CONTINUOUS
 62
     5
 10
54.985157000000058
 20
92.9209350000001
 30
0.0
 11
51.594393999999753
 21
80.265817999999854
 31
0.0
  0
LINE
  5
1A9C
  8
DETAIL
  6
CONTINUOUS
 62
     5
 10
58.20394442367607
 20
126.69047867740321
 30
0.0
 11
74.340048000000024
 21
121.38545699999941
 31
0.0
  0
LINE
  5
1AA4
  8
DETAIL
  6
CONTINUOUS
 62
     5
 10
59.094725660738312
 20
130.0779489668424
 30
0.0
 11
76.839267000000291
 21
124.19586799999981
 31
0.0
  0
LINE
  5
1ADD
  8
DETAIL
  6
CONTINUOUS
 62
     5
 10
59.905772160738742
 20
133.49156046684149
 30
0.0
 11
76.714791000000346
 21
127.91487599999979
 31
0.0
  0
LINE
  5
1B0B
  8
DETAIL
  6
CONTINUOUS
 62
     5
 10
84.044226500000136
 20
162.20248599999911
 30
0.0
 11
88.190182000000263
 21
162.32499999999979
 31
0.0
  0
LINE
  5
1B11
  8
DETAIL
  6
CONTINUOUS
 62
     5
 10
76.807904000000221
 20
167.79436699999951
 30
0.0
 11
79.212411000000444
 21
168.16436900000011
 31
0.0
  0
LINE
  5
1B12
  8
DETAIL
  6
CONTINUOUS
 62
     5
 10
79.212411000000444
 20
168.16436900000011
 30
0.0
 11
82.053488999999885
 21
168.4484069999998
 31
0.0
  0
LINE
  5
1B13
  8
DETAIL
  6
CONTINUOUS
 62
     5
 10
82.053488999999885
 20
168.4484069999998
 30
0.0
 11
85.07415200000014
 21
168.61829399999991
 31
0.0
  0
LINE
  5
1B14
  8
DETAIL
  6
CONTINUOUS
 62
     5
 10
85.07415200000014
 20
168.61829399999991
 30
0.0
 11
88.190182000000263
 21
168.6749999999993
 31
0.0
  0
LINE
  5
1B15
  8
DETAIL
  6
CONTINUOUS
 62
     5
 10
54.1220089999997
 20
141.7890469999993
 30
0.0
 11
70.731625000000349
 21
164.9918889999999
 31
0.0
  0
LINE
  5
1B16
  8
DETAIL
  6
CONTINUOUS
 62
     5
 10
54.1220089999997
 20
141.7890469999993
 30
0.0
 11
53.954077999999761
 21
141.5284519999995
 31
0.0
  0
LINE
  5
1B17
  8
DETAIL
  6
CONTINUOUS
 62
     5
 10
59.28540799999972
 20
138.09285799999969
 30
0.0
 11
75.637413000000379
 21
160.93582999999941
 31
0.0
  0
LINE
  5
1B18
  8
DETAIL
  6
CONTINUOUS
 62
     5
 10
132.75147199999981
 20
169.27499999999961
 30
0.0
 11
132.1514719999995
 21
168.6749999999993
 31
0.0
  0
LINE
  5
1B28
  8
DETAIL
  6
CONTINUOUS
 62
     5
 10
133.0
 20
161.7249999999994
 30
0.0
 11
132.75147199999981
 21
161.7249999999994
 31
0.0
  0
LINE
  5
1B29
  8
DETAIL
  6
CONTINUOUS
 62
     5
 10
88.190182000000263
 20
162.32499999999979
 30
0.0
 11
132.1514719999995
 21
162.32499999999979
 31
0.0
  0
LINE
  5
1B2A
  8
DETAIL
  6
CONTINUOUS
 62
     5
 10
88.190182000000263
 20
168.6749999999993
 30
0.0
 11
132.1514719999995
 21
168.6749999999993
 31
0.0
  0
LINE
  5
1B2B
  8
DETAIL
  6
CONTINUOUS
 62
     5
 10
133.0
 20
169.27499999999961
 30
0.0
 11
132.75147199999981
 21
169.27499999999961
 31
0.0
  0
LINE
  5
1B2C
  8
DETAIL
  6
CONTINUOUS
 62
     5
 10
78.658628000000121
 20
137.3451509999995
 30
0.0
 11
61.954233000000379
 21
141.82107999999971
 31
0.0
  0
LINE
  5
1B30
  8
DETAIL
  6
CONTINUOUS
 62
     5
 10
132.1514719999995
 20
162.32499999999979
 30
0.0
 11
132.1514719999995
 21
168.6749999999993
 31
0.0
  0
LINE
  5
1B31
  8
DETAIL
  6
CONTINUOUS
 62
     5
 10
132.75147199999981
 20
161.7249999999994
 30
0.0
 11
132.75147199999981
 21
169.27499999999961
 31
0.0
  0
LINE
  5
1B32
  8
DETAIL
  6
CONTINUOUS
 62
     5
 10
132.75147199999981
 20
161.7249999999994
 30
0.0
 11
132.1514719999995
 21
162.32499999999979
 31
0.0
  0
ARC
  5
1B33
  8
DETAIL
  6
CONTINUOUS
 62
     5
 10
56.703707999999999
 20
139.9409519999999
 30
0.0
 40
3.174999999999998
 50
149.99999999998971
 51
324.4032450000069
  0
LINE
  5
1B34
  8
DETAIL
  6
CONTINUOUS
 62
     5
 10
64.229844000000412
 20
145.0
 30
0.0
 11
83.162188000000242
 21
145.0
 31
0.0
  0
LINE
  5
1B42
  8
DETAIL
  6
CONTINUOUS
 62
     5
 10
-102.89999999999981
 20
-160.5
 30
0.0
 11
-102.89999999999981
 21
-162.25
 31
0.0
  0
LINE
  5
1B43
  8
DETAIL
  6
CONTINUOUS
 62
     5
 10
-102.89999999999981
 20
-157.75
 30
0.0
 11
-102.89999999999981
 21
-159.5
 31
0.0
  0
LINE
  5
1B44
  8
DETAIL
  6
CONTINUOUS
 62
     5
 10
-103.89999999999981
 20
-159.5
 30
0.0
 11
-103.89999999999981
 21
-157.75
 31
0.0
  0
LINE
  5
1B45
  8
DETAIL
  6
CONTINUOUS
 62
     5
 10
-103.89999999999981
 20
-162.25
 30
0.0
 11
-103.89999999999981
 21
-160.5
 31
0.0
  0
LINE
  5
1B46
  8
DETAIL
  6
CONTINUOUS
 62
     5
 10
-105.64999999999981
 20
-160.5
 30
0.0
 11
-105.64999999999981
 21
-159.5
 31
0.0
  0
LINE
  5
1B47
  8
DETAIL
  6
CONTINUOUS
 62
     5
 10
-103.89999999999981
 20
-157.75
 30
0.0
 11
-102.89999999999981
 21
-157.75
 31
0.0
  0
LINE
  5
1B48
  8
DETAIL
  6
CONTINUOUS
 62
     5
 10
-102.89999999999981
 20
-159.5
 30
0.0
 11
-102.7551999999997
 21
-159.5
 31
0.0
  0
LINE
  5
1B49
  8
DETAIL
  6
CONTINUOUS
 62
     5
 10
-105.64999999999981
 20
-159.5
 30
0.0
 11
-103.89999999999981
 21
-159.5
 31
0.0
  0
LINE
  5
1B4A
  8
DETAIL
  6
CONTINUOUS
 62
     5
 10
-103.89999999999981
 20
-160.5
 30
0.0
 11
-105.64999999999981
 21
-160.5
 31
0.0
  0
LINE
  5
1B4B
  8
DETAIL
  6
CONTINUOUS
 62
     5
 10
-102.7551999999997
 20
-160.5
 30
0.0
 11
-102.89999999999981
 21
-160.5
 31
0.0
  0
LINE
  5
1B4C
  8
DETAIL
  6
CONTINUOUS
 62
     5
 10
-102.89999999999981
 20
-162.25
 30
0.0
 11
-103.89999999999981
 21
-162.25
 31
0.0
  0
LINE
  5
1B54
  8
DETAIL
  6
CONTINUOUS
 62
     5
 10
-95.483857999999614
 20
-7.8400480000000243
 30
0.0
 11
-90.827454999999645
 21
-0.0502740000001722
 31
0.0
  0
LINE
  5
1B58
  8
DETAIL
  6
CONTINUOUS
 62
     5
 10
66.111275000000205
 20
94.771326000000045
 30
0.0
 11
64.299541999999747
 21
101.53280699999959
 31
0.0
  0
LINE
  5
1B59
  8
DETAIL
  6
CONTINUOUS
 62
     5
 10
63.168171000000257
 20
102.6641779999991
 30
0.0
 11
60.96654000000035
 21
110.8807759999999
 31
0.0
  0
LINE
  5
1B5A
  8
DETAIL
  6
CONTINUOUS
 62
     5
 10
65.338534999999851
 20
94.56427099999928
 30
0.0
 11
70.472905999999966
 21
75.401785999999419
 31
0.0
  0
LINE
  5
1B6B
  8
DETAIL
  6
CONTINUOUS
 62
     5
 10
58.432165000000168
 20
92.713714999999866
 30
0.0
 11
57.198867000000071
 21
97.316445999999786
 31
0.0
  0
LINE
  5
1B6C
  8
DETAIL
  6
CONTINUOUS
 62
     5
 10
59.20490599999993
 20
92.92076999999972
 30
0.0
 11
64.92699999999968
 21
71.564644000000044
 31
0.0
  0
LINE
  5
1B7A
  8
DETAIL
  6
CONTINUOUS
 62
     5
 10
64.256744000000253
 20
50.43157099999916
 30
0.0
 11
51.966077000000041
 21
45.452532999999669
 31
0.0
  0
LINE
  5
1B7B
  8
DETAIL
  6
CONTINUOUS
 62
     5
 10
61.872524000000332
 20
56.316976000000061
 30
0.0
 11
49.584592999999579
 21
51.339046999999482
 31
0.0
  0
LINE
  5
1B7C
  8
DETAIL
  6
CONTINUOUS
 62
     5
 10
66.111275000000205
 20
94.771326000000045
 30
0.0
 11
58.432165000000168
 21
92.713714999999866
 31
0.0
  0
LINE
  5
1B7D
  8
DETAIL
  6
CONTINUOUS
 62
     5
 10
64.299541999999747
 20
101.53280699999959
 30
0.0
 11
57.915406000000083
 21
99.822182999999313
 31
0.0
  0
LINE
  5
1B7E
  8
DETAIL
  6
CONTINUOUS
 62
     5
 10
63.168171000000257
 20
102.6641779999991
 30
0.0
 11
57.220709999999599
 21
101.0705600000001
 31
0.0
  0
LINE
  5
1B7F
  8
DETAIL
  6
CONTINUOUS
 62
     5
 10
64.299541999999747
 20
101.53280699999959
 30
0.0
 11
63.168171000000257
 21
102.6641779999991
 31
0.0
  0
LINE
  5
1B81
  8
DETAIL
  6
CONTINUOUS
 62
     5
 10
66.231308000000354
 20
91.23226699999941
 30
0.0
 11
85.239220999999816
 21
85.618410999999469
 31
0.0
  0
LINE
  5
1B82
  8
DETAIL
  6
CONTINUOUS
 62
     5
 10
-214.6293990000004
 20
140.9158019999995
 30
0.0
 11
-215.6293990000004
 21
140.9158019999995
 31
0.0
  0
LINE
  5
1B83
  8
DETAIL
  6
CONTINUOUS
 62
     5
 10
-212.87939900000049
 20
142.6658019999995
 30
0.0
 11
-214.6293990000004
 21
142.6658019999995
 31
0.0
  0
LINE
  5
1B84
  8
DETAIL
  6
CONTINUOUS
 62
     5
 10
-215.6293990000004
 20
142.6658019999995
 30
0.0
 11
-217.3793990000004
 21
142.6658019999995
 31
0.0
  0
LINE
  5
1B85
  8
DETAIL
  6
CONTINUOUS
 62
     5
 10
-217.3793990000004
 20
143.6658019999995
 30
0.0
 11
-215.6293990000004
 21
143.6658019999995
 31
0.0
  0
LINE
  5
1B86
  8
DETAIL
  6
CONTINUOUS
 62
     5
 10
-214.6293990000004
 20
143.6658019999995
 30
0.0
 11
-212.87939900000049
 21
143.6658019999995
 31
0.0
  0
LINE
  5
1B87
  8
DETAIL
  6
CONTINUOUS
 62
     5
 10
-215.6293990000004
 20
145.4158019999995
 30
0.0
 11
-214.6293990000004
 21
145.4158019999995
 31
0.0
  0
LINE
  5
1B88
  8
DETAIL
  6
CONTINUOUS
 62
     5
 10
-217.3793990000004
 20
142.6658019999995
 30
0.0
 11
-217.3793990000004
 21
143.6658019999995
 31
0.0
  0
LINE
  5
1B89
  8
DETAIL
  6
CONTINUOUS
 62
     5
 10
-215.6293990000004
 20
140.9158019999995
 30
0.0
 11
-215.6293990000004
 21
142.6658019999995
 31
0.0
  0
LINE
  5
1B8A
  8
DETAIL
  6
CONTINUOUS
 62
     5
 10
-215.6293990000004
 20
143.6658019999995
 30
0.0
 11
-215.6293990000004
 21
145.4158019999995
 31
0.0
  0
LINE
  5
1B8B
  8
DETAIL
  6
CONTINUOUS
 62
     5
 10
-214.6293990000004
 20
145.4158019999995
 30
0.0
 11
-214.6293990000004
 21
143.6658019999995
 31
0.0
  0
LINE
  5
1B8C
  8
DETAIL
  6
CONTINUOUS
 62
     5
 10
-214.6293990000004
 20
142.6658019999995
 30
0.0
 11
-214.6293990000004
 21
140.9158019999995
 31
0.0
  0
LINE
  5
1B8D
  8
DETAIL
  6
CONTINUOUS
 62
     5
 10
-212.87939900000049
 20
143.6658019999995
 30
0.0
 11
-212.87939900000049
 21
142.6658019999995
 31
0.0
  0
LINE
  5
1B8E
  8
DETAIL
  6
CONTINUOUS
 62
     5
 10
-220.1147899999996
 20
128.15216299999969
 30
0.0
 11
-221.1147899999996
 21
128.15216299999969
 31
0.0
  0
LINE
  5
1B8F
  8
DETAIL
  6
CONTINUOUS
 62
     5
 10
-218.3647899999996
 20
129.90216299999969
 30
0.0
 11
-220.1147899999996
 21
129.90216299999969
 31
0.0
  0
LINE
  5
1B90
  8
DETAIL
  6
CONTINUOUS
 62
     5
 10
-221.1147899999996
 20
129.90216299999969
 30
0.0
 11
-222.8647899999996
 21
129.90216299999969
 31
0.0
  0
LINE
  5
1B91
  8
DETAIL
  6
CONTINUOUS
 62
     5
 10
-222.8647899999996
 20
130.90216299999969
 30
0.0
 11
-221.1147899999996
 21
130.90216299999969
 31
0.0
  0
LINE
  5
1B92
  8
DETAIL
  6
CONTINUOUS
 62
     5
 10
-220.1147899999996
 20
130.90216299999969
 30
0.0
 11
-218.3647899999996
 21
130.90216299999969
 31
0.0
  0
LINE
  5
1B93
  8
DETAIL
  6
CONTINUOUS
 62
     5
 10
-221.1147899999996
 20
132.65216299999969
 30
0.0
 11
-220.1147899999996
 21
132.65216299999969
 31
0.0
  0
LINE
  5
1B94
  8
DETAIL
  6
CONTINUOUS
 62
     5
 10
-222.8647899999996
 20
129.90216299999969
 30
0.0
 11
-222.8647899999996
 21
130.90216299999969
 31
0.0
  0
LINE
  5
1B95
  8
DETAIL
  6
CONTINUOUS
 62
     5
 10
-221.1147899999996
 20
128.15216299999969
 30
0.0
 11
-221.1147899999996
 21
129.90216299999969
 31
0.0
  0
LINE
  5
1B96
  8
DETAIL
  6
CONTINUOUS
 62
     5
 10
-221.1147899999996
 20
130.90216299999969
 30
0.0
 11
-221.1147899999996
 21
132.65216299999969
 31
0.0
  0
LINE
  5
1B97
  8
DETAIL
  6
CONTINUOUS
 62
     5
 10
-220.1147899999996
 20
132.65216299999969
 30
0.0
 11
-220.1147899999996
 21
130.90216299999969
 31
0.0
  0
LINE
  5
1B98
  8
DETAIL
  6
CONTINUOUS
 62
     5
 10
-220.1147899999996
 20
129.90216299999969
 30
0.0
 11
-220.1147899999996
 21
128.15216299999969
 31
0.0
  0
LINE
  5
1B99
  8
DETAIL
  6
CONTINUOUS
 62
     5
 10
-218.3647899999996
 20
130.90216299999969
 30
0.0
 11
-218.3647899999996
 21
129.90216299999969
 31
0.0
  0
LINE
  5
1B9A
  8
DETAIL
  6
CONTINUOUS
 62
     5
 10
40.783604999999618
 20
57.363813999999358
 30
0.0
 11
39.783604999999632
 21
57.363813999999358
 31
0.0
  0
LINE
  5
1B9B
  8
DETAIL
  6
CONTINUOUS
 62
     5
 10
42.533604999999632
 20
59.113813999999351
 30
0.0
 11
40.783604999999618
 21
59.113813999999351
 31
0.0
  0
LINE
  5
1B9C
  8
DETAIL
  6
CONTINUOUS
 62
     5
 10
39.783604999999632
 20
59.113813999999351
 30
0.0
 11
38.033604999999632
 21
59.113813999999351
 31
0.0
  0
LINE
  5
1B9D
  8
DETAIL
  6
CONTINUOUS
 62
     5
 10
38.033604999999632
 20
60.113813999999373
 30
0.0
 11
39.783604999999632
 21
60.113813999999373
 31
0.0
  0
LINE
  5
1B9E
  8
DETAIL
  6
CONTINUOUS
 62
     5
 10
40.783604999999618
 20
60.113813999999373
 30
0.0
 11
42.533604999999632
 21
60.113813999999373
 31
0.0
  0
LINE
  5
1B9F
  8
DETAIL
  6
CONTINUOUS
 62
     5
 10
39.783604999999632
 20
61.863813999999373
 30
0.0
 11
40.783604999999618
 21
61.863813999999373
 31
0.0
  0
LINE
  5
1BA0
  8
DETAIL
  6
CONTINUOUS
 62
     5
 10
38.033604999999632
 20
59.113813999999351
 30
0.0
 11
38.033604999999632
 21
60.113813999999373
 31
0.0
  0
LINE
  5
1BA1
  8
DETAIL
  6
CONTINUOUS
 62
     5
 10
39.783604999999632
 20
57.363813999999358
 30
0.0
 11
39.783604999999632
 21
59.113813999999351
 31
0.0
  0
LINE
  5
1BA2
  8
DETAIL
  6
CONTINUOUS
 62
     5
 10
39.783604999999632
 20
60.113813999999373
 30
0.0
 11
39.783604999999632
 21
61.863813999999373
 31
0.0
  0
LINE
  5
1BA3
  8
DETAIL
  6
CONTINUOUS
 62
     5
 10
40.783604999999618
 20
61.863813999999373
 30
0.0
 11
40.783604999999618
 21
60.113813999999373
 31
0.0
  0
LINE
  5
1BA4
  8
DETAIL
  6
CONTINUOUS
 62
     5
 10
40.783604999999618
 20
59.113813999999351
 30
0.0
 11
40.783604999999618
 21
57.363813999999358
 31
0.0
  0
LINE
  5
1BA5
  8
DETAIL
  6
CONTINUOUS
 62
     5
 10
42.533604999999632
 20
60.113813999999373
 30
0.0
 11
42.533604999999632
 21
59.113813999999351
 31
0.0
  0
LINE
  5
1BA8
  8
DETAIL
  6
CONTINUOUS
 62
     5
 10
-143.4612569999999
 20
-96.654229000000655
 30
0.0
 11
-142.73225699999961
 21
-96.654229000000655
 31
0.0
  0
LINE
  5
1BA9
  8
DETAIL
  6
CONTINUOUS
 62
     5
 10
-142.73225699999961
 20
-97.929979000000444
 30
0.0
 11
-141.4565069999999
 21
-97.929979000000444
 31
0.0
  0
LINE
  5
1BAA
  8
DETAIL
  6
CONTINUOUS
 62
     5
 10
-144.73700699999969
 20
-97.929979000000444
 30
0.0
 11
-143.4612569999999
 21
-97.929979000000444
 31
0.0
  0
LINE
  5
1BAB
  8
DETAIL
  6
CONTINUOUS
 62
     5
 10
-143.4612569999999
 20
-98.658979000000727
 30
0.0
 11
-144.73700699999969
 21
-98.658979000000727
 31
0.0
  0
LINE
  5
1BAC
  8
DETAIL
  6
CONTINUOUS
 62
     5
 10
-141.4565069999999
 20
-98.658979000000727
 30
0.0
 11
-142.73225699999961
 21
-98.658979000000727
 31
0.0
  0
LINE
  5
1BAD
  8
DETAIL
  6
CONTINUOUS
 62
     5
 10
-142.73225699999961
 20
-99.934729000000516
 30
0.0
 11
-143.4612569999999
 21
-99.934729000000516
 31
0.0
  0
LINE
  5
1BAE
  8
DETAIL
  6
CONTINUOUS
 62
     5
 10
-141.4565069999999
 20
-97.929979000000444
 30
0.0
 11
-141.4565069999999
 21
-98.658979000000727
 31
0.0
  0
LINE
  5
1BAF
  8
DETAIL
  6
CONTINUOUS
 62
     5
 10
-142.73225699999961
 20
-98.658979000000727
 30
0.0
 11
-142.73225699999961
 21
-99.934729000000516
 31
0.0
  0
LINE
  5
1BB0
  8
DETAIL
  6
CONTINUOUS
 62
     5
 10
-142.73225699999961
 20
-96.654229000000655
 30
0.0
 11
-142.73225699999961
 21
-97.929979000000444
 31
0.0
  0
LINE
  5
1BB1
  8
DETAIL
  6
CONTINUOUS
 62
     5
 10
-143.4612569999999
 20
-97.929979000000444
 30
0.0
 11
-143.4612569999999
 21
-96.654229000000655
 31
0.0
  0
LINE
  5
1BB2
  8
DETAIL
  6
CONTINUOUS
 62
     5
 10
-143.4612569999999
 20
-99.934729000000516
 30
0.0
 11
-143.4612569999999
 21
-98.658979000000727
 31
0.0
  0
LINE
  5
1BB3
  8
DETAIL
  6
CONTINUOUS
 62
     5
 10
-144.73700699999969
 20
-98.658979000000727
 30
0.0
 11
-144.73700699999969
 21
-97.929979000000444
 31
0.0
  0
LINE
  5
1BB4
  8
DETAIL
  6
CONTINUOUS
 62
     5
 10
-151.25
 20
-117.5
 30
0.0
 11
-134.75
 21
-117.5
 31
0.0
  0
LINE
  5
1BB6
  8
DETAIL
  6
CONTINUOUS
 62
     5
 10
-102.89999999999981
 20
-160.5
 30
0.0
 11
-101.14999999999981
 21
-160.5
 31
0.0
  0
LINE
  5
1BB7
  8
DETAIL
  6
CONTINUOUS
 62
     5
 10
-101.14999999999981
 20
-159.5
 30
0.0
 11
-102.89999999999981
 21
-159.5
 31
0.0
  0
LINE
  5
1BB8
  8
DETAIL
  6
CONTINUOUS
 62
     5
 10
-101.14999999999981
 20
-160.5
 30
0.0
 11
-101.14999999999981
 21
-159.5
 31
0.0
  0
LINE
  5
1BB9
  8
DETAIL
  6
CONTINUOUS
 62
     5
 10
23.951516999999509
 20
-17.46958500000073
 30
0.0
 11
26.372073999999891
 21
28.232946999999509
 31
0.0
  0
LINE
  5
1BBA
  8
DETAIL
  6
CONTINUOUS
 62
     5
 10
27.484540000000379
 20
49.237424999999348
 30
0.0
 11
28.426491999999602
 21
67.022413999999117
 31
0.0
  0
LINE
  5
1BBC
  8
DETAIL
  6
CONTINUOUS
 62
     5
 10
55.738460999999901
 20
136.90037099999969
 30
0.0
 11
77.01336199999966
 21
131.19977799999921
 31
0.0
  0
LINE
  5
1BC0
  8
DETAIL
  6
CONTINUOUS
 62
     5
 10
59.453338999999687
 20
138.35345199999941
 30
0.0
 11
59.28540799999972
 21
138.09285799999969
 31
0.0
  0
ARC
  5
1BC1
  8
DETAIL
  6
CONTINUOUS
 62
     5
 10
64.5
 20
-73.5
 30
0.0
 40
2.0
 50
16.874493999998851
 51
44.427004000017043
  0
LINE
  5
1BC4
  8
DETAIL
  6
CONTINUOUS
 62
     5
 10
63.5
 20
-76.5
 30
0.0
 11
67.5
 21
-76.5
 31
0.0
  0
LINE
  5
1BC5
  8
DETAIL
  6
CONTINUOUS
 62
     5
 10
62.586113999999718
 20
-72.919447000000218
 30
0.0
 11
61.5
 21
-76.5
 31
0.0
  0
LINE
  5
1BC6
  8
DETAIL
  6
CONTINUOUS
 62
     5
 10
66.899999999999636
 20
-78.10000000000035
 30
0.0
 11
66.899999999999636
 21
-80.5
 31
0.0
  0
LINE
  5
1BC7
  8
DETAIL
  6
CONTINUOUS
 62
     5
 10
62.100000000000357
 20
-78.10000000000035
 30
0.0
 11
62.100000000000357
 21
-80.5
 31
0.0
  0
LINE
  5
1BC8
  8
DETAIL
  6
CONTINUOUS
 62
     5
 10
66.413884999999937
 20
-72.919447000000218
 30
0.0
 11
67.5
 21
-76.5
 31
0.0
  0
LINE
  5
1BC9
  8
DETAIL
  6
CONTINUOUS
 62
     5
 10
71.5
 20
-81.5
 30
0.0
 11
59.287758999999816
 21
-81.5
 31
0.0
  0
LINE
  5
1BCA
  8
DETAIL
  6
CONTINUOUS
 62
     5
 10
60.300543999999718
 20
-80.5
 30
0.0
 11
70.5
 21
-80.5
 31
0.0
  0
LINE
  5
1BCB
  8
DETAIL
  6
CONTINUOUS
 62
     5
 10
71.5
 20
-78.10000000000035
 30
0.0
 11
71.5
 21
-81.5
 31
0.0
  0
LINE
  5
1BCC
  8
DETAIL
  6
CONTINUOUS
 62
     5
 10
70.5
 20
-80.5
 30
0.0
 11
70.5
 21
-78.10000000000035
 31
0.0
  0
LINE
  5
1BCD
  8
DETAIL
  6
CONTINUOUS
 62
     5
 10
57.5
 20
-78.10000000000035
 30
0.0
 11
57.5
 21
-81.5
 31
0.0
  0
LINE
  5
1BCE
  8
DETAIL
  6
CONTINUOUS
 62
     5
 10
58.5
 20
-80.5
 30
0.0
 11
58.5
 21
-78.10000000000035
 31
0.0
  0
LINE
  5
1BCF
  8
DETAIL
  6
CONTINUOUS
 62
     5
 10
57.5
 20
-81.5
 30
0.0
 11
69.712241000000176
 21
-81.5
 31
0.0
  0
LINE
  5
1BD0
  8
DETAIL
  6
CONTINUOUS
 62
     5
 10
68.699456000000282
 20
-80.5
 30
0.0
 11
58.5
 21
-80.5
 31
0.0
  0
ARC
  5
1BD5
  8
DETAIL
  6
CONTINUOUS
 62
     5
 10
64.5
 20
-73.5
 30
0.0
 40
2.0
 50
135.57299599998291
 51
163.12550600000111
  0
LINE
  5
1BE1
  8
DETAIL
  6
CONTINUOUS
 62
     5
 10
-199.4869520000002
 20
-125.9773990000003
 30
0.0
 11
-195.95141799999959
 21
-129.51293299999969
 31
0.0
  0
LINE
  5
1BE2
  8
DETAIL
  6
CONTINUOUS
 62
     5
 10
-195.5978649999997
 20
-122.0883120000007
 30
0.0
 11
-192.06233100000011
 21
-125.6238460000004
 31
0.0
  0
LINE
  5
1BE3
  8
DETAIL
  6
DASHED
 62
     5
 10
-219.792461
 20
-54.49104600000009
 30
0.0
 11
-219.792461
 21
-46.491046000000097
 31
0.0
  0
LINE
  5
1BE4
  8
DETAIL
  6
DASHED
 62
     5
 10
-212.24246099999971
 20
-54.49104600000009
 30
0.0
 11
-212.24246099999971
 21
-46.491046000000097
 31
0.0
  0
LINE
  5
1BE5
  8
DETAIL
  6
CONTINUOUS
 62
     5
 10
-191.7087769999998
 20
-118.1992239999999
 30
0.0
 11
-188.17324300000021
 21
-121.7347580000005
 31
0.0
  0
LINE
  5
1BE6
  8
DETAIL
  6
DASHED
 62
     5
 10
-219.19246099999961
 20
-55.491046000000097
 30
0.0
 11
-219.792461
 21
-54.49104600000009
 31
0.0
  0
LINE
  5
1BE7
  8
DETAIL
  6
CONTINUOUS
 62
     5
 10
-183.1052939999999
 20
138.23603
 30
0.0
 11
-178.12564800000021
 21
141.11103
 31
0.0
  0
LINE
  5
1BE8
  8
DETAIL
  6
CONTINUOUS
 62
     5
 10
-173.14600200000041
 20
132.48603
 30
0.0
 11
-178.12564800000021
 21
129.61103
 31
0.0
  0
LINE
  5
1BE9
  8
DETAIL
  6
CONTINUOUS
 62
     5
 10
-183.1052939999999
 20
132.48603
 30
0.0
 11
-183.1052939999999
 21
138.23603
 31
0.0
  0
LINE
  5
1BEA
  8
DETAIL
  6
CONTINUOUS
 62
     5
 10
-173.14600200000041
 20
138.23603
 30
0.0
 11
-173.14600200000041
 21
132.48603
 31
0.0
  0
LINE
  5
1BEB
  8
DETAIL
  6
CONTINUOUS
 62
     5
 10
237.0
 20
-162.0
 30
0.0
 11
229.68651700000009
 21
-162.0
 31
0.0
  0
LINE
  5
1BEC
  8
DETAIL
  6
CONTINUOUS
 62
     5
 10
220.3134819999996
 20
-162.0
 30
0.0
 11
202.01623699999971
 21
-162.0
 31
0.0
  0
LINE
  5
1BED
  8
DETAIL
  6
CONTINUOUS
 62
     5
 10
181.9795350000004
 20
-162.0
 30
0.0
 11
134.0
 21
-162.0
 31
0.0
  0
LINE
  5
1BEF
  8
DETAIL
  6
DASHED
 62
     5
 10
-212.84246100000021
 20
-55.491046000000097
 30
0.0
 11
-212.24246099999971
 21
-54.49104600000009
 31
0.0
  0
LINE
  5
1BF0
  8
DETAIL
  6
CONTINUOUS
 62
     5
 10
-19.23592399999961
 20
158.3566589999991
 30
0.0
 11
-14.25627799999984
 21
161.2316589999991
 31
0.0
  0
LINE
  5
1BF1
  8
DETAIL
  6
CONTINUOUS
 62
     5
 10
-9.2766320000000633
 20
152.6066589999991
 30
0.0
 11
-14.25627799999984
 21
149.7316589999991
 31
0.0
  0
LINE
  5
1BF3
  8
DETAIL
  6
CONTINUOUS
 62
     5
 10
33.915374999999592
 20
-80.5
 30
0.0
 11
38.5
 21
-80.5
 31
0.0
  0
LINE
  5
1BF4
  8
DETAIL
  6
DASHED
 62
     5
 10
-219.19246099999961
 20
-55.491046000000097
 30
0.0
 11
-212.84246100000021
 21
-55.491046000000097
 31
0.0
  0
LINE
  5
1BF5
  8
DETAIL
  6
DASHED
 62
     5
 10
-212.24246099999971
 20
-54.49104600000009
 30
0.0
 11
-219.792461
 21
-54.49104600000009
 31
0.0
  0
LINE
  5
1BF6
  8
DETAIL
  6
CONTINUOUS
 62
     5
 10
-191.7087769999998
 20
-118.1992239999999
 30
0.0
 11
-199.4869520000002
 21
-125.9773990000003
 31
0.0
  0
LINE
  5
1BF7
  8
DETAIL
  6
CONTINUOUS
 62
     5
 10
51.052106000000101
 20
102.77463999999959
 30
0.0
 11
49.827360999999641
 21
102.0675339999998
 31
0.0
  0
LINE
  5
1BF8
  8
DETAIL
  6
CONTINUOUS
 62
     5
 10
-6.8539989999999271
 20
57.513969999999972
 30
0.0
 11
-1.874353000000152
 21
60.388969999999972
 31
0.0
  0
LINE
  5
1BF9
  8
DETAIL
  6
DASHED
 62
     5
 10
-212.24246099999971
 20
-46.491046000000097
 30
0.0
 11
-219.792461
 21
-46.491046000000097
 31
0.0
  0
LINE
  5
1BFA
  8
DETAIL
  6
CONTINUOUS
 62
     5
 10
-19.23592399999961
 20
152.6066589999991
 30
0.0
 11
-19.23592399999961
 21
158.3566589999991
 31
0.0
  0
LINE
  5
1BFB
  8
DETAIL
  6
CONTINUOUS
 62
     5
 10
3.1052929999996191
 20
51.763969999999972
 30
0.0
 11
-1.874353000000152
 21
48.888969999999972
 31
0.0
  0
LINE
  5
1BFC
  8
DETAIL
  6
CONTINUOUS
 62
     5
 10
32.173748999999589
 20
51.137057999999342
 30
0.0
 11
16.412258000000271
 21
44.751962999999712
 31
0.0
  0
LINE
  5
1BFD
  8
DETAIL
  6
CONTINUOUS
 62
     5
 10
47.75717199999962
 20
51.461896999999219
 30
0.0
 11
46.00870599999962
 21
50.753580999999933
 31
0.0
  0
LINE
  5
1BFE
  8
DETAIL
  6
CONTINUOUS
 62
     5
 10
11.575087999999591
 20
36.804272999999732
 30
0.0
 11
6.9337379999997211
 21
34.92402799999946
 31
0.0
  0
LINE
  5
1BFF
  8
DETAIL
  6
CONTINUOUS
 62
     5
 10
-9.2766320000000633
 20
158.3566589999991
 30
0.0
 11
-9.2766320000000633
 21
152.6066589999991
 31
0.0
  0
LINE
  5
1C00
  8
DETAIL
  6
CONTINUOUS
 62
     5
 10
-6.8539989999999271
 20
51.763969999999972
 30
0.0
 11
-6.8539989999999271
 21
57.513969999999972
 31
0.0
  0
LINE
  5
1C01
  8
DETAIL
  6
CONTINUOUS
 62
     5
 10
3.1052929999996191
 20
57.513969999999972
 30
0.0
 11
3.1052929999996191
 21
51.763969999999972
 31
0.0
  0
LINE
  5
1C02
  8
DETAIL
  6
CONTINUOUS
 62
     5
 10
50.742140999999727
 20
44.093554999999462
 30
0.0
 11
45.34372100000018
 21
41.906616999999642
 31
0.0
  0
LINE
  5
1C03
  8
DETAIL
  6
CONTINUOUS
 62
     5
 10
14.56005699999969
 20
29.435930999999972
 30
0.0
 11
7.9814960000003321
 21
26.770907999999508
 31
0.0
  0
LINE
  5
1C04
  8
DETAIL
  6
CONTINUOUS
 62
     5
 10
39.326409999999669
 20
33.480841999999932
 30
0.0
 11
21.781533000000309
 21
26.564610999999829
 31
0.0
  0
LINE
  5
1C05
  8
DETAIL
  6
CONTINUOUS
 62
     5
 10
16.0
 20
-110.8000000000002
 30
0.0
 11
16.0
 21
-110.0
 31
0.0
  0
LINE
  5
1C06
  8
DETAIL
  6
CONTINUOUS
 62
     5
 10
49.827360999999641
 20
102.0675339999998
 30
0.0
 11
47.886217999999637
 21
94.823089999999866
 31
0.0
  0
LINE
  5
1C07
  8
DETAIL
  6
CONTINUOUS
 62
     5
 10
53.32684400000015
 20
111.2640769999998
 30
0.0
 11
51.052106000000101
 21
102.77463999999959
 31
0.0
  0
LINE
  5
1C08
  8
DETAIL
  6
CONTINUOUS
 62
     5
 10
-178.12564800000021
 20
129.61103
 30
0.0
 11
-183.1052939999999
 21
132.48603
 31
0.0
  0
LINE
  5
1C09
  8
DETAIL
  6
CONTINUOUS
 62
     5
 10
38.5
 20
-83.0
 30
0.0
 11
38.5
 21
-80.5
 31
0.0
  0
LINE
  5
1C0A
  8
DETAIL
  6
CONTINUOUS
 62
     5
 10
-178.12564800000021
 20
141.11103
 30
0.0
 11
-173.14600200000041
 21
138.23603
 31
0.0
  0
LINE
  5
1C0B
  8
DETAIL
  6
CONTINUOUS
 62
     5
 10
-1.874353000000152
 20
48.888969999999972
 30
0.0
 11
-6.8539989999999271
 21
51.763969999999972
 31
0.0
  0
LINE
  5
1C0C
  8
DETAIL
  6
CONTINUOUS
 62
     5
 10
-1.874353000000152
 20
60.388969999999972
 30
0.0
 11
3.1052929999996191
 21
57.513969999999972
 31
0.0
  0
LINE
  5
1C0D
  8
DETAIL
  6
CONTINUOUS
 62
     5
 10
50.0
 20
-110.8000000000002
 30
0.0
 11
50.0
 21
-110.0
 31
0.0
  0
LINE
  5
1C10
  8
DETAIL
  6
CONTINUOUS
 62
     5
 10
55.951082963168041
 20
92.662115862541086
 30
0.0
 11
47.886217999999637
 21
94.823089999999866
 31
0.0
  0
LINE
  5
1C11
  8
DETAIL
  6
CONTINUOUS
 62
     5
 10
53.920000000000059
 20
100.9709139999995
 30
0.0
 11
49.827360999999641
 21
102.0675339999998
 31
0.0
  0
LINE
  5
1C13
  8
DETAIL
  6
CONTINUOUS
 62
     5
 10
186.1222159999997
 20
144.5
 30
0.0
 11
185.76721599999999
 21
143.5
 31
0.0
  0
LINE
  5
1C14
  8
DETAIL
  6
CONTINUOUS
 62
     5
 10
-14.25627799999984
 20
149.7316589999991
 30
0.0
 11
-19.23592399999961
 21
152.6066589999991
 31
0.0
  0
LINE
  5
1C15
  8
DETAIL
  6
CONTINUOUS
 62
     5
 10
-14.25627799999984
 20
161.2316589999991
 30
0.0
 11
-9.2766320000000633
 21
158.3566589999991
 31
0.0
  0
LINE
  5
1C16
  8
DETAIL
  6
CONTINUOUS
 62
     5
 10
134.0
 20
149.0
 30
0.0
 11
134.0
 21
137.0
 31
0.0
  0
LINE
  5
1C18
  8
DETAIL
  6
CONTINUOUS
 62
     5
 10
134.0
 20
-162.0
 30
0.0
 11
134.0
 21
-149.1801869999999
 31
0.0
  0
LINE
  5
1C19
  8
DETAIL
  6
CONTINUOUS
 62
     5
 10
208.11999999999989
 20
144.5
 30
0.0
 11
207.7650000000003
 21
143.5
 31
0.0
  0
LINE
  5
1C1A
  8
DETAIL
  6
CONTINUOUS
 62
     5
 10
207.7650000000003
 20
143.5
 30
0.0
 11
198.23499999999959
 21
143.5
 31
0.0
  0
LINE
  5
1C1B
  8
DETAIL
  6
CONTINUOUS
 62
     5
 10
176.23721599999951
 20
143.5
 30
0.0
 11
185.76721599999999
 21
143.5
 31
0.0
  0
LINE
  5
1C1C
  8
DETAIL
  6
CONTINUOUS
 62
     5
 10
220.2349999999997
 20
143.5
 30
0.0
 11
229.7650000000003
 21
143.5
 31
0.0
  0
LINE
  5
1C1D
  8
DETAIL
  6
CONTINUOUS
 62
     5
 10
175.882216
 20
144.5
 30
0.0
 11
186.1222159999997
 21
144.5
 31
0.0
  0
LINE
  5
1C1E
  8
DETAIL
  6
CONTINUOUS
 62
     5
 10
197.88000000000011
 20
144.5
 30
0.0
 11
208.11999999999989
 21
144.5
 31
0.0
  0
LINE
  5
1C1F
  8
DETAIL
  6
CONTINUOUS
 62
     5
 10
219.88000000000011
 20
144.5
 30
0.0
 11
230.11999999999989
 21
144.5
 31
0.0
  0
LINE
  5
1C20
  8
DETAIL
  6
CONTINUOUS
 62
     5
 10
134.0
 20
149.0
 30
0.0
 11
175.882216
 21
149.0
 31
0.0
  0
LINE
  5
1C21
  8
DETAIL
  6
CONTINUOUS
 62
     5
 10
186.1222159999997
 20
149.0
 30
0.0
 11
197.88000000000011
 21
149.0
 31
0.0
  0
LINE
  5
1C22
  8
DETAIL
  6
CONTINUOUS
 62
     5
 10
208.11999999999989
 20
149.0
 30
0.0
 11
219.88000000000011
 21
149.0
 31
0.0
  0
LINE
  5
1C23
  8
DETAIL
  6
CONTINUOUS
 62
     5
 10
230.11999999999989
 20
149.0
 30
0.0
 11
237.0
 21
149.0
 31
0.0
  0
LINE
  5
1C24
  8
DETAIL
  6
CONTINUOUS
 62
     5
 10
175.882216
 20
151.5
 30
0.0
 11
186.1222159999997
 21
151.5
 31
0.0
  0
LINE
  5
1C25
  8
DETAIL
  6
CONTINUOUS
 62
     5
 10
197.88000000000011
 20
151.5
 30
0.0
 11
208.11999999999989
 21
151.5
 31
0.0
  0
LINE
  5
1C26
  8
DETAIL
  6
CONTINUOUS
 62
     5
 10
219.88000000000011
 20
151.5
 30
0.0
 11
230.11999999999989
 21
151.5
 31
0.0
  0
LINE
  5
1C27
  8
DETAIL
  6
CONTINUOUS
 62
     5
 10
230.11999999999989
 20
144.5
 30
0.0
 11
229.7650000000003
 21
143.5
 31
0.0
  0
LINE
  5
1C28
  8
DETAIL
  6
CONTINUOUS
 62
     5
 10
175.882216
 20
151.5
 30
0.0
 11
175.882216
 21
144.5
 31
0.0
  0
LINE
  5
1C29
  8
DETAIL
  6
CONTINUOUS
 62
     5
 10
186.1222159999997
 20
151.5
 30
0.0
 11
186.1222159999997
 21
144.5
 31
0.0
  0
LINE
  5
1C2A
  8
DETAIL
  6
CONTINUOUS
 62
     5
 10
197.88000000000011
 20
151.5
 30
0.0
 11
197.88000000000011
 21
144.5
 31
0.0
  0
LINE
  5
1C2B
  8
DETAIL
  6
CONTINUOUS
 62
     5
 10
208.11999999999989
 20
151.5
 30
0.0
 11
208.11999999999989
 21
144.5
 31
0.0
  0
LINE
  5
1C2C
  8
DETAIL
  6
CONTINUOUS
 62
     5
 10
175.882216
 20
144.5
 30
0.0
 11
176.23721599999951
 21
143.5
 31
0.0
  0
LINE
  5
1C2D
  8
DETAIL
  6
CONTINUOUS
 62
     5
 10
219.88000000000011
 20
151.5
 30
0.0
 11
219.88000000000011
 21
144.5
 31
0.0
  0
LINE
  5
1C2E
  8
DETAIL
  6
CONTINUOUS
 62
     5
 10
230.11999999999989
 20
151.5
 30
0.0
 11
230.11999999999989
 21
144.5
 31
0.0
  0
LINE
  5
1C2F
  8
DETAIL
  6
CONTINUOUS
 62
     5
 10
237.0
 20
149.0
 30
0.0
 11
237.0
 21
135.0
 31
0.0
  0
LINE
  5
1C30
  8
DETAIL
  6
CONTINUOUS
 62
     5
 10
237.0
 20
-162.0
 30
0.0
 11
237.0
 21
-148.0
 31
0.0
  0
LINE
  5
1C31
  8
DETAIL
  6
CONTINUOUS
 62
     5
 10
197.88000000000011
 20
144.5
 30
0.0
 11
198.23499999999959
 21
143.5
 31
0.0
  0
LINE
  5
1C32
  8
DETAIL
  6
CONTINUOUS
 62
     5
 10
219.88000000000011
 20
144.5
 30
0.0
 11
220.2349999999997
 21
143.5
 31
0.0
  0
ARC
  5
1C33
  8
DETAIL
  6
CONTINUOUS
 62
     5
 10
-178.12564800000021
 20
135.36103
 30
0.0
 40
11.5
 50
298.59349700001161
 51
237.27670100000239
  0
CIRCLE
  5
1C34
  8
DETAIL
  6
CONTINUOUS
 62
     5
 10
-230.0
 20
170.0
 30
0.0
 40
5.0
  0
ARC
  5
1C35
  8
DETAIL
  6
CONTINUOUS
 62
     5
 10
80.0
 20
170.0
 30
0.0
 40
5.0
 50
343.89939299999759
 51
195.36695300004391
  0
CIRCLE
  5
1C37
  8
DETAIL
  6
CONTINUOUS
 62
     5
 10
-14.25627799999984
 20
155.4816589999991
 30
0.0
 40
11.5
  0
CIRCLE
  5
1C39
  8
DETAIL
  6
CONTINUOUS
 62
     5
 10
80.0
 20
-150.0
 30
0.0
 40
5.0
  0
CIRCLE
  5
1C3B
  8
DETAIL
  6
CONTINUOUS
 62
     5
 10
-1.874353000000152
 20
54.638969999999972
 30
0.0
 40
11.5
  0
ARC
  5
1C3C
  8
DETAIL
  6
CONTINUOUS
 62
     5
 10
35.837013000000297
 20
42.09693299999978
 30
0.0
 40
9.7541429999999991
 50
86.90458800001268
 51
112.0589100000507
  0
ARC
  5
1C46
  8
DETAIL
  6
CONTINUOUS
 62
     5
 10
57.095338999999498
 20
113.0610369999995
 30
0.0
 40
4.174999999999998
 50
66.454182999975856
 51
323.10770100002969
  0
ARC
  5
1C47
  8
DETAIL
  6
CONTINUOUS
 62
     5
 10
98.105838999999847
 20
90.659792999999794
 30
0.0
 40
11.0
 50
231.60216600006279
 51
61.180851000025243
  0
ARC
  5
1C49
  8
DETAIL
  6
CONTINUOUS
 62
     5
 10
105.0
 20
127.0
 30
0.0
 40
25.75
 50
203.30714100000179
 51
252.34911100001079
  0
ARC
  5
1C4A
  8
DETAIL
  6
CONTINUOUS
 62
     5
 10
105.0
 20
127.0
 30
0.0
 40
25.75
 50
252.34911100001079
 51
189.14092100000761
  0
ARC
  5
1C4B
  8
DETAIL
  6
CONTINUOUS
 62
     5
 10
105.0
 20
127.0
 30
0.0
 40
4.375
 50
242.75187099999141
 51
149.41564800002411
  0
ARC
  5
2334
  8
DETAIL
  6
CONTINUOUS
 62
     5
 10
98.105838999999847
 20
90.659792999999794
 30
0.0
 40
11.0
 50
97.335109000000244
 51
197.90253200003571
  0
LINE
  5
2335
  8
DETAIL
  6
CONTINUOUS
 62
     5
 10
57.89222599999993
 20
99.906558999999064
 30
0.0
 11
55.951082999999919
 21
92.662115999999529
 31
0.0
  0
LINE
  5
2336
  8
DETAIL
  6
CONTINUOUS
 62
     5
 10
51.052106000000101
 20
102.77463999999959
 30
0.0
 11
57.185118999999759
 21
101.1313039999995
 31
0.0
  0
LINE
  5
2337
  8
DETAIL
  6
CONTINUOUS
 62
     5
 10
53.799586999999541
 20
101.00317899999931
 30
0.0
 11
57.89222599999993
 21
99.906558999999064
 31
0.0
  0
LINE
  5
2338
  8
DETAIL
  6
CONTINUOUS
 62
     5
 10
59.459663999999961
 20
109.6200199999994
 30
0.0
 11
57.185118999999759
 21
101.1313039999995
 31
0.0
  0
LINE
  5
2339
  8
DETAIL
  6
CONTINUOUS
 62
     5
 10
57.185118999999759
 20
101.1313039999995
 30
0.0
 11
57.89222599999993
 21
99.906558999999064
 31
0.0
  0
ARC
  5
2369
  8
DETAIL
  6
CONTINUOUS
 62
     5
 10
-120.8037439999998
 20
103.6677189999991
 30
0.0
 40
53.200000000000003
 50
133.18228699997431
 51
164.2841819999947
  0
ARC
  5
236A
  8
DETAIL
  6
CONTINUOUS
 62
     5
 10
-86.587658999999803
 20
67.208707999999206
 30
0.0
 40
103.2
 50
60.817712999974262
 51
133.18228699997431
  0
ARC
  5
236B
  8
DETAIL
  6
CONTINUOUS
 62
     5
 10
-117.7918310000004
 20
79.137649999999653
 30
0.0
 40
53.200000000000003
 50
209.71581800000189
 51
240.8177129999743
  0
ARC
  5
2370
  8
DETAIL
  6
CONTINUOUS
 62
     5
 10
-90.0
 20
95.0
 30
0.0
 40
85.200000000000017
 50
344.2841819999947
 51
29.715818000001899
  0
ARC
  5
2371
  8
DETAIL
  6
CONTINUOUS
 62
     5
 10
-90.0
 20
95.0
 30
0.0
 40
85.200000000000017
 50
164.2841819999947
 51
209.71581800000189
  0
ARC
  5
2374
  8
DETAIL
  6
CONTINUOUS
 62
     5
 10
-59.196256000000169
 20
86.332281999999395
 30
0.0
 40
53.200000000000003
 50
313.18228699997422
 51
344.2841819999947
  0
ARC
  5
2375
  8
DETAIL
  6
CONTINUOUS
 62
     5
 10
-62.208169999999889
 20
110.86235099999971
 30
0.0
 40
53.200000000000003
 50
29.715818000001899
 51
60.817712999974262
  0
ARC
  5
2376
  8
DETAIL
  6
CONTINUOUS
 62
     5
 10
-93.412341999999555
 20
122.7912919999999
 30
0.0
 40
103.2
 50
240.8177129999743
 51
313.18228699997422
  0
LINE
  5
251F
  8
DETAIL
  6
CONTINUOUS
 62
     5
 10
-187.738405
 20
-163.8888970000007
 30
0.0
 11
-203.6600879999996
 21
-147.96721400000021
 31
0.0
  0
LINE
  5
2520
  8
DETAIL
  6
CONTINUOUS
 62
     5
 10
-146.9700000000002
 20
-52.79128800000035
 30
0.0
 11
-146.9700000000002
 21
-39.0
 31
0.0
  0
LINE
  5
2521
  8
DETAIL
  6
CONTINUOUS
 62
     5
 10
-139.02999999999969
 20
-53.061864000000242
 30
0.0
 11
-139.02999999999969
 21
-39.0
 31
0.0
  0
LINE
  5
2522
  8
DETAIL
  6
CONTINUOUS
 62
     5
 10
-187.738405
 20
-163.8888970000007
 30
0.0
 11
-195.5165800000004
 21
-171.66707100000059
 31
0.0
  0
LINE
  5
2526
  8
DETAIL
  6
CONTINUOUS
 62
     5
 10
-153.1714579999998
 20
-141.8873010000006
 30
0.0
 11
-178.98085499999979
 21
-116.0779040000006
 31
0.0
  0
LINE
  5
2528
  8
DETAIL
  6
CONTINUOUS
 62
     5
 10
-172.61373600000019
 20
-105.8924080000006
 30
0.0
 11
-188.523639
 21
-89.982506000000299
 31
0.0
  0
LINE
  5
2529
  8
DETAIL
  6
CONTINUOUS
 62
     5
 10
-186.89729299999999
 20
-88.356160000000301
 30
0.0
 11
-170.9873909999996
 21
-104.266063
 31
0.0
  0
LINE
  5
252A
  8
DETAIL
  6
CONTINUOUS
 62
     5
 10
-111.39999999999981
 20
-174.80000000000001
 30
0.0
 11
-108.39999999999981
 21
-177.80000000000021
 31
0.0
  0
LINE
  5
252B
  8
DETAIL
  6
CONTINUOUS
 62
     5
 10
-203.06431499999951
 20
124.4970109999995
 30
0.0
 11
-206.4522829999996
 21
152.0897939999995
 31
0.0
  0
LINE
  5
252C
  8
DETAIL
  6
CONTINUOUS
 62
     5
 10
-204.16942600000041
 20
152.37009399999991
 30
0.0
 11
-200.78145899999981
 21
124.7773109999998
 31
0.0
  0
LINE
  5
252D
  8
DETAIL
  6
CONTINUOUS
 62
     5
 10
-97.700000000000017
 20
-177.80000000000021
 30
0.0
 11
-108.39999999999981
 21
-177.80000000000021
 31
0.0
  0
LINE
  5
252E
  8
DETAIL
  6
CONTINUOUS
 62
     5
 10
-153.1714579999998
 20
-146.12994200000051
 30
0.0
 11
-153.1714579999998
 21
-141.8873010000006
 31
0.0
  0
LINE
  5
252F
  8
DETAIL
  6
CONTINUOUS
 62
     5
 10
-159.82698700000029
 20
158.0161629999993
 30
0.0
 11
-160.10728699999979
 21
160.29901899999999
 31
0.0
  0
LINE
  5
2530
  8
DETAIL
  6
CONTINUOUS
 62
     5
 10
-156.84934899999999
 20
158.38177099999939
 30
0.0
 11
-157.12964800000009
 21
160.66462699999909
 31
0.0
  0
LINE
  5
2532
  8
DETAIL
  6
CONTINUOUS
 62
     5
 10
4.0
 20
-110.0
 30
0.0
 11
15.80000000000018
 21
-110.0
 31
0.0
  0
LINE
  5
2533
  8
DETAIL
  6
CONTINUOUS
 62
     5
 10
-111.39999999999981
 20
-174.80000000000001
 30
0.0
 11
-111.39999999999981
 21
-147.80000000000001
 31
0.0
  0
LINE
  5
2534
  8
DETAIL
  6
CONTINUOUS
 62
     5
 10
48.0
 20
-78.10000000000035
 30
0.0
 11
77.199999999999804
 21
-78.10000000000035
 31
0.0
  0
LINE
  5
2535
  8
DETAIL
  6
CONTINUOUS
 62
     5
 10
48.0
 20
-76.5
 30
0.0
 11
77.199999999999804
 21
-76.5
 31
0.0
  0
LINE
  5
2536
  8
DETAIL
  6
CONTINUOUS
 62
     5
 10
-188.66506000000021
 20
-90.123927000000521
 30
0.0
 11
-198.9181090000001
 21
-100.3769750000001
 31
0.0
  0
LINE
  5
2537
  8
DETAIL
  6
CONTINUOUS
 62
     5
 10
-188.523639
 20
-89.982506000000299
 30
0.0
 11
-186.89729299999999
 21
-88.356160000000301
 31
0.0
  0
LINE
  5
2538
  8
DETAIL
  6
CONTINUOUS
 62
     5
 10
-186.40231899999981
 20
-92.103826000000481
 30
0.0
 11
-184.77597299999971
 21
-90.47748000000044
 31
0.0
  0
LINE
  5
2539
  8
DETAIL
  6
CONTINUOUS
 62
     5
 10
-185.12952599999969
 20
-114.1655580000006
 30
0.0
 11
-174.73505699999981
 21
-103.7710880000004
 31
0.0
  0
LINE
  5
253C
  8
DETAIL
  6
CONTINUOUS
 62
     5
 10
-23.48183599999993
 20
31.634205999999718
 30
0.0
 11
-23.20153699999992
 21
29.351349999999911
 31
0.0
  0
LINE
  5
253D
  8
DETAIL
  6
CONTINUOUS
 62
     5
 10
-20.504197999999629
 20
31.999813999999791
 30
0.0
 11
-20.22389800000019
 21
29.71695799999998
 31
0.0
  0
LINE
  5
253E
  8
DETAIL
  6
CONTINUOUS
 62
     5
 10
4.0
 20
-110.8000000000002
 30
0.0
 11
4.0
 21
-110.0
 31
0.0
  0
LINE
  5
253F
  8
DETAIL
  6
CONTINUOUS
 62
     5
 10
-157.7676520000004
 20
-150.7261360000002
 30
0.0
 11
-153.1714579999998
 21
-146.12994200000051
 31
0.0
  0
LINE
  5
2540
  8
DETAIL
  6
CONTINUOUS
 62
     5
 10
6.0
 20
-110.8000000000002
 30
0.0
 11
6.0
 21
-110.0
 31
0.0
  0
LINE
  5
2541
  8
DETAIL
  6
CONTINUOUS
 62
     5
 10
69.0
 20
47.5
 30
0.0
 11
66.0
 21
44.5
 31
0.0
  0
LINE
  5
2542
  8
DETAIL
  6
CONTINUOUS
 62
     5
 10
77.199999999999804
 20
21.5
 30
0.0
 11
48.0
 21
21.5
 31
0.0
  0
LINE
  5
2543
  8
DETAIL
  6
CONTINUOUS
 62
     5
 10
48.0
 20
23.099999999999451
 30
0.0
 11
77.199999999999804
 21
23.099999999999451
 31
0.0
  0
LINE
  5
2544
  8
DETAIL
  6
CONTINUOUS
 62
     5
 10
-7.2997740000000704
 20
31.303840999999931
 30
0.0
 11
-23.20153699999992
 21
29.351349999999911
 31
0.0
  0
LINE
  5
2545
  8
DETAIL
  6
CONTINUOUS
 62
     5
 10
-23.48183599999993
 20
31.634205999999718
 30
0.0
 11
8.5090309999995952
 21
35.562190999999068
 31
0.0
  0
LINE
  5
2546
  8
DETAIL
  6
CONTINUOUS
 62
     5
 10
69.0
 20
47.5
 30
0.0
 11
74.199999999999804
 21
47.5
 31
0.0
  0
LINE
  5
2547
  8
DETAIL
  6
CONTINUOUS
 62
     5
 10
22.65519500000028
 20
47.281021999999211
 30
0.0
 11
20.450273999999808
 21
65.238665999999284
 31
0.0
  0
LINE
  5
2548
  8
DETAIL
  6
CONTINUOUS
 62
     5
 10
22.733129999999619
 20
65.518965999999637
 30
0.0
 11
24.433818999999861
 21
51.667958999999428
 31
0.0
  0
LINE
  5
2549
  8
DETAIL
  6
CONTINUOUS
 62
     5
 10
48.0
 20
-76.5
 30
0.0
 11
48.0
 21
-78.10000000000035
 31
0.0
  0
LINE
  5
254A
  8
DETAIL
  6
CONTINUOUS
 62
     5
 10
48.0
 20
-83.0
 30
0.0
 11
48.0
 21
-78.300000000000196
 31
0.0
  0
LINE
  5
254B
  8
DETAIL
  6
CONTINUOUS
 62
     5
 10
48.0
 20
21.5
 30
0.0
 11
48.0
 21
23.099999999999451
 31
0.0
  0
LINE
  5
254C
  8
DETAIL
  6
CONTINUOUS
 62
     5
 10
48.0
 20
23.299999999999269
 30
0.0
 11
48.0
 21
42.982693999999327
 31
0.0
  0
LINE
  5
254D
  8
DETAIL
  6
CONTINUOUS
 62
     5
 10
53.0
 20
-76.5
 30
0.0
 11
53.0
 21
-78.10000000000035
 31
0.0
  0
LINE
  5
254E
  8
DETAIL
  6
CONTINUOUS
 62
     5
 10
53.0
 20
21.5
 30
0.0
 11
53.0
 21
23.099999999999451
 31
0.0
  0
LINE
  5
254F
  8
DETAIL
  6
CONTINUOUS
 62
     5
 10
60.0
 20
44.5
 30
0.0
 11
60.0
 21
43.567594999999507
 31
0.0
  0
LINE
  5
2550
  8
DETAIL
  6
CONTINUOUS
 62
     5
 10
66.0
 20
44.5
 30
0.0
 11
66.0
 21
43.567594999999507
 31
0.0
  0
LINE
  5
2551
  8
DETAIL
  6
CONTINUOUS
 62
     5
 10
21.059619999999988
 20
60.275934999999663
 30
0.0
 11
23.342475999999809
 21
60.556235000000022
 31
0.0
  0
LINE
  5
2552
  8
DETAIL
  6
CONTINUOUS
 62
     5
 10
20.450273999999808
 20
65.238665999999284
 30
0.0
 11
22.733129999999619
 21
65.518965999999637
 31
0.0
  0
LINE
  5
2553
  8
DETAIL
  6
CONTINUOUS
 62
     5
 10
77.199999999999804
 20
44.5
 30
0.0
 11
77.199999999999804
 21
23.299999999999269
 31
0.0
  0
LINE
  5
2554
  8
DETAIL
  6
CONTINUOUS
 62
     5
 10
77.199999999999804
 20
-78.300000000000196
 30
0.0
 11
77.199999999999804
 21
-99.500000000000014
 31
0.0
  0
LINE
  5
2555
  8
DETAIL
  6
CONTINUOUS
 62
     5
 10
60.0
 20
44.5
 30
0.0
 11
57.0
 21
47.5
 31
0.0
  0
LINE
  5
2556
  8
DETAIL
  6
CONTINUOUS
 62
     5
 10
77.199999999999804
 20
44.5
 30
0.0
 11
74.199999999999804
 21
47.5
 31
0.0
  0
LINE
  5
2557
  8
DETAIL
  6
CONTINUOUS
 62
     5
 10
132.56682799999999
 20
133.39999999999961
 30
0.0
 11
132.80000000000021
 21
133.39999999999961
 31
0.0
  0
LINE
  5
2558
  8
DETAIL
  6
CONTINUOUS
 62
     5
 10
132.80000000000021
 20
134.19999999999979
 30
0.0
 11
131.5407230000001
 21
134.19999999999979
 31
0.0
  0
LINE
  5
2559
  8
DETAIL
  6
CONTINUOUS
 62
     5
 10
146.54072300000001
 20
136.19999999999979
 30
0.0
 11
146.54072300000001
 21
137.0
 31
0.0
  0
LINE
  5
255A
  8
DETAIL
  6
CONTINUOUS
 62
     5
 10
149.54072300000001
 20
136.19999999999979
 30
0.0
 11
149.54072300000001
 21
137.0
 31
0.0
  0
LINE
  5
255B
  8
DETAIL
  6
CONTINUOUS
 62
     5
 10
-200.78145899999981
 20
124.7773109999998
 30
0.0
 11
-203.06431499999951
 21
124.4970109999995
 31
0.0
  0
LINE
  5
255C
  8
DETAIL
  6
CONTINUOUS
 62
     5
 10
-201.390805
 20
129.74004199999939
 30
0.0
 11
-203.67366200000001
 21
129.4597419999991
 31
0.0
  0
LINE
  5
255F
  8
DETAIL
  6
CONTINUOUS
 62
     5
 10
141.27015599999959
 20
136.19999999999979
 30
0.0
 11
149.54072300000001
 21
136.19999999999979
 31
0.0
  0
LINE
  5
2560
  8
DETAIL
  6
CONTINUOUS
 62
     5
 10
131.4743269999999
 20
137.0
 30
0.0
 11
149.54072300000001
 21
137.0
 31
0.0
  0
LINE
  5
2561
  8
DETAIL
  6
CONTINUOUS
 62
     5
 10
-203.99529100000021
 20
152.59297699999931
 30
0.0
 11
-156.84934899999999
 21
158.38177099999939
 31
0.0
  0
LINE
  5
2562
  8
DETAIL
  6
CONTINUOUS
 62
     5
 10
-204.27559099999959
 20
154.875833
 30
0.0
 11
-157.12964800000009
 21
160.66462699999909
 31
0.0
  0
LINE
  5
2563
  8
DETAIL
  6
CONTINUOUS
 62
     5
 10
63.0
 20
-177.80000000000021
 30
0.0
 11
66.0
 21
-174.80000000000001
 31
0.0
  0
LINE
  5
2565
  8
DETAIL
  6
CONTINUOUS
 62
     5
 10
52.300000000000182
 20
-177.80000000000021
 30
0.0
 11
63.0
 21
-177.80000000000021
 31
0.0
  0
LINE
  5
2566
  8
DETAIL
  6
CONTINUOUS
 62
     5
 10
66.0
 20
-127.6141590000006
 30
0.0
 11
66.0
 21
-174.80000000000001
 31
0.0
  0
LINE
  5
256B
  8
DETAIL
  6
CONTINUOUS
 62
     5
 10
-183.8215719999998
 20
-160.3646040000003
 30
0.0
 11
-176.881351
 21
-167.30482500000011
 31
0.0
  0
LINE
  5
256C
  8
DETAIL
  6
CONTINUOUS
 62
     5
 10
-168.00589099999979
 20
-168.45970700000001
 30
0.0
 11
-160.2277160000003
 21
-176.2378820000003
 31
0.0
  0
LINE
  5
256D
  8
DETAIL
  6
CONTINUOUS
 62
     5
 10
-193.97151899999969
 20
-139.2710060000008
 30
0.0
 11
-198.21415999999951
 21
-135.0283660000004
 31
0.0
  0
LINE
  5
256F
  8
DETAIL
  6
CONTINUOUS
 62
     5
 10
-192.5573059999997
 20
-137.85679300000081
 30
0.0
 11
-188.6682179999998
 21
-141.7458800000004
 31
0.0
  0
LINE
  5
2570
  8
DETAIL
  6
CONTINUOUS
 62
     5
 10
-179.4758300000002
 20
-150.93826800000079
 30
0.0
 11
-178.41517000000019
 21
-151.99892800000089
 31
0.0
  0
LINE
  5
2571
  8
DETAIL
  6
CONTINUOUS
 62
     5
 10
-163.31103499999969
 20
-163.76485200000019
 30
0.0
 11
-155.53286099999971
 21
-171.54302600000031
 31
0.0
  0
LINE
  5
2574
  8
DETAIL
  6
CONTINUOUS
 62
     5
 10
-194.52908500000009
 20
-131.34329000000071
 30
0.0
 11
-190.2864440000003
 21
-135.5859310000005
 31
0.0
  0
LINE
  5
257A
  8
DETAIL
  6
CONTINUOUS
 62
     5
 10
-158.96973299999991
 20
-174.9798989999999
 30
0.0
 11
-146.24181099999981
 21
-179.22254000000061
 31
0.0
  0
LINE
  5
257C
  8
DETAIL
  6
CONTINUOUS
 62
     5
 10
-186.34288600000039
 20
-123.1570920000004
 30
0.0
 11
-182.1002449999996
 21
-127.3997320000007
 31
0.0
  0
LINE
  5
257D
  8
DETAIL
  6
CONTINUOUS
 62
     5
 10
-167.45501499999941
 20
-141.03877300000019
 30
0.0
 11
-154.01998600000019
 21
-154.4738020000004
 31
0.0
  0
LINE
  5
257E
  8
DETAIL
  6
CONTINUOUS
 62
     5
 10
-153.92132500000019
 20
-154.37514100000041
 30
0.0
 11
-146.14314999999991
 21
-162.15331600000081
 31
0.0
  0
LINE
  5
257F
  8
DETAIL
  6
CONTINUOUS
 62
     5
 10
-179.82938300000021
 20
-125.1288710000008
 30
0.0
 11
-165.68724800000021
 21
-139.2710060000008
 31
0.0
  0
LINE
  5
2581
  8
DETAIL
  6
CONTINUOUS
 62
     5
 10
-178.41517000000019
 20
-123.7146570000004
 30
0.0
 11
-182.65781100000001
 21
-119.47201699999999
 31
0.0
  0
LINE
  5
2582
  8
DETAIL
  6
CONTINUOUS
 62
     5
 10
-149.22646900000021
 20
-149.68028600000071
 30
0.0
 11
-141.44829500000009
 21
-157.45846000000071
 31
0.0
  0
LINE
  5
2584
  8
DETAIL
  6
CONTINUOUS
 62
     5
 10
-142.7062770000002
 20
-158.7164430000002
 30
0.0
 11
-138.46363699999969
 21
-171.44436500000029
 31
0.0
  0
LINE
  5
2587
  8
DETAIL
  6
CONTINUOUS
 62
     5
 10
-183.250653
 20
-154.7130910000005
 30
0.0
 11
-183.8215719999998
 21
-160.3646040000003
 31
0.0
  0
LINE
  5
2588
  8
DETAIL
  6
CONTINUOUS
 62
     5
 10
-200.51936899999961
 20
149.9405959999994
 30
0.0
 11
-197.35076599999951
 21
124.1343959999994
 31
0.0
  0
LINE
  5
2589
  8
DETAIL
  6
CONTINUOUS
 62
     5
 10
-189.18552
 20
57.633803999999138
 30
0.0
 11
-185.16810700000039
 21
24.914598999999729
 31
0.0
  0
LINE
  5
258A
  8
DETAIL
  6
CONTINUOUS
 62
     5
 10
-169.1612400000003
 20
-166.52493600000071
 30
0.0
 11
-168.3960550000001
 21
-158.95037600000069
 31
0.0
  0
LINE
  5
258D
  8
DETAIL
  6
CONTINUOUS
 62
     5
 10
-176.881351
 20
-167.30482500000011
 30
0.0
 11
-169.1612400000003
 21
-166.52493600000071
 31
0.0
  0
LINE
  5
258E
  8
DETAIL
  6
CONTINUOUS
 62
     5
 10
-165.9359459999996
 20
-160.94261900000041
 30
0.0
 11
-166.52520100000041
 21
-163.8888970000007
 31
0.0
  0
LINE
  5
2590
  8
DETAIL
  6
CONTINUOUS
 62
     5
 10
-175.46712199999999
 20
-151.87930800000041
 30
0.0
 11
-180.9730849999994
 21
-152.4355230000001
 31
0.0
  0
LINE
  5
2591
  8
DETAIL
  6
CONTINUOUS
 62
     5
 10
-146.92187699999971
 20
156.52154100000001
 30
0.0
 11
-146.2865229999997
 21
151.34699399999951
 31
0.0
  0
LINE
  5
2592
  8
DETAIL
  6
CONTINUOUS
 62
     5
 10
-130.98300100000051
 20
26.709809999999379
 30
0.0
 11
-130.34764600000011
 21
21.535264000000101
 31
0.0
  0
LINE
  5
2593
  8
DETAIL
  6
CONTINUOUS
 62
     5
 10
103.1999999999998
 20
-72.10000000000035
 30
0.0
 11
79.0
 21
-72.10000000000035
 31
0.0
  0
LINE
  5
2594
  8
DETAIL
  6
CONTINUOUS
 62
     5
 10
77.399999999999622
 20
-72.10000000000035
 30
0.0
 11
43.199999999999811
 21
-72.10000000000035
 31
0.0
  0
LINE
  5
2595
  8
DETAIL
  6
CONTINUOUS
 62
     5
 10
79.0
 20
-69.870133000000351
 30
0.0
 11
81.399999999999636
 21
-69.870133000000351
 31
0.0
  0
LINE
  5
2596
  8
DETAIL
  6
CONTINUOUS
 62
     5
 10
79.0
 20
-60.349586000000272
 30
0.0
 11
81.399999999999636
 21
-60.349586000000272
 31
0.0
  0
LINE
  5
2599
  8
DETAIL
  6
CONTINUOUS
 62
     5
 10
79.0
 20
-54.384217000000717
 30
0.0
 11
81.399999999999636
 21
-54.384217000000717
 31
0.0
  0
LINE
  5
259B
  8
DETAIL
  6
CONTINUOUS
 62
     5
 10
79.0
 20
-36.974999000000032
 30
0.0
 11
81.399999999999636
 21
-36.974999000000032
 31
0.0
  0
LINE
  5
259C
  8
DETAIL
  6
CONTINUOUS
 62
     5
 10
79.0
 20
-33.08484800000042
 30
0.0
 11
81.399999999999636
 21
-33.08484800000042
 31
0.0
  0
LINE
  5
259E
  8
DETAIL
  6
CONTINUOUS
 62
     5
 10
-193.9713380000002
 20
-139.2708259999998
 30
0.0
 11
-178.41535099999959
 21
-123.7148380000008
 31
0.0
  0
LINE
  5
25A0
  8
DETAIL
  6
CONTINUOUS
 62
     5
 10
-188.6682179999998
 20
-141.7458800000004
 30
0.0
 11
-199.27481999999961
 21
-152.35248200000021
 31
0.0
  0
LINE
  5
25A3
  8
DETAIL
  6
CONTINUOUS
 62
     5
 10
79.0
 20
-21.115152000000311
 30
0.0
 11
81.399999999999636
 21
-21.115152000000311
 31
0.0
  0
LINE
  5
25A4
  8
DETAIL
  6
CONTINUOUS
 62
     5
 10
79.0
 20
-17.22500000000036
 30
0.0
 11
81.399999999999636
 21
-17.22500000000036
 31
0.0
  0
LINE
  5
25A5
  8
DETAIL
  6
CONTINUOUS
 62
     5
 10
-49.652353999999832
 20
168.4647359999999
 30
0.0
 11
-49.019513999999617
 21
163.310665
 31
0.0
  0
LINE
  5
25A6
  8
DETAIL
  6
CONTINUOUS
 62
     5
 10
-33.710963999999883
 20
38.63253099999929
 30
0.0
 11
-33.078123999999661
 21
33.478459999999359
 31
0.0
  0
LINE
  5
25A7
  8
DETAIL
  6
CONTINUOUS
 62
     5
 10
-179.4758300000002
 20
-150.93826800000079
 30
0.0
 11
-190.08243200000001
 21
-161.5448700000006
 31
0.0
  0
LINE
  5
25A8
  8
DETAIL
  6
CONTINUOUS
 62
     5
 10
-178.4146639999999
 20
-151.99842200000049
 30
0.0
 11
-165.6877540000005
 21
-139.2715130000006
 31
0.0
  0
LINE
  5
25AA
  8
DETAIL
  6
CONTINUOUS
 62
     5
 10
-175.23318900000041
 20
-151.645375
 30
0.0
 11
-177.63699499999981
 21
-154.04918100000029
 31
0.0
  0
LINE
  5
25AB
  8
DETAIL
  6
CONTINUOUS
 62
     5
 10
-189.3215719999998
 20
-165.8646040000003
 30
0.0
 11
-183.8215719999998
 21
-160.3646040000003
 31
0.0
  0
LINE
  5
25AF
  8
DETAIL
  6
CONTINUOUS
 62
     5
 10
-182.381351
 20
-172.80482500000011
 30
0.0
 11
-176.881351
 21
-167.30482500000011
 31
0.0
  0
LINE
  5
25B0
  8
DETAIL
  6
CONTINUOUS
 62
     5
 10
-168.1621219999997
 20
-158.7164430000002
 30
0.0
 11
-170.56592699999959
 21
-161.12024900000051
 31
0.0
  0
LINE
  5
25B1
  8
DETAIL
  6
CONTINUOUS
 62
     5
 10
-174.6612400000003
 20
-172.02493600000071
 30
0.0
 11
-166.52520100000041
 21
-163.8888970000007
 31
0.0
  0
LINE
  5
25B2
  8
DETAIL
  6
CONTINUOUS
 62
     5
 10
79.0
 20
0.1842179999994187
 30
0.0
 11
81.399999999999636
 21
0.1842179999994187
 31
0.0
  0
LINE
  5
25B3
  8
DETAIL
  6
CONTINUOUS
 62
     5
 10
79.0
 20
6.1495869999998831
 30
0.0
 11
81.399999999999636
 21
6.1495869999998831
 31
0.0
  0
LINE
  5
25B4
  8
DETAIL
  6
CONTINUOUS
 62
     5
 10
-168.00589099999979
 20
-168.45970700000001
 30
0.0
 11
-149.22646900000021
 21
-149.68028600000071
 31
0.0
  0
LINE
  5
25B5
  8
DETAIL
  6
CONTINUOUS
 62
     5
 10
-160.2277160000003
 20
-176.2378820000003
 30
0.0
 11
-141.44829500000009
 21
-157.45846000000071
 31
0.0
  0
LINE
  5
25B6
  8
DETAIL
  6
CONTINUOUS
 62
     5
 10
79.0
 20
15.67013299999962
 30
0.0
 11
81.399999999999636
 21
15.67013299999962
 31
0.0
  0
LINE
  5
25B7
  8
DETAIL
  6
CONTINUOUS
 62
     5
 10
103.1999999999998
 20
17.899999999999629
 30
0.0
 11
79.0
 21
17.899999999999629
 31
0.0
  0
LINE
  5
25B8
  8
DETAIL
  6
CONTINUOUS
 62
     5
 10
77.399999999999622
 20
17.899999999999629
 30
0.0
 11
43.199999999999811
 21
17.899999999999629
 31
0.0
  0
LINE
  5
25B9
  8
DETAIL
  6
CONTINUOUS
 62
     5
 10
19.77588500000002
 20
46.114592999999331
 30
0.0
 11
16.823386000000031
 21
70.160770999999841
 31
0.0
  0
LINE
  5
25BB
  8
DETAIL
  6
CONTINUOUS
 62
     5
 10
4.696839000000181
 20
168.92356399999969
 30
0.0
 11
3.94513800000004
 21
175.04568099999921
 31
0.0
  0
LINE
  5
25BC
  8
DETAIL
  6
CONTINUOUS
 62
     5
 10
41.199999999999811
 20
15.899999999999631
 30
0.0
 11
41.199999999999811
 21
-70.100000000000364
 31
0.0
  0
LINE
  5
25BD
  8
DETAIL
  6
CONTINUOUS
 62
     5
 10
-146.2415019999998
 20
-179.22223000000031
 30
0.0
 11
-138.46394599999979
 21
-171.4446740000003
 31
0.0
  0
LINE
  5
25BE
  8
DETAIL
  6
CONTINUOUS
 62
     5
 10
-130.34764600000011
 20
21.535264000000101
 30
0.0
 11
-150.1701069999998
 21
19.10137199999917
 31
0.0
  0
LINE
  5
25C0
  8
DETAIL
  6
CONTINUOUS
 62
     5
 10
-33.078123999999661
 20
33.478459999999359
 30
0.0
 11
10.90189699999973
 21
38.878526999999849
 31
0.0
  0
LINE
  5
25C1
  8
DETAIL
  6
CONTINUOUS
 62
     5
 10
48.0
 20
42.982693999999327
 30
0.0
 11
48.0
 21
23.099999999999451
 31
0.0
  0
LINE
  5
25C2
  8
DETAIL
  6
CONTINUOUS
 62
     5
 10
48.0
 20
-78.10000000000035
 30
0.0
 11
48.0
 21
-83.0
 31
0.0
  0
LINE
  5
25C3
  8
DETAIL
  6
CONTINUOUS
 62
     5
 10
81.399999999999636
 20
15.67002299999967
 30
0.0
 11
81.399999999999636
 21
0.1842179999994187
 31
0.0
  0
LINE
  5
25C4
  8
DETAIL
  6
CONTINUOUS
 62
     5
 10
81.399999999999636
 20
-17.22500000000036
 30
0.0
 11
81.399999999999636
 21
-36.974999000000032
 31
0.0
  0
LINE
  5
25C5
  8
DETAIL
  6
CONTINUOUS
 62
     5
 10
81.399999999999636
 20
-54.384217000000717
 30
0.0
 11
81.399999999999636
 21
-69.870023000000401
 31
0.0
  0
LINE
  5
25C7
  8
DETAIL
  6
CONTINUOUS
 62
     5
 10
133.0
 20
135.19999999999979
 30
0.0
 11
143.0
 21
135.19999999999979
 31
0.0
  0
LINE
  5
25C8
  8
DETAIL
  6
CONTINUOUS
 62
     5
 10
133.0
 20
136.19999999999979
 30
0.0
 11
143.0
 21
136.19999999999979
 31
0.0
  0
LINE
  5
25C9
  8
DETAIL
  6
CONTINUOUS
 62
     5
 10
133.0
 20
135.19999999999979
 30
0.0
 11
133.0
 21
136.19999999999979
 31
0.0
  0
LINE
  5
25CA
  8
DETAIL
  6
CONTINUOUS
 62
     5
 10
143.0
 20
135.19999999999979
 30
0.0
 11
143.0
 21
136.19999999999979
 31
0.0
  0
LINE
  5
25CB
  8
DETAIL
  6
CONTINUOUS
 62
     5
 10
3.94513800000004
 20
175.04568099999921
 30
0.0
 11
-49.652353999999832
 21
168.4647359999999
 31
0.0
  0
LINE
  5
25CC
  8
DETAIL
  6
CONTINUOUS
 62
     5
 10
-200.51936899999961
 20
149.9405959999994
 30
0.0
 11
-146.92187699999971
 21
156.52154100000001
 31
0.0
  0
LINE
  5
25CD
  8
DETAIL
  6
CONTINUOUS
 62
     5
 10
-202.5
 20
165.0
 30
0.0
 11
-177.5
 21
165.0
 31
0.0
  0
LINE
  5
25CE
  8
DETAIL
  6
CONTINUOUS
 62
     5
 10
-177.5
 20
175.0
 30
0.0
 11
-202.5
 21
175.0
 31
0.0
  0
ARC
  5
25CF
  8
DETAIL
  6
CONTINUOUS
 62
     5
 10
-203.5174610000004
 20
-96.491046000000082
 30
0.0
 40
15.675000000000001
 50
180.0
 51
224.99999999998161
  0
ARC
  5
25D0
  8
DETAIL
  6
CONTINUOUS
 62
     5
 10
-203.5174610000004
 20
-96.491046000000082
 30
0.0
 40
9.3249999999999993
 50
180.0
 51
224.99999999998161
  0
ARC
  5
25D5
  8
DETAIL
  6
CONTINUOUS
 62
     5
 10
-177.5
 20
170.0
 30
0.0
 40
5.0
 50
270.0
 51
90.0
  0
ARC
  5
25D6
  8
DETAIL
  6
CONTINUOUS
 62
     5
 10
-202.5
 20
170.0
 30
0.0
 40
5.0
 50
90.0
 51
270.0
  0
ARC
  5
25DC
  8
DETAIL
  6
CONTINUOUS
 62
     5
 10
-59.196256000000169
 20
86.332281999999395
 30
0.0
 40
53.200000000000003
 50
313.18228699997422
 51
344.2841819999947
  0
ARC
  5
25DF
  8
DETAIL
  6
CONTINUOUS
 62
     5
 10
-9.8990039999998753
 20
140.0980099999997
 30
0.0
 40
9.0
 50
150.19015800003521
 51
170.843203000003
  0
ARC
  5
25E0
  8
DETAIL
  6
CONTINUOUS
 62
     5
 10
-9.8990039999998753
 20
140.0980099999997
 30
0.0
 40
9.0
 50
248.88936799997089
 51
6.0529890000036932
  0
LINE
  5
2958
  8
DETAIL
  6
DASHED
 62
     5
 10
-212.84246100000021
 20
-88.134613000000186
 30
0.0
 11
-212.84246100000021
 21
-55.491046000000097
 31
0.0
  0
LINE
  5
2959
  8
DETAIL
  6
DASHED
 62
     5
 10
-219.19246099999961
 20
-88.134613000000186
 30
0.0
 11
-219.19246099999961
 21
-55.491046000000097
 31
0.0
  0
ARC
  5
295B
  8
DETAIL
  6
CONTINUOUS
 62
     5
 10
-9.8990039999998753
 20
140.0980099999997
 30
0.0
 40
9.0
 50
6.0529890000036932
 51
61.479741000041763
  0
LINE
  5
2960
  8
DETAIL
  6
CONTINUOUS
 62
     5
 10
-176.64740299999991
 20
-150.2311610000005
 30
0.0
 11
-163.21237387237309
 21
-163.66619012762709
 31
0.0
  0
LINE
  5
296B
  8
DETAIL
  6
DASHED
 62
     5
 10
-143.05643700000019
 20
-64.1480530000008
 30
0.0
 11
-144.0300459999998
 21
-62.401031000000323
 31
0.0
  0
LINE
  5
296C
  8
DETAIL
  6
DASHED
 62
     5
 10
-128.00466299999971
 20
-73.145377000000735
 30
0.0
 11
-131.4448490000004
 21
-71.088977000000341
 31
0.0
  0
LINE
  5
296D
  8
DETAIL
  6
DASHED
 62
     5
 10
-139.61625100000029
 20
-66.204451999999932
 30
0.0
 11
-143.05643700000019
 21
-64.1480530000008
 31
0.0
  0
LINE
  5
296E
  8
DETAIL
  6
DASHED
 62
     5
 10
-119.13816800000041
 20
-77.280360000000655
 30
0.0
 11
-126.00489300000019
 21
-73.175717000000063
 31
0.0
  0
LINE
  5
296F
  8
DETAIL
  6
DASHED
 62
     5
 10
-144.0300459999998
 20
-62.401031000000323
 30
0.0
 11
-150.89677099999969
 21
-58.29638900000009
 31
0.0
  0
LINE
  5
2970
  8
DETAIL
  6
DASHED
 62
     5
 10
-128.34829400000029
 20
-65.907070000000203
 30
0.0
 11
-127.73404536693459
 21
-63.740940202881212
 31
0.0
  0
LINE
  5
2974
  8
DETAIL
  6
DASHED
 62
     5
 10
-139.6222010000001
 20
-66.214405000000625
 30
0.0
 11
-136.52217099999959
 21
-61.02831400000013
 31
0.0
  0
LINE
  5
2975
  8
DETAIL
  6
DASHED
 62
     5
 10
-134.9011864270766
 20
-59.456714285133991
 30
0.0
 11
-131.31977499999991
 21
-53.465311000000838
 31
0.0
  0
LINE
  5
2976
  8
DETAIL
  6
DASHED
 62
     5
 10
-126.00489300000019
 20
-73.175717000000063
 30
0.0
 11
-128.00466299999971
 21
-73.145377000000735
 31
0.0
  0
LINE
  5
2977
  8
DETAIL
  6
DASHED
 62
     5
 10
-127.73404536693459
 20
-63.740940202881212
 30
0.0
 11
-124.1526309999999
 21
-57.749531000000388
 31
0.0
  0
LINE
  5
2978
  8
DETAIL
  6
DASHED
 62
     5
 10
-131.45079799999979
 20
-71.09892900000068
 30
0.0
 11
-128.35076899999959
 21
-65.912839000000531
 31
0.0
  0
LINE
  5
2979
  8
DETAIL
  6
DASHED
 62
     5
 10
-131.7435210000003
 20
-79.400174000000334
 30
0.0
 11
-128.00466299999971
 21
-73.145377000000735
 31
0.0
  0
LINE
  5
297A
  8
DETAIL
  6
DASHED
 62
     5
 10
-130.24372500000021
 20
-80.26693000000067
 30
0.0
 11
-126.00489300000019
 21
-73.175717000000063
 31
0.0
  0
LINE
  5
297B
  8
DETAIL
  6
DASHED
 62
     5
 10
-123.3164639999995
 20
-84.270301000000444
 30
0.0
 11
-119.13876499999969
 21
-77.281357000000753
 31
0.0
  0
LINE
  5
297C
  8
DETAIL
  6
CONTINUOUS
 62
     5
 10
77.399999999999622
 20
-65.870133000000351
 30
0.0
 11
71.998075999999855
 21
-65.870133000000351
 31
0.0
  0
LINE
  5
297D
  8
DETAIL
  6
CONTINUOUS
 62
     5
 10
77.399999999999622
 20
-61.870133000000351
 30
0.0
 11
71.998075999999855
 21
-61.870133000000351
 31
0.0
  0
LINE
  5
297E
  8
DETAIL
  6
DASHED
 62
     5
 10
-136.51826199999959
 20
-61.023403000000137
 30
0.0
 11
-134.9011864270766
 21
-59.456714285133991
 31
0.0
  0
LINE
  5
2981
  8
DETAIL
  6
CONTINUOUS
 62
     5
 10
71.998075999999855
 20
-65.870133000000351
 30
0.0
 11
69.399999999999636
 21
-64.370133000000351
 31
0.0
  0
LINE
  5
2988
  8
DETAIL
  6
CONTINUOUS
 62
     5
 10
77.399999999999622
 20
7.6701329999996224
 30
0.0
 11
71.998075999999855
 21
7.6701329999996224
 31
0.0
  0
LINE
  5
2989
  8
DETAIL
  6
CONTINUOUS
 62
     5
 10
77.399999999999622
 20
11.67013299999962
 30
0.0
 11
71.998075999999855
 21
11.67013299999962
 31
0.0
  0
LINE
  5
298B
  8
DETAIL
  6
CONTINUOUS
 62
     5
 10
71.998075999999855
 20
11.67013299999962
 30
0.0
 11
69.399999999999636
 21
10.17013299999962
 31
0.0
  0
LINE
  5
298C
  8
DETAIL
  6
CONTINUOUS
 62
     5
 10
71.998075999999855
 20
7.6701329999996224
 30
0.0
 11
69.399999999999636
 21
9.1701329999996233
 31
0.0
  0
LINE
  5
298D
  8
DETAIL
  6
CONTINUOUS
 62
     5
 10
69.399999999999636
 20
-64.370133000000351
 30
0.0
 11
69.399999999999636
 21
-63.370133000000351
 31
0.0
  0
LINE
  5
298E
  8
DETAIL
  6
CONTINUOUS
 62
     5
 10
69.399999999999636
 20
9.1701329999996233
 30
0.0
 11
69.399999999999636
 21
10.17013299999962
 31
0.0
  0
LINE
  5
298F
  8
DETAIL
  6
CONTINUOUS
 62
     5
 10
71.998075999999855
 20
-65.870133000000351
 30
0.0
 11
71.998075999999855
 21
-61.870133000000351
 31
0.0
  0
LINE
  5
2990
  8
DETAIL
  6
CONTINUOUS
 62
     5
 10
71.998075999999855
 20
7.6701329999996224
 30
0.0
 11
71.998075999999855
 21
11.67013299999962
 31
0.0
  0
LINE
  5
2991
  8
DETAIL
  6
CONTINUOUS
 62
     5
 10
71.998075999999855
 20
-61.870133000000351
 30
0.0
 11
69.399999999999636
 21
-63.370133000000351
 31
0.0
  0
LINE
  5
2993
  8
DETAIL
  6
CONTINUOUS
 62
     5
 10
137.75
 20
135.19999999999979
 30
0.0
 11
137.75
 21
135.0
 31
0.0
  0
LINE
  5
2994
  8
DETAIL
  6
CONTINUOUS
 62
     5
 10
137.75
 20
-148.2000000000007
 30
0.0
 11
137.75
 21
-148.0
 31
0.0
  0
LINE
  5
2995
  8
DETAIL
  6
CONTINUOUS
 62
     5
 10
140.25
 20
135.19999999999979
 30
0.0
 11
140.25
 21
135.0
 31
0.0
  0
LINE
  5
2996
  8
DETAIL
  6
CONTINUOUS
 62
     5
 10
140.25
 20
-148.2000000000007
 30
0.0
 11
140.25
 21
-148.0
 31
0.0
  0
ARC
  5
2998
  8
DETAIL
  6
CONTINUOUS
 62
     5
 10
-96.343292999999903
 20
-97.616810000000456
 30
0.0
 40
6.349999999999997
 50
197.68705999998971
 51
100.25241500000629
  0
CIRCLE
  5
299A
  8
DETAIL
  6
CONTINUOUS
 62
     5
 10
-74.129903000000013
 20
-1.1483880000005211
 30
0.0
 40
4.7000000000000002
  0
CIRCLE
  5
299F
  8
DETAIL
  6
CONTINUOUS
 62
     5
 10
156.0
 20
-155.0
 30
0.0
 40
4.7000000000000002
  0
CIRCLE
  5
29A0
  8
DETAIL
  6
CONTINUOUS
 62
     5
 10
215.0
 20
-155.0
 30
0.0
 40
4.7000000000000002
  0
CIRCLE
  5
29A1
  8
DETAIL
  6
CONTINUOUS
 62
     5
 10
202.0
 20
-140.2000000000007
 30
0.0
 40
4.7000000000000002
  0
CIRCLE
  5
29A4
  8
DETAIL
  6
CONTINUOUS
 62
     5
 10
63.0
 20
38.5
 30
0.0
 40
5.9000000000000004
  0
CIRCLE
  5
29A7
  8
DETAIL
  6
CONTINUOUS
 62
     5
 10
202.0
 20
127.1999999999998
 30
0.0
 40
4.7000000000000002
  0
CIRCLE
  5
29A8
  8
DETAIL
  6
CONTINUOUS
 62
     5
 10
166.0
 20
142.0
 30
0.0
 40
4.7000000000000002
  0
CIRCLE
  5
2DD9
  8
DETAIL
  6
CONTINUOUS
 62
     5
 10
-103.39999999999981
 20
-160.0
 30
0.0
 40
4.7000000000000002
  0
CIRCLE
  5
2DDA
  8
DETAIL
  6
CONTINUOUS
 62
     5
 10
-215.1293990000004
 20
143.1658019999995
 30
0.0
 40
5.9000000000000004
  0
CIRCLE
  5
2DDB
  8
DETAIL
  6
CONTINUOUS
 62
     5
 10
-220.6147899999996
 20
130.40216299999969
 30
0.0
 40
5.9000000000000004
  0
ARC
  5
2DDC
  8
DETAIL
  6
CONTINUOUS
 62
     5
 10
40.283604999999611
 20
59.613813999999358
 30
0.0
 40
5.9000000000000004
 50
110.5172550000277
 51
259.97855399998912
  0
ARC
  5
2DDD
  8
DETAIL
  6
CONTINUOUS
 62
     5
 10
40.283604999999611
 20
59.613813999999358
 30
0.0
 40
5.9000000000000004
 50
349.37917900000679
 51
79.65841600003445
  0
LINE
  5
2DE0
  8
DETAIL
  6
CONTINUOUS
 62
     5
 10
-185.84294899999981
 20
-114.1655580000006
 30
0.0
 11
-183.2234959999995
 21
-116.7850109999999
 31
0.0
  0
ARC
  5
2DE2
  8
DETAIL
  6
CONTINUOUS
 62
     5
 10
-165.7437220000001
 20
34.518340999999971
 30
0.0
 40
9.0
 50
76.451107999998442
 51
187.5118030000028
  0
ARC
  5
2DE3
  8
DETAIL
  6
CONTINUOUS
 62
     5
 10
-165.7437220000001
 20
34.518340999999971
 30
0.0
 40
11.5
 50
68.272609000023522
 51
195.69030199997201
  0
LINE
  5
2DE6
  8
DETAIL
  6
CONTINUOUS
 62
     5
 10
-143.07489100000009
 20
-95.057432000000517
 30
0.0
 11
-145.88947399999961
 21
-96.682432000000517
 31
0.0
  0
LINE
  5
2DE7
  8
DETAIL
  6
CONTINUOUS
 62
     5
 10
-145.88947399999961
 20
-96.682432000000517
 30
0.0
 11
-145.88947399999961
 21
-99.932432000000489
 31
0.0
  0
LINE
  5
2DE8
  8
DETAIL
  6
CONTINUOUS
 62
     5
 10
-145.88947399999961
 20
-99.932432000000489
 30
0.0
 11
-143.10285300000029
 21
-101.54128800000031
 31
0.0
  0
LINE
  5
2DE9
  8
DETAIL
  6
CONTINUOUS
 62
     5
 10
-143.10285300000029
 20
-101.54128800000031
 30
0.0
 11
-140.2603079999999
 21
-99.932432000000489
 31
0.0
  0
LINE
  5
2DEA
  8
DETAIL
  6
CONTINUOUS
 62
     5
 10
-140.2603079999999
 20
-99.932432000000489
 30
0.0
 11
-140.2603079999999
 21
-96.682432000000517
 31
0.0
  0
LINE
  5
2DEB
  8
DETAIL
  6
CONTINUOUS
 62
     5
 10
-140.2603079999999
 20
-96.682432000000517
 30
0.0
 11
-143.07489100000009
 21
-95.057432000000517
 31
0.0
  0
CIRCLE
  5
2DEC
  8
DETAIL
  6
CONTINUOUS
 62
     5
 10
-143.07489100000009
 20
-98.307432000000517
 30
0.0
 40
2.533123999999999
  0
LINE
  5
2DED
  8
DETAIL
  6
CONTINUOUS
 62
     5
 10
-225.72376700000041
 20
115.6130809999995
 30
0.0
 11
-220.4682540000002
 21
72.810362999999583
 31
0.0
  0
LINE
  5
2DEE
  8
DETAIL
  6
CONTINUOUS
 62
     5
 10
-178.22866299999981
 20
114.45541899999991
 30
0.0
 11
-171.5181990000001
 21
59.803077999999907
 31
0.0
  0
LINE
  5
2DEF
  8
DETAIL
  6
CONTINUOUS
 62
     5
 10
-208.56030100000041
 20
55.254879999999503
 30
0.0
 11
-171.5181990000001
 21
59.803077999999907
 31
0.0
  0
LINE
  5
2DF0
  8
DETAIL
  6
CONTINUOUS
 62
     5
 10
-221.3703830000004
 20
121.1851579999993
 30
0.0
 11
-171.56519937271139
 21
127.3004653610412
 31
0.0
  0
LINE
  5
2DF2
  8
DETAIL
  6
CONTINUOUS
 62
     5
 10
-197.22401199999959
 20
63.842021999999822
 30
0.0
 11
-212.4928110000001
 21
61.967248999999349
 31
0.0
  0
LINE
  5
2DF3
  8
DETAIL
  6
CONTINUOUS
 62
     5
 10
-171.56519937271139
 20
127.3004653610412
 30
0.0
 11
-178.22866299999981
 21
114.45541899999991
 31
0.0
  0
LINE
  5
2DF4
  8
DETAIL
  6
CONTINUOUS
 62
     5
 10
-219.8196660000003
 20
70.892224999999584
 30
0.0
 11
-211.51439399999981
 21
56.716027999999802
 31
0.0
  0
ARC
  5
2DF5
  8
DETAIL
  6
CONTINUOUS
 62
     5
 10
-212.85842000000051
 20
64.944886999999653
 30
0.0
 40
3.0
 50
210.3643439999689
 51
276.99999999992809
  0
LINE
  5
2DF6
  8
DETAIL
  6
CONTINUOUS
 62
     5
 10
-198.7505629999994
 20
86.230358999999211
 30
0.0
 11
-196.00156400000009
 21
63.841558999999499
 31
0.0
  0
LINE
  5
2DF7
  8
DETAIL
  6
CONTINUOUS
 62
     5
 10
-194.39717899999951
 20
91.802436999999358
 30
0.0
 11
-175.72867299999959
 21
94.094640999999697
 31
0.0
  0
ARC
  5
2DF8
  8
DETAIL
  6
CONTINUOUS
 62
     5
 10
-208.92590899999959
 20
58.232517999999793
 30
0.0
 40
3.0
 50
210.3643439999689
 51
276.99999999992809
  0
LINE
  5
2DF9
  8
DETAIL
  6
CONTINUOUS
 62
     5
 10
-190.20804200000021
 20
62.1291629999996
 30
0.0
 11
-172.07714800000031
 21
64.355356999999444
 31
0.0
  0
LINE
  5
2DFA
  8
DETAIL
  6
CONTINUOUS
 62
     5
 10
-194.16371499999971
 20
63.237368999999497
 30
0.0
 11
-193.2683390000002
 21
62.733815999999933
 31
0.0
  0
ARC
  5
2DFB
  8
DETAIL
  6
CONTINUOUS
 62
     5
 10
-196.614665
 20
58.879290999999277
 30
0.0
 40
5.0
 50
60.646931999951917
 51
97.000000000031449
  0
ARC
  5
2DFC
  8
DETAIL
  6
CONTINUOUS
 62
     5
 10
-190.81738899999971
 20
67.091893999999215
 30
0.0
 40
5.0
 50
240.6469319999519
 51
276.99999999992809
  0
ARC
  5
2DFD
  8
DETAIL
  6
CONTINUOUS
 62
     5
 10
-193.78783200000001
 20
86.839705999999737
 30
0.0
 40
5.0
 50
97.000000000031449
 51
186.99999999997971
  0
ARC
  5
2DFE
  8
DETAIL
  6
CONTINUOUS
 62
     5
 10
-220.7610359999999
 20
116.2224269999997
 30
0.0
 40
5.0
 50
97.000000000031449
 51
186.99999999997971
  0
ARC
  5
2DFF
  8
DETAIL
  6
CONTINUOUS
 62
     5
 10
-215.50552400000021
 20
73.419708999999784
 30
0.0
 40
5.0
 50
186.99999999997971
 51
210.3643439999689
  0
LINE
  5
2E00
  8
DETAIL
  6
CONTINUOUS
 62
     5
 10
-224.90301699999969
 20
108.9286089999996
 30
0.0
 11
-227.03779899999969
 21
108.0030189999997
 31
0.0
  0
LINE
  5
2E01
  8
DETAIL
  6
CONTINUOUS
 62
     5
 10
-227.03779899999969
 20
108.0030189999997
 30
0.0
 11
-226.5567010000004
 21
104.0847880000001
 31
0.0
  0
LINE
  5
2E02
  8
DETAIL
  6
CONTINUOUS
 62
     5
 10
-226.5567010000004
 20
104.0847880000001
 30
0.0
 11
-224.23745099999999
 21
103.5080079999998
 31
0.0
  0
ARC
  5
2E03
  8
DETAIL
  6
CONTINUOUS
 62
     5
 10
-221.12533199999959
 20
80.191552999999644
 30
0.0
 40
3.2526950000000001
 50
101.3614409999302
 51
272.63855900001431
  0
LINE
  5
2E07
  8
DETAIL
  6
CONTINUOUS
 62
     5
 10
-203.62968300000011
 20
149.61533899999981
 30
0.0
 11
-156.48374100000001
 21
155.40413199999961
 31
0.0
  0
LINE
  5
2E08
  8
DETAIL
  6
CONTINUOUS
 62
     5
 10
-156.48374100000001
 20
155.40413199999961
 30
0.0
 11
-156.84934899999999
 21
158.38177099999939
 31
0.0
  0
LINE
  5
2E09
  8
DETAIL
  6
CONTINUOUS
 62
     5
 10
-203.62968300000011
 20
149.61533899999981
 30
0.0
 11
-203.99529100000021
 21
152.59297699999931
 31
0.0
  0
LINE
  5
2E0A
  8
DETAIL
  6
CONTINUOUS
 62
     5
 10
-23.48183599999993
 20
31.634205999999718
 30
0.0
 11
-23.847443999999999
 21
34.611844999999448
 31
0.0
  0
LINE
  5
2E0C
  8
DETAIL
  6
CONTINUOUS
 62
     5
 10
77.199999999999804
 20
-99.500000000000014
 30
0.0
 11
74.199999999999804
 21
-102.5
 31
0.0
  0
LINE
  5
2E14
  8
DETAIL
  6
CONTINUOUS
 62
     5
 10
-176.881351
 20
-167.30482500000011
 30
0.0
 11
-169.1612400000003
 21
-166.52493600000071
 31
0.0
  0
LINE
  5
2E1A
  8
DETAIL
  6
CONTINUOUS
 62
     5
 10
22.39999999999964
 20
135.25
 30
0.0
 11
22.39999999999964
 21
136.5
 31
0.0
  0
LINE
  5
2E1B
  8
DETAIL
  6
CONTINUOUS
 62
     5
 10
22.39999999999964
 20
143.5
 30
0.0
 11
22.39999999999964
 21
144.75
 31
0.0
  0
LINE
  5
2E1C
  8
DETAIL
  6
CONTINUOUS
 62
     5
 10
25.39999999999964
 20
135.25
 30
0.0
 11
25.39999999999964
 21
136.5
 31
0.0
  0
LINE
  5
2E1D
  8
DETAIL
  6
CONTINUOUS
 62
     5
 10
25.39999999999964
 20
143.5
 30
0.0
 11
25.39999999999964
 21
144.75
 31
0.0
  0
LINE
  5
2E1F
  8
DETAIL
  6
CONTINUOUS
 62
     5
 10
34.399999999999643
 20
135.25
 30
0.0
 11
34.399999999999643
 21
136.5
 31
0.0
  0
LINE
  5
2E20
  8
DETAIL
  6
CONTINUOUS
 62
     5
 10
34.399999999999643
 20
143.5
 30
0.0
 11
34.399999999999643
 21
144.75
 31
0.0
  0
LINE
  5
2E21
  8
DETAIL
  6
CONTINUOUS
 62
     5
 10
37.39999999999965
 20
135.25
 30
0.0
 11
37.39999999999965
 21
136.5
 31
0.0
  0
LINE
  5
2E22
  8
DETAIL
  6
CONTINUOUS
 62
     5
 10
37.39999999999965
 20
143.5
 30
0.0
 11
37.39999999999965
 21
144.75
 31
0.0
  0
LINE
  5
2E23
  8
DETAIL
  6
CONTINUOUS
 62
     5
 10
37.39999999999965
 20
135.25
 30
0.0
 11
33.044144000000408
 21
135.25
 31
0.0
  0
LINE
  5
2E24
  8
DETAIL
  6
CONTINUOUS
 62
     5
 10
26.694144000000051
 20
135.25
 30
0.0
 11
22.39999999999964
 21
135.25
 31
0.0
  0
LINE
  5
2E25
  8
DETAIL
  6
CONTINUOUS
 62
     5
 10
37.39999999999965
 20
144.75
 30
0.0
 11
33.044144000000408
 21
144.75
 31
0.0
  0
LINE
  5
2E26
  8
DETAIL
  6
CONTINUOUS
 62
     5
 10
26.694144000000051
 20
144.75
 30
0.0
 11
22.39999999999964
 21
144.75
 31
0.0
  0
LINE
  5
2E27
  8
DETAIL
  6
CONTINUOUS
 62
     5
 10
-193.47533799999999
 20
-173.70831300000009
 30
0.0
 11
-211.43826300000001
 21
-155.7453880000003
 31
0.0
  0
LINE
  5
2E29
  8
DETAIL
  6
CONTINUOUS
 62
     5
 10
-240.0
 20
178.39999999999961
 30
0.0
 11
-240.0
 21
-178.4000000000004
 31
0.0
  0
LINE
  5
2E2A
  8
DETAIL
  6
CONTINUOUS
 62
     5
 10
-238.39999999999961
 20
-180.0
 30
0.0
 11
-238.39999999999961
 21
-178.4000000000004
 31
0.0
  0
LINE
  5
2E2C
  8
DETAIL
  6
CONTINUOUS
 62
     5
 10
-220.7774609999997
 20
-64.020996000000196
 30
0.0
 11
-220.7774609999997
 21
-22.4910460000001
 31
0.0
  0
LINE
  5
2E2D
  8
DETAIL
  6
CONTINUOUS
 62
     5
 10
-220.0174610000004
 20
-96.491046000000082
 30
0.0
 11
-220.0174610000004
 21
-76.491046000000097
 31
0.0
  0
LINE
  5
2E2E
  8
DETAIL
  6
CONTINUOUS
 62
     5
 10
-220.0174610000004
 20
-66.491046000000111
 30
0.0
 11
-220.0174610000004
 21
-64.780996000000414
 31
0.0
  0
LINE
  5
2E2F
  8
DETAIL
  6
CONTINUOUS
 62
     5
 10
-219.19246099999961
 20
-36.681594000000587
 30
0.0
 11
-219.19246099999961
 21
-46.491046000000097
 31
0.0
  0
LINE
  5
2E31
  8
DETAIL
  6
CONTINUOUS
 62
     5
 10
-212.84246100000021
 20
-36.681594000000587
 30
0.0
 11
-212.84246100000021
 21
-46.491046000000097
 31
0.0
  0
LINE
  5
2E33
  8
DETAIL
  6
CONTINUOUS
 62
     5
 10
-212.0174610000004
 20
-96.491046000000082
 30
0.0
 11
-212.0174610000004
 21
-76.491046000000097
 31
0.0
  0
LINE
  5
2E34
  8
DETAIL
  6
CONTINUOUS
 62
     5
 10
-212.0174610000004
 20
-66.491046000000111
 30
0.0
 11
-212.0174610000004
 21
-64.780996000000414
 31
0.0
  0
LINE
  5
2E35
  8
DETAIL
  6
CONTINUOUS
 62
     5
 10
-211.25746100000021
 20
-64.020996000000196
 30
0.0
 11
-211.25746100000021
 21
-30.834314000000631
 31
0.0
  0
LINE
  5
2E37
  8
DETAIL
  6
CONTINUOUS
 62
     5
 10
-192.76943800000021
 20
-119.259884
 30
0.0
 11
-209.5278680000001
 21
-102.50145400000019
 31
0.0
  0
LINE
  5
2E38
  8
DETAIL
  6
CONTINUOUS
 62
     5
 10
-220.0174610000004
 20
-64.780996000000414
 30
0.0
 11
-220.7774609999997
 21
-64.020996000000196
 31
0.0
  0
LINE
  5
2E39
  8
DETAIL
  6
CONTINUOUS
 62
     5
 10
-198.01746100000031
 20
0.1359049999991839
 30
0.0
 11
-198.01746100000031
 21
-3.0563400000000911
 31
0.0
  0
LINE
  5
2E3A
  8
DETAIL
  6
CONTINUOUS
 62
     5
 10
-191.97572000000031
 20
-102.99829600000059
 30
0.0
 11
-191.97572000000031
 21
-101.99829600000059
 31
0.0
  0
LINE
  5
2E3B
  8
DETAIL
  6
CONTINUOUS
 62
     5
 10
-190.22572000000031
 20
-104.74829600000059
 30
0.0
 11
-190.22572000000031
 21
-102.99829600000059
 31
0.0
  0
LINE
  5
2E3C
  8
DETAIL
  6
CONTINUOUS
 62
     5
 10
-190.22572000000031
 20
-101.99829600000059
 30
0.0
 11
-190.22572000000031
 21
-100.24829600000059
 31
0.0
  0
LINE
  5
2E3D
  8
DETAIL
  6
CONTINUOUS
 62
     5
 10
-189.22572000000031
 20
-100.24829600000059
 30
0.0
 11
-189.22572000000031
 21
-101.99829600000059
 31
0.0
  0
LINE
  5
2E3E
  8
DETAIL
  6
CONTINUOUS
 62
     5
 10
-189.22572000000031
 20
-102.99829600000059
 30
0.0
 11
-189.22572000000031
 21
-104.74829600000059
 31
0.0
  0
LINE
  5
2E3F
  8
DETAIL
  6
CONTINUOUS
 62
     5
 10
-187.47572000000031
 20
-101.99829600000059
 30
0.0
 11
-187.47572000000031
 21
-102.99829600000059
 31
0.0
  0
LINE
  5
2E40
  8
DETAIL
  6
CONTINUOUS
 62
     5
 10
-238.39999999999961
 20
-180.0
 30
0.0
 11
238.39999999999961
 21
-180.0
 31
0.0
  0
LINE
  5
2E42
  8
DETAIL
  6
CONTINUOUS
 62
     5
 10
-194.62588400000001
 20
-0.7100700000000871
 30
0.0
 11
-194.87203099999971
 21
0.1374759999998787
 31
0.0
  0
LINE
  5
2E43
  8
DETAIL
  6
CONTINUOUS
 62
     5
 10
-197.2180459999999
 20
-0.3684160000002521
 30
0.0
 11
-197.0430530000003
 21
-1.0501460000004941
 31
0.0
  0
LINE
  5
2E44
  8
DETAIL
  6
CONTINUOUS
 62
     5
 10
-197.0430530000003
 20
-1.0501460000004941
 30
0.0
 11
-196.2827450000004
 21
-2.8110730000007602
 31
0.0
  0
LINE
  5
2E45
  8
DETAIL
  6
CONTINUOUS
 62
     5
 10
-196.2827450000004
 20
-2.8110730000007602
 30
0.0
 11
-195.10485499999959
 21
-4.446636000000578
 31
0.0
  0
LINE
  5
2E46
  8
DETAIL
  6
CONTINUOUS
 62
     5
 10
-195.10485499999959
 20
-4.446636000000578
 30
0.0
 11
-193.52468200000021
 21
-5.9227020000007524
 31
0.0
  0
LINE
  5
2E47
  8
DETAIL
  6
CONTINUOUS
 62
     5
 10
-193.52468200000021
 20
-5.9227020000007524
 30
0.0
 11
-191.7356929999994
 21
-7.1017070000007152
 31
0.0
  0
LINE
  5
2E48
  8
DETAIL
  6
CONTINUOUS
 62
     5
 10
-197.31868300000039
 20
0.2091939999991155
 30
0.0
 11
-197.2143189999997
 21
-0.3859570000004169
 31
0.0
  0
LINE
  5
2E49
  8
DETAIL
  6
CONTINUOUS
 62
     5
 10
-194.86509599999951
 20
0.104856999999356
 30
0.0
 11
-194.98030399999971
 21
0.9089449999992211
 31
0.0
  0
LINE
  5
2E4A
  8
DETAIL
  6
CONTINUOUS
 62
     5
 10
-194.98030399999971
 20
0.9089449999992211
 30
0.0
 11
-194.87119999999959
 21
2.6262719999995161
 31
0.0
  0
LINE
  5
2E4B
  8
DETAIL
  6
CONTINUOUS
 62
     5
 10
-194.87119999999959
 20
2.6262719999995161
 30
0.0
 11
-194.3091350000004
 21
4.385473999999701
 31
0.0
  0
LINE
  5
2E4C
  8
DETAIL
  6
CONTINUOUS
 62
     5
 10
-194.3091350000004
 20
4.385473999999701
 30
0.0
 11
-193.3145270000004
 21
6.1666819999991267
 31
0.0
  0
LINE
  5
2E4D
  8
DETAIL
  6
CONTINUOUS
 62
     5
 10
-193.3145270000004
 20
6.1666819999991267
 30
0.0
 11
-191.9095649999999
 21
7.938178999999761
 31
0.0
  0
LINE
  5
2E4E
  8
DETAIL
  6
CONTINUOUS
 62
     5
 10
-191.9095649999999
 20
7.938178999999761
 30
0.0
 11
-190.0887860000002
 21
9.697016000000076
 31
0.0
  0
LINE
  5
2E4F
  8
DETAIL
  6
CONTINUOUS
 62
     5
 10
-190.0887860000002
 20
9.697016000000076
 30
0.0
 11
-187.8920550000002
 21
11.390166999999559
 31
0.0
  0
LINE
  5
2E50
  8
DETAIL
  6
CONTINUOUS
 62
     5
 10
-187.8920550000002
 20
11.390166999999559
 30
0.0
 11
-185.36637499999921
 21
12.97696599999926
 31
0.0
  0
LINE
  5
2E51
  8
DETAIL
  6
CONTINUOUS
 62
     5
 10
-185.36637499999921
 20
12.97696599999926
 30
0.0
 11
-182.54197500000001
 21
14.434361999999959
 31
0.0
  0
LINE
  5
2E52
  8
DETAIL
  6
CONTINUOUS
 62
     5
 10
-182.54197500000001
 20
14.434361999999959
 30
0.0
 11
-179.4737999999997
 21
15.729133999999251
 31
0.0
  0
LINE
  5
2E53
  8
DETAIL
  6
CONTINUOUS
 62
     5
 10
-179.4737999999997
 20
15.729133999999251
 30
0.0
 11
-176.2292290000004
 21
16.830913999999211
 31
0.0
  0
LINE
  5
2E54
  8
DETAIL
  6
CONTINUOUS
 62
     5
 10
-176.2292290000004
 20
16.830913999999211
 30
0.0
 11
-173.02077300000019
 21
17.683917999999721
 31
0.0
  0
LINE
  5
2E57
  8
DETAIL
  6
CONTINUOUS
 62
     5
 10
-177.3218260000003
 20
20.910288999999469
 30
0.0
 11
-177.41827000000001
 21
19.081351999999239
 31
0.0
  0
LINE
  5
2E58
  8
DETAIL
  6
CONTINUOUS
 62
     5
 10
-240.0
 20
-178.4000000000004
 30
0.0
 11
-238.39999999999961
 21
-178.4000000000004
 31
0.0
  0
LINE
  5
2E5C
  8
DETAIL
  6
CONTINUOUS
 62
     5
 10
-159.5
 20
-82.513167000000067
 30
0.0
 11
-181.8435630000003
 21
-52.862258000000111
 31
0.0
  0
LINE
  5
2E60
  8
DETAIL
  6
CONTINUOUS
 62
     5
 10
-151.35736199999971
 20
-77.5
 30
0.0
 11
-161.2611880000004
 21
-64.357178000000204
 31
0.0
  0
LINE
  5
2E62
  8
DETAIL
  6
CONTINUOUS
 62
     5
 10
-180.671628
 20
-4.7499670000006491
 30
0.0
 11
-179.35138900000041
 21
-10.96120500000052
 31
0.0
  0
LINE
  5
2E63
  8
DETAIL
  6
CONTINUOUS
 62
     5
 10
-179.0407969999994
 20
-5.8090420000007681
 30
0.0
 11
-178.29231499999969
 21
-9.3303730000006908
 31
0.0
  0
LINE
  5
2E64
  8
DETAIL
  6
CONTINUOUS
 62
     5
 10
-173.41500799999989
 20
-4.6132430000006881
 30
0.0
 11
-172.666526
 21
-8.1345750000000407
 31
0.0
  0
LINE
  5
2E65
  8
DETAIL
  6
CONTINUOUS
 62
     5
 10
-143.76329600000011
 20
10.67133699999976
 30
0.0
 11
-143.91913199999999
 21
12.45660399999997
 31
0.0
  0
LINE
  5
2E66
  8
DETAIL
  6
CONTINUOUS
 62
     5
 10
-146.26658899999981
 20
11.957562999999929
 30
0.0
 11
-146.17735499999981
 21
10.48300199999994
 31
0.0
  0
LINE
  5
2E67
  8
DETAIL
  6
CONTINUOUS
 62
     5
 10
-146.17735499999981
 20
10.48300199999994
 30
0.0
 11
-146.50704299999961
 21
8.9523259999996299
 31
0.0
  0
LINE
  5
2E68
  8
DETAIL
  6
CONTINUOUS
 62
     5
 10
-146.50704299999961
 20
8.9523259999996299
 30
0.0
 11
-147.24255699999941
 21
7.3812979999993331
 31
0.0
  0
LINE
  5
2E69
  8
DETAIL
  6
CONTINUOUS
 62
     5
 10
-147.24255699999941
 20
7.3812979999993331
 30
0.0
 11
-148.36333699999969
 21
5.7990049999998492
 31
0.0
  0
LINE
  5
2E6A
  8
DETAIL
  6
CONTINUOUS
 62
     5
 10
-148.36333699999969
 20
5.7990049999998492
 30
0.0
 11
-149.85341700000021
 21
4.2308849999999421
 31
0.0
  0
LINE
  5
2E6B
  8
DETAIL
  6
CONTINUOUS
 62
     5
 10
-149.85341700000021
 20
4.2308849999999421
 30
0.0
 11
-151.70949900000051
 21
2.6895979999999322
 31
0.0
  0
LINE
  5
2E6C
  8
DETAIL
  6
CONTINUOUS
 62
     5
 10
-151.70949900000051
 20
2.6895979999999322
 30
0.0
 11
-153.89750400000051
 21
1.215758999999706
 31
0.0
  0
LINE
  5
2E6D
  8
DETAIL
  6
CONTINUOUS
 62
     5
 10
-153.89750400000051
 20
1.215758999999706
 30
0.0
 11
-156.3713250000001
 21
-0.1540820000009262
 31
0.0
  0
LINE
  5
2E6F
  8
DETAIL
  6
CONTINUOUS
 62
     5
 10
-158.7322000000004
 20
-1.231094000000666
 30
0.0
 11
-162.0564080000004
 21
-2.500442000000473
 31
0.0
  0
LINE
  5
2E70
  8
DETAIL
  6
CONTINUOUS
 62
     5
 10
-162.0564080000004
 20
-2.500442000000473
 30
0.0
 11
-165.1577829999996
 21
-3.4229190000005461
 31
0.0
  0
LINE
  5
2E71
  8
DETAIL
  6
CONTINUOUS
 62
     5
 10
-165.1577829999996
 20
-3.4229190000005461
 30
0.0
 11
-168.2035070000002
 21
-4.1220480000001771
 31
0.0
  0
LINE
  5
2E73
  8
DETAIL
  6
CONTINUOUS
 62
     5
 10
-159.5
 20
-86.0
 30
0.0
 11
-159.5
 21
-77.5
 31
0.0
  0
LINE
  5
2E74
  8
DETAIL
  6
CONTINUOUS
 62
     5
 10
-147.60000000000031
 20
-39.0
 30
0.0
 11
-147.60000000000031
 21
-31.751471999999922
 31
0.0
  0
LINE
  5
2E75
  8
DETAIL
  6
CONTINUOUS
 62
     5
 10
-146.20991655795621
 20
-6.9323050462658271
 30
0.0
 11
-146.17500000000021
 21
-15.60748000000058
 31
0.0
  0
LINE
  5
2E76
  8
DETAIL
  6
CONTINUOUS
 62
     5
 10
-146.17500000000021
 20
-21.966194000000549
 30
0.0
 11
-146.17500000000021
 21
-30.326472000000649
 31
0.0
  0
LINE
  5
2E77
  8
DETAIL
  6
CONTINUOUS
 62
     5
 10
-99.316340000000295
 20
-101.3852310000002
 30
0.0
 11
-124.53577299999959
 21
-86.310103000000694
 31
0.0
  0
LINE
  5
2E79
  8
DETAIL
  6
CONTINUOUS
 62
     5
 10
-162.2728569999999
 20
-8.9356000000007043
 30
0.0
 11
-163.0213389999999
 21
-5.4142690000007851
 31
0.0
  0
LINE
  5
2E7A
  8
DETAIL
  6
CONTINUOUS
 62
     5
 10
-156.64706899999959
 20
-7.7398020000000542
 30
0.0
 11
-157.3955509999995
 21
-4.2184710000001351
 31
0.0
  0
LINE
  5
2E7B
  8
DETAIL
  6
CONTINUOUS
 62
     5
 10
-155.01623699999979
 20
-8.7988760000007442
 30
0.0
 11
-156.3364760000004
 21
-2.5876390000003071
 31
0.0
  0
LINE
  5
2E7C
  8
DETAIL
  6
CONTINUOUS
 62
     5
 10
-139.82499999999979
 20
-7.966106000000762
 30
0.0
 11
-139.82499999999979
 21
-15.27469100000053
 31
0.0
  0
LINE
  5
2E7D
  8
DETAIL
  6
CONTINUOUS
 62
     5
 10
-139.82499999999979
 20
-21.633405000000501
 30
0.0
 11
-139.82499999999979
 21
-30.326472000000649
 31
0.0
  0
LINE
  5
2E7E
  8
DETAIL
  6
CONTINUOUS
 62
     5
 10
-138.39999999999961
 20
-39.0
 30
0.0
 11
-138.39999999999961
 21
-31.751471999999922
 31
0.0
  0
LINE
  5
2E7F
  8
DETAIL
  6
CONTINUOUS
 62
     5
 10
-126.5
 20
-104.5
 30
0.0
 11
-126.5
 21
-86.301008000000337
 31
0.0
  0
LINE
  5
2E80
  8
DETAIL
  6
CONTINUOUS
 62
     5
 10
-178.29231499999969
 20
-9.3303730000006908
 30
0.0
 11
-179.35138900000041
 21
-10.96120500000052
 31
0.0
  0
LINE
  5
2E81
  8
DETAIL
  6
CONTINUOUS
 62
     5
 10
-157.3955509999995
 20
-4.2184710000001351
 30
0.0
 11
-156.3364760000004
 21
-2.5876390000003071
 31
0.0
  0
LINE
  5
2E83
  8
DETAIL
  6
CONTINUOUS
 62
     5
 10
-154.66309499999991
 20
40.579253999999302
 30
0.0
 11
-176.9639360000001
 21
20.512552999999571
 31
0.0
  0
LINE
  5
2E84
  8
DETAIL
  6
CONTINUOUS
 62
     5
 10
-177.41827000000001
 20
19.081351999999239
 30
0.0
 11
-177.63731499999989
 21
18.884250999999491
 31
0.0
  0
LINE
  5
2E85
  8
DETAIL
  6
CONTINUOUS
 62
     5
 10
-182.63730000000021
 20
14.38517399999909
 30
0.0
 11
-194.53461200000021
 21
3.6797569999998792
 31
0.0
  0
LINE
  5
2E86
  8
DETAIL
  6
CONTINUOUS
 62
     5
 10
-93.901030000000006
 20
-93.531109000000455
 30
0.0
 11
-119.6512490000004
 21
-78.138700000000426
 31
0.0
  0
LINE
  5
2E88
  8
DETAIL
  6
CONTINUOUS
 62
     5
 10
-138.39999999999961
 20
-31.751471999999922
 30
0.0
 11
-139.82499999999979
 21
-30.326472000000649
 31
0.0
  0
LINE
  5
2E89
  8
DETAIL
  6
CONTINUOUS
 62
     5
 10
-183.7861030000004
 20
26.158151999999969
 30
0.0
 11
-177.41827000000001
 21
19.081351999999239
 31
0.0
  0
LINE
  5
2E8A
  8
DETAIL
  6
CONTINUOUS
 62
     5
 10
-176.9639360000001
 20
20.512552999999571
 30
0.0
 11
-182.31505600000031
 21
26.459444000000079
 31
0.0
  0
LINE
  5
2E8B
  8
DETAIL
  6
CONTINUOUS
 62
     5
 10
-138.39999999999961
 20
-34.179817000000178
 30
0.0
 11
-128.69350200000011
 21
-51.020788000000721
 31
0.0
  0
LINE
  5
2E8C
  8
DETAIL
  6
CONTINUOUS
 62
     5
 10
-124.4900079999997
 20
-58.313935000000143
 30
0.0
 11
-109.601302
 21
-84.146140000000671
 31
0.0
  0
LINE
  5
2E8D
  8
DETAIL
  6
CONTINUOUS
 62
     5
 10
-139.82499999999979
 20
-12.64292700000078
 30
0.0
 11
-138.35262599999979
 21
-15.19752700000026
 31
0.0
  0
LINE
  5
2E8E
  8
DETAIL
  6
CONTINUOUS
 62
     5
 10
-134.79515999999961
 20
-21.36980200000016
 30
0.0
 11
-123.09935899999979
 21
-41.662252000000073
 31
0.0
  0
LINE
  5
2E8F
  8
DETAIL
  6
CONTINUOUS
 62
     5
 10
-119.46776899999981
 20
-47.963134000000537
 30
0.0
 11
-94.312436999999562
 21
-91.608143000000396
 31
0.0
  0
LINE
  5
2E90
  8
DETAIL
  6
CONTINUOUS
 62
     5
 10
-146.49071499999991
 20
12.70880599999964
 30
0.0
 11
-146.26288199999999
 21
11.93999099999928
 31
0.0
  0
LINE
  5
2E91
  8
DETAIL
  6
CONTINUOUS
 62
     5
 10
-143.91708000000011
 20
12.4469139999992
 30
0.0
 11
-144.0750459999999
 21
13.06093299999975
 31
0.0
  0
LINE
  5
2E92
  8
DETAIL
  6
CONTINUOUS
 62
     5
 10
-144.0750459999999
 20
13.06093299999975
 30
0.0
 11
-144.80822400000031
 21
14.71937099999923
 31
0.0
  0
LINE
  5
2E93
  8
DETAIL
  6
CONTINUOUS
 62
     5
 10
-144.80822400000031
 20
14.71937099999923
 30
0.0
 11
-145.96310499999981
 21
16.251800999999428
 31
0.0
  0
LINE
  5
2E94
  8
DETAIL
  6
CONTINUOUS
 62
     5
 10
-145.96310499999981
 20
16.251800999999428
 30
0.0
 11
-147.526194
 21
17.622814999999719
 31
0.0
  0
LINE
  5
2E95
  8
DETAIL
  6
CONTINUOUS
 62
     5
 10
-157.31075700000019
 20
21.047976999999261
 30
0.0
 11
-160.37309900000031
 21
21.311696999999189
 31
0.0
  0
LINE
  5
2E96
  8
DETAIL
  6
CONTINUOUS
 62
     5
 10
-160.37309900000031
 20
21.311696999999189
 30
0.0
 11
-163.60007099999979
 21
21.335010999999209
 31
0.0
  0
LINE
  5
2E97
  8
DETAIL
  6
CONTINUOUS
 62
     5
 10
-163.60007099999979
 20
21.335010999999209
 30
0.0
 11
-166.9404320000003
 21
21.117977999999319
 31
0.0
  0
LINE
  5
2E98
  8
DETAIL
  6
CONTINUOUS
 62
     5
 10
-166.9404320000003
 20
21.117977999999319
 30
0.0
 11
-170.33236099999979
 21
20.665186999999602
 31
0.0
  0
LINE
  5
2E99
  8
DETAIL
  6
CONTINUOUS
 62
     5
 10
-170.33236099999979
 20
20.665186999999602
 30
0.0
 11
-173.5616650000002
 21
20.022172999999391
 31
0.0
  0
LINE
  5
2E9A
  8
DETAIL
  6
CONTINUOUS
 62
     5
 10
-146.26877099999999
 20
11.96776899999986
 30
0.0
 11
-146.26658899999981
 21
11.957562999999929
 31
0.0
  0
LINE
  5
2E9B
  8
DETAIL
  6
CONTINUOUS
 62
     5
 10
-143.91913199999999
 20
12.45660399999997
 30
0.0
 11
-143.92241699999971
 21
12.47197400000004
 31
0.0
  0
LINE
  5
2E9C
  8
DETAIL
  6
CONTINUOUS
 62
     5
 10
-189.22572000000031
 20
-104.74829600000059
 30
0.0
 11
-190.22572000000031
 21
-104.74829600000059
 31
0.0
  0
LINE
  5
2E9D
  8
DETAIL
  6
CONTINUOUS
 62
     5
 10
-187.47572000000031
 20
-102.99829600000059
 30
0.0
 11
-189.22572000000031
 21
-102.99829600000059
 31
0.0
  0
LINE
  5
2E9E
  8
DETAIL
  6
CONTINUOUS
 62
     5
 10
-190.22572000000031
 20
-102.99829600000059
 30
0.0
 11
-191.97572000000031
 21
-102.99829600000059
 31
0.0
  0
LINE
  5
2E9F
  8
DETAIL
  6
CONTINUOUS
 62
     5
 10
-191.97572000000031
 20
-101.99829600000059
 30
0.0
 11
-190.22572000000031
 21
-101.99829600000059
 31
0.0
  0
LINE
  5
2EA0
  8
DETAIL
  6
CONTINUOUS
 62
     5
 10
-189.22572000000031
 20
-101.99829600000059
 30
0.0
 11
-187.47572000000031
 21
-101.99829600000059
 31
0.0
  0
LINE
  5
2EA1
  8
DETAIL
  6
CONTINUOUS
 62
     5
 10
-190.22572000000031
 20
-100.24829600000059
 30
0.0
 11
-189.22572000000031
 21
-100.24829600000059
 31
0.0
  0
LINE
  5
2EA7
  8
DETAIL
  6
CONTINUOUS
 62
     5
 10
-179.0407969999994
 20
-5.8090420000007681
 30
0.0
 11
-180.671628
 21
-4.7499670000006491
 31
0.0
  0
LINE
  5
2EA8
  8
DETAIL
  6
CONTINUOUS
 62
     5
 10
-119.131832
 20
-1.7848150000008891
 30
0.0
 11
-120.7015650000003
 21
5.6001999999998571
 31
0.0
  0
LINE
  5
2EA9
  8
DETAIL
  6
CONTINUOUS
 62
     5
 10
-112.0417010000001
 20
-0.2777610000002824
 30
0.0
 11
-113.6114349999998
 21
7.107252999999214
 31
0.0
  0
LINE
  5
2EAA
  8
DETAIL
  6
CONTINUOUS
 62
     5
 10
-111.5795600000001
 20
0.4338739999993777
 30
0.0
 11
-112.8997989999998
 21
6.6451119999992443
 31
0.0
  0
LINE
  5
2EAB
  8
DETAIL
  6
CONTINUOUS
 62
     5
 10
-130.46143500000011
 20
-53.978391000000542
 30
0.0
 11
-96.277917999999772
 21
3.207785999999941
 31
0.0
  0
LINE
  5
2EAC
  8
DETAIL
  6
CONTINUOUS
 62
     5
 10
-112.0417010000001
 20
-0.2777610000002824
 30
0.0
 11
-111.5795600000001
 21
0.4338739999993777
 31
0.0
  0
LINE
  5
2EAD
  8
DETAIL
  6
CONTINUOUS
 62
     5
 10
-212.0174610000004
 20
-64.780996000000414
 30
0.0
 11
-211.25746100000021
 21
-64.020996000000196
 31
0.0
  0
LINE
  5
2EBB
  8
DETAIL
  6
CONTINUOUS
 62
     5
 10
51.0
 20
-84.200000000000699
 30
0.0
 11
50.0
 21
-84.200000000000699
 31
0.0
  0
LINE
  5
2EBC
  8
DETAIL
  6
CONTINUOUS
 62
     5
 10
33.991858999999749
 20
-84.200000000000699
 30
0.0
 11
50.0
 21
-84.200000000000699
 31
0.0
  0
LINE
  5
2EBD
  8
DETAIL
  6
CONTINUOUS
 62
     5
 10
33.966846999999689
 20
-83.0
 30
0.0
 11
49.800000000000182
 21
-83.0
 31
0.0
  0
LINE
  5
2EBE
  8
DETAIL
  6
CONTINUOUS
 62
     5
 10
-133.9210080000002
 20
-80.700000000000728
 30
0.0
 11
-159.5
 21
-80.700000000000728
 31
0.0
  0
LINE
  5
2EBF
  8
DETAIL
  6
CONTINUOUS
 62
     5
 10
-139.27434199999971
 20
-77.5
 30
0.0
 11
-159.5
 21
-77.5
 31
0.0
  0
LINE
  5
2EC0
  8
DETAIL
  6
CONTINUOUS
 62
     5
 10
-156.64706899999959
 20
-7.7398020000000542
 30
0.0
 11
-155.01623699999979
 21
-8.7988760000007442
 31
0.0
  0
LINE
  5
2EC2
  8
DETAIL
  6
CONTINUOUS
 62
     5
 10
4.370270000000346
 20
132.37417499999981
 30
0.0
 11
3.397998000000368
 21
130.69015099999979
 31
0.0
  0
LINE
  5
2EC3
  8
DETAIL
  6
CONTINUOUS
 62
     5
 10
7.8446930000000039
 20
133.3051439999999
 30
0.0
 11
9.5287170000001424
 21
132.3328719999999
 31
0.0
  0
LINE
  5
2EC4
  8
DETAIL
  6
CONTINUOUS
 62
     5
 10
-125.010972
 20
-57.23645100000067
 30
0.0
 11
-90.827454999999645
 21
-0.0502740000001722
 31
0.0
  0
LINE
  5
2EC5
  8
DETAIL
  6
CONTINUOUS
 62
     5
 10
-147.60000000000031
 20
-31.751471999999922
 30
0.0
 11
-146.17500000000021
 21
-30.326472000000649
 31
0.0
  0
LINE
  5
2EC9
  8
DETAIL
  6
CONTINUOUS
 62
     5
 10
-212.0174610000004
 20
-64.780996000000414
 30
0.0
 11
-212.84246100000021
 21
-64.780996000000414
 31
0.0
  0
LINE
  5
2ECA
  8
DETAIL
  6
CONTINUOUS
 62
     5
 10
-219.19246099999961
 20
-64.780996000000414
 30
0.0
 11
-220.0174610000004
 21
-64.780996000000414
 31
0.0
  0
LINE
  5
2ECB
  8
DETAIL
  6
CONTINUOUS
 62
     5
 10
-211.25746100000021
 20
-64.020996000000196
 30
0.0
 11
-212.84246100000021
 21
-64.020996000000196
 31
0.0
  0
LINE
  5
2ECC
  8
DETAIL
  6
CONTINUOUS
 62
     5
 10
-219.19246099999961
 20
-64.020996000000196
 30
0.0
 11
-220.7774609999997
 21
-64.020996000000196
 31
0.0
  0
LINE
  5
2ECD
  8
DETAIL
  6
CONTINUOUS
 62
     5
 10
-187.77060700000041
 20
-6.2589020000004894
 30
0.0
 11
-188.9241529999999
 21
-5.8429670000004972
 31
0.0
  0
LINE
  5
2ECE
  8
DETAIL
  6
CONTINUOUS
 62
     5
 10
-188.9241529999999
 20
-5.8429670000004972
 30
0.0
 11
-190.93218100000001
 21
-4.8050350000003164
 31
0.0
  0
LINE
  5
2ECF
  8
DETAIL
  6
CONTINUOUS
 62
     5
 10
-190.93218100000001
 20
-4.8050350000003164
 30
0.0
 11
-192.57184099999989
 21
-3.592696000000613
 31
0.0
  0
LINE
  5
2ED0
  8
DETAIL
  6
CONTINUOUS
 62
     5
 10
-192.57184099999989
 20
-3.592696000000613
 30
0.0
 11
-193.81228600000031
 21
-2.224325000000134
 31
0.0
  0
LINE
  5
2ED1
  8
DETAIL
  6
CONTINUOUS
 62
     5
 10
-193.81228600000031
 20
-2.224325000000134
 30
0.0
 11
-194.62588400000001
 21
-0.7100700000000871
 31
0.0
  0
LINE
  5
2ED2
  8
DETAIL
  6
CONTINUOUS
 62
     5
 10
-84.703531000000112
 20
-32.08921600000032
 30
0.0
 11
-105.2617529999998
 21
-24.19765300000018
 31
0.0
  0
LINE
  5
2ED3
  8
DETAIL
  6
CONTINUOUS
 62
     5
 10
-111.27903599999991
 20
-21.88783500000045
 30
0.0
 11
-115.2913520000002
 21
-20.347651000000042
 31
0.0
  0
LINE
  5
2ED4
  8
DETAIL
  6
CONTINUOUS
 62
     5
 10
-107.9720370000004
 20
-16.355502000000339
 30
0.0
 11
-113.6457579999996
 21
-14.17756499999996
 31
0.0
  0
LINE
  5
2ED5
  8
DETAIL
  6
CONTINUOUS
 62
     5
 10
-113.6114349999998
 20
7.107252999999214
 30
0.0
 11
-112.8997989999998
 21
6.6451119999992443
 31
0.0
  0
LINE
  5
2ED6
  8
DETAIL
  6
CONTINUOUS
 62
     5
 10
-209.73999999999981
 20
-143.30151500000011
 30
0.0
 11
-172.61373600000019
 21
-106.1752510000006
 31
0.0
  0
LINE
  5
2ED7
  8
DETAIL
  6
CONTINUOUS
 62
     5
 10
-170.9873909999996
 20
-107.8015970000006
 30
0.0
 11
-208.11365565217409
 21
-144.9278603478254
 31
0.0
  0
LINE
  5
2ED9
  8
DETAIL
  6
CONTINUOUS
 62
     5
 10
-72.00230399999964
 20
8.2950649999993402
 30
0.0
 11
-85.677284999999699
 21
-2.7787160000007121
 31
0.0
  0
LINE
  5
2EDA
  8
DETAIL
  6
CONTINUOUS
 62
     5
 10
-155.62921300000011
 20
-2.4373050000003782
 30
0.0
 11
-154.85037399999959
 21
-2.0720799999999122
 31
0.0
  0
LINE
  5
2EDB
  8
DETAIL
  6
CONTINUOUS
 62
     5
 10
-154.85037399999959
 20
-2.0720799999999122
 30
0.0
 11
-152.13480200000049
 21
-0.5137720000002446
 31
0.0
  0
LINE
  5
2EDC
  8
DETAIL
  6
CONTINUOUS
 62
     5
 10
-152.13480200000049
 20
-0.5137720000002446
 30
0.0
 11
-149.71161099999969
 21
1.19736499999999
 31
0.0
  0
LINE
  5
2EDD
  8
DETAIL
  6
CONTINUOUS
 62
     5
 10
-149.71161099999969
 20
1.19736499999999
 30
0.0
 11
-147.64265299999991
 21
3.0304589999996061
 31
0.0
  0
LINE
  5
2EDE
  8
DETAIL
  6
CONTINUOUS
 62
     5
 10
-147.64265299999991
 20
3.0304589999996061
 30
0.0
 11
-145.9963680000001
 21
4.928421999999955
 31
0.0
  0
LINE
  5
2EDF
  8
DETAIL
  6
CONTINUOUS
 62
     5
 10
-145.9963680000001
 20
4.928421999999955
 30
0.0
 11
-144.79596899999979
 21
6.855835999999722
 31
0.0
  0
LINE
  5
2EE0
  8
DETAIL
  6
CONTINUOUS
 62
     5
 10
-144.79596899999979
 20
6.855835999999722
 30
0.0
 11
-144.0501720000002
 21
8.7825809999994817
 31
0.0
  0
LINE
  5
2EE1
  8
DETAIL
  6
CONTINUOUS
 62
     5
 10
-144.0501720000002
 20
8.7825809999994817
 30
0.0
 11
-143.76329600000011
 21
10.67133699999976
 31
0.0
  0
LINE
  5
2EE3
  8
DETAIL
  6
CONTINUOUS
 62
     5
 10
-194.05732599999999
 20
-1.768260000000734
 30
0.0
 11
-158.65616981663101
 21
9.7319095720613351
 31
0.0
  0
LINE
  5
2EE4
  8
DETAIL
  6
CONTINUOUS
 62
     5
 10
-186.51080199999981
 20
-5.9911220000003587
 30
0.0
 11
-157.2718569999997
 21
3.519184999999196
 31
0.0
  0
LINE
  5
2EE5
  8
DETAIL
  6
CONTINUOUS
 62
     5
 10
-138.39999999999961
 20
-39.0
 30
0.0
 11
-147.60000000000031
 21
-39.0
 31
0.0
  0
LINE
  5
2EE6
  8
DETAIL
  6
CONTINUOUS
 62
     5
 10
-61.701473000000071
 20
-0.6060640000005151
 30
0.0
 11
-69.437681000000339
 21
8.9473579999994381
 31
0.0
  0
LINE
  5
2EE7
  8
DETAIL
  6
CONTINUOUS
 62
     5
 10
-167.70494599999981
 20
-6.4663580000005823
 30
0.0
 11
-161.03889199999961
 21
-4.6901379999999291
 31
0.0
  0
LINE
  5
2EE8
  8
DETAIL
  6
CONTINUOUS
 62
     5
 10
-161.03889199999961
 20
-4.6901379999999291
 30
0.0
 11
-157.833654
 21
-3.4710470000009082
 31
0.0
  0
LINE
  5
2EE9
  8
DETAIL
  6
CONTINUOUS
 62
     5
 10
-157.833654
 20
-3.4710470000009082
 30
0.0
 11
-156.50579500000001
 21
-2.8483660000001669
 31
0.0
  0
LINE
  5
2EEB
  8
DETAIL
  6
CONTINUOUS
 62
     5
 10
-114.61740999999979
 20
-20.312331000000089
 30
0.0
 11
-157.55847999999969
 21
-22.5627770000001
 31
0.0
  0
LINE
  5
2EED
  8
DETAIL
  6
CONTINUOUS
 62
     5
 10
-138.39999999999961
 20
-31.751471999999922
 30
0.0
 11
-147.60000000000031
 21
-31.751471999999922
 31
0.0
  0
LINE
  5
2EEE
  8
DETAIL
  6
CONTINUOUS
 62
     5
 10
-139.82499999999979
 20
-30.326472000000649
 30
0.0
 11
-146.17500000000021
 21
-30.326472000000649
 31
0.0
  0
LINE
  5
2EEF
  8
DETAIL
  6
CONTINUOUS
 62
     5
 10
-178.90667500000001
 20
-10.276406000000859
 30
0.0
 11
-177.36833999999999
 21
-10.346054000000549
 31
0.0
  0
LINE
  5
2EF0
  8
DETAIL
  6
CONTINUOUS
 62
     5
 10
-177.36833999999999
 20
-10.346054000000549
 30
0.0
 11
-173.99566399999989
 21
-10.25217200000043
 31
0.0
  0
LINE
  5
2EF1
  8
DETAIL
  6
CONTINUOUS
 62
     5
 10
-173.99566399999989
 20
-10.25217200000043
 30
0.0
 11
-170.5684700000001
 21
-9.920744000000921
 31
0.0
  0
LINE
  5
2EF2
  8
DETAIL
  6
CONTINUOUS
 62
     5
 10
-170.5684700000001
 20
-9.920744000000921
 30
0.0
 11
-167.30937400000039
 21
-9.3925440000002691
 31
0.0
  0
LINE
  5
2EF4
  8
DETAIL
  6
CONTINUOUS
 62
     5
 10
-172.71949699999999
 20
-7.7161140000007418
 30
0.0
 11
-172.75478000000001
 21
-7.7193740000002409
 31
0.0
  0
LINE
  5
2EF5
  8
DETAIL
  6
CONTINUOUS
 62
     5
 10
-114.9497430000001
 20
-13.97103400000014
 30
0.0
 11
-157.89081300000001
 21
-16.221480000000149
 31
0.0
  0
LINE
  5
2EF8
  8
DETAIL
  6
CONTINUOUS
 62
     5
 10
-166.643677
 20
-9.2510460000003114
 30
0.0
 11
-161.68111599999969
 21
-9.2510460000003114
 31
0.0
  0
LINE
  5
2EF9
  8
DETAIL
  6
CONTINUOUS
 62
     5
 10
-197.92822799999971
 20
0.2689539999992121
 30
0.0
 11
-197.3200299999998
 21
0.2689539999992121
 31
0.0
  0
LINE
  5
2EFA
  8
DETAIL
  6
CONTINUOUS
 62
     5
 10
-194.8886080000002
 20
0.2689539999992121
 30
0.0
 11
-187.7940170000002
 21
0.2689539999992121
 31
0.0
  0
LINE
  5
2EFB
  8
DETAIL
  6
CONTINUOUS
 62
     5
 10
-167.2645229999998
 20
0.2689539999992121
 30
0.0
 11
-161.68111599999969
 21
0.2689539999992121
 31
0.0
  0
LINE
  5
2EFE
  8
DETAIL
  6
CONTINUOUS
 62
     5
 10
-83.351312509075058
 20
5.408530123042854
 30
0.0
 11
12.93896399999994
 21
29.899238999999401
 31
0.0
  0
LINE
  5
2EFF
  8
DETAIL
  6
CONTINUOUS
 62
     5
 10
-119.131832
 20
-1.7848150000008891
 30
0.0
 11
-112.0417010000001
 21
-0.2777610000002824
 31
0.0
  0
LINE
  5
2F00
  8
DETAIL
  6
CONTINUOUS
 62
     5
 10
-7.7477520000002169
 20
22.504005999999212
 30
0.0
 11
-58.810908000000381
 21
11.65019799999936
 31
0.0
  0
LINE
  5
2F02
  8
DETAIL
  6
CONTINUOUS
 62
     5
 10
-119.2565789999999
 20
-1.197926000000729
 30
0.0
 11
-155.01623699999979
 21
-8.7988760000007442
 31
0.0
  0
LINE
  5
2F03
  8
DETAIL
  6
CONTINUOUS
 62
     5
 10
-162.2728569999999
 20
-8.9356000000007043
 30
0.0
 11
-156.64706899999959
 21
-7.7398020000000542
 31
0.0
  0
LINE
  5
2F04
  8
DETAIL
  6
CONTINUOUS
 62
     5
 10
-167.30937400000039
 20
-9.3925440000002691
 30
0.0
 11
-163.1801619999996
 21
-8.5148530000005849
 31
0.0
  0
LINE
  5
2F05
  8
DETAIL
  6
CONTINUOUS
 62
     5
 10
-172.666526
 20
-8.1345750000000407
 30
0.0
 11
-178.29231499999969
 21
-9.3303730000006908
 31
0.0
  0
LINE
  5
2F06
  8
DETAIL
  6
CONTINUOUS
 62
     5
 10
-163.67907000000011
 20
-6.167674000000261
 30
0.0
 11
-167.7663009999996
 21
-7.0364420000005321
 31
0.0
  0
LINE
  5
2F07
  8
DETAIL
  6
CONTINUOUS
 62
     5
 10
-171.8131649999994
 20
-7.3395870000003924
 30
0.0
 11
-167.70494599999981
 21
-6.4663580000005823
 31
0.0
  0
LINE
  5
2F08
  8
DETAIL
  6
CONTINUOUS
 62
     5
 10
-163.0213389999999
 20
-5.4142690000007851
 30
0.0
 11
-157.3955509999995
 21
-4.2184710000001351
 31
0.0
  0
LINE
  5
2F09
  8
DETAIL
  6
CONTINUOUS
 62
     5
 10
-60.254214999999931
 20
17.835275999999791
 30
0.0
 11
-112.8997989999998
 21
6.6451119999992443
 31
0.0
  0
LINE
  5
2F0A
  8
DETAIL
  6
CONTINUOUS
 62
     5
 10
-120.5768180000004
 20
5.0133109999997032
 30
0.0
 11
-156.3364760000004
 21
-2.5876390000003071
 31
0.0
  0
LINE
  5
2F0B
  8
DETAIL
  6
CONTINUOUS
 62
     5
 10
-120.7015650000003
 20
5.6001999999998571
 30
0.0
 11
-113.6114349999998
 21
7.107252999999214
 31
0.0
  0
LINE
  5
2F0D
  8
DETAIL
  6
CONTINUOUS
 62
     5
 10
-167.7662989999998
 20
-7.0364420000005321
 30
0.0
 11
-171.01990800000021
 21
-7.5590760000004593
 31
0.0
  0
LINE
  5
2F0E
  8
DETAIL
  6
CONTINUOUS
 62
     5
 10
-171.01990800000021
 20
-7.5590760000004593
 30
0.0
 11
-171.84674699999951
 21
-7.6354740000006132
 31
0.0
  0
LINE
  5
2F11
  8
DETAIL
  6
CONTINUOUS
 62
     5
 10
-85.133394000000337
 20
11.506077999999439
 30
0.0
 11
11.3737229999997
 21
36.053304999999462
 31
0.0
  0
LINE
  5
2F13
  8
DETAIL
  6
CONTINUOUS
 62
     5
 10
-168.2040869999999
 20
-4.119228999999903
 30
0.0
 11
-172.31207400000039
 21
-4.992408000000065
 31
0.0
  0
LINE
  5
2F14
  8
DETAIL
  6
CONTINUOUS
 62
     5
 10
-173.41500799999989
 20
-4.6132430000006881
 30
0.0
 11
-179.0407969999994
 21
-5.8090420000007681
 31
0.0
  0
LINE
  5
2F16
  8
DETAIL
  6
CONTINUOUS
 62
     5
 10
-173.02077300000019
 20
17.683917999999721
 30
0.0
 11
-169.79462299999969
 21
18.321558999999969
 31
0.0
  0
LINE
  5
2F17
  8
DETAIL
  6
CONTINUOUS
 62
     5
 10
-169.79462299999969
 20
18.321558999999969
 30
0.0
 11
-166.42148100000031
 21
18.756948999999612
 31
0.0
  0
LINE
  5
2F18
  8
DETAIL
  6
CONTINUOUS
 62
     5
 10
-166.42148100000031
 20
18.756948999999612
 30
0.0
 11
-163.12576999999959
 21
18.94610800000007
 31
0.0
  0
LINE
  5
2F19
  8
DETAIL
  6
CONTINUOUS
 62
     5
 10
-163.12576999999959
 20
18.94610800000007
 30
0.0
 11
-159.98530899999969
 21
18.888181999999691
 31
0.0
  0
LINE
  5
2F1A
  8
DETAIL
  6
CONTINUOUS
 62
     5
 10
-159.98530899999969
 20
18.888181999999691
 30
0.0
 11
-157.06068899999991
 21
18.590457999999671
 31
0.0
  0
LINE
  5
2F1B
  8
DETAIL
  6
CONTINUOUS
 62
     5
 10
-152.04136600000029
 20
17.322220999999441
 30
0.0
 11
-150.0589209999998
 21
16.39858399999957
 31
0.0
  0
LINE
  5
2F1C
  8
DETAIL
  6
CONTINUOUS
 62
     5
 10
-150.0589209999998
 20
16.39858399999957
 30
0.0
 11
-148.45638799999961
 21
15.307570999999371
 31
0.0
  0
LINE
  5
2F1D
  8
DETAIL
  6
CONTINUOUS
 62
     5
 10
-148.45638799999961
 20
15.307570999999371
 30
0.0
 11
-147.26181499999981
 21
14.07492399999955
 31
0.0
  0
LINE
  5
2F1E
  8
DETAIL
  6
CONTINUOUS
 62
     5
 10
-147.26181499999981
 20
14.07492399999955
 30
0.0
 11
-146.49071499999991
 21
12.70880599999964
 31
0.0
  0
LINE
  5
2F1F
  8
DETAIL
  6
CONTINUOUS
 62
     5
 10
16.020566000000141
 20
83.582087999999189
 30
0.0
 11
3.397998000000368
 21
130.69015099999979
 31
0.0
  0
LINE
  5
2F20
  8
DETAIL
  6
CONTINUOUS
 62
     5
 10
2.881679000000076
 20
137.9296699999995
 30
0.0
 11
4.370270000000346
 21
132.37417499999981
 31
0.0
  0
LINE
  5
2F21
  8
DETAIL
  6
CONTINUOUS
 62
     5
 10
6.356101999999737
 20
138.86063899999951
 30
0.0
 11
7.8446930000000039
 21
133.3051439999999
 31
0.0
  0
LINE
  5
2F22
  8
DETAIL
  6
CONTINUOUS
 62
     5
 10
1.9990580000003311
 20
141.83702199999971
 30
0.0
 11
2.719790000000101
 21
138.9215679999997
 31
0.0
  0
LINE
  5
2F23
  8
DETAIL
  6
CONTINUOUS
 62
     5
 10
5.9773800000002622
 20
139.89796999999999
 30
0.0
 11
5.2831880000003331
 21
142.71700199999941
 31
0.0
  0
LINE
  5
2F24
  8
DETAIL
  6
CONTINUOUS
 62
     5
 10
22.154195000000051
 20
85.225588999999658
 30
0.0
 11
9.5316270000002952
 21
132.3336519999992
 31
0.0
  0
LINE
  5
2F27
  8
DETAIL
  6
CONTINUOUS
 62
     5
 10
10.23536599999988
 20
136.82629699999961
 30
0.0
 11
6.818471999999927
 21
150.71766399999979
 31
0.0
  0
LINE
  5
2F2D
  8
DETAIL
  6
CONTINUOUS
 62
     5
 10
11.39942900000004
 20
132.0878749999992
 30
0.0
 11
10.23536599999988
 21
136.82629699999961
 31
0.0
  0
LINE
  5
2F30
  8
DETAIL
  6
CONTINUOUS
 62
     5
 10
18.684324999999689
 20
115.7007664999996
 30
0.0
 11
14.3346709999996
 21
134.39022399999971
 31
0.0
  0
LINE
  5
2F41
  8
DETAIL
  6
CONTINUOUS
 62
     5
 10
50.0
 20
-110.0
 30
0.0
 11
50.0
 21
-84.200000000000699
 31
0.0
  0
LINE
  5
2F49
  8
DETAIL
  6
CONTINUOUS
 62
     5
 10
-173.5616650000002
 20
20.022172999999391
 30
0.0
 11
-176.7822050000004
 21
19.170661000000109
 31
0.0
  0
LINE
  5
2F4A
  8
DETAIL
  6
CONTINUOUS
 62
     5
 10
-176.7822050000004
 20
19.170661000000109
 30
0.0
 11
-180.06128700000039
 21
18.07236599999942
 31
0.0
  0
LINE
  5
2F4B
  8
DETAIL
  6
CONTINUOUS
 62
     5
 10
-180.06128700000039
 20
18.07236599999942
 30
0.0
 11
-183.1910550000002
 21
16.778102999999639
 31
0.0
  0
LINE
  5
2F4C
  8
DETAIL
  6
CONTINUOUS
 62
     5
 10
-183.1910550000002
 20
16.778102999999639
 30
0.0
 11
-186.11098399999989
 21
15.311002999999801
 31
0.0
  0
LINE
  5
2F4D
  8
DETAIL
  6
CONTINUOUS
 62
     5
 10
-186.11098399999989
 20
15.311002999999801
 30
0.0
 11
-188.77496499999961
 21
13.6927799999994
 31
0.0
  0
LINE
  5
2F4E
  8
DETAIL
  6
CONTINUOUS
 62
     5
 10
-188.77496499999961
 20
13.6927799999994
 30
0.0
 11
-191.15111700000031
 21
11.9380829999991
 31
0.0
  0
LINE
  5
2F4F
  8
DETAIL
  6
CONTINUOUS
 62
     5
 10
-191.15111700000031
 20
11.9380829999991
 30
0.0
 11
-193.20222199999989
 21
10.06512999999995
 31
0.0
  0
LINE
  5
2F50
  8
DETAIL
  6
CONTINUOUS
 62
     5
 10
-193.20222199999989
 20
10.06512999999995
 30
0.0
 11
-194.8795740000005
 21
8.1077009999999063
 31
0.0
  0
LINE
  5
2F51
  8
DETAIL
  6
CONTINUOUS
 62
     5
 10
-194.8795740000005
 20
8.1077009999999063
 30
0.0
 11
-196.14163499999989
 21
6.1089769999998671
 31
0.0
  0
LINE
  5
2F52
  8
DETAIL
  6
CONTINUOUS
 62
     5
 10
-196.14163499999989
 20
6.1089769999998671
 30
0.0
 11
-196.96984100000009
 21
4.1104169999998703
 31
0.0
  0
LINE
  5
2F53
  8
DETAIL
  6
CONTINUOUS
 62
     5
 10
-196.96984100000009
 20
4.1104169999998703
 30
0.0
 11
-197.36200699999969
 21
2.131438999999772
 31
0.0
  0
LINE
  5
2F54
  8
DETAIL
  6
CONTINUOUS
 62
     5
 10
-197.36200699999969
 20
2.131438999999772
 30
0.0
 11
-197.31868300000039
 21
0.2091939999991155
 31
0.0
  0
LINE
  5
2F58
  8
DETAIL
  6
CONTINUOUS
 62
     5
 10
30.98945800000001
 20
84.121493999999984
 30
0.0
 11
11.63958100000036
 21
150.8800119999996
 31
0.0
  0
LINE
  5
2F63
  8
DETAIL
  6
CONTINUOUS
 62
     5
 10
3.397998000000368
 20
130.69015099999979
 30
0.0
 11
9.5316270000002952
 21
132.3336519999992
 31
0.0
  0
LINE
  5
2F64
  8
DETAIL
  6
CONTINUOUS
 62
     5
 10
4.370270000000346
 20
132.37417499999981
 30
0.0
 11
7.8476030000001611
 21
133.30592299999981
 31
0.0
  0
LINE
  5
2F65
  8
DETAIL
  6
CONTINUOUS
 62
     5
 10
2.881679000000076
 20
137.9296699999995
 30
0.0
 11
6.3590119999998924
 21
138.86141899999981
 31
0.0
  0
ARC
  5
2F66
  8
DETAIL
  6
CONTINUOUS
 62
     5
 10
-203.5174610000004
 20
-96.491046000000082
 30
0.0
 40
16.5
 50
180.0
 51
224.99999999998161
  0
ARC
  5
2F67
  8
DETAIL
  6
CONTINUOUS
 62
     5
 10
-203.5174610000004
 20
-96.491046000000082
 30
0.0
 40
15.675000000000001
 50
180.0
 51
224.99999999998161
  0
ARC
  5
2F68
  8
DETAIL
  6
CONTINUOUS
 62
     5
 10
-203.5174610000004
 20
-96.491046000000082
 30
0.0
 40
9.3249999999999993
 50
180.0
 51
224.99999999998161
  0
ARC
  5
2F69
  8
DETAIL
  6
CONTINUOUS
 62
     5
 10
-203.5174610000004
 20
-96.491046000000082
 30
0.0
 40
8.5
 50
180.0
 51
224.99999999998161
  0
ARC
  5
2F6A
  8
DETAIL
  6
CONTINUOUS
 62
     5
 10
-161.68022099999959
 20
-24.849116000000318
 30
0.0
 40
25.118069999999999
 50
78.499953999919342
 51
90.002040999992175
  0
ARC
  5
2F6D
  8
DETAIL
  6
CONTINUOUS
 62
     5
 10
-187.38127900000021
 20
-7.694532000000434
 30
0.0
 40
22.760000000000002
 50
202.66225799998409
 51
211.19299099998511
  0
ARC
  5
2F6E
  8
DETAIL
  6
CONTINUOUS
 62
     5
 10
-198.01746100000031
 20
-22.4910460000001
 30
0.0
 40
22.760000000000002
 50
120.5743270000596
 51
180.0
  0
ARC
  5
2F6F
  8
DETAIL
  6
CONTINUOUS
 62
     5
 10
-161.4646709999997
 20
-7.9653630000002531
 30
0.0
 40
21.639671
 50
359.99803299999451
 51
6.2719280000207203
  0
ARC
  5
2F72
  8
DETAIL
  6
CONTINUOUS
 62
     5
 10
-187.38127900000021
 20
-7.694532000000434
 30
0.0
 40
13.24
 50
138.92269100004
 51
162.36287899995779
  0
ARC
  5
2F74
  8
DETAIL
  6
CONTINUOUS
 62
     5
 10
-198.01746100000031
 20
-22.4910460000001
 30
0.0
 40
13.24
 50
153.09866300001841
 51
176.22155399999161
  0
ARC
  5
2F78
  8
DETAIL
  6
CONTINUOUS
 62
     5
 10
-114.78357700000009
 20
-17.141682000000401
 30
0.0
 40
3.174999999999998
 50
273.00000000000608
 51
93.000000000006082
  0
ARC
  5
2F7A
  8
DETAIL
  6
CONTINUOUS
 62
     5
 10
-155.15557900000019
 20
-2.880677000000103
 30
0.0
 40
13.089365000000001
 50
74.857194000002593
 51
105.51185699999139
  0
ARC
  5
2F7B
  8
DETAIL
  6
CONTINUOUS
 62
     5
 10
49.800000000000182
 20
-84.200000000000699
 30
0.0
 40
1.1999999999999991
 50
0.0
 51
90.0
  0
LINE
  5
340A
  8
DETAIL
  6
CONTINUOUS
 62
     5
 10
50.0
 20
-84.200000000000699
 30
0.0
 11
49.976620000000374
 21
-83.980950000000121
 31
0.0
  0
LINE
  5
34B2
  8
DETAIL
  6
CONTINUOUS
 62
     5
 10
-181.8988959999997
 20
-4.491046000000094
 30
0.0
 11
-169.95335200000039
 21
-4.491046000000094
 31
0.0
  0
LINE
  5
34B3
  8
DETAIL
  6
CONTINUOUS
 62
     5
 10
-204.08194
 20
-178.6580600000006
 30
0.0
 11
-215.39564799999971
 21
-167.3443520000001
 31
0.0
  0
LINE
  5
34B4
  8
DETAIL
  6
CONTINUOUS
 62
     5
 10
-202.10324700000001
 20
-172.15147200000041
 30
0.0
 11
-209.88142200000041
 21
-164.37329700000009
 31
0.0
  0
LINE
  5
34B7
  8
DETAIL
  6
CONTINUOUS
 62
     5
 10
-220.0174610000004
 20
-76.491046000000097
 30
0.0
 11
-220.81746099999961
 21
-74.775441000000654
 31
0.0
  0
LINE
  5
34B8
  8
DETAIL
  6
CONTINUOUS
 62
     5
 10
-220.81746099999961
 20
-74.775441000000654
 30
0.0
 11
-220.81746099999961
 21
-66.491046000000111
 31
0.0
  0
LINE
  5
34BB
  8
DETAIL
  6
CONTINUOUS
 62
     5
 10
-211.21746100000021
 20
-74.775441000000654
 30
0.0
 11
-211.21746100000021
 21
-66.491046000000111
 31
0.0
  0
LINE
  5
34BE
  8
DETAIL
  6
CONTINUOUS
 62
     5
 10
-172.31202800000031
 20
-4.9926220000006651
 30
0.0
 11
-171.81364099999971
 21
-7.3373490000003532
 31
0.0
  0
LINE
  5
34BF
  8
DETAIL
  6
CONTINUOUS
 62
     5
 10
-209.88142200000041
 20
-164.37329700000009
 30
0.0
 11
-208.467208
 21
-158.7164430000002
 31
0.0
  0
LINE
  5
34C0
  8
DETAIL
  6
CONTINUOUS
 62
     5
 10
-212.0174610000004
 20
-76.491046000000097
 30
0.0
 11
-211.21746100000021
 21
-74.775441000000654
 31
0.0
  0
LINE
  5
34C2
  8
DETAIL
  6
CONTINUOUS
 62
     5
 10
-163.67907000000011
 20
-6.167674000000261
 30
0.0
 11
-163.1801619999996
 21
-8.5148530000005849
 31
0.0
  0
LINE
  5
34C3
  8
DETAIL
  6
CONTINUOUS
 62
     5
 10
-202.10324700000001
 20
-172.15147200000041
 30
0.0
 11
-196.44639300000011
 21
-170.73725800000011
 31
0.0
  0
LINE
  5
34C4
  8
DETAIL
  6
CONTINUOUS
 62
     5
 10
-215.39564799999971
 20
-167.3443520000001
 30
0.0
 11
-210.44590100000011
 21
-156.7377500000002
 31
0.0
  0
LINE
  5
34C5
  8
DETAIL
  6
CONTINUOUS
 62
     5
 10
-220.0174610000004
 20
-76.491046000000097
 30
0.0
 11
-219.19246099999961
 21
-76.491046000000097
 31
0.0
  0
LINE
  5
34C6
  8
DETAIL
  6
CONTINUOUS
 62
     5
 10
-212.84246100000021
 20
-76.491046000000097
 30
0.0
 11
-212.0174610000004
 21
-76.491046000000097
 31
0.0
  0
LINE
  5
34C7
  8
DETAIL
  6
CONTINUOUS
 62
     5
 10
-211.21746100000021
 20
-74.775441000000654
 30
0.0
 11
-212.84246100000021
 21
-74.775441000000654
 31
0.0
  0
LINE
  5
34C8
  8
DETAIL
  6
CONTINUOUS
 62
     5
 10
-219.19246099999961
 20
-74.775441000000654
 30
0.0
 11
-220.81746099999961
 21
-74.775441000000654
 31
0.0
  0
LINE
  5
34C9
  8
DETAIL
  6
CONTINUOUS
 62
     5
 10
-211.21746100000021
 20
-66.491046000000111
 30
0.0
 11
-212.84246100000021
 21
-66.491046000000111
 31
0.0
  0
LINE
  5
34CA
  8
DETAIL
  6
CONTINUOUS
 62
     5
 10
-219.19246099999961
 20
-66.491046000000111
 30
0.0
 11
-220.81746099999961
 21
-66.491046000000111
 31
0.0
  0
LINE
  5
34CF
  8
DETAIL
  6
CONTINUOUS
 62
     5
 10
-204.08194
 20
-178.6580600000006
 30
0.0
 11
-193.47533799999999
 21
-173.70831300000009
 31
0.0
  0
LINE
  5
34D0
  8
DETAIL
  6
CONTINUOUS
 62
     5
 10
6.0006899999998451
 20
139.80068299999951
 30
0.0
 11
2.719452999999703
 21
138.9214779999993
 31
0.0
  0
CIRCLE
  5
34D1
  8
DETAIL
  6
CONTINUOUS
 62
     5
 10
-230.0
 20
-133.0
 30
0.0
 40
5.0
  0
CIRCLE
  5
34D2
  8
DETAIL
  6
CONTINUOUS
 62
     5
 10
-230.0
 20
-150.0
 30
0.0
 40
5.0
  0
ARC
  5
34D3
  8
DETAIL
  6
CONTINUOUS
 62
     5
 10
-162.69104799999971
 20
-8.4110850000006376
 30
0.0
 40
0.5
 50
191.97824299999169
 51
319.51766999998767
  0
ARC
  5
34D4
  8
DETAIL
  6
CONTINUOUS
 62
     5
 10
-172.801187
 20
-5.0961760000009191
 30
0.0
 40
0.5
 50
11.978009999982181
 51
192.0217570000132
  0
ARC
  5
34D5
  8
DETAIL
  6
CONTINUOUS
 62
     5
 10
-172.30219899999969
 20
-7.443730000000869
 30
0.0
 40
0.5
 50
191.97818599998749
 51
12.021793999983419
  0
ARC
  5
34D7
  8
DETAIL
  6
CONTINUOUS
 62
     5
 10
2.8488630000001631
 20
138.4385149999998
 30
0.0
 40
0.5
 50
104.9999999999944
 51
284.99999999999437
  0
LINE
  5
3543
  8
DETAIL
  6
CONTINUOUS
 62
     5
 10
6.0023730000002571
 20
139.80113299999991
 30
0.0
 11
5.9773820000000324
 21
139.89796500000011
 31
0.0
  0
LINE
  5
35EE
  8
DETAIL
  6
CONTINUOUS
 62
     5
 10
-146.9700000000002
 20
-77.5
 30
0.0
 11
-146.9700000000002
 21
-72.899855000000585
 31
0.0
  0
LINE
  5
35EF
  8
DETAIL
  6
CONTINUOUS
 62
     5
 10
-146.9700000000002
 20
-60.643649000000543
 30
0.0
 11
-146.9700000000002
 21
-39.0
 31
0.0
  0
LINE
  5
35F0
  8
DETAIL
  6
CONTINUOUS
 62
     5
 10
-139.02999999999969
 20
-65.223703000000569
 30
0.0
 11
-139.02999999999969
 21
-39.0
 31
0.0
  0
LINE
  5
35F1
  8
DETAIL
  6
CONTINUOUS
 62
     5
 10
-203.6600879999996
 20
-147.96721400000021
 30
0.0
 11
-211.43826300000001
 21
-155.7453880000003
 31
0.0
  0
LINE
  5
35F2
  8
DETAIL
  6
CONTINUOUS
 62
     5
 10
-201.6188469999997
 20
-150.00845500000011
 30
0.0
 11
-209.39702099999971
 21
-157.78663000000051
 31
0.0
  0
LINE
  5
35F3
  8
DETAIL
  6
CONTINUOUS
 62
     5
 10
-198.14873600000001
 20
-153.47856500000029
 30
0.0
 11
-205.9269110000005
 21
-161.25674000000069
 31
0.0
  0
LINE
  5
35F4
  8
DETAIL
  6
CONTINUOUS
 62
     5
 10
-191.2085150000002
 20
-160.41878600000021
 30
0.0
 11
-198.9866899999997
 21
-168.1969610000005
 31
0.0
  0
LINE
  5
35F6
  8
DETAIL
  6
CONTINUOUS
 62
     5
 10
-209.73999999999981
 20
-143.30151500000011
 30
0.0
 11
-204.36719499999981
 21
-148.67432000000011
 31
0.0
  0
LINE
  5
35F9
  8
DETAIL
  6
CONTINUOUS
 62
     5
 10
-198.9181090000001
 20
-104.61961599999979
 30
0.0
 11
-189.37216699999951
 21
-114.1655580000006
 31
0.0
  0
LINE
  5
35FA
  8
DETAIL
  6
CONTINUOUS
 62
     5
 10
-198.9181090000001
 20
-100.3769750000001
 30
0.0
 11
-198.9181090000001
 21
-104.61961599999979
 31
0.0
  0
LINE
  5
35FB
  8
DETAIL
  6
CONTINUOUS
 62
     5
 10
-172.61373600000019
 20
-105.8924080000006
 30
0.0
 11
-188.523639
 21
-89.982506000000299
 31
0.0
  0
LINE
  5
35FC
  8
DETAIL
  6
CONTINUOUS
 62
     5
 10
-186.89729299999999
 20
-88.356160000000301
 30
0.0
 11
-170.9873909999996
 21
-104.266063
 31
0.0
  0
LINE
  5
35FD
  8
DETAIL
  6
CONTINUOUS
 62
     5
 10
-189.37216699999951
 20
-114.1655580000006
 30
0.0
 11
-185.12952599999969
 21
-114.1655580000006
 31
0.0
  0
LINE
  5
35FE
  8
DETAIL
  6
CONTINUOUS
 62
     5
 10
74.199999999999804
 20
-102.5
 30
0.0
 11
50.999999999999993
 21
-102.5
 31
0.0
  0
LINE
  5
35FF
  8
DETAIL
  6
CONTINUOUS
 62
     5
 10
-188.52363900444439
 20
-89.982505995555897
 30
0.0
 11
-198.9181090000001
 21
-100.3769750000001
 31
0.0
  0
LINE
  5
3600
  8
DETAIL
  6
CONTINUOUS
 62
     5
 10
-188.523639
 20
-89.982506000000299
 30
0.0
 11
-186.89729299999999
 21
-88.356160000000301
 31
0.0
  0
LINE
  5
3601
  8
DETAIL
  6
CONTINUOUS
 62
     5
 10
-186.40231899999981
 20
-92.103826000000481
 30
0.0
 11
-184.77597299999971
 21
-90.47748000000044
 31
0.0
  0
LINE
  5
3604
  8
DETAIL
  6
CONTINUOUS
 62
     5
 10
77.199999999999804
 20
-78.300000000000196
 30
0.0
 11
77.199999999999804
 21
-99.500000000000014
 31
0.0
  0
LINE
  5
3605
  8
DETAIL
  6
CONTINUOUS
 62
     5
 10
74.199999999999804
 20
-102.5
 30
0.0
 11
77.199999999999804
 21
-99.500000000000014
 31
0.0
  0
LINE
  5
3619
  8
DETAIL
  6
CONTINUOUS
 62
     5
 10
-198.42629199999999
 20
-124.91673900000021
 30
0.0
 11
-215.1847230000003
 21
-108.15830800000001
 31
0.0
  0
LINE
  5
3632
  8
DETAIL
  6
CONTINUOUS
 62
     5
 10
-156.01591900000039
 20
18.38359599999967
 30
0.0
 11
-180.2284479999997
 21
15.41067199999998
 31
0.0
  0
ARC
  5
3634
  8
DETAIL
  6
CONTINUOUS
 62
     5
 10
-203.5174610000004
 20
-96.491046000000082
 30
0.0
 40
16.5
 50
180.0
 51
224.99999999998161
  0
ARC
  5
3635
  8
DETAIL
  6
CONTINUOUS
 62
     5
 10
-203.5174610000004
 20
-96.491046000000082
 30
0.0
 40
15.675000000000001
 50
180.0
 51
224.99999999998161
  0
ARC
  5
3636
  8
DETAIL
  6
CONTINUOUS
 62
     5
 10
-203.5174610000004
 20
-96.491046000000082
 30
0.0
 40
9.3249999999999993
 50
180.0
 51
224.99999999998161
  0
ARC
  5
3637
  8
DETAIL
  6
CONTINUOUS
 62
     5
 10
-203.5174610000004
 20
-96.491046000000082
 30
0.0
 40
8.5
 50
180.0
 51
224.99999999998161
  0
LINE
  5
363C
  8
DETAIL
  6
CONTINUOUS
 62
     5
 10
-125.04885300000019
 20
-87.168443000000465
 30
0.0
 11
-131.9155780000001
 21
-83.063801000000254
 31
0.0
  0
LINE
  5
363D
  8
DETAIL
  6
CONTINUOUS
 62
     5
 10
-149.94073099999969
 20
-72.289115000000493
 30
0.0
 11
-156.8074560000004
 21
-68.184472000000824
 31
0.0
  0
LINE
  5
363E
  8
DETAIL
  6
CONTINUOUS
 62
     5
 10
-132.8891880000001
 20
-81.316779000000679
 30
0.0
 11
-147.94096100000019
 21
-72.319455000000701
 31
0.0
  0
LINE
  5
3640
  8
DETAIL
  6
CONTINUOUS
 62
     5
 10
-131.9155780000001
 20
-83.063801000000254
 30
0.0
 11
-132.8891880000001
 21
-81.316779000000679
 31
0.0
  0
LINE
  5
3641
  8
DETAIL
  6
CONTINUOUS
 62
     5
 10
-128.00466299999971
 20
-73.145377000000735
 30
0.0
 11
-131.4448490000004
 21
-71.088977000000341
 31
0.0
  0
LINE
  5
3643
  8
DETAIL
  6
CONTINUOUS
 62
     5
 10
-119.13816800000041
 20
-77.280360000000655
 30
0.0
 11
-126.00489300000019
 21
-73.175717000000063
 31
0.0
  0
LINE
  5
3645
  8
DETAIL
  6
CONTINUOUS
 62
     5
 10
-128.34829400000029
 20
-65.907070000000203
 30
0.0
 11
-127.73404536693459
 21
-63.740940202881212
 31
0.0
  0
LINE
  5
3646
  8
DETAIL
  6
CONTINUOUS
 62
     5
 10
-156.80685999999969
 20
-68.183475000000726
 30
0.0
 11
-150.8973669999996
 21
-58.297386000000181
 31
0.0
  0
LINE
  5
3647
  8
DETAIL
  6
CONTINUOUS
 62
     5
 10
-149.94073099999969
 20
-72.289115000000493
 30
0.0
 11
-144.0300459999998
 21
-62.401031000000323
 31
0.0
  0
LINE
  5
3648
  8
DETAIL
  6
CONTINUOUS
 62
     5
 10
-147.94096100000019
 20
-72.319455000000701
 30
0.0
 11
-143.05643700000019
 21
-64.1480530000008
 31
0.0
  0
LINE
  5
3649
  8
DETAIL
  6
CONTINUOUS
 62
     5
 10
-139.6222010000001
 20
-66.214405000000625
 30
0.0
 11
-136.52217099999959
 21
-61.02831400000013
 31
0.0
  0
LINE
  5
364A
  8
DETAIL
  6
CONTINUOUS
 62
     5
 10
-134.9011864270766
 20
-59.456714285133991
 30
0.0
 11
-131.31977499999991
 21
-53.465311000000838
 31
0.0
  0
LINE
  5
364B
  8
DETAIL
  6
CONTINUOUS
 62
     5
 10
-126.00489300000019
 20
-73.175717000000063
 30
0.0
 11
-128.00466299999971
 21
-73.145377000000735
 31
0.0
  0
LINE
  5
364C
  8
DETAIL
  6
CONTINUOUS
 62
     5
 10
-147.94096100000019
 20
-72.319455000000701
 30
0.0
 11
-149.94073099999969
 21
-72.289115000000493
 31
0.0
  0
LINE
  5
364D
  8
DETAIL
  6
CONTINUOUS
 62
     5
 10
-127.73404536693459
 20
-63.740940202881212
 30
0.0
 11
-124.1526309999999
 21
-57.749531000000388
 31
0.0
  0
LINE
  5
364E
  8
DETAIL
  6
CONTINUOUS
 62
     5
 10
-131.45079799999979
 20
-71.09892900000068
 30
0.0
 11
-128.35076899999959
 21
-65.912839000000531
 31
0.0
  0
LINE
  5
364F
  8
DETAIL
  6
CONTINUOUS
 62
     5
 10
-132.8891880000001
 20
-81.316779000000679
 30
0.0
 11
-128.00466299999971
 21
-73.145377000000735
 31
0.0
  0
LINE
  5
3650
  8
DETAIL
  6
CONTINUOUS
 62
     5
 10
-131.9155780000001
 20
-83.063801000000254
 30
0.0
 11
-126.00489300000019
 21
-73.175717000000063
 31
0.0
  0
LINE
  5
3651
  8
DETAIL
  6
CONTINUOUS
 62
     5
 10
-125.04825700000031
 20
-87.167446000000396
 30
0.0
 11
-119.13876499999969
 21
-77.281357000000753
 31
0.0
  0
LINE
  5
3652
  8
DETAIL
  6
CONTINUOUS
 62
     5
 10
-136.51826199999959
 20
-61.023403000000137
 30
0.0
 11
-134.9011864270766
 21
-59.456714285133991
 31
0.0
  0
CIRCLE
  5
3655
  8
DETAIL
  6
CONTINUOUS
 62
     5
 10
-189.72572000000031
 20
-102.49829600000059
 30
0.0
 40
5.9000000000000004
  0
LINE
  5
393E
  8
SIZE
  6
CONTINUOUS
 62
    30
 10
-258.39999999999969
 20
-180.0
 30
0.0
 11
-724.3844705486099
 21
-179.9999999999998
 31
0.0
  0
LINE
  5
393F
  8
SIZE
  6
CONTINUOUS
 62
    30
 10
-259.75000000000011
 20
-150.0
 30
0.0
 11
-724.3844705486099
 21
-149.9999999999998
 31
0.0
  0
LINE
  5
3940
  8
SIZE
  6
CONTINUOUS
 62
    30
 10
-704.38447054860967
 20
-149.9999999999998
 30
0.0
 11
-704.38447054860967
 21
-119.9999999999999
 31
0.0
  0
LINE
  5
3941
  8
SIZE
  6
CONTINUOUS
 62
    30
 10
-704.38447054860967
 20
-179.9999999999998
 30
0.0
 11
-704.38447054860967
 21
-315.15522910060281
 31
0.0
  0
LINE
  5
3942
  8
SIZE
  6
CONTINUOUS
 62
    30
 10
-704.38447054860967
 20
-149.9999999999998
 30
0.0
 11
-704.38447054860967
 21
-179.9999999999998
 31
0.0
  0
CIRCLE
  5
3943
  8
SIZE
  6
CONTINUOUS
 62
    30
 10
-704.38447054860967
 20
-149.9999999999998
 30
0.0
 40
7.5
  0
CIRCLE
  5
3944
  8
SIZE
  6
CONTINUOUS
 62
    30
 10
-704.38447054860967
 20
-179.9999999999998
 30
0.0
 40
7.5
  0
TEXT
  5
3945
  8
SIZE
  6
CONTINUOUS
 62
    30
 10
-724.3844705486099
 20
-295.69602731012247
 30
0.0
 40
60.0
  1
30
 50
90.0
 41
0.9
 72
     1
 11
-724.3844705486099
 21
-251.98174159583689
 31
0.0
  0
POINT
  5
3947
  8
DEFPOINTS
  6
CONTINUOUS
 62
     7
 10
-239.75
 20
-150.0
 30
0.0
  0
POINT
  5
3948
  8
DEFPOINTS
  6
CONTINUOUS
 62
     7
 10
-704.38447054860967
 20
-149.9999999999998
 30
0.0
  0
LINE
  5
3949
  8
SIZE
  6
CONTINUOUS
 62
    30
 10
-259.75000000000011
 20
-133.0
 30
0.0
 11
-873.75108790496415
 21
-132.9999999999998
 31
0.0
  0
LINE
  5
394A
  8
SIZE
  6
CONTINUOUS
 62
    30
 10
-259.75
 20
170.0
 30
0.0
 11
-873.75108790496415
 21
170.00000000000011
 31
0.0
  0
LINE
  5
394B
  8
SIZE
  6
CONTINUOUS
 62
    30
 10
-853.75108790496415
 20
-132.9999999999998
 30
0.0
 11
-853.75108790496415
 21
170.00000000000011
 31
0.0
  0
CIRCLE
  5
394C
  8
SIZE
  6
CONTINUOUS
 62
    30
 10
-853.75108790496415
 20
-132.9999999999998
 30
0.0
 40
7.5
  0
CIRCLE
  5
394D
  8
SIZE
  6
CONTINUOUS
 62
    30
 10
-853.75108790496415
 20
170.00000000000011
 30
0.0
 40
7.5
  0
TEXT
  5
394E
  8
SIZE
  6
CONTINUOUS
 62
    30
 10
-873.75108790496415
 20
-50.928571428571402
 30
0.0
 40
60.0
  1
303
 50
90.0
 41
0.9
 72
     1
 11
-873.75108790496415
 21
18.500000000000021
 31
0.0
  0
POINT
  5
394F
  8
DEFPOINTS
  6
CONTINUOUS
 62
     7
 10
-239.75
 20
-133.0
 30
0.0
  0
POINT
  5
3950
  8
DEFPOINTS
  6
CONTINUOUS
 62
     7
 10
-239.75
 20
170.0
 30
0.0
  0
POINT
  5
3951
  8
DEFPOINTS
  6
CONTINUOUS
 62
     7
 10
-853.75108790496415
 20
170.00000000000011
 30
0.0
  0
LINE
  5
3952
  8
SIZE
  6
CONTINUOUS
 62
    30
 10
-222.00000000000091
 20
-164.99999999999909
 30
0.0
 11
-598.40877012742385
 21
-164.99999999999881
 31
0.0
  0
LINE
  5
3953
  8
SIZE
  6
CONTINUOUS
 62
    30
 10
-258.39999999999969
 20
-180.0
 30
0.0
 11
-598.40877012742385
 21
-179.99999999999989
 31
0.0
  0
LINE
  5
3954
  8
SIZE
  6
CONTINUOUS
 62
    30
 10
-578.40877012742385
 20
-164.99999999999881
 30
0.0
 11
-578.40877012742385
 21
-134.99999999999901
 31
0.0
  0
LINE
  5
3955
  8
SIZE
  6
CONTINUOUS
 62
    30
 10
-578.40877012742385
 20
-179.99999999999989
 30
0.0
 11
-578.40877012742385
 21
-313.04944555228582
 31
0.0
  0
LINE
  5
3956
  8
SIZE
  6
CONTINUOUS
 62
    30
 10
-578.40877012742385
 20
-164.99999999999881
 30
0.0
 11
-578.40877012742385
 21
-179.99999999999989
 31
0.0
  0
CIRCLE
  5
3957
  8
SIZE
  6
CONTINUOUS
 62
    30
 10
-578.40877012742385
 20
-164.99999999999881
 30
0.0
 40
7.5
  0
CIRCLE
  5
3958
  8
SIZE
  6
CONTINUOUS
 62
    30
 10
-578.40877012742385
 20
-179.99999999999989
 30
0.0
 40
7.5
  0
TEXT
  5
3959
  8
SIZE
  6
CONTINUOUS
 62
    30
 10
-598.40877012742385
 20
-291.99161638403081
 30
0.0
 40
60.0
  1
15
 50
90.0
 41
0.9
 72
     1
 11
-598.40877012742385
 21
-253.42018781260219
 31
0.0
  0
POINT
  5
395A
  8
DEFPOINTS
  6
CONTINUOUS
 62
     7
 10
-202.00000000000091
 20
-164.99999999999909
 30
0.0
  0
POINT
  5
395C
  8
DEFPOINTS
  6
CONTINUOUS
 62
     7
 10
-578.40877012742385
 20
-179.99999999999989
 30
0.0
  0
LINE
  5
395D
  8
SIZE
  6
CONTINUOUS
 62
    30
 10
-240.0
 20
-198.4000000000004
 30
0.0
 11
-240.0
 21
-490.80148037120301
 31
0.0
  0
LINE
  5
395E
  8
SIZE
  6
CONTINUOUS
 62
    30
 10
-202.00000000000091
 20
-184.99999999999909
 30
0.0
 11
-202.00000000000091
 21
-490.80148037120301
 31
0.0
  0
LINE
  5
395F
  8
SIZE
  6
CONTINUOUS
 62
    30
 10
-202.00000000000091
 20
-470.80148037120301
 30
0.0
 11
-172.00000000000091
 21
-470.80148037120301
 31
0.0
  0
LINE
  5
3960
  8
SIZE
  6
CONTINUOUS
 62
    30
 10
-240.0
 20
-470.80148037120301
 30
0.0
 11
-399.74561650943741
 21
-470.80148037120301
 31
0.0
  0
LINE
  5
3961
  8
SIZE
  6
CONTINUOUS
 62
    30
 10
-202.00000000000091
 20
-470.80148037120301
 30
0.0
 11
-240.0
 21
-470.80148037120301
 31
0.0
  0
CIRCLE
  5
3962
  8
SIZE
  6
CONTINUOUS
 62
    30
 10
-202.00000000000091
 20
-470.80148037120301
 30
0.0
 40
7.5
  0
CIRCLE
  5
3963
  8
SIZE
  6
CONTINUOUS
 62
    30
 10
-240.0
 20
-470.80148037120301
 30
0.0
 40
7.5
  0
TEXT
  5
3964
  8
SIZE
  6
CONTINUOUS
 62
    30
 10
-373.0319975948081
 20
-450.80148037120301
 30
0.0
 40
60.0
  1
38
 41
0.9
 72
     1
 11
-329.31771188052238
 21
-450.80148037120301
 31
0.0
  0
POINT
  5
3966
  8
DEFPOINTS
  6
CONTINUOUS
 62
     7
 10
-202.00000000000091
 20
-164.99999999999909
 30
0.0
  0
POINT
  5
3967
  8
DEFPOINTS
  6
CONTINUOUS
 62
     7
 10
-202.00000000000091
 20
-470.80148037120301
 30
0.0
  0
LINE
  5
3968
  8
SIZE
  6
CONTINUOUS
 62
    30
 10
-230.0
 20
-177.5
 30
0.0
 11
-230.0
 21
-617.56898837496931
 31
0.0
  0
LINE
  5
3969
  8
SIZE
  6
CONTINUOUS
 62
    30
 10
-240.0
 20
-198.4000000000004
 30
0.0
 11
-240.0
 21
-617.56898837496931
 31
0.0
  0
LINE
  5
396A
  8
SIZE
  6
CONTINUOUS
 62
    30
 10
-230.0
 20
-597.56898837496931
 30
0.0
 11
-200.0
 21
-597.56898837496931
 31
0.0
  0
LINE
  5
396B
  8
SIZE
  6
CONTINUOUS
 62
    30
 10
-240.0
 20
-597.56898837496931
 30
0.0
 11
-399.74561650943741
 21
-597.56898837496931
 31
0.0
  0
LINE
  5
396C
  8
SIZE
  6
CONTINUOUS
 62
    30
 10
-230.0
 20
-597.56898837496931
 30
0.0
 11
-240.0
 21
-597.56898837496931
 31
0.0
  0
CIRCLE
  5
396D
  8
SIZE
  6
CONTINUOUS
 62
    30
 10
-230.0
 20
-597.56898837496931
 30
0.0
 40
7.5
  0
CIRCLE
  5
396E
  8
SIZE
  6
CONTINUOUS
 62
    30
 10
-240.0
 20
-597.56898837496931
 30
0.0
 40
7.5
  0
TEXT
  5
396F
  8
SIZE
  6
CONTINUOUS
 62
    30
 10
-362.32903923617698
 20
-577.56898837496919
 30
0.0
 40
60.0
  1
10
 41
0.9
 72
     1
 11
-323.75761066474843
 21
-577.56898837496919
 31
0.0
  0
POINT
  5
3970
  8
DEFPOINTS
  6
CONTINUOUS
 62
     7
 10
-230.0
 20
-157.5
 30
0.0
  0
POINT
  5
3972
  8
DEFPOINTS
  6
CONTINUOUS
 62
     7
 10
-240.0
 20
-597.56898837496931
 30
0.0
  0
LINE
  5
3973
  8
SIZE
  6
CONTINUOUS
 62
    30
 10
-230.0
 20
-179.75
 30
0.0
 11
-230.0
 21
-617.56898837496931
 31
0.0
  0
LINE
  5
3974
  8
SIZE
  6
CONTINUOUS
 62
    30
 10
80.0
 20
-179.75
 30
0.0
 11
79.999999999999972
 21
-617.56898837496931
 31
0.0
  0
LINE
  5
3975
  8
SIZE
  6
CONTINUOUS
 62
    30
 10
-230.0
 20
-597.56898837496931
 30
0.0
 11
79.999999999999972
 21
-597.56898837496931
 31
0.0
  0
CIRCLE
  5
3976
  8
SIZE
  6
CONTINUOUS
 62
    30
 10
-230.0
 20
-597.56898837496931
 30
0.0
 40
7.5
  0
CIRCLE
  5
3977
  8
SIZE
  6
CONTINUOUS
 62
    30
 10
79.999999999999972
 20
-597.56898837496931
 30
0.0
 40
7.5
  0
TEXT
  5
3978
  8
SIZE
  6
CONTINUOUS
 62
    30
 10
-139.28571428571431
 20
-577.56898837496919
 30
0.0
 40
60.0
  1
310
 41
0.9
 72
     1
 11
-75.000000000000014
 21
-577.56898837496919
 31
0.0
  0
POINT
  5
3979
  8
DEFPOINTS
  6
CONTINUOUS
 62
     7
 10
-230.0
 20
-159.75
 30
0.0
  0
POINT
  5
397A
  8
DEFPOINTS
  6
CONTINUOUS
 62
     7
 10
80.0
 20
-159.75
 30
0.0
  0
POINT
  5
397B
  8
DEFPOINTS
  6
CONTINUOUS
 62
     7
 10
79.999999999999972
 20
-597.56898837496931
 30
0.0
  0
LINE
  5
397C
  8
SIZE
  6
CONTINUOUS
 62
    30
 10
240.0
 20
-198.4000000000004
 30
0.0
 11
240.0
 21
-755.90630292699268
 31
0.0
  0
LINE
  5
397D
  8
SIZE
  6
CONTINUOUS
 62
    30
 10
-240.0
 20
-198.4000000000004
 30
0.0
 11
-240.0
 21
-755.90630292699268
 31
0.0
  0
LINE
  5
397E
  8
SIZE
  6
CONTINUOUS
 62
    30
 10
240.0
 20
-735.90630292699234
 30
0.0
 11
-240.0
 21
-735.90630292699234
 31
0.0
  0
CIRCLE
  5
397F
  8
SIZE
  6
CONTINUOUS
 62
    30
 10
240.0
 20
-735.90630292699234
 30
0.0
 40
7.5
  0
CIRCLE
  5
3980
  8
SIZE
  6
CONTINUOUS
 62
    30
 10
-240.0
 20
-735.90630292699234
 30
0.0
 40
7.5
  0
TEXT
  5
3981
  8
SIZE
  6
CONTINUOUS
 62
    30
 10
-62.879468225209038
 20
-715.90630292699279
 30
0.0
 40
60.0
  1
480
 41
0.9
 72
     1
 11
6.5491032033623924
 21
-715.90630292699279
 31
0.0
  0
POINT
  5
3982
  8
DEFPOINTS
  6
CONTINUOUS
 62
     7
 10
240.0
 20
-178.4000000000004
 30
0.0
  0
POINT
  5
3984
  8
DEFPOINTS
  6
CONTINUOUS
 62
     7
 10
-240.0
 20
-735.90630292699234
 30
0.0
  0
LINE
  5
3985
  8
SIZE
  6
CONTINUOUS
 62
    30
 10
-258.39999999999969
 20
-180.0
 30
0.0
 11
-1022.484857868831
 21
-179.9999999999998
 31
0.0
  0
LINE
  5
3986
  8
SIZE
  6
CONTINUOUS
 62
    30
 10
-258.39999999999958
 20
180.0
 30
0.0
 11
-1022.484857868831
 21
180.0000000000002
 31
0.0
  0
LINE
  5
3987
  8
SIZE
  6
CONTINUOUS
 62
    30
 10
-1002.484857868831
 20
-179.9999999999998
 30
0.0
 11
-1002.484857868831
 21
180.0000000000002
 31
0.0
  0
CIRCLE
  5
3988
  8
SIZE
  6
CONTINUOUS
 62
    30
 10
-1002.484857868831
 20
-179.9999999999998
 30
0.0
 40
7.5
  0
CIRCLE
  5
3989
  8
SIZE
  6
CONTINUOUS
 62
    30
 10
-1002.484857868831
 20
180.0000000000002
 30
0.0
 40
7.5
  0
TEXT
  5
398A
  8
SIZE
  6
CONTINUOUS
 62
    30
 10
-1022.48485786883
 20
-69.428571428570734
 30
0.0
 40
60.0
  1
360
 50
90.0
 41
0.9
 72
     1
 11
-1022.48485786883
 21
0.0000000000006864
 31
0.0
  0
POINT
  5
398C
  8
DEFPOINTS
  6
CONTINUOUS
 62
     7
 10
-238.39999999999961
 20
180.0
 30
0.0
  0
POINT
  5
398D
  8
DEFPOINTS
  6
CONTINUOUS
 62
     7
 10
-1002.484857868831
 20
180.0000000000002
 30
0.0
  0
LINE
  5
398E
  8
SIZE
  6
CONTINUOUS
 62
    30
 10
-230.0
 20
199.75
 30
0.0
 11
-230.0
 21
360.66091775179672
 31
0.0
  0
LINE
  5
398F
  8
SIZE
  6
CONTINUOUS
 62
    30
 10
-190.0
 20
199.75
 30
0.0
 11
-190.0
 21
360.66091775179672
 31
0.0
  0
LINE
  5
3990
  8
SIZE
  6
CONTINUOUS
 62
    30
 10
-230.0
 20
340.6609177517966
 30
0.0
 11
-190.0
 21
340.6609177517966
 31
0.0
  0
LINE
  5
3991
  8
SIZE
  6
CONTINUOUS
 62
    30
 10
-190.0
 20
340.6609177517966
 30
0.0
 11
-32.571428571428598
 21
340.6609177517966
 31
0.0
  0
CIRCLE
  5
3992
  8
SIZE
  6
CONTINUOUS
 62
    30
 10
-230.0
 20
340.6609177517966
 30
0.0
 40
7.5
  0
CIRCLE
  5
3993
  8
SIZE
  6
CONTINUOUS
 62
    30
 10
-190.0
 20
340.6609177517966
 30
0.0
 40
7.5
  0
TEXT
  5
3994
  8
SIZE
  6
CONTINUOUS
 62
    30
 10
-139.99999999999989
 20
360.66091775179672
 30
0.0
 40
60.0
  1
40
 41
0.9
 72
     1
 11
-96.285714285714278
 21
360.66091775179672
 31
0.0
  0
POINT
  5
3995
  8
DEFPOINTS
  6
CONTINUOUS
 62
     7
 10
-230.0
 20
179.75
 30
0.0
  0
POINT
  5
3996
  8
DEFPOINTS
  6
CONTINUOUS
 62
     7
 10
-190.0
 20
179.75
 30
0.0
  0
POINT
  5
3997
  8
DEFPOINTS
  6
CONTINUOUS
 62
     7
 10
-190.0
 20
340.6609177517966
 30
0.0
  0
LINE
  5
3998
  8
SIZE
  6
CONTINUOUS
 62
    30
 10
258.39999999999969
 20
-179.99999999999989
 30
0.0
 11
407.23065631113082
 21
-179.9999999999994
 31
0.0
  0
LINE
  5
3999
  8
SIZE
  6
CONTINUOUS
 62
    30
 10
-167.5594148762699
 20
-130.55941487626799
 30
0.0
 11
224.3977301021288
 21
261.39773010213139
 31
0.0
  0
ARC
  5
399A
  8
SIZE
  6
CONTINUOUS
 62
    30
 10
-217.00000000000179
 20
-180.0
 30
0.0
 40
604.23065631113263
 50
0.0000000000000568
 51
45.000000000000057
  0
CIRCLE
  5
399B
  8
SIZE
  6
CONTINUOUS
 62
    30
 10
387.23065631113082
 20
-179.9999999999994
 30
0.0
 40
7.5
  0
CIRCLE
  5
399C
  8
SIZE
  6
CONTINUOUS
 62
    30
 10
210.2555944783978
 20
247.2555944784005
 30
0.0
 40
7.5
  0
TEXT
  5
399D
  8
SIZE
  6
CONTINUOUS
 62
    30
 10
340.92078456158202
 20
105.6372471569956
 30
0.0
 40
60.0
  1
45%%d
 50
291.9326334668462
 41
0.9
 72
     1
 11
362.05112856078159
 21
53.160251310360842
 31
0.0
  0
POINT
  5
399E
  8
DEFPOINTS
  6
CONTINUOUS
 62
     7
 10
306.27909811078291
 20
122.1153281555667
 30
0.0
  0
POINT
  5
39A1
  8
DEFPOINTS
  6
CONTINUOUS
 62
     7
 10
-181.70155050000071
 20
-144.701550499999
 30
0.0
  0
POINT
  5
39A2
  8
DEFPOINTS
  6
CONTINUOUS
 62
     7
 10
238.39999999999961
 20
-180.0
 30
0.0
  0
LINE
  5
39A3
  8
NOTE
  6
CENTER
 62
     4
 10
-220.25
 20
-133.0
 30
0.0
 11
-239.75
 21
-133.0
 31
0.0
  0
LINE
  5
39A4
  8
NOTE
  6
CENTER
 62
     4
 10
-230.0
 20
-123.25
 30
0.0
 11
-230.0
 21
-142.75
 31
0.0
  0
LINE
  5
39A5
  8
NOTE
  6
CENTER
 62
     4
 10
-220.25
 20
-150.0
 30
0.0
 11
-239.75
 21
-150.0
 31
0.0
  0
LINE
  5
39A6
  8
NOTE
  6
CENTER
 62
     4
 10
-230.0
 20
-140.25
 30
0.0
 11
-230.0
 21
-159.75
 31
0.0
  0
LINE
  5
39A7
  8
NOTE
  6
CENTER
 62
     4
 10
89.749999999999986
 20
-150.0
 30
0.0
 11
70.25
 21
-150.0
 31
0.0
  0
LINE
  5
39A8
  8
NOTE
  6
CENTER
 62
     4
 10
80.0
 20
-140.25
 30
0.0
 11
80.0
 21
-159.75
 31
0.0
  0
CIRCLE
  5
39A9
  8
FIX
  6
CONTINUOUS
 62
    11
 10
-230.0
 20
170.0
 30
0.0
 40
8.6950485571074356
  0
CIRCLE
  5
39AA
  8
FIX
  6
CONTINUOUS
 62
    11
 10
-230.0
 20
-133.0
 30
0.0
 40
8.6950485571074356
  0
CIRCLE
  5
39AB
  8
FIX
  6
CONTINUOUS
 62
    11
 10
-230.0
 20
-150.0
 30
0.0
 40
8.6950485571074356
  0
CIRCLE
  5
39AC
  8
FIX
  6
CONTINUOUS
 62
    11
 10
80.0
 20
-150.0
 30
0.0
 40
8.6950485571074356
  0
CIRCLE
  5
39AD
  8
FIX
  6
CONTINUOUS
 62
    11
 10
80.0
 20
170.0
 30
0.0
 40
8.6950485571074356
  0
CIRCLE
  5
39AE
  8
FIX
  6
CONTINUOUS
 62
    11
 10
-190.0
 20
170.0
 30
0.0
 40
8.6950485571074356
  0
TEXT
  5
39B0
  8
NOTE
  6
CONTINUOUS
 62
     4
 10
-769.92997207818178
 20
-435.68446157018951
 30
0.0
 40
60.0
  1
RG %%C9.52
 50
0.0000025044165917
 41
0.7
  7
STANDARD1
  0
TEXT
  5
39B1
  8
NOTE
  6
CONTINUOUS
 62
     4
 10
-858.72999320688984
 20
-545.21248123693465
 30
0.0
 40
60.0
  1
RL %%C6.35
 50
0.0000025044165917
 41
0.7
  7
STANDARD1
  0
LINE
  5
39B2
  8
NOTE
  6
CONTINUOUS
 62
     4
 10
-796.67016933733919
 20
-459.32309253780221
 30
0.0
 11
-458.62253256181009
 21
-459.32309253780221
 31
0.0
  0
TEXT
  5
39B3
  8
NOTE
  6
CONTINUOUS
 62
     4
 10
-867.29825908393263
 20
385.15375435441462
 30
0.0
 40
60.0
  1
AH 5-%%C10
 50
0.0000025044165917
 41
0.7
  7
STANDARD1
  0
TEXT
  5
39B4
  8
NOTE
  6
CONTINUOUS
 62
     4
 10
-967.90258457046161
 20
540.21093657127108
 30
0.0
 40
60.0
  1
AH 10x35長穴
 50
0.0000025044165917
 41
0.7
  7
STANDARD1
  0
LINE
  5
39B5
  8
BASIS
  6
DASHDOT
 62
     6
 10
0.0
 20
250.0
 30
0.0
 11
0.0
 21
-250.0
 31
0.0
  0
LINE
  5
39B6
  8
BASIS
  6
DASHDOT
 62
     6
 10
300.0
 20
0.0
 30
0.0
 11
-300.0
 21
0.0
 31
0.0
  0
CIRCLE
  5
39B7
  8
ARRANGE
  6
CONTINUOUS
 62
     1
 10
0.0
 20
0.0
 30
0.0
 40
50.0
  0
LINE
  5
39B8
  8
ARRANGE
  6
CONTINUOUS
 62
     1
 10
50.037350031328963
 20
-49.522353150325202
 30
0.0
 11
-50.037350031328963
 21
49.522353150325202
 31
0.0
  0
LINE
  5
39B9
  8
ARRANGE
  6
CONTINUOUS
 62
     1
 10
49.963763310501221
 20
49.596594797985738
 30
0.0
 11
-49.963763310501221
 21
-49.5965947979821
 31
0.0
  0
TEXT
  5
39BA
  8
ETC
  6
CONTINUOUS
 62
    61
 10
174.33274749839981
 20
469.54887252623479
 30
0.0
 40
64.0
  1
M9A-03LAB_1
 50
0.0000029998804485
 41
0.9
  7
STANDARD_MODELNAME
  0
LINE
  5
39BB
  8
OUTLINE
  6
CONTINUOUS
 62
     3
 10
-240.0
 20
178.39999999999961
 30
0.0
 11
-240.0
 21
-178.4000000000004
 31
0.0
  0
LINE
  5
39BC
  8
OUTLINE
  6
CONTINUOUS
 62
     3
 10
-240.0
 20
178.39999999999961
 30
0.0
 11
-238.39999999999961
 21
178.39999999999961
 31
0.0
  0
LINE
  5
39BD
  8
OUTLINE
  6
CONTINUOUS
 62
     3
 10
-238.39999999999961
 20
180.0
 30
0.0
 11
-238.39999999999961
 21
178.39999999999961
 31
0.0
  0
LINE
  5
39BE
  8
OUTLINE
  6
CONTINUOUS
 62
     3
 10
238.39999999999961
 20
180.0
 30
0.0
 11
-238.39999999999961
 21
180.0
 31
0.0
  0
LINE
  5
39BF
  8
OUTLINE
  6
CONTINUOUS
 62
     3
 10
238.39999999999961
 20
180.0
 30
0.0
 11
238.39999999999961
 21
178.39999999999961
 31
0.0
  0
LINE
  5
39C0
  8
OUTLINE
  6
CONTINUOUS
 62
     3
 10
240.0
 20
178.39999999999961
 30
0.0
 11
238.39999999999961
 21
178.39999999999961
 31
0.0
  0
LINE
  5
39C1
  8
OUTLINE
  6
CONTINUOUS
 62
     3
 10
240.0
 20
-178.4000000000004
 30
0.0
 11
240.0
 21
178.39999999999961
 31
0.0
  0
LINE
  5
39C2
  8
OUTLINE
  6
CONTINUOUS
 62
     3
 10
240.0
 20
-178.4000000000004
 30
0.0
 11
238.39999999999961
 21
-178.4000000000004
 31
0.0
  0
LINE
  5
39C3
  8
OUTLINE
  6
CONTINUOUS
 62
     3
 10
238.39999999999961
 20
-180.0
 30
0.0
 11
238.39999999999961
 21
-178.4000000000004
 31
0.0
  0
LINE
  5
39C4
  8
OUTLINE
  6
CONTINUOUS
 62
     3
 10
-238.39999999999961
 20
-180.0
 30
0.0
 11
238.39999999999961
 21
-180.0
 31
0.0
  0
LINE
  5
39C5
  8
OUTLINE
  6
CONTINUOUS
 62
     3
 10
-238.39999999999961
 20
-180.0
 30
0.0
 11
-238.39999999999961
 21
-178.4000000000004
 31
0.0
  0
LINE
  5
39C6
  8
OUTLINE
  6
CONTINUOUS
 62
     3
 10
-240.0
 20
-178.4000000000004
 30
0.0
 11
-238.39999999999961
 21
-178.4000000000004
 31
0.0
  0
LINE
  5
39C7
  8
NOTE
  6
CONTINUOUS
 62
     4
 10
-190.0
 20
170.0
 30
0.0
 11
-500.56101919595483
 21
522.38863455301146
 31
0.0
  0
LINE
  5
39C8
  8
NOTE
  6
CONTINUOUS
 62
     4
 10
-500.56101919595483
 20
522.38863455301146
 30
0.0
 11
-984.58235271322155
 21
522.38863455301146
 31
0.0
  0
LINE
  5
39C9
  8
NOTE
  6
CONTINUOUS
 62
     4
 10
-203.80465911109411
 20
197.8217267330046
 30
0.0
 11
-190.0
 21
170.0
 31
0.0
  0
LINE
  5
39CA
  8
NOTE
  6
CONTINUOUS
 62
     4
 10
-190.0
 20
170.0
 30
0.0
 11
-215.86604876930139
 21
187.19199268972611
 31
0.0
  0
LINE
  5
39CB
  8
NOTE
  6
CONTINUOUS
 62
     4
 10
-230.0
 20
170.0
 30
0.0
 11
-501.0263555287147
 21
363.37318609408248
 31
0.0
  0
LINE
  5
39CC
  8
NOTE
  6
CONTINUOUS
 62
     4
 10
-501.0263555287147
 20
363.37318609408248
 30
0.0
 11
-878.13023447089472
 21
363.37318609408248
 31
0.0
  0
LINE
  5
39CD
  8
NOTE
  6
CONTINUOUS
 62
     4
 10
-249.75245356608681
 20
193.96784658034721
 30
0.0
 11
-230.0
 21
170.0
 31
0.0
  0
LINE
  5
39CE
  8
NOTE
  6
CONTINUOUS
 62
     4
 10
-230.0
 20
170.0
 30
0.0
 11
-259.09004981611719
 21
180.88053736151309
 31
0.0
  0
LINE
  5
39CF
  8
NOTE
  6
CONTINUOUS
 62
     4
 10
-202.00000000000091
 20
-164.99999999999909
 30
0.0
 11
-559.48441390333812
 21
-575.00264935329494
 31
0.0
  0
LINE
  5
39D0
  8
NOTE
  6
CONTINUOUS
 62
     4
 10
-559.48441390333812
 20
-575.00264935329471
 30
0.0
 11
-880.97842431201707
 21
-575.00264935329471
 31
0.0
  0
LINE
  5
39D1
  8
NOTE
  6
CONTINUOUS
 62
     4
 10
-229.50556539678931
 20
-179.42431848589189
 30
0.0
 11
-202.00000000000091
 21
-164.99999999999909
 31
0.0
  0
LINE
  5
39D2
  8
NOTE
  6
CONTINUOUS
 62
     4
 10
-202.00000000000091
 20
-164.99999999999909
 30
0.0
 11
-218.60835925518771
 21
-191.24460886411001
 31
0.0
  0
LINE
  5
39D3
  8
SIZE
  6
CONTINUOUS
 62
    30
 10
-259.75000000000011
 20
-150.0
 30
0.0
 11
-724.3844705486091
 21
-149.9999999999998
 31
0.0
  0
LINE
  5
39D4
  8
SIZE
  6
CONTINUOUS
 62
    30
 10
-259.75000000000011
 20
-133.0
 30
0.0
 11
-724.3844705486091
 21
-132.9999999999998
 31
0.0
  0
LINE
  5
39D5
  8
SIZE
  6
CONTINUOUS
 62
    30
 10
-704.38447054860887
 20
-149.9999999999998
 30
0.0
 11
-704.38447054860887
 21
-179.9999999999998
 31
0.0
  0
LINE
  5
39D6
  8
SIZE
  6
CONTINUOUS
 62
    30
 10
-704.38447054860887
 20
-132.9999999999998
 30
0.0
 11
-704.38447054860887
 21
0.7122052657691711
 31
0.0
  0
LINE
  5
39D7
  8
SIZE
  6
CONTINUOUS
 62
    30
 10
-704.38447054860887
 20
-149.9999999999998
 30
0.0
 11
-704.38447054860887
 21
-132.9999999999998
 31
0.0
  0
CIRCLE
  5
39D8
  8
SIZE
  6
CONTINUOUS
 62
    30
 10
-704.38447054860887
 20
-149.9999999999998
 30
0.0
 40
7.5
  0
CIRCLE
  5
39D9
  8
SIZE
  6
CONTINUOUS
 62
    30
 10
-704.38447054860887
 20
-132.9999999999998
 30
0.0
 40
7.5
  0
TEXT
  5
39DA
  8
SIZE
  6
CONTINUOUS
 62
    30
 10
-724.38447054860853
 20
-96.153809539696368
 30
0.0
 40
60.0
  1
17
 50
90.0
 41
0.9
 72
     1
 11
-724.38447054860853
 21
-57.582380968267792
 31
0.0
  0
POINT
  5
39DB
  8
DEFPOINTS
  6
CONTINUOUS
 62
     7
 10
-239.75
 20
-150.0
 30
0.0
  0
POINT
  5
39DC
  8
DEFPOINTS
  6
CONTINUOUS
 62
     7
 10
-239.75
 20
-133.0
 30
0.0
  0
POINT
  5
39DD
  8
DEFPOINTS
  6
CONTINUOUS
 62
     7
 10
-704.38447054860887
 20
-132.9999999999998
 30
0.0
  0
LINE
  5
39E3
  8
NOTE
  6
CENTER
 62
     4
 10
-212.99999986840569
 20
-164.99999999999909
 30
0.0
 11
-191.00000013159601
 21
-164.99999999999909
 31
0.0
  0
ARC
  5
3A18
  8
DETAIL
  6
CONTINUOUS
 62
     5
 10
5.8008617591541123
 20
139.18646951624379
 30
0.0
 40
0.6459021051728558
 50
329.78471885186377
 51
71.978218453934943
  0
LINE
  5
3A20
  8
DETAIL
  6
CONTINUOUS
 62
     5
 10
15.286342999999761
 20
115.529939
 30
0.0
 11
11.39942900000004
 21
132.0878749999992
 31
0.0
  0
ARC
  5
3A28
  8
DETAIL
  6
CONTINUOUS
 62
     5
 10
12.871054972448251
 20
114.7270937341178
 30
0.0
 40
2.545226272256206
 50
316.53686453570219
 51
18.386882211452239
  0
ARC
  5
3A30
  8
DETAIL
  6
CONTINUOUS
 62
     5
 10
16.848366304545561
 20
115.4188165753137
 30
0.0
 40
1.857482191420426
 50
217.6400970059245
 51
8.7307582971113735
  0
ARC
  5
3A38
  8
DETAIL
  6
CONTINUOUS
 62
     5
 10
4.8149393155600171
 20
167.1457914411672
 30
0.0
 40
1.773410774990388
 50
19.290818315440841
 51
200.30284260730889
  0
LINE
  5
3A40
  8
DETAIL
  6
CONTINUOUS
 62
     5
 10
-0.1697246256719982
 20
165.86247898365559
 30
0.0
 11
2.8918270000003741
 21
152.47118399999999
 31
0.0
  0
LINE
  5
3A48
  8
DETAIL
  6
CONTINUOUS
 62
     5
 10
3.151707499999699
 20
166.53044949999941
 30
0.0
 11
6.818471999999927
 21
150.71766399999979
 31
0.0
  0
LINE
  5
3A50
  8
DETAIL
  6
CONTINUOUS
 62
     5
 10
6.509796999999705
 20
167.06219199999941
 30
0.0
 11
10.17390499999965
 21
151.3097779999998
 31
0.0
  0
LINE
  5
3A58
  8
DETAIL
  6
CONTINUOUS
 62
     5
 10
6.4887799999996467
 20
167.7316609999998
 30
0.0
 11
11.63958100000036
 21
150.8800119999996
 31
0.0
  0
ARC
  5
3A71
  8
DETAIL
  6
CONTINUOUS
 62
     5
 10
1.569766874765119
 20
166.27483469419909
 30
0.0
 40
1.787699055241404
 50
34.289557809786132
 51
193.3360980308718
  0
ARC
  5
3A79
  8
DETAIL
  6
CONTINUOUS
 62
     5
 10
-1.7469972090680701
 20
165.44343041028711
 30
0.0
 40
1.72681811857107
 50
27.671864306565009
 51
181.1914264248864
  0
LINE
  5
3A81
  8
DETAIL
  6
CONTINUOUS
 62
     5
 10
33.044144000000408
 20
97.886817999999948
 30
0.0
 11
32.770738999999601
 21
89.014944999999869
 31
0.0
  0
ARC
  5
3A97
  8
DETAIL
  6
CONTINUOUS
 62
     5
 10
39.738296684097293
 20
88.108683824815316
 30
0.0
 40
24.145824039875009
 50
190.80512028901771
 51
233.83362044020529
  0
ARC
  5
3A9F
  8
DETAIL
  6
CONTINUOUS
 62
     5
 10
44.021445024185851
 20
90.097452123243869
 30
0.0
 40
22.403385322577499
 50
192.5599503734054
 51
224.2825013811923
  0
ARC
  5
3AA7
  8
DETAIL
  6
CONTINUOUS
 62
     5
 10
26.346546081491411
 20
85.973189909990055
 30
0.0
 40
19.54177219959676
 50
311.79502580596312
 51
347.99702946347992
  0
ARC
  5
3AAF
  8
DETAIL
  6
CONTINUOUS
 62
     5
 10
24.65410160107762
 20
86.699117904574223
 30
0.0
 40
27.697774318555251
 50
314.47346831173371
 51
346.5693790842073
  0
ARC
  5
3AB7
  8
DETAIL
  6
CONTINUOUS
 62
     5
 10
39.225820229438931
 20
72.444821017418718
 30
0.0
 40
7.3292026419166252
 50
258.19983048399263
 51
311.25290812174291
  0
ARC
  5
3ABF
  8
DETAIL
  6
CONTINUOUS
 62
     5
 10
2.9242398887459871
 20
75.80194737678039
 30
0.0
 40
29.27236450388294
 50
355.2026651188537
 51
16.511730087228418
  0
ARC
  5
3AC7
  8
DETAIL
  6
CONTINUOUS
 62
     5
 10
4.267117947196386
 20
76.019622419720221
 30
0.0
 40
24.523827713325371
 50
355.98298471906128
 51
16.964452286922899
  0
LINE
  5
3ACF
  8
DETAIL
  6
CONTINUOUS
 62
     5
 10
56.495396999999677
 20
119.89946400000009
 30
0.0
 11
62.452374000000418
 21
117.9264649999995
 31
0.0
  0
ARC
  5
3AE0
  8
DETAIL
  6
CONTINUOUS
 62
     5
 10
57.002882134047887
 20
121.58204443051309
 30
0.0
 40
1.757446461894399
 50
80.053493042147892
 51
253.21609976694731
  0
ARC
  5
3AE8
  8
DETAIL
  6
CONTINUOUS
 62
     5
 10
56.191835634045113
 20
118.1684329305147
 30
0.0
 40
1.757446461894399
 50
80.053493042147977
 51
233.5779791891332
  0
ARC
  5
3AF0
  8
DETAIL
  6
CONTINUOUS
 62
     5
 10
57.965249147419499
 20
124.93992849090949
 30
0.0
 40
1.7551853278515761
 50
79.983919217825473
 51
247.95416485976031
  0
ARC
  5
3AF8
  8
DETAIL
  6
CONTINUOUS
 62
     5
 10
58.791164294786093
 20
128.34691789735621
 30
0.0
 40
1.757446461894399
 50
80.053493042147977
 51
253.21609976694731
  0
ARC
  5
3B00
  8
DETAIL
  6
CONTINUOUS
 62
     5
 10
60.413257294786959
 20
135.1741408973545
 30
0.0
 40
1.757446461894399
 50
149.91144244069591
 51
253.21609976694731
  0
ARC
  5
3B08
  8
DETAIL
  6
CONTINUOUS
 62
     5
 10
59.75403696472096
 20
131.72445672659779
 30
0.0
 40
1.7736062692982091
 50
85.092244148702719
 51
248.1773486603926
  0
ARC
  5
3B10
  8
DETAIL
  6
CONTINUOUS
 62
     5
 10
84.823018448010458
 20
128.50223590424409
 30
0.0
 40
33.709247594906678
 50
91.323834419159439
 51
105.8127950922692
  0
ARC
  5
3B18
  8
DETAIL
  6
CONTINUOUS
 62
     5
 10
77.333458317574895
 20
158.66639547751021
 30
0.0
 40
9.1430887262508662
 50
93.295237743152597
 51
136.22459137740441
  0
ARC
  5
3B26
  8
DETAIL
  6
CONTINUOUS
 62
     5
 10
214.0107451206444
 20
153.26161214043381
 30
0.0
 40
15.84453335456511
 50
353.6165965671301
 51
185.6100561717264
  0
ARC
  5
3B2E
  8
DETAIL
  6
CONTINUOUS
 62
     5
 10
213.99998276307491
 20
154.10003897161201
 30
0.0
 40
5.425306387379714
 50
24.886538249986302
 51
154.88246837758001
  0
ARC
  5
3B36
  8
DETAIL
  6
CONTINUOUS
 62
     5
 10
220.18182267557191
 20
150.76746808879369
 30
0.0
 40
12.44340313516709
 50
153.07078072632669
 51
176.62509793058521
  0
ARC
  5
3B3D
  8
DETAIL
  6
CONTINUOUS
 62
     5
 10
210.42670247904101
 20
151.4758269635187
 30
0.0
 40
9.8103723025289096
 50
0.1411785737778875
 51
30.014283682579052
  0
ARC
  5
3B48
  8
DETAIL
  6
CONTINUOUS
 62
     5
 10
191.9935158793555
 20
-149.76161214043381
 30
0.0
 40
15.84453335456511
 50
173.61659656712959
 51
5.6100561717259154
  0
ARC
  5
3B49
  8
DETAIL
  6
CONTINUOUS
 62
     5
 10
192.00427823692519
 20
-150.60003897161201
 30
0.0
 40
5.425306387379714
 50
204.88653824998701
 51
334.88246837757981
  0
ARC
  5
3B4A
  8
DETAIL
  6
CONTINUOUS
 62
     5
 10
185.82243832442811
 20
-147.26746808879369
 30
0.0
 40
12.44340313516709
 50
333.0707807263272
 51
356.6250979305849
  0
ARC
  5
3B4B
  8
DETAIL
  6
CONTINUOUS
 62
     5
 10
195.577558520959
 20
-147.9758269635187
 30
0.0
 40
9.8103723025289096
 50
180.14117857377789
 51
210.0142836825793
  0
ARC
  5
3B5E
  8
DETAIL
  6
CONTINUOUS
 62
     5
 10
29.588542634199399
 20
-103.98063116728061
 30
0.0
 40
1.7136538486834221
 50
194.09289961425529
 51
351.78467381420103
  0
LINE
  5
3B66
  8
DETAIL
  6
CONTINUOUS
 62
     5
 10
31.0052139999998
 20
-100.1655590000005
 30
0.0
 11
31.284611041360069
 21
-104.2255014826293
 31
0.0
  0
ARC
  5
3B6E
  8
DETAIL
  6
CONTINUOUS
 62
     5
 10
32.946687675559581
 20
-103.80823564990931
 30
0.0
 40
1.7136538486834221
 50
194.09289961425529
 51
351.78467381420057
  0
LINE
  5
3B76
  8
DETAIL
  6
CONTINUOUS
 62
     5
 10
30.4496509999999
 20
-77.265553000000196
 30
0.0
 11
31.007807324981329
 21
-100.2032428287645
 31
0.0
  0
ARC
  5
3B84
  8
DETAIL
  6
CONTINUOUS
 62
     5
 10
31.3231265417404
 20
-50.550829258477002
 30
0.0
 40
1.67540690985406
 50
18.710363575613918
 51
148.76216066265769
  0
ARC
  5
3B8C
  8
DETAIL
  6
CONTINUOUS
 62
     5
 10
35.915412193591649
 20
42.391141762377217
 30
0.0
 40
9.4777034952646915
 50
319.8093295342058
 51
41.550974298097998
  0
ARC
  5
3B97
  8
DETAIL
  6
CONTINUOUS
 62
     5
 10
35.98380767935074
 20
42.082400251276653
 30
0.0
 40
9.2282064684376355
 50
291.23633927275858
 51
320.9996984244512
  0
ARC
  5
3B9F
  8
DETAIL
  6
CONTINUOUS
 62
     5
 10
19.891057190248969
 20
35.880024168484418
 30
0.0
 40
9.5053049023601144
 50
138.51748452416459
 51
177.3064364242735
  0
ARC
  5
3BAA
  8
DETAIL
  6
CONTINUOUS
 62
     5
 10
19.330143049866681
 20
36.762961415135067
 30
0.0
 40
8.5051866227146196
 50
110.0641023952995
 51
140.47089614187351
  0
ARC
  5
3BAB
  8
DETAIL
  6
CONTINUOUS
 62
     5
 10
19.891057190248969
 20
35.880024168484418
 30
0.0
 40
9.5053049023601144
 50
226.74686641223079
 51
281.4718459055573
  0
ARC
  5
3BB3
  8
DETAIL
  6
CONTINUOUS
 62
     5
 10
12.36555634990559
 20
34.70569575279017
 30
0.0
 40
2.2425134725813392
 50
61.959991715503172
 51
110.6398208715344
  0
ARC
  5
3BBB
  8
DETAIL
  6
CONTINUOUS
 62
     5
 10
13.60307398583616
 20
31.578541417467761
 30
0.0
 40
2.346613707119046
 50
294.06761667383222
 51
340.62866019109532
  0
ARC
  5
3BC3
  8
DETAIL
  6
CONTINUOUS
 62
     5
 10
6.6082136865322232
 20
55.168054431973943
 30
0.0
 40
26.049787578148639
 50
284.06514891355027
 51
304.04703811149489
  0
ARC
  5
3BCB
  8
DETAIL
  6
CONTINUOUS
 62
     5
 10
6.5829233641182627
 20
55.228350611201847
 30
0.0
 40
19.76446648262618
 50
284.02791387175068
 51
303.80693059016988
  0
ARC
  5
3BDC
  8
DETAIL
  6
CONTINUOUS
 62
     5
 10
-21.521167118417999
 20
90.130280984612597
 30
0.0
 40
69.014636363012201
 50
281.51195400206751
 51
290.91474267468749
  0
ARC
  5
3BE4
  8
DETAIL
  6
CONTINUOUS
 62
     5
 10
2.0778370448633781
 20
27.64177078293211
 30
0.0
 40
2.234047765507706
 50
297.6731115761508
 51
1.580396955287998
  0
ARC
  5
3BEC
  8
DETAIL
  6
CONTINUOUS
 62
     5
 10
6.8591199730719099
 20
29.28905366532771
 30
0.0
 40
1.9576123503143741
 50
294.82481077791692
 51
346.58320747490762
  0
ARC
  5
3BF4
  8
DETAIL
  6
CONTINUOUS
 62
     5
 10
6.7159543738117771
 20
29.153366054524259
 30
0.0
 40
2.726550415960709
 50
306.01218905525121
 51
356.96418896437331
  0
ARC
  5
3BFC
  8
DETAIL
  6
CONTINUOUS
 62
     5
 10
7.1754988974378593
 20
28.761948154408369
 30
0.0
 40
2.1444222078016111
 50
241.00043071250741
 51
302.2264987026137
  0
ARC
  5
3C04
  8
DETAIL
  6
CONTINUOUS
 62
     5
 10
53.518464340514441
 20
56.537273902289442
 30
0.0
 40
1.092476656438214
 50
241.43234519673399
 51
297.2751394920117
  0
ARC
  5
3C0C
  8
DETAIL
  6
CONTINUOUS
 62
     5
 10
58.827303381899682
 20
60.0674963766605
 30
0.0
 40
0.9701700991357091
 50
310.0828899031311
 51
359.47016575175468
  0
ARC
  5
3C14
  8
DETAIL
  6
CONTINUOUS
 62
     5
 10
52.741786535158901
 20
59.27298209100146
 30
0.0
 40
7.0992401415513324
 50
6.3528839098325181
 51
63.004846938163944
  0
ARC
  5
3C1C
  8
DETAIL
  6
CONTINUOUS
 62
     5
 10
55.628807506280253
 20
64.710498505109172
 30
0.0
 40
0.9494518506760352
 50
69.311343841970682
 51
119.8509690585485
  0
ARC
  5
3C24
  8
DETAIL
  6
CONTINUOUS
 62
     5
 10
48.265639508367457
 20
56.185439261273807
 30
0.0
 40
5.706872683848812
 50
6.9602796702023388
 51
64.82314051101369
  0
ARC
  5
3C2C
  8
DETAIL
  6
CONTINUOUS
 62
     5
 10
52.900672114408309
 20
56.747693184835413
 30
0.0
 40
1.037869930802594
 50
318.4775322980783
 51
7.15728633705276
  0
ARC
  5
3C34
  8
DETAIL
  6
CONTINUOUS
 62
     5
 10
50.453818678967068
 20
60.630155662821892
 30
0.0
 40
0.758818764259858
 50
71.59340242317802
 51
120.8482669244985
  0
ARC
  5
3C3C
  8
DETAIL
  6
CONTINUOUS
 62
     5
 10
50.467342727330511
 20
60.95992142204841
 30
0.0
 40
1.103610508863283
 50
132.38871900105769
 51
188.1089066353361
  0
ARC
  5
3C44
  8
DETAIL
  6
CONTINUOUS
 62
     5
 10
49.130369133341219
 20
46.775810253345057
 30
0.0
 40
3.129265376130955
 50
301.0017313281549
 51
4.029014809054936
  0
ARC
  5
3C4C
  8
DETAIL
  6
CONTINUOUS
 62
     5
 10
46.930401463980807
 20
46.783876300082198
 30
0.0
 40
5.3257126590014812
 50
2.2792290897802281
 51
56.206318502497901
  0
ARC
  5
3C54
  8
DETAIL
  6
CONTINUOUS
 62
     5
 10
48.457143469087413
 20
48.221056504603652
 30
0.0
 40
3.3155704145942462
 50
64.34571922918407
 51
102.1877873221303
  0
ARC
  5
3C5C
  8
DETAIL
  6
CONTINUOUS
 62
     5
 10
55.767909303307832
 20
64.92017611561829
 30
0.0
 40
16.792259904614241
 50
300.36592256403372
 51
13.3884188688773
  0
ARC
  5
3C64
  8
DETAIL
  6
CONTINUOUS
 62
     5
 10
56.911726843417682
 20
64.018768318875146
 30
0.0
 40
9.1611742343348901
 50
302.78596735711483
 51
3.775379315505941
  0
ARC
  5
3C6F
  8
DETAIL
  6
CONTINUOUS
 62
     5
 10
-158.018501885213
 20
-6.6667915339107591
 30
0.0
 40
17.932425490480082
 50
23.72795982225778
 51
44.924675042328637
  0
ARC
  5
3C77
  8
DETAIL
  6
CONTINUOUS
 62
     5
 10
-157.7248017661372
 20
-6.4215014041041441
 30
0.0
 40
11.20313310009411
 50
30.05518904945178
 51
43.47569099340528
  0
ARC
  5
3C7F
  8
DETAIL
  6
CONTINUOUS
 62
     5
 10
-161.63833047916751
 20
-24.621678950875751
 30
0.0
 40
15.37069249940712
 50
35.346331375076048
 51
90.159487474867831
  0
ARC
  5
3C87
  8
DETAIL
  6
CONTINUOUS
 62
     5
 10
-155.1098108054542
 20
-2.7622023623261511
 30
0.0
 40
6.6430618650536033
 50
57.565903096851578
 51
108.99340321756431
  0
ARC
  5
3C8F
  8
DETAIL
  6
CONTINUOUS
 62
     5
 10
-155.4385609757023
 20
-3.8155942130543261
 30
0.0
 40
14.06578781565638
 50
53.937473845619202
 51
74.739340129000425
  0
ARC
  5
3CA6
  8
DETAIL
  6
CONTINUOUS
 62
     5
 10
-163.18371616252051
 20
-6.0895594059950531
 30
0.0
 40
0.5014751380700603
 50
65.366170983439375
 51
188.96143467325041
  0
ARC
  5
3CB4
  8
DETAIL
  6
CONTINUOUS
 62
     5
 10
-80.636807310984764
 20
-6.158042102168336
 30
0.0
 40
11.88083042179654
 50
103.20746606723139
 51
149.06362122873671
  0
ARC
  5
3CBC
  8
DETAIL
  6
CONTINUOUS
 62
     5
 10
-76.655012885761153
 20
-11.512945242792931
 30
0.0
 40
24.530763897002959
 50
110.2197930590784
 51
143.1234686675194
  0
LINE
  5
3CC4
  8
DETAIL
  6
CONTINUOUS
 62
     5
 10
-131.21494999999999
 20
-53.443128500000498
 30
0.0
 11
-130.36266400000019
 21
-53.811615000000543
 31
0.0
  0
ARC
  5
3CCC
  8
DETAIL
  6
CONTINUOUS
 62
     5
 10
-131.2547523983101
 20
-53.513809692956492
 30
0.0
 40
0.0811175810100276
 50
60.615019265742163
 51
143.28168564169641
  0
LINE
  5
3CD5
  8
DETAIL
  6
CONTINUOUS
 62
     5
 10
-124.18055344825039
 20
-57.646086906968847
 30
0.0
 11
-124.8963656160045
 21
-57.054659255456713
 31
0.0
  0
ARC
  5
3CD6
  8
DETAIL
  6
CONTINUOUS
 62
     5
 10
-124.2253971610794
 20
-57.713682050053457
 30
0.0
 40
0.0811175810100276
 50
333.77239369298371
 51
56.43906006893917
  0
ARC
  5
3CEE
  8
DETAIL
  6
CONTINUOUS
 62
     5
 10
-121.0283467704228
 20
-44.385735422122657
 30
0.0
 40
13.45370560785322
 50
225.4805237232307
 51
252.78102451582001
  0
LINE
  5
493A
  8
NOTE
  6
CENTER
 62
     4
 10
-202.00000000000091
 20
-175.9999998684039
 30
0.0
 11
-202.00000000000091
 21
-154.00000013159419
 31
0.0
  0
ARC
  5
4940
  8
DETAIL
  6
CONTINUOUS
 62
     5
 10
-172.85475220568799
 20
-156.3380062056888
 30
0.0
 40
5.301751311212338
 50
154.4237962743866
 51
295.57620372561217
  0
ARC
  5
4946
  8
DETAIL
  6
CONTINUOUS
 62
     5
 10
-181.84829947658349
 20
-165.3315523073918
 30
0.0
 40
7.075322566400696
 50
188.2340286516652
 51
261.76598091503558
  0
ARC
  5
494C
  8
DETAIL
  6
CONTINUOUS
 62
     5
 10
-188.47794066271771
 20
-150.747990662718
 30
0.0
 40
9.0041213812840422
 50
358.78912117101288
 51
91.210878828982004
  0
ARC
  5
4985
  8
DETAIL
  6
CONTINUOUS
 62
     5
 10
-201.91261376701601
 20
-29.89748554628882
 30
0.0
 40
24.335440234325169
 50
106.01092713764901
 51
122.00377588764179
  0
ARC
  5
498B
  8
DETAIL
  6
CONTINUOUS
 62
     5
 10
-212.7041469220666
 20
-12.484942327056279
 30
0.0
 40
3.8508967785643109
 50
123.1473128094993
 51
259.40154525085768
  0
ARC
  5
4991
  8
DETAIL
  6
CONTINUOUS
 62
     5
 10
-210.31298677361829
 20
37.120169883224051
 30
0.0
 40
53.480203050953492
 50
266.6775715661978
 51
283.2632590988415
  0
ARC
  5
4997
  8
DETAIL
  6
CONTINUOUS
 62
     5
 10
-210.99855052651429
 20
39.907269173364611
 30
0.0
 40
50.007994789036402
 50
268.9314389423572
 51
283.67795284647781
  0
LINE
  5
4CBE
  8
NOTE
  6
CENTER
 62
     4
 10
80.0
 20
177.5
 30
0.0
 11
80.0
 21
162.5
 31
0.0
  0
LINE
  5
4CC4
  8
NOTE
  6
CENTER
 62
     4
 10
-199.75
 20
170.0
 30
0.0
 11
-180.25
 21
170.0
 31
0.0
  0
LINE
  5
4E3E
  8
DETAIL
  6
CONTINUOUS
 62
     5
 10
49.976620000000374
 20
-83.980950000000121
 30
0.0
 11
49.974981000000277
 21
-83.965790000000197
 31
0.0
  0
LINE
  5
4E3F
  8
DETAIL
  6
CONTINUOUS
 62
     5
 10
49.974981000000277
 20
-83.965790000000197
 30
0.0
 11
49.973334999999672
 21
-83.950592000000142
 31
0.0
  0
LINE
  5
4E40
  8
DETAIL
  6
CONTINUOUS
 62
     5
 10
49.973334999999672
 20
-83.950592000000142
 30
0.0
 11
49.973334999999672
 21
-83.950592000000142
 31
0.0
  0
LINE
  5
4E41
  8
DETAIL
  6
CONTINUOUS
 62
     5
 10
49.973334999999672
 20
-83.950592000000142
 30
0.0
 11
49.971679000000222
 21
-83.935355999999956
 31
0.0
  0
LINE
  5
4E42
  8
DETAIL
  6
CONTINUOUS
 62
     5
 10
49.971679000000222
 20
-83.935355999999956
 30
0.0
 11
49.970032000000167
 21
-83.920235999999903
 31
0.0
  0
LINE
  5
4E43
  8
DETAIL
  6
CONTINUOUS
 62
     5
 10
49.970032000000167
 20
-83.920235999999903
 30
0.0
 11
49.970032000000167
 21
-83.920235999999903
 31
0.0
  0
LINE
  5
4E44
  8
DETAIL
  6
CONTINUOUS
 62
     5
 10
49.970032000000167
 20
-83.920235999999903
 30
0.0
 11
49.968396999999641
 21
-83.905267000000094
 31
0.0
  0
LINE
  5
4E45
  8
DETAIL
  6
CONTINUOUS
 62
     5
 10
49.968396999999641
 20
-83.905267000000094
 30
0.0
 11
49.966709999999701
 21
-83.889881000000045
 31
0.0
  0
LINE
  5
4E46
  8
DETAIL
  6
CONTINUOUS
 62
     5
 10
49.966709999999701
 20
-83.889881000000045
 30
0.0
 11
49.966709999999701
 21
-83.889881000000045
 31
0.0
  0
LINE
  5
4E47
  8
DETAIL
  6
CONTINUOUS
 62
     5
 10
49.966709999999701
 20
-83.889881000000045
 30
0.0
 11
49.964954000000041
 21
-83.873926000000196
 31
0.0
  0
LINE
  5
4E48
  8
DETAIL
  6
CONTINUOUS
 62
     5
 10
49.964954000000041
 20
-83.873926000000196
 30
0.0
 11
49.963367000000282
 21
-83.859529000000293
 31
0.0
  0
LINE
  5
4E49
  8
DETAIL
  6
CONTINUOUS
 62
     5
 10
49.963367000000282
 20
-83.859529000000293
 30
0.0
 11
49.963367000000282
 21
-83.859529000000293
 31
0.0
  0
LINE
  5
4E4A
  8
DETAIL
  6
CONTINUOUS
 62
     5
 10
49.963367000000282
 20
-83.859529000000293
 30
0.0
 11
49.962011999999959
 21
-83.84726000000046
 31
0.0
  0
LINE
  5
4E4B
  8
DETAIL
  6
CONTINUOUS
 62
     5
 10
49.962011999999959
 20
-83.84726000000046
 30
0.0
 11
49.960000000000022
 21
-83.829179000000295
 31
0.0
  0
LINE
  5
4E4C
  8
DETAIL
  6
CONTINUOUS
 62
     5
 10
49.960000000000022
 20
-83.829179000000295
 30
0.0
 11
49.960000000000022
 21
-83.829179000000295
 31
0.0
  0
LINE
  5
4E4D
  8
DETAIL
  6
CONTINUOUS
 62
     5
 10
49.960000000000022
 20
-83.829179000000295
 30
0.0
 11
49.95657300000039
 21
-83.798584000000119
 31
0.0
  0
LINE
  5
4E4E
  8
DETAIL
  6
CONTINUOUS
 62
     5
 10
49.95657300000039
 20
-83.798584000000119
 30
0.0
 11
49.952470999999612
 21
-83.762218000000757
 31
0.0
  0
LINE
  5
4E4F
  8
DETAIL
  6
CONTINUOUS
 62
     5
 10
49.952470999999612
 20
-83.762218000000757
 30
0.0
 11
49.952470999999612
 21
-83.762218000000757
 31
0.0
  0
LINE
  5
4E50
  8
DETAIL
  6
CONTINUOUS
 62
     5
 10
49.952470999999612
 20
-83.762218000000757
 30
0.0
 11
49.948564999999682
 21
-83.728026000000696
 31
0.0
  0
LINE
  5
4E51
  8
DETAIL
  6
CONTINUOUS
 62
     5
 10
49.948564999999682
 20
-83.728026000000696
 30
0.0
 11
49.944762999999497
 21
-83.695278000000144
 31
0.0
  0
LINE
  5
4E52
  8
DETAIL
  6
CONTINUOUS
 62
     5
 10
49.944762999999497
 20
-83.695278000000144
 30
0.0
 11
49.944762999999497
 21
-83.695278000000144
 31
0.0
  0
LINE
  5
4E53
  8
DETAIL
  6
CONTINUOUS
 62
     5
 10
49.944762999999497
 20
-83.695278000000144
 30
0.0
 11
49.940818000000021
 21
-83.66180900000019
 31
0.0
  0
LINE
  5
4E54
  8
DETAIL
  6
CONTINUOUS
 62
     5
 10
49.940818000000021
 20
-83.66180900000019
 30
0.0
 11
49.93681800000013
 21
-83.62836600000081
 31
0.0
  0
LINE
  5
4E55
  8
DETAIL
  6
CONTINUOUS
 62
     5
 10
49.93681800000013
 20
-83.62836600000081
 30
0.0
 11
49.93681800000013
 21
-83.62836600000081
 31
0.0
  0
LINE
  5
4E56
  8
DETAIL
  6
CONTINUOUS
 62
     5
 10
49.93681800000013
 20
-83.62836600000081
 30
0.0
 11
49.9328429999996
 21
-83.595676000000807
 31
0.0
  0
LINE
  5
4E57
  8
DETAIL
  6
CONTINUOUS
 62
     5
 10
49.9328429999996
 20
-83.595676000000807
 30
0.0
 11
49.928582999999897
 21
-83.561490000000049
 31
0.0
  0
LINE
  5
4E58
  8
DETAIL
  6
CONTINUOUS
 62
     5
 10
49.928582999999897
 20
-83.561490000000049
 30
0.0
 11
49.928582999999897
 21
-83.561490000000049
 31
0.0
  0
LINE
  5
4E59
  8
DETAIL
  6
CONTINUOUS
 62
     5
 10
49.928582999999897
 20
-83.561490000000049
 30
0.0
 11
49.923934999999801
 21
-83.525061000000264
 31
0.0
  0
LINE
  5
4E5A
  8
DETAIL
  6
CONTINUOUS
 62
     5
 10
49.923934999999801
 20
-83.525061000000264
 30
0.0
 11
49.920000000000073
 21
-83.494658000000527
 31
0.0
  0
LINE
  5
4E5B
  8
DETAIL
  6
CONTINUOUS
 62
     5
 10
49.920000000000073
 20
-83.494658000000527
 30
0.0
 11
49.920000000000073
 21
-83.494658000000527
 31
0.0
  0
LINE
  5
4E5C
  8
DETAIL
  6
CONTINUOUS
 62
     5
 10
49.920000000000073
 20
-83.494658000000527
 30
0.0
 11
49.917717000000252
 21
-83.477297000000348
 31
0.0
  0
LINE
  5
4E5D
  8
DETAIL
  6
CONTINUOUS
 62
     5
 10
49.917717000000252
 20
-83.477297000000348
 30
0.0
 11
49.916196000000141
 21
-83.465998000000582
 31
0.0
  0
LINE
  5
4E5E
  8
DETAIL
  6
CONTINUOUS
 62
     5
 10
49.916196000000141
 20
-83.465998000000582
 30
0.0
 11
49.916196000000141
 21
-83.465998000000582
 31
0.0
  0
LINE
  5
4E5F
  8
DETAIL
  6
CONTINUOUS
 62
     5
 10
49.916196000000141
 20
-83.465998000000582
 30
0.0
 11
49.914367000000311
 21
-83.452490000000566
 31
0.0
  0
LINE
  5
4E60
  8
DETAIL
  6
CONTINUOUS
 62
     5
 10
49.914367000000311
 20
-83.452490000000566
 30
0.0
 11
49.912304999999819
 21
-83.437350000000123
 31
0.0
  0
LINE
  5
4E61
  8
DETAIL
  6
CONTINUOUS
 62
     5
 10
49.912304999999819
 20
-83.437350000000123
 30
0.0
 11
49.912304999999819
 21
-83.437350000000123
 31
0.0
  0
LINE
  5
4E62
  8
DETAIL
  6
CONTINUOUS
 62
     5
 10
49.912304999999819
 20
-83.437350000000123
 30
0.0
 11
49.910292999999903
 21
-83.422790000000518
 31
0.0
  0
LINE
  5
4E63
  8
DETAIL
  6
CONTINUOUS
 62
     5
 10
49.910292999999903
 20
-83.422790000000518
 30
0.0
 11
49.908317000000352
 21
-83.408715000000484
 31
0.0
  0
LINE
  5
4E64
  8
DETAIL
  6
CONTINUOUS
 62
     5
 10
49.908317000000352
 20
-83.408715000000484
 30
0.0
 11
49.908317000000352
 21
-83.408715000000484
 31
0.0
  0
LINE
  5
4E65
  8
DETAIL
  6
CONTINUOUS
 62
     5
 10
49.908317000000352
 20
-83.408715000000484
 30
0.0
 11
49.906302999999753
 21
-83.394548000000185
 31
0.0
  0
LINE
  5
4E66
  8
DETAIL
  6
CONTINUOUS
 62
     5
 10
49.906302999999753
 20
-83.394548000000185
 30
0.0
 11
49.904219000000012
 21
-83.380096000000734
 31
0.0
  0
LINE
  5
4E67
  8
DETAIL
  6
CONTINUOUS
 62
     5
 10
49.904219000000012
 20
-83.380096000000734
 30
0.0
 11
49.904219000000012
 21
-83.380096000000734
 31
0.0
  0
LINE
  5
4E68
  8
DETAIL
  6
CONTINUOUS
 62
     5
 10
49.904219000000012
 20
-83.380096000000734
 30
0.0
 11
49.902073999999601
 21
-83.365455000000125
 31
0.0
  0
LINE
  5
4E69
  8
DETAIL
  6
CONTINUOUS
 62
     5
 10
49.902073999999601
 20
-83.365455000000125
 30
0.0
 11
49.899999999999622
 21
-83.351494000000457
 31
0.0
  0
LINE
  5
4E6A
  8
DETAIL
  6
CONTINUOUS
 62
     5
 10
49.899999999999622
 20
-83.351494000000457
 30
0.0
 11
49.899999999999622
 21
-83.351494000000457
 31
0.0
  0
LINE
  5
4E6B
  8
DETAIL
  6
CONTINUOUS
 62
     5
 10
49.899999999999622
 20
-83.351494000000457
 30
0.0
 11
49.898102000000108
 21
-83.338913000000503
 31
0.0
  0
LINE
  5
4E6C
  8
DETAIL
  6
CONTINUOUS
 62
     5
 10
49.898102000000108
 20
-83.338913000000503
 30
0.0
 11
49.896273999999721
 21
-83.326986000000034
 31
0.0
  0
LINE
  5
4E6D
  8
DETAIL
  6
CONTINUOUS
 62
     5
 10
49.896273999999721
 20
-83.326986000000034
 30
0.0
 11
49.896273999999721
 21
-83.326986000000034
 31
0.0
  0
LINE
  5
4E6E
  8
DETAIL
  6
CONTINUOUS
 62
     5
 10
49.896273999999721
 20
-83.326986000000034
 30
0.0
 11
49.894384999999602
 21
-83.314846000000188
 31
0.0
  0
LINE
  5
4E6F
  8
DETAIL
  6
CONTINUOUS
 62
     5
 10
49.894384999999602
 20
-83.314846000000188
 30
0.0
 11
49.892431000000201
 21
-83.302497000000585
 31
0.0
  0
LINE
  5
4E70
  8
DETAIL
  6
CONTINUOUS
 62
     5
 10
49.892431000000201
 20
-83.302497000000585
 30
0.0
 11
49.892431000000201
 21
-83.302497000000585
 31
0.0
  0
LINE
  5
4E71
  8
DETAIL
  6
CONTINUOUS
 62
     5
 10
49.892431000000201
 20
-83.302497000000585
 30
0.0
 11
49.890440999999541
 21
-83.290159000000145
 31
0.0
  0
LINE
  5
4E72
  8
DETAIL
  6
CONTINUOUS
 62
     5
 10
49.890440999999541
 20
-83.290159000000145
 30
0.0
 11
49.888450000000368
 21
-83.278031000000709
 31
0.0
  0
LINE
  5
4E73
  8
DETAIL
  6
CONTINUOUS
 62
     5
 10
49.888450000000368
 20
-83.278031000000709
 30
0.0
 11
49.888450000000368
 21
-83.278031000000709
 31
0.0
  0
LINE
  5
4E74
  8
DETAIL
  6
CONTINUOUS
 62
     5
 10
49.888450000000368
 20
-83.278031000000709
 30
0.0
 11
49.886457999999926
 21
-83.266108000000699
 31
0.0
  0
LINE
  5
4E75
  8
DETAIL
  6
CONTINUOUS
 62
     5
 10
49.886457999999926
 20
-83.266108000000699
 30
0.0
 11
49.884312999999537
 21
-83.253590000000244
 31
0.0
  0
LINE
  5
4E76
  8
DETAIL
  6
CONTINUOUS
 62
     5
 10
49.884312999999537
 20
-83.253590000000244
 30
0.0
 11
49.884312999999537
 21
-83.253590000000244
 31
0.0
  0
LINE
  5
4E77
  8
DETAIL
  6
CONTINUOUS
 62
     5
 10
49.884312999999537
 20
-83.253590000000244
 30
0.0
 11
49.881976999999999
 21
-83.240278000000188
 31
0.0
  0
LINE
  5
4E78
  8
DETAIL
  6
CONTINUOUS
 62
     5
 10
49.881976999999999
 20
-83.240278000000188
 30
0.0
 11
49.880000000000102
 21
-83.229178999999931
 31
0.0
  0
LINE
  5
4E79
  8
DETAIL
  6
CONTINUOUS
 62
     5
 10
49.880000000000102
 20
-83.229178999999931
 30
0.0
 11
49.880000000000102
 21
-83.229178999999931
 31
0.0
  0
LINE
  5
4E7A
  8
DETAIL
  6
CONTINUOUS
 62
     5
 10
49.880000000000102
 20
-83.229178999999931
 30
0.0
 11
49.878851999999831
 21
-83.222834000000148
 31
0.0
  0
LINE
  5
4E7B
  8
DETAIL
  6
CONTINUOUS
 62
     5
 10
49.878851999999831
 20
-83.222834000000148
 30
0.0
 11
49.878085999999712
 21
-83.218696000000818
 31
0.0
  0
LINE
  5
4E7C
  8
DETAIL
  6
CONTINUOUS
 62
     5
 10
49.878085999999712
 20
-83.218696000000818
 30
0.0
 11
49.878085999999712
 21
-83.218696000000818
 31
0.0
  0
LINE
  5
4E7D
  8
DETAIL
  6
CONTINUOUS
 62
     5
 10
49.878085999999712
 20
-83.218696000000818
 30
0.0
 11
49.877166999999638
 21
-83.213755000000674
 31
0.0
  0
LINE
  5
4E7E
  8
DETAIL
  6
CONTINUOUS
 62
     5
 10
49.877166999999638
 20
-83.213755000000674
 30
0.0
 11
49.876132999999747
 21
-83.208221000000776
 31
0.0
  0
LINE
  5
4E7F
  8
DETAIL
  6
CONTINUOUS
 62
     5
 10
49.876132999999747
 20
-83.208221000000776
 30
0.0
 11
49.876132999999747
 21
-83.208221000000776
 31
0.0
  0
LINE
  5
4E80
  8
DETAIL
  6
CONTINUOUS
 62
     5
 10
49.876132999999747
 20
-83.208221000000776
 30
0.0
 11
49.875124999999571
 21
-83.202900000000184
 31
0.0
  0
LINE
  5
4E81
  8
DETAIL
  6
CONTINUOUS
 62
     5
 10
49.875124999999571
 20
-83.202900000000184
 30
0.0
 11
49.874136000000362
 21
-83.197753000000375
 31
0.0
  0
LINE
  5
4E82
  8
DETAIL
  6
CONTINUOUS
 62
     5
 10
49.874136000000362
 20
-83.197753000000375
 30
0.0
 11
49.874136000000362
 21
-83.197753000000375
 31
0.0
  0
LINE
  5
4E83
  8
DETAIL
  6
CONTINUOUS
 62
     5
 10
49.874136000000362
 20
-83.197753000000375
 30
0.0
 11
49.873129999999932
 21
-83.192570000000146
 31
0.0
  0
LINE
  5
4E84
  8
DETAIL
  6
CONTINUOUS
 62
     5
 10
49.873129999999932
 20
-83.192570000000146
 30
0.0
 11
49.87209299999995
 21
-83.187295000000631
 31
0.0
  0
LINE
  5
4E85
  8
DETAIL
  6
CONTINUOUS
 62
     5
 10
49.87209299999995
 20
-83.187295000000631
 30
0.0
 11
49.87209299999995
 21
-83.187295000000631
 31
0.0
  0
LINE
  5
4E86
  8
DETAIL
  6
CONTINUOUS
 62
     5
 10
49.87209299999995
 20
-83.187295000000631
 30
0.0
 11
49.871031999999992
 21
-83.181969000000194
 31
0.0
  0
LINE
  5
4E87
  8
DETAIL
  6
CONTINUOUS
 62
     5
 10
49.871031999999992
 20
-83.181969000000194
 30
0.0
 11
49.869999999999898
 21
-83.176848000000064
 31
0.0
  0
LINE
  5
4E88
  8
DETAIL
  6
CONTINUOUS
 62
     5
 10
49.869999999999898
 20
-83.176848000000064
 30
0.0
 11
49.869999999999898
 21
-83.176848000000064
 31
0.0
  0
LINE
  5
4E89
  8
DETAIL
  6
CONTINUOUS
 62
     5
 10
49.869999999999898
 20
-83.176848000000064
 30
0.0
 11
49.869037999999819
 21
-83.172139000000243
 31
0.0
  0
LINE
  5
4E8A
  8
DETAIL
  6
CONTINUOUS
 62
     5
 10
49.869037999999819
 20
-83.172139000000243
 30
0.0
 11
49.86810400000013
 21
-83.167622000000819
 31
0.0
  0
LINE
  5
4E8B
  8
DETAIL
  6
CONTINUOUS
 62
     5
 10
49.86810400000013
 20
-83.167622000000819
 30
0.0
 11
49.86810400000013
 21
-83.167622000000819
 31
0.0
  0
LINE
  5
4E8C
  8
DETAIL
  6
CONTINUOUS
 62
     5
 10
49.86810400000013
 20
-83.167622000000819
 30
0.0
 11
49.867143999999819
 21
-83.163039000000026
 31
0.0
  0
LINE
  5
4E8D
  8
DETAIL
  6
CONTINUOUS
 62
     5
 10
49.867143999999819
 20
-83.163039000000026
 30
0.0
 11
49.86616099999992
 21
-83.158405000000101
 31
0.0
  0
LINE
  5
4E8E
  8
DETAIL
  6
CONTINUOUS
 62
     5
 10
49.86616099999992
 20
-83.158405000000101
 30
0.0
 11
49.86616099999992
 21
-83.158405000000101
 31
0.0
  0
LINE
  5
4E8F
  8
DETAIL
  6
CONTINUOUS
 62
     5
 10
49.86616099999992
 20
-83.158405000000101
 30
0.0
 11
49.865166999999929
 21
-83.153786000000764
 31
0.0
  0
LINE
  5
4E90
  8
DETAIL
  6
CONTINUOUS
 62
     5
 10
49.865166999999929
 20
-83.153786000000764
 30
0.0
 11
49.864166000000303
 21
-83.149198000000069
 31
0.0
  0
LINE
  5
4E91
  8
DETAIL
  6
CONTINUOUS
 62
     5
 10
49.864166000000303
 20
-83.149198000000069
 30
0.0
 11
49.864166000000303
 21
-83.149198000000069
 31
0.0
  0
LINE
  5
4E92
  8
DETAIL
  6
CONTINUOUS
 62
     5
 10
49.864166000000303
 20
-83.149198000000069
 30
0.0
 11
49.863153999999639
 21
-83.144628000000026
 31
0.0
  0
LINE
  5
4E93
  8
DETAIL
  6
CONTINUOUS
 62
     5
 10
49.863153999999639
 20
-83.144628000000026
 30
0.0
 11
49.862113999999558
 21
-83.140003000000434
 31
0.0
  0
LINE
  5
4E94
  8
DETAIL
  6
CONTINUOUS
 62
     5
 10
49.862113999999558
 20
-83.140003000000434
 30
0.0
 11
49.862113999999558
 21
-83.140003000000434
 31
0.0
  0
LINE
  5
4E95
  8
DETAIL
  6
CONTINUOUS
 62
     5
 10
49.862113999999558
 20
-83.140003000000434
 30
0.0
 11
49.861041000000107
 21
-83.135311000000002
 31
0.0
  0
LINE
  5
4E96
  8
DETAIL
  6
CONTINUOUS
 62
     5
 10
49.861041000000107
 20
-83.135311000000002
 30
0.0
 11
49.859999999999673
 21
-83.130820000000284
 31
0.0
  0
LINE
  5
4E97
  8
DETAIL
  6
CONTINUOUS
 62
     5
 10
49.859999999999673
 20
-83.130820000000284
 30
0.0
 11
49.859999999999673
 21
-83.130820000000284
 31
0.0
  0
LINE
  5
4E98
  8
DETAIL
  6
CONTINUOUS
 62
     5
 10
49.859999999999673
 20
-83.130820000000284
 30
0.0
 11
49.859043000000383
 21
-83.126756000000583
 31
0.0
  0
LINE
  5
4E99
  8
DETAIL
  6
CONTINUOUS
 62
     5
 10
49.859043000000383
 20
-83.126756000000583
 30
0.0
 11
49.858119000000443
 21
-83.122894000000088
 31
0.0
  0
LINE
  5
4E9A
  8
DETAIL
  6
CONTINUOUS
 62
     5
 10
49.858119000000443
 20
-83.122894000000088
 30
0.0
 11
49.858119000000443
 21
-83.122894000000088
 31
0.0
  0
LINE
  5
4E9B
  8
DETAIL
  6
CONTINUOUS
 62
     5
 10
49.858119000000443
 20
-83.122894000000088
 30
0.0
 11
49.85716500000035
 21
-83.11896400000019
 31
0.0
  0
LINE
  5
4E9C
  8
DETAIL
  6
CONTINUOUS
 62
     5
 10
49.85716500000035
 20
-83.11896400000019
 30
0.0
 11
49.856182999999881
 21
-83.114981000000625
 31
0.0
  0
LINE
  5
4E9D
  8
DETAIL
  6
CONTINUOUS
 62
     5
 10
49.856182999999881
 20
-83.114981000000625
 30
0.0
 11
49.856182999999881
 21
-83.114981000000625
 31
0.0
  0
LINE
  5
4E9E
  8
DETAIL
  6
CONTINUOUS
 62
     5
 10
49.856182999999881
 20
-83.114981000000625
 30
0.0
 11
49.855188999999882
 21
-83.111016000000731
 31
0.0
  0
LINE
  5
4E9F
  8
DETAIL
  6
CONTINUOUS
 62
     5
 10
49.855188999999882
 20
-83.111016000000731
 30
0.0
 11
49.854188000000249
 21
-83.107085000000524
 31
0.0
  0
LINE
  5
4EA0
  8
DETAIL
  6
CONTINUOUS
 62
     5
 10
49.854188000000249
 20
-83.107085000000524
 30
0.0
 11
49.854188000000249
 21
-83.107085000000524
 31
0.0
  0
LINE
  5
4EA1
  8
DETAIL
  6
CONTINUOUS
 62
     5
 10
49.854188000000249
 20
-83.107085000000524
 30
0.0
 11
49.853173999999854
 21
-83.103173000000425
 31
0.0
  0
LINE
  5
4EA2
  8
DETAIL
  6
CONTINUOUS
 62
     5
 10
49.853173999999854
 20
-83.103173000000425
 30
0.0
 11
49.852128000000448
 21
-83.099210000000284
 31
0.0
  0
LINE
  5
4EA3
  8
DETAIL
  6
CONTINUOUS
 62
     5
 10
49.852128000000448
 20
-83.099210000000284
 30
0.0
 11
49.852128000000448
 21
-83.099210000000284
 31
0.0
  0
LINE
  5
4EA4
  8
DETAIL
  6
CONTINUOUS
 62
     5
 10
49.852128000000448
 20
-83.099210000000284
 30
0.0
 11
49.85104500000034
 21
-83.095181000000593
 31
0.0
  0
LINE
  5
4EA5
  8
DETAIL
  6
CONTINUOUS
 62
     5
 10
49.85104500000034
 20
-83.095181000000593
 30
0.0
 11
49.850000000000357
 21
-83.091359000000026
 31
0.0
  0
LINE
  5
4EA6
  8
DETAIL
  6
CONTINUOUS
 62
     5
 10
49.850000000000357
 20
-83.091359000000026
 30
0.0
 11
49.850000000000357
 21
-83.091359000000026
 31
0.0
  0
LINE
  5
4EA7
  8
DETAIL
  6
CONTINUOUS
 62
     5
 10
49.850000000000357
 20
-83.091359000000026
 30
0.0
 11
49.849057999999779
 21
-83.087976000000708
 31
0.0
  0
LINE
  5
4EA8
  8
DETAIL
  6
CONTINUOUS
 62
     5
 10
49.849057999999779
 20
-83.087976000000708
 30
0.0
 11
49.848157000000342
 21
-83.084800000000541
 31
0.0
  0
LINE
  5
4EA9
  8
DETAIL
  6
CONTINUOUS
 62
     5
 10
49.848157000000342
 20
-83.084800000000541
 30
0.0
 11
49.848157000000342
 21
-83.084800000000541
 31
0.0
  0
LINE
  5
4EAA
  8
DETAIL
  6
CONTINUOUS
 62
     5
 10
49.848157000000342
 20
-83.084800000000541
 30
0.0
 11
49.847219999999652
 21
-83.081556000000091
 31
0.0
  0
LINE
  5
4EAB
  8
DETAIL
  6
CONTINUOUS
 62
     5
 10
49.847219999999652
 20
-83.081556000000091
 30
0.0
 11
49.846249000000171
 21
-83.07825800000046
 31
0.0
  0
LINE
  5
4EAC
  8
DETAIL
  6
CONTINUOUS
 62
     5
 10
49.846249000000171
 20
-83.07825800000046
 30
0.0
 11
49.846249000000171
 21
-83.07825800000046
 31
0.0
  0
LINE
  5
4EAD
  8
DETAIL
  6
CONTINUOUS
 62
     5
 10
49.846249000000171
 20
-83.07825800000046
 30
0.0
 11
49.845261999999821
 21
-83.074980000000295
 31
0.0
  0
LINE
  5
4EAE
  8
DETAIL
  6
CONTINUOUS
 62
     5
 10
49.845261999999821
 20
-83.074980000000295
 30
0.0
 11
49.844261999999617
 21
-83.071734000000063
 31
0.0
  0
LINE
  5
4EAF
  8
DETAIL
  6
CONTINUOUS
 62
     5
 10
49.844261999999617
 20
-83.071734000000063
 30
0.0
 11
49.844261999999617
 21
-83.071734000000063
 31
0.0
  0
LINE
  5
4EB0
  8
DETAIL
  6
CONTINUOUS
 62
     5
 10
49.844261999999617
 20
-83.071734000000063
 30
0.0
 11
49.843246000000363
 21
-83.068506999999954
 31
0.0
  0
LINE
  5
4EB1
  8
DETAIL
  6
CONTINUOUS
 62
     5
 10
49.843246000000363
 20
-83.068506999999954
 30
0.0
 11
49.842184000000103
 21
-83.065226000000635
 31
0.0
  0
LINE
  5
4EB2
  8
DETAIL
  6
CONTINUOUS
 62
     5
 10
49.842184000000103
 20
-83.065226000000635
 30
0.0
 11
49.842184000000103
 21
-83.065226000000635
 31
0.0
  0
LINE
  5
4EB3
  8
DETAIL
  6
CONTINUOUS
 62
     5
 10
49.842184000000103
 20
-83.065226000000635
 30
0.0
 11
49.8410700000004
 21
-83.061876000000652
 31
0.0
  0
LINE
  5
4EB4
  8
DETAIL
  6
CONTINUOUS
 62
     5
 10
49.8410700000004
 20
-83.061876000000652
 30
0.0
 11
49.840000000000153
 21
-83.058732000000404
 31
0.0
  0
LINE
  5
4EB5
  8
DETAIL
  6
CONTINUOUS
 62
     5
 10
49.840000000000153
 20
-83.058732000000404
 30
0.0
 11
49.840000000000153
 21
-83.058732000000404
 31
0.0
  0
LINE
  5
4EB6
  8
DETAIL
  6
CONTINUOUS
 62
     5
 10
49.840000000000153
 20
-83.058732000000404
 30
0.0
 11
49.839055000000371
 21
-83.056024000000434
 31
0.0
  0
LINE
  5
4EB7
  8
DETAIL
  6
CONTINUOUS
 62
     5
 10
49.839055000000371
 20
-83.056024000000434
 30
0.0
 11
49.838158999999891
 21
-83.053522000000129
 31
0.0
  0
LINE
  5
4EB8
  8
DETAIL
  6
CONTINUOUS
 62
     5
 10
49.838158999999891
 20
-83.053522000000129
 30
0.0
 11
49.838158999999891
 21
-83.053522000000129
 31
0.0
  0
LINE
  5
4EB9
  8
DETAIL
  6
CONTINUOUS
 62
     5
 10
49.838158999999891
 20
-83.053522000000129
 30
0.0
 11
49.83721899999999
 21
-83.050956000000028
 31
0.0
  0
LINE
  5
4EBA
  8
DETAIL
  6
CONTINUOUS
 62
     5
 10
49.83721899999999
 20
-83.050956000000028
 30
0.0
 11
49.836239000000191
 21
-83.048341000000619
 31
0.0
  0
LINE
  5
4EBB
  8
DETAIL
  6
CONTINUOUS
 62
     5
 10
49.836239000000191
 20
-83.048341000000619
 30
0.0
 11
49.836239000000191
 21
-83.048341000000619
 31
0.0
  0
LINE
  5
4EBC
  8
DETAIL
  6
CONTINUOUS
 62
     5
 10
49.836239000000191
 20
-83.048341000000619
 30
0.0
 11
49.835243999999861
 21
-83.045754000000656
 31
0.0
  0
LINE
  5
4EBD
  8
DETAIL
  6
CONTINUOUS
 62
     5
 10
49.835243999999861
 20
-83.045754000000656
 30
0.0
 11
49.834240999999572
 21
-83.043209000000374
 31
0.0
  0
LINE
  5
4EBE
  8
DETAIL
  6
CONTINUOUS
 62
     5
 10
49.834240999999572
 20
-83.043209000000374
 30
0.0
 11
49.834240999999572
 21
-83.043209000000374
 31
0.0
  0
LINE
  5
4EBF
  8
DETAIL
  6
CONTINUOUS
 62
     5
 10
49.834240999999572
 20
-83.043209000000374
 30
0.0
 11
49.83322299999962
 21
-83.040695000000596
 31
0.0
  0
LINE
  5
4EC0
  8
DETAIL
  6
CONTINUOUS
 62
     5
 10
49.83322299999962
 20
-83.040695000000596
 30
0.0
 11
49.832161000000241
 21
-83.038147000000194
 31
0.0
  0
LINE
  5
4EC1
  8
DETAIL
  6
CONTINUOUS
 62
     5
 10
49.832161000000241
 20
-83.038147000000194
 30
0.0
 11
49.832161000000241
 21
-83.038147000000194
 31
0.0
  0
LINE
  5
4EC2
  8
DETAIL
  6
CONTINUOUS
 62
     5
 10
49.832161000000241
 20
-83.038147000000194
 30
0.0
 11
49.83104800000001
 21
-83.035555000000372
 31
0.0
  0
LINE
  5
4EC3
  8
DETAIL
  6
CONTINUOUS
 62
     5
 10
49.83104800000001
 20
-83.035555000000372
 30
0.0
 11
49.829999999999927
 21
-83.033174000000145
 31
0.0
  0
LINE
  5
4EC4
  8
DETAIL
  6
CONTINUOUS
 62
     5
 10
49.829999999999927
 20
-83.033174000000145
 30
0.0
 11
49.829999999999927
 21
-83.033174000000145
 31
0.0
  0
LINE
  5
4EC5
  8
DETAIL
  6
CONTINUOUS
 62
     5
 10
49.829999999999927
 20
-83.033174000000145
 30
0.0
 11
49.829112999999779
 21
-83.031213000000207
 31
0.0
  0
LINE
  5
4EC6
  8
DETAIL
  6
CONTINUOUS
 62
     5
 10
49.829112999999779
 20
-83.031213000000207
 30
0.0
 11
49.828289000000041
 21
-83.029452000000674
 31
0.0
  0
LINE
  5
4EC7
  8
DETAIL
  6
CONTINUOUS
 62
     5
 10
49.828289000000041
 20
-83.029452000000674
 30
0.0
 11
49.828289000000041
 21
-83.029452000000674
 31
0.0
  0
LINE
  5
4EC8
  8
DETAIL
  6
CONTINUOUS
 62
     5
 10
49.828289000000041
 20
-83.029452000000674
 30
0.0
 11
49.827409999999858
 21
-83.027633000000606
 31
0.0
  0
LINE
  5
4EC9
  8
DETAIL
  6
CONTINUOUS
 62
     5
 10
49.827409999999858
 20
-83.027633000000606
 30
0.0
 11
49.826482000000382
 21
-83.025774000000638
 31
0.0
  0
LINE
  5
4ECA
  8
DETAIL
  6
CONTINUOUS
 62
     5
 10
49.826482000000382
 20
-83.025774000000638
 30
0.0
 11
49.826482000000382
 21
-83.025774000000638
 31
0.0
  0
LINE
  5
4ECB
  8
DETAIL
  6
CONTINUOUS
 62
     5
 10
49.826482000000382
 20
-83.025774000000638
 30
0.0
 11
49.825526999999951
 21
-83.023942000000716
 31
0.0
  0
LINE
  5
4ECC
  8
DETAIL
  6
CONTINUOUS
 62
     5
 10
49.825526999999951
 20
-83.023942000000716
 30
0.0
 11
49.824529999999847
 21
-83.022120000000541
 31
0.0
  0
LINE
  5
4ECD
  8
DETAIL
  6
CONTINUOUS
 62
     5
 10
49.824529999999847
 20
-83.022120000000541
 30
0.0
 11
49.824529999999847
 21
-83.022120000000541
 31
0.0
  0
LINE
  5
4ECE
  8
DETAIL
  6
CONTINUOUS
 62
     5
 10
49.824529999999847
 20
-83.022120000000541
 30
0.0
 11
49.823473999999798
 21
-83.020283000000703
 31
0.0
  0
LINE
  5
4ECF
  8
DETAIL
  6
CONTINUOUS
 62
     5
 10
49.823473999999798
 20
-83.020283000000703
 30
0.0
 11
49.822385000000402
 21
-83.018470000000903
 31
0.0
  0
LINE
  5
4ED0
  8
DETAIL
  6
CONTINUOUS
 62
     5
 10
49.822385000000402
 20
-83.018470000000903
 30
0.0
 11
49.822385000000402
 21
-83.018470000000903
 31
0.0
  0
LINE
  5
4ED1
  8
DETAIL
  6
CONTINUOUS
 62
     5
 10
49.822385000000402
 20
-83.018470000000903
 30
0.0
 11
49.821265999999923
 21
-83.016696000000579
 31
0.0
  0
LINE
  5
4ED2
  8
DETAIL
  6
CONTINUOUS
 62
     5
 10
49.821265999999923
 20
-83.016696000000579
 30
0.0
 11
49.819999999999702
 21
-83.014805000000706
 31
0.0
  0
LINE
  5
4ED3
  8
DETAIL
  6
CONTINUOUS
 62
     5
 10
49.819999999999702
 20
-83.014805000000706
 30
0.0
 11
49.819999999999702
 21
-83.014805000000706
 31
0.0
  0
LINE
  5
4ED4
  8
DETAIL
  6
CONTINUOUS
 62
     5
 10
49.819999999999702
 20
-83.014805000000706
 30
0.0
 11
49.81848400000036
 21
-83.012672000000734
 31
0.0
  0
LINE
  5
4ED5
  8
DETAIL
  6
CONTINUOUS
 62
     5
 10
49.81848400000036
 20
-83.012672000000734
 30
0.0
 11
49.81679600000006
 21
-83.010463000000499
 31
0.0
  0
LINE
  5
4ED6
  8
DETAIL
  6
CONTINUOUS
 62
     5
 10
49.81679600000006
 20
-83.010463000000499
 30
0.0
 11
49.81679600000006
 21
-83.010463000000499
 31
0.0
  0
LINE
  5
4ED7
  8
DETAIL
  6
CONTINUOUS
 62
     5
 10
49.81679600000006
 20
-83.010463000000499
 30
0.0
 11
49.81503299999985
 21
-83.008372000000236
 31
0.0
  0
LINE
  5
4ED8
  8
DETAIL
  6
CONTINUOUS
 62
     5
 10
49.81503299999985
 20
-83.008372000000236
 30
0.0
 11
49.813188000000068
 21
-83.006441000000464
 31
0.0
  0
LINE
  5
4ED9
  8
DETAIL
  6
CONTINUOUS
 62
     5
 10
49.813188000000068
 20
-83.006441000000464
 30
0.0
 11
49.813188000000068
 21
-83.006441000000464
 31
0.0
  0
LINE
  5
4EDA
  8
DETAIL
  6
CONTINUOUS
 62
     5
 10
49.813188000000068
 20
-83.006441000000464
 30
0.0
 11
49.811235999999532
 21
-83.004676000000444
 31
0.0
  0
LINE
  5
4EDB
  8
DETAIL
  6
CONTINUOUS
 62
     5
 10
49.811235999999532
 20
-83.004676000000444
 30
0.0
 11
49.809183000000303
 21
-83.003110000000547
 31
0.0
  0
LINE
  5
4EDC
  8
DETAIL
  6
CONTINUOUS
 62
     5
 10
49.809183000000303
 20
-83.003110000000547
 30
0.0
 11
49.809183000000303
 21
-83.003110000000547
 31
0.0
  0
LINE
  5
4EDD
  8
DETAIL
  6
CONTINUOUS
 62
     5
 10
49.809183000000303
 20
-83.003110000000547
 30
0.0
 11
49.807036000000153
 21
-83.001795000000115
 31
0.0
  0
LINE
  5
4EDE
  8
DETAIL
  6
CONTINUOUS
 62
     5
 10
49.807036000000153
 20
-83.001795000000115
 30
0.0
 11
49.804785000000258
 21
-83.000839000000269
 31
0.0
  0
LINE
  5
4EDF
  8
DETAIL
  6
CONTINUOUS
 62
     5
 10
49.804785000000258
 20
-83.000839000000269
 30
0.0
 11
49.804785000000258
 21
-83.000839000000269
 31
0.0
  0
LINE
  5
4EE0
  8
DETAIL
  6
CONTINUOUS
 62
     5
 10
49.804785000000258
 20
-83.000839000000269
 30
0.0
 11
49.802423000000111
 21
-83.000300000000607
 31
0.0
  0
LINE
  5
4EE1
  8
DETAIL
  6
CONTINUOUS
 62
     5
 10
49.802423000000111
 20
-83.000300000000607
 30
0.0
 11
49.800000000000182
 21
-83.0
 31
0.0
  0
LINE
  5
4FD8
  8
DETAIL
  6
CONTINUOUS
 62
     5
 10
-70.0
 20
-110.8000000000002
 30
0.0
 11
-97.700000547291339
 21
-130.50000110927971
 31
0.0
  0
ARC
  5
4FF1
  8
DETAIL
  6
CONTINUOUS
 62
     5
 10
54.050000000000139
 20
-131.1613753896724
 30
0.0
 40
2.5
 50
0.0
 51
79.915362999996603
  0
LINE
  5
4FF2
  8
DETAIL
  6
CONTINUOUS
 62
     5
 10
56.550000000000139
 20
-166.23862458367969
 30
0.0
 11
56.550000000000139
 21
-131.1613753896724
 31
0.0
  0
ARC
  5
4FF3
  8
DETAIL
  6
CONTINUOUS
 62
     5
 10
54.050000000000139
 20
-166.23862458367969
 30
0.0
 40
2.5
 50
280.0846370000034
 51
0.0
  0
LINE
  5
4FF4
  8
DETAIL
  6
CONTINUOUS
 62
     5
 10
54.487757050288522
 20
-168.69999999999999
 30
0.0
 11
52.300000000000182
 21
-168.69999999999999
 31
0.0
  0
LINE
  5
4FF5
  8
DETAIL
  6
CONTINUOUS
 62
     5
 10
54.48775685024242
 20
-128.69999997335211
 30
0.0
 11
52.299999799954087
 21
-128.69999997335211
 31
0.0
  0
LINE
  5
5015
  8
DETAIL
  6
CONTINUOUS
 62
     5
 10
58.500000727586652
 20
-130.0
 30
0.0
 11
58.500000727586652
 21
-131.75
 31
0.0
  0
LINE
  5
5016
  8
DETAIL
  6
CONTINUOUS
 62
     5
 10
58.500000727586652
 20
-127.25
 30
0.0
 11
58.500000727586652
 21
-129.0
 31
0.0
  0
LINE
  5
5017
  8
DETAIL
  6
CONTINUOUS
 62
     5
 10
57.500000727586659
 20
-129.0
 30
0.0
 11
57.500000727586659
 21
-127.25
 31
0.0
  0
LINE
  5
5018
  8
DETAIL
  6
CONTINUOUS
 62
     5
 10
57.500000727586659
 20
-131.75
 30
0.0
 11
57.500000727586659
 21
-130.0
 31
0.0
  0
LINE
  5
5019
  8
DETAIL
  6
CONTINUOUS
 62
     5
 10
55.750000727586681
 20
-129.32834578647299
 30
0.0
 11
55.750000727586681
 21
-129.0
 31
0.0
  0
LINE
  5
501A
  8
DETAIL
  6
CONTINUOUS
 62
     5
 10
57.500000727586659
 20
-127.25
 30
0.0
 11
58.500000727586652
 21
-127.25
 31
0.0
  0
LINE
  5
501C
  8
DETAIL
  6
CONTINUOUS
 62
     5
 10
55.750000727586681
 20
-129.0
 30
0.0
 11
57.500000727586659
 21
-129.0
 31
0.0
  0
LINE
  5
501D
  8
DETAIL
  6
CONTINUOUS
 62
     5
 10
57.500000727586659
 20
-130.0
 30
0.0
 11
56.263867024973209
 21
-130.0
 31
0.0
  0
LINE
  5
501F
  8
DETAIL
  6
CONTINUOUS
 62
     5
 10
58.500000727586652
 20
-131.75
 30
0.0
 11
57.500000727586659
 21
-131.75
 31
0.0
  0
LINE
  5
5020
  8
DETAIL
  6
CONTINUOUS
 62
     5
 10
58.500000727586652
 20
-130.0
 30
0.0
 11
60.250000727586666
 21
-130.0
 31
0.0
  0
LINE
  5
5021
  8
DETAIL
  6
CONTINUOUS
 62
     5
 10
60.250000727586666
 20
-129.0
 30
0.0
 11
58.500000727586652
 21
-129.0
 31
0.0
  0
LINE
  5
5022
  8
DETAIL
  6
CONTINUOUS
 62
     5
 10
60.250000727586666
 20
-130.0
 30
0.0
 11
60.250000727586666
 21
-129.0
 31
0.0
  0
LINE
  5
5037
  8
DETAIL
  6
CONTINUOUS
 62
     5
 10
58.500000727586652
 20
-167.0
 30
0.0
 11
58.500000727586652
 21
-168.75
 31
0.0
  0
LINE
  5
5038
  8
DETAIL
  6
CONTINUOUS
 62
     5
 10
58.500000727586652
 20
-164.25
 30
0.0
 11
58.500000727586652
 21
-166.0
 31
0.0
  0
LINE
  5
5039
  8
DETAIL
  6
CONTINUOUS
 62
     5
 10
57.500000727586659
 20
-166.0
 30
0.0
 11
57.500000727586659
 21
-164.25
 31
0.0
  0
LINE
  5
503A
  8
DETAIL
  6
CONTINUOUS
 62
     5
 10
57.500000727586659
 20
-168.75
 30
0.0
 11
57.500000727586659
 21
-167.0
 31
0.0
  0
LINE
  5
503C
  8
DETAIL
  6
CONTINUOUS
 62
     5
 10
57.500000727586659
 20
-164.25
 30
0.0
 11
58.500000727586652
 21
-164.25
 31
0.0
  0
LINE
  5
503E
  8
DETAIL
  6
CONTINUOUS
 62
     5
 10
56.53858560392532
 20
-166.0
 30
0.0
 11
57.500000727586659
 21
-166.0
 31
0.0
  0
LINE
  5
503F
  8
DETAIL
  6
CONTINUOUS
 62
     5
 10
57.500000727586659
 20
-167.0
 30
0.0
 11
56.431240742853127
 21
-167.0
 31
0.0
  0
LINE
  5
5041
  8
DETAIL
  6
CONTINUOUS
 62
     5
 10
58.500000727586652
 20
-168.75
 30
0.0
 11
57.500000727586659
 21
-168.75
 31
0.0
  0
LINE
  5
5042
  8
DETAIL
  6
CONTINUOUS
 62
     5
 10
58.500000727586652
 20
-167.0
 30
0.0
 11
60.250000727586666
 21
-167.0
 31
0.0
  0
LINE
  5
5043
  8
DETAIL
  6
CONTINUOUS
 62
     5
 10
60.250000727586666
 20
-166.0
 30
0.0
 11
58.500000727586652
 21
-166.0
 31
0.0
  0
LINE
  5
5044
  8
DETAIL
  6
CONTINUOUS
 62
     5
 10
60.250000727586666
 20
-167.0
 30
0.0
 11
60.250000727586666
 21
-166.0
 31
0.0
  0
ARC
  5
5049
  8
DETAIL
  6
CONTINUOUS
 62
     5
 10
58.000000727586666
 20
-166.5
 30
0.0
 40
4.7000000000000002
 50
207.9100682770285
 51
107.96950686962251
  0
ARC
  5
504A
  8
DETAIL
  6
CONTINUOUS
 62
     5
 10
58.000000727586666
 20
-129.5
 30
0.0
 40
4.7000000000000002
 50
252.03049313037749
 51
170.1998097252239
  0
ENDSEC
  0
EOF
