  0
SECTION
  2
HEADER
  9
$ACADVER
  1
AC1009
  9
$INSBASE
 10
0.0
 20
0.0
 30
0.0
  9
$EXTMIN
 10
-908.95577758341813
 20
-797.28445194896995
 30
-0.0000000000112498
  9
$EXTMAX
 10
675.03314786402905
 20
496.04646052453239
 30
0.0000000000002956
  9
$LIMMIN
 10
-4267.1522210604817
 20
-2696.0832101984129
  9
$LIMMAX
 10
7190.7174225864646
 20
5141.155363923066
  9
$ORTHOMODE
 70
     1
  9
$REGENMODE
 70
     1
  9
$FILLMODE
 70
     1
  9
$QTEXTMODE
 70
     0
  9
$MIRRTEXT
 70
     0
  9
$DRAGMODE
 70
     2
  9
$LTSCALE
 40
20.0
  9
$OSMODE
 70
   431
  9
$ATTMODE
 70
     1
  9
$TEXTSIZE
 40
64.0
  9
$TRACEWID
 40
0.05
  9
$TEXTSTYLE
  7
STANDARD_MODELNAME
  9
$CLAYER
  8
SYMBOLLINE
  9
$CELTYPE
  6
CONTINUOUS
  9
$CECOLOR
 62
     7
  9
$DIMSCALE
 40
1.0
  9
$DIMASZ
 40
30.0
  9
$DIMEXO
 40
20.0
  9
$DIMDLI
 40
80.0
  9
$DIMRND
 40
0.0
  9
$DIMDLE
 40
0.0
  9
$DIMEXE
 40
20.0
  9
$DIMTP
 40
0.0
  9
$DIMTM
 40
0.0
  9
$DIMTXT
 40
60.0
  9
$DIMCEN
 40
0.09
  9
$DIMTSZ
 40
0.0
  9
$DIMTOL
 70
     0
  9
$DIMLIM
 70
     0
  9
$DIMTIH
 70
     0
  9
$DIMTOH
 70
     0
  9
$DIMSE1
 70
     0
  9
$DIMSE2
 70
     0
  9
$DIMTAD
 70
     1
  9
$DIMZIN
 70
     8
  9
$DIMBLK
  1
SMALL
  9
$DIMASO
 70
     1
  9
$DIMSHO
 70
     0
  9
$DIMPOST
  1

  9
$DIMAPOST
  1

  9
$DIMALT
 70
     0
  9
$DIMALTD
 70
     2
  9
$DIMALTF
 40
25.399999999999999
  9
$DIMLFAC
 40
1.0
  9
$DIMTOFL
 70
     1
  9
$DIMTVP
 40
0.0
  9
$DIMTIX
 70
     0
  9
$DIMSOXD
 70
     0
  9
$DIMSAH
 70
     0
  9
$DIMBLK1
  1

  9
$DIMBLK2
  1

  9
$DIMSTYLE
  2
STANDARD
  9
$DIMCLRD
 70
     0
  9
$DIMCLRE
 70
     0
  9
$DIMCLRT
 70
     0
  9
$DIMTFAC
 40
1.0
  9
$DIMGAP
 40
0.09
  9
$LUNITS
 70
     2
  9
$LUPREC
 70
     4
  9
$SKETCHINC
 40
0.1
  9
$FILLETRAD
 40
0.0
  9
$AUNITS
 70
     1
  9
$AUPREC
 70
     3
  9
$MENU
  1
ACAD
  9
$ELEVATION
 40
0.0
  9
$PELEVATION
 40
0.0
  9
$THICKNESS
 40
0.0
  9
$LIMCHECK
 70
     0
  9
$BLIPMODE
 70
     0
  9
$CHAMFERA
 40
0.0
  9
$CHAMFERB
 40
0.0
  9
$SKPOLY
 70
     0
  9
$TDCREATE
 40
2450330.4399309959
  9
$TDUPDATE
 40
2456594.6530027781
  9
$TDINDWG
 40
3.7113155902999999
  9
$TDUSRTIMER
 40
3.7112913657000002
  9
$USRTIMER
 70
     1
  9
$ANGBASE
 50
0.0
  9
$ANGDIR
 70
     0
  9
$PDMODE
 70
     3
  9
$PDSIZE
 40
-2.0
  9
$PLINEWID
 40
0.0
  9
$COORDS
 70
     1
  9
$SPLFRAME
 70
     0
  9
$SPLINETYPE
 70
     6
  9
$SPLINESEGS
 70
     8
  9
$ATTDIA
 70
     0
  9
$ATTREQ
 70
     1
  9
$HANDLING
 70
     1
  9
$HANDSEED
  5
C86
  9
$SURFTAB1
 70
     6
  9
$SURFTAB2
 70
     6
  9
$SURFTYPE
 70
     6
  9
$SURFU
 70
     6
  9
$SURFV
 70
     6
  9
$UCSNAME
  2

  9
$UCSORG
 10
0.0
 20
0.0
 30
0.0
  9
$UCSXDIR
 10
1.0
 20
0.0
 30
0.0
  9
$UCSYDIR
 10
0.0
 20
1.0
 30
0.0
  9
$PUCSNAME
  2

  9
$PUCSORG
 10
0.0
 20
0.0
 30
0.0
  9
$PUCSXDIR
 10
1.0
 20
0.0
 30
0.0
  9
$PUCSYDIR
 10
0.0
 20
1.0
 30
0.0
  9
$USERI1
 70
     0
  9
$USERI2
 70
     0
  9
$USERI3
 70
     0
  9
$USERI4
 70
     0
  9
$USERI5
 70
     0
  9
$USERR1
 40
20.0
  9
$USERR2
 40
0.0
  9
$USERR3
 40
0.0
  9
$USERR4
 40
0.0
  9
$USERR5
 40
0.0
  9
$WORLDVIEW
 70
     1
  9
$SHADEDGE
 70
     3
  9
$SHADEDIF
 70
    70
  9
$TILEMODE
 70
     1
  9
$MAXACTVP
 70
    64
  9
$PLIMCHECK
 70
     0
  9
$PEXTMIN
 10
1.0000000000000000E+020
 20
1.0000000000000000E+020
 30
1.0000000000000000E+020
  9
$PEXTMAX
 10
-1.0000000000000000E+020
 20
-1.0000000000000000E+020
 30
-1.0000000000000000E+020
  9
$PLIMMIN
 10
0.0
 20
0.0
  9
$PLIMMAX
 10
12.0
 20
9.0
  9
$UNITMODE
 70
     0
  9
$VISRETAIN
 70
     1
  9
$PLINEGEN
 70
     0
  9
$PSLTSCALE
 70
     1
  0
ENDSEC
  0
SECTION
  2
TABLES
  0
TABLE
  2
VPORT
 70
     1
  0
VPORT
  2
*ACTIVE
 70
     0
 10
0.0
 20
0.0
 11
1.0
 21
1.0
 12
-116.9613148596945
 22
-150.61899571221869
 13
0.0
 23
0.0
 14
50.0
 24
50.0
 15
100.0
 25
100.0
 16
0.0
 26
0.0
 36
1.0
 17
0.0
 27
0.0
 37
0.0
 40
1303.1661285379389
 41
1.552030456852791
 42
50.0
 43
0.0
 44
0.0
 50
0.0
 51
0.0
 71
     0
 72
  1000
 73
     1
 74
     0
 75
     0
 76
     0
 77
     0
 78
     0
  0
ENDTAB
  0
TABLE
  2
LTYPE
 70
     4
  0
LTYPE
  2
CONTINUOUS
 70
     0
  3
実線
 72
    65
 73
     0
 40
0.0
  0
LTYPE
  2
DASHDOT
 70
     0
  3
____ _ ____ _ ____ _ ____ _ ____ _ ____ _ ____
 72
    65
 73
     4
 40
5.5
 49
4.0
 49
-0.6
 49
0.3
 49
-0.6
  0
LTYPE
  2
CENTER
 70
     0
  3
Center ____ _ ____ _ ____ _ ____ _ ____ _ ____
 72
    65
 73
     4
 40
7.0
 49
4.299999999999998
 49
-0.7
 49
1.3
 49
-0.7
  0
LTYPE
  2
DASHED
 70
     0
  3
Dashed __ __ __ __ __ __ __ __ __ __ __ __ __ _
 72
    65
 73
     2
 40
2.5
 49
1.8
 49
-0.7
  0
ENDTAB
  0
TABLE
  2
LAYER
 70
    12
  0
LAYER
  2
0
 70
     0
 62
     7
  6
CONTINUOUS
  0
LAYER
  2
SYMBOLLINE
 70
     0
 62
    15
  6
CONTINUOUS
  0
LAYER
  2
SIZE
 70
     0
 62
    30
  6
CONTINUOUS
  0
LAYER
  2
OUTLINE
 70
     0
 62
     3
  6
CONTINUOUS
  0
LAYER
  2
DETAIL
 70
     0
 62
     5
  6
CONTINUOUS
  0
LAYER
  2
BASIS
 70
     0
 62
     6
  6
DASHDOT
  0
LAYER
  2
NOTE
 70
     0
 62
     4
  6
CONTINUOUS
  0
LAYER
  2
ARRANGE
 70
     0
 62
     1
  6
CONTINUOUS
  0
LAYER
  2
FIX
 70
     0
 62
    11
  6
CONTINUOUS
  0
LAYER
  2
SERVICESPACE
 70
     0
 62
     2
  6
DASHDOT
  0
LAYER
  2
ETC
 70
     0
 62
    61
  6
CONTINUOUS
  0
LAYER
  2
DEFPOINTS
 70
     0
 62
     7
  6
CONTINUOUS
  0
ENDTAB
  0
TABLE
  2
STYLE
 70
     4
  0
STYLE
  2
STANDARD
 70
     0
 40
0.0
 41
0.9
 50
0.0
 71
     0
 42
64.0
  3
SIMPLEX
  4
BIGFONT
  0
STYLE
  2
ANNOTATIVE
 70
     0
 40
0.0
 41
1.0
 50
0.0
 71
     0
 42
0.2
  3
txt
  4

  0
STYLE
  2
STANDARD_MODELNAME
 70
     0
 40
80.0
 41
0.8
 50
0.0
 71
     0
 42
64.0
  3
MONOTXT.shx
  4
BIGFONT.shx
  0
STYLE
  2
STANDARD1
 70
     0
 40
60.0
 41
0.7
 50
0.0
 71
     0
 42
64.0
  3
MONOTXT.shx
  4
BIGFONT.shx
  0
ENDTAB
  0
TABLE
  2
VIEW
 70
     1
  0
VIEW
  2
ALL
 70
     0
 40
9000.0
 10
241.50664699999999
 20
0.0
 41
12483.01
 11
0.0
 21
0.0
 31
1.0
 12
0.0
 22
0.0
 32
0.0
 42
50.0
 43
0.0
 44
0.0
 50
0.0
 71
     0
  0
ENDTAB
  0
TABLE
  2
UCS
 70
     0
  0
ENDTAB
  0
TABLE
  2
APPID
 70
     4
  0
APPID
  2
ACAD
 70
     0
  0
APPID
  2
ACADANNOTATIVE
 70
     0
  0
APPID
  2
ACAD_MLEADERVER
 70
     0
  0
APPID
  2
ACAD_EXEMPT_FROM_CAD_STANDARDS
 70
     0
  0
ENDTAB
  0
TABLE
  2
DIMSTYLE
 70
     2
  0
DIMSTYLE
  2
STANDARD
 70
     0
  3

  4

  5

  6

  7

 40
1.0
 41
0.18
 42
0.0625
 43
0.38
 44
0.18
 45
0.0
 46
0.0
 47
0.0
 48
0.0
140
0.18
141
0.09
142
0.0
143
25.399999999999999
144
1.0
145
0.0
146
1.0
147
0.09
 71
     0
 72
     0
 73
     1
 74
     1
 75
     0
 76
     0
 77
     0
 78
     0
170
     0
171
     2
172
     0
173
     0
174
     0
175
     0
176
     0
177
     0
178
     0
  0
DIMSTYLE
  2
ANNOTATIVE
 70
     0
  3

  4

  5

  6

  7

 40
1.0
 41
0.18
 42
0.0625
 43
0.38
 44
0.18
 45
0.0
 46
0.0
 47
0.0
 48
0.0
140
0.18
141
0.09
142
0.0
143
25.399999999999999
144
1.0
145
0.0
146
1.0
147
0.09
 71
     0
 72
     0
 73
     1
 74
     1
 75
     0
 76
     0
 77
     0
 78
     0
170
     0
171
     2
172
     0
173
     0
174
     0
175
     0
176
     0
177
     0
178
     0
  0
ENDTAB
  0
ENDSEC
  0
SECTION
  2
BLOCKS
  0
BLOCK
  8
0
  2
$MODEL_SPACE
 70
     0
 10
0.0
 20
0.0
 30
0.0
  3
$MODEL_SPACE
  1

  0
ENDBLK
  5
C3A
  8
0
  0
BLOCK
 67
     1
  8
0
  2
$PAPER_SPACE
 70
     0
 10
0.0
 20
0.0
 30
0.0
  3
$PAPER_SPACE
  1

  0
ENDBLK
  5
C36
 67
     1
  8
0
  0
BLOCK
  8
0
  2
_SMALL
 70
     0
 10
0.0
 20
0.0
 30
0.0
  3
_SMALL
  1

  0
CIRCLE
  5
8F
  8
0
  6
CONTINUOUS
 62
     7
 10
0.0
 20
0.0
 30
0.0
 40
0.25
  0
ENDBLK
  5
90
  8
0
  0
ENDSEC
  0
SECTION
  2
ENTITIES
  0
LINE
  5
91
  8
DETAIL
  6
CONTINUOUS
 62
     5
 10
-141.92301899999981
 20
165.0
 30
0.0
 11
-126.5
 21
165.0
 31
0.0
  0
LINE
  5
92
  8
DETAIL
  6
CONTINUOUS
 62
     5
 10
-134.75
 20
190.5
 30
0.0
 11
-134.75
 21
165.0
 31
0.0
  0
LINE
  5
93
  8
DETAIL
  6
CONTINUOUS
 62
     5
 10
-151.25
 20
190.5
 30
0.0
 11
-151.25
 21
170.5
 31
0.0
  0
LINE
  5
95
  8
DETAIL
  6
CONTINUOUS
 62
     5
 10
-126.5
 20
191.5
 30
0.0
 11
-126.5
 21
164.0
 31
0.0
  0
LINE
  5
96
  8
DETAIL
  6
CONTINUOUS
 62
     5
 10
-159.5
 20
191.5
 30
0.0
 11
-159.5
 21
170.5
 31
0.0
  0
LINE
  5
97
  8
DETAIL
  6
CONTINUOUS
 62
     5
 10
115.8000000000002
 20
139.1406639999995
 30
0.0
 11
133.0
 21
139.1406639999995
 31
0.0
  0
LINE
  5
9B
  8
DETAIL
  6
CONTINUOUS
 62
     5
 10
130.75
 20
94.0
 30
0.0
 11
130.75
 21
95.5
 31
0.0
  0
LINE
  5
9C
  8
DETAIL
  6
CONTINUOUS
 62
     5
 10
115.8000000000002
 20
95.5
 30
0.0
 11
131.75
 21
95.5
 31
0.0
  0
ARC
  5
9D
  8
DETAIL
  6
CONTINUOUS
 62
     5
 10
-153.98086499999951
 20
205.4651530000001
 30
0.0
 40
21.223279000000002
 50
98.821090000024995
 51
147.99919800002661
  0
LINE
  5
9E
  8
DETAIL
  6
CONTINUOUS
 62
     5
 10
62.627636999999581
 20
191.79375099999919
 30
0.0
 11
89.581495999999788
 21
176.99549799999929
 31
0.0
  0
LINE
  5
9F
  8
DETAIL
  6
CONTINUOUS
 62
     5
 10
65.656554999999571
 20
197.37488999999999
 30
0.0
 11
92.517362999999946
 21
182.62772399999989
 31
0.0
  0
LINE
  5
A0
  8
DETAIL
  6
CONTINUOUS
 62
     5
 10
56.815596999999791
 20
194.9849379999996
 30
0.0
 11
56.746017999999822
 21
195.03361799999951
 31
0.0
  0
LINE
  5
A1
  8
DETAIL
  6
CONTINUOUS
 62
     5
 10
55.782975000000079
 20
195.19663599999959
 30
0.0
 11
55.597326000000074
 21
195.65354399999981
 31
0.0
  0
LINE
  5
A2
  8
DETAIL
  6
CONTINUOUS
 62
     5
 10
56.198977000000021
 20
194.6884359999994
 30
0.0
 11
55.782975000000079
 21
195.19663599999959
 31
0.0
  0
LINE
  5
A3
  8
DETAIL
  6
CONTINUOUS
 62
     5
 10
56.526912999999666
 20
194.45899899999949
 30
0.0
 11
56.198977000000021
 21
194.6884359999994
 31
0.0
  0
LINE
  5
A4
  8
DETAIL
  6
CONTINUOUS
 62
     5
 10
89.581495999999788
 20
176.99549799999929
 30
0.0
 11
90.629463999999629
 21
176.26827099999991
 31
0.0
  0
LINE
  5
A5
  8
DETAIL
  6
CONTINUOUS
 62
     5
 10
60.15997400000014
 20
201.07711199999989
 30
0.0
 11
64.727421999999933
 21
198.56948399999959
 31
0.0
  0
LINE
  5
A6
  8
DETAIL
  6
CONTINUOUS
 62
     5
 10
52.699999999999811
 20
204.4883190000001
 30
0.0
 11
59.8153599999996
 21
200.58183199999991
 31
0.0
  0
LINE
  5
A7
  8
DETAIL
  6
CONTINUOUS
 62
     5
 10
52.699999999999811
 20
197.24423899999951
 30
0.0
 11
56.73696899999959
 21
195.0278559999997
 31
0.0
  0
LINE
  5
A8
  8
DETAIL
  6
CONTINUOUS
 62
     5
 10
56.526458999999711
 20
194.45894999999931
 30
0.0
 11
61.093907999999828
 21
191.95132199999989
 31
0.0
  0
LINE
  5
A9
  8
DETAIL
  6
CONTINUOUS
 62
     5
 10
59.313025999999802
 20
201.3079680000001
 30
0.0
 11
58.627704000000442
 21
201.2338809999992
 31
0.0
  0
LINE
  5
AA
  8
DETAIL
  6
CONTINUOUS
 62
     5
 10
59.946839999999611
 20
201.1768509999992
 30
0.0
 11
59.313025999999802
 21
201.3079680000001
 31
0.0
  0
LINE
  5
AB
  8
DETAIL
  6
CONTINUOUS
 62
     5
 10
60.15952000000015
 20
201.0770629999997
 30
0.0
 11
59.946839999999611
 21
201.1768509999992
 31
0.0
  0
LINE
  5
AC
  8
DETAIL
  6
CONTINUOUS
 62
     5
 10
59.873978999999963
 20
200.54964899999959
 30
0.0
 11
59.793537999999899
 21
200.58739199999951
 31
0.0
  0
LINE
  5
AD
  8
DETAIL
  6
CONTINUOUS
 62
     5
 10
65.054904999999962
 20
198.33999799999941
 30
0.0
 11
64.727421999999933
 21
198.56948399999959
 31
0.0
  0
LINE
  5
AE
  8
DETAIL
  6
CONTINUOUS
 62
     5
 10
65.470905999999559
 20
197.8317979999992
 30
0.0
 11
65.054904999999962
 21
198.33999799999941
 31
0.0
  0
LINE
  5
AF
  8
DETAIL
  6
CONTINUOUS
 62
     5
 10
65.73811600000046
 20
197.17415799999981
 30
0.0
 11
65.470905999999559
 21
197.8317979999992
 31
0.0
  0
LINE
  5
B0
  8
DETAIL
  6
CONTINUOUS
 62
     5
 10
65.841003999999884
 20
196.40529699999931
 30
0.0
 11
65.73811600000046
 21
197.17415799999981
 31
0.0
  0
LINE
  5
B1
  8
DETAIL
  6
CONTINUOUS
 62
     5
 10
65.773591999999525
 20
195.56989999999951
 30
0.0
 11
65.841003999999884
 21
196.40529699999931
 31
0.0
  0
LINE
  5
B2
  8
DETAIL
  6
CONTINUOUS
 62
     5
 10
60.487457000000191
 20
200.84762599999971
 30
0.0
 11
60.15952000000015
 21
201.0770629999997
 31
0.0
  0
LINE
  5
B3
  8
DETAIL
  6
CONTINUOUS
 62
     5
 10
60.903457999999773
 20
200.33942599999941
 30
0.0
 11
60.487457000000191
 21
200.84762599999971
 31
0.0
  0
LINE
  5
B4
  8
DETAIL
  6
CONTINUOUS
 62
     5
 10
61.17066799999975
 20
199.6817860000001
 30
0.0
 11
60.903457999999773
 21
200.33942599999941
 31
0.0
  0
LINE
  5
B5
  8
DETAIL
  6
CONTINUOUS
 62
     5
 10
61.273556000000113
 20
198.9129249999994
 30
0.0
 11
61.17066799999975
 21
199.6817860000001
 31
0.0
  0
LINE
  5
B6
  8
DETAIL
  6
CONTINUOUS
 62
     5
 10
61.20614399999976
 20
198.0775279999998
 30
0.0
 11
61.273556000000113
 21
198.9129249999994
 31
0.0
  0
LINE
  5
B7
  8
DETAIL
  6
CONTINUOUS
 62
     5
 10
60.146649999999667
 20
200.3581539999995
 30
0.0
 11
59.868902000000148
 21
200.5524769999993
 31
0.0
  0
LINE
  5
B8
  8
DETAIL
  6
CONTINUOUS
 62
     5
 10
60.496532000000123
 20
199.93072699999991
 30
0.0
 11
60.146649999999667
 21
200.3581539999995
 31
0.0
  0
LINE
  5
B9
  8
DETAIL
  6
CONTINUOUS
 62
     5
 10
60.721271000000343
 20
199.37761299999951
 30
0.0
 11
60.496532000000123
 21
199.93072699999991
 31
0.0
  0
LINE
  5
BA
  8
DETAIL
  6
CONTINUOUS
 62
     5
 10
60.80780700000016
 20
198.73095499999999
 30
0.0
 11
60.721271000000343
 21
199.37761299999951
 31
0.0
  0
LINE
  5
BB
  8
DETAIL
  6
CONTINUOUS
 62
     5
 10
60.751108999999801
 20
198.0283359999994
 30
0.0
 11
60.80780700000016
 21
198.73095499999999
 31
0.0
  0
LINE
  5
BC
  8
DETAIL
  6
CONTINUOUS
 62
     5
 10
65.773591999999525
 20
195.56989999999951
 30
0.0
 11
65.597662000000099
 21
194.88116299999999
 31
0.0
  0
LINE
  5
BD
  8
DETAIL
  6
CONTINUOUS
 62
     5
 10
65.153205999999969
 20
193.89473899999939
 30
0.0
 11
64.672956999999769
 21
193.19688599999969
 31
0.0
  0
LINE
  5
BE
  8
DETAIL
  6
CONTINUOUS
 62
     5
 10
65.539797000000362
 20
194.71651499999999
 30
0.0
 11
65.153205999999969
 21
193.89473899999939
 31
0.0
  0
LINE
  5
BF
  8
DETAIL
  6
CONTINUOUS
 62
     5
 10
65.597662000000099
 20
194.88116299999999
 30
0.0
 11
65.539797000000362
 21
194.71651499999999
 31
0.0
  0
LINE
  5
C0
  8
DETAIL
  6
CONTINUOUS
 62
     5
 10
56.739593000000241
 20
194.3592109999999
 30
0.0
 11
56.526912999999666
 21
194.45899899999949
 31
0.0
  0
LINE
  5
C1
  8
DETAIL
  6
CONTINUOUS
 62
     5
 10
57.373407000000043
 20
194.228094
 30
0.0
 11
56.739593000000241
 21
194.3592109999999
 31
0.0
  0
LINE
  5
C2
  8
DETAIL
  6
CONTINUOUS
 62
     5
 10
58.063583000000101
 20
194.302705
 30
0.0
 11
57.373407000000043
 21
194.228094
 31
0.0
  0
LINE
  5
C3
  8
DETAIL
  6
CONTINUOUS
 62
     5
 10
58.770008999999838
 20
194.57870899999941
 30
0.0
 11
58.063583000000101
 21
194.302705
 31
0.0
  0
LINE
  5
C4
  8
DETAIL
  6
CONTINUOUS
 62
     5
 10
59.451632999999667
 20
195.0400639999998
 30
0.0
 11
58.770008999999838
 21
194.57870899999941
 31
0.0
  0
LINE
  5
C5
  8
DETAIL
  6
CONTINUOUS
 62
     5
 10
60.068838999999571
 20
195.65995899999959
 30
0.0
 11
59.451632999999667
 21
195.0400639999998
 31
0.0
  0
LINE
  5
C6
  8
DETAIL
  6
CONTINUOUS
 62
     5
 10
60.585758000000169
 20
196.40236699999971
 30
0.0
 11
60.068838999999571
 21
195.65995899999959
 31
0.0
  0
LINE
  5
C7
  8
DETAIL
  6
CONTINUOUS
 62
     5
 10
60.972348999999681
 20
197.2241429999994
 30
0.0
 11
60.585758000000169
 21
196.40236699999971
 31
0.0
  0
LINE
  5
C8
  8
DETAIL
  6
CONTINUOUS
 62
     5
 10
61.20614399999976
 20
198.0775279999998
 30
0.0
 11
60.972348999999681
 21
197.2241429999994
 31
0.0
  0
LINE
  5
C9
  8
DETAIL
  6
CONTINUOUS
 62
     5
 10
56.994474000000068
 20
194.90100999999959
 30
0.0
 11
56.815596999999791
 21
194.9849379999996
 31
0.0
  0
LINE
  5
CA
  8
DETAIL
  6
CONTINUOUS
 62
     5
 10
57.527549000000363
 20
194.7907329999997
 30
0.0
 11
56.994474000000068
 21
194.90100999999959
 31
0.0
  0
LINE
  5
CB
  8
DETAIL
  6
CONTINUOUS
 62
     5
 10
58.108027999999649
 20
194.853486
 30
0.0
 11
57.527549000000363
 21
194.7907329999997
 31
0.0
  0
LINE
  5
CC
  8
DETAIL
  6
CONTINUOUS
 62
     5
 10
58.702175000000352
 20
195.08562099999921
 30
0.0
 11
58.108027999999649
 21
194.853486
 31
0.0
  0
LINE
  5
CD
  8
DETAIL
  6
CONTINUOUS
 62
     5
 10
59.275459999999853
 20
195.4736479999992
 30
0.0
 11
58.702175000000352
 21
195.08562099999921
 31
0.0
  0
LINE
  5
CE
  8
DETAIL
  6
CONTINUOUS
 62
     5
 10
59.794568000000261
 20
195.99501699999931
 30
0.0
 11
59.275459999999853
 21
195.4736479999992
 31
0.0
  0
LINE
  5
CF
  8
DETAIL
  6
CONTINUOUS
 62
     5
 10
60.229327000000012
 20
196.61942599999921
 30
0.0
 11
59.794568000000261
 21
195.99501699999931
 31
0.0
  0
LINE
  5
D0
  8
DETAIL
  6
CONTINUOUS
 62
     5
 10
60.554473000000151
 20
197.31058899999971
 30
0.0
 11
60.229327000000012
 21
196.61942599999921
 31
0.0
  0
LINE
  5
D1
  8
DETAIL
  6
CONTINUOUS
 62
     5
 10
60.751108999999801
 20
198.0283359999994
 30
0.0
 11
60.554473000000151
 21
197.31058899999971
 31
0.0
  0
LINE
  5
D2
  8
DETAIL
  6
CONTINUOUS
 62
     5
 10
61.307042000000358
 20
191.85158299999961
 30
0.0
 11
61.093907999999828
 21
191.95132199999989
 31
0.0
  0
LINE
  5
D3
  8
DETAIL
  6
CONTINUOUS
 62
     5
 10
61.940854999999829
 20
191.7204659999997
 30
0.0
 11
61.307042000000358
 21
191.85158299999961
 31
0.0
  0
LINE
  5
D4
  8
DETAIL
  6
CONTINUOUS
 62
     5
 10
62.631030999999894
 20
191.79507699999971
 30
0.0
 11
61.940854999999829
 21
191.7204659999997
 31
0.0
  0
LINE
  5
D5
  8
DETAIL
  6
CONTINUOUS
 62
     5
 10
63.33745799999997
 20
192.07108099999999
 30
0.0
 11
62.631030999999894
 21
191.79507699999971
 31
0.0
  0
LINE
  5
D6
  8
DETAIL
  6
CONTINUOUS
 62
     5
 10
64.019081000000369
 20
192.53243599999951
 30
0.0
 11
63.33745799999997
 21
192.07108099999999
 31
0.0
  0
LINE
  5
D7
  8
DETAIL
  6
CONTINUOUS
 62
     5
 10
64.672956999999769
 20
193.19688599999969
 30
0.0
 11
64.019081000000369
 21
192.53243599999951
 31
0.0
  0
CIRCLE
  5
DA
  8
DETAIL
  6
CONTINUOUS
 62
     5
 10
139.0
 20
51.0
 30
0.0
 40
5.2000000000000002
  0
CIRCLE
  5
DB
  8
DETAIL
  6
CONTINUOUS
 62
     5
 10
139.0
 20
201.0
 30
0.0
 40
5.2000000000000002
  0
ARC
  5
DC
  8
DETAIL
  6
CONTINUOUS
 62
     5
 10
-105.47621599999999
 20
57.466188999999758
 30
0.0
 40
10.0
 50
231.873780000029
 51
248.66212400006549
  0
LINE
  5
DD
  8
DETAIL
  6
CONTINUOUS
 62
     5
 10
-101.28320600000001
 20
45.092268999999753
 30
0.0
 11
-109.1148869999997
 21
48.151679999999928
 31
0.0
  0
ARC
  5
DF
  8
DETAIL
  6
CONTINUOUS
 62
     5
 10
-102.4053610000001
 20
63.083893999999418
 30
0.0
 40
10.0
 50
235.53889300002589
 51
248.66212400006549
  0
LINE
  5
E0
  8
DETAIL
  6
CONTINUOUS
 62
     5
 10
-101.10329299999999
 20
51.839307999999619
 30
0.0
 11
-106.0440319999998
 21
53.769384999999602
 31
0.0
  0
ARC
  5
E1
  8
DETAIL
  6
CONTINUOUS
 62
     5
 10
-155.34819100000001
 20
198.5708079999994
 30
0.0
 40
10.0
 50
26.002157999952981
 51
37.631605000003781
  0
LINE
  5
E2
  8
DETAIL
  6
CONTINUOUS
 62
     5
 10
-150.4843529999998
 20
208.63999999999939
 30
0.0
 11
-147.4286620000002
 21
204.67662899999959
 31
0.0
  0
LINE
  5
E3
  8
DETAIL
  6
CONTINUOUS
 62
     5
 10
143.0
 20
47.677349999999933
 30
0.0
 11
143.0
 21
12.0
 31
0.0
  0
LINE
  5
E4
  8
DETAIL
  6
CONTINUOUS
 62
     5
 10
143.0
 20
197.6773499999999
 30
0.0
 11
143.0
 21
54.322648999999721
 31
0.0
  0
LINE
  5
E5
  8
DETAIL
  6
CONTINUOUS
 62
     5
 10
133.0
 20
223.0
 30
0.0
 11
133.0000000000002
 21
12.19999999999961
 31
0.0
  0
LINE
  5
E6
  8
DETAIL
  6
CONTINUOUS
 62
     5
 10
237.30000000000021
 20
224.0
 30
0.0
 11
134.0
 21
224.0
 31
0.0
  0
ARC
  5
E7
  8
DETAIL
  6
CONTINUOUS
 62
     5
 10
134.0
 20
223.0
 30
0.0
 40
1.0
 50
90.0
 51
180.0
  0
LINE
  5
E8
  8
DETAIL
  6
CONTINUOUS
 62
     5
 10
143.0
 20
223.0
 30
0.0
 11
143.0
 21
204.3226489999997
 31
0.0
  0
LINE
  5
E9
  8
DETAIL
  6
CONTINUOUS
 62
     5
 10
78.600000000000335
 20
176.0
 30
0.0
 11
78.600000000000335
 21
12.599999999999451
 31
0.0
  0
LINE
  5
EA
  8
DETAIL
  6
CONTINUOUS
 62
     5
 10
77.0
 20
176.0
 30
0.0
 11
77.0
 21
12.599999999999451
 31
0.0
  0
ARC
  5
EF
  8
DETAIL
  6
CONTINUOUS
 62
     5
 10
54.450000000000003
 20
77.538624583679706
 30
0.0
 40
2.5
 50
0.0
 51
79.915362999996503
  0
LINE
  5
F1
  8
DETAIL
  6
CONTINUOUS
 62
     5
 10
56.950000000000003
 20
42.461375389672462
 30
0.0
 11
56.950000000000003
 21
77.538624583679706
 31
0.0
  0
ARC
  5
F3
  8
DETAIL
  6
CONTINUOUS
 62
     5
 10
54.450000000000003
 20
42.461375389672462
 30
0.0
 40
2.5
 50
280.08463700000362
 51
0.0
  0
CIRCLE
  5
F4
  8
DETAIL
  6
CONTINUOUS
 62
     5
 10
33.691683654781407
 20
179.79999308383461
 30
0.0
 40
4.0
  0
LINE
  5
F5
  8
DETAIL
  6
CONTINUOUS
 62
     5
 10
81.399999999999636
 20
76.799991999999293
 30
0.0
 11
113.8000000000002
 21
76.799991999999293
 31
0.0
  0
LINE
  5
F6
  8
DETAIL
  6
DASHED
 62
     5
 10
138.60000000000031
 20
113.99999200000001
 30
0.0
 11
133.0
 21
113.99999200000001
 31
0.0
  0
LINE
  5
F8
  8
DETAIL
  6
CONTINUOUS
 62
     5
 10
120.60000000000031
 20
121.99999200000001
 30
0.0
 11
115.8000000000002
 21
121.99999200000001
 31
0.0
  0
LINE
  5
F9
  8
DETAIL
  6
CONTINUOUS
 62
     5
 10
120.60000000000031
 20
112.99999200000001
 30
0.0
 11
115.8000000000002
 21
112.99999200000001
 31
0.0
  0
LINE
  5
FA
  8
DETAIL
  6
CONTINUOUS
 62
     5
 10
120.60000000000031
 20
108.99999200000001
 30
0.0
 11
120.60000000000031
 21
126.99999200000001
 31
0.0
  0
LINE
  5
FD
  8
DETAIL
  6
DASHED
 62
     5
 10
138.60000000000031
 20
121.99999200000001
 30
0.0
 11
138.60000000000031
 21
113.99999200000001
 31
0.0
  0
LINE
  5
FE
  8
DETAIL
  6
DASHED
 62
     5
 10
138.60000000000031
 20
121.99999200000001
 30
0.0
 11
135.60000000000031
 21
121.99999200000001
 31
0.0
  0
LINE
  5
101
  8
DETAIL
  6
DASHED
 62
     5
 10
135.60000000000031
 20
108.99999200000001
 30
0.0
 11
135.60000000000031
 21
126.99999200000001
 31
0.0
  0
LINE
  5
102
  8
DETAIL
  6
CONTINUOUS
 62
     5
 10
115.8000000000002
 20
157.19999199999981
 30
0.0
 11
115.8000000000002
 21
78.799991999999293
 31
0.0
  0
ARC
  5
103
  8
DETAIL
  6
CONTINUOUS
 62
     5
 10
113.8000000000002
 20
78.799991999999293
 30
0.0
 40
2.0
 50
270.0
 51
0.0
  0
LINE
  5
104
  8
DETAIL
  6
CONTINUOUS
 62
     5
 10
78.600000000000335
 20
162.8310649999994
 30
0.0
 11
78.600000000000335
 21
73.168920000000071
 31
0.0
  0
LINE
  5
105
  8
DETAIL
  6
CONTINUOUS
 62
     5
 10
81.60000000000035
 20
159.19999199999981
 30
0.0
 11
113.8000000000002
 21
159.19999199999981
 31
0.0
  0
ARC
  5
106
  8
DETAIL
  6
CONTINUOUS
 62
     5
 10
113.8000000000002
 20
157.19999199999981
 30
0.0
 40
2.0
 50
0.0
 51
90.0
  0
LINE
  5
108
  8
DETAIL
  6
CONTINUOUS
 62
     5
 10
135.60000000000031
 20
120.99999200000001
 30
0.0
 11
120.60000000000031
 21
120.99999200000001
 31
0.0
  0
LINE
  5
109
  8
DETAIL
  6
CONTINUOUS
 62
     5
 10
133.0
 20
113.99999200000001
 30
0.0
 11
120.60000000000031
 21
113.99999200000001
 31
0.0
  0
CIRCLE
  5
10B
  8
DETAIL
  6
CONTINUOUS
 62
     5
 10
139.0
 20
51.0
 30
0.0
 40
4.7000000000000002
  0
CIRCLE
  5
10C
  8
DETAIL
  6
CONTINUOUS
 62
     5
 10
139.0
 20
201.0
 30
0.0
 40
4.7000000000000002
  0
LINE
  5
10D
  8
DETAIL
  6
CONTINUOUS
 62
     5
 10
-97.30000000000021
 20
229.99999999999929
 30
0.0
 11
-97.30000000000021
 21
11.799999999999271
 31
0.0
  0
LINE
  5
10E
  8
DETAIL
  6
CONTINUOUS
 62
     5
 10
51.699999999999818
 20
230.9999999999992
 30
0.0
 11
-96.300000000000225
 21
230.9999999999992
 31
0.0
  0
LINE
  5
10F
  8
DETAIL
  6
CONTINUOUS
 62
     5
 10
52.700000000000102
 20
10.99999999999971
 30
0.0
 11
52.699999999999811
 21
229.99999999999929
 31
0.0
  0
LINE
  5
110
  8
DETAIL
  6
CONTINUOUS
 62
     5
 10
52.699999999999811
 20
11.799999999999271
 30
0.0
 11
-97.30000000000021
 21
11.799999999999271
 31
0.0
  0
ARC
  5
111
  8
DETAIL
  6
CONTINUOUS
 62
     5
 10
51.699999999999818
 20
229.99999999999929
 30
0.0
 40
1.0
 50
0.0
 51
90.0
  0
ARC
  5
112
  8
DETAIL
  6
CONTINUOUS
 62
     5
 10
-96.300000000000225
 20
229.99999999999929
 30
0.0
 40
1.0
 50
90.0
 51
180.0
  0
LINE
  5
113
  8
DETAIL
  6
CONTINUOUS
 62
     5
 10
40.699999999999811
 20
195.7999999999993
 30
0.0
 11
26.699999999999829
 21
195.7999999999993
 31
0.0
  0
LINE
  5
114
  8
DETAIL
  6
CONTINUOUS
 62
     5
 10
26.699999999999829
 20
174.79999999999919
 30
0.0
 11
26.699999999999829
 21
195.7999999999993
 31
0.0
  0
LINE
  5
115
  8
DETAIL
  6
CONTINUOUS
 62
     5
 10
40.699999999999811
 20
174.79999999999919
 30
0.0
 11
40.699999999999811
 21
195.7999999999993
 31
0.0
  0
ARC
  5
116
  8
DETAIL
  6
CONTINUOUS
 62
     5
 10
33.699999999999811
 20
174.79999999999919
 30
0.0
 40
7.0
 50
180.0
 51
0.0
  0
ARC
  5
117
  8
DETAIL
  6
CONTINUOUS
 62
     5
 10
237.30000000000021
 20
222.7999999999993
 30
0.0
 40
1.1999999999999991
 50
0.0
 51
90.0
  0
ARC
  5
118
  8
DETAIL
  6
CONTINUOUS
 62
     5
 10
225.0
 20
211.8499999999996
 30
0.0
 40
4.764999999999997
 50
0.0
 51
180.0
  0
ARC
  5
119
  8
DETAIL
  6
CONTINUOUS
 62
     5
 10
225.0
 20
211.8499999999996
 30
0.0
 40
7.0
 50
313.0805809999888
 51
226.9194190000112
  0
ARC
  5
11A
  8
DETAIL
  6
CONTINUOUS
 62
     5
 10
225.0
 20
186.4499999999997
 30
0.0
 40
4.764999999999997
 50
180.0
 51
0.0
  0
ARC
  5
11B
  8
DETAIL
  6
CONTINUOUS
 62
     5
 10
225.0
 20
186.4499999999997
 30
0.0
 40
5.0
 50
162.9453090000022
 51
17.054690999997732
  0
ARC
  5
11C
  8
DETAIL
  6
CONTINUOUS
 62
     5
 10
203.0
 20
199.14999999999961
 30
0.0
 40
4.764999999999997
 50
240.00333199998809
 51
60.003331999988042
  0
ARC
  5
11D
  8
DETAIL
  6
CONTINUOUS
 62
     5
 10
181.00221599999981
 20
211.84872099999939
 30
0.0
 40
4.764999999999997
 50
60.003331999988042
 51
240.00333199998809
  0
ARC
  5
11E
  8
DETAIL
  6
CONTINUOUS
 62
     5
 10
203.0
 20
199.14999999999961
 30
0.0
 40
5.0
 50
222.94908199999611
 51
77.058465000056344
  0
ARC
  5
11F
  8
DETAIL
  6
CONTINUOUS
 62
     5
 10
181.0
 20
211.8499999999996
 30
0.0
 40
7.0
 50
12.985048000017679
 51
286.9838309999663
  0
ARC
  5
120
  8
DETAIL
  6
CONTINUOUS
 62
     5
 10
203.0
 20
173.75
 30
0.0
 40
4.764999999999997
 50
240.00333199998809
 51
60.003331999988042
  0
ARC
  5
121
  8
DETAIL
  6
CONTINUOUS
 62
     5
 10
181.00221599999981
 20
186.44872099999969
 30
0.0
 40
4.764999999999997
 50
60.003331999988042
 51
240.00333199998809
  0
ARC
  5
122
  8
DETAIL
  6
CONTINUOUS
 62
     5
 10
181.0
 20
186.4499999999997
 30
0.0
 40
5.0
 50
42.949081999996082
 51
257.0584650000564
  0
ARC
  5
123
  8
DETAIL
  6
CONTINUOUS
 62
     5
 10
203.0
 20
173.75
 30
0.0
 40
5.0
 50
222.94908199999611
 51
77.058465000056344
  0
ARC
  5
124
  8
DETAIL
  6
CONTINUOUS
 62
     5
 10
203.0
 20
148.3499999999994
 30
0.0
 40
4.764999999999997
 50
240.00333199998809
 51
60.003331999988042
  0
ARC
  5
125
  8
DETAIL
  6
CONTINUOUS
 62
     5
 10
225.0
 20
161.04999999999919
 30
0.0
 40
4.764999999999997
 50
0.0
 51
180.0
  0
ARC
  5
126
  8
DETAIL
  6
CONTINUOUS
 62
     5
 10
203.0
 20
148.3499999999994
 30
0.0
 40
5.0
 50
222.94908199999611
 51
77.058465000056344
  0
ARC
  5
127
  8
DETAIL
  6
CONTINUOUS
 62
     5
 10
225.0
 20
161.04999999999919
 30
0.0
 40
5.0
 50
342.94530900000223
 51
197.0546909999976
  0
ARC
  5
128
  8
DETAIL
  6
CONTINUOUS
 62
     5
 10
203.0
 20
122.9499999999998
 30
0.0
 40
4.764999999999997
 50
240.00333199998809
 51
60.003331999988042
  0
ARC
  5
129
  8
DETAIL
  6
CONTINUOUS
 62
     5
 10
225.0
 20
135.64999999999961
 30
0.0
 40
4.764999999999997
 50
180.0
 51
0.0
  0
ARC
  5
12A
  8
DETAIL
  6
CONTINUOUS
 62
     5
 10
203.0
 20
122.9499999999998
 30
0.0
 40
5.0
 50
222.94908199999611
 51
77.058465000056344
  0
ARC
  5
12B
  8
DETAIL
  6
CONTINUOUS
 62
     5
 10
225.0
 20
135.64999999999961
 30
0.0
 40
5.0
 50
162.9453090000022
 51
17.054690999997732
  0
ARC
  5
12C
  8
DETAIL
  6
CONTINUOUS
 62
     5
 10
181.00221599999981
 20
161.0487209999992
 30
0.0
 40
4.764999999999997
 50
60.003331999988042
 51
240.00333199998809
  0
ARC
  5
12D
  8
DETAIL
  6
CONTINUOUS
 62
     5
 10
181.0
 20
161.04999999999919
 30
0.0
 40
5.0
 50
42.949081999996082
 51
257.0584650000564
  0
ARC
  5
12E
  8
DETAIL
  6
CONTINUOUS
 62
     5
 10
181.00221599999981
 20
135.64872099999951
 30
0.0
 40
4.764999999999997
 50
60.003331999988042
 51
240.00333199998809
  0
ARC
  5
12F
  8
DETAIL
  6
CONTINUOUS
 62
     5
 10
181.0
 20
135.64999999999961
 30
0.0
 40
5.0
 50
42.949081999996082
 51
257.0584650000564
  0
ARC
  5
130
  8
DETAIL
  6
CONTINUOUS
 62
     5
 10
78.231999999999971
 20
148.85380499999971
 30
0.0
 40
5.2022810000000002
 50
354.48469200001853
 51
5.5153079999813723
  0
ARC
  5
131
  8
DETAIL
  6
CONTINUOUS
 62
     5
 10
78.231999999999971
 20
148.85380499999971
 30
0.0
 40
5.645902999999997
 50
336.51436999998413
 51
354.91924200002228
  0
ARC
  5
132
  8
DETAIL
  6
CONTINUOUS
 62
     5
 10
78.231999999999971
 20
148.85380499999971
 30
0.0
 40
5.645902999999997
 50
5.080757999977723
 51
23.485630000015881
  0
ARC
  5
133
  8
DETAIL
  6
CONTINUOUS
 62
     5
 10
203.0
 20
97.549999999999272
 30
0.0
 40
4.764999999999997
 50
240.00333199998809
 51
60.003331999988042
  0
ARC
  5
134
  8
DETAIL
  6
CONTINUOUS
 62
     5
 10
225.0
 20
110.25
 30
0.0
 40
4.764999999999997
 50
0.0
 51
180.0
  0
ARC
  5
135
  8
DETAIL
  6
CONTINUOUS
 62
     5
 10
203.0
 20
97.549999999999272
 30
0.0
 40
5.0
 50
222.94908199999611
 51
77.058465000056344
  0
ARC
  5
136
  8
DETAIL
  6
CONTINUOUS
 62
     5
 10
225.0
 20
110.25
 30
0.0
 40
5.0
 50
342.94530900000223
 51
197.0546909999976
  0
ARC
  5
137
  8
DETAIL
  6
CONTINUOUS
 62
     5
 10
203.0
 20
72.149999999999622
 30
0.0
 40
4.764999999999997
 50
240.00333199998809
 51
60.003331999988042
  0
ARC
  5
138
  8
DETAIL
  6
CONTINUOUS
 62
     5
 10
225.0
 20
84.849999999999454
 30
0.0
 40
4.764999999999997
 50
180.0
 51
0.0
  0
ARC
  5
139
  8
DETAIL
  6
CONTINUOUS
 62
     5
 10
203.0
 20
72.149999999999622
 30
0.0
 40
5.0
 50
222.94908199999611
 51
77.058465000056344
  0
ARC
  5
13A
  8
DETAIL
  6
CONTINUOUS
 62
     5
 10
225.0
 20
84.849999999999454
 30
0.0
 40
5.0
 50
162.9453090000022
 51
17.054690999997732
  0
ARC
  5
13B
  8
DETAIL
  6
CONTINUOUS
 62
     5
 10
181.00221599999981
 20
110.2487209999999
 30
0.0
 40
4.764999999999997
 50
60.003331999988042
 51
240.00333199998809
  0
ARC
  5
13C
  8
DETAIL
  6
CONTINUOUS
 62
     5
 10
181.0
 20
110.25
 30
0.0
 40
5.0
 50
42.949081999996082
 51
257.0584650000564
  0
ARC
  5
13D
  8
DETAIL
  6
CONTINUOUS
 62
     5
 10
181.00221599999981
 20
84.848720999999387
 30
0.0
 40
4.764999999999997
 50
60.003331999988042
 51
240.00333199998809
  0
ARC
  5
13E
  8
DETAIL
  6
CONTINUOUS
 62
     5
 10
181.0
 20
84.849999999999454
 30
0.0
 40
5.0
 50
42.949081999996082
 51
257.0584650000564
  0
ARC
  5
13F
  8
DETAIL
  6
CONTINUOUS
 62
     5
 10
203.0
 20
46.749999999999993
 30
0.0
 40
4.764999999999997
 50
240.00333199998809
 51
60.003331999988042
  0
ARC
  5
140
  8
DETAIL
  6
CONTINUOUS
 62
     5
 10
225.0
 20
59.449999999999818
 30
0.0
 40
4.764999999999997
 50
0.0
 51
180.0
  0
ARC
  5
141
  8
DETAIL
  6
CONTINUOUS
 62
     5
 10
203.0
 20
46.749999999999993
 30
0.0
 40
5.0
 50
222.94908199999611
 51
77.058465000056344
  0
ARC
  5
142
  8
DETAIL
  6
CONTINUOUS
 62
     5
 10
225.0
 20
59.449999999999818
 30
0.0
 40
5.0
 50
342.94530900000223
 51
197.0546909999976
  0
ARC
  5
143
  8
DETAIL
  6
CONTINUOUS
 62
     5
 10
237.80000000000021
 20
8.7999999999992724
 30
0.0
 40
2.2000000000000002
 50
0.0
 51
90.0
  0
ARC
  5
144
  8
DETAIL
  6
CONTINUOUS
 62
     5
 10
203.0
 20
21.349999999999461
 30
0.0
 40
4.764999999999997
 50
240.00333199998809
 51
60.003331999988042
  0
ARC
  5
145
  8
DETAIL
  6
CONTINUOUS
 62
     5
 10
225.0
 20
34.049999999999272
 30
0.0
 40
4.764999999999997
 50
180.0
 51
0.0
  0
ARC
  5
146
  8
DETAIL
  6
CONTINUOUS
 62
     5
 10
225.0
 20
34.049999999999272
 30
0.0
 40
5.0
 50
162.9453090000022
 51
17.054690999997732
  0
ARC
  5
147
  8
DETAIL
  6
CONTINUOUS
 62
     5
 10
203.0
 20
21.349999999999461
 30
0.0
 40
7.0
 50
192.9850480000176
 51
106.9838309999663
  0
ARC
  5
148
  8
DETAIL
  6
CONTINUOUS
 62
     5
 10
181.00221599999981
 20
59.44872099999975
 30
0.0
 40
4.764999999999997
 50
60.003331999988042
 51
240.00333199998809
  0
ARC
  5
149
  8
DETAIL
  6
CONTINUOUS
 62
     5
 10
181.0
 20
59.449999999999818
 30
0.0
 40
5.0
 50
42.949081999996082
 51
257.0584650000564
  0
ARC
  5
14A
  8
DETAIL
  6
CONTINUOUS
 62
     5
 10
181.00221599999981
 20
34.048721000000107
 30
0.0
 40
4.764999999999997
 50
60.003331999988042
 51
240.00333199998809
  0
ARC
  5
14B
  8
DETAIL
  6
CONTINUOUS
 62
     5
 10
181.0
 20
34.049999999999272
 30
0.0
 40
5.0
 50
42.949081999996082
 51
257.0584650000564
  0
ARC
  5
14C
  8
DETAIL
  6
CONTINUOUS
 62
     5
 10
78.231999999999971
 20
87.146194999999352
 30
0.0
 40
5.2022810000000002
 50
354.48469200001853
 51
5.5153079999813723
  0
ARC
  5
14D
  8
DETAIL
  6
CONTINUOUS
 62
     5
 10
78.231999999999971
 20
87.146194999999352
 30
0.0
 40
5.645902999999997
 50
336.51436999998413
 51
354.91924200002228
  0
ARC
  5
14E
  8
DETAIL
  6
CONTINUOUS
 62
     5
 10
78.231999999999971
 20
87.146194999999352
 30
0.0
 40
5.645902999999997
 50
5.080757999977723
 51
23.485630000015881
  0
ARC
  5
14F
  8
DETAIL
  6
CONTINUOUS
 62
     5
 10
132.80000000000021
 20
12.19999999999982
 30
0.0
 40
0.2
 50
270.0
 51
0.0
  0
ARC
  5
150
  8
DETAIL
  6
CONTINUOUS
 62
     5
 10
132.80000000000021
 20
12.19999999999982
 30
0.0
 40
1.1999999999999991
 50
270.0
 51
0.0
  0
ARC
  5
151
  8
DETAIL
  6
CONTINUOUS
 62
     5
 10
58.0
 20
8.8319999999994252
 30
0.0
 40
5.2022810000000002
 50
84.484692000070496
 51
95.515307999929504
  0
ARC
  5
152
  8
DETAIL
  6
CONTINUOUS
 62
     5
 10
58.0
 20
8.8319999999994252
 30
0.0
 40
5.645902999999997
 50
66.514370000006451
 51
84.919241999971547
  0
ARC
  5
153
  8
DETAIL
  6
CONTINUOUS
 62
     5
 10
58.0
 20
8.8319999999994252
 30
0.0
 40
5.645902999999997
 50
95.080758000028453
 51
113.48562999999351
  0
ARC
  5
155
  8
DETAIL
  6
CONTINUOUS
 62
     5
 10
-216.0174610000004
 20
159.0
 30
0.0
 40
3.174999999999998
 50
90.0
 51
270.0
  0
ARC
  5
15A
  8
DETAIL
  6
CONTINUOUS
 62
     5
 10
-216.0174610000004
 20
46.0
 30
0.0
 40
4.0
 50
90.0
 51
270.0
  0
ARC
  5
15B
  8
DETAIL
  6
CONTINUOUS
 62
     5
 10
-237.80000000000021
 20
8.7999999999992724
 30
0.0
 40
2.2000000000000002
 50
90.0
 51
180.0
  0
LINE
  5
15C
  8
DETAIL
  6
CONTINUOUS
 62
     5
 10
240.0
 20
0.0
 30
0.0
 11
240.0
 21
8.7999999999992724
 31
0.0
  0
LINE
  5
15D
  8
DETAIL
  6
CONTINUOUS
 62
     5
 10
238.0
 20
0.0
 30
0.0
 11
238.0
 21
8.7999999999992724
 31
0.0
  0
LINE
  5
15E
  8
DETAIL
  6
CONTINUOUS
 62
     5
 10
237.0
 20
12.0
 30
0.0
 11
237.0
 21
223.0
 31
0.0
  0
LINE
  5
15F
  8
DETAIL
  6
CONTINUOUS
 62
     5
 10
237.0
 20
12.0
 30
0.0
 11
237.0
 21
11.0
 31
0.0
  0
LINE
  5
160
  8
DETAIL
  6
CONTINUOUS
 62
     5
 10
229.7650000000003
 20
186.4499999999997
 30
0.0
 11
229.7650000000003
 21
211.8499999999996
 31
0.0
  0
LINE
  5
161
  8
DETAIL
  6
CONTINUOUS
 62
     5
 10
229.7650000000003
 20
135.64999999999961
 30
0.0
 11
229.7650000000003
 21
161.04999999999919
 31
0.0
  0
LINE
  5
162
  8
DETAIL
  6
CONTINUOUS
 62
     5
 10
229.7650000000003
 20
84.849999999999454
 30
0.0
 11
229.7650000000003
 21
110.25
 31
0.0
  0
LINE
  5
163
  8
DETAIL
  6
CONTINUOUS
 62
     5
 10
229.7650000000003
 20
34.049999999999272
 30
0.0
 11
229.7650000000003
 21
59.449999999999818
 31
0.0
  0
LINE
  5
164
  8
DETAIL
  6
CONTINUOUS
 62
     5
 10
220.2349999999997
 20
186.4499999999997
 30
0.0
 11
220.2349999999997
 21
211.8499999999996
 31
0.0
  0
LINE
  5
165
  8
DETAIL
  6
CONTINUOUS
 62
     5
 10
220.2349999999997
 20
135.64999999999961
 30
0.0
 11
220.2349999999997
 21
161.04999999999919
 31
0.0
  0
LINE
  5
166
  8
DETAIL
  6
CONTINUOUS
 62
     5
 10
220.2349999999997
 20
84.849999999999454
 30
0.0
 11
220.2349999999997
 21
110.25
 31
0.0
  0
LINE
  5
167
  8
DETAIL
  6
CONTINUOUS
 62
     5
 10
220.2349999999997
 20
34.049999999999272
 30
0.0
 11
220.2349999999997
 21
59.449999999999818
 31
0.0
  0
LINE
  5
168
  8
DETAIL
  6
CONTINUOUS
 62
     5
 10
205.38226000000029
 20
203.27674899999971
 30
0.0
 11
183.38447600000001
 21
215.9754699999994
 31
0.0
  0
LINE
  5
169
  8
DETAIL
  6
CONTINUOUS
 62
     5
 10
129.75147199999981
 20
207.8499999999996
 30
0.0
 11
128.9264720000001
 21
208.6749999999993
 31
0.0
  0
LINE
  5
16A
  8
DETAIL
  6
CONTINUOUS
 62
     5
 10
200.61773999999971
 20
195.02324999999931
 30
0.0
 11
178.6199560000004
 21
207.721971
 31
0.0
  0
LINE
  5
16B
  8
DETAIL
  6
CONTINUOUS
 62
     5
 10
205.38226000000029
 20
177.87674899999999
 30
0.0
 11
183.38447600000001
 21
190.57546999999971
 31
0.0
  0
LINE
  5
16C
  8
DETAIL
  6
CONTINUOUS
 62
     5
 10
237.87657800000031
 20
10.787663000000061
 30
0.0
 11
238.0
 21
8.8002329999999347
 31
0.0
  0
LINE
  5
16D
  8
DETAIL
  6
CONTINUOUS
 62
     5
 10
237.80000000000021
 20
10.99999999999927
 30
0.0
 11
237.87657800000031
 21
10.787663000000061
 31
0.0
  0
LINE
  5
16E
  8
DETAIL
  6
CONTINUOUS
 62
     5
 10
200.61773999999971
 20
169.62324999999959
 30
0.0
 11
178.6199560000004
 21
182.32197099999939
 31
0.0
  0
LINE
  5
16F
  8
DETAIL
  6
CONTINUOUS
 62
     5
 10
205.38226000000029
 20
152.4767489999995
 30
0.0
 11
183.38447600000001
 21
165.17546999999911
 31
0.0
  0
LINE
  5
170
  8
DETAIL
  6
CONTINUOUS
 62
     5
 10
143.0
 20
12.19999999999982
 30
0.0
 11
143.0
 21
37.606662999999571
 31
0.0
  0
LINE
  5
171
  8
DETAIL
  6
CONTINUOUS
 62
     5
 10
134.0
 20
12.0
 30
0.0
 11
134.0
 21
12.19999999999982
 31
0.0
  0
LINE
  5
172
  8
DETAIL
  6
CONTINUOUS
 62
     5
 10
134.0
 20
12.0
 30
0.0
 11
134.0
 21
11.0
 31
0.0
  0
LINE
  5
173
  8
DETAIL
  6
CONTINUOUS
 62
     5
 10
133.0
 20
183.49143000000001
 30
0.0
 11
133.0
 21
33.236640000000079
 31
0.0
  0
LINE
  5
174
  8
DETAIL
  6
CONTINUOUS
 62
     5
 10
200.61773999999971
 20
144.22325000000001
 30
0.0
 11
178.6199560000004
 21
156.9219709999997
 31
0.0
  0
LINE
  5
175
  8
DETAIL
  6
CONTINUOUS
 62
     5
 10
205.38226000000029
 20
127.07674899999979
 30
0.0
 11
183.38447600000001
 21
139.77546999999959
 31
0.0
  0
LINE
  5
176
  8
DETAIL
  6
CONTINUOUS
 62
     5
 10
107.95743899999979
 20
205.2209459999994
 30
0.0
 11
108.1750000000001
 21
202.36991599999959
 31
0.0
  0
LINE
  5
177
  8
DETAIL
  6
CONTINUOUS
 62
     5
 10
107.31020199999961
 20
208.0011599999998
 30
0.0
 11
107.95743899999979
 21
205.2209459999994
 31
0.0
  0
LINE
  5
178
  8
DETAIL
  6
CONTINUOUS
 62
     5
 10
106.24962599999979
 20
210.6412719999997
 30
0.0
 11
107.31020199999961
 21
208.0011599999998
 31
0.0
  0
LINE
  5
179
  8
DETAIL
  6
CONTINUOUS
 62
     5
 10
104.8025889999999
 20
213.07559499999931
 30
0.0
 11
106.24962599999979
 21
210.6412719999997
 31
0.0
  0
LINE
  5
17A
  8
DETAIL
  6
CONTINUOUS
 62
     5
 10
103.0058410000001
 20
215.24379999999931
 30
0.0
 11
104.8025889999999
 21
213.07559499999931
 31
0.0
  0
LINE
  5
17B
  8
DETAIL
  6
CONTINUOUS
 62
     5
 10
100.9057320000001
 20
217.092028
 30
0.0
 11
103.0058410000001
 21
215.24379999999931
 31
0.0
  0
LINE
  5
17C
  8
DETAIL
  6
CONTINUOUS
 62
     5
 10
98.554559000000154
 20
218.57638499999939
 30
0.0
 11
100.9057320000001
 21
217.092028
 31
0.0
  0
LINE
  5
17D
  8
DETAIL
  6
CONTINUOUS
 62
     5
 10
96.010624999999905
 20
219.66176999999971
 30
0.0
 11
98.554559000000154
 21
218.57638499999939
 31
0.0
  0
LINE
  5
17E
  8
DETAIL
  6
CONTINUOUS
 62
     5
 10
93.336463999999964
 20
220.32293899999971
 30
0.0
 11
96.010624999999905
 21
219.66176999999971
 31
0.0
  0
LINE
  5
17F
  8
DETAIL
  6
CONTINUOUS
 62
     5
 10
90.597316999999705
 20
220.5449159999998
 30
0.0
 11
93.336463999999964
 21
220.32293899999971
 31
0.0
  0
LINE
  5
181
  8
DETAIL
  6
CONTINUOUS
 62
     5
 10
237.30000000000021
 20
224.0
 30
0.0
 11
161.529211
 21
224.0
 31
0.0
  0
LINE
  5
182
  8
DETAIL
  6
CONTINUOUS
 62
     5
 10
237.0
 20
223.0
 30
0.0
 11
133.0
 21
223.0
 31
0.0
  0
LINE
  5
184
  8
DETAIL
  6
CONTINUOUS
 62
     5
 10
-211.7235959999997
 20
186.0851949999996
 30
0.0
 11
-209.73999999999981
 21
184.37216199999929
 31
0.0
  0
LINE
  5
185
  8
DETAIL
  6
CONTINUOUS
 62
     5
 10
-213.60607900000011
 20
188.384548
 30
0.0
 11
-211.7235959999997
 21
186.0851949999996
 31
0.0
  0
LINE
  5
186
  8
DETAIL
  6
CONTINUOUS
 62
     5
 10
-215.07329999999999
 20
190.98124199999981
 30
0.0
 11
-213.60607900000011
 21
188.384548
 31
0.0
  0
LINE
  5
187
  8
DETAIL
  6
CONTINUOUS
 62
     5
 10
-216.08236500000021
 20
193.8008669999999
 30
0.0
 11
-215.07329999999999
 21
190.98124199999981
 31
0.0
  0
LINE
  5
188
  8
DETAIL
  6
CONTINUOUS
 62
     5
 10
-216.6049000000003
 20
196.76767799999919
 30
0.0
 11
-216.08236500000021
 21
193.8008669999999
 31
0.0
  0
LINE
  5
189
  8
DETAIL
  6
CONTINUOUS
 62
     5
 10
-216.62427300000039
 20
199.79554699999969
 30
0.0
 11
-216.6049000000003
 21
196.76767799999919
 31
0.0
  0
LINE
  5
18A
  8
DETAIL
  6
CONTINUOUS
 62
     5
 10
-216.1386590000001
 20
202.80084199999959
 30
0.0
 11
-216.62427300000039
 21
199.79554699999969
 31
0.0
  0
LINE
  5
18B
  8
DETAIL
  6
CONTINUOUS
 62
     5
 10
-215.1608260000003
 20
205.69622899999919
 30
0.0
 11
-216.1386590000001
 21
202.80084199999959
 31
0.0
  0
LINE
  5
18C
  8
DETAIL
  6
CONTINUOUS
 62
     5
 10
-213.71744599999971
 20
208.39964799999959
 30
0.0
 11
-215.1608260000003
 21
205.69622899999919
 31
0.0
  0
LINE
  5
18D
  8
DETAIL
  6
CONTINUOUS
 62
     5
 10
-211.84967500000039
 20
210.83243299999961
 30
0.0
 11
-213.71744599999971
 21
208.39964799999959
 31
0.0
  0
LINE
  5
18E
  8
DETAIL
  6
CONTINUOUS
 62
     5
 10
-209.6100749999996
 20
212.9253369999997
 30
0.0
 11
-211.84967500000039
 21
210.83243299999961
 31
0.0
  0
LINE
  5
18F
  8
DETAIL
  6
CONTINUOUS
 62
     5
 10
-207.06413400000019
 20
214.61713499999951
 30
0.0
 11
-209.6100749999996
 21
212.9253369999997
 31
0.0
  0
LINE
  5
190
  8
DETAIL
  6
CONTINUOUS
 62
     5
 10
-204.28353700000011
 20
215.86050100000011
 30
0.0
 11
-207.06413400000019
 21
214.61713499999951
 31
0.0
  0
LINE
  5
191
  8
DETAIL
  6
CONTINUOUS
 62
     5
 10
-201.35287700000029
 20
216.61907900000011
 30
0.0
 11
-204.28353700000011
 21
215.86050100000011
 31
0.0
  0
LINE
  5
192
  8
DETAIL
  6
CONTINUOUS
 62
     5
 10
-198.35343300000011
 20
216.87401099999991
 30
0.0
 11
-201.35287700000029
 21
216.61907900000011
 31
0.0
  0
LINE
  5
193
  8
DETAIL
  6
CONTINUOUS
 62
     5
 10
-208.5766549999997
 20
192.29089500000001
 30
0.0
 11
-207.9679779999997
 21
191.50601800000001
 31
0.0
  0
LINE
  5
194
  8
DETAIL
  6
CONTINUOUS
 62
     5
 10
-209.5202639999998
 20
194.14144399999981
 30
0.0
 11
-208.5766549999997
 21
192.29089500000001
 31
0.0
  0
LINE
  5
195
  8
DETAIL
  6
CONTINUOUS
 62
     5
 10
-210.1094499999999
 20
196.14396399999981
 30
0.0
 11
-209.5202639999998
 21
194.14144399999981
 31
0.0
  0
LINE
  5
196
  8
DETAIL
  6
CONTINUOUS
 62
     5
 10
-210.32713700000019
 20
198.23195699999991
 30
0.0
 11
-210.1094499999999
 21
196.14396399999981
 31
0.0
  0
LINE
  5
197
  8
DETAIL
  6
CONTINUOUS
 62
     5
 10
-210.16856600000031
 20
200.3358169999992
 30
0.0
 11
-210.32713700000019
 21
198.23195699999991
 31
0.0
  0
LINE
  5
198
  8
DETAIL
  6
CONTINUOUS
 62
     5
 10
-209.64065899999969
 20
202.38951
 30
0.0
 11
-210.16856600000031
 21
200.3358169999992
 31
0.0
  0
LINE
  5
199
  8
DETAIL
  6
CONTINUOUS
 62
     5
 10
-208.76226200000019
 20
204.3256139999994
 30
0.0
 11
-209.64065899999969
 21
202.38951
 31
0.0
  0
LINE
  5
19A
  8
DETAIL
  6
CONTINUOUS
 62
     5
 10
-207.5618350000004
 20
206.08397199999939
 30
0.0
 11
-208.76226200000019
 21
204.3256139999994
 31
0.0
  0
LINE
  5
19B
  8
DETAIL
  6
CONTINUOUS
 62
     5
 10
-206.07839700000019
 20
207.60804399999961
 30
0.0
 11
-207.5618350000004
 21
206.08397199999939
 31
0.0
  0
LINE
  5
19C
  8
DETAIL
  6
CONTINUOUS
 62
     5
 10
-204.358937
 20
208.84942299999969
 30
0.0
 11
-206.07839700000019
 21
207.60804399999961
 31
0.0
  0
LINE
  5
19D
  8
DETAIL
  6
CONTINUOUS
 62
     5
 10
-202.45823800000019
 20
209.76774099999969
 30
0.0
 11
-204.358937
 21
208.84942299999969
 31
0.0
  0
LINE
  5
19E
  8
DETAIL
  6
CONTINUOUS
 62
     5
 10
-200.43467100000001
 20
210.33291800000009
 30
0.0
 11
-202.45823800000019
 21
209.76774099999969
 31
0.0
  0
LINE
  5
19F
  8
DETAIL
  6
CONTINUOUS
 62
     5
 10
-198.35343300000011
 20
210.52401099999949
 30
0.0
 11
-200.43467100000001
 21
210.33291800000009
 31
0.0
  0
LINE
  5
1A8
  8
DETAIL
  6
CONTINUOUS
 62
     5
 10
-174.79079900000031
 20
198.6687789999994
 30
0.0
 11
-174.95071699999971
 21
196.39999999999941
 31
0.0
  0
LINE
  5
1A9
  8
DETAIL
  6
CONTINUOUS
 62
     5
 10
-174.31710899999959
 20
200.86706199999929
 30
0.0
 11
-174.79079900000031
 21
198.6687789999994
 31
0.0
  0
LINE
  5
1AA
  8
DETAIL
  6
CONTINUOUS
 62
     5
 10
-173.5464030000002
 20
202.9297469999992
 30
0.0
 11
-174.31710899999959
 21
200.86706199999929
 31
0.0
  0
LINE
  5
1AB
  8
DETAIL
  6
CONTINUOUS
 62
     5
 10
-172.5036879999997
 20
204.79846499999991
 30
0.0
 11
-173.5464030000002
 21
202.9297469999992
 31
0.0
  0
LINE
  5
1AC
  8
DETAIL
  6
CONTINUOUS
 62
     5
 10
-171.21815900000001
 20
206.42373899999981
 30
0.0
 11
-172.5036879999997
 21
204.79846499999991
 31
0.0
  0
LINE
  5
1AD
  8
DETAIL
  6
CONTINUOUS
 62
     5
 10
-169.7192729999997
 20
207.7630689999996
 30
0.0
 11
-171.21815900000001
 21
206.42373899999981
 31
0.0
  0
LINE
  5
1AE
  8
DETAIL
  6
CONTINUOUS
 62
     5
 10
-168.03433800000039
 20
208.7763230000001
 30
0.0
 11
-169.7192729999997
 21
207.7630689999996
 31
0.0
  0
LINE
  5
1AF
  8
DETAIL
  6
CONTINUOUS
 62
     5
 10
-166.19566099999969
 20
209.4180609999994
 30
0.0
 11
-168.03433800000039
 21
208.7763230000001
 31
0.0
  0
LINE
  5
1B0
  8
DETAIL
  6
CONTINUOUS
 62
     5
 10
-164.2605860000003
 20
209.63999999999939
 30
0.0
 11
-166.19566099999969
 21
209.4180609999994
 31
0.0
  0
LINE
  5
1B1
  8
DETAIL
  6
CONTINUOUS
 62
     5
 10
-121.2626090000003
 20
219.8817549999994
 30
0.0
 11
-97.295025708537182
 21
223.14825493648459
 31
0.0
  0
LINE
  5
1B2
  8
DETAIL
  6
CONTINUOUS
 62
     5
 10
-102.76382199999991
 20
215.99421999999959
 30
0.0
 11
-97.242292303676706
 21
216.74673943094501
 31
0.0
  0
LINE
  5
1B3
  8
DETAIL
  6
CONTINUOUS
 62
     5
 10
86.173275000000075
 20
21.956027999999598
 30
0.0
 11
88.87039999999979
 21
22.912786999999309
 31
0.0
  0
LINE
  5
1B4
  8
DETAIL
  6
CONTINUOUS
 62
     5
 10
95.140558000000041
 20
42.274978999999767
 30
0.0
 11
95.337808999999666
 21
45.253315999999359
 31
0.0
  0
LINE
  5
1B5
  8
DETAIL
  6
CONTINUOUS
 62
     5
 10
94.549509999999785
 20
39.183877999999829
 30
0.0
 11
95.140558000000041
 21
42.274978999999767
 31
0.0
  0
LINE
  5
1B6
  8
DETAIL
  6
CONTINUOUS
 62
     5
 10
93.575652999999861
 20
36.197723999999653
 30
0.0
 11
94.549509999999785
 21
39.183877999999829
 31
0.0
  0
LINE
  5
1B7
  8
DETAIL
  6
CONTINUOUS
 62
     5
 10
92.241828000000197
 20
33.376478999999563
 30
0.0
 11
93.575652999999861
 21
36.197723999999653
 31
0.0
  0
LINE
  5
1B8
  8
DETAIL
  6
CONTINUOUS
 62
     5
 10
90.56740699999952
 20
30.756246999999352
 30
0.0
 11
92.241828000000197
 21
33.376478999999563
 31
0.0
  0
LINE
  5
1B9
  8
DETAIL
  6
CONTINUOUS
 62
     5
 10
88.575856999999814
 20
28.374844999999372
 30
0.0
 11
90.56740699999952
 21
30.756246999999352
 31
0.0
  0
LINE
  5
1BA
  8
DETAIL
  6
CONTINUOUS
 62
     5
 10
86.299761000000217
 20
26.274206000000049
 30
0.0
 11
88.575856999999814
 21
28.374844999999372
 31
0.0
  0
LINE
  5
1BB
  8
DETAIL
  6
CONTINUOUS
 62
     5
 10
83.790101999999933
 20
24.498773999999688
 30
0.0
 11
86.299761000000217
 21
26.274206000000049
 31
0.0
  0
LINE
  5
1BC
  8
DETAIL
  6
CONTINUOUS
 62
     5
 10
81.0767740000001
 20
23.069517999999341
 30
0.0
 11
83.790101999999933
 21
24.498773999999688
 31
0.0
  0
LINE
  5
1BD
  8
DETAIL
  6
CONTINUOUS
 62
     5
 10
79.0
 20
22.303120999999919
 30
0.0
 11
81.0767740000001
 21
23.069517999999341
 31
0.0
  0
LINE
  5
1BE
  8
DETAIL
  6
CONTINUOUS
 62
     5
 10
103.3236610000003
 20
42.524390999999923
 30
0.0
 11
103.4906090000004
 21
45.253315999999359
 31
0.0
  0
LINE
  5
1BF
  8
DETAIL
  6
CONTINUOUS
 62
     5
 10
102.8234240000001
 20
39.675180999999611
 30
0.0
 11
103.3236610000003
 21
42.524390999999923
 31
0.0
  0
LINE
  5
1C0
  8
DETAIL
  6
CONTINUOUS
 62
     5
 10
102.00031200000009
 20
36.912821999999323
 30
0.0
 11
102.8234240000001
 21
39.675180999999611
 31
0.0
  0
LINE
  5
1C1
  8
DETAIL
  6
CONTINUOUS
 62
     5
 10
100.8665300000002
 20
34.273284999999298
 30
0.0
 11
102.00031200000009
 21
36.912821999999323
 31
0.0
  0
LINE
  5
1C2
  8
DETAIL
  6
CONTINUOUS
 62
     5
 10
99.439148000000387
 20
31.792739999999871
 30
0.0
 11
100.8665300000002
 21
34.273284999999298
 31
0.0
  0
LINE
  5
1C3
  8
DETAIL
  6
CONTINUOUS
 62
     5
 10
97.732973000000129
 20
29.498217999999721
 30
0.0
 11
99.439148000000387
 21
31.792739999999871
 31
0.0
  0
LINE
  5
1C4
  8
DETAIL
  6
CONTINUOUS
 62
     5
 10
95.776866999999584
 20
27.42932999999994
 30
0.0
 11
97.732973000000129
 21
29.498217999999721
 31
0.0
  0
LINE
  5
1C5
  8
DETAIL
  6
CONTINUOUS
 62
     5
 10
93.599251999999964
 20
25.614668999999601
 30
0.0
 11
95.776866999999584
 21
27.42932999999994
 31
0.0
  0
LINE
  5
1C6
  8
DETAIL
  6
CONTINUOUS
 62
     5
 10
91.236431999999695
 20
24.082386000000039
 30
0.0
 11
93.599251999999964
 21
25.614668999999601
 31
0.0
  0
LINE
  5
1C7
  8
DETAIL
  6
CONTINUOUS
 62
     5
 10
88.87040499999965
 20
22.912788999999979
 30
0.0
 11
91.236431999999695
 21
24.082386000000039
 31
0.0
  0
LINE
  5
1C8
  8
DETAIL
  6
CONTINUOUS
 62
     5
 10
93.947917999999845
 20
19.436485999999601
 30
0.0
 11
90.511112000000125
 21
19.089208999999752
 31
0.0
  0
LINE
  5
1C9
  8
DETAIL
  6
CONTINUOUS
 62
     5
 10
97.254292999999961
 20
20.465460999999781
 30
0.0
 11
93.947917999999845
 21
19.436485999999601
 31
0.0
  0
LINE
  5
1CA
  8
DETAIL
  6
CONTINUOUS
 62
     5
 10
100.3049700000001
 20
22.138333999999318
 30
0.0
 11
97.254292999999961
 21
20.465460999999781
 31
0.0
  0
LINE
  5
1CB
  8
DETAIL
  6
CONTINUOUS
 62
     5
 10
102.98310000000031
 20
24.393212999999381
 30
0.0
 11
100.3049700000001
 21
22.138333999999318
 31
0.0
  0
LINE
  5
1CC
  8
DETAIL
  6
CONTINUOUS
 62
     5
 10
105.184725
 20
27.145547999999518
 30
0.0
 11
102.98310000000031
 21
24.393212999999381
 31
0.0
  0
LINE
  5
1CD
  8
DETAIL
  6
CONTINUOUS
 62
     5
 10
106.823273
 20
30.290701999999332
 30
0.0
 11
105.184725
 21
27.145547999999518
 31
0.0
  0
LINE
  5
1CE
  8
DETAIL
  6
CONTINUOUS
 62
     5
 10
107.8335790000001
 20
33.707739999999831
 30
0.0
 11
106.823273
 21
30.290701999999332
 31
0.0
  0
LINE
  5
1CF
  8
DETAIL
  6
CONTINUOUS
 62
     5
 10
108.1750000000001
 20
37.264208999999937
 30
0.0
 11
107.8335790000001
 21
33.707739999999831
 31
0.0
  0
LINE
  5
1D0
  8
DETAIL
  6
CONTINUOUS
 62
     5
 10
131.75
 20
139.1406639999995
 30
0.0
 11
131.75
 21
165.5
 31
0.0
  0
LINE
  5
1D1
  8
DETAIL
  6
CONTINUOUS
 62
     5
 10
131.75
 20
95.5
 30
0.0
 11
131.75
 21
109.0
 31
0.0
  0
LINE
  5
1D2
  8
DETAIL
  6
CONTINUOUS
 62
     5
 10
129.75147199999981
 20
216.34999999999951
 30
0.0
 11
129.75147199999981
 21
208.34999999999951
 31
0.0
  0
LINE
  5
1D3
  8
DETAIL
  6
CONTINUOUS
 62
     5
 10
128.9264720000001
 20
215.52499999999969
 30
0.0
 11
128.9264720000001
 21
209.1749999999993
 31
0.0
  0
LINE
  5
1D4
  8
DETAIL
  6
CONTINUOUS
 62
     5
 10
119.0
 20
12.0
 30
0.0
 11
119.0
 21
11.0
 31
0.0
  0
LINE
  5
1D5
  8
DETAIL
  6
CONTINUOUS
 62
     5
 10
94.415624000000207
 20
170.15537399999991
 30
0.0
 11
94.748797999999624
 21
168.5
 31
0.0
  0
LINE
  5
1D6
  8
DETAIL
  6
CONTINUOUS
 62
     5
 10
93.788908999999848
 20
171.95593599999941
 30
0.0
 11
94.415624000000207
 21
170.15537399999991
 31
0.0
  0
LINE
  5
1D7
  8
DETAIL
  6
CONTINUOUS
 62
     5
 10
92.941275999999561
 20
173.5944139999992
 30
0.0
 11
93.788908999999848
 21
171.95593599999941
 31
0.0
  0
LINE
  5
1D8
  8
DETAIL
  6
CONTINUOUS
 62
     5
 10
91.897449000000066
 20
175.02941800000011
 30
0.0
 11
92.941275999999561
 21
173.5944139999992
 31
0.0
  0
LINE
  5
1D9
  8
DETAIL
  6
CONTINUOUS
 62
     5
 10
90.682913999999968
 20
176.22656499999991
 30
0.0
 11
91.897449000000066
 21
175.02941800000011
 31
0.0
  0
LINE
  5
1DA
  8
DETAIL
  6
CONTINUOUS
 62
     5
 10
101.0790580000002
 20
169.1990289999994
 30
0.0
 11
101.12719800000011
 21
168.5
 31
0.0
  0
LINE
  5
1DB
  8
DETAIL
  6
CONTINUOUS
 62
     5
 10
100.47799999999999
 20
172.05513799999969
 30
0.0
 11
101.0790580000002
 21
169.1990289999994
 31
0.0
  0
LINE
  5
1DC
  8
DETAIL
  6
CONTINUOUS
 62
     5
 10
99.491568000000385
 20
174.76231999999979
 30
0.0
 11
100.47799999999999
 21
172.05513799999969
 31
0.0
  0
LINE
  5
1DD
  8
DETAIL
  6
CONTINUOUS
 62
     5
 10
98.144631999999561
 20
177.2472239999997
 30
0.0
 11
99.491568000000385
 21
174.76231999999979
 31
0.0
  0
LINE
  5
1DE
  8
DETAIL
  6
CONTINUOUS
 62
     5
 10
96.474310999999943
 20
179.44074300000011
 30
0.0
 11
98.144631999999561
 21
177.2472239999997
 31
0.0
  0
LINE
  5
1DF
  8
DETAIL
  6
CONTINUOUS
 62
     5
 10
94.529442000000003
 20
181.28285599999981
 30
0.0
 11
96.474310999999943
 21
179.44074300000011
 31
0.0
  0
LINE
  5
1E0
  8
DETAIL
  6
CONTINUOUS
 62
     5
 10
92.517362999999946
 20
182.62772399999989
 30
0.0
 11
94.529442000000003
 21
181.28285599999981
 31
0.0
  0
LINE
  5
1E1
  8
DETAIL
  6
CONTINUOUS
 62
     5
 10
200.61773999999971
 20
118.8232499999994
 30
0.0
 11
178.6199560000004
 21
131.52197099999921
 31
0.0
  0
LINE
  5
1E2
  8
DETAIL
  6
CONTINUOUS
 62
     5
 10
205.38226000000029
 20
101.6767489999993
 30
0.0
 11
183.38447600000001
 21
114.37546999999979
 31
0.0
  0
LINE
  5
1E4
  8
DETAIL
  6
CONTINUOUS
 62
     5
 10
101.656465
 20
204.4105329999993
 30
0.0
 11
101.8249999999998
 21
202.36991599999959
 31
0.0
  0
LINE
  5
1E5
  8
DETAIL
  6
CONTINUOUS
 62
     5
 10
101.1557110000003
 20
206.3905869999999
 30
0.0
 11
101.656465
 21
204.4105329999993
 31
0.0
  0
LINE
  5
1E6
  8
DETAIL
  6
CONTINUOUS
 62
     5
 10
100.3369540000003
 20
208.2515399999993
 30
0.0
 11
101.1557110000003
 21
206.3905869999999
 31
0.0
  0
LINE
  5
1E7
  8
DETAIL
  6
CONTINUOUS
 62
     5
 10
99.223286000000357
 20
209.9380199999996
 30
0.0
 11
100.3369540000003
 21
208.2515399999993
 31
0.0
  0
LINE
  5
1E8
  8
DETAIL
  6
CONTINUOUS
 62
     5
 10
97.846120999999584
 20
211.3990949999997
 30
0.0
 11
99.223286000000357
 21
209.9380199999996
 31
0.0
  0
LINE
  5
1E9
  8
DETAIL
  6
CONTINUOUS
 62
     5
 10
96.244746000000305
 20
212.5893989999995
 30
0.0
 11
97.846120999999584
 21
211.3990949999997
 31
0.0
  0
LINE
  5
1EA
  8
DETAIL
  6
CONTINUOUS
 62
     5
 10
94.465940000000003
 20
213.4704069999998
 30
0.0
 11
96.244746000000305
 21
212.5893989999995
 31
0.0
  0
LINE
  5
1EB
  8
DETAIL
  6
CONTINUOUS
 62
     5
 10
92.563578000000234
 20
214.01206599999929
 30
0.0
 11
94.465940000000003
 21
213.4704069999998
 31
0.0
  0
LINE
  5
1EC
  8
DETAIL
  6
CONTINUOUS
 62
     5
 10
90.597316999999705
 20
214.19491599999949
 30
0.0
 11
92.563578000000234
 21
214.01206599999929
 31
0.0
  0
LINE
  5
1ED
  8
DETAIL
  6
CONTINUOUS
 62
     5
 10
71.498021999999764
 20
220.5449159999998
 30
0.0
 11
90.597316999999705
 21
220.5449159999998
 31
0.0
  0
LINE
  5
1EE
  8
DETAIL
  6
CONTINUOUS
 62
     5
 10
-155.470507
 20
219.1599999999998
 30
0.0
 11
-161.7107169999999
 21
219.1599999999998
 31
0.0
  0
LINE
  5
1EF
  8
DETAIL
  6
CONTINUOUS
 62
     5
 10
-114.3432929999999
 20
219.1599999999998
 30
0.0
 11
-122.0926239999999
 21
219.1599999999998
 31
0.0
  0
LINE
  5
1F1
  8
DETAIL
  6
CONTINUOUS
 62
     5
 10
-180.0115089999999
 20
216.87401099999991
 30
0.0
 11
-182.24884899999961
 21
216.87401099999991
 31
0.0
  0
LINE
  5
1F2
  8
DETAIL
  6
CONTINUOUS
 62
     5
 10
133.0
 20
216.34999999999951
 30
0.0
 11
129.75147199999981
 21
216.34999999999951
 31
0.0
  0
LINE
  5
1F3
  8
DETAIL
  6
CONTINUOUS
 62
     5
 10
102.6863190000003
 20
215.52499999999969
 30
0.0
 11
128.9264720000001
 21
215.52499999999969
 31
0.0
  0
LINE
  5
1F4
  8
DETAIL
  6
CONTINUOUS
 62
     5
 10
-174.08994875410639
 20
215.49901099999991
 30
0.0
 11
-178.6263220000001
 21
215.49901099999991
 31
0.0
  0
LINE
  5
1F6
  8
DETAIL
  6
CONTINUOUS
 62
     5
 10
71.498021999999764
 20
214.19491599999949
 30
0.0
 11
90.597316999999705
 21
214.19491599999949
 31
0.0
  0
LINE
  5
1F7
  8
DETAIL
  6
CONTINUOUS
 62
     5
 10
-180.4584960000002
 20
210.52401099999949
 30
0.0
 11
-187.03881000000001
 21
210.52401099999949
 31
0.0
  0
LINE
  5
1F8
  8
DETAIL
  6
CONTINUOUS
 62
     5
 10
-155.4824339999995
 20
209.63999999999939
 30
0.0
 11
-164.2605860000003
 21
209.63999999999939
 31
0.0
  0
LINE
  5
1F9
  8
DETAIL
  6
CONTINUOUS
 62
     5
 10
-111.7934240000004
 20
209.63999999999939
 30
0.0
 11
-122.0943969999998
 21
209.63999999999939
 31
0.0
  0
LINE
  5
1FA
  8
DETAIL
  6
CONTINUOUS
 62
     5
 10
-154.46244300000029
 20
208.8240109999997
 30
0.0
 11
-155.67635700000031
 21
208.8240109999997
 31
0.0
  0
LINE
  5
1FB
  8
DETAIL
  6
CONTINUOUS
 62
     5
 10
-129.57652400000001
 20
208.8240109999997
 30
0.0
 11
-146.2657589999998
 21
208.8240109999997
 31
0.0
  0
LINE
  5
1FC
  8
DETAIL
  6
CONTINUOUS
 62
     5
 10
-119.91669900000031
 20
208.8240109999997
 30
0.0
 11
-121.3948129999999
 21
208.8240109999997
 31
0.0
  0
LINE
  5
1FD
  8
DETAIL
  6
CONTINUOUS
 62
     5
 10
-108.1683970000003
 20
208.8240109999997
 30
0.0
 11
-112.1687119999997
 21
208.8240109999997
 31
0.0
  0
LINE
  5
1FF
  8
DETAIL
  6
CONTINUOUS
 62
     5
 10
107.03950900000019
 20
208.6749999999993
 30
0.0
 11
128.9264720000001
 21
208.6749999999993
 31
0.0
  0
LINE
  5
200
  8
DETAIL
  6
CONTINUOUS
 62
     5
 10
88.190182000000263
 20
208.6749999999993
 30
0.0
 11
100.0573219999996
 21
208.6749999999993
 31
0.0
  0
LINE
  5
201
  8
DETAIL
  6
CONTINUOUS
 62
     5
 10
-119.91669900000031
 20
208.22401099999931
 30
0.0
 11
-112.82656800000041
 21
208.22401099999931
 31
0.0
  0
LINE
  5
202
  8
DETAIL
  6
CONTINUOUS
 62
     5
 10
133.0
 20
207.8499999999996
 30
0.0
 11
129.75147199999981
 21
207.8499999999996
 31
0.0
  0
LINE
  5
203
  8
DETAIL
  6
CONTINUOUS
 62
     5
 10
86.151065000000017
 20
70.643584999999803
 30
0.0
 11
85.229506999999998
 21
70.29178999999931
 31
0.0
  0
LINE
  5
204
  8
DETAIL
  6
CONTINUOUS
 62
     5
 10
87.777960999999806
 20
71.560465999999906
 30
0.0
 11
86.151065000000017
 21
70.643584999999803
 31
0.0
  0
LINE
  5
205
  8
DETAIL
  6
CONTINUOUS
 62
     5
 10
89.259904999999861
 20
72.711195999999291
 30
0.0
 11
87.777960999999806
 21
71.560465999999906
 31
0.0
  0
LINE
  5
206
  8
DETAIL
  6
CONTINUOUS
 62
     5
 10
93.186488000000281
 20
76.799991999999293
 30
0.0
 11
89.259904999999861
 21
72.711195999999291
 31
0.0
  0
LINE
  5
207
  8
DETAIL
  6
CONTINUOUS
 62
     5
 10
79.770429000000121
 20
26.209977999999872
 30
0.0
 11
79.0
 21
25.92202699999962
 31
0.0
  0
LINE
  5
208
  8
DETAIL
  6
CONTINUOUS
 62
     5
 10
82.089710999999625
 20
27.44462599999952
 30
0.0
 11
79.770429000000121
 21
26.209977999999872
 31
0.0
  0
LINE
  5
209
  8
DETAIL
  6
CONTINUOUS
 62
     5
 10
84.23256500000025
 20
28.975516999999851
 30
0.0
 11
82.089710999999625
 21
27.44462599999952
 31
0.0
  0
LINE
  5
20A
  8
DETAIL
  6
CONTINUOUS
 62
     5
 10
86.175059000000132
 20
30.78423599999951
 30
0.0
 11
84.23256500000025
 21
28.975516999999851
 31
0.0
  0
LINE
  5
20B
  8
DETAIL
  6
CONTINUOUS
 62
     5
 10
87.872644000000037
 20
32.831394999999269
 30
0.0
 11
86.175059000000132
 21
30.78423599999951
 31
0.0
  0
LINE
  5
20C
  8
DETAIL
  6
CONTINUOUS
 62
     5
 10
89.300216999999947
 20
35.083059999999932
 30
0.0
 11
87.872644000000037
 21
32.831394999999269
 31
0.0
  0
LINE
  5
20D
  8
DETAIL
  6
CONTINUOUS
 62
     5
 10
90.436762999999715
 20
37.505799999999901
 30
0.0
 11
89.300216999999947
 21
35.083059999999932
 31
0.0
  0
LINE
  5
20E
  8
DETAIL
  6
CONTINUOUS
 62
     5
 10
91.266775000000038
 20
40.070100999999319
 30
0.0
 11
90.436762999999715
 21
37.505799999999901
 31
0.0
  0
LINE
  5
20F
  8
DETAIL
  6
CONTINUOUS
 62
     5
 10
91.769992999999872
 20
42.72196299999996
 30
0.0
 11
91.266775000000038
 21
40.070100999999319
 31
0.0
  0
LINE
  5
210
  8
DETAIL
  6
CONTINUOUS
 62
     5
 10
91.937879000000024
 20
45.275100999999253
 30
0.0
 11
91.769992999999872
 21
42.72196299999996
 31
0.0
  0
LINE
  5
211
  8
DETAIL
  6
CONTINUOUS
 62
     5
 10
108.1750000000001
 20
52.26420899999993
 30
0.0
 11
108.1750000000001
 21
37.264208999999937
 31
0.0
  0
LINE
  5
212
  8
DETAIL
  6
CONTINUOUS
 62
     5
 10
108.1750000000001
 20
202.36991599999959
 30
0.0
 11
108.1750000000001
 21
200.73579100000001
 31
0.0
  0
LINE
  5
213
  8
DETAIL
  6
CONTINUOUS
 62
     5
 10
101.8249999999998
 20
202.36991599999959
 30
0.0
 11
101.8249999999998
 21
200.73579100000001
 31
0.0
  0
LINE
  5
214
  8
DETAIL
  6
CONTINUOUS
 62
     5
 10
87.783793999999943
 20
65.984437000000071
 30
0.0
 11
86.095201000000088
 21
66.894631000000103
 31
0.0
  0
LINE
  5
215
  8
DETAIL
  6
CONTINUOUS
 62
     5
 10
90.245073000000033
 20
64.203528999999435
 30
0.0
 11
87.783793999999943
 21
65.984437000000071
 31
0.0
  0
LINE
  5
216
  8
DETAIL
  6
CONTINUOUS
 62
     5
 10
92.471051999999872
 20
62.101490000000013
 30
0.0
 11
90.245073000000033
 21
64.203528999999435
 31
0.0
  0
LINE
  5
217
  8
DETAIL
  6
CONTINUOUS
 62
     5
 10
94.417924999999755
 20
59.7142879999992
 30
0.0
 11
92.471051999999872
 21
62.101490000000013
 31
0.0
  0
LINE
  5
218
  8
DETAIL
  6
CONTINUOUS
 62
     5
 10
96.050223999999602
 20
57.083888999999537
 30
0.0
 11
94.417924999999755
 21
59.7142879999992
 31
0.0
  0
LINE
  5
219
  8
DETAIL
  6
CONTINUOUS
 62
     5
 10
97.33994799999985
 20
54.252638999999363
 30
0.0
 11
96.050223999999602
 21
57.083888999999537
 31
0.0
  0
LINE
  5
21A
  8
DETAIL
  6
CONTINUOUS
 62
     5
 10
98.265481999999793
 20
51.266467999999797
 30
0.0
 11
97.33994799999985
 21
54.252638999999363
 31
0.0
  0
LINE
  5
21B
  8
DETAIL
  6
CONTINUOUS
 62
     5
 10
98.806424000000305
 20
48.194693999999799
 30
0.0
 11
98.265481999999793
 21
51.266467999999797
 31
0.0
  0
LINE
  5
21C
  8
DETAIL
  6
CONTINUOUS
 62
     5
 10
98.961274999999659
 20
45.253315999999359
 30
0.0
 11
98.806424000000305
 21
48.194693999999799
 31
0.0
  0
LINE
  5
21D
  8
DETAIL
  6
CONTINUOUS
 62
     5
 10
85.9752909999997
 20
65.982334999999694
 30
0.0
 11
84.922986999999921
 21
66.549784999999247
 31
0.0
  0
LINE
  5
21E
  8
DETAIL
  6
CONTINUOUS
 62
     5
 10
88.441775000000206
 20
64.19654600000014
 30
0.0
 11
85.9752909999997
 21
65.982334999999694
 31
0.0
  0
LINE
  5
21F
  8
DETAIL
  6
CONTINUOUS
 62
     5
 10
90.667005999999674
 20
62.093213999999541
 30
0.0
 11
88.441775000000206
 21
64.19654600000014
 31
0.0
  0
LINE
  5
220
  8
DETAIL
  6
CONTINUOUS
 62
     5
 10
92.608540999999605
 20
59.710975999999391
 30
0.0
 11
90.667005999999674
 21
62.093213999999541
 31
0.0
  0
LINE
  5
221
  8
DETAIL
  6
CONTINUOUS
 62
     5
 10
94.236713000000208
 20
57.087171000000097
 30
0.0
 11
92.608540999999605
 21
59.710975999999391
 31
0.0
  0
LINE
  5
222
  8
DETAIL
  6
CONTINUOUS
 62
     5
 10
95.524591999999785
 20
54.262295999999878
 30
0.0
 11
94.236713000000208
 21
57.087171000000097
 31
0.0
  0
LINE
  5
223
  8
DETAIL
  6
CONTINUOUS
 62
     5
 10
96.450112000000445
 20
51.281294999999773
 30
0.0
 11
95.524591999999785
 21
54.262295999999878
 31
0.0
  0
LINE
  5
224
  8
DETAIL
  6
CONTINUOUS
 62
     5
 10
96.993653999999864
 20
48.20406599999933
 30
0.0
 11
96.450112000000445
 21
51.281294999999773
 31
0.0
  0
LINE
  5
225
  8
DETAIL
  6
CONTINUOUS
 62
     5
 10
97.149542000000153
 20
45.253315999999359
 30
0.0
 11
96.993653999999864
 21
48.20406599999933
 31
0.0
  0
LINE
  5
226
  8
DETAIL
  6
CONTINUOUS
 62
     5
 10
105.1455880000003
 20
48.212082999999438
 30
0.0
 11
104.5979310000002
 21
51.30155099999957
 31
0.0
  0
LINE
  5
227
  8
DETAIL
  6
CONTINUOUS
 62
     5
 10
105.3023419999999
 20
45.253315999999359
 30
0.0
 11
105.1455880000003
 21
48.212082999999438
 31
0.0
  0
LINE
  5
228
  8
DETAIL
  6
CONTINUOUS
 62
     5
 10
90.551639000000236
 20
67.422119999999282
 30
0.0
 11
88.861127999999539
 21
68.061767999999574
 31
0.0
  0
LINE
  5
229
  8
DETAIL
  6
CONTINUOUS
 62
     5
 10
93.220091999999568
 20
65.983448999999382
 30
0.0
 11
90.551639000000236
 21
67.422119999999282
 31
0.0
  0
LINE
  5
22A
  8
DETAIL
  6
CONTINUOUS
 62
     5
 10
95.679976000000366
 20
64.204144999999698
 30
0.0
 11
93.220091999999568
 21
65.983448999999382
 31
0.0
  0
LINE
  5
22B
  8
DETAIL
  6
CONTINUOUS
 62
     5
 10
97.902469999999994
 20
62.10540999999921
 30
0.0
 11
95.679976000000366
 21
64.204144999999698
 31
0.0
  0
LINE
  5
22C
  8
DETAIL
  6
CONTINUOUS
 62
     5
 10
99.850572999999713
 20
59.717878999999812
 30
0.0
 11
97.902469999999994
 21
62.10540999999921
 31
0.0
  0
LINE
  5
22D
  8
DETAIL
  6
CONTINUOUS
 62
     5
 10
101.4808000000003
 20
57.092537999999877
 30
0.0
 11
99.850572999999713
 21
59.717878999999812
 31
0.0
  0
LINE
  5
22E
  8
DETAIL
  6
CONTINUOUS
 62
     5
 10
102.7669159999996
 20
54.274281999999403
 30
0.0
 11
101.4808000000003
 21
57.092537999999877
 31
0.0
  0
LINE
  5
22F
  8
DETAIL
  6
CONTINUOUS
 62
     5
 10
103.6939140000004
 20
51.294039999999761
 30
0.0
 11
102.7669159999996
 21
54.274281999999403
 31
0.0
  0
LINE
  5
230
  8
DETAIL
  6
CONTINUOUS
 62
     5
 10
104.2398009999997
 20
48.21129299999938
 30
0.0
 11
103.6939140000004
 21
51.294039999999761
 31
0.0
  0
LINE
  5
231
  8
DETAIL
  6
CONTINUOUS
 62
     5
 10
104.3964749999995
 20
45.253315999999359
 30
0.0
 11
104.2398009999997
 21
48.21129299999938
 31
0.0
  0
LINE
  5
232
  8
DETAIL
  6
CONTINUOUS
 62
     5
 10
89.623583999999937
 20
67.432073999999375
 30
0.0
 11
88.474688000000214
 21
67.86579299999994
 31
0.0
  0
LINE
  5
233
  8
DETAIL
  6
CONTINUOUS
 62
     5
 10
92.291441999999705
 20
65.997934999999416
 30
0.0
 11
89.623583999999937
 21
67.432073999999375
 31
0.0
  0
LINE
  5
234
  8
DETAIL
  6
CONTINUOUS
 62
     5
 10
94.758243000000206
 20
64.216942999999461
 30
0.0
 11
92.291441999999705
 21
65.997934999999416
 31
0.0
  0
LINE
  5
235
  8
DETAIL
  6
CONTINUOUS
 62
     5
 10
96.988172000000304
 20
62.1146349999999
 30
0.0
 11
94.758243000000206
 21
64.216942999999461
 31
0.0
  0
LINE
  5
236
  8
DETAIL
  6
CONTINUOUS
 62
     5
 10
98.936813999999686
 20
59.728801999999632
 30
0.0
 11
96.988172000000304
 21
62.1146349999999
 31
0.0
  0
LINE
  5
237
  8
DETAIL
  6
CONTINUOUS
 62
     5
 10
100.57038399999961
 20
57.101231999999982
 30
0.0
 11
98.936813999999686
 21
59.728801999999632
 31
0.0
  0
LINE
  5
238
  8
DETAIL
  6
CONTINUOUS
 62
     5
 10
101.8583520000002
 20
54.28124200000002
 30
0.0
 11
100.57038399999961
 21
57.101231999999982
 31
0.0
  0
LINE
  5
239
  8
DETAIL
  6
CONTINUOUS
 62
     5
 10
102.7873300000001
 20
51.296962999999771
 30
0.0
 11
101.8583520000002
 21
54.28124200000002
 31
0.0
  0
LINE
  5
23A
  8
DETAIL
  6
CONTINUOUS
 62
     5
 10
103.3341819999996
 20
48.209156999999323
 30
0.0
 11
102.7873300000001
 21
51.296962999999771
 31
0.0
  0
LINE
  5
23B
  8
DETAIL
  6
CONTINUOUS
 62
     5
 10
103.4906090000004
 20
45.253315999999359
 30
0.0
 11
103.3341819999996
 21
48.209156999999323
 31
0.0
  0
LINE
  5
23C
  8
DETAIL
  6
CONTINUOUS
 62
     5
 10
88.746255000000033
 20
67.41916399999991
 30
0.0
 11
88.086655000000064
 21
67.669010999999955
 31
0.0
  0
LINE
  5
23D
  8
DETAIL
  6
CONTINUOUS
 62
     5
 10
91.412876000000324
 20
65.980724000000009
 30
0.0
 11
88.746255000000033
 21
67.41916399999991
 31
0.0
  0
LINE
  5
23E
  8
DETAIL
  6
CONTINUOUS
 62
     5
 10
93.870944999999665
 20
64.201817999999548
 30
0.0
 11
91.412876000000324
 21
65.980724000000009
 31
0.0
  0
LINE
  5
23F
  8
DETAIL
  6
CONTINUOUS
 62
     5
 10
96.093839999999545
 20
62.102068999999567
 30
0.0
 11
93.870944999999665
 21
64.201817999999548
 31
0.0
  0
LINE
  5
240
  8
DETAIL
  6
CONTINUOUS
 62
     5
 10
98.04105299999992
 20
59.714804999999608
 30
0.0
 11
96.093839999999545
 21
62.102068999999567
 31
0.0
  0
LINE
  5
241
  8
DETAIL
  6
CONTINUOUS
 62
     5
 10
99.669977999999901
 20
57.090822999999553
 30
0.0
 11
98.04105299999992
 21
59.714804999999608
 31
0.0
  0
LINE
  5
242
  8
DETAIL
  6
CONTINUOUS
 62
     5
 10
100.95640300000009
 20
54.271052999999448
 30
0.0
 11
99.669977999999901
 21
57.090822999999553
 31
0.0
  0
LINE
  5
243
  8
DETAIL
  6
CONTINUOUS
 62
     5
 10
101.8831449999998
 20
51.290215999999418
 30
0.0
 11
100.95640300000009
 21
54.271052999999448
 31
0.0
  0
LINE
  5
244
  8
DETAIL
  6
CONTINUOUS
 62
     5
 10
102.42811400000021
 20
48.210745999999737
 30
0.0
 11
101.8831449999998
 21
51.290215999999418
 31
0.0
  0
LINE
  5
245
  8
DETAIL
  6
CONTINUOUS
 62
     5
 10
102.58474200000001
 20
45.253315999999359
 30
0.0
 11
102.42811400000021
 21
48.210745999999737
 31
0.0
  0
LINE
  5
246
  8
DETAIL
  6
CONTINUOUS
 62
     5
 10
87.818882999999872
 20
67.428916999999288
 30
0.0
 11
87.701003999999543
 21
67.473436999999649
 31
0.0
  0
LINE
  5
247
  8
DETAIL
  6
CONTINUOUS
 62
     5
 10
90.486531999999869
 20
65.993662999999273
 30
0.0
 11
87.818882999999872
 21
67.428916999999288
 31
0.0
  0
LINE
  5
248
  8
DETAIL
  6
CONTINUOUS
 62
     5
 10
92.950557000000089
 20
64.213612999999896
 30
0.0
 11
90.486531999999869
 21
65.993662999999273
 31
0.0
  0
LINE
  5
249
  8
DETAIL
  6
CONTINUOUS
 62
     5
 10
95.180470000000227
 20
62.110227000000108
 30
0.0
 11
92.950557000000089
 21
64.213612999999896
 31
0.0
  0
LINE
  5
24A
  8
DETAIL
  6
CONTINUOUS
 62
     5
 10
97.12613599999986
 20
59.727509999999711
 30
0.0
 11
95.180470000000227
 21
62.110227000000108
 31
0.0
  0
LINE
  5
24B
  8
DETAIL
  6
CONTINUOUS
 62
     5
 10
98.755567000000156
 20
57.106794999999693
 30
0.0
 11
97.12613599999986
 21
59.727509999999711
 31
0.0
  0
LINE
  5
24C
  8
DETAIL
  6
CONTINUOUS
 62
     5
 10
100.04453000000009
 20
54.286767999999931
 30
0.0
 11
98.755567000000156
 21
57.106794999999693
 31
0.0
  0
LINE
  5
24D
  8
DETAIL
  6
CONTINUOUS
 62
     5
 10
100.97429100000041
 20
51.302327999999761
 30
0.0
 11
100.04453000000009
 21
54.286767999999931
 31
0.0
  0
LINE
  5
24E
  8
DETAIL
  6
CONTINUOUS
 62
     5
 10
101.52189399999951
 20
48.21406399999978
 30
0.0
 11
100.97429100000041
 21
51.302327999999761
 31
0.0
  0
LINE
  5
24F
  8
DETAIL
  6
CONTINUOUS
 62
     5
 10
101.67887499999961
 20
45.253315999999359
 30
0.0
 11
101.52189399999951
 21
48.21406399999978
 31
0.0
  0
LINE
  5
250
  8
DETAIL
  6
CONTINUOUS
 62
     5
 10
89.604433999999856
 20
65.978800999999294
 30
0.0
 11
87.192121000000057
 21
67.280482999999535
 31
0.0
  0
LINE
  5
251
  8
DETAIL
  6
CONTINUOUS
 62
     5
 10
92.062414000000004
 20
64.198996000000065
 30
0.0
 11
89.604433999999856
 21
65.978800999999294
 31
0.0
  0
LINE
  5
252
  8
DETAIL
  6
CONTINUOUS
 62
     5
 10
94.28645299999971
 20
62.097479000000021
 30
0.0
 11
92.062414000000004
 21
64.198996000000065
 31
0.0
  0
LINE
  5
253
  8
DETAIL
  6
CONTINUOUS
 62
     5
 10
96.231232000000091
 20
59.71209699999963
 30
0.0
 11
94.28645299999971
 21
62.097479000000021
 31
0.0
  0
LINE
  5
254
  8
DETAIL
  6
CONTINUOUS
 62
     5
 10
97.858726000000402
 20
57.089936999999722
 30
0.0
 11
96.231232000000091
 21
59.71209699999963
 31
0.0
  0
LINE
  5
255
  8
DETAIL
  6
CONTINUOUS
 62
     5
 10
99.145644000000132
 20
54.268450999999892
 30
0.0
 11
97.858726000000402
 21
57.089936999999722
 31
0.0
  0
LINE
  5
256
  8
DETAIL
  6
CONTINUOUS
 62
     5
 10
100.0722999999998
 20
51.286706999999282
 30
0.0
 11
99.145644000000132
 21
54.268450999999892
 31
0.0
  0
LINE
  5
257
  8
DETAIL
  6
CONTINUOUS
 62
     5
 10
100.6163999999999
 20
48.210414999999571
 30
0.0
 11
100.0722999999998
 21
51.286706999999282
 31
0.0
  0
LINE
  5
258
  8
DETAIL
  6
CONTINUOUS
 62
     5
 10
100.7730090000004
 20
45.253315999999359
 30
0.0
 11
100.6163999999999
 21
48.210414999999571
 31
0.0
  0
LINE
  5
259
  8
DETAIL
  6
CONTINUOUS
 62
     5
 10
88.668789999999674
 20
65.997397999999521
 30
0.0
 11
86.642176000000305
 21
67.087033999999221
 31
0.0
  0
LINE
  5
25A
  8
DETAIL
  6
CONTINUOUS
 62
     5
 10
91.136112000000125
 20
64.215869999999995
 30
0.0
 11
88.668789999999674
 21
65.997397999999521
 31
0.0
  0
LINE
  5
25B
  8
DETAIL
  6
CONTINUOUS
 62
     5
 10
93.369340999999636
 20
62.109526999999602
 30
0.0
 11
91.136112000000125
 21
64.215869999999995
 31
0.0
  0
LINE
  5
25C
  8
DETAIL
  6
CONTINUOUS
 62
     5
 10
95.314572000000211
 20
59.7274639999996
 30
0.0
 11
93.369340999999636
 21
62.109526999999602
 31
0.0
  0
LINE
  5
25D
  8
DETAIL
  6
CONTINUOUS
 62
     5
 10
96.942732999999862
 20
57.108610999999662
 30
0.0
 11
95.314572000000211
 21
59.7274639999996
 31
0.0
  0
LINE
  5
25E
  8
DETAIL
  6
CONTINUOUS
 62
     5
 10
98.233543000000282
 20
54.284959999999927
 30
0.0
 11
96.942732999999862
 21
57.108610999999662
 31
0.0
  0
LINE
  5
25F
  8
DETAIL
  6
CONTINUOUS
 62
     5
 10
99.163123000000283
 20
51.29994899999928
 30
0.0
 11
98.233543000000282
 21
54.284959999999927
 31
0.0
  0
LINE
  5
260
  8
DETAIL
  6
CONTINUOUS
 62
     5
 10
99.710310000000405
 20
48.212758999999991
 30
0.0
 11
99.163123000000283
 21
51.29994899999928
 31
0.0
  0
LINE
  5
261
  8
DETAIL
  6
CONTINUOUS
 62
     5
 10
99.867142000000044
 20
45.253315999999359
 30
0.0
 11
99.710310000000405
 21
48.212758999999991
 31
0.0
  0
LINE
  5
262
  8
DETAIL
  6
CONTINUOUS
 62
     5
 10
86.852128999999863
 20
66.000479999999669
 30
0.0
 11
85.547035999999935
 21
66.701807999999801
 31
0.0
  0
LINE
  5
263
  8
DETAIL
  6
CONTINUOUS
 62
     5
 10
89.321154999999621
 20
64.218505999999252
 30
0.0
 11
86.852128999999863
 21
66.000479999999669
 31
0.0
  0
LINE
  5
264
  8
DETAIL
  6
CONTINUOUS
 62
     5
 10
91.555443999999625
 20
62.111917999999591
 30
0.0
 11
89.321154999999621
 21
64.218505999999252
 31
0.0
  0
LINE
  5
265
  8
DETAIL
  6
CONTINUOUS
 62
     5
 10
93.500664000000157
 20
59.730491999999693
 30
0.0
 11
91.555443999999625
 21
62.111917999999591
 31
0.0
  0
LINE
  5
266
  8
DETAIL
  6
CONTINUOUS
 62
     5
 10
95.129716999999786
 20
57.110958999999639
 30
0.0
 11
93.500664000000157
 21
59.730491999999693
 31
0.0
  0
LINE
  5
267
  8
DETAIL
  6
CONTINUOUS
 62
     5
 10
96.421558000000005
 20
54.28565399999934
 30
0.0
 11
95.129716999999786
 21
57.110958999999639
 31
0.0
  0
LINE
  5
268
  8
DETAIL
  6
CONTINUOUS
 62
     5
 10
97.351388000000043
 20
51.29993899999954
 30
0.0
 11
96.421558000000005
 21
54.28565399999934
 31
0.0
  0
LINE
  5
269
  8
DETAIL
  6
CONTINUOUS
 62
     5
 10
97.898599000000104
 20
48.212563000000053
 30
0.0
 11
97.351388000000043
 21
51.29993899999954
 31
0.0
  0
LINE
  5
26A
  8
DETAIL
  6
CONTINUOUS
 62
     5
 10
98.055408999999614
 20
45.253315999999359
 30
0.0
 11
97.898599000000104
 21
48.212563000000053
 31
0.0
  0
LINE
  5
26B
  8
DETAIL
  6
CONTINUOUS
 62
     5
 10
91.434441000000305
 20
67.432526999999936
 30
0.0
 11
89.247949999999946
 21
68.257934999999634
 31
0.0
  0
LINE
  5
26C
  8
DETAIL
  6
CONTINUOUS
 62
     5
 10
94.101558000000281
 20
65.998897999999826
 30
0.0
 11
91.434441000000305
 21
67.432526999999936
 31
0.0
  0
LINE
  5
26D
  8
DETAIL
  6
CONTINUOUS
 62
     5
 10
96.569774999999922
 20
64.217125000000138
 30
0.0
 11
94.101558000000281
 21
65.998897999999826
 31
0.0
  0
LINE
  5
26E
  8
DETAIL
  6
CONTINUOUS
 62
     5
 10
98.800293999999653
 20
62.114231999999888
 30
0.0
 11
96.569774999999922
 21
64.217125000000138
 31
0.0
  0
LINE
  5
26F
  8
DETAIL
  6
CONTINUOUS
 62
     5
 10
100.7486870000002
 20
59.728577999999281
 30
0.0
 11
98.800293999999653
 21
62.114231999999888
 31
0.0
  0
LINE
  5
270
  8
DETAIL
  6
CONTINUOUS
 62
     5
 10
102.3820249999999
 20
57.101384999999937
 30
0.0
 11
100.7486870000002
 21
59.728577999999281
 31
0.0
  0
LINE
  5
271
  8
DETAIL
  6
CONTINUOUS
 62
     5
 10
103.66936100000019
 20
54.283226999999897
 30
0.0
 11
102.3820249999999
 21
57.101384999999937
 31
0.0
  0
LINE
  5
272
  8
DETAIL
  6
CONTINUOUS
 62
     5
 10
104.5979310000002
 20
51.30155099999957
 30
0.0
 11
103.66936100000019
 21
54.283226999999897
 31
0.0
  0
LINE
  5
273
  8
DETAIL
  6
CONTINUOUS
 62
     5
 10
200.61773999999971
 20
93.423249999999797
 30
0.0
 11
178.6199560000004
 21
106.1219709999996
 31
0.0
  0
LINE
  5
274
  8
DETAIL
  6
CONTINUOUS
 62
     5
 10
-170.25515799999991
 20
192.0
 30
0.0
 11
-207.61867999999961
 21
192.0
 31
0.0
  0
LINE
  5
275
  8
DETAIL
  6
CONTINUOUS
 62
     5
 10
-159.5
 20
191.5
 30
0.0
 11
-126.5
 21
191.5
 31
0.0
  0
LINE
  5
276
  8
DETAIL
  6
CONTINUOUS
 62
     5
 10
-126.5
 20
190.5
 30
0.0
 11
-159.5
 21
190.5
 31
0.0
  0
LINE
  5
277
  8
DETAIL
  6
CONTINUOUS
 62
     5
 10
-157.06749800000031
 20
166.39167499999979
 30
0.0
 11
-157.88028800000029
 21
164.75
 31
0.0
  0
LINE
  5
278
  8
DETAIL
  6
CONTINUOUS
 62
     5
 10
-156.06558599999971
 20
167.80879199999981
 30
0.0
 11
-157.06749800000031
 21
166.39167499999979
 31
0.0
  0
LINE
  5
279
  8
DETAIL
  6
CONTINUOUS
 62
     5
 10
-154.90485999999959
 20
168.9584829999994
 30
0.0
 11
-156.06558599999971
 21
167.80879199999981
 31
0.0
  0
LINE
  5
27A
  8
DETAIL
  6
CONTINUOUS
 62
     5
 10
-153.6203859999996
 20
169.8058649999993
 30
0.0
 11
-154.90485999999959
 21
168.9584829999994
 31
0.0
  0
LINE
  5
27B
  8
DETAIL
  6
CONTINUOUS
 62
     5
 10
-152.25129600000031
 20
170.32498200000009
 30
0.0
 11
-153.6203859999996
 21
169.8058649999993
 31
0.0
  0
LINE
  5
27C
  8
DETAIL
  6
CONTINUOUS
 62
     5
 10
-150.83800499999961
 20
170.5
 30
0.0
 11
-152.25129600000031
 21
170.32498200000009
 31
0.0
  0
LINE
  5
27D
  8
DETAIL
  6
CONTINUOUS
 62
     5
 10
-189.9339870000002
 20
166.2811529999999
 30
0.0
 11
-190.44517999999951
 21
165.6302179999993
 31
0.0
  0
LINE
  5
27E
  8
DETAIL
  6
CONTINUOUS
 62
     5
 10
-188.78180100000009
 20
167.22190899999981
 30
0.0
 11
-189.9339870000002
 21
166.2811529999999
 31
0.0
  0
LINE
  5
27F
  8
DETAIL
  6
CONTINUOUS
 62
     5
 10
-187.51648600000041
 20
167.80332799999999
 30
0.0
 11
-188.78180100000009
 21
167.22190899999981
 31
0.0
  0
LINE
  5
280
  8
DETAIL
  6
CONTINUOUS
 62
     5
 10
-186.1933440000002
 20
168.0
 30
0.0
 11
-187.51648600000041
 21
167.80332799999999
 31
0.0
  0
LINE
  5
283
  8
DETAIL
  6
CONTINUOUS
 62
     5
 10
79.0
 20
176.0
 30
0.0
 11
79.0
 21
12.799999999999271
 31
0.0
  0
LINE
  5
284
  8
DETAIL
  6
CONTINUOUS
 62
     5
 10
77.199999999999804
 20
12.599999999999451
 30
0.0
 11
77.199999999999804
 21
12.799999999999271
 31
0.0
  0
LINE
  5
285
  8
DETAIL
  6
CONTINUOUS
 62
     5
 10
85.053901000000224
 20
65.992048000000054
 30
0.0
 11
84.269908999999657
 21
66.413962999999967
 31
0.0
  0
LINE
  5
286
  8
DETAIL
  6
CONTINUOUS
 62
     5
 10
87.523801000000262
 20
64.206526999999369
 30
0.0
 11
85.053901000000224
 21
65.992048000000054
 31
0.0
  0
LINE
  5
287
  8
DETAIL
  6
CONTINUOUS
 62
     5
 10
89.753553999999895
 20
62.101548999999991
 30
0.0
 11
87.523801000000262
 21
64.206526999999369
 31
0.0
  0
LINE
  5
288
  8
DETAIL
  6
CONTINUOUS
 62
     5
 10
91.693664000000354
 20
59.723642999999342
 30
0.0
 11
89.753553999999895
 21
62.101548999999991
 31
0.0
  0
LINE
  5
289
  8
DETAIL
  6
CONTINUOUS
 62
     5
 10
93.321240000000216
 20
57.105015000000101
 30
0.0
 11
91.693664000000354
 21
59.723642999999342
 31
0.0
  0
LINE
  5
28A
  8
DETAIL
  6
CONTINUOUS
 62
     5
 10
94.610224000000002
 20
54.284565999999359
 30
0.0
 11
93.321240000000216
 21
57.105015000000101
 31
0.0
  0
LINE
  5
28B
  8
DETAIL
  6
CONTINUOUS
 62
     5
 10
95.539060000000063
 20
51.30239600000003
 30
0.0
 11
94.610224000000002
 21
54.284565999999359
 31
0.0
  0
LINE
  5
28C
  8
DETAIL
  6
CONTINUOUS
 62
     5
 10
96.086516999999745
 20
48.21565499999997
 30
0.0
 11
95.539060000000063
 21
51.30239600000003
 31
0.0
  0
LINE
  5
28D
  8
DETAIL
  6
CONTINUOUS
 62
     5
 10
96.243674999999712
 20
45.253315999999359
 30
0.0
 11
96.086516999999745
 21
48.21565499999997
 31
0.0
  0
LINE
  5
28E
  8
DETAIL
  6
CONTINUOUS
 62
     5
 10
84.153905000000137
 20
65.988203999999314
 30
0.0
 11
83.615945999999894
 21
66.277957999999671
 31
0.0
  0
LINE
  5
28F
  8
DETAIL
  6
CONTINUOUS
 62
     5
 10
86.621597999999693
 20
64.203628999999637
 30
0.0
 11
84.153905000000137
 21
65.988203999999314
 31
0.0
  0
LINE
  5
290
  8
DETAIL
  6
CONTINUOUS
 62
     5
 10
88.850225999999537
 20
62.098626999999397
 30
0.0
 11
86.621597999999693
 21
64.203628999999637
 31
0.0
  0
LINE
  5
291
  8
DETAIL
  6
CONTINUOUS
 62
     5
 10
90.79412899999987
 20
59.714777999999569
 30
0.0
 11
88.850225999999537
 21
62.098626999999397
 31
0.0
  0
LINE
  5
292
  8
DETAIL
  6
CONTINUOUS
 62
     5
 10
92.421831999999995
 20
57.092931000000142
 30
0.0
 11
90.79412899999987
 21
59.714777999999569
 31
0.0
  0
LINE
  5
293
  8
DETAIL
  6
CONTINUOUS
 62
     5
 10
93.708367999999609
 20
54.27430399999956
 30
0.0
 11
92.421831999999995
 21
57.092931000000142
 31
0.0
  0
LINE
  5
294
  8
DETAIL
  6
CONTINUOUS
 62
     5
 10
94.633743999999766
 20
51.300091999999502
 30
0.0
 11
93.708367999999609
 21
54.27430399999956
 31
0.0
  0
LINE
  5
295
  8
DETAIL
  6
CONTINUOUS
 62
     5
 10
95.180674999999596
 20
48.215342999999848
 30
0.0
 11
94.633743999999766
 21
51.300091999999502
 31
0.0
  0
LINE
  5
296
  8
DETAIL
  6
CONTINUOUS
 62
     5
 10
95.337808999999666
 20
45.253315999999359
 30
0.0
 11
95.180674999999596
 21
48.215342999999848
 31
0.0
  0
LINE
  5
297
  8
DETAIL
  6
CONTINUOUS
 62
     5
 10
205.38226000000029
 20
76.276748999999654
 30
0.0
 11
183.38447600000001
 21
88.97546999999939
 31
0.0
  0
LINE
  5
298
  8
DETAIL
  6
CONTINUOUS
 62
     5
 10
200.61773999999971
 20
68.02324999999928
 30
0.0
 11
178.6199560000004
 21
80.721970999999954
 31
0.0
  0
LINE
  5
299
  8
DETAIL
  6
CONTINUOUS
 62
     5
 10
-120.1950159999996
 20
208.469325
 30
0.0
 11
-120.3355220000003
 21
208.8240109999997
 31
0.0
  0
LINE
  5
29A
  8
DETAIL
  6
CONTINUOUS
 62
     5
 10
-120.0113039999996
 20
208.25153499999939
 30
0.0
 11
-120.1950159999996
 21
208.469325
 31
0.0
  0
LINE
  5
29B
  8
DETAIL
  6
CONTINUOUS
 62
     5
 10
-119.91669900000031
 20
208.22431099999989
 30
0.0
 11
-120.0113039999996
 21
208.25153499999939
 31
0.0
  0
LINE
  5
29C
  8
DETAIL
  6
CONTINUOUS
 62
     5
 10
-155.72568700000011
 20
208.83288899999931
 30
0.0
 11
-155.81666899999979
 21
208.8965639999997
 31
0.0
  0
LINE
  5
29D
  8
DETAIL
  6
CONTINUOUS
 62
     5
 10
-155.67635700000031
 20
208.8240109999997
 30
0.0
 11
-155.72568700000011
 21
208.83288899999931
 31
0.0
  0
LINE
  5
29E
  8
DETAIL
  6
CONTINUOUS
 62
     5
 10
79.0
 20
176.0
 30
0.0
 11
77.199999999999804
 21
176.0
 31
0.0
  0
LINE
  5
29F
  8
DETAIL
  6
CONTINUOUS
 62
     5
 10
-155.53286099999971
 20
170.5
 30
0.0
 11
-146.14314999999991
 21
170.5
 31
0.0
  0
LINE
  5
2A0
  8
DETAIL
  6
CONTINUOUS
 62
     5
 10
109.1058389999998
 20
165.5
 30
0.0
 11
131.74985199999981
 21
165.5
 31
0.0
  0
LINE
  5
2A1
  8
DETAIL
  6
CONTINUOUS
 62
     5
 10
81.399999999999636
 20
165.5
 30
0.0
 11
87.105838999999804
 21
165.5
 31
0.0
  0
LINE
  5
2A2
  8
DETAIL
  6
CONTINUOUS
 62
     5
 10
-198.9866899999997
 20
167.5
 30
0.0
 11
-205.9269110000005
 21
167.5
 31
0.0
  0
LINE
  5
2A3
  8
DETAIL
  6
CONTINUOUS
 62
     5
 10
-140.69827400000031
 20
164.0
 30
0.0
 11
-126.5
 21
164.0
 31
0.0
  0
LINE
  5
2A4
  8
DETAIL
  6
CONTINUOUS
 62
     5
 10
-209.14588499999991
 20
162.17499999999919
 30
0.0
 11
-216.0174610000004
 21
162.17499999999919
 31
0.0
  0
LINE
  5
2A5
  8
DETAIL
  6
CONTINUOUS
 62
     5
 10
-126.76713099999959
 20
162.17499999999919
 30
0.0
 11
-134.0
 21
162.17499999999919
 31
0.0
  0
LINE
  5
2A6
  8
DETAIL
  6
CONTINUOUS
 62
     5
 10
-148.05562499999991
 20
148.1941349999997
 30
0.0
 11
-146.77213599999959
 21
149.04071200000001
 31
0.0
  0
LINE
  5
2A7
  8
DETAIL
  6
CONTINUOUS
 62
     5
 10
-149.42471500000011
 20
147.67501799999991
 30
0.0
 11
-148.05562499999991
 21
148.1941349999997
 31
0.0
  0
LINE
  5
2A8
  8
DETAIL
  6
CONTINUOUS
 62
     5
 10
-150.83800499999961
 20
147.5
 30
0.0
 11
-149.42471500000011
 21
147.67501799999991
 31
0.0
  0
LINE
  5
2A9
  8
DETAIL
  6
CONTINUOUS
 62
     5
 10
85.775829999999587
 20
208.43104799999949
 30
0.0
 11
88.190182000000263
 21
208.6749999999993
 31
0.0
  0
LINE
  5
2AA
  8
DETAIL
  6
CONTINUOUS
 62
     5
 10
83.462405000000189
 20
207.7091419999997
 30
0.0
 11
85.775829999999587
 21
208.43104799999949
 31
0.0
  0
LINE
  5
2AB
  8
DETAIL
  6
CONTINUOUS
 62
     5
 10
81.346759000000034
 20
206.53866299999939
 30
0.0
 11
83.462405000000189
 21
207.7091419999997
 31
0.0
  0
LINE
  5
2AC
  8
DETAIL
  6
CONTINUOUS
 62
     5
 10
79.5181979999997
 20
204.9674509999995
 30
0.0
 11
81.346759000000034
 21
206.53866299999939
 31
0.0
  0
LINE
  5
2AD
  8
DETAIL
  6
CONTINUOUS
 62
     5
 10
78.054946999999629
 20
203.06033599999961
 30
0.0
 11
79.5181979999997
 21
204.9674509999995
 31
0.0
  0
LINE
  5
2AE
  8
DETAIL
  6
CONTINUOUS
 62
     5
 10
77.020714999999655
 20
200.89708499999961
 30
0.0
 11
78.054946999999629
 21
203.06033599999961
 31
0.0
  0
LINE
  5
2AF
  8
DETAIL
  6
CONTINUOUS
 62
     5
 10
76.461395999999709
 20
198.5694069999999
 30
0.0
 11
77.020714999999655
 21
200.89708499999961
 31
0.0
  0
LINE
  5
2B0
  8
DETAIL
  6
CONTINUOUS
 62
     5
 10
75.591969000000063
 20
191.93638799999999
 30
0.0
 11
76.461395999999709
 21
198.5694069999999
 31
0.0
  0
LINE
  5
2B1
  8
DETAIL
  6
CONTINUOUS
 62
     5
 10
73.503098000000122
 20
176.0
 30
0.0
 11
74.706205000000423
 21
185.17872399999939
 31
0.0
  0
LINE
  5
2B2
  8
DETAIL
  6
CONTINUOUS
 62
     5
 10
69.556413000000234
 20
195.24972799999969
 30
0.0
 11
70.165253000000121
 21
199.8946779999996
 31
0.0
  0
LINE
  5
2B3
  8
DETAIL
  6
CONTINUOUS
 62
     5
 10
67.033242999999857
 20
176.0
 30
0.0
 11
68.670648000000256
 21
188.492064
 31
0.0
  0
LINE
  5
2B4
  8
DETAIL
  6
CONTINUOUS
 62
     5
 10
69.533029999999599
 20
214.0123039999998
 30
0.0
 11
71.498021999999764
 21
214.19491599999949
 31
0.0
  0
LINE
  5
2B5
  8
DETAIL
  6
CONTINUOUS
 62
     5
 10
67.630933000000354
 20
213.47099999999961
 30
0.0
 11
69.533029999999599
 21
214.0123039999998
 31
0.0
  0
LINE
  5
2B6
  8
DETAIL
  6
CONTINUOUS
 62
     5
 10
65.851657000000159
 20
212.59005199999959
 30
0.0
 11
67.630933000000354
 21
213.47099999999961
 31
0.0
  0
LINE
  5
2B7
  8
DETAIL
  6
CONTINUOUS
 62
     5
 10
64.249496999999792
 20
211.39934299999999
 30
0.0
 11
65.851657000000159
 21
212.59005199999959
 31
0.0
  0
LINE
  5
2B8
  8
DETAIL
  6
CONTINUOUS
 62
     5
 10
62.87164800000027
 20
209.93750699999961
 30
0.0
 11
64.249496999999792
 21
211.39934299999999
 31
0.0
  0
LINE
  5
2B9
  8
DETAIL
  6
CONTINUOUS
 62
     5
 10
61.757674000000399
 20
208.25023400000001
 30
0.0
 11
62.87164800000027
 21
209.93750699999961
 31
0.0
  0
LINE
  5
2BA
  8
DETAIL
  6
CONTINUOUS
 62
     5
 10
60.93904000000019
 20
206.38887499999959
 30
0.0
 11
61.757674000000399
 21
208.25023400000001
 31
0.0
  0
LINE
  5
2BB
  8
DETAIL
  6
CONTINUOUS
 62
     5
 10
60.4386489999997
 20
204.40918099999999
 30
0.0
 11
60.93904000000019
 21
206.38887499999959
 31
0.0
  0
LINE
  5
2BC
  8
DETAIL
  6
CONTINUOUS
 62
     5
 10
60.270338999999687
 20
202.36991599999959
 30
0.0
 11
60.4386489999997
 21
204.40918099999999
 31
0.0
  0
LINE
  5
2BD
  8
DETAIL
  6
CONTINUOUS
 62
     5
 10
66.61880199999996
 20
13.599999999999451
 30
0.0
 11
66.61880199999996
 21
16.599999999999451
 31
0.0
  0
LINE
  5
2BE
  8
DETAIL
  6
CONTINUOUS
 62
     5
 10
64.309401000000435
 20
13.599999999999451
 30
0.0
 11
64.309401000000435
 21
16.599999999999451
 31
0.0
  0
LINE
  5
2BF
  8
DETAIL
  6
CONTINUOUS
 62
     5
 10
60.270338999999687
 20
201.02506699999961
 30
0.0
 11
60.270338999999687
 21
202.36991599999959
 31
0.0
  0
LINE
  5
2C0
  8
DETAIL
  6
CONTINUOUS
 62
     5
 10
60.270338999999687
 20
185.39999999999961
 30
0.0
 11
60.270338999999687
 21
192.40347799999921
 31
0.0
  0
LINE
  5
2C1
  8
DETAIL
  6
CONTINUOUS
 62
     5
 10
60.270338999999687
 20
176.0
 30
0.0
 11
60.270338999999687
 21
176.89999999999961
 31
0.0
  0
LINE
  5
2C2
  8
DETAIL
  6
CONTINUOUS
 62
     5
 10
60.25
 20
14.034280999999281
 30
0.0
 11
60.25
 21
14.010196999999611
 31
0.0
  0
LINE
  5
2C3
  8
DETAIL
  6
CONTINUOUS
 62
     5
 10
59.690598999999558
 20
14.21552999999949
 30
0.0
 11
59.690598999999558
 21
16.599999999999451
 31
0.0
  0
LINE
  5
2C4
  8
DETAIL
  6
CONTINUOUS
 62
     5
 10
58.5
 20
14.45571999999993
 30
0.0
 11
58.5
 21
14.010196999999611
 31
0.0
  0
LINE
  5
2C5
  8
DETAIL
  6
CONTINUOUS
 62
     5
 10
57.5
 20
14.010196999999611
 30
0.0
 11
57.5
 21
14.45571999999993
 31
0.0
  0
LINE
  5
2C6
  8
DETAIL
  6
CONTINUOUS
 62
     5
 10
57.38119800000004
 20
14.441606999999751
 30
0.0
 11
57.38119800000004
 21
16.599999999999451
 31
0.0
  0
LINE
  5
2C7
  8
DETAIL
  6
CONTINUOUS
 62
     5
 10
55.75
 20
14.010196999999611
 30
0.0
 11
55.75
 21
14.034280999999281
 31
0.0
  0
LINE
  5
2C8
  8
DETAIL
  6
CONTINUOUS
 62
     5
 10
53.92033900000024
 20
185.39999999999961
 30
0.0
 11
53.92033900000024
 21
196.57424599999919
 31
0.0
  0
LINE
  5
2C9
  8
DETAIL
  6
CONTINUOUS
 62
     5
 10
53.92033900000024
 20
176.0
 30
0.0
 11
53.92033900000024
 21
176.89999999999961
 31
0.0
  0
LINE
  5
2CA
  8
DETAIL
  6
CONTINUOUS
 62
     5
 10
205.38226000000029
 20
50.876749000000018
 30
0.0
 11
183.38447600000001
 21
63.575469999999768
 31
0.0
  0
LINE
  5
2CB
  8
DETAIL
  6
CONTINUOUS
 62
     5
 10
200.61773999999971
 20
42.623249999999643
 30
0.0
 11
178.6199560000004
 21
55.32197099999938
 31
0.0
  0
LINE
  5
2CC
  8
DETAIL
  6
CONTINUOUS
 62
     5
 10
-179.91756400000031
 20
216.84169399999971
 30
0.0
 11
-179.871196
 21
216.80145799999991
 31
0.0
  0
LINE
  5
2CD
  8
DETAIL
  6
CONTINUOUS
 62
     5
 10
-180.0115089999999
 20
216.87401099999991
 30
0.0
 11
-179.91756400000031
 21
216.84169399999971
 31
0.0
  0
LINE
  5
2CE
  8
DETAIL
  6
CONTINUOUS
 62
     5
 10
-179.49762100000041
 20
160.1895549999999
 30
0.0
 11
-179.4758300000002
 21
159.0
 31
0.0
  0
LINE
  5
2CF
  8
DETAIL
  6
CONTINUOUS
 62
     5
 10
-179.57253399999991
 20
161.4276119999995
 30
0.0
 11
-179.49762100000041
 21
160.1895549999999
 31
0.0
  0
LINE
  5
2D0
  8
DETAIL
  6
CONTINUOUS
 62
     5
 10
-179.71175099999979
 20
162.58696799999959
 30
0.0
 11
-179.57253399999991
 21
161.4276119999995
 31
0.0
  0
LINE
  5
2D1
  8
DETAIL
  6
CONTINUOUS
 62
     5
 10
-179.92175399999991
 20
163.56869299999909
 30
0.0
 11
-179.71175099999979
 21
162.58696799999959
 31
0.0
  0
LINE
  5
2D2
  8
DETAIL
  6
CONTINUOUS
 62
     5
 10
-180.21792499999989
 20
164.35533200000009
 30
0.0
 11
-179.92175399999991
 21
163.56869299999909
 31
0.0
  0
LINE
  5
2D3
  8
DETAIL
  6
CONTINUOUS
 62
     5
 10
-180.62572900000021
 20
164.94305899999921
 30
0.0
 11
-180.21792499999989
 21
164.35533200000009
 31
0.0
  0
LINE
  5
2D4
  8
DETAIL
  6
CONTINUOUS
 62
     5
 10
-181.1483340000004
 20
165.31257099999939
 30
0.0
 11
-180.62572900000021
 21
164.94305899999921
 31
0.0
  0
LINE
  5
2D5
  8
DETAIL
  6
CONTINUOUS
 62
     5
 10
-181.76597599999971
 20
165.48021299999979
 30
0.0
 11
-181.1483340000004
 21
165.31257099999939
 31
0.0
  0
LINE
  5
2D6
  8
DETAIL
  6
CONTINUOUS
 62
     5
 10
-182.10928899999999
 20
165.5
 30
0.0
 11
-181.76597599999971
 21
165.48021299999979
 31
0.0
  0
LINE
  5
2D7
  8
DETAIL
  6
CONTINUOUS
 62
     5
 10
-209.14588499999991
 20
155.82499999999979
 30
0.0
 11
-216.0174610000004
 21
155.82499999999979
 31
0.0
  0
LINE
  5
2D8
  8
DETAIL
  6
CONTINUOUS
 62
     5
 10
-126.76713099999959
 20
155.82499999999979
 30
0.0
 11
-134.0
 21
155.82499999999979
 31
0.0
  0
LINE
  5
2D9
  8
DETAIL
  6
CONTINUOUS
 62
     5
 10
83.410197000000139
 20
151.10380499999971
 30
0.0
 11
83.434280000000413
 21
151.10380499999971
 31
0.0
  0
LINE
  5
2DA
  8
DETAIL
  6
CONTINUOUS
 62
     5
 10
-205.9269110000005
 20
150.5
 30
0.0
 11
-198.9866899999997
 21
150.5
 31
0.0
  0
LINE
  5
2DB
  8
DETAIL
  6
CONTINUOUS
 62
     5
 10
83.410197000000139
 20
149.35380499999971
 30
0.0
 11
83.855719000000121
 21
149.35380499999971
 31
0.0
  0
LINE
  5
2DC
  8
DETAIL
  6
CONTINUOUS
 62
     5
 10
83.855719000000121
 20
148.35380499999971
 30
0.0
 11
83.410197000000139
 21
148.35380499999971
 31
0.0
  0
LINE
  5
2DD
  8
DETAIL
  6
CONTINUOUS
 62
     5
 10
-146.14314999999991
 20
147.5
 30
0.0
 11
-155.53286099999971
 21
147.5
 31
0.0
  0
LINE
  5
2DE
  8
DETAIL
  6
CONTINUOUS
 62
     5
 10
83.434280000000413
 20
146.60380499999971
 30
0.0
 11
83.410197000000139
 21
146.60380499999971
 31
0.0
  0
LINE
  5
2DF
  8
DETAIL
  6
CONTINUOUS
 62
     5
 10
-189.3215719999998
 20
144.50431099999969
 30
0.0
 11
-182.381351
 21
144.50431099999969
 31
0.0
  0
LINE
  5
2E0
  8
DETAIL
  6
CONTINUOUS
 62
     5
 10
78.824531000000192
 20
212.96126699999971
 30
0.0
 11
81.405797000000348
 21
214.19491599999949
 31
0.0
  0
LINE
  5
2E1
  8
DETAIL
  6
CONTINUOUS
 62
     5
 10
76.182450000000244
 20
211.0547739999993
 30
0.0
 11
78.824531000000192
 21
212.96126699999971
 31
0.0
  0
LINE
  5
2E2
  8
DETAIL
  6
CONTINUOUS
 62
     5
 10
73.930889000000192
 20
208.71290599999969
 30
0.0
 11
76.182450000000244
 21
211.0547739999993
 31
0.0
  0
LINE
  5
2E3
  8
DETAIL
  6
CONTINUOUS
 62
     5
 10
72.14226299999973
 20
206.0122750000001
 30
0.0
 11
73.930889000000192
 21
208.71290599999969
 31
0.0
  0
LINE
  5
2E4
  8
DETAIL
  6
CONTINUOUS
 62
     5
 10
70.873657000000094
 20
203.0407419999992
 30
0.0
 11
72.14226299999973
 21
206.0122750000001
 31
0.0
  0
LINE
  5
2E5
  8
DETAIL
  6
CONTINUOUS
 62
     5
 10
70.165253000000121
 20
199.8946779999996
 30
0.0
 11
70.873657000000094
 21
203.0407419999992
 31
0.0
  0
LINE
  5
2E6
  8
DETAIL
  6
CONTINUOUS
 62
     5
 10
68.756859000000077
 20
220.32260999999929
 30
0.0
 11
71.498021999999764
 21
220.5449159999998
 31
0.0
  0
LINE
  5
2E7
  8
DETAIL
  6
CONTINUOUS
 62
     5
 10
66.082110000000284
 20
219.66089800000009
 30
0.0
 11
68.756859000000077
 21
220.32260999999929
 31
0.0
  0
LINE
  5
2E8
  8
DETAIL
  6
CONTINUOUS
 62
     5
 10
63.538695000000182
 20
218.5752899999998
 30
0.0
 11
66.082110000000284
 21
219.66089800000009
 31
0.0
  0
LINE
  5
2E9
  8
DETAIL
  6
CONTINUOUS
 62
     5
 10
61.188662999999892
 20
217.09132099999991
 30
0.0
 11
63.538695000000182
 21
218.5752899999998
 31
0.0
  0
LINE
  5
2EA
  8
DETAIL
  6
CONTINUOUS
 62
     5
 10
59.089758000000067
 20
215.244068
 30
0.0
 11
61.188662999999892
 21
217.09132099999991
 31
0.0
  0
LINE
  5
2EB
  8
DETAIL
  6
CONTINUOUS
 62
     5
 10
57.293829999999623
 20
213.07712699999959
 30
0.0
 11
59.089758000000067
 21
215.244068
 31
0.0
  0
LINE
  5
2EC
  8
DETAIL
  6
CONTINUOUS
 62
     5
 10
55.847001000000091
 20
210.64387699999949
 30
0.0
 11
57.293829999999623
 21
213.07712699999959
 31
0.0
  0
LINE
  5
2ED
  8
DETAIL
  6
CONTINUOUS
 62
     5
 10
54.786070000000102
 20
208.00411899999929
 30
0.0
 11
55.847001000000091
 21
210.64387699999949
 31
0.0
  0
LINE
  5
2EE
  8
DETAIL
  6
CONTINUOUS
 62
     5
 10
54.138234000000011
 20
205.22311499999981
 30
0.0
 11
54.786070000000102
 21
208.00411899999929
 31
0.0
  0
LINE
  5
2EF
  8
DETAIL
  6
CONTINUOUS
 62
     5
 10
54.026501000000273
 20
203.7600409999996
 30
0.0
 11
54.138234000000011
 21
205.22311499999981
 31
0.0
  0
LINE
  5
2F0
  8
DETAIL
  6
CONTINUOUS
 62
     5
 10
205.38226000000029
 20
25.476748999999469
 30
0.0
 11
183.38447600000001
 21
38.175469999999223
 31
0.0
  0
LINE
  5
2F1
  8
DETAIL
  6
CONTINUOUS
 62
     5
 10
133.0
 20
65.427894999999793
 30
0.0
 11
119.5453900000002
 21
73.194874999999215
 31
0.0
  0
LINE
  5
2F2
  8
DETAIL
  6
CONTINUOUS
 62
     5
 10
133.0
 20
58.095792999999503
 30
0.0
 11
112.4871059999996
 21
69.937326999999641
 31
0.0
  0
LINE
  5
2F3
  8
DETAIL
  6
CONTINUOUS
 62
     5
 10
200.61773999999971
 20
17.22325
 30
0.0
 11
178.6199560000004
 21
29.921970999999761
 31
0.0
  0
LINE
  5
2F4
  8
DETAIL
  6
CONTINUOUS
 62
     5
 10
-197.85239300000001
 20
164.46341200000001
 30
0.0
 11
-197.25163499999951
 21
163.25
 31
0.0
  0
LINE
  5
2F5
  8
DETAIL
  6
CONTINUOUS
 62
     5
 10
-198.59293700000001
 20
165.51084599999919
 30
0.0
 11
-197.85239300000001
 21
164.46341200000001
 31
0.0
  0
LINE
  5
2F6
  8
DETAIL
  6
CONTINUOUS
 62
     5
 10
-199.45086499999971
 20
166.3606179999997
 30
0.0
 11
-198.59293700000001
 21
165.51084599999919
 31
0.0
  0
LINE
  5
2F7
  8
DETAIL
  6
CONTINUOUS
 62
     5
 10
-200.4002579999997
 20
166.98694399999931
 30
0.0
 11
-199.45086499999971
 21
166.3606179999997
 31
0.0
  0
LINE
  5
2F8
  8
DETAIL
  6
CONTINUOUS
 62
     5
 10
-201.41243800000029
 20
167.3706999999994
 30
0.0
 11
-200.4002579999997
 21
166.98694399999931
 31
0.0
  0
LINE
  5
2F9
  8
DETAIL
  6
CONTINUOUS
 62
     5
 10
-202.4567999999999
 20
167.5
 30
0.0
 11
-201.41243800000029
 21
167.3706999999994
 31
0.0
  0
LINE
  5
2FA
  8
DETAIL
  6
CONTINUOUS
 62
     5
 10
-205.4627360000004
 20
151.63938199999939
 30
0.0
 11
-206.0633390000003
 21
152.2004799999994
 31
0.0
  0
LINE
  5
2FB
  8
DETAIL
  6
CONTINUOUS
 62
     5
 10
-204.51334299999959
 20
151.01305599999981
 30
0.0
 11
-205.4627360000004
 21
151.63938199999939
 31
0.0
  0
LINE
  5
2FC
  8
DETAIL
  6
CONTINUOUS
 62
     5
 10
-203.50116299999991
 20
150.6292999999996
 30
0.0
 11
-204.51334299999959
 21
151.01305599999981
 31
0.0
  0
LINE
  5
2FD
  8
DETAIL
  6
CONTINUOUS
 62
     5
 10
-202.4567999999999
 20
150.5
 30
0.0
 11
-203.50116299999991
 21
150.6292999999996
 31
0.0
  0
LINE
  5
2FE
  8
DETAIL
  6
CONTINUOUS
 62
     5
 10
-179.72875999999991
 20
142.3571189999993
 30
0.0
 11
-178.52129599999989
 21
141.49910699999961
 31
0.0
  0
LINE
  5
2FF
  8
DETAIL
  6
CONTINUOUS
 62
     5
 10
-180.9930210000002
 20
143.09776699999921
 30
0.0
 11
-179.72875999999991
 21
142.3571189999993
 31
0.0
  0
LINE
  5
300
  8
DETAIL
  6
CONTINUOUS
 62
     5
 10
-182.2758350000004
 20
143.6986459999998
 30
0.0
 11
-180.9930210000002
 21
143.09776699999921
 31
0.0
  0
LINE
  5
301
  8
DETAIL
  6
CONTINUOUS
 62
     5
 10
-183.53839099999999
 20
144.141525
 30
0.0
 11
-182.2758350000004
 21
143.6986459999998
 31
0.0
  0
LINE
  5
302
  8
DETAIL
  6
CONTINUOUS
 62
     5
 10
-184.74244900000031
 20
144.4128819999996
 30
0.0
 11
-183.53839099999999
 21
144.141525
 31
0.0
  0
LINE
  5
303
  8
DETAIL
  6
CONTINUOUS
 62
     5
 10
-185.8514610000002
 20
144.50431099999969
 30
0.0
 11
-184.74244900000031
 21
144.4128819999996
 31
0.0
  0
LINE
  5
304
  8
DETAIL
  6
CONTINUOUS
 62
     5
 10
-173.881351
 20
132.4834959999998
 30
0.0
 11
-176.56036399999991
 21
132.4834959999998
 31
0.0
  0
LINE
  5
305
  8
DETAIL
  6
CONTINUOUS
 62
     5
 10
-154.703743
 20
115.7054069999994
 30
0.0
 11
-154.66309499999991
 21
116.39999999999959
 31
0.0
  0
LINE
  5
306
  8
DETAIL
  6
CONTINUOUS
 62
     5
 10
-154.82445100000041
 20
115.031919
 30
0.0
 11
-154.703743
 21
115.7054069999994
 31
0.0
  0
LINE
  5
307
  8
DETAIL
  6
CONTINUOUS
 62
     5
 10
-155.0215520000001
 20
114.39999999999959
 30
0.0
 11
-154.82445100000041
 21
115.031919
 31
0.0
  0
LINE
  5
308
  8
DETAIL
  6
CONTINUOUS
 62
     5
 10
-155.2890569999999
 20
113.82884899999939
 30
0.0
 11
-155.0215520000001
 21
114.39999999999959
 31
0.0
  0
LINE
  5
309
  8
DETAIL
  6
CONTINUOUS
 62
     5
 10
-155.6188380000003
 20
113.33582199999999
 30
0.0
 11
-155.2890569999999
 21
113.82884899999939
 31
0.0
  0
LINE
  5
30A
  8
DETAIL
  6
CONTINUOUS
 62
     5
 10
-156.0008749999997
 20
112.9358979999997
 30
0.0
 11
-155.6188380000003
 21
113.33582199999999
 31
0.0
  0
LINE
  5
30B
  8
DETAIL
  6
CONTINUOUS
 62
     5
 10
-156.42356000000009
 20
112.6412289999998
 30
0.0
 11
-156.0008749999997
 21
112.9358979999997
 31
0.0
  0
LINE
  5
30C
  8
DETAIL
  6
CONTINUOUS
 62
     5
 10
-156.87404900000001
 20
112.4607689999993
 30
0.0
 11
-156.42356000000009
 21
112.6412289999998
 31
0.0
  0
LINE
  5
30D
  8
DETAIL
  6
CONTINUOUS
 62
     5
 10
-157.33865499999951
 20
112.39999999999959
 30
0.0
 11
-156.87404900000001
 21
112.4607689999993
 31
0.0
  0
LINE
  5
30E
  8
DETAIL
  6
CONTINUOUS
 62
     5
 10
-101.2242779999997
 20
46.443543999999747
 30
0.0
 11
-101.10329299999999
 21
49.183043999999427
 31
0.0
  0
LINE
  5
30F
  8
DETAIL
  6
CONTINUOUS
 62
     5
 10
-101.57545399999979
 20
43.840520999999171
 30
0.0
 11
-101.2242779999997
 21
46.443543999999747
 31
0.0
  0
LINE
  5
310
  8
DETAIL
  6
CONTINUOUS
 62
     5
 10
-102.12271700000019
 20
41.496500999999618
 30
0.0
 11
-101.57545399999979
 21
43.840520999999171
 31
0.0
  0
LINE
  5
311
  8
DETAIL
  6
CONTINUOUS
 62
     5
 10
-102.8100919999997
 20
39.515499000000098
 30
0.0
 11
-102.12271700000019
 21
41.496500999999618
 31
0.0
  0
LINE
  5
312
  8
DETAIL
  6
CONTINUOUS
 62
     5
 10
-103.56198599999971
 20
37.969730999999229
 30
0.0
 11
-102.8100919999997
 21
39.515499000000098
 31
0.0
  0
LINE
  5
313
  8
DETAIL
  6
CONTINUOUS
 62
     5
 10
-104.2916839999998
 20
36.884021999999277
 30
0.0
 11
-103.56198599999971
 21
37.969730999999229
 31
0.0
  0
LINE
  5
314
  8
DETAIL
  6
CONTINUOUS
 62
     5
 10
-104.9073479999997
 20
36.236653999999362
 30
0.0
 11
-104.2916839999998
 21
36.884021999999277
 31
0.0
  0
LINE
  5
315
  8
DETAIL
  6
CONTINUOUS
 62
     5
 10
-105.30113900000011
 20
35.96785199999978
 30
0.0
 11
-104.9073479999997
 21
36.236653999999362
 31
0.0
  0
LINE
  5
316
  8
DETAIL
  6
CONTINUOUS
 62
     5
 10
-105.35103100000011
 20
35.942393999999688
 30
0.0
 11
-105.30113900000011
 21
35.96785199999978
 31
0.0
  0
LINE
  5
317
  8
DETAIL
  6
CONTINUOUS
 62
     5
 10
129.75147199999981
 20
216.34999999999951
 30
0.0
 11
128.9264720000001
 21
215.52499999999969
 31
0.0
  0
LINE
  5
318
  8
DETAIL
  6
CONTINUOUS
 62
     5
 10
91.805365999999594
 20
47.80518200000003
 30
0.0
 11
91.937879000000024
 21
45.275100999999253
 31
0.0
  0
LINE
  5
319
  8
DETAIL
  6
CONTINUOUS
 62
     5
 10
91.341967000000281
 20
50.447333000000057
 30
0.0
 11
91.805365999999594
 21
47.80518200000003
 31
0.0
  0
LINE
  5
31A
  8
DETAIL
  6
CONTINUOUS
 62
     5
 10
90.555967999999666
 20
52.998545999999813
 30
0.0
 11
91.341967000000281
 21
50.447333000000057
 31
0.0
  0
LINE
  5
31B
  8
DETAIL
  6
CONTINUOUS
 62
     5
 10
89.461656000000417
 20
55.418273999999663
 30
0.0
 11
90.555967999999666
 21
52.998545999999813
 31
0.0
  0
LINE
  5
31C
  8
DETAIL
  6
CONTINUOUS
 62
     5
 10
88.075611999999623
 20
57.670694999999803
 30
0.0
 11
89.461656000000417
 21
55.418273999999663
 31
0.0
  0
LINE
  5
31D
  8
DETAIL
  6
CONTINUOUS
 62
     5
 10
86.420409000000305
 20
59.71847799999977
 30
0.0
 11
88.075611999999623
 21
57.670694999999803
 31
0.0
  0
LINE
  5
31E
  8
DETAIL
  6
CONTINUOUS
 62
     5
 10
84.522289999999856
 20
61.527360999999459
 30
0.0
 11
86.420409000000305
 21
59.71847799999977
 31
0.0
  0
LINE
  5
31F
  8
DETAIL
  6
CONTINUOUS
 62
     5
 10
82.421956999999509
 20
63.060859999999593
 30
0.0
 11
84.522289999999856
 21
61.527360999999459
 31
0.0
  0
LINE
  5
320
  8
DETAIL
  6
CONTINUOUS
 62
     5
 10
80.697345999999925
 20
64.0
 30
0.0
 11
82.421956999999509
 21
63.060859999999593
 31
0.0
  0
LINE
  5
321
  8
DETAIL
  6
CONTINUOUS
 62
     5
 10
-157.33865499999951
 20
120.39999999999959
 30
0.0
 11
-170.25515799999991
 21
120.39999999999959
 31
0.0
  0
LINE
  5
322
  8
DETAIL
  6
CONTINUOUS
 62
     5
 10
-157.33865499999951
 20
112.39999999999959
 30
0.0
 11
-170.25515799999991
 21
112.39999999999959
 31
0.0
  0
LINE
  5
323
  8
DETAIL
  6
CONTINUOUS
 62
     5
 10
-204.03296099999989
 20
34.363384999999653
 30
0.0
 11
-205.04429199999959
 21
34.82073599999967
 31
0.0
  0
LINE
  5
324
  8
DETAIL
  6
CONTINUOUS
 62
     5
 10
-202.6578099999997
 20
34.04057499999999
 30
0.0
 11
-204.03296099999989
 21
34.363384999999653
 31
0.0
  0
LINE
  5
325
  8
DETAIL
  6
CONTINUOUS
 62
     5
 10
-201.2634289999996
 20
34.04057499999999
 30
0.0
 11
-202.6578099999997
 21
34.04057499999999
 31
0.0
  0
LINE
  5
326
  8
DETAIL
  6
CONTINUOUS
 62
     5
 10
-199.88827699999999
 20
34.363384999999653
 30
0.0
 11
-201.2634289999996
 21
34.04057499999999
 31
0.0
  0
LINE
  5
327
  8
DETAIL
  6
CONTINUOUS
 62
     5
 10
-198.56945400000041
 20
35.0
 30
0.0
 11
-199.88827699999999
 21
34.363384999999653
 31
0.0
  0
LINE
  5
328
  8
DETAIL
  6
CONTINUOUS
 62
     5
 10
-147.70948800000039
 20
200.3400179999999
 30
0.0
 11
-147.23871799999961
 21
199.16328100000001
 31
0.0
  0
LINE
  5
329
  8
DETAIL
  6
CONTINUOUS
 62
     5
 10
-149.11419899999959
 20
202.93217299999921
 30
0.0
 11
-147.70948800000039
 21
200.3400179999999
 31
0.0
  0
LINE
  5
32A
  8
DETAIL
  6
CONTINUOUS
 62
     5
 10
-153.4962139999997
 20
208.615847
 30
0.0
 11
-149.11419899999959
 21
202.93217299999921
 31
0.0
  0
LINE
  5
32B
  8
DETAIL
  6
CONTINUOUS
 62
     5
 10
83.410197000000139
 20
89.396194999999352
 30
0.0
 11
83.434280000000413
 21
89.396194999999352
 31
0.0
  0
LINE
  5
32C
  8
DETAIL
  6
CONTINUOUS
 62
     5
 10
83.410197000000139
 20
87.646194999999366
 30
0.0
 11
83.855719000000121
 21
87.646194999999366
 31
0.0
  0
LINE
  5
32D
  8
DETAIL
  6
CONTINUOUS
 62
     5
 10
83.855719000000121
 20
86.646194999999338
 30
0.0
 11
83.410197000000139
 21
86.646194999999338
 31
0.0
  0
LINE
  5
32E
  8
DETAIL
  6
CONTINUOUS
 62
     5
 10
83.434280000000413
 20
84.896194999999338
 30
0.0
 11
83.410197000000139
 21
84.896194999999338
 31
0.0
  0
LINE
  5
32F
  8
DETAIL
  6
CONTINUOUS
 62
     5
 10
-147.69999999999979
 20
83.0
 30
0.0
 11
-138.3000000000001
 21
83.0
 31
0.0
  0
LINE
  5
330
  8
DETAIL
  6
CONTINUOUS
 62
     5
 10
-101.8032929999999
 20
82.183043999999427
 30
0.0
 11
-97.300000000000196
 21
82.183043999999427
 31
0.0
  0
LINE
  5
331
  8
DETAIL
  6
CONTINUOUS
 62
     5
 10
-188.78180100000009
 20
54.221908999999862
 30
0.0
 11
-188.98575799999981
 21
54.055378000000019
 31
0.0
  0
LINE
  5
332
  8
DETAIL
  6
CONTINUOUS
 62
     5
 10
-187.51648600000041
 20
54.803327999999958
 30
0.0
 11
-188.78180100000009
 21
54.221908999999862
 31
0.0
  0
LINE
  5
333
  8
DETAIL
  6
CONTINUOUS
 62
     5
 10
-186.1933440000002
 20
55.0
 30
0.0
 11
-187.51648600000041
 21
54.803327999999958
 31
0.0
  0
LINE
  5
334
  8
DETAIL
  6
CONTINUOUS
 62
     5
 10
-181.43613300000001
 20
66.929386999999224
 30
0.0
 11
-182.5596750000004
 21
66.864736999999892
 31
0.0
  0
LINE
  5
335
  8
DETAIL
  6
CONTINUOUS
 62
     5
 10
-180.1889520000004
 20
67.121264999999767
 30
0.0
 11
-181.43613300000001
 21
66.929386999999224
 31
0.0
  0
LINE
  5
336
  8
DETAIL
  6
CONTINUOUS
 62
     5
 10
-178.8560139999999
 20
67.434426999999232
 30
0.0
 11
-180.1889520000004
 21
67.121264999999767
 31
0.0
  0
LINE
  5
337
  8
DETAIL
  6
CONTINUOUS
 62
     5
 10
-177.47770899999969
 20
67.859313999999344
 30
0.0
 11
-178.8560139999999
 21
67.434426999999232
 31
0.0
  0
LINE
  5
338
  8
DETAIL
  6
CONTINUOUS
 62
     5
 10
-176.09574499999951
 20
68.383030999999391
 30
0.0
 11
-177.47770899999969
 21
67.859313999999344
 31
0.0
  0
LINE
  5
339
  8
DETAIL
  6
CONTINUOUS
 62
     5
 10
-174.75192700000019
 20
68.989736999999892
 30
0.0
 11
-176.09574499999951
 21
68.383030999999391
 31
0.0
  0
LINE
  5
33A
  8
DETAIL
  6
CONTINUOUS
 62
     5
 10
-170.41428900000031
 20
71.114736999999863
 30
0.0
 11
-179.08956500000019
 21
66.864736999999892
 31
0.0
  0
LINE
  5
33B
  8
DETAIL
  6
CONTINUOUS
 62
     5
 10
-149.42471500000011
 20
170.32498200000009
 30
0.0
 11
-150.83800499999961
 21
170.5
 31
0.0
  0
LINE
  5
33C
  8
DETAIL
  6
CONTINUOUS
 62
     5
 10
-148.05562499999991
 20
169.8058649999993
 30
0.0
 11
-149.42471500000011
 21
170.32498200000009
 31
0.0
  0
LINE
  5
33D
  8
DETAIL
  6
CONTINUOUS
 62
     5
 10
-146.77213599999959
 20
168.95928799999999
 30
0.0
 11
-148.05562499999991
 21
169.8058649999993
 31
0.0
  0
LINE
  5
33E
  8
DETAIL
  6
CONTINUOUS
 62
     5
 10
-147.69999999999979
 20
76.289948999999979
 30
0.0
 11
-138.3000000000001
 21
76.289948999999979
 31
0.0
  0
LINE
  5
33F
  8
DETAIL
  6
CONTINUOUS
 62
     5
 10
-147.76000000000019
 20
76.229948999999579
 30
0.0
 11
-138.23999999999981
 21
76.229948999999579
 31
0.0
  0
LINE
  5
340
  8
DETAIL
  6
CONTINUOUS
 62
     5
 10
-170.66270299999991
 20
75.364736999999863
 30
0.0
 11
-168.67923400000009
 21
75.364736999999863
 31
0.0
  0
LINE
  5
341
  8
DETAIL
  6
CONTINUOUS
 62
     5
 10
-101.8032929999999
 20
74.893094000000033
 30
0.0
 11
-97.300000000000196
 21
74.893094000000033
 31
0.0
  0
LINE
  5
342
  8
DETAIL
  6
CONTINUOUS
 62
     5
 10
-101.10329299999999
 20
74.193093999999292
 30
0.0
 11
-97.300000000000196
 21
74.193093999999292
 31
0.0
  0
LINE
  5
343
  8
DETAIL
  6
CONTINUOUS
 62
     5
 10
-179.08956500000019
 20
66.864736999999892
 30
0.0
 11
-186.029786
 21
66.864736999999892
 31
0.0
  0
LINE
  5
344
  8
DETAIL
  6
CONTINUOUS
 62
     5
 10
84.467085999999654
 20
70.02292399999989
 30
0.0
 11
85.229506999999998
 21
70.29178999999931
 31
0.0
  0
LINE
  5
345
  8
DETAIL
  6
CONTINUOUS
 62
     5
 10
82.64751299999989
 20
69.642218999999386
 30
0.0
 11
84.467085999999654
 21
70.02292399999989
 31
0.0
  0
LINE
  5
346
  8
DETAIL
  6
CONTINUOUS
 62
     5
 10
81.401315000000068
 20
69.555053999999473
 30
0.0
 11
82.64751299999989
 21
69.642218999999386
 31
0.0
  0
LINE
  5
347
  8
DETAIL
  6
CONTINUOUS
 62
     5
 10
-157.06749800000031
 20
53.39167499999985
 30
0.0
 11
-157.88028800000029
 21
51.75
 31
0.0
  0
LINE
  5
348
  8
DETAIL
  6
CONTINUOUS
 62
     5
 10
-156.06558599999971
 20
54.808791999999812
 30
0.0
 11
-157.06749800000031
 21
53.39167499999985
 31
0.0
  0
LINE
  5
349
  8
DETAIL
  6
CONTINUOUS
 62
     5
 10
-154.90485999999959
 20
55.958482999999433
 30
0.0
 11
-156.06558599999971
 21
54.808791999999812
 31
0.0
  0
LINE
  5
34A
  8
DETAIL
  6
CONTINUOUS
 62
     5
 10
-153.6203859999996
 20
56.805864999999358
 30
0.0
 11
-154.90485999999959
 21
55.958482999999433
 31
0.0
  0
LINE
  5
34B
  8
DETAIL
  6
CONTINUOUS
 62
     5
 10
-152.25129600000031
 20
57.324982000000091
 30
0.0
 11
-153.6203859999996
 21
56.805864999999358
 31
0.0
  0
LINE
  5
34C
  8
DETAIL
  6
CONTINUOUS
 62
     5
 10
-150.83800499999961
 20
57.5
 30
0.0
 11
-152.25129600000031
 21
57.324982000000091
 31
0.0
  0
LINE
  5
34D
  8
DETAIL
  6
CONTINUOUS
 62
     5
 10
-165.8640249999998
 20
51.629164999999368
 30
0.0
 11
-165.63587199999981
 21
51.805335000000007
 31
0.0
  0
LINE
  5
34F
  8
DETAIL
  6
CONTINUOUS
 62
     5
 10
-156.5272430000004
 20
209.63999999999939
 30
0.0
 11
-155.81666899999979
 21
208.8965639999997
 31
0.0
  0
LINE
  5
350
  8
DETAIL
  6
CONTINUOUS
 62
     5
 10
-178.5870080000004
 20
215.45787899999959
 30
0.0
 11
-179.871196
 21
216.80145799999991
 31
0.0
  0
LINE
  5
351
  8
DETAIL
  6
CONTINUOUS
 62
     5
 10
-158.7923609999998
 20
147.5
 30
0.0
 11
-152.0
 21
142.58910499999999
 31
0.0
  0
LINE
  5
352
  8
DETAIL
  6
CONTINUOUS
 62
     5
 10
-165.62032499999989
 20
152.43663699999979
 30
0.0
 11
-165.20332599999981
 21
152.13514599999959
 31
0.0
  0
LINE
  5
353
  8
DETAIL
  6
CONTINUOUS
 62
     5
 10
-111.5119340000001
 20
60.767037999999971
 30
0.0
 11
-111.6085769999999
 21
62.130705999999918
 31
0.0
  0
LINE
  5
354
  8
DETAIL
  6
CONTINUOUS
 62
     5
 10
-111.22430299999991
 20
59.435904999999359
 30
0.0
 11
-111.5119340000001
 21
60.767037999999971
 31
0.0
  0
LINE
  5
355
  8
DETAIL
  6
CONTINUOUS
 62
     5
 10
-110.75232299999971
 20
58.168678999999429
 30
0.0
 11
-111.22430299999991
 21
59.435904999999359
 31
0.0
  0
LINE
  5
356
  8
DETAIL
  6
CONTINUOUS
 62
     5
 10
-110.106557
 20
56.995098999999747
 30
0.0
 11
-110.75232299999971
 21
58.168678999999429
 31
0.0
  0
LINE
  5
357
  8
DETAIL
  6
CONTINUOUS
 62
     5
 10
-109.3005409999996
 20
55.942302999999811
 30
0.0
 11
-110.106557
 21
56.995098999999747
 31
0.0
  0
LINE
  5
358
  8
DETAIL
  6
CONTINUOUS
 62
     5
 10
-108.3509830000003
 20
55.035858999999611
 30
0.0
 11
-109.3005409999996
 21
55.942302999999811
 31
0.0
  0
LINE
  5
359
  8
DETAIL
  6
CONTINUOUS
 62
     5
 10
-108.0638280000003
 20
54.83878999999979
 30
0.0
 11
-108.3509830000003
 21
55.035858999999611
 31
0.0
  0
LINE
  5
35A
  8
DETAIL
  6
CONTINUOUS
 62
     5
 10
-185.30456000000041
 20
68.383030999999391
 30
0.0
 11
-185.2766169999995
 21
68.615718000000015
 31
0.0
  0
LINE
  5
35B
  8
DETAIL
  6
CONTINUOUS
 62
     5
 10
-185.20543600000011
 20
67.859313999999344
 30
0.0
 11
-185.30456000000041
 21
68.383030999999391
 31
0.0
  0
LINE
  5
35C
  8
DETAIL
  6
CONTINUOUS
 62
     5
 10
-184.8678849999996
 20
67.434426999999232
 30
0.0
 11
-185.20543600000011
 21
67.859313999999344
 31
0.0
  0
LINE
  5
35D
  8
DETAIL
  6
CONTINUOUS
 62
     5
 10
-184.30203599999999
 20
67.121264999999767
 30
0.0
 11
-184.8678849999996
 21
67.434426999999232
 31
0.0
  0
LINE
  5
35E
  8
DETAIL
  6
CONTINUOUS
 62
     5
 10
-183.5248579999998
 20
66.929386999999224
 30
0.0
 11
-184.30203599999999
 21
67.121264999999767
 31
0.0
  0
LINE
  5
35F
  8
DETAIL
  6
CONTINUOUS
 62
     5
 10
-182.5596750000004
 20
66.864736999999892
 30
0.0
 11
-183.5248579999998
 21
66.929386999999224
 31
0.0
  0
LINE
  5
363
  8
DETAIL
  6
CONTINUOUS
 62
     5
 10
-155.53286099999971
 20
57.5
 30
0.0
 11
-146.14314999999991
 21
57.5
 31
0.0
  0
LINE
  5
364
  8
DETAIL
  6
CONTINUOUS
 62
     5
 10
-205.3694999999997
 20
57.0
 30
0.0
 11
-206.94753200000011
 21
57.0
 31
0.0
  0
LINE
  5
365
  8
DETAIL
  6
CONTINUOUS
 62
     5
 10
-197.966069
 20
57.0
 30
0.0
 11
-198.56945400000041
 21
57.0
 31
0.0
  0
LINE
  5
366
  8
DETAIL
  6
CONTINUOUS
 62
     5
 10
-215.451247
 20
50.759999999999287
 30
0.0
 11
-214.2785370000002
 21
50.759999999999287
 31
0.0
  0
LINE
  5
367
  8
DETAIL
  6
CONTINUOUS
 62
     5
 10
-214.6019909999996
 20
50.0
 30
0.0
 11
-216.0174610000004
 21
50.0
 31
0.0
  0
LINE
  5
368
  8
DETAIL
  6
CONTINUOUS
 62
     5
 10
-185.6971629999997
 20
46.0
 30
0.0
 11
-193.47533799999999
 21
46.0
 31
0.0
  0
LINE
  5
36A
  8
DETAIL
  6
CONTINUOUS
 62
     5
 10
-214.6019909999996
 20
42.0
 30
0.0
 11
-216.0174610000004
 21
42.0
 31
0.0
  0
LINE
  5
36B
  8
DETAIL
  6
CONTINUOUS
 62
     5
 10
93.455581999999595
 20
71.418274999999994
 30
0.0
 11
98.105986999999914
 21
76.799991999999293
 31
0.0
  0
LINE
  5
36C
  8
DETAIL
  6
CONTINUOUS
 62
     5
 10
91.684057000000394
 20
69.837951999999859
 30
0.0
 11
93.455581999999595
 21
71.418274999999994
 31
0.0
  0
LINE
  5
36D
  8
DETAIL
  6
CONTINUOUS
 62
     5
 10
89.722702000000027
 20
68.498694999999316
 30
0.0
 11
91.684057000000394
 21
69.837951999999859
 31
0.0
  0
LINE
  5
36E
  8
DETAIL
  6
CONTINUOUS
 62
     5
 10
87.611222999999868
 20
67.427905999999894
 30
0.0
 11
89.722702000000027
 21
68.498694999999316
 31
0.0
  0
LINE
  5
36F
  8
DETAIL
  6
CONTINUOUS
 62
     5
 10
85.392369000000144
 20
66.64740299999994
 30
0.0
 11
87.611222999999868
 21
67.427905999999894
 31
0.0
  0
LINE
  5
370
  8
DETAIL
  6
CONTINUOUS
 62
     5
 10
83.111764999999622
 20
66.173101999999744
 30
0.0
 11
85.392369000000144
 21
66.64740299999994
 31
0.0
  0
LINE
  5
371
  8
DETAIL
  6
CONTINUOUS
 62
     5
 10
81.399999999999636
 20
66.054557999999815
 30
0.0
 11
83.111764999999622
 21
66.173101999999744
 31
0.0
  0
LINE
  5
372
  8
DETAIL
  6
CONTINUOUS
 62
     5
 10
-148.05562499999991
 20
35.194134999999733
 30
0.0
 11
-146.77213599999959
 21
36.040711999999992
 31
0.0
  0
LINE
  5
373
  8
DETAIL
  6
CONTINUOUS
 62
     5
 10
-149.42471500000011
 20
34.675017999999909
 30
0.0
 11
-148.05562499999991
 21
35.194134999999733
 31
0.0
  0
LINE
  5
374
  8
DETAIL
  6
CONTINUOUS
 62
     5
 10
-150.83800499999961
 20
34.5
 30
0.0
 11
-149.42471500000011
 21
34.675017999999909
 31
0.0
  0
LINE
  5
375
  8
DETAIL
  6
CONTINUOUS
 62
     5
 10
-173.4872560000002
 20
69.660914999999477
 30
0.0
 11
-174.75192700000019
 21
68.989736999999892
 31
0.0
  0
LINE
  5
376
  8
DETAIL
  6
CONTINUOUS
 62
     5
 10
-172.33994299999989
 20
70.37628299999956
 30
0.0
 11
-173.4872560000002
 21
69.660914999999477
 31
0.0
  0
LINE
  5
377
  8
DETAIL
  6
CONTINUOUS
 62
     5
 10
-171.34410199999999
 20
71.114736999999863
 30
0.0
 11
-172.33994299999989
 21
70.37628299999956
 31
0.0
  0
LINE
  5
378
  8
DETAIL
  6
CONTINUOUS
 62
     5
 10
-198.13692900000021
 20
35.287446999999702
 30
0.0
 11
-198.56945400000041
 21
35.0
 31
0.0
  0
LINE
  5
379
  8
DETAIL
  6
CONTINUOUS
 62
     5
 10
-197.71797900000001
 20
35.607694999999687
 30
0.0
 11
-198.13692900000021
 21
35.287446999999702
 31
0.0
  0
LINE
  5
37A
  8
DETAIL
  6
CONTINUOUS
 62
     5
 10
-178.31063100000031
 20
214.2552409999999
 30
0.0
 11
-178.29231499999969
 21
213.6990109999997
 31
0.0
  0
LINE
  5
37B
  8
DETAIL
  6
CONTINUOUS
 62
     5
 10
-178.3637879999994
 20
214.7570239999994
 30
0.0
 11
-178.31063100000031
 21
214.2552409999999
 31
0.0
  0
LINE
  5
37C
  8
DETAIL
  6
CONTINUOUS
 62
     5
 10
-178.4465820000004
 20
215.15524099999951
 30
0.0
 11
-178.3637879999994
 21
214.7570239999994
 31
0.0
  0
LINE
  5
37D
  8
DETAIL
  6
CONTINUOUS
 62
     5
 10
-178.55090899999959
 20
215.41091299999971
 30
0.0
 11
-178.4465820000004
 21
215.15524099999951
 31
0.0
  0
LINE
  5
37E
  8
DETAIL
  6
CONTINUOUS
 62
     5
 10
-178.5870080000004
 20
215.45787899999959
 30
0.0
 11
-178.55090899999959
 21
215.41091299999971
 31
0.0
  0
LINE
  5
37F
  8
DETAIL
  6
CONTINUOUS
 62
     5
 10
-117.8109279999999
 20
59.960712000000058
 30
0.0
 11
-117.9585770000003
 21
62.130705999999918
 31
0.0
  0
LINE
  5
380
  8
DETAIL
  6
CONTINUOUS
 62
     5
 10
-117.3709879999996
 20
57.835289999999972
 30
0.0
 11
-117.8109279999999
 21
59.960712000000058
 31
0.0
  0
LINE
  5
381
  8
DETAIL
  6
CONTINUOUS
 62
     5
 10
-116.6478020000004
 20
55.798291999999492
 30
0.0
 11
-117.3709879999996
 21
57.835289999999972
 31
0.0
  0
LINE
  5
382
  8
DETAIL
  6
CONTINUOUS
 62
     5
 10
-115.6566220000004
 20
53.892241999999897
 30
0.0
 11
-116.6478020000004
 21
55.798291999999492
 31
0.0
  0
LINE
  5
383
  8
DETAIL
  6
CONTINUOUS
 62
     5
 10
-114.41981899999971
 20
52.158230999999411
 30
0.0
 11
-115.6566220000004
 21
53.892241999999897
 31
0.0
  0
LINE
  5
384
  8
DETAIL
  6
CONTINUOUS
 62
     5
 10
-112.9631390000004
 20
50.630127999999772
 30
0.0
 11
-114.41981899999971
 21
52.158230999999411
 31
0.0
  0
LINE
  5
385
  8
DETAIL
  6
CONTINUOUS
 62
     5
 10
-111.6501760000001
 20
49.599662999999957
 30
0.0
 11
-112.9631390000004
 21
50.630127999999772
 31
0.0
  0
LINE
  5
386
  8
DETAIL
  6
CONTINUOUS
 62
     5
 10
-179.49762100000041
 20
47.189554999999892
 30
0.0
 11
-179.4758300000002
 21
46.0
 31
0.0
  0
LINE
  5
387
  8
DETAIL
  6
CONTINUOUS
 62
     5
 10
-179.57253399999991
 20
48.427611999999513
 30
0.0
 11
-179.49762100000041
 21
47.189554999999892
 31
0.0
  0
LINE
  5
388
  8
DETAIL
  6
CONTINUOUS
 62
     5
 10
-179.71175099999979
 20
49.586967999999622
 30
0.0
 11
-179.57253399999991
 21
48.427611999999513
 31
0.0
  0
LINE
  5
389
  8
DETAIL
  6
CONTINUOUS
 62
     5
 10
-179.92175399999991
 20
50.568692999999257
 30
0.0
 11
-179.71175099999979
 21
49.586967999999622
 31
0.0
  0
LINE
  5
38A
  8
DETAIL
  6
CONTINUOUS
 62
     5
 10
-180.21792499999989
 20
51.355332000000097
 30
0.0
 11
-179.92175399999991
 21
50.568692999999257
 31
0.0
  0
LINE
  5
38B
  8
DETAIL
  6
CONTINUOUS
 62
     5
 10
-180.62572900000021
 20
51.943058999999259
 30
0.0
 11
-180.21792499999989
 21
51.355332000000097
 31
0.0
  0
LINE
  5
38C
  8
DETAIL
  6
CONTINUOUS
 62
     5
 10
-181.1483340000004
 20
52.312570999999473
 30
0.0
 11
-180.62572900000021
 21
51.943058999999259
 31
0.0
  0
LINE
  5
38D
  8
DETAIL
  6
CONTINUOUS
 62
     5
 10
-181.76597599999971
 20
52.480212999999821
 30
0.0
 11
-181.1483340000004
 21
52.312570999999473
 31
0.0
  0
LINE
  5
38E
  8
DETAIL
  6
CONTINUOUS
 62
     5
 10
-182.10928899999999
 20
52.5
 30
0.0
 11
-181.76597599999971
 21
52.480212999999821
 31
0.0
  0
LINE
  5
38F
  8
DETAIL
  6
CONTINUOUS
 62
     5
 10
81.286097999999583
 20
21.072680999999651
 30
0.0
 11
81.644210000000385
 21
21.06389399999988
 31
0.0
  0
LINE
  5
390
  8
DETAIL
  6
CONTINUOUS
 62
     5
 10
82.193062999999711
 20
21.07265599999937
 30
0.0
 11
82.548756000000139
 21
21.06400499999927
 31
0.0
  0
LINE
  5
391
  8
DETAIL
  6
CONTINUOUS
 62
     5
 10
79.475540000000336
 20
21.07283899999948
 30
0.0
 11
79.830068000000196
 21
21.064208999999209
 31
0.0
  0
LINE
  5
392
  8
DETAIL
  6
CONTINUOUS
 62
     5
 10
80.310096000000158
 20
21.074244999999792
 30
0.0
 11
80.738223000000289
 21
21.063881000000041
 31
0.0
  0
LINE
  5
393
  8
DETAIL
  6
CONTINUOUS
 62
     5
 10
-215.451247
 20
41.239999999999768
 30
0.0
 11
-214.2785370000002
 21
41.239999999999768
 31
0.0
  0
LINE
  5
394
  8
DETAIL
  6
CONTINUOUS
 62
     5
 10
-198.56945400000041
 20
35.0
 30
0.0
 11
-197.966069
 21
35.0
 31
0.0
  0
LINE
  5
395
  8
DETAIL
  6
CONTINUOUS
 62
     5
 10
-206.94753200000011
 20
35.0
 30
0.0
 11
-205.3694999999997
 21
35.0
 31
0.0
  0
LINE
  5
396
  8
DETAIL
  6
CONTINUOUS
 62
     5
 10
-163.4171800000004
 20
34.759999999999309
 30
0.0
 11
-168.87804599999981
 21
34.759999999999309
 31
0.0
  0
LINE
  5
397
  8
DETAIL
  6
CONTINUOUS
 62
     5
 10
-146.14314999999991
 20
34.5
 30
0.0
 11
-155.53286099999971
 21
34.5
 31
0.0
  0
LINE
  5
398
  8
DETAIL
  6
CONTINUOUS
 62
     5
 10
79.045970000000125
 20
25.939208999999209
 30
0.0
 11
79.0
 21
25.939208999999209
 31
0.0
  0
LINE
  5
399
  8
DETAIL
  6
CONTINUOUS
 62
     5
 10
-153.83267100000009
 20
25.239999999999789
 30
0.0
 11
-168.87804599999981
 21
25.239999999999789
 31
0.0
  0
LINE
  5
39A
  8
DETAIL
  6
CONTINUOUS
 62
     5
 10
-147.69999999999979
 20
76.289948999999979
 30
0.0
 11
-147.76000000000019
 21
76.229948999999579
 31
0.0
  0
LINE
  5
39E
  8
DETAIL
  6
CONTINUOUS
 62
     5
 10
-145.23871599999981
 20
200.65525199999959
 30
0.0
 11
-146.36041600000041
 21
202.95485800000009
 31
0.0
  0
LINE
  5
39F
  8
DETAIL
  6
CONTINUOUS
 62
     5
 10
-144.9804080000003
 20
199.97588599999921
 30
0.0
 11
-145.23871599999981
 21
200.65525199999959
 31
0.0
  0
LINE
  5
3A0
  8
DETAIL
  6
CONTINUOUS
 62
     5
 10
-179.3781280000002
 20
214.59351199999941
 30
0.0
 11
-179.35138900000041
 21
213.6990109999997
 31
0.0
  0
LINE
  5
3A1
  8
DETAIL
  6
CONTINUOUS
 62
     5
 10
-179.4561809999995
 20
215.41554499999981
 30
0.0
 11
-179.3781280000002
 21
214.59351199999941
 31
0.0
  0
LINE
  5
3A2
  8
DETAIL
  6
CONTINUOUS
 62
     5
 10
-179.5792220000003
 20
216.09851599999999
 30
0.0
 11
-179.4561809999995
 21
215.41554499999981
 31
0.0
  0
LINE
  5
3A3
  8
DETAIL
  6
CONTINUOUS
 62
     5
 10
-179.7372850000001
 20
216.5870919999997
 30
0.0
 11
-179.5792220000003
 21
216.09851599999999
 31
0.0
  0
LINE
  5
3A4
  8
DETAIL
  6
CONTINUOUS
 62
     5
 10
-179.871196
 20
216.80145799999991
 30
0.0
 11
-179.7372850000001
 21
216.5870919999997
 31
0.0
  0
LINE
  5
3A5
  8
DETAIL
  6
CONTINUOUS
 62
     5
 10
-101.8032929999999
 20
74.893094000000033
 30
0.0
 11
-101.10329299999999
 21
74.193093999999292
 31
0.0
  0
LINE
  5
3A6
  8
DETAIL
  6
CONTINUOUS
 62
     5
 10
-176.4209309999996
 20
139.53823399999959
 30
0.0
 11
-175.59105400000041
 21
138.49390299999959
 31
0.0
  0
LINE
  5
3A7
  8
DETAIL
  6
CONTINUOUS
 62
     5
 10
-177.40746800000031
 20
140.54991699999931
 30
0.0
 11
-176.4209309999996
 21
139.53823399999959
 31
0.0
  0
LINE
  5
3A8
  8
DETAIL
  6
CONTINUOUS
 62
     5
 10
-178.52129599999989
 20
141.49910699999961
 30
0.0
 11
-177.40746800000031
 21
140.54991699999931
 31
0.0
  0
LINE
  5
3A9
  8
DETAIL
  6
CONTINUOUS
 62
     5
 10
-182.381351
 20
144.50431099999969
 30
0.0
 11
-174.6612400000003
 21
138.49390299999959
 31
0.0
  0
LINE
  5
3AA
  8
DETAIL
  6
CONTINUOUS
 62
     5
 10
-138.2828659999995
 20
47.065877
 30
0.0
 11
-105.3308569999999
 21
35.952687999999398
 31
0.0
  0
LINE
  5
3AB
  8
DETAIL
  6
CONTINUOUS
 62
     5
 10
-170.22914399999991
 20
35.227206999999908
 30
0.0
 11
-170.25515799999991
 21
35.248281999999563
 31
0.0
  0
LINE
  5
3AC
  8
DETAIL
  6
CONTINUOUS
 62
     5
 10
-169.4999580000003
 20
34.866177999999309
 30
0.0
 11
-170.22914399999991
 21
35.227206999999908
 31
0.0
  0
LINE
  5
3AD
  8
DETAIL
  6
CONTINUOUS
 62
     5
 10
-168.87804599999981
 20
34.759999999999309
 30
0.0
 11
-169.4999580000003
 21
34.866177999999309
 31
0.0
  0
LINE
  5
3AE
  8
DETAIL
  6
CONTINUOUS
 62
     5
 10
-168.87804599999981
 20
25.239999999999789
 30
0.0
 11
-170.25515799999991
 21
25.384610999999492
 31
0.0
  0
LINE
  5
3AF
  8
DETAIL
  6
CONTINUOUS
 62
     5
 10
90.511112000000125
 20
19.089208999999752
 30
0.0
 11
79.0
 21
19.089208999999752
 31
0.0
  0
LINE
  5
3B0
  8
DETAIL
  6
CONTINUOUS
 62
     5
 10
57.38119800000004
 20
16.599999999999451
 30
0.0
 11
66.61880199999996
 21
16.599999999999451
 31
0.0
  0
LINE
  5
3B1
  8
DETAIL
  6
CONTINUOUS
 62
     5
 10
-179.12227700000039
 20
13.5
 30
0.0
 11
-170.25515799999991
 21
13.5
 31
0.0
  0
LINE
  5
3B2
  8
DETAIL
  6
CONTINUOUS
 62
     5
 10
79.0
 20
12.799999999999271
 30
0.0
 11
77.199999999999804
 21
12.799999999999271
 31
0.0
  0
LINE
  5
3B3
  8
DETAIL
  6
CONTINUOUS
 62
     5
 10
-223.58765899999889
 20
12.60000000000036
 30
0.0
 11
-209.617502
 21
12.599999999999451
 31
0.0
  0
LINE
  5
3B5
  8
DETAIL
  6
CONTINUOUS
 62
     5
 10
133.0
 20
12.19999999999982
 30
0.0
 11
143.0
 21
12.19999999999982
 31
0.0
  0
LINE
  5
3B6
  8
DETAIL
  6
CONTINUOUS
 62
     5
 10
132.80000000000021
 20
12.0
 30
0.0
 11
119.0
 21
12.0
 31
0.0
  0
LINE
  5
3B7
  8
DETAIL
  6
CONTINUOUS
 62
     5
 10
237.0
 20
12.0
 30
0.0
 11
134.0
 21
12.0
 31
0.0
  0
LINE
  5
3B8
  8
DETAIL
  6
CONTINUOUS
 62
     5
 10
-237.80000000000021
 20
10.99999999999927
 30
0.0
 11
237.80000000000021
 21
11.0
 31
0.0
  0
LINE
  5
3B9
  8
DETAIL
  6
CONTINUOUS
 62
     5
 10
-240.0
 20
8.7999999999992724
 30
0.0
 11
-238.0
 21
8.7999999999992724
 31
0.0
  0
LINE
  5
3BA
  8
DETAIL
  6
CONTINUOUS
 62
     5
 10
240.0
 20
8.7999999999992724
 30
0.0
 11
238.0
 21
8.7999999999992724
 31
0.0
  0
LINE
  5
3BB
  8
DETAIL
  6
CONTINUOUS
 62
     5
 10
79.83177799999973
 20
21.064208999999209
 30
0.0
 11
80.231072999999924
 21
21.06768499999998
 31
0.0
  0
LINE
  5
3BC
  8
DETAIL
  6
CONTINUOUS
 62
     5
 10
102.38712000000019
 20
42.272040999999263
 30
0.0
 11
102.58474200000001
 21
45.253315999999359
 31
0.0
  0
LINE
  5
3BD
  8
DETAIL
  6
CONTINUOUS
 62
     5
 10
101.79589800000031
 20
39.181789999999651
 30
0.0
 11
102.38712000000019
 21
42.272040999999263
 31
0.0
  0
LINE
  5
3BE
  8
DETAIL
  6
CONTINUOUS
 62
     5
 10
100.82284299999991
 20
36.19832199999928
 30
0.0
 11
101.79589800000031
 21
39.181789999999651
 31
0.0
  0
LINE
  5
3BF
  8
DETAIL
  6
CONTINUOUS
 62
     5
 10
99.489947000000043
 20
33.378605999999309
 30
0.0
 11
100.82284299999991
 21
36.19832199999928
 31
0.0
  0
LINE
  5
3C0
  8
DETAIL
  6
CONTINUOUS
 62
     5
 10
97.815192000000025
 20
30.757665000000092
 30
0.0
 11
99.489947000000043
 21
33.378605999999309
 31
0.0
  0
LINE
  5
3C1
  8
DETAIL
  6
CONTINUOUS
 62
     5
 10
95.829394000000306
 20
28.381429000000029
 30
0.0
 11
97.815192000000025
 21
30.757665000000092
 31
0.0
  0
LINE
  5
3C2
  8
DETAIL
  6
CONTINUOUS
 62
     5
 10
93.556085000000138
 20
26.281932999999299
 30
0.0
 11
95.829394000000306
 21
28.381429000000029
 31
0.0
  0
LINE
  5
3C3
  8
DETAIL
  6
CONTINUOUS
 62
     5
 10
91.041333999999566
 20
24.501413999999389
 30
0.0
 11
93.556085000000138
 21
26.281932999999299
 31
0.0
  0
LINE
  5
3C4
  8
DETAIL
  6
CONTINUOUS
 62
     5
 10
88.325600999999537
 20
23.070305999999611
 30
0.0
 11
91.041333999999566
 21
24.501413999999389
 31
0.0
  0
LINE
  5
3C5
  8
DETAIL
  6
CONTINUOUS
 62
     5
 10
85.451847999999714
 20
22.009773999999201
 30
0.0
 11
88.325600999999537
 21
23.070305999999611
 31
0.0
  0
LINE
  5
3C6
  8
DETAIL
  6
CONTINUOUS
 62
     5
 10
82.471615999999827
 20
21.33974599999965
 30
0.0
 11
85.451847999999714
 21
22.009773999999201
 31
0.0
  0
LINE
  5
3C7
  8
DETAIL
  6
CONTINUOUS
 62
     5
 10
79.439575999999761
 20
21.069634999999838
 30
0.0
 11
82.471615999999827
 21
21.33974599999965
 31
0.0
  0
LINE
  5
3C8
  8
DETAIL
  6
CONTINUOUS
 62
     5
 10
79.0
 20
21.0646969999998
 30
0.0
 11
79.439575999999761
 21
21.069634999999838
 31
0.0
  0
LINE
  5
3C9
  8
DETAIL
  6
CONTINUOUS
 62
     5
 10
80.733976999999854
 20
21.06388199999947
 30
0.0
 11
81.252862999999707
 21
21.069717999999732
 31
0.0
  0
LINE
  5
3CA
  8
DETAIL
  6
CONTINUOUS
 62
     5
 10
105.1047580000004
 20
42.272269000000051
 30
0.0
 11
105.3023419999999
 21
45.253315999999359
 31
0.0
  0
LINE
  5
3CB
  8
DETAIL
  6
CONTINUOUS
 62
     5
 10
104.5121280000003
 20
39.176644000000117
 30
0.0
 11
105.1047580000004
 21
42.272269000000051
 31
0.0
  0
LINE
  5
3CC
  8
DETAIL
  6
CONTINUOUS
 62
     5
 10
103.53986400000031
 20
36.196668999999929
 30
0.0
 11
104.5121280000003
 21
39.176644000000117
 31
0.0
  0
LINE
  5
3CD
  8
DETAIL
  6
CONTINUOUS
 62
     5
 10
102.2069799999999
 20
33.377583999999842
 30
0.0
 11
103.53986400000031
 21
36.196668999999929
 31
0.0
  0
LINE
  5
3CE
  8
DETAIL
  6
CONTINUOUS
 62
     5
 10
100.5286649999998
 20
30.751946999999749
 30
0.0
 11
102.2069799999999
 21
33.377583999999842
 31
0.0
  0
LINE
  5
3CF
  8
DETAIL
  6
CONTINUOUS
 62
     5
 10
98.534480999999715
 20
28.368560999999321
 30
0.0
 11
100.5286649999998
 21
30.751946999999749
 31
0.0
  0
LINE
  5
3D0
  8
DETAIL
  6
CONTINUOUS
 62
     5
 10
96.259231000000014
 20
26.27007099999993
 30
0.0
 11
98.534480999999715
 21
28.368560999999321
 31
0.0
  0
LINE
  5
3D1
  8
DETAIL
  6
CONTINUOUS
 62
     5
 10
93.747961000000004
 20
24.494832999999741
 30
0.0
 11
96.259231000000014
 21
26.27007099999993
 31
0.0
  0
LINE
  5
3D2
  8
DETAIL
  6
CONTINUOUS
 62
     5
 10
91.039147999999841
 20
23.068389000000021
 30
0.0
 11
93.747961000000004
 21
24.494832999999741
 31
0.0
  0
LINE
  5
3D3
  8
DETAIL
  6
CONTINUOUS
 62
     5
 10
88.17651399999977
 20
22.011778999999478
 30
0.0
 11
91.039147999999841
 21
23.068389000000021
 31
0.0
  0
LINE
  5
3D4
  8
DETAIL
  6
CONTINUOUS
 62
     5
 10
85.197301999999581
 20
21.341049999999989
 30
0.0
 11
88.17651399999977
 21
22.011778999999478
 31
0.0
  0
LINE
  5
3D5
  8
DETAIL
  6
CONTINUOUS
 62
     5
 10
82.160788999999539
 20
21.069772999999248
 30
0.0
 11
85.197301999999581
 21
21.341049999999989
 31
0.0
  0
LINE
  5
3D6
  8
DETAIL
  6
CONTINUOUS
 62
     5
 10
81.640151999999901
 20
21.06389499999932
 30
0.0
 11
82.160788999999539
 21
21.069772999999248
 31
0.0
  0
LINE
  5
3D7
  8
DETAIL
  6
CONTINUOUS
 62
     5
 10
83.223562000000129
 20
21.3160969999999
 30
0.0
 11
86.173275000000075
 21
21.956027999999598
 31
0.0
  0
LINE
  5
3D8
  8
DETAIL
  6
CONTINUOUS
 62
     5
 10
80.231072999999924
 20
21.06768499999998
 30
0.0
 11
83.223562000000129
 21
21.3160969999999
 31
0.0
  0
LINE
  5
3D9
  8
DETAIL
  6
CONTINUOUS
 62
     5
 10
101.4816730000002
 20
42.275403999999959
 30
0.0
 11
101.67887499999961
 21
45.253315999999359
 31
0.0
  0
LINE
  5
3DA
  8
DETAIL
  6
CONTINUOUS
 62
     5
 10
100.89088699999949
 20
39.185198000000149
 30
0.0
 11
101.4816730000002
 21
42.275403999999959
 31
0.0
  0
LINE
  5
3DB
  8
DETAIL
  6
CONTINUOUS
 62
     5
 10
99.919971000000288
 20
36.20556799999941
 30
0.0
 11
100.89088699999949
 21
39.185198000000149
 31
0.0
  0
LINE
  5
3DC
  8
DETAIL
  6
CONTINUOUS
 62
     5
 10
98.585648999999634
 20
33.381604999999581
 30
0.0
 11
99.919971000000288
 21
36.20556799999941
 31
0.0
  0
LINE
  5
3DD
  8
DETAIL
  6
CONTINUOUS
 62
     5
 10
96.908026000000064
 20
30.75571299999956
 30
0.0
 11
98.585648999999634
 21
33.381604999999581
 31
0.0
  0
LINE
  5
3DE
  8
DETAIL
  6
CONTINUOUS
 62
     5
 10
94.913489999999868
 20
28.371184999999969
 30
0.0
 11
96.908026000000064
 21
30.75571299999956
 31
0.0
  0
LINE
  5
3DF
  8
DETAIL
  6
CONTINUOUS
 62
     5
 10
92.635951000000205
 20
26.2702220000001
 30
0.0
 11
94.913489999999868
 21
28.371184999999969
 31
0.0
  0
LINE
  5
3E0
  8
DETAIL
  6
CONTINUOUS
 62
     5
 10
90.122741999999548
 20
24.493784999999669
 30
0.0
 11
92.635951000000205
 21
26.2702220000001
 31
0.0
  0
LINE
  5
3E1
  8
DETAIL
  6
CONTINUOUS
 62
     5
 10
87.415927000000025
 20
23.068357999999531
 30
0.0
 11
90.122741999999548
 21
24.493784999999669
 31
0.0
  0
LINE
  5
3E2
  8
DETAIL
  6
CONTINUOUS
 62
     5
 10
84.551618000000417
 20
22.011558999999579
 30
0.0
 11
87.415927000000025
 21
23.068357999999531
 31
0.0
  0
LINE
  5
3E3
  8
DETAIL
  6
CONTINUOUS
 62
     5
 10
81.568199000000263
 20
21.340065999999759
 30
0.0
 11
84.551618000000417
 21
22.011558999999579
 31
0.0
  0
LINE
  5
3E4
  8
DETAIL
  6
CONTINUOUS
 62
     5
 10
79.0
 20
21.111285999999389
 30
0.0
 11
81.568199000000263
 21
21.340065999999759
 31
0.0
  0
LINE
  5
3E5
  8
DETAIL
  6
CONTINUOUS
 62
     5
 10
104.19908099999969
 20
42.273838000000069
 30
0.0
 11
104.3964749999995
 21
45.253315999999359
 31
0.0
  0
LINE
  5
3E6
  8
DETAIL
  6
CONTINUOUS
 62
     5
 10
103.60830300000001
 20
39.184383999999227
 30
0.0
 11
104.19908099999969
 21
42.273838000000069
 31
0.0
  0
LINE
  5
3E7
  8
DETAIL
  6
CONTINUOUS
 62
     5
 10
102.6358300000001
 20
36.201511999999653
 30
0.0
 11
103.60830300000001
 21
39.184383999999227
 31
0.0
  0
LINE
  5
3E8
  8
DETAIL
  6
CONTINUOUS
 62
     5
 10
101.303989
 20
33.382721999999383
 30
0.0
 11
102.6358300000001
 21
36.201511999999653
 31
0.0
  0
LINE
  5
3E9
  8
DETAIL
  6
CONTINUOUS
 62
     5
 10
99.628109999999666
 20
30.759307999999692
 30
0.0
 11
101.303989
 21
33.382721999999383
 31
0.0
  0
LINE
  5
3EA
  8
DETAIL
  6
CONTINUOUS
 62
     5
 10
97.639933000000383
 20
28.380247999999479
 30
0.0
 11
99.628109999999666
 21
30.759307999999692
 31
0.0
  0
LINE
  5
3EB
  8
DETAIL
  6
CONTINUOUS
 62
     5
 10
95.369109000000208
 20
26.282851999999369
 30
0.0
 11
97.639933000000383
 21
28.380247999999479
 31
0.0
  0
LINE
  5
3EC
  8
DETAIL
  6
CONTINUOUS
 62
     5
 10
92.856748000000138
 20
24.503749999999851
 30
0.0
 11
95.369109000000208
 21
26.282851999999369
 31
0.0
  0
LINE
  5
3ED
  8
DETAIL
  6
CONTINUOUS
 62
     5
 10
90.140768000000207
 20
23.071822999999309
 30
0.0
 11
92.856748000000138
 21
24.503749999999851
 31
0.0
  0
LINE
  5
3EE
  8
DETAIL
  6
CONTINUOUS
 62
     5
 10
87.266784000000385
 20
22.01071199999933
 30
0.0
 11
90.140768000000207
 21
23.071822999999309
 31
0.0
  0
LINE
  5
3EF
  8
DETAIL
  6
CONTINUOUS
 62
     5
 10
84.286052000000311
 20
21.34017700000004
 30
0.0
 11
87.266784000000385
 21
22.01071199999933
 31
0.0
  0
LINE
  5
3F0
  8
DETAIL
  6
CONTINUOUS
 62
     5
 10
81.252862999999707
 20
21.069717999999732
 30
0.0
 11
84.286052000000311
 21
21.34017700000004
 31
0.0
  0
LINE
  5
3F1
  8
DETAIL
  6
CONTINUOUS
 62
     5
 10
99.670033999999774
 20
42.276378999999892
 30
0.0
 11
99.867142000000044
 21
45.253315999999359
 31
0.0
  0
LINE
  5
3F2
  8
DETAIL
  6
CONTINUOUS
 62
     5
 10
99.081758000000264
 20
39.195010999999802
 30
0.0
 11
99.670033999999774
 21
42.276378999999892
 31
0.0
  0
LINE
  5
3F3
  8
DETAIL
  6
CONTINUOUS
 62
     5
 10
98.111853999999795
 20
36.214908999999359
 30
0.0
 11
99.081758000000264
 21
39.195010999999802
 31
0.0
  0
LINE
  5
3F4
  8
DETAIL
  6
CONTINUOUS
 62
     5
 10
96.780206000000376
 20
33.392903999999362
 30
0.0
 11
98.111853999999795
 21
36.214908999999359
 31
0.0
  0
LINE
  5
3F5
  8
DETAIL
  6
CONTINUOUS
 62
     5
 10
95.108063999999985
 20
30.771811999999962
 30
0.0
 11
96.780206000000376
 21
33.392903999999362
 31
0.0
  0
LINE
  5
3F6
  8
DETAIL
  6
CONTINUOUS
 62
     5
 10
93.119085999999697
 20
28.38937600000008
 30
0.0
 11
95.108063999999985
 21
30.771811999999962
 31
0.0
  0
LINE
  5
3F7
  8
DETAIL
  6
CONTINUOUS
 62
     5
 10
90.84587399999964
 20
26.287849999999711
 30
0.0
 11
93.119085999999697
 21
28.38937600000008
 31
0.0
  0
LINE
  5
3F8
  8
DETAIL
  6
CONTINUOUS
 62
     5
 10
88.336467999999499
 20
24.509236999999299
 30
0.0
 11
90.84587399999964
 21
26.287849999999711
 31
0.0
  0
LINE
  5
3F9
  8
DETAIL
  6
CONTINUOUS
 62
     5
 10
85.622166000000092
 20
23.07654999999977
 30
0.0
 11
88.336467999999499
 21
24.509236999999299
 31
0.0
  0
LINE
  5
3FA
  8
DETAIL
  6
CONTINUOUS
 62
     5
 10
82.748085999999589
 20
22.013922999999519
 30
0.0
 11
85.622166000000092
 21
23.07654999999977
 31
0.0
  0
LINE
  5
3FB
  8
DETAIL
  6
CONTINUOUS
 62
     5
 10
79.766657000000123
 20
21.341676999999429
 30
0.0
 11
82.748085999999589
 21
22.013922999999519
 31
0.0
  0
LINE
  5
3FC
  8
DETAIL
  6
CONTINUOUS
 62
     5
 10
79.0
 20
21.27303799999936
 30
0.0
 11
79.766657000000123
 21
21.341676999999429
 31
0.0
  0
LINE
  5
3FD
  8
DETAIL
  6
CONTINUOUS
 62
     5
 10
100.5778760000003
 20
42.291717000000062
 30
0.0
 11
100.7730090000004
 21
45.253315999999359
 31
0.0
  0
LINE
  5
3FE
  8
DETAIL
  6
CONTINUOUS
 62
     5
 10
99.992731999999691
 20
39.215209999999388
 30
0.0
 11
100.5778760000003
 21
42.291717000000062
 31
0.0
  0
LINE
  5
3FF
  8
DETAIL
  6
CONTINUOUS
 62
     5
 10
99.025770000000222
 20
36.235306999999921
 30
0.0
 11
99.992731999999691
 21
39.215209999999388
 31
0.0
  0
LINE
  5
400
  8
DETAIL
  6
CONTINUOUS
 62
     5
 10
97.695765999999793
 20
33.410455999999613
 30
0.0
 11
99.025770000000222
 21
36.235306999999921
 31
0.0
  0
LINE
  5
401
  8
DETAIL
  6
CONTINUOUS
 62
     5
 10
96.026151000000013
 20
30.788546999999198
 30
0.0
 11
97.695765999999793
 21
33.410455999999613
 31
0.0
  0
LINE
  5
402
  8
DETAIL
  6
CONTINUOUS
 62
     5
 10
94.038647999999696
 20
28.403655000000072
 30
0.0
 11
96.026151000000013
 21
30.788546999999198
 31
0.0
  0
LINE
  5
403
  8
DETAIL
  6
CONTINUOUS
 62
     5
 10
91.76243799999969
 20
26.296595999999241
 30
0.0
 11
94.038647999999696
 21
28.403655000000072
 31
0.0
  0
LINE
  5
404
  8
DETAIL
  6
CONTINUOUS
 62
     5
 10
89.25331100000038
 20
24.515943999999759
 30
0.0
 11
91.76243799999969
 21
26.296595999999241
 31
0.0
  0
LINE
  5
405
  8
DETAIL
  6
CONTINUOUS
 62
     5
 10
86.547134999999813
 20
23.085215000000051
 30
0.0
 11
89.25331100000038
 21
24.515943999999759
 31
0.0
  0
LINE
  5
406
  8
DETAIL
  6
CONTINUOUS
 62
     5
 10
83.66660700000007
 20
22.017662999999629
 30
0.0
 11
86.547134999999813
 21
23.085215000000051
 31
0.0
  0
LINE
  5
407
  8
DETAIL
  6
CONTINUOUS
 62
     5
 10
80.67816800000034
 20
21.342397999999761
 30
0.0
 11
83.66660700000007
 21
22.017662999999629
 31
0.0
  0
LINE
  5
408
  8
DETAIL
  6
CONTINUOUS
 62
     5
 10
79.0
 20
21.191678999999571
 30
0.0
 11
80.67816800000034
 21
21.342397999999761
 31
0.0
  0
LINE
  5
409
  8
DETAIL
  6
CONTINUOUS
 62
     5
 10
98.764175000000236
 20
42.276157999999661
 30
0.0
 11
98.961274999999659
 21
45.253315999999359
 31
0.0
  0
LINE
  5
40A
  8
DETAIL
  6
CONTINUOUS
 62
     5
 10
98.173404000000133
 20
39.185590999999476
 30
0.0
 11
98.764175000000236
 21
42.276157999999661
 31
0.0
  0
LINE
  5
40B
  8
DETAIL
  6
CONTINUOUS
 62
     5
 10
97.199273999999605
 20
36.197970999999598
 30
0.0
 11
98.173404000000133
 21
39.185590999999476
 31
0.0
  0
LINE
  5
40C
  8
DETAIL
  6
CONTINUOUS
 62
     5
 10
95.862605999999701
 20
33.371830999999467
 30
0.0
 11
97.199273999999605
 21
36.197970999999598
 31
0.0
  0
LINE
  5
40D
  8
DETAIL
  6
CONTINUOUS
 62
     5
 10
94.187939000000384
 20
30.752132999999962
 30
0.0
 11
95.862605999999701
 21
33.371830999999467
 31
0.0
  0
LINE
  5
40E
  8
DETAIL
  6
CONTINUOUS
 62
     5
 10
92.196735999999873
 20
28.372073999999881
 30
0.0
 11
94.187939000000384
 21
30.752132999999962
 31
0.0
  0
LINE
  5
40F
  8
DETAIL
  6
CONTINUOUS
 62
     5
 10
89.916640999999785
 20
26.268902999999231
 30
0.0
 11
92.196735999999873
 21
28.372073999999881
 31
0.0
  0
LINE
  5
410
  8
DETAIL
  6
CONTINUOUS
 62
     5
 10
87.402210000000196
 20
24.491833000000039
 30
0.0
 11
89.916640999999785
 21
26.268902999999231
 31
0.0
  0
LINE
  5
411
  8
DETAIL
  6
CONTINUOUS
 62
     5
 10
84.689432000000124
 20
23.064616999999998
 30
0.0
 11
87.402210000000196
 21
24.491833000000039
 31
0.0
  0
LINE
  5
412
  8
DETAIL
  6
CONTINUOUS
 62
     5
 10
81.816622999999694
 20
22.006407999999279
 30
0.0
 11
84.689432000000124
 21
23.064616999999998
 31
0.0
  0
LINE
  5
413
  8
DETAIL
  6
CONTINUOUS
 62
     5
 10
79.0
 20
21.373862999999801
 30
0.0
 11
81.816622999999694
 21
22.006407999999279
 31
0.0
  0
LINE
  5
414
  8
DETAIL
  6
CONTINUOUS
 62
     5
 10
96.952411000000211
 20
42.275916999999929
 30
0.0
 11
97.149542000000153
 21
45.253315999999359
 31
0.0
  0
LINE
  5
415
  8
DETAIL
  6
CONTINUOUS
 62
     5
 10
96.361679999999964
 20
39.185609999999542
 30
0.0
 11
96.952411000000211
 21
42.275916999999929
 31
0.0
  0
LINE
  5
416
  8
DETAIL
  6
CONTINUOUS
 62
     5
 10
95.387920999999565
 20
36.198972999999569
 30
0.0
 11
96.361679999999964
 21
39.185609999999542
 31
0.0
  0
LINE
  5
417
  8
DETAIL
  6
CONTINUOUS
 62
     5
 10
94.052671000000359
 20
33.375032999999348
 30
0.0
 11
95.387920999999565
 21
36.198972999999569
 31
0.0
  0
LINE
  5
418
  8
DETAIL
  6
CONTINUOUS
 62
     5
 10
92.379230999999876
 20
30.756236999999601
 30
0.0
 11
94.052671000000359
 21
33.375032999999348
 31
0.0
  0
LINE
  5
419
  8
DETAIL
  6
CONTINUOUS
 62
     5
 10
90.387969999999797
 20
28.375278999999871
 30
0.0
 11
92.379230999999876
 21
30.756236999999601
 31
0.0
  0
LINE
  5
41A
  8
DETAIL
  6
CONTINUOUS
 62
     5
 10
88.109346000000187
 20
26.272455999999689
 30
0.0
 11
90.387969999999797
 21
28.375278999999871
 31
0.0
  0
LINE
  5
41B
  8
DETAIL
  6
CONTINUOUS
 62
     5
 10
85.597221000000005
 20
24.49596499999916
 30
0.0
 11
88.109346000000187
 21
26.272455999999689
 31
0.0
  0
LINE
  5
41C
  8
DETAIL
  6
CONTINUOUS
 62
     5
 10
82.883507999999892
 20
23.067231999999429
 30
0.0
 11
85.597221000000005
 21
24.49596499999916
 31
0.0
  0
LINE
  5
41D
  8
DETAIL
  6
CONTINUOUS
 62
     5
 10
80.009659999999684
 20
22.007778000000151
 30
0.0
 11
82.883507999999892
 21
23.067231999999429
 31
0.0
  0
LINE
  5
41E
  8
DETAIL
  6
CONTINUOUS
 62
     5
 10
79.0
 20
21.780802999999651
 30
0.0
 11
80.009659999999684
 21
22.007778000000151
 31
0.0
  0
LINE
  5
41F
  8
DETAIL
  6
CONTINUOUS
 62
     5
 10
97.858492999999726
 20
42.277990999999929
 30
0.0
 11
98.055408999999614
 21
45.253315999999359
 31
0.0
  0
LINE
  5
420
  8
DETAIL
  6
CONTINUOUS
 62
     5
 10
97.271236999999914
 20
39.1995909999996
 30
0.0
 11
97.858492999999726
 21
42.277990999999929
 31
0.0
  0
LINE
  5
421
  8
DETAIL
  6
CONTINUOUS
 62
     5
 10
96.300849999999613
 20
36.216878999999608
 30
0.0
 11
97.271236999999914
 21
39.1995909999996
 31
0.0
  0
LINE
  5
422
  8
DETAIL
  6
CONTINUOUS
 62
     5
 10
94.969039999999964
 20
33.393876000000091
 30
0.0
 11
96.300849999999613
 21
36.216878999999608
 31
0.0
  0
LINE
  5
423
  8
DETAIL
  6
CONTINUOUS
 62
     5
 10
93.297145999999842
 20
30.772932999999281
 30
0.0
 11
94.969039999999964
 21
33.393876000000091
 31
0.0
  0
LINE
  5
424
  8
DETAIL
  6
CONTINUOUS
 62
     5
 10
91.308216000000357
 20
28.390285999999829
 30
0.0
 11
93.297145999999842
 21
30.772932999999281
 31
0.0
  0
LINE
  5
425
  8
DETAIL
  6
CONTINUOUS
 62
     5
 10
89.036313999999933
 20
26.289628999999881
 30
0.0
 11
91.308216000000357
 21
28.390285999999829
 31
0.0
  0
LINE
  5
426
  8
DETAIL
  6
CONTINUOUS
 62
     5
 10
86.529943999999887
 20
24.512353000000068
 30
0.0
 11
89.036313999999933
 21
26.289628999999881
 31
0.0
  0
LINE
  5
427
  8
DETAIL
  6
CONTINUOUS
 62
     5
 10
83.817823000000317
 20
23.079968999999441
 30
0.0
 11
86.529943999999887
 21
24.512353000000068
 31
0.0
  0
LINE
  5
428
  8
DETAIL
  6
CONTINUOUS
 62
     5
 10
80.946221000000122
 20
22.016794000000122
 30
0.0
 11
83.817823000000317
 21
23.079968999999441
 31
0.0
  0
LINE
  5
429
  8
DETAIL
  6
CONTINUOUS
 62
     5
 10
79.0
 20
21.577052999999989
 30
0.0
 11
80.946221000000122
 21
22.016794000000122
 31
0.0
  0
LINE
  5
42A
  8
DETAIL
  6
CONTINUOUS
 62
     5
 10
96.046809999999809
 20
42.278347999999831
 30
0.0
 11
96.243674999999712
 21
45.253315999999359
 31
0.0
  0
LINE
  5
42B
  8
DETAIL
  6
CONTINUOUS
 62
     5
 10
95.459458000000211
 20
39.199420999999361
 30
0.0
 11
96.046809999999809
 21
42.278347999999831
 31
0.0
  0
LINE
  5
42C
  8
DETAIL
  6
CONTINUOUS
 62
     5
 10
94.488644000000036
 20
36.215733
 30
0.0
 11
95.459458000000211
 21
39.199420999999361
 31
0.0
  0
LINE
  5
42D
  8
DETAIL
  6
CONTINUOUS
 62
     5
 10
93.157014999999774
 20
33.393325000000011
 30
0.0
 11
94.488644000000036
 21
36.215733
 31
0.0
  0
LINE
  5
42E
  8
DETAIL
  6
CONTINUOUS
 62
     5
 10
91.484308000000055
 20
30.771412999999491
 30
0.0
 11
93.157014999999774
 21
33.393325000000011
 31
0.0
  0
LINE
  5
42F
  8
DETAIL
  6
CONTINUOUS
 62
     5
 10
89.493926999999502
 20
28.387648999999328
 30
0.0
 11
91.484308000000055
 21
30.771412999999491
 31
0.0
  0
LINE
  5
430
  8
DETAIL
  6
CONTINUOUS
 62
     5
 10
87.224107000000004
 20
26.289157999999588
 30
0.0
 11
89.493926999999502
 21
28.387648999999328
 31
0.0
  0
LINE
  5
431
  8
DETAIL
  6
CONTINUOUS
 62
     5
 10
84.72061300000037
 20
24.513844999999488
 30
0.0
 11
87.224107000000004
 21
26.289157999999588
 31
0.0
  0
LINE
  5
432
  8
DETAIL
  6
CONTINUOUS
 62
     5
 10
82.009785999999579
 20
23.081662999999939
 30
0.0
 11
84.72061300000037
 21
24.513844999999488
 31
0.0
  0
LINE
  5
433
  8
DETAIL
  6
CONTINUOUS
 62
     5
 10
79.139662999999928
 20
22.018306999999361
 30
0.0
 11
82.009785999999579
 21
23.081662999999939
 31
0.0
  0
LINE
  5
434
  8
DETAIL
  6
CONTINUOUS
 62
     5
 10
79.0
 20
21.986715999999429
 30
0.0
 11
79.139662999999928
 21
22.018306999999361
 31
0.0
  0
LINE
  5
439
  8
DETAIL
  6
CONTINUOUS
 62
     5
 10
-144.88516700000031
 20
37.58141599999999
 30
0.0
 11
-146.14314999999991
 21
34.5
 31
0.0
  0
LINE
  5
43E
  8
DETAIL
  6
CONTINUOUS
 62
     5
 10
-101.10329299999999
 20
185.1830439999994
 30
0.0
 11
-101.10331000000041
 21
196.42391999999921
 31
0.0
  0
LINE
  5
43F
  8
DETAIL
  6
CONTINUOUS
 62
     5
 10
-101.10329299999999
 20
49.183043999999427
 30
0.0
 11
-101.10329299999999
 21
74.193093999999292
 31
0.0
  0
LINE
  5
440
  8
DETAIL
  6
CONTINUOUS
 62
     5
 10
-101.8032929999999
 20
82.183043999999427
 30
0.0
 11
-101.8032929999999
 21
74.893094000000033
 31
0.0
  0
LINE
  5
441
  8
DETAIL
  6
CONTINUOUS
 62
     5
 10
-110.0528750000003
 20
209.46070799999961
 30
0.0
 11
-111.7934240000004
 21
209.63999999999939
 31
0.0
  0
LINE
  5
442
  8
DETAIL
  6
CONTINUOUS
 62
     5
 10
-108.382705
 20
208.93863899999999
 30
0.0
 11
-110.0528750000003
 21
209.46070799999961
 31
0.0
  0
LINE
  5
443
  8
DETAIL
  6
CONTINUOUS
 62
     5
 10
-106.8270670000001
 20
208.10656799999921
 30
0.0
 11
-108.382705
 21
208.93863899999999
 31
0.0
  0
LINE
  5
444
  8
DETAIL
  6
CONTINUOUS
 62
     5
 10
-105.41411100000001
 20
206.99854199999939
 30
0.0
 11
-106.8270670000001
 21
208.10656799999921
 31
0.0
  0
LINE
  5
445
  8
DETAIL
  6
CONTINUOUS
 62
     5
 10
-104.1642529999999
 20
205.64385999999919
 30
0.0
 11
-105.41411100000001
 21
206.99854199999939
 31
0.0
  0
LINE
  5
446
  8
DETAIL
  6
CONTINUOUS
 62
     5
 10
-103.0998079999999
 20
204.07309699999951
 30
0.0
 11
-104.1642529999999
 21
205.64385999999919
 31
0.0
  0
LINE
  5
447
  8
DETAIL
  6
CONTINUOUS
 62
     5
 10
-102.2440679999999
 20
202.32267499999941
 30
0.0
 11
-103.0998079999999
 21
204.07309699999951
 31
0.0
  0
LINE
  5
448
  8
DETAIL
  6
CONTINUOUS
 62
     5
 10
-101.61599200000001
 20
200.42959900000011
 30
0.0
 11
-102.2440679999999
 21
202.32267499999941
 31
0.0
  0
LINE
  5
449
  8
DETAIL
  6
CONTINUOUS
 62
     5
 10
-101.2322819999999
 20
198.4390429999994
 30
0.0
 11
-101.61599200000001
 21
200.42959900000011
 31
0.0
  0
LINE
  5
44A
  8
DETAIL
  6
CONTINUOUS
 62
     5
 10
-101.10331000000041
 20
196.42391999999921
 30
0.0
 11
-101.2322819999999
 21
198.4390429999994
 31
0.0
  0
LINE
  5
44B
  8
DETAIL
  6
CONTINUOUS
 62
     5
 10
-146.1887820000002
 20
191.85337099999921
 30
0.0
 11
-146.2355500000003
 21
191.5
 31
0.0
  0
LINE
  5
44C
  8
DETAIL
  6
CONTINUOUS
 62
     5
 10
-146.25228700000019
 20
194.7978329999996
 30
0.0
 11
-146.1887820000002
 21
191.85337099999921
 31
0.0
  0
LINE
  5
44D
  8
DETAIL
  6
CONTINUOUS
 62
     5
 10
-146.76937300000009
 20
197.65827799999991
 30
0.0
 11
-146.25228700000019
 21
194.7978329999996
 31
0.0
  0
LINE
  5
44E
  8
DETAIL
  6
CONTINUOUS
 62
     5
 10
-147.23867200000041
 20
199.16315399999971
 30
0.0
 11
-146.76937300000009
 21
197.65827799999991
 31
0.0
  0
LINE
  5
44F
  8
DETAIL
  6
CONTINUOUS
 62
     5
 10
-146.14314999999991
 20
170.5
 30
0.0
 11
-144.88516700000031
 21
167.41858400000001
 31
0.0
  0
LINE
  5
450
  8
DETAIL
  6
CONTINUOUS
 62
     5
 10
-152.25129600000031
 20
147.67501799999991
 30
0.0
 11
-150.83800499999961
 21
147.5
 31
0.0
  0
LINE
  5
451
  8
DETAIL
  6
CONTINUOUS
 62
     5
 10
-153.6203859999996
 20
148.1941349999997
 30
0.0
 11
-152.25129600000031
 21
147.67501799999991
 31
0.0
  0
LINE
  5
452
  8
DETAIL
  6
CONTINUOUS
 62
     5
 10
-154.90485999999959
 20
149.04151599999909
 30
0.0
 11
-153.6203859999996
 21
148.1941349999997
 31
0.0
  0
LINE
  5
453
  8
DETAIL
  6
CONTINUOUS
 62
     5
 10
-156.06558599999971
 20
150.19120799999931
 30
0.0
 11
-154.90485999999959
 21
149.04151599999909
 31
0.0
  0
LINE
  5
454
  8
DETAIL
  6
CONTINUOUS
 62
     5
 10
-157.06749800000031
 20
151.60832499999921
 30
0.0
 11
-156.06558599999971
 21
150.19120799999931
 31
0.0
  0
LINE
  5
455
  8
DETAIL
  6
CONTINUOUS
 62
     5
 10
-157.88028800000029
 20
153.25
 30
0.0
 11
-157.06749800000031
 21
151.60832499999921
 31
0.0
  0
LINE
  5
456
  8
DETAIL
  6
CONTINUOUS
 62
     5
 10
-173.48248400000011
 20
158.60593299999979
 30
0.0
 11
-173.70939399999941
 21
158.31521900000001
 31
0.0
  0
LINE
  5
457
  8
DETAIL
  6
CONTINUOUS
 62
     5
 10
-172.87423399999989
 20
159.1691339999997
 30
0.0
 11
-173.48248400000011
 21
158.60593299999979
 31
0.0
  0
LINE
  5
458
  8
DETAIL
  6
CONTINUOUS
 62
     5
 10
-172.26212599999951
 20
159.4948619999995
 30
0.0
 11
-172.87423399999989
 21
159.1691339999997
 31
0.0
  0
LINE
  5
459
  8
DETAIL
  6
CONTINUOUS
 62
     5
 10
-171.67605600000019
 20
159.59869699999939
 30
0.0
 11
-172.26212599999951
 21
159.4948619999995
 31
0.0
  0
LINE
  5
45A
  8
DETAIL
  6
CONTINUOUS
 62
     5
 10
-171.10280799999961
 20
159.4935049999994
 30
0.0
 11
-171.67605600000019
 21
159.59869699999939
 31
0.0
  0
LINE
  5
45B
  8
DETAIL
  6
CONTINUOUS
 62
     5
 10
-170.5151850000002
 20
159.16708699999981
 30
0.0
 11
-171.10280799999961
 21
159.4935049999994
 31
0.0
  0
LINE
  5
45C
  8
DETAIL
  6
CONTINUOUS
 62
     5
 10
-169.8938820000003
 20
158.60377499999959
 30
0.0
 11
-170.5151850000002
 21
159.16708699999981
 31
0.0
  0
LINE
  5
45D
  8
DETAIL
  6
CONTINUOUS
 62
     5
 10
-169.2392049999998
 20
157.8292979999996
 30
0.0
 11
-169.8938820000003
 21
158.60377499999959
 31
0.0
  0
LINE
  5
45E
  8
DETAIL
  6
CONTINUOUS
 62
     5
 10
-168.5839990000004
 20
156.94288399999999
 30
0.0
 11
-169.2392049999998
 21
157.8292979999996
 31
0.0
  0
LINE
  5
45F
  8
DETAIL
  6
CONTINUOUS
 62
     5
 10
-167.93366200000031
 20
156.01241499999921
 30
0.0
 11
-168.5839990000004
 21
156.94288399999999
 31
0.0
  0
LINE
  5
460
  8
DETAIL
  6
CONTINUOUS
 62
     5
 10
-167.3297620000003
 20
155.1383639999994
 30
0.0
 11
-167.93366200000031
 21
156.01241499999921
 31
0.0
  0
LINE
  5
461
  8
DETAIL
  6
CONTINUOUS
 62
     5
 10
-166.81592699999959
 20
154.40380599999921
 30
0.0
 11
-167.3297620000003
 21
155.1383639999994
 31
0.0
  0
LINE
  5
462
  8
DETAIL
  6
CONTINUOUS
 62
     5
 10
-166.38959100000011
 20
153.8078439999999
 30
0.0
 11
-166.81592699999959
 21
154.40380599999921
 31
0.0
  0
LINE
  5
463
  8
DETAIL
  6
CONTINUOUS
 62
     5
 10
-138.3000000000001
 20
76.289948999999979
 30
0.0
 11
-138.23999999999981
 21
76.229948999999579
 31
0.0
  0
LINE
  5
464
  8
DETAIL
  6
CONTINUOUS
 62
     5
 10
-139.91138899999979
 20
37.568275999999969
 30
0.0
 11
-109.0156669999996
 21
27.148577999999361
 31
0.0
  0
LINE
  5
465
  8
DETAIL
  6
CONTINUOUS
 62
     5
 10
-240.0
 20
0.0
 30
0.0
 11
240.0
 21
0.0
 31
0.0
  0
LINE
  5
466
  8
DETAIL
  6
CONTINUOUS
 62
     5
 10
-230.0
 20
0.0
 30
0.0
 11
-228.0
 21
0.0
 31
0.0
  0
LINE
  5
46A
  8
DETAIL
  6
CONTINUOUS
 62
     5
 10
-170.5311089999995
 20
71.853189999999813
 30
0.0
 11
-171.34410199999999
 21
71.114736999999863
 31
0.0
  0
LINE
  5
46B
  8
DETAIL
  6
CONTINUOUS
 62
     5
 10
-169.9261349999997
 20
72.568557999999953
 30
0.0
 11
-170.5311089999995
 21
71.853189999999813
 31
0.0
  0
LINE
  5
46C
  8
DETAIL
  6
CONTINUOUS
 62
     5
 10
-169.54676099999961
 20
73.239736999999877
 30
0.0
 11
-169.9261349999997
 21
72.568557999999953
 31
0.0
  0
LINE
  5
46D
  8
DETAIL
  6
CONTINUOUS
 62
     5
 10
-160.2277160000003
 20
46.0
 30
0.0
 11
-155.53286099999971
 21
57.5
 31
0.0
  0
LINE
  5
46E
  8
DETAIL
  6
CONTINUOUS
 62
     5
 10
-112.54825100000011
 20
208.469325
 30
0.0
 11
-112.65974
 21
208.31027399999951
 31
0.0
  0
LINE
  5
46F
  8
DETAIL
  6
CONTINUOUS
 62
     5
 10
-112.3807129999995
 20
208.8922469999998
 30
0.0
 11
-112.54825100000011
 21
208.469325
 31
0.0
  0
LINE
  5
470
  8
DETAIL
  6
CONTINUOUS
 62
     5
 10
-112.2390869999999
 20
209.495723
 30
0.0
 11
-112.3807129999995
 21
208.8922469999998
 31
0.0
  0
LINE
  5
471
  8
DETAIL
  6
CONTINUOUS
 62
     5
 10
-112.21838200000001
 20
209.63999999999939
 30
0.0
 11
-112.2390869999999
 21
209.495723
 31
0.0
  0
LINE
  5
472
  8
DETAIL
  6
CONTINUOUS
 62
     5
 10
-111.6085769999999
 20
62.130705999999918
 30
0.0
 11
-111.6085769999999
 21
147.0
 31
0.0
  0
LINE
  5
473
  8
DETAIL
  6
CONTINUOUS
 62
     5
 10
-117.9585770000003
 20
62.130705999999918
 30
0.0
 11
-117.9585770000003
 21
147.0
 31
0.0
  0
LINE
  5
474
  8
DETAIL
  6
CONTINUOUS
 62
     5
 10
-124.6101060000001
 20
162.0205779999996
 30
0.0
 11
-126.76713099999959
 21
162.17499999999919
 31
0.0
  0
LINE
  5
475
  8
DETAIL
  6
CONTINUOUS
 62
     5
 10
-122.4969719999999
 20
161.560453
 30
0.0
 11
-124.6101060000001
 21
162.0205779999996
 31
0.0
  0
LINE
  5
476
  8
DETAIL
  6
CONTINUOUS
 62
     5
 10
-120.4707269999999
 20
160.80397999999971
 30
0.0
 11
-122.4969719999999
 21
161.560453
 31
0.0
  0
LINE
  5
477
  8
DETAIL
  6
CONTINUOUS
 62
     5
 10
-118.57258900000031
 20
159.76653199999959
 30
0.0
 11
-120.4707269999999
 21
160.80397999999971
 31
0.0
  0
LINE
  5
478
  8
DETAIL
  6
CONTINUOUS
 62
     5
 10
-116.84116999999971
 20
158.46917799999929
 30
0.0
 11
-118.57258900000031
 21
159.76653199999959
 31
0.0
  0
LINE
  5
479
  8
DETAIL
  6
CONTINUOUS
 62
     5
 10
-115.3117529999999
 20
156.9383129999996
 30
0.0
 11
-116.84116999999971
 21
158.46917799999929
 31
0.0
  0
LINE
  5
47A
  8
DETAIL
  6
CONTINUOUS
 62
     5
 10
-114.0154890000003
 20
155.20507599999931
 30
0.0
 11
-115.3117529999999
 21
156.9383129999996
 31
0.0
  0
LINE
  5
47B
  8
DETAIL
  6
CONTINUOUS
 62
     5
 10
-112.978779
 20
153.30469999999971
 30
0.0
 11
-114.0154890000003
 21
155.20507599999931
 31
0.0
  0
LINE
  5
47C
  8
DETAIL
  6
CONTINUOUS
 62
     5
 10
-112.2227789999997
 20
151.27588699999981
 30
0.0
 11
-112.978779
 21
153.30469999999971
 31
0.0
  0
LINE
  5
47D
  8
DETAIL
  6
CONTINUOUS
 62
     5
 10
-111.76291599999971
 20
149.15995899999959
 30
0.0
 11
-112.2227789999997
 21
151.27588699999981
 31
0.0
  0
LINE
  5
47E
  8
DETAIL
  6
CONTINUOUS
 62
     5
 10
-111.6085769999999
 20
147.0
 30
0.0
 11
-111.76291599999971
 21
149.15995899999959
 31
0.0
  0
LINE
  5
47F
  8
DETAIL
  6
CONTINUOUS
 62
     5
 10
-125.38863500000021
 20
155.71626499999999
 30
0.0
 11
-126.76713099999959
 21
155.82499999999979
 31
0.0
  0
LINE
  5
480
  8
DETAIL
  6
CONTINUOUS
 62
     5
 10
-124.04415400000011
 20
155.39275300000011
 30
0.0
 11
-125.38863500000021
 21
155.71626499999999
 31
0.0
  0
LINE
  5
481
  8
DETAIL
  6
CONTINUOUS
 62
     5
 10
-122.7668519999997
 20
154.86247899999941
 30
0.0
 11
-124.04415400000011
 21
155.39275300000011
 31
0.0
  0
LINE
  5
482
  8
DETAIL
  6
CONTINUOUS
 62
     5
 10
-121.58821499999971
 20
154.1385700000001
 30
0.0
 11
-122.7668519999997
 21
154.86247899999941
 31
0.0
  0
LINE
  5
483
  8
DETAIL
  6
CONTINUOUS
 62
     5
 10
-120.5372610000004
 20
153.23893199999921
 30
0.0
 11
-121.58821499999971
 21
154.1385700000001
 31
0.0
  0
LINE
  5
484
  8
DETAIL
  6
CONTINUOUS
 62
     5
 10
-119.63984600000001
 20
152.18580399999971
 30
0.0
 11
-120.5372610000004
 21
153.23893199999921
 31
0.0
  0
LINE
  5
485
  8
DETAIL
  6
CONTINUOUS
 62
     5
 10
-118.9179819999999
 20
151.00514699999979
 30
0.0
 11
-119.63984600000001
 21
152.18580399999971
 31
0.0
  0
LINE
  5
486
  8
DETAIL
  6
CONTINUOUS
 62
     5
 10
-118.3893639999996
 20
149.726044
 30
0.0
 11
-118.9179819999999
 21
151.00514699999979
 31
0.0
  0
LINE
  5
487
  8
DETAIL
  6
CONTINUOUS
 62
     5
 10
-118.0669340000004
 20
148.37996399999969
 30
0.0
 11
-118.3893639999996
 21
149.726044
 31
0.0
  0
LINE
  5
488
  8
DETAIL
  6
CONTINUOUS
 62
     5
 10
-117.9585770000003
 20
147.0
 30
0.0
 11
-118.0669340000004
 21
148.37996399999969
 31
0.0
  0
LINE
  5
489
  8
DETAIL
  6
CONTINUOUS
 62
     5
 10
-155.53286099999971
 20
147.5
 30
0.0
 11
-160.2277160000003
 21
159.0
 31
0.0
  0
LINE
  5
48A
  8
DETAIL
  6
CONTINUOUS
 62
     5
 10
-174.49982600000001
 20
136.43788899999981
 30
0.0
 11
-174.27129599999989
 21
135.48869899999951
 31
0.0
  0
LINE
  5
48B
  8
DETAIL
  6
CONTINUOUS
 62
     5
 10
-174.9440240000003
 20
137.44957299999979
 30
0.0
 11
-174.49982600000001
 21
136.43788899999981
 31
0.0
  0
LINE
  5
48C
  8
DETAIL
  6
CONTINUOUS
 62
     5
 10
-175.59105400000041
 20
138.49390299999959
 30
0.0
 11
-174.9440240000003
 21
137.44957299999979
 31
0.0
  0
LINE
  5
48D
  8
DETAIL
  6
CONTINUOUS
 62
     5
 10
-187.51648600000041
 20
150.1966709999997
 30
0.0
 11
-186.1933440000002
 21
150.0
 31
0.0
  0
LINE
  5
48E
  8
DETAIL
  6
CONTINUOUS
 62
     5
 10
-188.78180100000009
 20
150.77809099999919
 30
0.0
 11
-187.51648600000041
 21
150.1966709999997
 31
0.0
  0
LINE
  5
48F
  8
DETAIL
  6
CONTINUOUS
 62
     5
 10
-189.9339870000002
 20
151.7188470000001
 30
0.0
 11
-188.78180100000009
 21
150.77809099999919
 31
0.0
  0
LINE
  5
490
  8
DETAIL
  6
CONTINUOUS
 62
     5
 10
-190.44517999999951
 20
152.3697819999997
 30
0.0
 11
-189.9339870000002
 21
151.7188470000001
 31
0.0
  0
LINE
  5
491
  8
DETAIL
  6
CONTINUOUS
 62
     5
 10
-169.40445999999969
 20
73.846442999999454
 30
0.0
 11
-169.54676099999961
 21
73.239736999999877
 31
0.0
  0
LINE
  5
492
  8
DETAIL
  6
CONTINUOUS
 62
     5
 10
-169.50358399999999
 20
74.370159999999487
 30
0.0
 11
-169.40445999999969
 21
73.846442999999454
 31
0.0
  0
LINE
  5
493
  8
DETAIL
  6
CONTINUOUS
 62
     5
 10
-169.84113400000021
 20
74.79504599999926
 30
0.0
 11
-169.50358399999999
 21
74.370159999999487
 31
0.0
  0
LINE
  5
494
  8
DETAIL
  6
CONTINUOUS
 62
     5
 10
-169.94747900000041
 20
74.874479000000065
 30
0.0
 11
-169.84113400000021
 21
74.79504599999926
 31
0.0
  0
LINE
  5
495
  8
DETAIL
  6
CONTINUOUS
 62
     5
 10
-149.42471500000011
 20
57.324982000000091
 30
0.0
 11
-150.83800499999961
 21
57.5
 31
0.0
  0
LINE
  5
496
  8
DETAIL
  6
CONTINUOUS
 62
     5
 10
-148.05562499999991
 20
56.805864999999358
 30
0.0
 11
-149.42471500000011
 21
57.324982000000091
 31
0.0
  0
LINE
  5
497
  8
DETAIL
  6
CONTINUOUS
 62
     5
 10
-146.77213599999959
 20
55.959288000000022
 30
0.0
 11
-148.05562499999991
 21
56.805864999999358
 31
0.0
  0
LINE
  5
498
  8
DETAIL
  6
CONTINUOUS
 62
     5
 10
-204.03296099999989
 20
57.636614000000009
 30
0.0
 11
-205.04429199999959
 21
57.179263999999421
 31
0.0
  0
LINE
  5
499
  8
DETAIL
  6
CONTINUOUS
 62
     5
 10
-202.6578099999997
 20
57.95942500000001
 30
0.0
 11
-204.03296099999989
 21
57.636614000000009
 31
0.0
  0
LINE
  5
49A
  8
DETAIL
  6
CONTINUOUS
 62
     5
 10
-201.2634289999996
 20
57.95942500000001
 30
0.0
 11
-202.6578099999997
 21
57.95942500000001
 31
0.0
  0
LINE
  5
49B
  8
DETAIL
  6
CONTINUOUS
 62
     5
 10
-199.88827699999999
 20
57.636614000000009
 30
0.0
 11
-201.2634289999996
 21
57.95942500000001
 31
0.0
  0
LINE
  5
49C
  8
DETAIL
  6
CONTINUOUS
 62
     5
 10
-198.56945400000041
 20
57.0
 30
0.0
 11
-199.88827699999999
 21
57.636614000000009
 31
0.0
  0
LINE
  5
4A1
  8
DETAIL
  6
CONTINUOUS
 62
     5
 10
-209.70615699999959
 20
13.013154999999641
 30
0.0
 11
-209.73999999999981
 21
13.5
 31
0.0
  0
LINE
  5
4A2
  8
DETAIL
  6
CONTINUOUS
 62
     5
 10
-209.60505000000001
 20
12.541971999999991
 30
0.0
 11
-209.70615699999959
 21
13.013154999999641
 31
0.0
  0
LINE
  5
4A3
  8
DETAIL
  6
CONTINUOUS
 62
     5
 10
-209.44256399999989
 20
12.112103999999819
 30
0.0
 11
-209.60505000000001
 21
12.541971999999991
 31
0.0
  0
LINE
  5
4A4
  8
DETAIL
  6
CONTINUOUS
 62
     5
 10
-209.22223300000039
 20
11.73223299999972
 30
0.0
 11
-209.44256399999989
 21
12.112103999999819
 31
0.0
  0
LINE
  5
4A5
  8
DETAIL
  6
CONTINUOUS
 62
     5
 10
-208.95362399999971
 20
11.420637999999601
 30
0.0
 11
-209.22223300000039
 21
11.73223299999972
 31
0.0
  0
LINE
  5
4A6
  8
DETAIL
  6
CONTINUOUS
 62
     5
 10
-208.64966199999981
 20
11.19084799999928
 30
0.0
 11
-208.95362399999971
 21
11.420637999999601
 31
0.0
  0
LINE
  5
4A7
  8
DETAIL
  6
CONTINUOUS
 62
     5
 10
-208.31648500000031
 20
11.047861999999441
 30
0.0
 11
-208.64966199999981
 21
11.19084799999928
 31
0.0
  0
LINE
  5
4A8
  8
DETAIL
  6
CONTINUOUS
 62
     5
 10
-207.97223300000039
 20
11.0
 30
0.0
 11
-208.31648500000031
 21
11.047861999999441
 31
0.0
  0
LINE
  5
4A9
  8
DETAIL
  6
CONTINUOUS
 62
     5
 10
-196.4908189999995
 20
193.3984199999995
 30
0.0
 11
-196.8026879999997
 21
192.0
 31
0.0
  0
LINE
  5
4AA
  8
DETAIL
  6
CONTINUOUS
 62
     5
 10
-195.38441400000011
 20
196.3640019999992
 30
0.0
 11
-196.4908189999995
 21
193.3984199999995
 31
0.0
  0
LINE
  5
4AB
  8
DETAIL
  6
CONTINUOUS
 62
     5
 10
-193.86492100000029
 20
199.2148719999995
 30
0.0
 11
-195.38441400000011
 21
196.3640019999992
 31
0.0
  0
LINE
  5
4AC
  8
DETAIL
  6
CONTINUOUS
 62
     5
 10
-191.9535290000002
 20
201.9122399999996
 30
0.0
 11
-193.86492100000029
 21
199.2148719999995
 31
0.0
  0
LINE
  5
4AD
  8
DETAIL
  6
CONTINUOUS
 62
     5
 10
-189.67553000000041
 20
204.41220299999989
 30
0.0
 11
-191.9535290000002
 21
201.9122399999996
 31
0.0
  0
LINE
  5
4AE
  8
DETAIL
  6
CONTINUOUS
 62
     5
 10
-187.06525099999999
 20
206.67191299999919
 30
0.0
 11
-189.67553000000041
 21
204.41220299999989
 31
0.0
  0
LINE
  5
4AF
  8
DETAIL
  6
CONTINUOUS
 62
     5
 10
-184.1837839999998
 20
208.63744799999949
 30
0.0
 11
-187.06525099999999
 21
206.67191299999919
 31
0.0
  0
LINE
  5
4B0
  8
DETAIL
  6
CONTINUOUS
 62
     5
 10
-181.07641699999999
 20
210.28034199999999
 30
0.0
 11
-184.1837839999998
 21
208.63744799999949
 31
0.0
  0
LINE
  5
4B1
  8
DETAIL
  6
CONTINUOUS
 62
     5
 10
-179.9254719999999
 20
210.73420199999961
 30
0.0
 11
-181.07641699999999
 21
210.28034199999999
 31
0.0
  0
LINE
  5
4B2
  8
DETAIL
  6
CONTINUOUS
 62
     5
 10
-112.73196300000021
 20
208.25153499999939
 30
0.0
 11
-112.82656800000041
 21
208.22401099999931
 31
0.0
  0
LINE
  5
4B3
  8
DETAIL
  6
CONTINUOUS
 62
     5
 10
-112.65974
 20
208.31027399999951
 30
0.0
 11
-112.73196300000021
 21
208.25153499999939
 31
0.0
  0
LINE
  5
4B4
  8
DETAIL
  6
CONTINUOUS
 62
     5
 10
-112.65974
 20
208.31027399999951
 30
0.0
 11
-112.0993669999998
 21
208.8965639999997
 31
0.0
  0
LINE
  5
4B5
  8
DETAIL
  6
CONTINUOUS
 62
     5
 10
-237.95553099999961
 20
9.5528429999994842
 30
0.0
 11
-238.0
 21
8.7999999999992724
 31
0.0
  0
LINE
  5
4B6
  8
DETAIL
  6
CONTINUOUS
 62
     5
 10
-237.88888800000041
 20
10.032467
 30
0.0
 11
-237.95553099999961
 21
9.5528429999994842
 31
0.0
  0
LINE
  5
4B7
  8
DETAIL
  6
CONTINUOUS
 62
     5
 10
-237.8666119999998
 20
10.34735999999975
 30
0.0
 11
-237.88888800000041
 21
10.032467
 31
0.0
  0
LINE
  5
4B8
  8
DETAIL
  6
CONTINUOUS
 62
     5
 10
-237.8221739999999
 20
10.83828199999971
 30
0.0
 11
-237.8666119999998
 21
10.34735999999975
 31
0.0
  0
LINE
  5
4BA
  8
DETAIL
  6
CONTINUOUS
 62
     5
 10
-237.80000000000021
 20
11.0
 30
0.0
 11
-237.8221739999999
 21
10.83828199999971
 31
0.0
  0
LINE
  5
4BB
  8
DETAIL
  6
CONTINUOUS
 62
     5
 10
-168.67923400000009
 20
75.364736999999863
 30
0.0
 11
-170.41428900000031
 21
71.114736999999863
 31
0.0
  0
LINE
  5
4BC
  8
DETAIL
  6
CONTINUOUS
 62
     5
 10
-144.88516700000031
 20
150.58141599999999
 30
0.0
 11
-146.14314999999991
 21
147.5
 31
0.0
  0
LINE
  5
4C0
  8
DETAIL
  6
CONTINUOUS
 62
     5
 10
-158.47916599999999
 20
42.06613000000015
 30
0.0
 11
-157.88028800000029
 21
40.25
 31
0.0
  0
LINE
  5
4C1
  8
DETAIL
  6
CONTINUOUS
 62
     5
 10
-158.84610100000009
 20
44.002299999999181
 30
0.0
 11
-158.47916599999999
 21
42.06613000000015
 31
0.0
  0
LINE
  5
4C2
  8
DETAIL
  6
CONTINUOUS
 62
     5
 10
-158.96973299999991
 20
46.0
 30
0.0
 11
-158.84610100000009
 21
44.002299999999181
 31
0.0
  0
LINE
  5
4C3
  8
DETAIL
  6
CONTINUOUS
 62
     5
 10
-158.84610100000009
 20
47.997699999999888
 30
0.0
 11
-158.96973299999991
 21
46.0
 31
0.0
  0
LINE
  5
4C4
  8
DETAIL
  6
CONTINUOUS
 62
     5
 10
-158.47916599999999
 20
49.933868999999511
 30
0.0
 11
-158.84610100000009
 21
47.997699999999888
 31
0.0
  0
LINE
  5
4C5
  8
DETAIL
  6
CONTINUOUS
 62
     5
 10
-157.88028800000029
 20
51.75
 30
0.0
 11
-158.47916599999999
 21
49.933868999999511
 31
0.0
  0
LINE
  5
4C6
  8
DETAIL
  6
CONTINUOUS
 62
     5
 10
-112.06882800000039
 20
208.93219599999981
 30
0.0
 11
-112.0993669999998
 21
208.8965639999997
 31
0.0
  0
LINE
  5
4C7
  8
DETAIL
  6
CONTINUOUS
 62
     5
 10
-111.9096200000003
 20
209.24937999999929
 30
0.0
 11
-112.06882800000039
 21
208.93219599999981
 31
0.0
  0
LINE
  5
4C8
  8
DETAIL
  6
CONTINUOUS
 62
     5
 10
-111.8030710000002
 20
209.64261399999941
 30
0.0
 11
-111.9096200000003
 21
209.24937999999929
 31
0.0
  0
LINE
  5
4C9
  8
DETAIL
  6
CONTINUOUS
 62
     5
 10
-119.7458470000001
 20
208.93219599999981
 30
0.0
 11
-119.91669900000031
 21
208.8240109999997
 31
0.0
  0
LINE
  5
4CA
  8
DETAIL
  6
CONTINUOUS
 62
     5
 10
-119.5866390000001
 20
209.24937999999929
 30
0.0
 11
-119.7458470000001
 21
208.93219599999981
 31
0.0
  0
LINE
  5
4CB
  8
DETAIL
  6
CONTINUOUS
 62
     5
 10
-119.4807979999996
 20
209.63999999999939
 30
0.0
 11
-119.5866390000001
 21
209.24937999999929
 31
0.0
  0
LINE
  5
4CC
  8
DETAIL
  6
CONTINUOUS
 62
     5
 10
-119.8220929999997
 20
208.25153499999939
 30
0.0
 11
-119.91669900000031
 21
208.22431099999989
 31
0.0
  0
LINE
  5
4CD
  8
DETAIL
  6
CONTINUOUS
 62
     5
 10
-119.6383809999997
 20
208.469325
 30
0.0
 11
-119.8220929999997
 21
208.25153499999939
 31
0.0
  0
LINE
  5
4CE
  8
DETAIL
  6
CONTINUOUS
 62
     5
 10
-119.470843
 20
208.8922469999998
 30
0.0
 11
-119.6383809999997
 21
208.469325
 31
0.0
  0
LINE
  5
4CF
  8
DETAIL
  6
CONTINUOUS
 62
     5
 10
-119.3292170000004
 20
209.495723
 30
0.0
 11
-119.470843
 21
208.8922469999998
 31
0.0
  0
LINE
  5
4D0
  8
DETAIL
  6
CONTINUOUS
 62
     5
 10
-119.3085119999996
 20
209.63999999999939
 30
0.0
 11
-119.3292170000004
 21
209.495723
 31
0.0
  0
LINE
  5
4D1
  8
DETAIL
  6
CONTINUOUS
 62
     5
 10
-151.46466700000019
 20
25.490320999999309
 30
0.0
 11
-153.83267100000009
 21
25.239999999999789
 31
0.0
  0
LINE
  5
4D2
  8
DETAIL
  6
CONTINUOUS
 62
     5
 10
-149.13186500000029
 20
26.247590999999389
 30
0.0
 11
-151.46466700000019
 21
25.490320999999309
 31
0.0
  0
LINE
  5
4D3
  8
DETAIL
  6
CONTINUOUS
 62
     5
 10
-146.8721859999996
 20
27.530036999999538
 30
0.0
 11
-149.13186500000029
 21
26.247590999999389
 31
0.0
  0
LINE
  5
4D4
  8
DETAIL
  6
CONTINUOUS
 62
     5
 10
-144.74007999999961
 20
29.354413000000019
 30
0.0
 11
-146.8721859999996
 21
27.530036999999538
 31
0.0
  0
LINE
  5
4D5
  8
DETAIL
  6
CONTINUOUS
 62
     5
 10
-142.81804399999959
 20
31.697299999999821
 30
0.0
 11
-144.74007999999961
 21
29.354413000000019
 31
0.0
  0
LINE
  5
4D6
  8
DETAIL
  6
CONTINUOUS
 62
     5
 10
-141.18894800000001
 20
34.477328999999372
 30
0.0
 11
-142.81804399999959
 21
31.697299999999821
 31
0.0
  0
LINE
  5
4D7
  8
DETAIL
  6
CONTINUOUS
 62
     5
 10
-139.90330199999971
 20
37.587841999999902
 30
0.0
 11
-141.18894800000001
 21
34.477328999999372
 31
0.0
  0
LINE
  5
4D8
  8
DETAIL
  6
CONTINUOUS
 62
     5
 10
-138.9803350000002
 20
40.931925999999287
 30
0.0
 11
-139.90330199999971
 21
37.587841999999902
 31
0.0
  0
LINE
  5
4D9
  8
DETAIL
  6
CONTINUOUS
 62
     5
 10
-138.42532300000039
 20
44.427373999999872
 30
0.0
 11
-138.9803350000002
 21
40.931925999999287
 31
0.0
  0
LINE
  5
4DA
  8
DETAIL
  6
CONTINUOUS
 62
     5
 10
-138.240307
 20
47.854111999999972
 30
0.0
 11
-138.42532300000039
 21
44.427373999999872
 31
0.0
  0
LINE
  5
4DB
  8
DETAIL
  6
CONTINUOUS
 62
     5
 10
-138.23999999999981
 20
76.229948999999579
 30
0.0
 11
-138.240307
 21
47.854111999999972
 31
0.0
  0
LINE
  5
4DC
  8
DETAIL
  6
CONTINUOUS
 62
     5
 10
-138.3000000000001
 20
83.0
 30
0.0
 11
-138.3000000000001
 21
76.289948999999979
 31
0.0
  0
LINE
  5
4DD
  8
DETAIL
  6
CONTINUOUS
 62
     5
 10
-165.7180230000003
 20
152.8901829999995
 30
0.0
 11
-166.38959100000011
 21
153.8078439999999
 31
0.0
  0
LINE
  5
4DE
  8
DETAIL
  6
CONTINUOUS
 62
     5
 10
-165.5633280000001
 20
152.64832699999991
 30
0.0
 11
-165.7180230000003
 21
152.8901829999995
 31
0.0
  0
LINE
  5
4DF
  8
DETAIL
  6
CONTINUOUS
 62
     5
 10
-165.54756199999969
 20
152.53729200000001
 30
0.0
 11
-165.5633280000001
 21
152.64832699999991
 31
0.0
  0
LINE
  5
4E0
  8
DETAIL
  6
CONTINUOUS
 62
     5
 10
-146.14314999999991
 20
57.5
 30
0.0
 11
-144.88516700000031
 21
54.418584000000003
 31
0.0
  0
LINE
  5
4E1
  8
DETAIL
  6
CONTINUOUS
 62
     5
 10
-195.5165800000004
 20
159.0
 30
0.0
 11
-198.9866899999997
 21
167.5
 31
0.0
  0
LINE
  5
4E2
  8
DETAIL
  6
CONTINUOUS
 62
     5
 10
-198.13692900000021
 20
56.712552999999382
 30
0.0
 11
-197.71797900000001
 21
56.392304999999382
 31
0.0
  0
LINE
  5
4E3
  8
DETAIL
  6
CONTINUOUS
 62
     5
 10
-198.56945400000041
 20
57.0
 30
0.0
 11
-198.13692900000021
 21
56.712552999999382
 31
0.0
  0
LINE
  5
4E4
  8
DETAIL
  6
CONTINUOUS
 62
     5
 10
-208.1028589999996
 20
13.423358
 30
0.0
 11
-208.11365500000011
 21
13.5
 31
0.0
  0
LINE
  5
4E5
  8
DETAIL
  6
CONTINUOUS
 62
     5
 10
-208.0722329999999
 20
13.358578999999731
 30
0.0
 11
-208.1028589999996
 21
13.423358
 31
0.0
  0
LINE
  5
4E6
  8
DETAIL
  6
CONTINUOUS
 62
     5
 10
-208.0264280000001
 20
13.31526799999938
 30
0.0
 11
-208.0722329999999
 21
13.358578999999731
 31
0.0
  0
LINE
  5
4E7
  8
DETAIL
  6
CONTINUOUS
 62
     5
 10
-207.97223300000039
 20
13.299999999999271
 30
0.0
 11
-208.0264280000001
 21
13.31526799999938
 31
0.0
  0
LINE
  5
4E9
  8
DETAIL
  6
CONTINUOUS
 62
     5
 10
-186.029786
 20
66.864736999999892
 30
0.0
 11
-185.24099500000011
 21
68.796872999999323
 31
0.0
  0
LINE
  5
4EA
  8
DETAIL
  6
CONTINUOUS
 62
     5
 10
-160.2277160000003
 20
159.0
 30
0.0
 11
-155.53286099999971
 21
170.5
 31
0.0
  0
LINE
  5
4EE
  8
DETAIL
  6
CONTINUOUS
 62
     5
 10
-158.47916599999999
 20
155.06612999999919
 30
0.0
 11
-157.88028800000029
 21
153.25
 31
0.0
  0
LINE
  5
4EF
  8
DETAIL
  6
CONTINUOUS
 62
     5
 10
-158.84610100000009
 20
157.00229999999911
 30
0.0
 11
-158.47916599999999
 21
155.06612999999919
 31
0.0
  0
LINE
  5
4F0
  8
DETAIL
  6
CONTINUOUS
 62
     5
 10
-158.96973299999991
 20
159.0
 30
0.0
 11
-158.84610100000009
 21
157.00229999999911
 31
0.0
  0
LINE
  5
4F1
  8
DETAIL
  6
CONTINUOUS
 62
     5
 10
-158.84610100000009
 20
160.9976999999999
 30
0.0
 11
-158.96973299999991
 21
159.0
 31
0.0
  0
LINE
  5
4F2
  8
DETAIL
  6
CONTINUOUS
 62
     5
 10
-158.47916599999999
 20
162.9338689999995
 30
0.0
 11
-158.84610100000009
 21
160.9976999999999
 31
0.0
  0
LINE
  5
4F3
  8
DETAIL
  6
CONTINUOUS
 62
     5
 10
-157.88028800000029
 20
164.75
 30
0.0
 11
-158.47916599999999
 21
162.9338689999995
 31
0.0
  0
LINE
  5
4F4
  8
DETAIL
  6
CONTINUOUS
 62
     5
 10
-144.49195799999961
 20
198.43099699999951
 30
0.0
 11
-144.98064499999961
 21
199.9765440000001
 31
0.0
  0
LINE
  5
4F5
  8
DETAIL
  6
CONTINUOUS
 62
     5
 10
-143.88897600000021
 20
195.2716190000001
 30
0.0
 11
-144.49195799999961
 21
198.43099699999951
 31
0.0
  0
LINE
  5
4F6
  8
DETAIL
  6
CONTINUOUS
 62
     5
 10
-143.77801999999971
 20
192.0182079999995
 30
0.0
 11
-143.88897600000021
 21
195.2716190000001
 31
0.0
  0
LINE
  5
4F7
  8
DETAIL
  6
CONTINUOUS
 62
     5
 10
-143.83891299999959
 20
191.5
 30
0.0
 11
-143.77801999999971
 21
192.0182079999995
 31
0.0
  0
LINE
  5
4FA
  8
DETAIL
  6
CONTINUOUS
 62
     5
 10
-147.69999999999979
 20
83.0
 30
0.0
 11
-147.69999999999979
 21
76.289948999999979
 31
0.0
  0
LINE
  5
4FB
  8
DETAIL
  6
CONTINUOUS
 62
     5
 10
-147.76000000000019
 20
76.229948999999579
 30
0.0
 11
-147.76000000000019
 21
57.5
 31
0.0
  0
LINE
  5
4FC
  8
DETAIL
  6
CONTINUOUS
 62
     5
 10
-159.5
 20
170.5
 30
0.0
 11
-159.5
 21
190.3857739999994
 31
0.0
  0
LINE
  5
4FD
  8
DETAIL
  6
CONTINUOUS
 62
     5
 10
-156.87404900000001
 20
120.3392309999999
 30
0.0
 11
-157.33865499999951
 21
120.39999999999959
 31
0.0
  0
LINE
  5
4FE
  8
DETAIL
  6
CONTINUOUS
 62
     5
 10
-156.42356000000009
 20
120.15877
 30
0.0
 11
-156.87404900000001
 21
120.3392309999999
 31
0.0
  0
LINE
  5
4FF
  8
DETAIL
  6
CONTINUOUS
 62
     5
 10
-156.0008749999997
 20
119.8641010000001
 30
0.0
 11
-156.42356000000009
 21
120.15877
 31
0.0
  0
LINE
  5
500
  8
DETAIL
  6
CONTINUOUS
 62
     5
 10
-155.6188380000003
 20
119.46417799999919
 30
0.0
 11
-156.0008749999997
 21
119.8641010000001
 31
0.0
  0
LINE
  5
501
  8
DETAIL
  6
CONTINUOUS
 62
     5
 10
-155.2890569999999
 20
118.9711499999994
 30
0.0
 11
-155.6188380000003
 21
119.46417799999919
 31
0.0
  0
LINE
  5
502
  8
DETAIL
  6
CONTINUOUS
 62
     5
 10
-155.0215520000001
 20
118.39999999999959
 30
0.0
 11
-155.2890569999999
 21
118.9711499999994
 31
0.0
  0
LINE
  5
503
  8
DETAIL
  6
CONTINUOUS
 62
     5
 10
-154.82445100000041
 20
117.7680799999998
 30
0.0
 11
-155.0215520000001
 21
118.39999999999959
 31
0.0
  0
LINE
  5
504
  8
DETAIL
  6
CONTINUOUS
 62
     5
 10
-154.703743
 20
117.0945929999998
 30
0.0
 11
-154.82445100000041
 21
117.7680799999998
 31
0.0
  0
LINE
  5
505
  8
DETAIL
  6
CONTINUOUS
 62
     5
 10
-154.66309499999991
 20
116.39999999999959
 30
0.0
 11
-154.703743
 21
117.0945929999998
 31
0.0
  0
LINE
  5
506
  8
DETAIL
  6
CONTINUOUS
 62
     5
 10
-174.6612400000003
 20
138.49390299999959
 30
0.0
 11
-173.881351
 21
132.4834959999998
 31
0.0
  0
LINE
  5
507
  8
DETAIL
  6
CONTINUOUS
 62
     5
 10
-188.95797299999961
 20
141.7021500000001
 30
0.0
 11
-189.3215719999998
 21
144.50431099999969
 31
0.0
  0
LINE
  5
508
  8
DETAIL
  6
CONTINUOUS
 62
     5
 10
-196.53781599999999
 20
160.4769069999993
 30
0.0
 11
-196.44639300000011
 21
159.0
 31
0.0
  0
LINE
  5
509
  8
DETAIL
  6
CONTINUOUS
 62
     5
 10
-196.808986
 20
161.9076429999995
 30
0.0
 11
-196.53781599999999
 21
160.4769069999993
 31
0.0
  0
LINE
  5
50A
  8
DETAIL
  6
CONTINUOUS
 62
     5
 10
-197.25163499999951
 20
163.25
 30
0.0
 11
-196.808986
 21
161.9076429999995
 31
0.0
  0
LINE
  5
50B
  8
DETAIL
  6
CONTINUOUS
 62
     5
 10
-155.53286099999971
 20
34.5
 30
0.0
 11
-160.2277160000003
 21
46.0
 31
0.0
  0
LINE
  5
50C
  8
DETAIL
  6
CONTINUOUS
 62
     5
 10
-207.04699600000001
 20
153.24363799999981
 30
0.0
 11
-205.9269110000005
 21
150.5
 31
0.0
  0
LINE
  5
50D
  8
DETAIL
  6
CONTINUOUS
 62
     5
 10
-152.25129600000031
 20
34.675017999999909
 30
0.0
 11
-150.83800499999961
 21
34.5
 31
0.0
  0
LINE
  5
50E
  8
DETAIL
  6
CONTINUOUS
 62
     5
 10
-153.6203859999996
 20
35.194134999999733
 30
0.0
 11
-152.25129600000031
 21
34.675017999999909
 31
0.0
  0
LINE
  5
50F
  8
DETAIL
  6
CONTINUOUS
 62
     5
 10
-154.90485999999959
 20
36.041515999999319
 30
0.0
 11
-153.6203859999996
 21
35.194134999999733
 31
0.0
  0
LINE
  5
510
  8
DETAIL
  6
CONTINUOUS
 62
     5
 10
-156.06558599999971
 20
37.191207999999278
 30
0.0
 11
-154.90485999999959
 21
36.041515999999319
 31
0.0
  0
LINE
  5
511
  8
DETAIL
  6
CONTINUOUS
 62
     5
 10
-157.06749800000031
 20
38.60832499999924
 30
0.0
 11
-156.06558599999971
 21
37.191207999999278
 31
0.0
  0
LINE
  5
512
  8
DETAIL
  6
CONTINUOUS
 62
     5
 10
-157.88028800000029
 20
40.25
 30
0.0
 11
-157.06749800000031
 21
38.60832499999924
 31
0.0
  0
LINE
  5
513
  8
DETAIL
  6
CONTINUOUS
 62
     5
 10
-166.46939199999991
 20
51.10822000000006
 30
0.0
 11
-165.8640249999998
 21
51.629164999999368
 31
0.0
  0
LINE
  5
514
  8
DETAIL
  6
CONTINUOUS
 62
     5
 10
-167.221023
 20
50.40571699999964
 30
0.0
 11
-166.46939199999991
 21
51.10822000000006
 31
0.0
  0
LINE
  5
515
  8
DETAIL
  6
CONTINUOUS
 62
     5
 10
-168.03246399999981
 20
49.6091470000001
 30
0.0
 11
-167.221023
 21
50.40571699999964
 31
0.0
  0
LINE
  5
516
  8
DETAIL
  6
CONTINUOUS
 62
     5
 10
-168.8211
 20
48.833561999999802
 30
0.0
 11
-168.03246399999981
 21
49.6091470000001
 31
0.0
  0
LINE
  5
517
  8
DETAIL
  6
CONTINUOUS
 62
     5
 10
-169.57045099999959
 20
48.142761000000057
 30
0.0
 11
-168.8211
 21
48.833561999999802
 31
0.0
  0
LINE
  5
518
  8
DETAIL
  6
CONTINUOUS
 62
     5
 10
-170.28766499999981
 20
47.58639899999978
 30
0.0
 11
-169.57045099999959
 21
48.142761000000057
 31
0.0
  0
LINE
  5
519
  8
DETAIL
  6
CONTINUOUS
 62
     5
 10
-170.97411600000029
 20
47.22315099999922
 30
0.0
 11
-170.28766499999981
 21
47.58639899999978
 31
0.0
  0
LINE
  5
51A
  8
DETAIL
  6
CONTINUOUS
 62
     5
 10
-171.6329519999999
 20
47.096873999999843
 30
0.0
 11
-170.97411600000029
 21
47.22315099999922
 31
0.0
  0
LINE
  5
51B
  8
DETAIL
  6
CONTINUOUS
 62
     5
 10
-172.2589310000003
 20
47.223962000000022
 30
0.0
 11
-171.6329519999999
 21
47.096873999999843
 31
0.0
  0
LINE
  5
51C
  8
DETAIL
  6
CONTINUOUS
 62
     5
 10
-172.8306819999998
 20
47.587290999999809
 30
0.0
 11
-172.2589310000003
 21
47.223962000000022
 31
0.0
  0
LINE
  5
51D
  8
DETAIL
  6
CONTINUOUS
 62
     5
 10
-173.3111989999997
 20
48.143033999999702
 30
0.0
 11
-172.8306819999998
 21
47.587290999999809
 31
0.0
  0
LINE
  5
51E
  8
DETAIL
  6
CONTINUOUS
 62
     5
 10
-173.5995240000002
 20
48.68818399999963
 30
0.0
 11
-173.3111989999997
 21
48.143033999999702
 31
0.0
  0
LINE
  5
51F
  8
DETAIL
  6
CONTINUOUS
 62
     5
 10
-187.51648600000041
 20
37.196670999999697
 30
0.0
 11
-186.1933440000002
 21
37.0
 31
0.0
  0
LINE
  5
520
  8
DETAIL
  6
CONTINUOUS
 62
     5
 10
-188.78180100000009
 20
37.778090999999222
 30
0.0
 11
-187.51648600000041
 21
37.196670999999697
 31
0.0
  0
LINE
  5
521
  8
DETAIL
  6
CONTINUOUS
 62
     5
 10
-188.98575799999981
 20
37.944620999999643
 30
0.0
 11
-188.78180100000009
 21
37.778090999999222
 31
0.0
  0
LINE
  5
522
  8
DETAIL
  6
CONTINUOUS
 62
     5
 10
-203.50116299999991
 20
167.3706999999994
 30
0.0
 11
-202.45680100000021
 21
167.5
 31
0.0
  0
LINE
  5
523
  8
DETAIL
  6
CONTINUOUS
 62
     5
 10
-204.51334299999959
 20
166.9869429999998
 30
0.0
 11
-203.50116299999991
 21
167.3706999999994
 31
0.0
  0
LINE
  5
524
  8
DETAIL
  6
CONTINUOUS
 62
     5
 10
-205.4627360000004
 20
166.3606179999997
 30
0.0
 11
-204.51334299999959
 21
166.9869429999998
 31
0.0
  0
LINE
  5
525
  8
DETAIL
  6
CONTINUOUS
 62
     5
 10
-206.0633379999999
 20
165.79951899999921
 30
0.0
 11
-205.4627360000004
 21
166.3606179999997
 31
0.0
  0
LINE
  5
526
  8
DETAIL
  6
CONTINUOUS
 62
     5
 10
-206.94753200000011
 20
57.0
 30
0.0
 11
-207.4066540000004
 21
55.875383999999933
 31
0.0
  0
LINE
  5
527
  8
DETAIL
  6
CONTINUOUS
 62
     5
 10
-155.62702600000009
 20
208.83288899999931
 30
0.0
 11
-155.67635700000031
 21
208.8240109999997
 31
0.0
  0
LINE
  5
528
  8
DETAIL
  6
CONTINUOUS
 62
     5
 10
-155.5294659999999
 20
208.90361499999921
 30
0.0
 11
-155.62702600000009
 21
208.83288899999931
 31
0.0
  0
LINE
  5
529
  8
DETAIL
  6
CONTINUOUS
 62
     5
 10
-155.43518800000041
 20
209.04348699999991
 30
0.0
 11
-155.5294659999999
 21
208.90361499999921
 31
0.0
  0
LINE
  5
52A
  8
DETAIL
  6
CONTINUOUS
 62
     5
 10
-155.34629699999999
 20
209.24937999999929
 30
0.0
 11
-155.43518800000041
 21
209.04348699999991
 31
0.0
  0
LINE
  5
52B
  8
DETAIL
  6
CONTINUOUS
 62
     5
 10
-155.2898990000003
 20
209.43432200000009
 30
0.0
 11
-155.34629699999999
 21
209.24937999999929
 31
0.0
  0
LINE
  5
52C
  8
DETAIL
  6
CONTINUOUS
 62
     5
 10
-181.76921800000031
 20
39.519397999999448
 30
0.0
 11
-182.1090700000004
 21
39.5
 31
0.0
  0
LINE
  5
52D
  8
DETAIL
  6
CONTINUOUS
 62
     5
 10
-181.1475749999999
 20
39.687777000000096
 30
0.0
 11
-181.76921800000031
 21
39.519397999999448
 31
0.0
  0
LINE
  5
52E
  8
DETAIL
  6
CONTINUOUS
 62
     5
 10
-180.6236580000004
 20
40.05906999999933
 30
0.0
 11
-181.1475749999999
 21
39.687777000000096
 31
0.0
  0
LINE
  5
52F
  8
DETAIL
  6
CONTINUOUS
 62
     5
 10
-180.2169080000003
 20
40.6466849999997
 30
0.0
 11
-180.6236580000004
 21
40.05906999999933
 31
0.0
  0
LINE
  5
530
  8
DETAIL
  6
CONTINUOUS
 62
     5
 10
-179.9219499999999
 20
41.430611999999201
 30
0.0
 11
-180.2169080000003
 21
40.6466849999997
 31
0.0
  0
LINE
  5
531
  8
DETAIL
  6
CONTINUOUS
 62
     5
 10
-179.7121889999998
 20
42.410301999999319
 30
0.0
 11
-179.9219499999999
 21
41.430611999999201
 31
0.0
  0
LINE
  5
532
  8
DETAIL
  6
CONTINUOUS
 62
     5
 10
-179.57267700000011
 20
43.570744999999981
 30
0.0
 11
-179.7121889999998
 21
42.410301999999319
 31
0.0
  0
LINE
  5
533
  8
DETAIL
  6
CONTINUOUS
 62
     5
 10
-179.49761200000009
 20
44.810676999999487
 30
0.0
 11
-179.57267700000011
 21
43.570744999999981
 31
0.0
  0
LINE
  5
534
  8
DETAIL
  6
CONTINUOUS
 62
     5
 10
-179.4758300000002
 20
46.0
 30
0.0
 11
-179.49761200000009
 21
44.810676999999487
 31
0.0
  0
LINE
  5
535
  8
DETAIL
  6
CONTINUOUS
 62
     5
 10
-181.76921800000031
 20
152.5193979999994
 30
0.0
 11
-182.1090700000004
 21
152.5
 31
0.0
  0
LINE
  5
536
  8
DETAIL
  6
CONTINUOUS
 62
     5
 10
-181.1475749999999
 20
152.6877770000001
 30
0.0
 11
-181.76921800000031
 21
152.5193979999994
 31
0.0
  0
LINE
  5
537
  8
DETAIL
  6
CONTINUOUS
 62
     5
 10
-180.6236580000004
 20
153.05906999999931
 30
0.0
 11
-181.1475749999999
 21
152.6877770000001
 31
0.0
  0
LINE
  5
538
  8
DETAIL
  6
CONTINUOUS
 62
     5
 10
-180.2169080000003
 20
153.64668499999971
 30
0.0
 11
-180.6236580000004
 21
153.05906999999931
 31
0.0
  0
LINE
  5
539
  8
DETAIL
  6
CONTINUOUS
 62
     5
 10
-179.9219499999999
 20
154.43061199999909
 30
0.0
 11
-180.2169080000003
 21
153.64668499999971
 31
0.0
  0
LINE
  5
53A
  8
DETAIL
  6
CONTINUOUS
 62
     5
 10
-179.7121889999998
 20
155.41030199999921
 30
0.0
 11
-179.9219499999999
 21
154.43061199999909
 31
0.0
  0
LINE
  5
53B
  8
DETAIL
  6
CONTINUOUS
 62
     5
 10
-179.57267700000011
 20
156.57074499999999
 30
0.0
 11
-179.7121889999998
 21
155.41030199999921
 31
0.0
  0
LINE
  5
53C
  8
DETAIL
  6
CONTINUOUS
 62
     5
 10
-179.49761200000009
 20
157.8106769999994
 30
0.0
 11
-179.57267700000011
 21
156.57074499999999
 31
0.0
  0
LINE
  5
53D
  8
DETAIL
  6
CONTINUOUS
 62
     5
 10
-179.4758300000002
 20
159.0
 30
0.0
 11
-179.49761200000009
 21
157.8106769999994
 31
0.0
  0
LINE
  5
53E
  8
DETAIL
  6
CONTINUOUS
 62
     5
 10
-170.25515799999991
 20
37.40797399999974
 30
0.0
 11
-170.25515799999991
 21
13.5
 31
0.0
  0
LINE
  5
53F
  8
DETAIL
  6
CONTINUOUS
 62
     5
 10
-170.25515799999991
 20
137.611707
 30
0.0
 11
-170.25515799999991
 21
75.364736999999863
 31
0.0
  0
LINE
  5
540
  8
DETAIL
  6
CONTINUOUS
 62
     5
 10
-170.25515799999991
 20
192.0
 30
0.0
 11
-170.25515799999991
 21
167.59202499999989
 31
0.0
  0
LINE
  5
541
  8
DETAIL
  6
CONTINUOUS
 62
     5
 10
-174.95071699999971
 20
196.39999999999941
 30
0.0
 11
-174.95071699999971
 21
192.0
 31
0.0
  0
LINE
  5
542
  8
DETAIL
  6
CONTINUOUS
 62
     5
 10
-184.47071700000001
 20
196.39999999999941
 30
0.0
 11
-184.47071700000001
 21
192.0
 31
0.0
  0
LINE
  5
543
  8
DETAIL
  6
CONTINUOUS
 62
     5
 10
-175.5514469999998
 20
132.84628100000009
 30
0.0
 11
-175.9410449999996
 21
132.6883349999998
 31
0.0
  0
LINE
  5
544
  8
DETAIL
  6
CONTINUOUS
 62
     5
 10
-174.9152169999997
 20
133.2891599999993
 30
0.0
 11
-175.5514469999998
 21
132.84628100000009
 31
0.0
  0
LINE
  5
545
  8
DETAIL
  6
CONTINUOUS
 62
     5
 10
-174.48217500000001
 20
133.89003999999929
 30
0.0
 11
-174.9152169999997
 21
133.2891599999993
 31
0.0
  0
LINE
  5
546
  8
DETAIL
  6
CONTINUOUS
 62
     5
 10
-174.2653479999999
 20
134.63068799999931
 30
0.0
 11
-174.48217500000001
 21
133.89003999999929
 31
0.0
  0
LINE
  5
547
  8
DETAIL
  6
CONTINUOUS
 62
     5
 10
-174.27129599999989
 20
135.48869899999951
 30
0.0
 11
-174.2653479999999
 21
134.63068799999931
 31
0.0
  0
LINE
  5
54C
  8
DETAIL
  6
CONTINUOUS
 62
     5
 10
-201.41243800000029
 20
150.6292999999996
 30
0.0
 11
-202.4567999999999
 21
150.5
 31
0.0
  0
LINE
  5
54D
  8
DETAIL
  6
CONTINUOUS
 62
     5
 10
-200.4002579999997
 20
151.01305599999981
 30
0.0
 11
-201.41243800000029
 21
150.6292999999996
 31
0.0
  0
LINE
  5
54E
  8
DETAIL
  6
CONTINUOUS
 62
     5
 10
-199.45086499999971
 20
151.63938199999939
 30
0.0
 11
-200.4002579999997
 21
151.01305599999981
 31
0.0
  0
LINE
  5
54F
  8
DETAIL
  6
CONTINUOUS
 62
     5
 10
-198.59293700000001
 20
152.48915399999979
 30
0.0
 11
-199.45086499999971
 21
151.63938199999939
 31
0.0
  0
LINE
  5
550
  8
DETAIL
  6
CONTINUOUS
 62
     5
 10
-197.85239300000001
 20
153.53658799999991
 30
0.0
 11
-198.59293700000001
 21
152.48915399999979
 31
0.0
  0
LINE
  5
551
  8
DETAIL
  6
CONTINUOUS
 62
     5
 10
-197.25163499999951
 20
154.75
 30
0.0
 11
-197.85239300000001
 21
153.53658799999991
 31
0.0
  0
LINE
  5
552
  8
DETAIL
  6
CONTINUOUS
 62
     5
 10
-198.9866899999997
 20
150.5
 30
0.0
 11
-195.5165800000004
 21
159.0
 31
0.0
  0
LINE
  5
556
  8
DETAIL
  6
CONTINUOUS
 62
     5
 10
-179.3781280000002
 20
212.80450999999999
 30
0.0
 11
-179.35138900000041
 21
213.6990109999997
 31
0.0
  0
LINE
  5
557
  8
DETAIL
  6
CONTINUOUS
 62
     5
 10
-179.4561809999995
 20
211.9824759999992
 30
0.0
 11
-179.3781280000002
 21
212.80450999999999
 31
0.0
  0
LINE
  5
558
  8
DETAIL
  6
CONTINUOUS
 62
     5
 10
-179.5792220000003
 20
211.29950599999941
 30
0.0
 11
-179.4561809999995
 21
211.9824759999992
 31
0.0
  0
LINE
  5
559
  8
DETAIL
  6
CONTINUOUS
 62
     5
 10
-179.61502099999959
 20
211.18885199999929
 30
0.0
 11
-179.5792220000003
 21
211.29950599999941
 31
0.0
  0
LINE
  5
55A
  8
DETAIL
  6
CONTINUOUS
 62
     5
 10
-178.31063100000031
 20
213.14277999999919
 30
0.0
 11
-178.29231499999969
 21
213.6990109999997
 31
0.0
  0
LINE
  5
55B
  8
DETAIL
  6
CONTINUOUS
 62
     5
 10
-178.3637879999994
 20
212.64099699999949
 30
0.0
 11
-178.31063100000031
 21
213.14277999999919
 31
0.0
  0
LINE
  5
55C
  8
DETAIL
  6
CONTINUOUS
 62
     5
 10
-178.36495500000001
 20
212.63538499999959
 30
0.0
 11
-178.3637879999994
 21
212.64099699999949
 31
0.0
  0
LINE
  5
55D
  8
DETAIL
  6
CONTINUOUS
 62
     5
 10
-196.506574
 20
36.807242999999289
 30
0.0
 11
-197.71797900000001
 21
35.607694999999687
 31
0.0
  0
LINE
  5
55E
  8
DETAIL
  6
CONTINUOUS
 62
     5
 10
-195.4607850000001
 20
38.28609599999983
 30
0.0
 11
-196.506574
 21
36.807242999999289
 31
0.0
  0
LINE
  5
55F
  8
DETAIL
  6
CONTINUOUS
 62
     5
 10
-194.6123989999995
 20
39.999390999999378
 30
0.0
 11
-195.4607850000001
 21
38.28609599999983
 31
0.0
  0
LINE
  5
560
  8
DETAIL
  6
CONTINUOUS
 62
     5
 10
-193.98722199999969
 20
41.89513899999929
 30
0.0
 11
-194.6123989999995
 21
39.999390999999378
 31
0.0
  0
LINE
  5
561
  8
DETAIL
  6
CONTINUOUS
 62
     5
 10
-193.60431499999959
 20
43.915686999999707
 30
0.0
 11
-193.98722199999969
 21
41.89513899999929
 31
0.0
  0
LINE
  5
562
  8
DETAIL
  6
CONTINUOUS
 62
     5
 10
-193.47533799999999
 20
46.0
 30
0.0
 11
-193.60431499999959
 21
43.915686999999707
 31
0.0
  0
LINE
  5
563
  8
DETAIL
  6
CONTINUOUS
 62
     5
 10
-196.808986
 20
156.09235699999951
 30
0.0
 11
-197.25163499999951
 21
154.75
 31
0.0
  0
LINE
  5
564
  8
DETAIL
  6
CONTINUOUS
 62
     5
 10
-196.53781599999999
 20
157.52309299999979
 30
0.0
 11
-196.808986
 21
156.09235699999951
 31
0.0
  0
LINE
  5
565
  8
DETAIL
  6
CONTINUOUS
 62
     5
 10
-196.44639300000011
 20
159.0
 30
0.0
 11
-196.53781599999999
 21
157.52309299999979
 31
0.0
  0
LINE
  5
566
  8
DETAIL
  6
CONTINUOUS
 62
     5
 10
-186.83117399999989
 20
144.4128819999996
 30
0.0
 11
-185.8514610000002
 21
144.50431099999969
 31
0.0
  0
LINE
  5
567
  8
DETAIL
  6
CONTINUOUS
 62
     5
 10
-187.65147499999961
 20
144.141525
 30
0.0
 11
-186.83117399999989
 21
144.4128819999996
 31
0.0
  0
LINE
  5
568
  8
DETAIL
  6
CONTINUOUS
 62
     5
 10
-188.28770599999999
 20
143.6986459999998
 30
0.0
 11
-187.65147499999961
 21
144.141525
 31
0.0
  0
LINE
  5
569
  8
DETAIL
  6
CONTINUOUS
 62
     5
 10
-188.7207479999997
 20
143.09776699999921
 30
0.0
 11
-188.28770599999999
 21
143.6986459999998
 31
0.0
  0
LINE
  5
56A
  8
DETAIL
  6
CONTINUOUS
 62
     5
 10
-188.9375749999999
 20
142.3571189999993
 30
0.0
 11
-188.7207479999997
 21
143.09776699999921
 31
0.0
  0
LINE
  5
56B
  8
DETAIL
  6
CONTINUOUS
 62
     5
 10
-188.96181700000031
 20
141.8970419999996
 30
0.0
 11
-188.9375749999999
 21
142.3571189999993
 31
0.0
  0
LINE
  5
56C
  8
DETAIL
  6
CONTINUOUS
 62
     5
 10
-196.506574
 20
55.192756999999801
 30
0.0
 11
-197.71797900000001
 21
56.392304999999382
 31
0.0
  0
LINE
  5
56D
  8
DETAIL
  6
CONTINUOUS
 62
     5
 10
-195.4607850000001
 20
53.713902999999839
 30
0.0
 11
-196.506574
 21
55.192756999999801
 31
0.0
  0
LINE
  5
56E
  8
DETAIL
  6
CONTINUOUS
 62
     5
 10
-194.6123989999995
 20
52.000607999999367
 30
0.0
 11
-195.4607850000001
 21
53.713902999999839
 31
0.0
  0
LINE
  5
56F
  8
DETAIL
  6
CONTINUOUS
 62
     5
 10
-193.98722199999969
 20
50.104860999999801
 30
0.0
 11
-194.6123989999995
 21
52.000607999999367
 31
0.0
  0
LINE
  5
570
  8
DETAIL
  6
CONTINUOUS
 62
     5
 10
-193.60431499999959
 20
48.084312999999383
 30
0.0
 11
-193.98722199999969
 21
50.104860999999801
 31
0.0
  0
LINE
  5
571
  8
DETAIL
  6
CONTINUOUS
 62
     5
 10
-193.47533799999999
 20
46.0
 30
0.0
 11
-193.60431499999959
 21
48.084312999999383
 31
0.0
  0
LINE
  5
578
  8
DETAIL
  6
CONTINUOUS
 62
     5
 10
-207.4066540000004
 20
36.12461600000006
 30
0.0
 11
-206.94753200000011
 21
35.0
 31
0.0
  0
LINE
  5
579
  8
DETAIL
  6
CONTINUOUS
 62
     5
 10
-205.9269110000005
 20
167.5
 30
0.0
 11
-207.04699600000001
 21
164.75636200000011
 31
0.0
  0
LINE
  5
57A
  8
DETAIL
  6
CONTINUOUS
 62
     5
 10
-183.56723799999961
 20
206.19606399999969
 30
0.0
 11
-182.0859760000003
 21
207.02296799999931
 31
0.0
  0
LINE
  5
57B
  8
DETAIL
  6
CONTINUOUS
 62
     5
 10
-186.28557300000011
 20
204.22666699999991
 30
0.0
 11
-183.56723799999961
 21
206.19606399999969
 31
0.0
  0
LINE
  5
57C
  8
DETAIL
  6
CONTINUOUS
 62
     5
 10
-188.70883500000039
 20
201.97658799999959
 30
0.0
 11
-186.28557300000011
 21
204.22666699999991
 31
0.0
  0
LINE
  5
57D
  8
DETAIL
  6
CONTINUOUS
 62
     5
 10
-190.77818000000019
 20
199.5038569999997
 30
0.0
 11
-188.70883500000039
 21
201.97658799999959
 31
0.0
  0
LINE
  5
57E
  8
DETAIL
  6
CONTINUOUS
 62
     5
 10
-192.4635470000002
 20
196.85093599999971
 30
0.0
 11
-190.77818000000019
 21
199.5038569999997
 31
0.0
  0
LINE
  5
57F
  8
DETAIL
  6
CONTINUOUS
 62
     5
 10
-193.73701199999959
 20
194.06715399999939
 30
0.0
 11
-192.4635470000002
 21
196.85093599999971
 31
0.0
  0
LINE
  5
580
  8
DETAIL
  6
CONTINUOUS
 62
     5
 10
-194.34216099999961
 20
192.0
 30
0.0
 11
-193.73701199999959
 21
194.06715399999939
 31
0.0
  0
LINE
  5
581
  8
DETAIL
  6
CONTINUOUS
 62
     5
 10
-223.58765899999889
 20
12.60000000000036
 30
0.0
 11
-223.5876589999998
 21
11.0
 31
0.0
  0
LINE
  5
582
  8
DETAIL
  6
CONTINUOUS
 62
     5
 10
-238.0
 20
0.0
 30
0.0
 11
-238.0
 21
8.7999999999992724
 31
0.0
  0
LINE
  5
583
  8
DETAIL
  6
CONTINUOUS
 62
     5
 10
-240.0
 20
0.0
 30
0.0
 11
-240.0
 21
8.7999999999992724
 31
0.0
  0
LINE
  5
584
  8
DETAIL
  6
CONTINUOUS
 62
     5
 10
-97.30000000000021
 20
229.99999999999929
 30
0.0
 11
-97.30000000000021
 21
11.0
 31
0.0
  0
ARC
  5
585
  8
DETAIL
  6
CONTINUOUS
 62
     5
 10
-96.300000000000225
 20
229.99999999999929
 30
0.0
 40
1.0
 50
90.0
 51
180.0
  0
LINE
  5
586
  8
DETAIL
  6
CONTINUOUS
 62
     5
 10
133.0
 20
65.427894999999793
 30
0.0
 11
119.5453900000002
 21
73.194874999999215
 31
0.0
  0
LINE
  5
587
  8
DETAIL
  6
CONTINUOUS
 62
     5
 10
133.0
 20
58.095792999999503
 30
0.0
 11
112.4871059999996
 21
69.937326999999641
 31
0.0
  0
LINE
  5
588
  8
DETAIL
  6
CONTINUOUS
 62
     5
 10
129.75147199999981
 20
207.8499999999996
 30
0.0
 11
128.9264720000001
 21
208.6749999999993
 31
0.0
  0
LINE
  5
589
  8
DETAIL
  6
CONTINUOUS
 62
     5
 10
133.0
 20
207.15012799999931
 30
0.0
 11
133.0
 21
216.54987199999951
 31
0.0
  0
LINE
  5
58A
  8
DETAIL
  6
CONTINUOUS
 62
     5
 10
129.75147199999981
 20
216.34999999999951
 30
0.0
 11
129.75147199999981
 21
207.8499999999996
 31
0.0
  0
LINE
  5
58B
  8
DETAIL
  6
CONTINUOUS
 62
     5
 10
128.9264720000001
 20
215.52499999999969
 30
0.0
 11
128.9264720000001
 21
208.6749999999993
 31
0.0
  0
LINE
  5
58C
  8
DETAIL
  6
CONTINUOUS
 62
     5
 10
133.0
 20
216.34999999999951
 30
0.0
 11
129.75147199999981
 21
216.34999999999951
 31
0.0
  0
LINE
  5
58D
  8
DETAIL
  6
CONTINUOUS
 62
     5
 10
133.0
 20
207.8499999999996
 30
0.0
 11
129.75147199999981
 21
207.8499999999996
 31
0.0
  0
LINE
  5
58E
  8
DETAIL
  6
CONTINUOUS
 62
     5
 10
129.75147199999981
 20
216.34999999999951
 30
0.0
 11
128.9264720000001
 21
215.52499999999969
 31
0.0
  0
LINE
  5
58F
  8
DETAIL
  6
CONTINUOUS
 62
     5
 10
133.0
 20
33.236640000000079
 30
0.0
 11
133.0
 21
12.19999999999982
 31
0.0
  0
LINE
  5
590
  8
DETAIL
  6
CONTINUOUS
 62
     5
 10
-187.03881000000001
 20
210.52401099999949
 30
0.0
 11
-198.35343300000011
 21
210.52401099999949
 31
0.0
  0
LINE
  5
591
  8
DETAIL
  6
CONTINUOUS
 62
     5
 10
-182.24884899999961
 20
216.87401099999991
 30
0.0
 11
-198.35343300000011
 21
216.87401099999991
 31
0.0
  0
ARC
  5
595
  8
DETAIL
  6
CONTINUOUS
 62
     5
 10
-161.7107169999999
 20
196.39999999999941
 30
0.0
 40
22.760000000000002
 50
90.0
 51
180.0
  0
ARC
  5
5B5
  8
DETAIL
  6
CONTINUOUS
 62
     5
 10
105.75
 20
167.0
 30
0.0
 40
25.0
 50
356.56018699999601
 51
81.662720999932162
  0
ARC
  5
5B6
  8
DETAIL
  6
CONTINUOUS
 62
     5
 10
104.25
 20
167.0
 30
0.0
 40
25.0
 50
98.337279000067852
 51
132.40582500001071
  0
ARC
  5
5B7
  8
DETAIL
  6
CONTINUOUS
 62
     5
 10
104.25
 20
167.0
 30
0.0
 40
25.0
 50
147.29081500000169
 51
168.44695700001861
  0
ARC
  5
5B8
  8
DETAIL
  6
CONTINUOUS
 62
     5
 10
105.75
 20
94.0
 30
0.0
 40
25.0
 50
278.33727900006789
 51
0.0
  0
ARC
  5
5B9
  8
DETAIL
  6
CONTINUOUS
 62
     5
 10
104.64999999999959
 20
94.0
 30
0.0
 40
25.0
 50
223.4720230000149
 51
234.9889109999784
  0
ARC
  5
5BA
  8
DETAIL
  6
CONTINUOUS
 62
     5
 10
104.25
 20
94.0
 30
0.0
 40
25.0
 50
244.49747399999009
 51
261.66272099993228
  0
ARC
  5
5BB
  8
DETAIL
  6
CONTINUOUS
 62
     5
 10
-216.0174610000004
 20
159.0
 30
0.0
 40
3.774999999999999
 50
57.820389000023688
 51
302.17961099997632
  0
ARC
  5
5BC
  8
DETAIL
  6
CONTINUOUS
 62
     5
 10
-216.0174610000004
 20
46.0
 30
0.0
 40
4.799999999999998
 50
70.195835000009055
 51
289.80416499999092
  0
LINE
  5
5BD
  8
DETAIL
  6
CONTINUOUS
 62
     5
 10
109.375
 20
191.73579100000001
 30
0.0
 11
109.375
 21
200.73579100000001
 31
0.0
  0
LINE
  5
5BE
  8
DETAIL
  6
CONTINUOUS
 62
     5
 10
109.375
 20
52.26420899999993
 30
0.0
 11
109.375
 21
69.264208999999937
 31
0.0
  0
LINE
  5
5BF
  8
DETAIL
  6
CONTINUOUS
 62
     5
 10
109.1058389999998
 20
159.19999199999981
 30
0.0
 11
109.1058389999998
 21
168.5
 31
0.0
  0
LINE
  5
5C0
  8
DETAIL
  6
CONTINUOUS
 62
     5
 10
100.625
 20
191.73579100000001
 30
0.0
 11
100.625
 21
200.73579100000001
 31
0.0
  0
LINE
  5
5C1
  8
DETAIL
  6
CONTINUOUS
 62
     5
 10
100.625
 20
59.880024000000049
 30
0.0
 11
100.625
 21
69.264208999999937
 31
0.0
  0
LINE
  5
5C2
  8
DETAIL
  6
CONTINUOUS
 62
     5
 10
52.92033900000024
 20
177.89999999999961
 30
0.0
 11
53.92033900000024
 21
176.89999999999961
 31
0.0
  0
LINE
  5
5C3
  8
DETAIL
  6
CONTINUOUS
 62
     5
 10
100.62510999999991
 20
200.73579100000001
 30
0.0
 11
109.3748889999997
 21
200.73579100000001
 31
0.0
  0
LINE
  5
5C4
  8
DETAIL
  6
CONTINUOUS
 62
     5
 10
100.625
 20
191.73579100000001
 30
0.0
 11
109.375
 21
191.73579100000001
 31
0.0
  0
LINE
  5
5C5
  8
DETAIL
  6
CONTINUOUS
 62
     5
 10
52.920630999999958
 20
185.39999999999961
 30
0.0
 11
61.270048000000308
 21
185.39999999999961
 31
0.0
  0
LINE
  5
5C6
  8
DETAIL
  6
CONTINUOUS
 62
     5
 10
87.105838999999804
 20
159.19999199999981
 30
0.0
 11
87.105838999999804
 21
168.5
 31
0.0
  0
LINE
  5
5C7
  8
DETAIL
  6
CONTINUOUS
 62
     5
 10
52.92033900000024
 20
177.89999999999961
 30
0.0
 11
61.270338999999673
 21
177.89999999999961
 31
0.0
  0
LINE
  5
5C8
  8
DETAIL
  6
CONTINUOUS
 62
     5
 10
53.92033900000024
 20
176.89999999999961
 30
0.0
 11
60.270338999999687
 21
176.89999999999961
 31
0.0
  0
LINE
  5
5C9
  8
DETAIL
  6
CONTINUOUS
 62
     5
 10
87.105838999999804
 20
168.5
 30
0.0
 11
109.1058389999998
 21
168.5
 31
0.0
  0
LINE
  5
5CA
  8
DETAIL
  6
CONTINUOUS
 62
     5
 10
61.270338999999673
 20
185.39999999999961
 30
0.0
 11
61.270338999999673
 21
177.89999999999961
 31
0.0
  0
LINE
  5
5CB
  8
DETAIL
  6
CONTINUOUS
 62
     5
 10
60.270338999999687
 20
176.89999999999961
 30
0.0
 11
60.270338999999687
 21
176.0
 31
0.0
  0
LINE
  5
5CC
  8
DETAIL
  6
CONTINUOUS
 62
     5
 10
53.92033900000024
 20
176.89999999999961
 30
0.0
 11
53.92033900000024
 21
176.0
 31
0.0
  0
LINE
  5
5CD
  8
DETAIL
  6
CONTINUOUS
 62
     5
 10
52.92033900000024
 20
185.39999999999961
 30
0.0
 11
52.92033900000024
 21
177.89999999999961
 31
0.0
  0
LINE
  5
5CE
  8
DETAIL
  6
CONTINUOUS
 62
     5
 10
-152.0
 20
131.5
 30
0.0
 11
-134.0
 21
131.5
 31
0.0
  0
LINE
  5
5CF
  8
DETAIL
  6
CONTINUOUS
 62
     5
 10
-149.5
 20
130.5
 30
0.0
 11
-136.5
 21
130.5
 31
0.0
  0
LINE
  5
5D0
  8
DETAIL
  6
CONTINUOUS
 62
     5
 10
61.270338999999673
 20
177.89999999999961
 30
0.0
 11
60.270338999999687
 21
176.89999999999961
 31
0.0
  0
LINE
  5
5D1
  8
DETAIL
  6
CONTINUOUS
 62
     5
 10
100.625
 20
69.264208999999937
 30
0.0
 11
109.375
 21
69.264208999999937
 31
0.0
  0
LINE
  5
5D2
  8
DETAIL
  6
CONTINUOUS
 62
     5
 10
-211.79583199999971
 20
53.452327999999397
 30
0.0
 11
-205.0461759999998
 21
57.178491999999991
 31
0.0
  0
LINE
  5
5D3
  8
DETAIL
  6
CONTINUOUS
 62
     5
 10
104.298135
 20
52.26420899999993
 30
0.0
 11
109.3748889999997
 21
52.26420899999993
 31
0.0
  0
LINE
  5
5D4
  8
DETAIL
  6
CONTINUOUS
 62
     5
 10
-215.2720319999998
 20
47.663292999999612
 30
0.0
 11
-215.39564799999971
 21
46.0
 31
0.0
  0
LINE
  5
5D5
  8
DETAIL
  6
CONTINUOUS
 62
     5
 10
-214.9065879999998
 20
49.253893000000069
 30
0.0
 11
-215.2720319999998
 21
47.663292999999612
 31
0.0
  0
LINE
  5
5D6
  8
DETAIL
  6
CONTINUOUS
 62
     5
 10
-214.3152849999997
 20
50.702281999999279
 30
0.0
 11
-214.9065879999998
 21
49.253893000000069
 31
0.0
  0
LINE
  5
5D7
  8
DETAIL
  6
CONTINUOUS
 62
     5
 10
-213.52396800000039
 20
51.945157999999552
 30
0.0
 11
-214.3152849999997
 21
50.702281999999279
 31
0.0
  0
LINE
  5
5D8
  8
DETAIL
  6
CONTINUOUS
 62
     5
 10
-212.56722100000019
 20
52.928202999999492
 30
0.0
 11
-213.52396800000039
 21
51.945157999999552
 31
0.0
  0
LINE
  5
5D9
  8
DETAIL
  6
CONTINUOUS
 62
     5
 10
-211.79504999999969
 20
53.452511999999849
 30
0.0
 11
-212.56722100000019
 21
52.928202999999492
 31
0.0
  0
LINE
  5
5DA
  8
DETAIL
  6
CONTINUOUS
 62
     5
 10
-170.25515799999991
 20
35.89999999999965
 30
0.0
 11
-166.62564800000021
 21
35.89999999999965
 31
0.0
  0
LINE
  5
5DB
  8
DETAIL
  6
CONTINUOUS
 62
     5
 10
-208.32578699999971
 20
154.5999999999994
 30
0.0
 11
-206.0630449999999
 21
152.19999999999979
 31
0.0
  0
LINE
  5
5DC
  8
DETAIL
  6
CONTINUOUS
 62
     5
 10
-209.78391399999961
 20
157.77613500000001
 30
0.0
 11
-209.88142200000041
 21
159.0
 31
0.0
  0
LINE
  5
5DD
  8
DETAIL
  6
CONTINUOUS
 62
     5
 10
-209.4962809999997
 20
156.61363899999921
 30
0.0
 11
-209.78391399999961
 21
157.77613500000001
 31
0.0
  0
LINE
  5
5DE
  8
DETAIL
  6
CONTINUOUS
 62
     5
 10
-209.0329449999999
 20
155.57080599999969
 30
0.0
 11
-209.4962809999997
 21
156.61363899999921
 31
0.0
  0
LINE
  5
5DF
  8
DETAIL
  6
CONTINUOUS
 62
     5
 10
-208.4171409999999
 20
154.6999269999996
 30
0.0
 11
-209.0329449999999
 21
155.57080599999969
 31
0.0
  0
LINE
  5
5E0
  8
DETAIL
  6
CONTINUOUS
 62
     5
 10
-208.32625300000021
 20
154.6005799999993
 30
0.0
 11
-208.4171409999999
 21
154.6999269999996
 31
0.0
  0
LINE
  5
5E1
  8
DETAIL
  6
CONTINUOUS
 62
     5
 10
-134.0
 20
131.5
 30
0.0
 11
-134.0
 21
164.0
 31
0.0
  0
LINE
  5
5E2
  8
DETAIL
  6
CONTINUOUS
 62
     5
 10
-136.5
 20
130.5
 30
0.0
 11
-136.5
 21
131.5
 31
0.0
  0
LINE
  5
5E3
  8
DETAIL
  6
CONTINUOUS
 62
     5
 10
-139.02999999999969
 20
83.0
 30
0.0
 11
-139.02999999999969
 21
130.5
 31
0.0
  0
LINE
  5
5E4
  8
DETAIL
  6
CONTINUOUS
 62
     5
 10
-146.9700000000002
 20
83.0
 30
0.0
 11
-146.9700000000002
 21
130.5
 31
0.0
  0
LINE
  5
5E5
  8
DETAIL
  6
CONTINUOUS
 62
     5
 10
-149.5
 20
130.5
 30
0.0
 11
-149.5
 21
131.5
 31
0.0
  0
LINE
  5
5E6
  8
DETAIL
  6
CONTINUOUS
 62
     5
 10
-149.7437220000001
 20
26.048970999999259
 30
0.0
 11
-149.7437220000001
 21
11.0
 31
0.0
  0
LINE
  5
5E7
  8
DETAIL
  6
CONTINUOUS
 62
     5
 10
-152.0
 20
131.5
 30
0.0
 11
-152.0
 21
147.5
 31
0.0
  0
LINE
  5
5E8
  8
DETAIL
  6
CONTINUOUS
 62
     5
 10
-166.62564800000021
 20
34.759999999999309
 30
0.0
 11
-166.62564800000021
 21
35.89999999999965
 31
0.0
  0
LINE
  5
5E9
  8
DETAIL
  6
CONTINUOUS
 62
     5
 10
-215.2720319999998
 20
44.336706000000049
 30
0.0
 11
-215.39564799999971
 21
46.0
 31
0.0
  0
LINE
  5
5EA
  8
DETAIL
  6
CONTINUOUS
 62
     5
 10
-214.9065879999998
 20
42.746106999999931
 30
0.0
 11
-215.2720319999998
 21
44.336706000000049
 31
0.0
  0
LINE
  5
5EB
  8
DETAIL
  6
CONTINUOUS
 62
     5
 10
-214.3152849999997
 20
41.29771799999979
 30
0.0
 11
-214.9065879999998
 21
42.746106999999931
 31
0.0
  0
LINE
  5
5EC
  8
DETAIL
  6
CONTINUOUS
 62
     5
 10
-213.52396800000039
 20
40.054841000000103
 30
0.0
 11
-214.3152849999997
 21
41.29771799999979
 31
0.0
  0
LINE
  5
5ED
  8
DETAIL
  6
CONTINUOUS
 62
     5
 10
-212.56722100000019
 20
39.071796999999613
 30
0.0
 11
-213.52396800000039
 21
40.054841000000103
 31
0.0
  0
LINE
  5
5EE
  8
DETAIL
  6
CONTINUOUS
 62
     5
 10
-211.79504999999969
 20
38.547487999999248
 30
0.0
 11
-212.56722100000019
 21
39.071796999999613
 31
0.0
  0
LINE
  5
5EF
  8
DETAIL
  6
CONTINUOUS
 62
     5
 10
-211.79583199999971
 20
38.547671999999693
 30
0.0
 11
-205.0461759999998
 21
34.821507999999987
 31
0.0
  0
LINE
  5
5F0
  8
DETAIL
  6
CONTINUOUS
 62
     5
 10
-208.32578699999971
 20
163.39999999999961
 30
0.0
 11
-206.0630449999999
 21
165.7999999999993
 31
0.0
  0
LINE
  5
5F1
  8
DETAIL
  6
CONTINUOUS
 62
     5
 10
-209.78391399999961
 20
160.2238649999999
 30
0.0
 11
-209.88142200000041
 21
159.0
 31
0.0
  0
LINE
  5
5F2
  8
DETAIL
  6
CONTINUOUS
 62
     5
 10
-209.4962809999997
 20
161.38635999999951
 30
0.0
 11
-209.78391399999961
 21
160.2238649999999
 31
0.0
  0
LINE
  5
5F3
  8
DETAIL
  6
CONTINUOUS
 62
     5
 10
-209.0329449999999
 20
162.42919399999931
 30
0.0
 11
-209.4962809999997
 21
161.38635999999951
 31
0.0
  0
LINE
  5
5F4
  8
DETAIL
  6
CONTINUOUS
 62
     5
 10
-208.4171409999999
 20
163.3000729999994
 30
0.0
 11
-209.0329449999999
 21
162.42919399999931
 31
0.0
  0
LINE
  5
5F5
  8
DETAIL
  6
CONTINUOUS
 62
     5
 10
-208.32625300000021
 20
163.39941999999971
 30
0.0
 11
-208.4171409999999
 21
163.3000729999994
 31
0.0
  0
LINE
  5
5F6
  8
DETAIL
  6
CONTINUOUS
 62
     5
 10
-207.6797459999998
 20
154.0446709999996
 30
0.0
 11
-208.32625300000021
 21
154.6005799999993
 31
0.0
  0
LINE
  5
5F7
  8
DETAIL
  6
CONTINUOUS
 62
     5
 10
-206.8577379999997
 20
153.6378959999993
 30
0.0
 11
-207.6797459999998
 21
154.0446709999996
 31
0.0
  0
LINE
  5
5F8
  8
DETAIL
  6
CONTINUOUS
 62
     5
 10
-205.9923340000004
 20
153.5
 30
0.0
 11
-206.8577379999997
 21
153.6378959999993
 31
0.0
  0
LINE
  5
5F9
  8
DETAIL
  6
CONTINUOUS
 62
     5
 10
-205.1269309999997
 20
153.6378959999993
 30
0.0
 11
-205.9923340000004
 21
153.5
 31
0.0
  0
LINE
  5
5FA
  8
DETAIL
  6
CONTINUOUS
 62
     5
 10
-204.30492299999969
 20
154.0446709999996
 30
0.0
 11
-205.1269309999997
 21
153.6378959999993
 31
0.0
  0
LINE
  5
5FB
  8
DETAIL
  6
CONTINUOUS
 62
     5
 10
-203.56752799999961
 20
154.6999269999996
 30
0.0
 11
-204.30492299999969
 21
154.0446709999996
 31
0.0
  0
LINE
  5
5FC
  8
DETAIL
  6
CONTINUOUS
 62
     5
 10
-202.9517230000001
 20
155.57080599999969
 30
0.0
 11
-203.56752799999961
 21
154.6999269999996
 31
0.0
  0
LINE
  5
5FD
  8
DETAIL
  6
CONTINUOUS
 62
     5
 10
-202.4883879999997
 20
156.61363899999921
 30
0.0
 11
-202.9517230000001
 21
155.57080599999969
 31
0.0
  0
LINE
  5
5FE
  8
DETAIL
  6
CONTINUOUS
 62
     5
 10
-202.2007549999997
 20
157.77613500000001
 30
0.0
 11
-202.4883879999997
 21
156.61363899999921
 31
0.0
  0
LINE
  5
5FF
  8
DETAIL
  6
CONTINUOUS
 62
     5
 10
-202.10324700000001
 20
159.0
 30
0.0
 11
-202.2007549999997
 21
157.77613500000001
 31
0.0
  0
LINE
  5
600
  8
DETAIL
  6
CONTINUOUS
 62
     5
 10
-211.48685800000021
 20
38.391547999999602
 30
0.0
 11
-211.79504999999969
 21
38.547487999999248
 31
0.0
  0
LINE
  5
601
  8
DETAIL
  6
CONTINUOUS
 62
     5
 10
-210.33009599999971
 20
38.043824999999742
 30
0.0
 11
-211.48685800000021
 21
38.391547999999602
 31
0.0
  0
LINE
  5
602
  8
DETAIL
  6
CONTINUOUS
 62
     5
 10
-209.147492
 20
38.043824999999742
 30
0.0
 11
-210.33009599999971
 21
38.043824999999742
 31
0.0
  0
LINE
  5
603
  8
DETAIL
  6
CONTINUOUS
 62
     5
 10
-207.99073000000041
 20
38.391547999999602
 30
0.0
 11
-209.147492
 21
38.043824999999742
 31
0.0
  0
LINE
  5
604
  8
DETAIL
  6
CONTINUOUS
 62
     5
 10
-206.91036700000041
 20
39.071796999999613
 30
0.0
 11
-207.99073000000041
 21
38.391547999999602
 31
0.0
  0
LINE
  5
605
  8
DETAIL
  6
CONTINUOUS
 62
     5
 10
-205.9536200000002
 20
40.054841000000103
 30
0.0
 11
-206.91036700000041
 21
39.071796999999613
 31
0.0
  0
LINE
  5
606
  8
DETAIL
  6
CONTINUOUS
 62
     5
 10
-205.16230300000009
 20
41.29771799999979
 30
0.0
 11
-205.9536200000002
 21
40.054841000000103
 31
0.0
  0
LINE
  5
607
  8
DETAIL
  6
CONTINUOUS
 62
     5
 10
-204.57100100000031
 20
42.746106999999931
 30
0.0
 11
-205.16230300000009
 21
41.29771799999979
 31
0.0
  0
LINE
  5
608
  8
DETAIL
  6
CONTINUOUS
 62
     5
 10
-204.20555599999989
 20
44.336706000000049
 30
0.0
 11
-204.57100100000031
 21
42.746106999999931
 31
0.0
  0
LINE
  5
609
  8
DETAIL
  6
CONTINUOUS
 62
     5
 10
-204.08194
 20
46.0
 30
0.0
 11
-204.20555599999989
 21
44.336706000000049
 31
0.0
  0
LINE
  5
60A
  8
DETAIL
  6
CONTINUOUS
 62
     5
 10
-207.6797459999998
 20
163.95532899999941
 30
0.0
 11
-208.32625300000021
 21
163.39941999999971
 31
0.0
  0
LINE
  5
60B
  8
DETAIL
  6
CONTINUOUS
 62
     5
 10
-206.8577379999997
 20
164.36210299999951
 30
0.0
 11
-207.6797459999998
 21
163.95532899999941
 31
0.0
  0
LINE
  5
60C
  8
DETAIL
  6
CONTINUOUS
 62
     5
 10
-205.9923340000004
 20
164.5
 30
0.0
 11
-206.8577379999997
 21
164.36210299999951
 31
0.0
  0
LINE
  5
60D
  8
DETAIL
  6
CONTINUOUS
 62
     5
 10
-205.1269309999997
 20
164.36210299999951
 30
0.0
 11
-205.9923340000004
 21
164.5
 31
0.0
  0
LINE
  5
60E
  8
DETAIL
  6
CONTINUOUS
 62
     5
 10
-204.30492299999969
 20
163.95532899999941
 30
0.0
 11
-205.1269309999997
 21
164.36210299999951
 31
0.0
  0
LINE
  5
60F
  8
DETAIL
  6
CONTINUOUS
 62
     5
 10
-203.56752799999961
 20
163.3000729999994
 30
0.0
 11
-204.30492299999969
 21
163.95532899999941
 31
0.0
  0
LINE
  5
610
  8
DETAIL
  6
CONTINUOUS
 62
     5
 10
-202.9517230000001
 20
162.42919399999931
 30
0.0
 11
-203.56752799999961
 21
163.3000729999994
 31
0.0
  0
LINE
  5
611
  8
DETAIL
  6
CONTINUOUS
 62
     5
 10
-202.4883879999997
 20
161.38635999999951
 30
0.0
 11
-202.9517230000001
 21
162.42919399999931
 31
0.0
  0
LINE
  5
612
  8
DETAIL
  6
CONTINUOUS
 62
     5
 10
-202.2007549999997
 20
160.2238649999999
 30
0.0
 11
-202.4883879999997
 21
161.38635999999951
 31
0.0
  0
LINE
  5
613
  8
DETAIL
  6
CONTINUOUS
 62
     5
 10
-202.10324700000001
 20
159.0
 30
0.0
 11
-202.2007549999997
 21
160.2238649999999
 31
0.0
  0
LINE
  5
614
  8
DETAIL
  6
CONTINUOUS
 62
     5
 10
-211.48685800000021
 20
53.608451999999502
 30
0.0
 11
-211.79504999999969
 21
53.452511999999849
 31
0.0
  0
LINE
  5
615
  8
DETAIL
  6
CONTINUOUS
 62
     5
 10
-210.33009599999971
 20
53.956174999999348
 30
0.0
 11
-211.48685800000021
 21
53.608451999999502
 31
0.0
  0
LINE
  5
616
  8
DETAIL
  6
CONTINUOUS
 62
     5
 10
-209.147492
 20
53.956174999999348
 30
0.0
 11
-210.33009599999971
 21
53.956174999999348
 31
0.0
  0
LINE
  5
617
  8
DETAIL
  6
CONTINUOUS
 62
     5
 10
-207.99073000000041
 20
53.608451999999502
 30
0.0
 11
-209.147492
 21
53.956174999999348
 31
0.0
  0
LINE
  5
618
  8
DETAIL
  6
CONTINUOUS
 62
     5
 10
-206.91036700000041
 20
52.928202999999492
 30
0.0
 11
-207.99073000000041
 21
53.608451999999502
 31
0.0
  0
LINE
  5
619
  8
DETAIL
  6
CONTINUOUS
 62
     5
 10
-205.9536200000002
 20
51.945157999999552
 30
0.0
 11
-206.91036700000041
 21
52.928202999999492
 31
0.0
  0
LINE
  5
61A
  8
DETAIL
  6
CONTINUOUS
 62
     5
 10
-205.16230300000009
 20
50.702281999999279
 30
0.0
 11
-205.9536200000002
 21
51.945157999999552
 31
0.0
  0
LINE
  5
61B
  8
DETAIL
  6
CONTINUOUS
 62
     5
 10
-204.57100100000031
 20
49.253893000000069
 30
0.0
 11
-205.16230300000009
 21
50.702281999999279
 31
0.0
  0
LINE
  5
61C
  8
DETAIL
  6
CONTINUOUS
 62
     5
 10
-204.20555599999989
 20
47.663292999999612
 30
0.0
 11
-204.57100100000031
 21
49.253893000000069
 31
0.0
  0
LINE
  5
61D
  8
DETAIL
  6
CONTINUOUS
 62
     5
 10
-204.08194
 20
46.0
 30
0.0
 11
-204.20555599999989
 21
47.663292999999612
 31
0.0
  0
LINE
  5
61E
  8
DETAIL
  6
CONTINUOUS
 62
     5
 10
-191.2085150000002
 20
167.5
 30
0.0
 11
-198.9866899999997
 21
167.5
 31
0.0
  0
LINE
  5
61F
  8
DETAIL
  6
CONTINUOUS
 62
     5
 10
-187.738405
 20
159.0
 30
0.0
 11
-195.5165800000004
 21
159.0
 31
0.0
  0
LINE
  5
620
  8
DETAIL
  6
CONTINUOUS
 62
     5
 10
-191.2085150000002
 20
150.5
 30
0.0
 11
-198.9866899999997
 21
150.5
 31
0.0
  0
LINE
  5
621
  8
DETAIL
  6
CONTINUOUS
 62
     5
 10
-190.187895
 20
57.0
 30
0.0
 11
-197.966069
 21
57.0
 31
0.0
  0
LINE
  5
622
  8
DETAIL
  6
CONTINUOUS
 62
     5
 10
-190.187895
 20
35.0
 30
0.0
 11
-197.966069
 21
35.0
 31
0.0
  0
LINE
  5
623
  8
DETAIL
  6
CONTINUOUS
 62
     5
 10
-190.187895
 20
35.0
 30
0.0
 11
-185.6971629999997
 21
46.0
 31
0.0
  0
LINE
  5
624
  8
DETAIL
  6
CONTINUOUS
 62
     5
 10
-187.738405
 20
159.0
 30
0.0
 11
-191.2085150000002
 21
167.5
 31
0.0
  0
LINE
  5
625
  8
DETAIL
  6
CONTINUOUS
 62
     5
 10
-185.6971629999997
 20
46.0
 30
0.0
 11
-190.187895
 21
57.0
 31
0.0
  0
LINE
  5
626
  8
DETAIL
  6
CONTINUOUS
 62
     5
 10
-191.2085150000002
 20
150.5
 30
0.0
 11
-187.738405
 21
159.0
 31
0.0
  0
LINE
  5
627
  8
DETAIL
  6
CONTINUOUS
 62
     5
 10
238.5
 20
212.0
 30
0.0
 11
238.5
 21
222.7999999999993
 31
0.0
  0
LINE
  5
628
  8
DETAIL
  6
CONTINUOUS
 62
     5
 10
237.0
 20
212.0
 30
0.0
 11
238.5
 21
212.0
 31
0.0
  0
LINE
  5
62A
  8
DETAIL
  6
CONTINUOUS
 62
     5
 10
-208.11365500000011
 20
189.0
 30
0.0
 11
-209.73999999999981
 21
189.0
 31
0.0
  0
LINE
  5
62B
  8
DETAIL
  6
CONTINUOUS
 62
     5
 10
77.199999999999804
 20
11.0
 30
0.0
 11
77.199999999999804
 21
12.599999999999451
 31
0.0
  0
LINE
  5
62C
  8
DETAIL
  6
CONTINUOUS
 62
     5
 10
74.199999999999804
 20
11.0
 30
0.0
 11
74.199999999999804
 21
12.599999999999451
 31
0.0
  0
LINE
  5
62D
  8
DETAIL
  6
CONTINUOUS
 62
     5
 10
53.0
 20
176.0
 30
0.0
 11
77.199999999999804
 21
176.0
 31
0.0
  0
LINE
  5
62E
  8
DETAIL
  6
CONTINUOUS
 62
     5
 10
-208.11365500000011
 20
171.0
 30
0.0
 11
-209.73999999999981
 21
171.0
 31
0.0
  0
LINE
  5
62F
  8
DETAIL
  6
CONTINUOUS
 62
     5
 10
-207.61867999999961
 20
168.0
 30
0.0
 11
-196.76242300000001
 21
168.0
 31
0.0
  0
LINE
  5
630
  8
DETAIL
  6
CONTINUOUS
 62
     5
 10
-207.61867999999961
 20
150.0
 30
0.0
 11
-196.76242300000001
 21
150.0
 31
0.0
  0
LINE
  5
631
  8
DETAIL
  6
CONTINUOUS
 62
     5
 10
-208.11365500000011
 20
147.0
 30
0.0
 11
-209.73999999999981
 21
147.0
 31
0.0
  0
LINE
  5
632
  8
DETAIL
  6
CONTINUOUS
 62
     5
 10
53.0
 20
176.0
 30
0.0
 11
52.699999999999811
 21
175.69999999999979
 31
0.0
  0
LINE
  5
633
  8
DETAIL
  6
CONTINUOUS
 62
     5
 10
-208.11365500000011
 20
58.0
 30
0.0
 11
-209.73999999999981
 21
58.0
 31
0.0
  0
LINE
  5
634
  8
DETAIL
  6
CONTINUOUS
 62
     5
 10
-169.15133299999979
 20
38.0
 30
0.0
 11
-164.739904
 21
38.0
 31
0.0
  0
LINE
  5
635
  8
DETAIL
  6
CONTINUOUS
 62
     5
 10
-208.11365500000011
 20
34.0
 30
0.0
 11
-209.73999999999981
 21
34.0
 31
0.0
  0
LINE
  5
636
  8
DETAIL
  6
CONTINUOUS
 62
     5
 10
-207.97223300000039
 20
13.299999999999271
 30
0.0
 11
-153.1714579999998
 21
13.299999999999271
 31
0.0
  0
LINE
  5
637
  8
DETAIL
  6
CONTINUOUS
 62
     5
 10
62.157409000000371
 20
12.599999999999451
 30
0.0
 11
77.199999999999804
 21
12.599999999999451
 31
0.0
  0
LINE
  5
638
  8
DETAIL
  6
CONTINUOUS
 62
     5
 10
52.699999999999811
 20
12.599999999999451
 30
0.0
 11
53.842590999999622
 21
12.599999999999451
 31
0.0
  0
LINE
  5
639
  8
DETAIL
  6
CONTINUOUS
 62
     5
 10
-207.11554299999989
 20
35.411542999999263
 30
0.0
 11
-208.11365500000011
 21
34.0
 31
0.0
  0
LINE
  5
63A
  8
DETAIL
  6
CONTINUOUS
 62
     5
 10
-209.73999999999981
 20
34.0
 30
0.0
 11
-208.0043519999999
 21
36.454576999999531
 31
0.0
  0
LINE
  5
63B
  8
DETAIL
  6
CONTINUOUS
 62
     5
 10
-208.11365500000011
 20
171.0
 30
0.0
 11
-205.9923340000004
 21
168.0
 31
0.0
  0
LINE
  5
63C
  8
DETAIL
  6
CONTINUOUS
 62
     5
 10
-207.61867999999961
 20
168.0
 30
0.0
 11
-209.73999999999981
 21
171.0
 31
0.0
  0
LINE
  5
63D
  8
DETAIL
  6
CONTINUOUS
 62
     5
 10
-153.1714579999998
 20
13.299999999999271
 30
0.0
 11
-153.1714579999998
 21
11.0
 31
0.0
  0
LINE
  5
63E
  8
DETAIL
  6
CONTINUOUS
 62
     5
 10
-205.9923340000004
 20
150.0
 30
0.0
 11
-208.11365500000011
 21
147.0
 31
0.0
  0
LINE
  5
63F
  8
DETAIL
  6
CONTINUOUS
 62
     5
 10
-209.73999999999981
 20
147.0
 30
0.0
 11
-207.61867999999961
 21
150.0
 31
0.0
  0
LINE
  5
640
  8
DETAIL
  6
CONTINUOUS
 62
     5
 10
-177.92019499999969
 20
13.299999999999271
 30
0.0
 11
-177.92019499999969
 21
11.0
 31
0.0
  0
LINE
  5
641
  8
DETAIL
  6
CONTINUOUS
 62
     5
 10
-182.1628359999994
 20
13.299999999999271
 30
0.0
 11
-182.1628359999994
 21
11.0
 31
0.0
  0
LINE
  5
642
  8
DETAIL
  6
CONTINUOUS
 62
     5
 10
-208.11365500000011
 20
58.0
 30
0.0
 11
-207.11554299999989
 21
56.588456999999821
 31
0.0
  0
LINE
  5
643
  8
DETAIL
  6
CONTINUOUS
 62
     5
 10
-208.0043519999999
 20
55.545422999999573
 30
0.0
 11
-209.73999999999981
 21
58.0
 31
0.0
  0
LINE
  5
644
  8
DETAIL
  6
CONTINUOUS
 62
     5
 10
-205.9923340000004
 20
192.0
 30
0.0
 11
-208.11365500000011
 21
189.0
 31
0.0
  0
LINE
  5
645
  8
DETAIL
  6
CONTINUOUS
 62
     5
 10
-209.73999999999981
 20
189.0
 30
0.0
 11
-207.61867999999961
 21
192.0
 31
0.0
  0
LINE
  5
646
  8
DETAIL
  6
CONTINUOUS
 62
     5
 10
-208.11365500000011
 20
171.0
 30
0.0
 11
-208.11365500000011
 21
189.0
 31
0.0
  0
LINE
  5
647
  8
DETAIL
  6
CONTINUOUS
 62
     5
 10
-208.11365500000011
 20
58.0
 30
0.0
 11
-208.11365500000011
 21
147.0
 31
0.0
  0
LINE
  5
648
  8
DETAIL
  6
CONTINUOUS
 62
     5
 10
-208.11365500000011
 20
13.5
 30
0.0
 11
-208.11365500000011
 21
34.0
 31
0.0
  0
LINE
  5
649
  8
DETAIL
  6
CONTINUOUS
 62
     5
 10
-209.73999999999981
 20
171.0
 30
0.0
 11
-209.73999999999981
 21
189.0
 31
0.0
  0
LINE
  5
64A
  8
DETAIL
  6
CONTINUOUS
 62
     5
 10
-209.73999999999981
 20
58.0
 30
0.0
 11
-209.73999999999981
 21
147.0
 31
0.0
  0
LINE
  5
64B
  8
DETAIL
  6
CONTINUOUS
 62
     5
 10
-209.73999999999981
 20
13.5
 30
0.0
 11
-209.73999999999981
 21
34.0
 31
0.0
  0
ARC
  5
64C
  8
DETAIL
  6
CONTINUOUS
 62
     5
 10
-90.0
 20
152.5999999999994
 30
0.0
 40
133.19999999999999
 50
252.35688199997901
 51
260.59627199994787
  0
ARC
  5
64D
  8
DETAIL
  6
CONTINUOUS
 62
     5
 10
-90.0
 20
152.5999999999994
 30
0.0
 40
133.19999999999999
 50
246.2498980000442
 51
248.54770600003599
  0
LINE
  5
64E
  8
DETAIL
  6
CONTINUOUS
 62
     5
 10
-144.15506699999969
 20
228.3677389999994
 30
0.0
 11
-155.34863800000039
 21
226.81553699999949
 31
0.0
  0
LINE
  5
64F
  8
DETAIL
  6
CONTINUOUS
 62
     5
 10
-155.34863899999979
 20
226.81553699999949
 30
0.0
 11
-155.3485199999995
 21
226.81555599999959
 31
0.0
  0
LINE
  5
650
  8
DETAIL
  6
CONTINUOUS
 62
     5
 10
-155.3485190000001
 20
226.81555599999959
 30
0.0
 11
-157.23544599999971
 21
226.4374029999999
 31
0.0
  0
LINE
  5
651
  8
DETAIL
  6
CONTINUOUS
 62
     5
 10
-132.7513950000002
 20
229.4960659999997
 30
0.0
 11
-144.15506699999969
 21
228.3677389999994
 31
0.0
  0
LINE
  5
652
  8
DETAIL
  6
CONTINUOUS
 62
     5
 10
-121.3123530000002
 20
230.1738349999996
 30
0.0
 11
-132.7513950000002
 21
229.4960659999997
 31
0.0
  0
LINE
  5
653
  8
DETAIL
  6
CONTINUOUS
 62
     5
 10
-109.85569099999969
 20
230.39999999999961
 30
0.0
 11
-121.3123530000002
 21
230.1738349999996
 31
0.0
  0
LINE
  5
654
  8
DETAIL
  6
CONTINUOUS
 62
     5
 10
-97.293606608239728
 20
230.11289777704911
 30
0.0
 11
-109.8459460000003
 21
230.39999999999961
 31
0.0
  0
LINE
  5
657
  8
DETAIL
  6
CONTINUOUS
 62
     5
 10
221.65870000000001
 20
218.0
 30
0.0
 11
228.34129899999971
 21
218.0
 31
0.0
  0
LINE
  5
658
  8
DETAIL
  6
CONTINUOUS
 62
     5
 10
81.399999999999636
 20
81.146194999999338
 30
0.0
 11
81.399999999999636
 21
64.000223999999434
 31
0.0
  0
LINE
  5
659
  8
DETAIL
  6
CONTINUOUS
 62
     5
 10
81.399999999999636
 20
139.41045299999951
 30
0.0
 11
81.399999999999636
 21
81.146335999999806
 31
0.0
  0
LINE
  5
65A
  8
DETAIL
  6
CONTINUOUS
 62
     5
 10
81.399999999999636
 20
154.8536639999993
 30
0.0
 11
81.399999999999636
 21
138.65569599999981
 31
0.0
  0
LINE
  5
65B
  8
DETAIL
  6
CONTINUOUS
 62
     5
 10
81.399999999999636
 20
171.9997759999996
 30
0.0
 11
81.399999999999636
 21
154.85380499999971
 31
0.0
  0
LINE
  5
65C
  8
DETAIL
  6
CONTINUOUS
 62
     5
 10
79.0
 20
172.0
 30
0.0
 11
81.399999999999636
 21
172.0
 31
0.0
  0
LINE
  5
65D
  8
DETAIL
  6
CONTINUOUS
 62
     5
 10
79.0
 20
154.85380499999971
 30
0.0
 11
81.399999999999636
 21
154.85380499999971
 31
0.0
  0
LINE
  5
65E
  8
DETAIL
  6
CONTINUOUS
 62
     5
 10
120.60000000000031
 20
127.0
 30
0.0
 11
135.60000000000031
 21
127.0
 31
0.0
  0
LINE
  5
660
  8
DETAIL
  6
CONTINUOUS
 62
     5
 10
-229.31075200000029
 20
121.5
 30
0.0
 11
-209.73999999999981
 21
121.5
 31
0.0
  0
LINE
  5
661
  8
DETAIL
  6
CONTINUOUS
 62
     5
 10
120.60000000000031
 20
109.0
 30
0.0
 11
135.60000000000031
 21
109.0
 31
0.0
  0
LINE
  5
662
  8
DETAIL
  6
CONTINUOUS
 62
     5
 10
79.0
 20
81.146194999999338
 30
0.0
 11
81.399999999999636
 21
81.146194999999338
 31
0.0
  0
LINE
  5
663
  8
DETAIL
  6
CONTINUOUS
 62
     5
 10
-229.31075200000029
 20
67.299999999999272
 30
0.0
 11
-209.73999999999981
 21
67.299999999999272
 31
0.0
  0
LINE
  5
664
  8
DETAIL
  6
CONTINUOUS
 62
     5
 10
79.0
 20
64.0
 30
0.0
 11
81.399999999999636
 21
64.0
 31
0.0
  0
LINE
  5
665
  8
DETAIL
  6
CONTINUOUS
 62
     5
 10
-130.34764600000011
 20
28.699999999999829
 30
0.0
 11
-145.50487799999971
 21
28.699999999999829
 31
0.0
  0
LINE
  5
666
  8
DETAIL
  6
CONTINUOUS
 62
     5
 10
-148.86332000000041
 20
26.39999999999965
 30
0.0
 11
-132.63050300000029
 21
26.39999999999965
 31
0.0
  0
LINE
  5
667
  8
DETAIL
  6
CONTINUOUS
 62
     5
 10
-149.20473300000049
 20
17.399999999999629
 30
0.0
 11
-130.34764600000011
 21
17.399999999999629
 31
0.0
  0
LINE
  5
668
  8
DETAIL
  6
CONTINUOUS
 62
     5
 10
200.10992199999961
 20
15.0
 30
0.0
 11
205.89007699999999
 21
15.0
 31
0.0
  0
LINE
  5
66E
  8
DETAIL
  6
CONTINUOUS
 62
     5
 10
-130.34764600000011
 20
28.699999999999829
 30
0.0
 11
-130.34764600000011
 21
17.399999999999629
 31
0.0
  0
LINE
  5
66F
  8
DETAIL
  6
CONTINUOUS
 62
     5
 10
-132.63050300000029
 20
26.39999999999965
 30
0.0
 11
-132.63050300000029
 21
17.399999999999629
 31
0.0
  0
LINE
  5
670
  8
DETAIL
  6
CONTINUOUS
 62
     5
 10
-149.20473300000049
 20
17.399999999999629
 30
0.0
 11
-149.20473300000049
 21
26.223936999999751
 31
0.0
  0
LINE
  5
671
  8
DETAIL
  6
CONTINUOUS
 62
     5
 10
-221.14550599999981
 20
121.5
 30
0.0
 11
-221.14550599999981
 21
67.299999999999272
 31
0.0
  0
ARC
  5
672
  8
DETAIL
  6
CONTINUOUS
 62
     5
 10
-90.0
 20
152.5999999999994
 30
0.0
 40
133.19999999999999
 50
260.59627199994787
 51
266.8583419506482
  0
ARC
  5
673
  8
DETAIL
  6
CONTINUOUS
 62
     5
 10
78.231999999999971
 20
148.85380499999971
 30
0.0
 40
5.6679999999999993
 50
23.388608999983461
 51
56.018352999953002
  0
ARC
  5
674
  8
DETAIL
  6
CONTINUOUS
 62
     5
 10
78.231999999999971
 20
148.85380499999971
 30
0.0
 40
5.6679999999999993
 50
303.98164700004708
 51
336.61139100001662
  0
ARC
  5
675
  8
DETAIL
  6
CONTINUOUS
 62
     5
 10
78.231999999999971
 20
87.146194999999352
 30
0.0
 40
5.6679999999999993
 50
23.388608999983461
 51
56.018352999953002
  0
ARC
  5
676
  8
DETAIL
  6
CONTINUOUS
 62
     5
 10
78.231999999999971
 20
87.146194999999352
 30
0.0
 40
5.6679999999999993
 50
303.98164700004708
 51
336.61139100001662
  0
ARC
  5
677
  8
DETAIL
  6
CONTINUOUS
 62
     5
 10
58.0
 20
8.8319999999994252
 30
0.0
 40
5.6679999999999993
 50
113.38860899994761
 51
146.01835300002509
  0
ARC
  5
678
  8
DETAIL
  6
CONTINUOUS
 62
     5
 10
58.0
 20
8.8319999999994252
 30
0.0
 40
5.6679999999999993
 50
33.981646999974892
 51
66.611391000052393
  0
ARC
  5
67A
  8
DETAIL
  6
CONTINUOUS
 62
     5
 10
-102.74329300000041
 20
174.22227399999969
 30
0.0
 40
1.0
 50
353.96545300001912
 51
30.0000000000216
  0
ARC
  5
67B
  8
DETAIL
  6
CONTINUOUS
 62
     5
 10
-102.6932930000002
 20
130.1830439999994
 30
0.0
 40
0.3
 50
270.0
 51
90.0
  0
LINE
  5
67F
  8
DETAIL
  6
CONTINUOUS
 62
     5
 10
-156.73891699999959
 20
215.63330499999941
 30
0.0
 11
-156.8002569999999
 21
213.9982030000001
 31
0.0
  0
LINE
  5
680
  8
DETAIL
  6
CONTINUOUS
 62
     5
 10
-156.44370499999971
 20
217.1684919999997
 30
0.0
 11
-156.73891699999959
 21
215.63330499999941
 31
0.0
  0
LINE
  5
681
  8
DETAIL
  6
CONTINUOUS
 62
     5
 10
-155.93853800000031
 20
218.47939199999931
 30
0.0
 11
-156.44370499999971
 21
217.1684919999997
 31
0.0
  0
LINE
  5
682
  8
DETAIL
  6
CONTINUOUS
 62
     5
 10
-155.264341
 20
219.4598040000001
 30
0.0
 11
-155.93853800000031
 21
218.47939199999931
 31
0.0
  0
LINE
  5
683
  8
DETAIL
  6
CONTINUOUS
 62
     5
 10
-154.47573399999959
 20
220.03030099999981
 30
0.0
 11
-155.264341
 21
219.4598040000001
 31
0.0
  0
LINE
  5
684
  8
DETAIL
  6
CONTINUOUS
 62
     5
 10
-153.8510409999999
 20
220.15948399999979
 30
0.0
 11
-154.47573399999959
 21
220.03030099999981
 31
0.0
  0
LINE
  5
685
  8
DETAIL
  6
CONTINUOUS
 62
     5
 10
-124.98031400000031
 20
215.63330499999941
 30
0.0
 11
-125.0416539999996
 21
213.9982030000001
 31
0.0
  0
LINE
  5
686
  8
DETAIL
  6
CONTINUOUS
 62
     5
 10
-124.6851020000004
 20
217.1684919999997
 30
0.0
 11
-124.98031400000031
 21
215.63330499999941
 31
0.0
  0
LINE
  5
687
  8
DETAIL
  6
CONTINUOUS
 62
     5
 10
-124.1799350000001
 20
218.47939199999931
 30
0.0
 11
-124.6851020000004
 21
217.1684919999997
 31
0.0
  0
LINE
  5
688
  8
DETAIL
  6
CONTINUOUS
 62
     5
 10
-123.5057390000001
 20
219.4598040000001
 30
0.0
 11
-124.1799350000001
 21
218.47939199999931
 31
0.0
  0
LINE
  5
689
  8
DETAIL
  6
CONTINUOUS
 62
     5
 10
-122.71713100000029
 20
220.03030099999981
 30
0.0
 11
-123.5057390000001
 21
219.4598040000001
 31
0.0
  0
LINE
  5
68A
  8
DETAIL
  6
CONTINUOUS
 62
     5
 10
-122.0924379999996
 20
220.15948399999979
 30
0.0
 11
-122.71713100000029
 21
220.03030099999981
 31
0.0
  0
LINE
  5
68B
  8
DETAIL
  6
CONTINUOUS
 62
     5
 10
-124.47913299999981
 20
215.41918899999931
 30
0.0
 11
-124.5298240000002
 21
214.067959
 31
0.0
  0
LINE
  5
68C
  8
DETAIL
  6
CONTINUOUS
 62
     5
 10
-124.235173
 20
216.68785099999971
 30
0.0
 11
-124.47913299999981
 21
215.41918899999931
 31
0.0
  0
LINE
  5
68D
  8
DETAIL
  6
CONTINUOUS
 62
     5
 10
-123.81770899999979
 20
217.7711639999998
 30
0.0
 11
-124.235173
 21
216.68785099999971
 31
0.0
  0
LINE
  5
68E
  8
DETAIL
  6
CONTINUOUS
 62
     5
 10
-123.2605599999997
 20
218.58136599999941
 30
0.0
 11
-123.81770899999979
 21
217.7711639999998
 31
0.0
  0
LINE
  5
68F
  8
DETAIL
  6
CONTINUOUS
 62
     5
 10
-122.6088639999998
 20
219.0528189999994
 30
0.0
 11
-123.2605599999997
 21
218.58136599999941
 31
0.0
  0
LINE
  5
690
  8
DETAIL
  6
CONTINUOUS
 62
     5
 10
-122.0926239999999
 20
219.15957299999991
 30
0.0
 11
-122.6088639999998
 21
219.0528189999994
 31
0.0
  0
LINE
  5
691
  8
DETAIL
  6
CONTINUOUS
 62
     5
 10
-149.87219199999981
 20
215.63330499999941
 30
0.0
 11
-149.93353200000001
 21
213.9982030000001
 31
0.0
  0
LINE
  5
692
  8
DETAIL
  6
CONTINUOUS
 62
     5
 10
-149.57697999999979
 20
217.1684919999997
 30
0.0
 11
-149.87219199999981
 21
215.63330499999941
 31
0.0
  0
LINE
  5
693
  8
DETAIL
  6
CONTINUOUS
 62
     5
 10
-149.07181300000039
 20
218.47939199999931
 30
0.0
 11
-149.57697999999979
 21
217.1684919999997
 31
0.0
  0
LINE
  5
694
  8
DETAIL
  6
CONTINUOUS
 62
     5
 10
-148.3976160000002
 20
219.4598040000001
 30
0.0
 11
-149.07181300000039
 21
218.47939199999931
 31
0.0
  0
LINE
  5
695
  8
DETAIL
  6
CONTINUOUS
 62
     5
 10
-147.6090089999997
 20
220.03030099999981
 30
0.0
 11
-148.3976160000002
 21
219.4598040000001
 31
0.0
  0
LINE
  5
696
  8
DETAIL
  6
CONTINUOUS
 62
     5
 10
-146.9853890000004
 20
220.15999999999991
 30
0.0
 11
-147.6090089999997
 21
220.03030099999981
 31
0.0
  0
LINE
  5
697
  8
DETAIL
  6
CONTINUOUS
 62
     5
 10
-146.01405200000039
 20
219.0528189999994
 30
0.0
 11
-146.66574800000029
 21
218.58136599999941
 31
0.0
  0
LINE
  5
698
  8
DETAIL
  6
CONTINUOUS
 62
     5
 10
-145.4986989999997
 20
219.1599999999998
 30
0.0
 11
-146.01405200000039
 21
219.0528189999994
 31
0.0
  0
LINE
  5
699
  8
DETAIL
  6
CONTINUOUS
 62
     5
 10
-129.5838560000002
 20
220.03030099999981
 30
0.0
 11
-129.98017199999961
 21
219.806106
 31
0.0
  0
LINE
  5
69A
  8
DETAIL
  6
CONTINUOUS
 62
     5
 10
-128.9602359999999
 20
220.15999999999991
 30
0.0
 11
-129.5838560000002
 21
220.03030099999981
 31
0.0
  0
LINE
  5
69D
  8
DETAIL
  6
CONTINUOUS
 62
     5
 10
-146.9853890000004
 20
220.15999999999991
 30
0.0
 11
-153.8521140000002
 21
220.15999999999991
 31
0.0
  0
LINE
  5
69E
  8
DETAIL
  6
CONTINUOUS
 62
     5
 10
-122.09351100000001
 20
220.15999999999991
 30
0.0
 11
-128.9602359999999
 21
220.15999999999991
 31
0.0
  0
LINE
  5
6A0
  8
DETAIL
  6
CONTINUOUS
 62
     5
 10
-130.8817140000001
 20
219.1599999999998
 30
0.0
 11
-145.4986989999997
 21
219.1599999999998
 31
0.0
  0
LINE
  5
6A1
  8
DETAIL
  6
CONTINUOUS
 62
     5
 10
-130.8817140000001
 20
209.63999999999939
 30
0.0
 11
-145.4986989999997
 21
209.63999999999939
 31
0.0
  0
LINE
  5
6A2
  8
DETAIL
  6
CONTINUOUS
 62
     5
 10
-146.9853890000004
 20
208.63999999999939
 30
0.0
 11
-153.8521140000002
 21
208.63999999999939
 31
0.0
  0
LINE
  5
6A3
  8
DETAIL
  6
CONTINUOUS
 62
     5
 10
-122.09351100000001
 20
208.63999999999939
 30
0.0
 11
-128.9602359999999
 21
208.63999999999939
 31
0.0
  0
LINE
  5
6A4
  8
DETAIL
  6
CONTINUOUS
 62
     5
 10
-186.91051799999971
 20
174.54582499999921
 30
0.0
 11
-186.1933440000002
 21
174.39999999999961
 31
0.0
  0
LINE
  5
6A5
  8
DETAIL
  6
CONTINUOUS
 62
     5
 10
-187.5695910000004
 20
174.9714869999998
 30
0.0
 11
-186.91051799999971
 21
174.54582499999921
 31
0.0
  0
LINE
  5
6A6
  8
DETAIL
  6
CONTINUOUS
 62
     5
 10
-188.1171690000001
 20
175.6425009999993
 30
0.0
 11
-187.5695910000004
 21
174.9714869999998
 31
0.0
  0
LINE
  5
6A7
  8
DETAIL
  6
CONTINUOUS
 62
     5
 10
-188.50889000000001
 20
176.50450599999931
 30
0.0
 11
-188.1171690000001
 21
175.6425009999993
 31
0.0
  0
LINE
  5
6A8
  8
DETAIL
  6
CONTINUOUS
 62
     5
 10
-188.7130189999998
 20
177.48766599999999
 30
0.0
 11
-188.50889000000001
 21
176.50450599999931
 31
0.0
  0
LINE
  5
6A9
  8
DETAIL
  6
CONTINUOUS
 62
     5
 10
-188.7130189999998
 20
178.5123329999995
 30
0.0
 11
-188.7130189999998
 21
177.48766599999999
 31
0.0
  0
LINE
  5
6AA
  8
DETAIL
  6
CONTINUOUS
 62
     5
 10
-188.50889000000001
 20
179.49549399999981
 30
0.0
 11
-188.7130189999998
 21
178.5123329999995
 31
0.0
  0
LINE
  5
6AB
  8
DETAIL
  6
CONTINUOUS
 62
     5
 10
-188.1171690000001
 20
180.35749899999971
 30
0.0
 11
-188.50889000000001
 21
179.49549399999981
 31
0.0
  0
LINE
  5
6AC
  8
DETAIL
  6
CONTINUOUS
 62
     5
 10
-187.5695910000004
 20
181.02851299999929
 30
0.0
 11
-188.1171690000001
 21
180.35749899999971
 31
0.0
  0
LINE
  5
6AD
  8
DETAIL
  6
CONTINUOUS
 62
     5
 10
-186.91051799999971
 20
181.45417499999971
 30
0.0
 11
-187.5695910000004
 21
181.02851299999929
 31
0.0
  0
LINE
  5
6AE
  8
DETAIL
  6
CONTINUOUS
 62
     5
 10
-186.1933440000002
 20
181.5999999999994
 30
0.0
 11
-186.91051799999971
 21
181.45417499999971
 31
0.0
  0
LINE
  5
6AF
  8
DETAIL
  6
CONTINUOUS
 62
     5
 10
-185.47616999999991
 20
181.45417499999971
 30
0.0
 11
-186.1933440000002
 21
181.5999999999994
 31
0.0
  0
LINE
  5
6B0
  8
DETAIL
  6
CONTINUOUS
 62
     5
 10
-184.8170979999995
 20
181.02851299999929
 30
0.0
 11
-185.47616999999991
 21
181.45417499999971
 31
0.0
  0
LINE
  5
6B1
  8
DETAIL
  6
CONTINUOUS
 62
     5
 10
-184.2695199999998
 20
180.35749899999971
 30
0.0
 11
-184.8170979999995
 21
181.02851299999929
 31
0.0
  0
LINE
  5
6B2
  8
DETAIL
  6
CONTINUOUS
 62
     5
 10
-183.87779899999981
 20
179.49549399999981
 30
0.0
 11
-184.2695199999998
 21
180.35749899999971
 31
0.0
  0
LINE
  5
6B3
  8
DETAIL
  6
CONTINUOUS
 62
     5
 10
-183.6736700000001
 20
178.5123329999995
 30
0.0
 11
-183.87779899999981
 21
179.49549399999981
 31
0.0
  0
LINE
  5
6B4
  8
DETAIL
  6
CONTINUOUS
 62
     5
 10
-183.6736700000001
 20
177.48766599999999
 30
0.0
 11
-183.6736700000001
 21
178.5123329999995
 31
0.0
  0
LINE
  5
6B5
  8
DETAIL
  6
CONTINUOUS
 62
     5
 10
-183.87779899999981
 20
176.50450599999931
 30
0.0
 11
-183.6736700000001
 21
177.48766599999999
 31
0.0
  0
LINE
  5
6B6
  8
DETAIL
  6
CONTINUOUS
 62
     5
 10
-184.2695199999998
 20
175.6425009999993
 30
0.0
 11
-183.87779899999981
 21
176.50450599999931
 31
0.0
  0
LINE
  5
6B7
  8
DETAIL
  6
CONTINUOUS
 62
     5
 10
-184.8170979999995
 20
174.9714869999998
 30
0.0
 11
-184.2695199999998
 21
175.6425009999993
 31
0.0
  0
LINE
  5
6B8
  8
DETAIL
  6
CONTINUOUS
 62
     5
 10
-185.47616999999991
 20
174.54582499999921
 30
0.0
 11
-184.8170979999995
 21
174.9714869999998
 31
0.0
  0
LINE
  5
6B9
  8
DETAIL
  6
CONTINUOUS
 62
     5
 10
-186.1933440000002
 20
174.39999999999961
 30
0.0
 11
-185.47616999999991
 21
174.54582499999921
 31
0.0
  0
LINE
  5
6BA
  8
DETAIL
  6
CONTINUOUS
 62
     5
 10
-129.1757450000004
 20
208.6553349999995
 30
0.0
 11
-129.98017199999961
 21
208.9938939999993
 31
0.0
  0
LINE
  5
6BB
  8
DETAIL
  6
CONTINUOUS
 62
     5
 10
-128.9602359999999
 20
208.63999999999939
 30
0.0
 11
-129.1757450000004
 21
208.6553349999995
 31
0.0
  0
LINE
  5
6BC
  8
DETAIL
  6
CONTINUOUS
 62
     5
 10
-145.67679299999961
 20
209.6526729999996
 30
0.0
 11
-146.35581199999979
 21
209.94276399999941
 31
0.0
  0
LINE
  5
6BD
  8
DETAIL
  6
CONTINUOUS
 62
     5
 10
-145.4986989999997
 20
209.63999999999939
 30
0.0
 11
-145.67679299999961
 21
209.6526729999996
 31
0.0
  0
LINE
  5
6BE
  8
DETAIL
  6
CONTINUOUS
 62
     5
 10
-149.75603099999989
 20
212.3956519999993
 30
0.0
 11
-149.93353200000001
 21
213.9982030000001
 31
0.0
  0
LINE
  5
6BF
  8
DETAIL
  6
CONTINUOUS
 62
     5
 10
-149.35406900000001
 20
210.95548099999999
 30
0.0
 11
-149.75603099999989
 21
212.3956519999993
 31
0.0
  0
LINE
  5
6C0
  8
DETAIL
  6
CONTINUOUS
 62
     5
 10
-148.7602109999998
 20
209.79436499999969
 30
0.0
 11
-149.35406900000001
 21
210.95548099999999
 31
0.0
  0
LINE
  5
6C1
  8
DETAIL
  6
CONTINUOUS
 62
     5
 10
-148.02256700000001
 20
209.00637000000009
 30
0.0
 11
-148.7602109999998
 21
209.79436499999969
 31
0.0
  0
LINE
  5
6C2
  8
DETAIL
  6
CONTINUOUS
 62
     5
 10
-147.20089699999971
 20
208.6553349999995
 30
0.0
 11
-148.02256700000001
 21
209.00637000000009
 31
0.0
  0
LINE
  5
6C3
  8
DETAIL
  6
CONTINUOUS
 62
     5
 10
-146.9853890000004
 20
208.63999999999939
 30
0.0
 11
-147.20089699999971
 21
208.6553349999995
 31
0.0
  0
LINE
  5
6C4
  8
DETAIL
  6
CONTINUOUS
 62
     5
 10
-124.3831389999995
 20
212.7436289999996
 30
0.0
 11
-124.5298240000002
 21
214.067959
 31
0.0
  0
LINE
  5
6C5
  8
DETAIL
  6
CONTINUOUS
 62
     5
 10
-124.0509620000002
 20
211.55348799999959
 30
0.0
 11
-124.3831389999995
 21
212.7436289999996
 31
0.0
  0
LINE
  5
6C6
  8
DETAIL
  6
CONTINUOUS
 62
     5
 10
-123.5602040000003
 20
210.593954
 30
0.0
 11
-124.0509620000002
 21
211.55348799999959
 31
0.0
  0
LINE
  5
6C7
  8
DETAIL
  6
CONTINUOUS
 62
     5
 10
-122.950624
 20
209.94276399999941
 30
0.0
 11
-123.5602040000003
 21
210.593954
 31
0.0
  0
LINE
  5
6C8
  8
DETAIL
  6
CONTINUOUS
 62
     5
 10
-122.27160499999979
 20
209.6526729999996
 30
0.0
 11
-122.950624
 21
209.94276399999941
 31
0.0
  0
LINE
  5
6C9
  8
DETAIL
  6
CONTINUOUS
 62
     5
 10
-122.0943969999998
 20
209.64042599999991
 30
0.0
 11
-122.27160499999979
 21
209.6526729999996
 31
0.0
  0
LINE
  5
6CA
  8
DETAIL
  6
CONTINUOUS
 62
     5
 10
-124.8641539999999
 20
212.3956519999993
 30
0.0
 11
-125.0416539999996
 21
213.9982030000001
 31
0.0
  0
LINE
  5
6CB
  8
DETAIL
  6
CONTINUOUS
 62
     5
 10
-124.4621919999999
 20
210.95548099999999
 30
0.0
 11
-124.8641539999999
 21
212.3956519999993
 31
0.0
  0
LINE
  5
6CC
  8
DETAIL
  6
CONTINUOUS
 62
     5
 10
-123.86833300000031
 20
209.79436499999969
 30
0.0
 11
-124.4621919999999
 21
210.95548099999999
 31
0.0
  0
LINE
  5
6CD
  8
DETAIL
  6
CONTINUOUS
 62
     5
 10
-123.13068899999961
 20
209.00637000000009
 30
0.0
 11
-123.86833300000031
 21
209.79436499999969
 31
0.0
  0
LINE
  5
6CE
  8
DETAIL
  6
CONTINUOUS
 62
     5
 10
-122.30901999999971
 20
208.6553349999995
 30
0.0
 11
-123.13068899999961
 21
209.00637000000009
 31
0.0
  0
LINE
  5
6CF
  8
DETAIL
  6
CONTINUOUS
 62
     5
 10
-122.0945840000004
 20
208.64051599999951
 30
0.0
 11
-122.30901999999971
 21
208.6553349999995
 31
0.0
  0
LINE
  5
6D0
  8
DETAIL
  6
CONTINUOUS
 62
     5
 10
-156.6227559999997
 20
212.3956519999993
 30
0.0
 11
-156.8002569999999
 21
213.9982030000001
 31
0.0
  0
LINE
  5
6D1
  8
DETAIL
  6
CONTINUOUS
 62
     5
 10
-156.22079399999981
 20
210.95548099999999
 30
0.0
 11
-156.6227559999997
 21
212.3956519999993
 31
0.0
  0
LINE
  5
6D2
  8
DETAIL
  6
CONTINUOUS
 62
     5
 10
-155.6269359999996
 20
209.79436499999969
 30
0.0
 11
-156.22079399999981
 21
210.95548099999999
 31
0.0
  0
LINE
  5
6D3
  8
DETAIL
  6
CONTINUOUS
 62
     5
 10
-154.88929199999981
 20
209.00637000000009
 30
0.0
 11
-155.6269359999996
 21
209.79436499999969
 31
0.0
  0
LINE
  5
6D4
  8
DETAIL
  6
CONTINUOUS
 62
     5
 10
-154.06762200000051
 20
208.6553349999995
 30
0.0
 11
-154.88929199999981
 21
209.00637000000009
 31
0.0
  0
LINE
  5
6D5
  8
DETAIL
  6
CONTINUOUS
 62
     5
 10
-153.85318600000031
 20
208.64051599999951
 30
0.0
 11
-154.06762200000051
 21
208.6553349999995
 31
0.0
  0
LINE
  5
6D6
  8
DETAIL
  6
CONTINUOUS
 62
     5
 10
-102.1432930000001
 20
185.1830439999994
 30
0.0
 11
-97.300000000000196
 21
185.18304399999931
 31
0.0
  0
LINE
  5
6D7
  8
DETAIL
  6
CONTINUOUS
 62
     5
 10
-186.1933440000002
 20
184.0
 30
0.0
 11
-190.43598499999999
 21
184.0
 31
0.0
  0
LINE
  5
6DA
  8
DETAIL
  6
CONTINUOUS
 62
     5
 10
-102.1432930000001
 20
175.1830439999994
 30
0.0
 11
-99.609480703992631
 21
175.1830439999994
 31
0.0
  0
LINE
  5
6DB
  8
DETAIL
  6
CONTINUOUS
 62
     5
 10
-186.1933440000002
 20
168.0
 30
0.0
 11
-172.0512090000002
 21
168.0
 31
0.0
  0
LINE
  5
6DC
  8
DETAIL
  6
CONTINUOUS
 62
     5
 10
-172.0512090000002
 20
165.5
 30
0.0
 11
-165.3522769999999
 21
165.5
 31
0.0
  0
LINE
  5
6DD
  8
DETAIL
  6
CONTINUOUS
 62
     5
 10
-182.1242570000004
 20
165.5
 30
0.0
 11
-190.39201899999989
 21
165.5
 31
0.0
  0
LINE
  5
6DE
  8
DETAIL
  6
CONTINUOUS
 62
     5
 10
-102.6932930000002
 20
165.1830439999994
 30
0.0
 11
-99.609480703992631
 21
165.1830439999994
 31
0.0
  0
LINE
  5
6DF
  8
DETAIL
  6
CONTINUOUS
 62
     5
 10
-140.54537499999969
 20
154.12999199999919
 30
0.0
 11
-140.4089629999998
 21
154.23637699999921
 31
0.0
  0
LINE
  5
6E0
  8
DETAIL
  6
CONTINUOUS
 62
     5
 10
-141.4220050000003
 20
153.6598199999998
 30
0.0
 11
-140.54537499999969
 21
154.12999199999919
 31
0.0
  0
LINE
  5
6E1
  8
DETAIL
  6
CONTINUOUS
 62
     5
 10
-142.35272400000031
 20
153.5
 30
0.0
 11
-141.4220050000003
 21
153.6598199999998
 31
0.0
  0
LINE
  5
6E2
  8
DETAIL
  6
CONTINUOUS
 62
     5
 10
67.899999999999636
 20
12.599999999999451
 30
0.0
 11
67.899999999999636
 21
13.599999999999451
 31
0.0
  0
LINE
  5
6E3
  8
DETAIL
  6
CONTINUOUS
 62
     5
 10
60.0
 20
12.0
 30
0.0
 11
60.0
 21
11.0
 31
0.0
  0
LINE
  5
6E4
  8
DETAIL
  6
CONTINUOUS
 62
     5
 10
56.0
 20
12.0
 30
0.0
 11
56.0
 21
11.0
 31
0.0
  0
LINE
  5
6E5
  8
DETAIL
  6
CONTINUOUS
 62
     5
 10
-146.7698799999998
 20
220.1446649999998
 30
0.0
 11
-146.9853890000004
 21
220.15999999999991
 31
0.0
  0
LINE
  5
6E6
  8
DETAIL
  6
CONTINUOUS
 62
     5
 10
-145.9654529999998
 20
219.806106
 30
0.0
 11
-146.7698799999998
 21
220.1446649999998
 31
0.0
  0
LINE
  5
6E8
  8
DETAIL
  6
CONTINUOUS
 62
     5
 10
-182.52676100000011
 20
181.01866399999921
 30
0.0
 11
-182.1002449999996
 21
179.57894699999991
 31
0.0
  0
LINE
  5
6E9
  8
DETAIL
  6
CONTINUOUS
 62
     5
 10
-183.201446
 20
182.25406699999971
 30
0.0
 11
-182.52676100000011
 21
181.01866399999921
 31
0.0
  0
LINE
  5
6EA
  8
DETAIL
  6
CONTINUOUS
 62
     5
 10
-184.07863300000011
 20
183.2015369999998
 30
0.0
 11
-183.201446
 21
182.25406699999971
 31
0.0
  0
LINE
  5
6EB
  8
DETAIL
  6
CONTINUOUS
 62
     5
 10
-185.09895299999951
 20
183.79694799999919
 30
0.0
 11
-184.07863300000011
 21
183.2015369999998
 31
0.0
  0
LINE
  5
6EC
  8
DETAIL
  6
CONTINUOUS
 62
     5
 10
-186.1933440000002
 20
184.0
 30
0.0
 11
-185.09895299999951
 21
183.79694799999919
 31
0.0
  0
LINE
  5
6ED
  8
DETAIL
  6
CONTINUOUS
 62
     5
 10
-165.5739309999999
 20
152.5
 30
0.0
 11
-165.3522769999999
 21
152.5
 31
0.0
  0
LINE
  5
6EE
  8
DETAIL
  6
CONTINUOUS
 62
     5
 10
-182.1241159999999
 20
152.5
 30
0.0
 11
-190.39201899999989
 21
152.5
 31
0.0
  0
LINE
  5
6EF
  8
DETAIL
  6
CONTINUOUS
 62
     5
 10
-186.1933440000002
 20
150.0
 30
0.0
 11
-185.43553299999971
 21
150.0
 31
0.0
  0
LINE
  5
6F0
  8
DETAIL
  6
CONTINUOUS
 62
     5
 10
-143.28344399999969
 20
164.34017999999921
 30
0.0
 11
-142.35272400000031
 21
164.5
 31
0.0
  0
LINE
  5
6F1
  8
DETAIL
  6
CONTINUOUS
 62
     5
 10
-144.16007300000001
 20
163.87000799999981
 30
0.0
 11
-143.28344399999969
 21
164.34017999999921
 31
0.0
  0
LINE
  5
6F2
  8
DETAIL
  6
CONTINUOUS
 62
     5
 10
-144.9316660000004
 20
163.1168090000001
 30
0.0
 11
-144.16007300000001
 21
163.87000799999981
 31
0.0
  0
LINE
  5
6F3
  8
DETAIL
  6
CONTINUOUS
 62
     5
 10
-145.55338000000029
 20
162.1243559999993
 30
0.0
 11
-144.9316660000004
 21
163.1168090000001
 31
0.0
  0
LINE
  5
6F4
  8
DETAIL
  6
CONTINUOUS
 62
     5
 10
-145.98908399999979
 20
160.9503269999995
 30
0.0
 11
-145.55338000000029
 21
162.1243559999993
 31
0.0
  0
LINE
  5
6F5
  8
DETAIL
  6
CONTINUOUS
 62
     5
 10
-146.21345600000041
 20
159.66295199999971
 30
0.0
 11
-145.98908399999979
 21
160.9503269999995
 31
0.0
  0
LINE
  5
6F6
  8
DETAIL
  6
CONTINUOUS
 62
     5
 10
-146.21345600000041
 20
158.33704799999941
 30
0.0
 11
-146.21345600000041
 21
159.66295199999971
 31
0.0
  0
LINE
  5
6F7
  8
DETAIL
  6
CONTINUOUS
 62
     5
 10
-145.98908399999979
 20
157.0496729999995
 30
0.0
 11
-146.21345600000041
 21
158.33704799999941
 31
0.0
  0
LINE
  5
6F8
  8
DETAIL
  6
CONTINUOUS
 62
     5
 10
-145.55338000000029
 20
155.87564399999971
 30
0.0
 11
-145.98908399999979
 21
157.0496729999995
 31
0.0
  0
LINE
  5
6F9
  8
DETAIL
  6
CONTINUOUS
 62
     5
 10
-144.9316660000004
 20
154.8831909999999
 30
0.0
 11
-145.55338000000029
 21
155.87564399999971
 31
0.0
  0
LINE
  5
6FA
  8
DETAIL
  6
CONTINUOUS
 62
     5
 10
-144.16007300000001
 20
154.12999199999919
 30
0.0
 11
-144.9316660000004
 21
154.8831909999999
 31
0.0
  0
LINE
  5
6FB
  8
DETAIL
  6
CONTINUOUS
 62
     5
 10
-143.28344399999969
 20
153.6598199999998
 30
0.0
 11
-144.16007300000001
 21
154.12999199999919
 31
0.0
  0
LINE
  5
6FC
  8
DETAIL
  6
CONTINUOUS
 62
     5
 10
-142.35272400000031
 20
153.5
 30
0.0
 11
-143.28344399999969
 21
153.6598199999998
 31
0.0
  0
LINE
  5
6FD
  8
DETAIL
  6
CONTINUOUS
 62
     5
 10
-187.1828409999998
 20
134.0
 30
0.0
 11
-190.43598499999999
 21
134.0
 31
0.0
  0
LINE
  5
6FE
  8
DETAIL
  6
CONTINUOUS
 62
     5
 10
-102.6932930000002
 20
130.48304399999961
 30
0.0
 11
-99.299999703992441
 21
130.48304399999961
 31
0.0
  0
LINE
  5
6FF
  8
DETAIL
  6
CONTINUOUS
 62
     5
 10
-102.6932930000002
 20
129.88304399999919
 30
0.0
 11
-99.299999703992441
 21
129.8830439999991
 31
0.0
  0
LINE
  5
702
  8
DETAIL
  6
CONTINUOUS
 62
     5
 10
-129.98017199999961
 20
208.9938939999993
 30
0.0
 11
-131.28978900000041
 21
209.93245399999981
 31
0.0
  0
LINE
  5
703
  8
DETAIL
  6
CONTINUOUS
 62
     5
 10
-145.06391100000019
 20
219.1599999999998
 30
0.0
 11
-145.9654529999998
 21
219.806106
 31
0.0
  0
LINE
  5
704
  8
DETAIL
  6
CONTINUOUS
 62
     5
 10
-186.91051799999971
 20
61.545824999999247
 30
0.0
 11
-186.1933440000002
 21
61.399999999999643
 31
0.0
  0
LINE
  5
705
  8
DETAIL
  6
CONTINUOUS
 62
     5
 10
-187.5695910000004
 20
61.971486999999797
 30
0.0
 11
-186.91051799999971
 21
61.545824999999247
 31
0.0
  0
LINE
  5
706
  8
DETAIL
  6
CONTINUOUS
 62
     5
 10
-188.1171690000001
 20
62.642500999999349
 30
0.0
 11
-187.5695910000004
 21
61.971486999999797
 31
0.0
  0
LINE
  5
707
  8
DETAIL
  6
CONTINUOUS
 62
     5
 10
-188.50889000000001
 20
63.50450599999931
 30
0.0
 11
-188.1171690000001
 21
62.642500999999349
 31
0.0
  0
LINE
  5
708
  8
DETAIL
  6
CONTINUOUS
 62
     5
 10
-188.7130189999998
 20
64.48766599999999
 30
0.0
 11
-188.50889000000001
 21
63.50450599999931
 31
0.0
  0
LINE
  5
709
  8
DETAIL
  6
CONTINUOUS
 62
     5
 10
-188.7130189999998
 20
65.512332999999671
 30
0.0
 11
-188.7130189999998
 21
64.48766599999999
 31
0.0
  0
LINE
  5
70A
  8
DETAIL
  6
CONTINUOUS
 62
     5
 10
-188.50889000000001
 20
66.49549399999978
 30
0.0
 11
-188.7130189999998
 21
65.512332999999671
 31
0.0
  0
LINE
  5
70B
  8
DETAIL
  6
CONTINUOUS
 62
     5
 10
-188.1171690000001
 20
67.35749899999972
 30
0.0
 11
-188.50889000000001
 21
66.49549399999978
 31
0.0
  0
LINE
  5
70C
  8
DETAIL
  6
CONTINUOUS
 62
     5
 10
-187.5695910000004
 20
68.028512999999279
 30
0.0
 11
-188.1171690000001
 21
67.35749899999972
 31
0.0
  0
LINE
  5
70D
  8
DETAIL
  6
CONTINUOUS
 62
     5
 10
-186.91051799999971
 20
68.45417499999985
 30
0.0
 11
-187.5695910000004
 21
68.028512999999279
 31
0.0
  0
LINE
  5
70E
  8
DETAIL
  6
CONTINUOUS
 62
     5
 10
-186.1933440000002
 20
68.599999999999454
 30
0.0
 11
-186.91051799999971
 21
68.45417499999985
 31
0.0
  0
LINE
  5
70F
  8
DETAIL
  6
CONTINUOUS
 62
     5
 10
-121.87800200000039
 20
220.1446649999998
 30
0.0
 11
-122.0924379999996
 21
220.15948399999979
 31
0.0
  0
LINE
  5
710
  8
DETAIL
  6
CONTINUOUS
 62
     5
 10
-121.0563320000001
 20
219.79362999999921
 30
0.0
 11
-121.87800200000039
 21
220.1446649999998
 31
0.0
  0
LINE
  5
711
  8
DETAIL
  6
CONTINUOUS
 62
     5
 10
-120.4631900000004
 20
219.1599999999998
 30
0.0
 11
-121.0563320000001
 21
219.79362999999921
 31
0.0
  0
LINE
  5
712
  8
DETAIL
  6
CONTINUOUS
 62
     5
 10
-194.10256799999999
 20
136.98133499999949
 30
0.0
 11
-194.52908500000009
 21
138.421053
 31
0.0
  0
LINE
  5
713
  8
DETAIL
  6
CONTINUOUS
 62
     5
 10
-193.42788399999969
 20
135.74593299999921
 30
0.0
 11
-194.10256799999999
 21
136.98133499999949
 31
0.0
  0
LINE
  5
714
  8
DETAIL
  6
CONTINUOUS
 62
     5
 10
-192.55069599999999
 20
134.79846199999969
 30
0.0
 11
-193.42788399999969
 21
135.74593299999921
 31
0.0
  0
LINE
  5
715
  8
DETAIL
  6
CONTINUOUS
 62
     5
 10
-191.53037699999999
 20
134.2030509999995
 30
0.0
 11
-192.55069599999999
 21
134.79846199999969
 31
0.0
  0
LINE
  5
716
  8
DETAIL
  6
CONTINUOUS
 62
     5
 10
-190.43598499999999
 20
134.0
 30
0.0
 11
-191.53037699999999
 21
134.2030509999995
 31
0.0
  0
LINE
  5
717
  8
DETAIL
  6
CONTINUOUS
 62
     5
 10
-102.6932930000002
 20
95.183043999999427
 30
0.0
 11
-97.300000000000196
 21
95.183043999999413
 31
0.0
  0
LINE
  5
718
  8
DETAIL
  6
CONTINUOUS
 62
     5
 10
-101.10329299999999
 20
85.183043999999413
 30
0.0
 11
-97.300000000000196
 21
85.183043999999413
 31
0.0
  0
LINE
  5
719
  8
DETAIL
  6
CONTINUOUS
 62
     5
 10
-184.8170979999995
 20
61.971486999999797
 30
0.0
 11
-184.29387899999981
 21
62.612650999999452
 31
0.0
  0
LINE
  5
71A
  8
DETAIL
  6
CONTINUOUS
 62
     5
 10
-185.47616999999991
 20
61.545824999999247
 30
0.0
 11
-184.8170979999995
 21
61.971486999999797
 31
0.0
  0
LINE
  5
71B
  8
DETAIL
  6
CONTINUOUS
 62
     5
 10
-186.1933440000002
 20
61.399999999999643
 30
0.0
 11
-185.47616999999991
 21
61.545824999999247
 31
0.0
  0
LINE
  5
71C
  8
DETAIL
  6
CONTINUOUS
 62
     5
 10
-146.77214100000029
 20
36.04070799999954
 30
0.0
 11
-140.4081800000003
 21
41.236859999999979
 31
0.0
  0
LINE
  5
71D
  8
DETAIL
  6
CONTINUOUS
 62
     5
 10
-147.78832700000021
 20
212.7436289999996
 30
0.0
 11
-147.9350119999998
 21
214.067959
 31
0.0
  0
LINE
  5
71E
  8
DETAIL
  6
CONTINUOUS
 62
     5
 10
-147.45615100000029
 20
211.55348799999959
 30
0.0
 11
-147.78832700000021
 21
212.7436289999996
 31
0.0
  0
LINE
  5
71F
  8
DETAIL
  6
CONTINUOUS
 62
     5
 10
-146.9653930000004
 20
210.593954
 30
0.0
 11
-147.45615100000029
 21
211.55348799999959
 31
0.0
  0
LINE
  5
720
  8
DETAIL
  6
CONTINUOUS
 62
     5
 10
-146.35581199999979
 20
209.94276399999941
 30
0.0
 11
-146.9653930000004
 21
210.593954
 31
0.0
  0
LINE
  5
721
  8
DETAIL
  6
CONTINUOUS
 62
     5
 10
-131.7308780000003
 20
212.3956519999993
 30
0.0
 11
-131.90837900000039
 21
213.9982030000001
 31
0.0
  0
LINE
  5
722
  8
DETAIL
  6
CONTINUOUS
 62
     5
 10
-131.32891699999979
 20
210.95548099999999
 30
0.0
 11
-131.7308780000003
 21
212.3956519999993
 31
0.0
  0
LINE
  5
723
  8
DETAIL
  6
CONTINUOUS
 62
     5
 10
-130.73505800000021
 20
209.79436499999969
 30
0.0
 11
-131.32891699999979
 21
210.95548099999999
 31
0.0
  0
LINE
  5
724
  8
DETAIL
  6
CONTINUOUS
 62
     5
 10
-129.98017199999961
 20
208.9938939999993
 30
0.0
 11
-130.73505800000021
 21
209.79436499999969
 31
0.0
  0
LINE
  5
725
  8
DETAIL
  6
CONTINUOUS
 62
     5
 10
-132.73655400000001
 20
212.7436289999996
 30
0.0
 11
-132.88323800000029
 21
214.067959
 31
0.0
  0
LINE
  5
726
  8
DETAIL
  6
CONTINUOUS
 62
     5
 10
-132.40437699999981
 20
211.55348799999959
 30
0.0
 11
-132.73655400000001
 21
212.7436289999996
 31
0.0
  0
LINE
  5
727
  8
DETAIL
  6
CONTINUOUS
 62
     5
 10
-131.9136189999999
 20
210.593954
 30
0.0
 11
-132.40437699999981
 21
211.55348799999959
 31
0.0
  0
LINE
  5
728
  8
DETAIL
  6
CONTINUOUS
 62
     5
 10
-131.28978900000041
 20
209.93245399999981
 30
0.0
 11
-131.9136189999999
 21
210.593954
 31
0.0
  0
LINE
  5
729
  8
DETAIL
  6
CONTINUOUS
 62
     5
 10
-186.1933440000002
 20
71.0
 30
0.0
 11
-190.43598499999999
 21
71.0
 31
0.0
  0
LINE
  5
72A
  8
DETAIL
  6
CONTINUOUS
 62
     5
 10
-167.8311219999996
 20
39.263402999999919
 30
0.0
 11
-167.68290799999971
 21
39.5
 31
0.0
  0
LINE
  5
72B
  8
DETAIL
  6
CONTINUOUS
 62
     5
 10
-169.09372900000011
 20
38.030895999999302
 30
0.0
 11
-167.8311219999996
 21
39.263402999999919
 31
0.0
  0
LINE
  5
72C
  8
DETAIL
  6
CONTINUOUS
 62
     5
 10
-170.5282129999996
 20
37.261523999999561
 30
0.0
 11
-169.09372900000011
 21
38.030895999999302
 31
0.0
  0
LINE
  5
72D
  8
DETAIL
  6
CONTINUOUS
 62
     5
 10
-172.0512090000002
 20
37.0
 30
0.0
 11
-170.5282129999996
 21
37.261523999999561
 31
0.0
  0
LINE
  5
72E
  8
DETAIL
  6
CONTINUOUS
 62
     5
 10
-140.54537499999969
 20
41.129991999999213
 30
0.0
 11
-140.4089629999998
 21
41.236376999999258
 31
0.0
  0
LINE
  5
72F
  8
DETAIL
  6
CONTINUOUS
 62
     5
 10
-141.4220050000003
 20
40.659819999999847
 30
0.0
 11
-140.54537499999969
 21
41.129991999999213
 31
0.0
  0
LINE
  5
730
  8
DETAIL
  6
CONTINUOUS
 62
     5
 10
-142.35272400000031
 20
40.499999999999993
 30
0.0
 11
-141.4220050000003
 21
40.659819999999847
 31
0.0
  0
LINE
  5
731
  8
DETAIL
  6
CONTINUOUS
 62
     5
 10
-186.91051799999971
 20
23.54582499999924
 30
0.0
 11
-186.1933440000002
 21
23.39999999999964
 31
0.0
  0
LINE
  5
732
  8
DETAIL
  6
CONTINUOUS
 62
     5
 10
-187.5695910000004
 20
23.971486999999801
 30
0.0
 11
-186.91051799999971
 21
23.54582499999924
 31
0.0
  0
LINE
  5
733
  8
DETAIL
  6
CONTINUOUS
 62
     5
 10
-188.1171690000001
 20
24.64250099999936
 30
0.0
 11
-187.5695910000004
 21
23.971486999999801
 31
0.0
  0
LINE
  5
734
  8
DETAIL
  6
CONTINUOUS
 62
     5
 10
-188.50889000000001
 20
25.50450599999931
 30
0.0
 11
-188.1171690000001
 21
24.64250099999936
 31
0.0
  0
LINE
  5
735
  8
DETAIL
  6
CONTINUOUS
 62
     5
 10
-188.7130189999998
 20
26.48766599999999
 30
0.0
 11
-188.50889000000001
 21
25.50450599999931
 31
0.0
  0
LINE
  5
736
  8
DETAIL
  6
CONTINUOUS
 62
     5
 10
-188.7130189999998
 20
27.512332999999671
 30
0.0
 11
-188.7130189999998
 21
26.48766599999999
 31
0.0
  0
LINE
  5
737
  8
DETAIL
  6
CONTINUOUS
 62
     5
 10
-188.50889000000001
 20
28.49549399999978
 30
0.0
 11
-188.7130189999998
 21
27.512332999999671
 31
0.0
  0
LINE
  5
738
  8
DETAIL
  6
CONTINUOUS
 62
     5
 10
-188.1171690000001
 20
29.357498999999741
 30
0.0
 11
-188.50889000000001
 21
28.49549399999978
 31
0.0
  0
LINE
  5
739
  8
DETAIL
  6
CONTINUOUS
 62
     5
 10
-187.5695910000004
 20
30.02851299999929
 30
0.0
 11
-188.1171690000001
 21
29.357498999999741
 31
0.0
  0
LINE
  5
73A
  8
DETAIL
  6
CONTINUOUS
 62
     5
 10
-186.91051799999971
 20
30.45417499999985
 30
0.0
 11
-187.5695910000004
 21
30.02851299999929
 31
0.0
  0
LINE
  5
73B
  8
DETAIL
  6
CONTINUOUS
 62
     5
 10
-186.1933440000002
 20
30.599999999999451
 30
0.0
 11
-186.91051799999971
 21
30.45417499999985
 31
0.0
  0
LINE
  5
73C
  8
DETAIL
  6
CONTINUOUS
 62
     5
 10
-185.47616999999991
 20
30.45417499999985
 30
0.0
 11
-186.1933440000002
 21
30.599999999999451
 31
0.0
  0
LINE
  5
73D
  8
DETAIL
  6
CONTINUOUS
 62
     5
 10
-184.8170979999995
 20
30.02851299999929
 30
0.0
 11
-185.47616999999991
 21
30.45417499999985
 31
0.0
  0
LINE
  5
73E
  8
DETAIL
  6
CONTINUOUS
 62
     5
 10
-184.2695199999998
 20
29.357498999999741
 30
0.0
 11
-184.8170979999995
 21
30.02851299999929
 31
0.0
  0
LINE
  5
73F
  8
DETAIL
  6
CONTINUOUS
 62
     5
 10
-183.87779899999981
 20
28.49549399999978
 30
0.0
 11
-184.2695199999998
 21
29.357498999999741
 31
0.0
  0
LINE
  5
740
  8
DETAIL
  6
CONTINUOUS
 62
     5
 10
-183.6736700000001
 20
27.512332999999671
 30
0.0
 11
-183.87779899999981
 21
28.49549399999978
 31
0.0
  0
LINE
  5
741
  8
DETAIL
  6
CONTINUOUS
 62
     5
 10
-183.6736700000001
 20
26.48766599999999
 30
0.0
 11
-183.6736700000001
 21
27.512332999999671
 31
0.0
  0
LINE
  5
742
  8
DETAIL
  6
CONTINUOUS
 62
     5
 10
-183.87779899999981
 20
25.50450599999931
 30
0.0
 11
-183.6736700000001
 21
26.48766599999999
 31
0.0
  0
LINE
  5
743
  8
DETAIL
  6
CONTINUOUS
 62
     5
 10
-184.2695199999998
 20
24.64250099999936
 30
0.0
 11
-183.87779899999981
 21
25.50450599999931
 31
0.0
  0
LINE
  5
744
  8
DETAIL
  6
CONTINUOUS
 62
     5
 10
-184.8170979999995
 20
23.971486999999801
 30
0.0
 11
-184.2695199999998
 21
24.64250099999936
 31
0.0
  0
LINE
  5
745
  8
DETAIL
  6
CONTINUOUS
 62
     5
 10
-185.47616999999991
 20
23.54582499999924
 30
0.0
 11
-184.8170979999995
 21
23.971486999999801
 31
0.0
  0
LINE
  5
746
  8
DETAIL
  6
CONTINUOUS
 62
     5
 10
-186.1933440000002
 20
23.39999999999964
 30
0.0
 11
-185.47616999999991
 21
23.54582499999924
 31
0.0
  0
LINE
  5
747
  8
DETAIL
  6
CONTINUOUS
 62
     5
 10
-176.57948399999981
 20
56.06689599999936
 30
0.0
 11
-176.67991100000009
 21
56.234590999999448
 31
0.0
  0
LINE
  5
748
  8
DETAIL
  6
CONTINUOUS
 62
     5
 10
-176.1678169999995
 20
55.786814999999478
 30
0.0
 11
-176.57948399999981
 21
56.06689599999936
 31
0.0
  0
LINE
  5
749
  8
DETAIL
  6
CONTINUOUS
 62
     5
 10
-175.51690799999929
 20
55.642582999999831
 30
0.0
 11
-176.1678169999995
 21
55.786814999999478
 31
0.0
  0
LINE
  5
74A
  8
DETAIL
  6
CONTINUOUS
 62
     5
 10
-174.66458500000039
 20
55.642582999999831
 30
0.0
 11
-175.51690799999929
 21
55.642582999999831
 31
0.0
  0
LINE
  5
74B
  8
DETAIL
  6
CONTINUOUS
 62
     5
 10
-173.660382
 20
55.786814999999478
 30
0.0
 11
-174.66458500000039
 21
55.642582999999831
 31
0.0
  0
LINE
  5
74C
  8
DETAIL
  6
CONTINUOUS
 62
     5
 10
-172.5626599999996
 20
56.06689599999936
 30
0.0
 11
-173.660382
 21
55.786814999999478
 31
0.0
  0
LINE
  5
74D
  8
DETAIL
  6
CONTINUOUS
 62
     5
 10
-171.435214
 20
56.466548999999759
 30
0.0
 11
-172.5626599999996
 21
56.06689599999936
 31
0.0
  0
LINE
  5
74E
  8
DETAIL
  6
CONTINUOUS
 62
     5
 10
-170.34356699999981
 20
56.962547999999522
 30
0.0
 11
-171.435214
 21
56.466548999999759
 31
0.0
  0
LINE
  5
74F
  8
DETAIL
  6
CONTINUOUS
 62
     5
 10
-169.3511630000003
 20
57.526065999999439
 30
0.0
 11
-170.34356699999981
 21
56.962547999999522
 31
0.0
  0
LINE
  5
750
  8
DETAIL
  6
CONTINUOUS
 62
     5
 10
-168.51567499999959
 20
58.124355999999352
 30
0.0
 11
-169.3511630000003
 21
57.526065999999439
 31
0.0
  0
LINE
  5
751
  8
DETAIL
  6
CONTINUOUS
 62
     5
 10
-175.90024299999999
 20
56.375514999999723
 30
0.0
 11
-175.98560600000019
 21
56.518055999999881
 31
0.0
  0
LINE
  5
752
  8
DETAIL
  6
CONTINUOUS
 62
     5
 10
-175.5503260000005
 20
56.137445999999713
 30
0.0
 11
-175.90024299999999
 21
56.375514999999723
 31
0.0
  0
LINE
  5
753
  8
DETAIL
  6
CONTINUOUS
 62
     5
 10
-174.99705299999999
 20
56.01484900000014
 30
0.0
 11
-175.5503260000005
 21
56.137445999999713
 31
0.0
  0
LINE
  5
754
  8
DETAIL
  6
CONTINUOUS
 62
     5
 10
-174.27257900000041
 20
56.01484900000014
 30
0.0
 11
-174.99705299999999
 21
56.01484900000014
 31
0.0
  0
LINE
  5
755
  8
DETAIL
  6
CONTINUOUS
 62
     5
 10
-173.41900600000011
 20
56.137445999999713
 30
0.0
 11
-174.27257900000041
 21
56.01484900000014
 31
0.0
  0
LINE
  5
756
  8
DETAIL
  6
CONTINUOUS
 62
     5
 10
-172.48594200000019
 20
56.375514999999723
 30
0.0
 11
-173.41900600000011
 21
56.137445999999713
 31
0.0
  0
LINE
  5
757
  8
DETAIL
  6
CONTINUOUS
 62
     5
 10
-171.5276130000002
 20
56.715220000000031
 30
0.0
 11
-172.48594200000019
 21
56.375514999999723
 31
0.0
  0
LINE
  5
758
  8
DETAIL
  6
CONTINUOUS
 62
     5
 10
-170.59971399999981
 20
57.13681899999937
 30
0.0
 11
-171.5276130000002
 21
56.715220000000031
 31
0.0
  0
LINE
  5
759
  8
DETAIL
  6
CONTINUOUS
 62
     5
 10
-169.7561699999996
 20
57.615809999999328
 30
0.0
 11
-170.59971399999981
 21
57.13681899999937
 31
0.0
  0
LINE
  5
75A
  8
DETAIL
  6
CONTINUOUS
 62
     5
 10
-169.04600500000009
 20
58.124355999999352
 30
0.0
 11
-169.7561699999996
 21
57.615809999999328
 31
0.0
  0
LINE
  5
75B
  8
DETAIL
  6
CONTINUOUS
 62
     5
 10
-139.77378200000021
 20
50.116809000000103
 30
0.0
 11
-140.4089629999998
 21
50.763622999999811
 31
0.0
  0
LINE
  5
75C
  8
DETAIL
  6
CONTINUOUS
 62
     5
 10
-139.1520680000003
 20
49.124355999999352
 30
0.0
 11
-139.77378200000021
 21
50.116809000000103
 31
0.0
  0
LINE
  5
75D
  8
DETAIL
  6
CONTINUOUS
 62
     5
 10
-138.71636399999991
 20
47.950326999999561
 30
0.0
 11
-139.1520680000003
 21
49.124355999999352
 31
0.0
  0
LINE
  5
75E
  8
DETAIL
  6
CONTINUOUS
 62
     5
 10
-138.49199299999961
 20
46.66295199999967
 30
0.0
 11
-138.71636399999991
 21
47.950326999999561
 31
0.0
  0
LINE
  5
75F
  8
DETAIL
  6
CONTINUOUS
 62
     5
 10
-138.49199299999961
 20
45.337047999999413
 30
0.0
 11
-138.49199299999961
 21
46.66295199999967
 31
0.0
  0
LINE
  5
760
  8
DETAIL
  6
CONTINUOUS
 62
     5
 10
-138.71636399999991
 20
44.049672999999522
 30
0.0
 11
-138.49199299999961
 21
45.337047999999413
 31
0.0
  0
LINE
  5
761
  8
DETAIL
  6
CONTINUOUS
 62
     5
 10
-139.1520680000003
 20
42.875643999999731
 30
0.0
 11
-138.71636399999991
 21
44.049672999999522
 31
0.0
  0
LINE
  5
762
  8
DETAIL
  6
CONTINUOUS
 62
     5
 10
-139.77378200000021
 20
41.88319099999989
 30
0.0
 11
-139.1520680000003
 21
42.875643999999731
 31
0.0
  0
LINE
  5
763
  8
DETAIL
  6
CONTINUOUS
 62
     5
 10
-140.4089629999998
 20
41.236376999999258
 30
0.0
 11
-139.77378200000021
 21
41.88319099999989
 31
0.0
  0
LINE
  5
764
  8
DETAIL
  6
CONTINUOUS
 62
     5
 10
-102.1432930000001
 20
175.1830439999994
 30
0.0
 11
-101.8772669999998
 21
174.72227399999969
 31
0.0
  0
LINE
  5
765
  8
DETAIL
  6
CONTINUOUS
 62
     5
 10
-146.77214100000029
 20
168.95929199999941
 30
0.0
 11
-140.4081800000003
 21
163.76313999999999
 31
0.0
  0
LINE
  5
766
  8
DETAIL
  6
CONTINUOUS
 62
     5
 10
-141.4220050000003
 20
164.34017999999921
 30
0.0
 11
-142.35272400000031
 21
164.5
 31
0.0
  0
LINE
  5
767
  8
DETAIL
  6
CONTINUOUS
 62
     5
 10
-140.54537499999969
 20
163.87000799999981
 30
0.0
 11
-141.4220050000003
 21
164.34017999999921
 31
0.0
  0
LINE
  5
768
  8
DETAIL
  6
CONTINUOUS
 62
     5
 10
-140.4089629999998
 20
163.7636229999998
 30
0.0
 11
-140.54537499999969
 21
163.87000799999981
 31
0.0
  0
LINE
  5
769
  8
DETAIL
  6
CONTINUOUS
 62
     5
 10
-186.1933440000002
 20
55.0
 30
0.0
 11
-176.17631299999991
 21
55.0
 31
0.0
  0
LINE
  5
76A
  8
DETAIL
  6
CONTINUOUS
 62
     5
 10
-182.1242570000004
 20
52.5
 30
0.0
 11
-188.3507769999996
 21
52.5
 31
0.0
  0
LINE
  5
76B
  8
DETAIL
  6
CONTINUOUS
 62
     5
 10
-187.2811089999995
 20
134.09296599999919
 30
0.0
 11
-187.99054899999999
 21
134.95836899999981
 31
0.0
  0
LINE
  5
76C
  8
DETAIL
  6
CONTINUOUS
 62
     5
 10
-186.41222800000011
 20
133.27095800000001
 30
0.0
 11
-187.2811089999995
 21
134.09296599999919
 31
0.0
  0
LINE
  5
76D
  8
DETAIL
  6
CONTINUOUS
 62
     5
 10
-185.42747500000041
 20
132.5335629999999
 30
0.0
 11
-186.41222800000011
 21
133.27095800000001
 31
0.0
  0
LINE
  5
76E
  8
DETAIL
  6
CONTINUOUS
 62
     5
 10
-184.37623099999999
 20
131.91775799999959
 30
0.0
 11
-185.42747500000041
 21
132.5335629999999
 31
0.0
  0
LINE
  5
76F
  8
DETAIL
  6
CONTINUOUS
 62
     5
 10
-183.31120900000039
 20
131.4544229999992
 30
0.0
 11
-184.37623099999999
 21
131.91775799999959
 31
0.0
  0
LINE
  5
770
  8
DETAIL
  6
CONTINUOUS
 62
     5
 10
-182.28581300000039
 20
131.16678999999931
 30
0.0
 11
-183.31120900000039
 21
131.4544229999992
 31
0.0
  0
LINE
  5
771
  8
DETAIL
  6
CONTINUOUS
 62
     5
 10
-181.3514610000002
 20
131.06928199999939
 30
0.0
 11
-182.28581300000039
 21
131.16678999999931
 31
0.0
  0
LINE
  5
772
  8
DETAIL
  6
CONTINUOUS
 62
     5
 10
-180.55500599999959
 20
131.16678999999931
 30
0.0
 11
-181.3514610000002
 21
131.06928199999939
 31
0.0
  0
LINE
  5
773
  8
DETAIL
  6
CONTINUOUS
 62
     5
 10
-180.4393799999998
 20
131.2016299999996
 30
0.0
 11
-180.55500599999959
 21
131.16678999999931
 31
0.0
  0
LINE
  5
774
  8
DETAIL
  6
CONTINUOUS
 62
     5
 10
-175.9409569999998
 20
132.6881999999996
 30
0.0
 11
-180.4387820000002
 21
131.20173799999969
 31
0.0
  0
LINE
  5
775
  8
DETAIL
  6
CONTINUOUS
 62
     5
 10
-184.26283100000001
 20
73.73026699999987
 30
0.0
 11
-184.24825200000021
 21
73.828125
 31
0.0
  0
LINE
  5
776
  8
DETAIL
  6
CONTINUOUS
 62
     5
 10
-184.1803289999998
 20
73.2948269999997
 30
0.0
 11
-184.26283100000001
 21
73.73026699999987
 31
0.0
  0
LINE
  5
777
  8
DETAIL
  6
CONTINUOUS
 62
     5
 10
-183.84419499999959
 20
72.967198999999695
 30
0.0
 11
-184.1803289999998
 21
73.2948269999997
 31
0.0
  0
LINE
  5
778
  8
DETAIL
  6
CONTINUOUS
 62
     5
 10
-183.27128400000041
 20
72.763811999999234
 30
0.0
 11
-183.84419499999959
 21
72.967198999999695
 31
0.0
  0
LINE
  5
779
  8
DETAIL
  6
CONTINUOUS
 62
     5
 10
-182.4903249999997
 20
72.694864000000052
 30
0.0
 11
-183.27128400000041
 21
72.763811999999234
 31
0.0
  0
LINE
  5
77A
  8
DETAIL
  6
CONTINUOUS
 62
     5
 10
-181.54047799999989
 20
72.763811999999234
 30
0.0
 11
-182.4903249999997
 21
72.694864000000052
 31
0.0
  0
LINE
  5
77B
  8
DETAIL
  6
CONTINUOUS
 62
     5
 10
-180.46937199999951
 20
72.967198999999695
 30
0.0
 11
-181.54047799999989
 21
72.763811999999234
 31
0.0
  0
LINE
  5
77C
  8
DETAIL
  6
CONTINUOUS
 62
     5
 10
-179.33071699999979
 20
73.2948269999997
 30
0.0
 11
-180.46937199999951
 21
72.967198999999695
 31
0.0
  0
LINE
  5
77D
  8
DETAIL
  6
CONTINUOUS
 62
     5
 10
-178.18160999999961
 20
73.73026699999987
 30
0.0
 11
-179.33071699999979
 21
73.2948269999997
 31
0.0
  0
LINE
  5
77E
  8
DETAIL
  6
CONTINUOUS
 62
     5
 10
-177.07967199999979
 20
74.251682999999502
 30
0.0
 11
-178.18160999999961
 21
73.73026699999987
 31
0.0
  0
LINE
  5
77F
  8
DETAIL
  6
CONTINUOUS
 62
     5
 10
-176.0801579999997
 20
74.832930999999903
 30
0.0
 11
-177.07967199999979
 21
74.251682999999502
 31
0.0
  0
LINE
  5
780
  8
DETAIL
  6
CONTINUOUS
 62
     5
 10
-175.23318900000041
 20
75.444864000000052
 30
0.0
 11
-176.0801579999997
 21
74.832930999999903
 31
0.0
  0
LINE
  5
781
  8
DETAIL
  6
CONTINUOUS
 62
     5
 10
-189.8599279999998
 20
136.98133499999949
 30
0.0
 11
-190.2864440000003
 21
138.421053
 31
0.0
  0
LINE
  5
782
  8
DETAIL
  6
CONTINUOUS
 62
     5
 10
-189.1852429999999
 20
135.74593299999921
 30
0.0
 11
-189.8599279999998
 21
136.98133499999949
 31
0.0
  0
LINE
  5
783
  8
DETAIL
  6
CONTINUOUS
 62
     5
 10
-188.30805599999971
 20
134.79846199999969
 30
0.0
 11
-189.1852429999999
 21
135.74593299999921
 31
0.0
  0
LINE
  5
784
  8
DETAIL
  6
CONTINUOUS
 62
     5
 10
-187.44804199999999
 20
134.2965979999999
 30
0.0
 11
-188.30805599999971
 21
134.79846199999969
 31
0.0
  0
LINE
  5
785
  8
DETAIL
  6
CONTINUOUS
 62
     5
 10
-185.09895299999951
 20
70.796947999999233
 30
0.0
 11
-184.87247099999971
 21
70.664783999999585
 31
0.0
  0
LINE
  5
786
  8
DETAIL
  6
CONTINUOUS
 62
     5
 10
-186.1933440000002
 20
71.0
 30
0.0
 11
-185.09895299999951
 21
70.796947999999233
 31
0.0
  0
LINE
  5
787
  8
DETAIL
  6
CONTINUOUS
 62
     5
 10
-172.0512090000002
 20
39.5
 30
0.0
 11
-165.3522769999999
 21
39.5
 31
0.0
  0
LINE
  5
788
  8
DETAIL
  6
CONTINUOUS
 62
     5
 10
-182.1241159999999
 20
39.5
 30
0.0
 11
-188.3507769999996
 21
39.5
 31
0.0
  0
LINE
  5
789
  8
DETAIL
  6
CONTINUOUS
 62
     5
 10
-186.1933440000002
 20
37.0
 30
0.0
 11
-172.0512090000002
 21
37.0
 31
0.0
  0
LINE
  5
78A
  8
DETAIL
  6
CONTINUOUS
 62
     5
 10
-174.06422399999971
 20
77.594900000000052
 30
0.0
 11
-174.33001299999981
 21
77.877955999999344
 31
0.0
  0
LINE
  5
78B
  8
DETAIL
  6
CONTINUOUS
 62
     5
 10
-173.98172200000039
 20
77.159460999999283
 30
0.0
 11
-174.06422399999971
 21
77.594900000000052
 31
0.0
  0
LINE
  5
78C
  8
DETAIL
  6
CONTINUOUS
 62
     5
 10
-174.15698900000001
 20
76.63804399999934
 30
0.0
 11
-173.98172200000039
 21
77.159460999999283
 31
0.0
  0
LINE
  5
78D
  8
DETAIL
  6
CONTINUOUS
 62
     5
 10
-174.58123599999999
 20
76.056795999999864
 30
0.0
 11
-174.15698900000001
 21
76.63804399999934
 31
0.0
  0
LINE
  5
78E
  8
DETAIL
  6
CONTINUOUS
 62
     5
 10
-175.23318900000041
 20
75.444864000000052
 30
0.0
 11
-174.58123599999999
 21
76.056795999999864
 31
0.0
  0
LINE
  5
78F
  8
DETAIL
  6
CONTINUOUS
 62
     5
 10
-167.37443400000029
 20
59.782161999999524
 30
0.0
 11
-167.42250700000019
 21
60.014119999999821
 31
0.0
  0
LINE
  5
790
  8
DETAIL
  6
CONTINUOUS
 62
     5
 10
-167.49773100000041
 20
59.28616299999976
 30
0.0
 11
-167.37443400000029
 21
59.782161999999524
 31
0.0
  0
LINE
  5
791
  8
DETAIL
  6
CONTINUOUS
 62
     5
 10
-167.8856599999998
 20
58.722644999999829
 30
0.0
 11
-167.49773100000041
 21
59.28616299999976
 31
0.0
  0
LINE
  5
792
  8
DETAIL
  6
CONTINUOUS
 62
     5
 10
-168.51567499999959
 20
58.124355999999352
 30
0.0
 11
-167.8856599999998
 21
58.722644999999829
 31
0.0
  0
LINE
  5
793
  8
DETAIL
  6
CONTINUOUS
 62
     5
 10
-168.0759500000004
 20
59.533490999999231
 30
0.0
 11
-168.11681200000021
 21
59.730654999999381
 31
0.0
  0
LINE
  5
794
  8
DETAIL
  6
CONTINUOUS
 62
     5
 10
-168.18075200000021
 20
59.111891999999898
 30
0.0
 11
-168.0759500000004
 21
59.533490999999231
 31
0.0
  0
LINE
  5
795
  8
DETAIL
  6
CONTINUOUS
 62
     5
 10
-168.51049200000031
 20
58.632900999999933
 30
0.0
 11
-168.18075200000021
 21
59.111891999999898
 31
0.0
  0
LINE
  5
796
  8
DETAIL
  6
CONTINUOUS
 62
     5
 10
-169.04600500000009
 20
58.124355999999352
 30
0.0
 11
-168.51049200000031
 21
58.632900999999933
 31
0.0
  0
LINE
  5
79A
  8
DETAIL
  6
CONTINUOUS
 62
     5
 10
-102.6932930000002
 20
95.183043999999427
 30
0.0
 11
-101.10329299999999
 21
85.183043999999413
 31
0.0
  0
LINE
  5
79B
  8
DETAIL
  6
CONTINUOUS
 62
     5
 10
-175.3012090000002
 20
50.596193999999741
 30
0.0
 11
-174.66175500000011
 21
51.290105999999447
 31
0.0
  0
LINE
  5
79C
  8
DETAIL
  6
CONTINUOUS
 62
     5
 10
-176.0316300000004
 20
49.25
 30
0.0
 11
-175.3012090000002
 21
50.596193999999741
 31
0.0
  0
LINE
  5
79D
  8
DETAIL
  6
CONTINUOUS
 62
     5
 10
-176.4907910000002
 20
47.682323999999397
 30
0.0
 11
-176.0316300000004
 21
49.25
 31
0.0
  0
LINE
  5
79E
  8
DETAIL
  6
CONTINUOUS
 62
     5
 10
-176.64740299999991
 20
46.0
 30
0.0
 11
-176.4907910000002
 21
47.682323999999397
 31
0.0
  0
LINE
  5
79F
  8
DETAIL
  6
CONTINUOUS
 62
     5
 10
-176.4907910000002
 20
44.317675999999651
 30
0.0
 11
-176.64740299999991
 21
46.0
 31
0.0
  0
LINE
  5
7A0
  8
DETAIL
  6
CONTINUOUS
 62
     5
 10
-176.0316300000004
 20
42.75
 30
0.0
 11
-176.4907910000002
 21
44.317675999999651
 31
0.0
  0
LINE
  5
7A1
  8
DETAIL
  6
CONTINUOUS
 62
     5
 10
-175.3012090000002
 20
41.403805999999349
 30
0.0
 11
-176.0316300000004
 21
42.75
 31
0.0
  0
LINE
  5
7A2
  8
DETAIL
  6
CONTINUOUS
 62
     5
 10
-174.34930600000001
 20
40.370834999999722
 30
0.0
 11
-175.3012090000002
 21
41.403805999999349
 31
0.0
  0
LINE
  5
7A3
  8
DETAIL
  6
CONTINUOUS
 62
     5
 10
-173.2407910000002
 20
39.721481999999916
 30
0.0
 11
-174.34930600000001
 21
40.370834999999722
 31
0.0
  0
LINE
  5
7A4
  8
DETAIL
  6
CONTINUOUS
 62
     5
 10
-172.0512090000002
 20
39.5
 30
0.0
 11
-173.2407910000002
 21
39.721481999999916
 31
0.0
  0
LINE
  5
7A5
  8
DETAIL
  6
CONTINUOUS
 62
     5
 10
-143.28344399999969
 20
51.340180000000153
 30
0.0
 11
-142.35272400000031
 21
51.5
 31
0.0
  0
LINE
  5
7A6
  8
DETAIL
  6
CONTINUOUS
 62
     5
 10
-144.16007300000001
 20
50.870007999999856
 30
0.0
 11
-143.28344399999969
 21
51.340180000000153
 31
0.0
  0
LINE
  5
7A7
  8
DETAIL
  6
CONTINUOUS
 62
     5
 10
-144.9316660000004
 20
50.116809000000103
 30
0.0
 11
-144.16007300000001
 21
50.870007999999856
 31
0.0
  0
LINE
  5
7A8
  8
DETAIL
  6
CONTINUOUS
 62
     5
 10
-145.55338000000029
 20
49.124355999999352
 30
0.0
 11
-144.9316660000004
 21
50.116809000000103
 31
0.0
  0
LINE
  5
7A9
  8
DETAIL
  6
CONTINUOUS
 62
     5
 10
-145.98908399999979
 20
47.950326999999561
 30
0.0
 11
-145.55338000000029
 21
49.124355999999352
 31
0.0
  0
LINE
  5
7AA
  8
DETAIL
  6
CONTINUOUS
 62
     5
 10
-146.21345600000041
 20
46.66295199999967
 30
0.0
 11
-145.98908399999979
 21
47.950326999999561
 31
0.0
  0
LINE
  5
7AB
  8
DETAIL
  6
CONTINUOUS
 62
     5
 10
-146.21345600000041
 20
45.337047999999413
 30
0.0
 11
-146.21345600000041
 21
46.66295199999967
 31
0.0
  0
LINE
  5
7AC
  8
DETAIL
  6
CONTINUOUS
 62
     5
 10
-145.98908399999979
 20
44.049672999999522
 30
0.0
 11
-146.21345600000041
 21
45.337047999999413
 31
0.0
  0
LINE
  5
7AD
  8
DETAIL
  6
CONTINUOUS
 62
     5
 10
-145.55338000000029
 20
42.875643999999731
 30
0.0
 11
-145.98908399999979
 21
44.049672999999522
 31
0.0
  0
LINE
  5
7AE
  8
DETAIL
  6
CONTINUOUS
 62
     5
 10
-144.9316660000004
 20
41.88319099999989
 30
0.0
 11
-145.55338000000029
 21
42.875643999999731
 31
0.0
  0
LINE
  5
7AF
  8
DETAIL
  6
CONTINUOUS
 62
     5
 10
-144.16007300000001
 20
41.129991999999213
 30
0.0
 11
-144.9316660000004
 21
41.88319099999989
 31
0.0
  0
LINE
  5
7B0
  8
DETAIL
  6
CONTINUOUS
 62
     5
 10
-143.28344399999969
 20
40.659819999999847
 30
0.0
 11
-144.16007300000001
 21
41.129991999999213
 31
0.0
  0
LINE
  5
7B1
  8
DETAIL
  6
CONTINUOUS
 62
     5
 10
-142.35272400000031
 20
40.499999999999993
 30
0.0
 11
-143.28344399999969
 21
40.659819999999847
 31
0.0
  0
LINE
  5
7B2
  8
DETAIL
  6
CONTINUOUS
 62
     5
 10
-176.27129599999989
 20
52.73659700000006
 30
0.0
 11
-175.54265699999991
 21
53.447864999999183
 31
0.0
  0
LINE
  5
7B3
  8
DETAIL
  6
CONTINUOUS
 62
     5
 10
-177.288646
 20
51.112582999999169
 30
0.0
 11
-176.27129599999989
 21
52.73659700000006
 31
0.0
  0
LINE
  5
7B4
  8
DETAIL
  6
CONTINUOUS
 62
     5
 10
-178.0016159999995
 20
49.191444000000033
 30
0.0
 11
-177.288646
 21
51.112582999999169
 31
0.0
  0
LINE
  5
7B5
  8
DETAIL
  6
CONTINUOUS
 62
     5
 10
-178.3687689999997
 20
47.084829999999783
 30
0.0
 11
-178.0016159999995
 21
49.191444000000033
 31
0.0
  0
LINE
  5
7B6
  8
DETAIL
  6
CONTINUOUS
 62
     5
 10
-178.3687689999997
 20
44.915169999999279
 30
0.0
 11
-178.3687689999997
 21
47.084829999999783
 31
0.0
  0
LINE
  5
7B7
  8
DETAIL
  6
CONTINUOUS
 62
     5
 10
-178.0016159999995
 20
42.808555999999953
 30
0.0
 11
-178.3687689999997
 21
44.915169999999279
 31
0.0
  0
LINE
  5
7B8
  8
DETAIL
  6
CONTINUOUS
 62
     5
 10
-177.288646
 20
40.887416999999907
 30
0.0
 11
-178.0016159999995
 21
42.808555999999953
 31
0.0
  0
LINE
  5
7B9
  8
DETAIL
  6
CONTINUOUS
 62
     5
 10
-176.27129599999989
 20
39.263402999999919
 30
0.0
 11
-177.288646
 21
40.887416999999907
 31
0.0
  0
LINE
  5
7BA
  8
DETAIL
  6
CONTINUOUS
 62
     5
 10
-175.0086890000002
 20
38.030895999999302
 30
0.0
 11
-176.27129599999989
 21
39.263402999999919
 31
0.0
  0
LINE
  5
7BB
  8
DETAIL
  6
CONTINUOUS
 62
     5
 10
-173.57420400000049
 20
37.261523999999561
 30
0.0
 11
-175.0086890000002
 21
38.030895999999302
 31
0.0
  0
LINE
  5
7BC
  8
DETAIL
  6
CONTINUOUS
 62
     5
 10
-172.0512090000002
 20
37.0
 30
0.0
 11
-173.57420400000049
 21
37.261523999999561
 31
0.0
  0
LINE
  5
7BD
  8
DETAIL
  6
CONTINUOUS
 62
     5
 10
-186.1933440000002
 20
21.0
 30
0.0
 11
-190.43598499999999
 21
21.0
 31
0.0
  0
LINE
  5
7BE
  8
DETAIL
  6
CONTINUOUS
 62
     5
 10
60.956976000000402
 20
13.599999999999451
 30
0.0
 11
67.899999999999636
 21
13.599999999999451
 31
0.0
  0
LINE
  5
7BF
  8
DETAIL
  6
CONTINUOUS
 62
     5
 10
53.300000000000182
 20
12.0
 30
0.0
 11
62.699999999999811
 21
12.0
 31
0.0
  0
LINE
  5
7C7
  8
DETAIL
  6
CONTINUOUS
 62
     5
 10
-101.10329299999999
 20
85.183043999999413
 30
0.0
 11
-101.10329299999999
 21
82.183043999999427
 31
0.0
  0
LINE
  5
7C8
  8
DETAIL
  6
CONTINUOUS
 62
     5
 10
-102.1432930000001
 20
185.1830439999994
 30
0.0
 11
-102.1432930000001
 21
175.1830439999994
 31
0.0
  0
LINE
  5
7C9
  8
DETAIL
  6
CONTINUOUS
 62
     5
 10
-102.6932930000002
 20
129.88304399999919
 30
0.0
 11
-102.6932930000002
 21
95.183043999999427
 31
0.0
  0
LINE
  5
7CA
  8
DETAIL
  6
CONTINUOUS
 62
     5
 10
-102.6932930000002
 20
165.1830439999994
 30
0.0
 11
-102.6932930000002
 21
130.48304399999961
 31
0.0
  0
LINE
  5
7CB
  8
DETAIL
  6
CONTINUOUS
 62
     5
 10
-170.5282129999996
 20
167.73847599999951
 30
0.0
 11
-172.0512090000002
 21
168.0
 31
0.0
  0
LINE
  5
7CC
  8
DETAIL
  6
CONTINUOUS
 62
     5
 10
-169.09372900000011
 20
166.96910399999979
 30
0.0
 11
-170.5282129999996
 21
167.73847599999951
 31
0.0
  0
LINE
  5
7CD
  8
DETAIL
  6
CONTINUOUS
 62
     5
 10
-167.8311219999996
 20
165.73659699999999
 30
0.0
 11
-169.09372900000011
 21
166.96910399999979
 31
0.0
  0
LINE
  5
7CE
  8
DETAIL
  6
CONTINUOUS
 62
     5
 10
-167.68290799999971
 20
165.5
 30
0.0
 11
-167.8311219999996
 21
165.73659699999999
 31
0.0
  0
LINE
  5
7CF
  8
DETAIL
  6
CONTINUOUS
 62
     5
 10
-177.69272000000001
 20
152.40628699999979
 30
0.0
 11
-177.83787099999969
 21
152.2824849999997
 31
0.0
  0
LINE
  5
7D0
  8
DETAIL
  6
CONTINUOUS
 62
     5
 10
-177.00939500000001
 20
152.61026099999981
 30
0.0
 11
-177.69272000000001
 21
152.40628699999979
 31
0.0
  0
LINE
  5
7D1
  8
DETAIL
  6
CONTINUOUS
 62
     5
 10
-176.15707199999991
 20
152.61026099999981
 30
0.0
 11
-177.00939500000001
 21
152.61026099999981
 31
0.0
  0
LINE
  5
7D2
  8
DETAIL
  6
CONTINUOUS
 62
     5
 10
-175.18528400000011
 20
152.40628699999979
 30
0.0
 11
-176.15707199999991
 21
152.61026099999981
 31
0.0
  0
LINE
  5
7D3
  8
DETAIL
  6
CONTINUOUS
 62
     5
 10
-174.150509
 20
152.01019199999971
 30
0.0
 11
-175.18528400000011
 21
152.40628699999979
 31
0.0
  0
LINE
  5
7D4
  8
DETAIL
  6
CONTINUOUS
 62
     5
 10
-173.11288299999981
 20
151.44499799999991
 30
0.0
 11
-174.150509
 21
152.01019199999971
 31
0.0
  0
LINE
  5
7D5
  8
DETAIL
  6
CONTINUOUS
 62
     5
 10
-172.1327099999998
 20
150.7435489999998
 30
0.0
 11
-173.11288299999981
 21
151.44499799999991
 31
0.0
  0
LINE
  5
7D6
  8
DETAIL
  6
CONTINUOUS
 62
     5
 10
-171.26695300000031
 20
149.9466139999995
 30
0.0
 11
-172.1327099999998
 21
150.7435489999998
 31
0.0
  0
LINE
  5
7D7
  8
DETAIL
  6
CONTINUOUS
 62
     5
 10
-170.56592699999959
 20
149.1005049999994
 30
0.0
 11
-171.26695300000031
 21
149.9466139999995
 31
0.0
  0
LINE
  5
7E0
  8
DETAIL
  6
CONTINUOUS
 62
     5
 10
-182.1643949999997
 20
76.056795999999864
 30
0.0
 11
-183.0113639999999
 21
75.444864000000052
 31
0.0
  0
LINE
  5
7E1
  8
DETAIL
  6
CONTINUOUS
 62
     5
 10
-181.16488200000001
 20
76.63804399999934
 30
0.0
 11
-182.1643949999997
 21
76.056795999999864
 31
0.0
  0
LINE
  5
7E2
  8
DETAIL
  6
CONTINUOUS
 62
     5
 10
-180.0629439999999
 20
77.159460999999283
 30
0.0
 11
-181.16488200000001
 21
76.63804399999934
 31
0.0
  0
LINE
  5
7E3
  8
DETAIL
  6
CONTINUOUS
 62
     5
 10
-178.913837
 20
77.594900000000052
 30
0.0
 11
-180.0629439999999
 21
77.159460999999283
 31
0.0
  0
LINE
  5
7E4
  8
DETAIL
  6
CONTINUOUS
 62
     5
 10
-177.77518200000031
 20
77.922528000000028
 30
0.0
 11
-178.913837
 21
77.594900000000052
 31
0.0
  0
LINE
  5
7E5
  8
DETAIL
  6
CONTINUOUS
 62
     5
 10
-176.70407599999999
 20
78.125914999999623
 30
0.0
 11
-177.77518200000031
 21
77.922528000000028
 31
0.0
  0
LINE
  5
7E6
  8
DETAIL
  6
CONTINUOUS
 62
     5
 10
-175.75422799999981
 20
78.194864000000052
 30
0.0
 11
-176.70407599999999
 21
78.125914999999623
 31
0.0
  0
LINE
  5
7E7
  8
DETAIL
  6
CONTINUOUS
 62
     5
 10
-174.97326899999999
 20
78.125914999999623
 30
0.0
 11
-175.75422799999981
 21
78.194864000000052
 31
0.0
  0
LINE
  5
7E8
  8
DETAIL
  6
CONTINUOUS
 62
     5
 10
-174.40035799999981
 20
77.922528000000028
 30
0.0
 11
-174.97326899999999
 21
78.125914999999623
 31
0.0
  0
LINE
  5
7E9
  8
DETAIL
  6
CONTINUOUS
 62
     5
 10
-174.33001299999981
 20
77.877955999999344
 30
0.0
 11
-174.40035799999981
 21
77.922528000000028
 31
0.0
  0
LINE
  5
7EA
  8
DETAIL
  6
CONTINUOUS
 62
     5
 10
-189.8599279999998
 20
23.98133499999949
 30
0.0
 11
-190.2864440000003
 21
25.421053000000029
 31
0.0
  0
LINE
  5
7EB
  8
DETAIL
  6
CONTINUOUS
 62
     5
 10
-189.1852429999999
 20
22.745932999999241
 30
0.0
 11
-189.8599279999998
 21
23.98133499999949
 31
0.0
  0
LINE
  5
7EC
  8
DETAIL
  6
CONTINUOUS
 62
     5
 10
-188.30805599999971
 20
21.798461999999748
 30
0.0
 11
-189.1852429999999
 21
22.745932999999241
 31
0.0
  0
LINE
  5
7ED
  8
DETAIL
  6
CONTINUOUS
 62
     5
 10
-187.28773600000011
 20
21.203050999999508
 30
0.0
 11
-188.30805599999971
 21
21.798461999999748
 31
0.0
  0
LINE
  5
7EE
  8
DETAIL
  6
CONTINUOUS
 62
     5
 10
-186.1933440000002
 20
21.0
 30
0.0
 11
-187.28773600000011
 21
21.203050999999508
 31
0.0
  0
LINE
  5
7EF
  8
DETAIL
  6
CONTINUOUS
 62
     5
 10
-194.10256799999999
 20
23.98133499999949
 30
0.0
 11
-194.52908500000009
 21
25.421053000000029
 31
0.0
  0
LINE
  5
7F0
  8
DETAIL
  6
CONTINUOUS
 62
     5
 10
-193.42788399999969
 20
22.745932999999241
 30
0.0
 11
-194.10256799999999
 21
23.98133499999949
 31
0.0
  0
LINE
  5
7F1
  8
DETAIL
  6
CONTINUOUS
 62
     5
 10
-192.55069599999999
 20
21.798461999999748
 30
0.0
 11
-193.42788399999969
 21
22.745932999999241
 31
0.0
  0
LINE
  5
7F2
  8
DETAIL
  6
CONTINUOUS
 62
     5
 10
-191.53037699999999
 20
21.203050999999508
 30
0.0
 11
-192.55069599999999
 21
21.798461999999748
 31
0.0
  0
LINE
  5
7F3
  8
DETAIL
  6
CONTINUOUS
 62
     5
 10
-190.43598499999999
 20
21.0
 30
0.0
 11
-191.53037699999999
 21
21.203050999999508
 31
0.0
  0
LINE
  5
7F4
  8
DETAIL
  6
CONTINUOUS
 62
     5
 10
-146.77214100000029
 20
149.04070799999951
 30
0.0
 11
-140.4081800000003
 21
154.23686000000001
 31
0.0
  0
LINE
  5
7F5
  8
DETAIL
  6
CONTINUOUS
 62
     5
 10
-139.77378200000021
 20
163.1168090000001
 30
0.0
 11
-140.4089629999998
 21
163.7636229999998
 31
0.0
  0
LINE
  5
7F6
  8
DETAIL
  6
CONTINUOUS
 62
     5
 10
-139.1520680000003
 20
162.1243559999993
 30
0.0
 11
-139.77378200000021
 21
163.1168090000001
 31
0.0
  0
LINE
  5
7F7
  8
DETAIL
  6
CONTINUOUS
 62
     5
 10
-138.71636399999991
 20
160.9503269999995
 30
0.0
 11
-139.1520680000003
 21
162.1243559999993
 31
0.0
  0
LINE
  5
7F8
  8
DETAIL
  6
CONTINUOUS
 62
     5
 10
-138.49199299999961
 20
159.66295199999971
 30
0.0
 11
-138.71636399999991
 21
160.9503269999995
 31
0.0
  0
LINE
  5
7F9
  8
DETAIL
  6
CONTINUOUS
 62
     5
 10
-138.49199299999961
 20
158.33704799999941
 30
0.0
 11
-138.49199299999961
 21
159.66295199999971
 31
0.0
  0
LINE
  5
7FA
  8
DETAIL
  6
CONTINUOUS
 62
     5
 10
-138.71636399999991
 20
157.0496729999995
 30
0.0
 11
-138.49199299999961
 21
158.33704799999941
 31
0.0
  0
LINE
  5
7FB
  8
DETAIL
  6
CONTINUOUS
 62
     5
 10
-139.1520680000003
 20
155.87564399999971
 30
0.0
 11
-138.71636399999991
 21
157.0496729999995
 31
0.0
  0
LINE
  5
7FC
  8
DETAIL
  6
CONTINUOUS
 62
     5
 10
-139.77378200000021
 20
154.8831909999999
 30
0.0
 11
-139.1520680000003
 21
155.87564399999971
 31
0.0
  0
LINE
  5
7FD
  8
DETAIL
  6
CONTINUOUS
 62
     5
 10
-140.4089629999998
 20
154.23637699999921
 30
0.0
 11
-139.77378200000021
 21
154.8831909999999
 31
0.0
  0
LINE
  5
7FE
  8
DETAIL
  6
CONTINUOUS
 62
     5
 10
-101.748834
 20
174.11714599999959
 30
0.0
 11
-102.6932930000002
 21
165.1830439999994
 31
0.0
  0
LINE
  5
7FF
  8
DETAIL
  6
CONTINUOUS
 62
     5
 10
-173.2407910000002
 20
165.2785180000001
 30
0.0
 11
-172.0512090000002
 21
165.5
 31
0.0
  0
LINE
  5
800
  8
DETAIL
  6
CONTINUOUS
 62
     5
 10
-174.34930600000001
 20
164.6291649999994
 30
0.0
 11
-173.2407910000002
 21
165.2785180000001
 31
0.0
  0
LINE
  5
801
  8
DETAIL
  6
CONTINUOUS
 62
     5
 10
-175.3012090000002
 20
163.59619399999971
 30
0.0
 11
-174.34930600000001
 21
164.6291649999994
 31
0.0
  0
LINE
  5
802
  8
DETAIL
  6
CONTINUOUS
 62
     5
 10
-176.0316300000004
 20
162.25
 30
0.0
 11
-175.3012090000002
 21
163.59619399999971
 31
0.0
  0
LINE
  5
803
  8
DETAIL
  6
CONTINUOUS
 62
     5
 10
-176.4907910000002
 20
160.6823239999994
 30
0.0
 11
-176.0316300000004
 21
162.25
 31
0.0
  0
LINE
  5
804
  8
DETAIL
  6
CONTINUOUS
 62
     5
 10
-176.64740299999991
 20
159.0
 30
0.0
 11
-176.4907910000002
 21
160.6823239999994
 31
0.0
  0
LINE
  5
805
  8
DETAIL
  6
CONTINUOUS
 62
     5
 10
-176.4907910000002
 20
157.31767599999961
 30
0.0
 11
-176.64740299999991
 21
159.0
 31
0.0
  0
LINE
  5
806
  8
DETAIL
  6
CONTINUOUS
 62
     5
 10
-176.0316300000004
 20
155.75
 30
0.0
 11
-176.4907910000002
 21
157.31767599999961
 31
0.0
  0
LINE
  5
807
  8
DETAIL
  6
CONTINUOUS
 62
     5
 10
-175.8109189999995
 20
155.34322100000011
 30
0.0
 11
-176.0316300000004
 21
155.75
 31
0.0
  0
LINE
  5
808
  8
DETAIL
  6
CONTINUOUS
 62
     5
 10
-169.80909400000019
 20
147.4574599999996
 30
0.0
 11
-169.79746200000039
 21
146.76740100000001
 31
0.0
  0
LINE
  5
809
  8
DETAIL
  6
CONTINUOUS
 62
     5
 10
-170.07037500000021
 20
148.2543959999993
 30
0.0
 11
-169.80909400000019
 21
147.4574599999996
 31
0.0
  0
LINE
  5
80A
  8
DETAIL
  6
CONTINUOUS
 62
     5
 10
-170.56592699999959
 20
149.1005049999994
 30
0.0
 11
-170.07037500000021
 21
148.2543959999993
 31
0.0
  0
LINE
  5
80E
  8
DETAIL
  6
CONTINUOUS
 62
     5
 10
-179.93638499999989
 20
131.4544229999992
 30
0.0
 11
-180.4393799999998
 21
131.2016299999996
 31
0.0
  0
LINE
  5
80F
  8
DETAIL
  6
CONTINUOUS
 62
     5
 10
-179.52661900000021
 20
131.91775799999959
 30
0.0
 11
-179.93638499999989
 21
131.4544229999992
 31
0.0
  0
LINE
  5
810
  8
DETAIL
  6
CONTINUOUS
 62
     5
 10
-179.34625399999999
 20
132.5335629999999
 30
0.0
 11
-179.52661900000021
 21
131.91775799999959
 31
0.0
  0
LINE
  5
811
  8
DETAIL
  6
CONTINUOUS
 62
     5
 10
-179.404335
 20
133.27095800000001
 30
0.0
 11
-179.34625399999999
 21
132.5335629999999
 31
0.0
  0
LINE
  5
812
  8
DETAIL
  6
CONTINUOUS
 62
     5
 10
-179.69794900000031
 20
134.09296599999919
 30
0.0
 11
-179.404335
 21
133.27095800000001
 31
0.0
  0
LINE
  5
813
  8
DETAIL
  6
CONTINUOUS
 62
     5
 10
-180.2123739999997
 20
134.95836899999981
 30
0.0
 11
-179.69794900000031
 21
134.09296599999919
 31
0.0
  0
LINE
  5
814
  8
DETAIL
  6
CONTINUOUS
 62
     5
 10
-173.57420400000049
 20
167.73847599999951
 30
0.0
 11
-172.0512090000002
 21
168.0
 31
0.0
  0
LINE
  5
815
  8
DETAIL
  6
CONTINUOUS
 62
     5
 10
-175.0086890000002
 20
166.96910399999979
 30
0.0
 11
-173.57420400000049
 21
167.73847599999951
 31
0.0
  0
LINE
  5
816
  8
DETAIL
  6
CONTINUOUS
 62
     5
 10
-176.27129599999989
 20
165.73659699999999
 30
0.0
 11
-175.0086890000002
 21
166.96910399999979
 31
0.0
  0
LINE
  5
817
  8
DETAIL
  6
CONTINUOUS
 62
     5
 10
-177.288646
 20
164.11258300000009
 30
0.0
 11
-176.27129599999989
 21
165.73659699999999
 31
0.0
  0
LINE
  5
818
  8
DETAIL
  6
CONTINUOUS
 62
     5
 10
-178.0016159999995
 20
162.19144399999999
 30
0.0
 11
-177.288646
 21
164.11258300000009
 31
0.0
  0
LINE
  5
819
  8
DETAIL
  6
CONTINUOUS
 62
     5
 10
-178.3687689999997
 20
160.08482999999981
 30
0.0
 11
-178.0016159999995
 21
162.19144399999999
 31
0.0
  0
LINE
  5
81A
  8
DETAIL
  6
CONTINUOUS
 62
     5
 10
-178.3687689999997
 20
157.91516999999931
 30
0.0
 11
-178.3687689999997
 21
160.08482999999981
 31
0.0
  0
LINE
  5
81B
  8
DETAIL
  6
CONTINUOUS
 62
     5
 10
-178.0016159999995
 20
155.8085559999999
 30
0.0
 11
-178.3687689999997
 21
157.91516999999931
 31
0.0
  0
LINE
  5
81C
  8
DETAIL
  6
CONTINUOUS
 62
     5
 10
-177.288646
 20
153.88741699999991
 30
0.0
 11
-178.0016159999995
 21
155.8085559999999
 31
0.0
  0
LINE
  5
81D
  8
DETAIL
  6
CONTINUOUS
 62
     5
 10
-177.0780459999994
 20
153.55123299999909
 30
0.0
 11
-177.288646
 21
153.88741699999991
 31
0.0
  0
LINE
  5
81E
  8
DETAIL
  6
CONTINUOUS
 62
     5
 10
-188.8566689999997
 20
137.38317599999931
 30
0.0
 11
-188.86393800000039
 21
137.15974399999959
 31
0.0
  0
LINE
  5
81F
  8
DETAIL
  6
CONTINUOUS
 62
     5
 10
-188.67630399999959
 20
137.99897999999939
 30
0.0
 11
-188.8566689999997
 21
137.38317599999931
 31
0.0
  0
LINE
  5
820
  8
DETAIL
  6
CONTINUOUS
 62
     5
 10
-188.2665379999998
 20
138.4623160000001
 30
0.0
 11
-188.67630399999959
 21
137.99897999999939
 31
0.0
  0
LINE
  5
821
  8
DETAIL
  6
CONTINUOUS
 62
     5
 10
-187.6479159999999
 20
138.74994899999999
 30
0.0
 11
-188.2665379999998
 21
138.4623160000001
 31
0.0
  0
LINE
  5
822
  8
DETAIL
  6
CONTINUOUS
 62
     5
 10
-186.8514610000002
 20
138.84745699999979
 30
0.0
 11
-187.6479159999999
 21
138.74994899999999
 31
0.0
  0
LINE
  5
823
  8
DETAIL
  6
CONTINUOUS
 62
     5
 10
-185.91711000000001
 20
138.74994899999999
 30
0.0
 11
-186.8514610000002
 21
138.84745699999979
 31
0.0
  0
LINE
  5
824
  8
DETAIL
  6
CONTINUOUS
 62
     5
 10
-184.89171400000001
 20
138.4623160000001
 30
0.0
 11
-185.91711000000001
 21
138.74994899999999
 31
0.0
  0
LINE
  5
825
  8
DETAIL
  6
CONTINUOUS
 62
     5
 10
-183.82669199999961
 20
137.99897999999939
 30
0.0
 11
-184.89171400000001
 21
138.4623160000001
 31
0.0
  0
LINE
  5
826
  8
DETAIL
  6
CONTINUOUS
 62
     5
 10
-182.77544700000001
 20
137.38317599999931
 30
0.0
 11
-183.82669199999961
 21
137.99897999999939
 31
0.0
  0
LINE
  5
827
  8
DETAIL
  6
CONTINUOUS
 62
     5
 10
-181.79069499999969
 20
136.6457809999992
 30
0.0
 11
-182.77544700000001
 21
137.38317599999931
 31
0.0
  0
LINE
  5
828
  8
DETAIL
  6
CONTINUOUS
 62
     5
 10
-180.92181400000021
 20
135.8237730000001
 30
0.0
 11
-181.79069499999969
 21
136.6457809999992
 31
0.0
  0
LINE
  5
829
  8
DETAIL
  6
CONTINUOUS
 62
     5
 10
-180.2123739999997
 20
134.95836899999981
 30
0.0
 11
-180.92181400000021
 21
135.8237730000001
 31
0.0
  0
LINE
  5
82A
  8
DETAIL
  6
CONTINUOUS
 62
     5
 10
-146.77214100000029
 20
55.959291999999543
 30
0.0
 11
-140.4081800000003
 21
50.763140000000021
 31
0.0
  0
LINE
  5
82B
  8
DETAIL
  6
CONTINUOUS
 62
     5
 10
-141.4220050000003
 20
51.340180000000153
 30
0.0
 11
-142.35272400000031
 21
51.5
 31
0.0
  0
LINE
  5
82C
  8
DETAIL
  6
CONTINUOUS
 62
     5
 10
-140.54537499999969
 20
50.870007999999856
 30
0.0
 11
-141.4220050000003
 21
51.340180000000153
 31
0.0
  0
LINE
  5
82D
  8
DETAIL
  6
CONTINUOUS
 62
     5
 10
-140.4089629999998
 20
50.763622999999811
 30
0.0
 11
-140.54537499999969
 21
50.870007999999856
 31
0.0
  0
LINE
  5
82E
  8
DETAIL
  6
CONTINUOUS
 62
     5
 10
-169.94765600000031
 20
74.874692999999738
 30
0.0
 11
-174.32960699999961
 21
77.87777699999971
 31
0.0
  0
LINE
  5
82F
  8
DETAIL
  6
CONTINUOUS
 62
     5
 10
-185.47616999999991
 20
68.45417499999985
 30
0.0
 11
-186.1933440000002
 21
68.599999999999454
 31
0.0
  0
LINE
  5
830
  8
DETAIL
  6
CONTINUOUS
 62
     5
 10
-185.4007789999996
 20
68.405482999999549
 30
0.0
 11
-185.47616999999991
 21
68.45417499999985
 31
0.0
  0
LINE
  5
831
  8
DETAIL
  6
CONTINUOUS
 62
     5
 10
-146.3617679999997
 20
208.76969800000001
 30
0.0
 11
-146.9853890000004
 21
208.63999999999939
 31
0.0
  0
LINE
  5
832
  8
DETAIL
  6
CONTINUOUS
 62
     5
 10
-145.9654529999998
 20
208.9938939999993
 30
0.0
 11
-146.3617679999997
 21
208.76969800000001
 31
0.0
  0
LINE
  5
838
  8
DETAIL
  6
CONTINUOUS
 62
     5
 10
-129.98017199999961
 20
219.806106
 30
0.0
 11
-131.28978900000041
 21
218.86754599999949
 31
0.0
  0
LINE
  5
839
  8
DETAIL
  6
CONTINUOUS
 62
     5
 10
-145.06391100000019
 20
209.63999999999939
 30
0.0
 11
-145.9654529999998
 21
208.9938939999993
 31
0.0
  0
LINE
  5
83A
  8
DETAIL
  6
CONTINUOUS
 62
     5
 10
-131.84703900000019
 20
215.63330499999941
 30
0.0
 11
-131.90837900000039
 21
213.9982030000001
 31
0.0
  0
LINE
  5
83B
  8
DETAIL
  6
CONTINUOUS
 62
     5
 10
-131.5518270000002
 20
217.1684919999997
 30
0.0
 11
-131.84703900000019
 21
215.63330499999941
 31
0.0
  0
LINE
  5
83C
  8
DETAIL
  6
CONTINUOUS
 62
     5
 10
-131.04666
 20
218.47939199999931
 30
0.0
 11
-131.5518270000002
 21
217.1684919999997
 31
0.0
  0
LINE
  5
83D
  8
DETAIL
  6
CONTINUOUS
 62
     5
 10
-130.3724629999997
 20
219.4598040000001
 30
0.0
 11
-131.04666
 21
218.47939199999931
 31
0.0
  0
LINE
  5
83E
  8
DETAIL
  6
CONTINUOUS
 62
     5
 10
-129.98017199999961
 20
219.806106
 30
0.0
 11
-130.3724629999997
 21
219.4598040000001
 31
0.0
  0
LINE
  5
83F
  8
DETAIL
  6
CONTINUOUS
 62
     5
 10
-132.83254800000029
 20
215.41918899999931
 30
0.0
 11
-132.88323800000029
 21
214.067959
 31
0.0
  0
LINE
  5
840
  8
DETAIL
  6
CONTINUOUS
 62
     5
 10
-132.58858799999959
 20
216.68785099999971
 30
0.0
 11
-132.83254800000029
 21
215.41918899999931
 31
0.0
  0
LINE
  5
841
  8
DETAIL
  6
CONTINUOUS
 62
     5
 10
-132.17112300000011
 20
217.7711639999998
 30
0.0
 11
-132.58858799999959
 21
216.68785099999971
 31
0.0
  0
LINE
  5
842
  8
DETAIL
  6
CONTINUOUS
 62
     5
 10
-131.61397500000021
 20
218.58136599999941
 30
0.0
 11
-132.17112300000011
 21
217.7711639999998
 31
0.0
  0
LINE
  5
843
  8
DETAIL
  6
CONTINUOUS
 62
     5
 10
-131.28978900000041
 20
218.86754599999949
 30
0.0
 11
-131.61397500000021
 21
218.58136599999941
 31
0.0
  0
LINE
  5
844
  8
DETAIL
  6
CONTINUOUS
 62
     5
 10
-165.54803600000011
 20
152.53662099999929
 30
0.0
 11
-169.68783900000011
 21
146.68205499999931
 31
0.0
  0
LINE
  5
845
  8
DETAIL
  6
CONTINUOUS
 62
     5
 10
-173.71410800000001
 20
158.3085599999994
 30
0.0
 11
-177.9751859999995
 21
152.2824849999997
 31
0.0
  0
LINE
  5
846
  8
DETAIL
  6
CONTINUOUS
 62
     5
 10
-121.46989000000031
 20
208.76969800000001
 30
0.0
 11
-122.0945840000004
 21
208.64051599999951
 31
0.0
  0
LINE
  5
847
  8
DETAIL
  6
CONTINUOUS
 62
     5
 10
-120.68128299999979
 20
209.3401949999998
 30
0.0
 11
-121.46989000000031
 21
208.76969800000001
 31
0.0
  0
LINE
  5
848
  8
DETAIL
  6
CONTINUOUS
 62
     5
 10
-120.47511800000029
 20
209.63999999999939
 30
0.0
 11
-120.68128299999979
 21
209.3401949999998
 31
0.0
  0
LINE
  5
84E
  8
DETAIL
  6
CONTINUOUS
 62
     5
 10
-183.66331799999989
 20
74.832930999999903
 30
0.0
 11
-183.0113639999999
 21
75.444864000000052
 31
0.0
  0
LINE
  5
84F
  8
DETAIL
  6
CONTINUOUS
 62
     5
 10
-184.08756499999981
 20
74.251682999999502
 30
0.0
 11
-183.66331799999989
 21
74.832930999999903
 31
0.0
  0
LINE
  5
850
  8
DETAIL
  6
CONTINUOUS
 62
     5
 10
-184.24825200000021
 20
73.828125
 30
0.0
 11
-184.08756499999981
 21
74.251682999999502
 31
0.0
  0
LINE
  5
851
  8
DETAIL
  6
CONTINUOUS
 62
     5
 10
-185.09895299999951
 20
21.203050999999508
 30
0.0
 11
-186.1933440000002
 21
21.0
 31
0.0
  0
LINE
  5
852
  8
DETAIL
  6
CONTINUOUS
 62
     5
 10
-184.07863300000011
 20
21.798461999999748
 30
0.0
 11
-185.09895299999951
 21
21.203050999999508
 31
0.0
  0
LINE
  5
853
  8
DETAIL
  6
CONTINUOUS
 62
     5
 10
-183.201446
 20
22.745932999999241
 30
0.0
 11
-184.07863300000011
 21
21.798461999999748
 31
0.0
  0
LINE
  5
854
  8
DETAIL
  6
CONTINUOUS
 62
     5
 10
-182.52676100000011
 20
23.98133499999949
 30
0.0
 11
-183.201446
 21
22.745932999999241
 31
0.0
  0
LINE
  5
855
  8
DETAIL
  6
CONTINUOUS
 62
     5
 10
-182.1002449999996
 20
25.421053000000029
 30
0.0
 11
-182.52676100000011
 21
23.98133499999949
 31
0.0
  0
LINE
  5
856
  8
DETAIL
  6
CONTINUOUS
 62
     5
 10
-179.8669069999994
 20
37.0
 30
0.0
 11
-182.1002449999996
 21
25.421053000000029
 31
0.0
  0
LINE
  5
857
  8
DETAIL
  6
CONTINUOUS
 62
     5
 10
-188.5049740000004
 20
135.8237730000001
 30
0.0
 11
-187.99054899999999
 21
134.95836899999981
 31
0.0
  0
LINE
  5
858
  8
DETAIL
  6
CONTINUOUS
 62
     5
 10
-188.7985879999996
 20
136.6457809999992
 30
0.0
 11
-188.5049740000004
 21
135.8237730000001
 31
0.0
  0
LINE
  5
859
  8
DETAIL
  6
CONTINUOUS
 62
     5
 10
-188.86393800000039
 20
137.15974399999959
 30
0.0
 11
-188.7985879999996
 21
136.6457809999992
 31
0.0
  0
LINE
  5
85A
  8
DETAIL
  6
CONTINUOUS
 62
     5
 10
-182.1002449999996
 20
179.57894699999991
 30
0.0
 11
-179.8669069999994
 21
168.0
 31
0.0
  0
LINE
  5
85B
  8
DETAIL
  6
CONTINUOUS
 62
     5
 10
-190.2864440000003
 20
138.421053
 30
0.0
 11
-192.61622100000011
 21
150.5
 31
0.0
  0
LINE
  5
85C
  8
DETAIL
  6
CONTINUOUS
 62
     5
 10
-176.60468700000001
 20
56.962547999999522
 30
0.0
 11
-176.34590899999961
 21
57.338456999999821
 31
0.0
  0
LINE
  5
85D
  8
DETAIL
  6
CONTINUOUS
 62
     5
 10
-176.72798400000011
 20
56.466548999999759
 30
0.0
 11
-176.60468700000001
 21
56.962547999999522
 31
0.0
  0
LINE
  5
85E
  8
DETAIL
  6
CONTINUOUS
 62
     5
 10
-176.67991100000009
 20
56.234590999999448
 30
0.0
 11
-176.72798400000011
 21
56.466548999999759
 31
0.0
  0
LINE
  5
85F
  8
DETAIL
  6
CONTINUOUS
 62
     5
 10
-164.85336699999971
 20
53.722072999999888
 30
0.0
 11
-167.4221079999997
 21
60.014177999999447
 31
0.0
  0
LINE
  5
860
  8
DETAIL
  6
CONTINUOUS
 62
     5
 10
-168.11647300000001
 20
59.730704999999951
 30
0.0
 11
-168.48328200000009
 21
60.629197999999633
 31
0.0
  0
LINE
  5
861
  8
DETAIL
  6
CONTINUOUS
 62
     5
 10
-175.98594399999999
 20
56.51800699999967
 30
0.0
 11
-176.3208919999997
 21
57.338456999999821
 31
0.0
  0
LINE
  5
862
  8
DETAIL
  6
CONTINUOUS
 62
     5
 10
-173.60020700000041
 20
48.689852999999857
 30
0.0
 11
-176.68030900000031
 21
56.234532999999828
 31
0.0
  0
LINE
  5
863
  8
DETAIL
  6
CONTINUOUS
 62
     5
 10
-167.93459999999959
 20
60.461895999999797
 30
0.0
 11
-168.46275900000001
 21
60.578927999999898
 31
0.0
  0
LINE
  5
864
  8
DETAIL
  6
CONTINUOUS
 62
     5
 10
-167.52293399999959
 20
60.181814999999901
 30
0.0
 11
-167.93459999999959
 21
60.461895999999797
 31
0.0
  0
LINE
  5
865
  8
DETAIL
  6
CONTINUOUS
 62
     5
 10
-167.42250700000019
 20
60.014119999999821
 30
0.0
 11
-167.52293399999959
 21
60.181814999999901
 31
0.0
  0
LINE
  5
866
  8
DETAIL
  6
CONTINUOUS
 62
     5
 10
-147.8843209999994
 20
215.41918899999931
 30
0.0
 11
-147.9350119999998
 21
214.067959
 31
0.0
  0
LINE
  5
867
  8
DETAIL
  6
CONTINUOUS
 62
     5
 10
-147.6403620000001
 20
216.68785099999971
 30
0.0
 11
-147.8843209999994
 21
215.41918899999931
 31
0.0
  0
LINE
  5
868
  8
DETAIL
  6
CONTINUOUS
 62
     5
 10
-147.22289699999959
 20
217.7711639999998
 30
0.0
 11
-147.6403620000001
 21
216.68785099999971
 31
0.0
  0
LINE
  5
869
  8
DETAIL
  6
CONTINUOUS
 62
     5
 10
-146.66574800000029
 20
218.58136599999941
 30
0.0
 11
-147.22289699999959
 21
217.7711639999998
 31
0.0
  0
LINE
  5
86A
  8
DETAIL
  6
CONTINUOUS
 62
     5
 10
-187.28773600000011
 20
70.796947999999233
 30
0.0
 11
-186.1933440000002
 21
71.0
 31
0.0
  0
LINE
  5
86B
  8
DETAIL
  6
CONTINUOUS
 62
     5
 10
-188.30805599999971
 20
70.201536999999931
 30
0.0
 11
-187.28773600000011
 21
70.796947999999233
 31
0.0
  0
LINE
  5
86C
  8
DETAIL
  6
CONTINUOUS
 62
     5
 10
-189.1852429999999
 20
69.25406699999985
 30
0.0
 11
-188.30805599999971
 21
70.201536999999931
 31
0.0
  0
LINE
  5
86D
  8
DETAIL
  6
CONTINUOUS
 62
     5
 10
-189.8599279999998
 20
68.018663999999262
 30
0.0
 11
-189.1852429999999
 21
69.25406699999985
 31
0.0
  0
LINE
  5
86E
  8
DETAIL
  6
CONTINUOUS
 62
     5
 10
-190.2864440000003
 20
66.578946999999971
 30
0.0
 11
-189.8599279999998
 21
68.018663999999262
 31
0.0
  0
LINE
  5
86F
  8
DETAIL
  6
CONTINUOUS
 62
     5
 10
-191.53037699999999
 20
70.796947999999233
 30
0.0
 11
-190.43598499999999
 21
71.0
 31
0.0
  0
LINE
  5
870
  8
DETAIL
  6
CONTINUOUS
 62
     5
 10
-192.55069599999999
 20
70.201536999999931
 30
0.0
 11
-191.53037699999999
 21
70.796947999999233
 31
0.0
  0
LINE
  5
871
  8
DETAIL
  6
CONTINUOUS
 62
     5
 10
-193.42788399999969
 20
69.25406699999985
 30
0.0
 11
-192.55069599999999
 21
70.201536999999931
 31
0.0
  0
LINE
  5
872
  8
DETAIL
  6
CONTINUOUS
 62
     5
 10
-194.10256799999999
 20
68.018663999999262
 30
0.0
 11
-193.42788399999969
 21
69.25406699999985
 31
0.0
  0
LINE
  5
873
  8
DETAIL
  6
CONTINUOUS
 62
     5
 10
-194.52908500000009
 20
66.578946999999971
 30
0.0
 11
-194.10256799999999
 21
68.018663999999262
 31
0.0
  0
LINE
  5
874
  8
DETAIL
  6
CONTINUOUS
 62
     5
 10
-185.27654100000001
 20
68.616702999999688
 30
0.0
 11
-184.24829700000001
 21
73.828488999999536
 31
0.0
  0
LINE
  5
875
  8
DETAIL
  6
CONTINUOUS
 62
     5
 10
-192.13402299999959
 20
57.0
 30
0.0
 11
-190.2864440000003
 21
66.578946999999971
 31
0.0
  0
LINE
  5
876
  8
DETAIL
  6
CONTINUOUS
 62
     5
 10
-196.3766640000002
 20
57.0
 30
0.0
 11
-194.52908500000009
 21
66.578946999999971
 31
0.0
  0
LINE
  5
877
  8
DETAIL
  6
CONTINUOUS
 62
     5
 10
-194.52908500000009
 20
138.421053
 30
0.0
 11
-196.85886199999999
 21
150.5
 31
0.0
  0
LINE
  5
878
  8
DETAIL
  6
CONTINUOUS
 62
     5
 10
-180.31794699999941
 20
57.338456999999821
 30
0.0
 11
-179.8669069999994
 21
55.0
 31
0.0
  0
LINE
  5
879
  8
DETAIL
  6
CONTINUOUS
 62
     5
 10
-190.2864440000003
 20
25.421053000000029
 30
0.0
 11
-192.13402299999959
 21
35.0
 31
0.0
  0
LINE
  5
87F
  8
DETAIL
  6
CONTINUOUS
 62
     5
 10
-187.28773600000011
 20
183.79694799999919
 30
0.0
 11
-186.1933440000002
 21
184.0
 31
0.0
  0
LINE
  5
880
  8
DETAIL
  6
CONTINUOUS
 62
     5
 10
-188.30805599999971
 20
183.2015369999998
 30
0.0
 11
-187.28773600000011
 21
183.79694799999919
 31
0.0
  0
LINE
  5
881
  8
DETAIL
  6
CONTINUOUS
 62
     5
 10
-189.1852429999999
 20
182.25406699999971
 30
0.0
 11
-188.30805599999971
 21
183.2015369999998
 31
0.0
  0
LINE
  5
882
  8
DETAIL
  6
CONTINUOUS
 62
     5
 10
-189.8599279999998
 20
181.01866399999921
 30
0.0
 11
-189.1852429999999
 21
182.25406699999971
 31
0.0
  0
LINE
  5
883
  8
DETAIL
  6
CONTINUOUS
 62
     5
 10
-190.2864440000003
 20
179.57894699999991
 30
0.0
 11
-189.8599279999998
 21
181.01866399999921
 31
0.0
  0
LINE
  5
884
  8
DETAIL
  6
CONTINUOUS
 62
     5
 10
-191.53037699999999
 20
183.79694799999919
 30
0.0
 11
-190.43598499999999
 21
184.0
 31
0.0
  0
LINE
  5
885
  8
DETAIL
  6
CONTINUOUS
 62
     5
 10
-192.55069599999999
 20
183.2015369999998
 30
0.0
 11
-191.53037699999999
 21
183.79694799999919
 31
0.0
  0
LINE
  5
886
  8
DETAIL
  6
CONTINUOUS
 62
     5
 10
-193.42788399999969
 20
182.25406699999971
 30
0.0
 11
-192.55069599999999
 21
183.2015369999998
 31
0.0
  0
LINE
  5
887
  8
DETAIL
  6
CONTINUOUS
 62
     5
 10
-194.10256799999999
 20
181.01866399999921
 30
0.0
 11
-193.42788399999969
 21
182.25406699999971
 31
0.0
  0
LINE
  5
888
  8
DETAIL
  6
CONTINUOUS
 62
     5
 10
-194.52908500000009
 20
179.57894699999991
 30
0.0
 11
-194.10256799999999
 21
181.01866399999921
 31
0.0
  0
LINE
  5
889
  8
DETAIL
  6
CONTINUOUS
 62
     5
 10
-192.61622100000011
 20
167.5
 30
0.0
 11
-190.2864440000003
 21
179.57894699999991
 31
0.0
  0
LINE
  5
88A
  8
DETAIL
  6
CONTINUOUS
 62
     5
 10
-196.85886199999999
 20
167.5
 30
0.0
 11
-194.52908500000009
 21
179.57894699999991
 31
0.0
  0
LINE
  5
88B
  8
DETAIL
  6
CONTINUOUS
 62
     5
 10
-188.96196599999971
 20
141.8954429999994
 30
0.0
 11
-188.86414099999999
 21
137.15936599999981
 31
0.0
  0
LINE
  5
88C
  8
DETAIL
  6
CONTINUOUS
 62
     5
 10
-194.52908500000009
 20
25.421053000000029
 30
0.0
 11
-196.3766640000002
 21
35.0
 31
0.0
  0
LINE
  5
88D
  8
DETAIL
  6
CONTINUOUS
 62
     5
 10
-229.31075200000029
 20
67.299999999999272
 30
0.0
 11
-229.31075200000029
 21
121.5
 31
0.0
  0
LINE
  5
88E
  8
DETAIL
  6
CONTINUOUS
 62
     5
 10
-163.31103499999969
 20
170.5
 30
0.0
 11
-155.53286099999971
 21
170.5
 31
0.0
  0
LINE
  5
88F
  8
DETAIL
  6
CONTINUOUS
 62
     5
 10
-168.00589099999979
 20
159.0
 30
0.0
 11
-160.2277160000003
 21
159.0
 31
0.0
  0
LINE
  5
890
  8
DETAIL
  6
CONTINUOUS
 62
     5
 10
-183.8215719999998
 20
152.2824849999997
 30
0.0
 11
-176.881351
 21
152.2824849999997
 31
0.0
  0
LINE
  5
891
  8
DETAIL
  6
CONTINUOUS
 62
     5
 10
-163.31103499999969
 20
147.5
 30
0.0
 11
-155.53286099999971
 21
147.5
 31
0.0
  0
LINE
  5
892
  8
DETAIL
  6
CONTINUOUS
 62
     5
 10
-166.52520100000041
 20
61.588456999999821
 30
0.0
 11
-175.20047799999969
 21
57.338456999999821
 31
0.0
  0
LINE
  5
893
  8
DETAIL
  6
CONTINUOUS
 62
     5
 10
-163.31103499999969
 20
57.5
 30
0.0
 11
-155.53286099999971
 21
57.5
 31
0.0
  0
LINE
  5
894
  8
DETAIL
  6
CONTINUOUS
 62
     5
 10
-175.20047799999969
 20
57.338456999999821
 30
0.0
 11
-182.14069899999959
 21
57.338456999999821
 31
0.0
  0
LINE
  5
895
  8
DETAIL
  6
CONTINUOUS
 62
     5
 10
-168.00589099999979
 20
46.0
 30
0.0
 11
-160.2277160000003
 21
46.0
 31
0.0
  0
LINE
  5
896
  8
DETAIL
  6
CONTINUOUS
 62
     5
 10
-176.881351
 20
152.2824849999997
 30
0.0
 11
-169.1612400000003
 21
146.27207799999991
 31
0.0
  0
LINE
  5
897
  8
DETAIL
  6
CONTINUOUS
 62
     5
 10
-163.31103499999969
 20
34.5
 30
0.0
 11
-155.53286099999971
 21
34.5
 31
0.0
  0
LINE
  5
898
  8
DETAIL
  6
CONTINUOUS
 62
     5
 10
-163.31103499999969
 20
147.5
 30
0.0
 11
-168.00589099999979
 21
159.0
 31
0.0
  0
LINE
  5
899
  8
DETAIL
  6
CONTINUOUS
 62
     5
 10
-168.00589099999979
 20
46.0
 30
0.0
 11
-163.31103499999969
 21
57.5
 31
0.0
  0
LINE
  5
89A
  8
DETAIL
  6
CONTINUOUS
 62
     5
 10
-164.79014600000031
 20
65.838456999999849
 30
0.0
 11
-166.52520100000041
 21
61.588456999999821
 31
0.0
  0
LINE
  5
89B
  8
DETAIL
  6
CONTINUOUS
 62
     5
 10
-169.1612400000003
 20
146.27207799999991
 30
0.0
 11
-168.381351
 21
140.26166999999981
 31
0.0
  0
LINE
  5
89C
  8
DETAIL
  6
CONTINUOUS
 62
     5
 10
-173.881351
 20
132.4834959999998
 30
0.0
 11
-168.381351
 21
140.26166999999981
 31
0.0
  0
LINE
  5
89D
  8
DETAIL
  6
CONTINUOUS
 62
     5
 10
-174.6612400000003
 20
138.49390299999959
 30
0.0
 11
-169.1612400000003
 21
146.27207799999991
 31
0.0
  0
LINE
  5
89E
  8
DETAIL
  6
CONTINUOUS
 62
     5
 10
-182.381351
 20
144.50431099999969
 30
0.0
 11
-176.881351
 21
152.2824849999997
 31
0.0
  0
LINE
  5
89F
  8
DETAIL
  6
CONTINUOUS
 62
     5
 10
-168.67923400000009
 20
75.364736999999863
 30
0.0
 11
-164.79014600000031
 21
65.838456999999849
 31
0.0
  0
LINE
  5
8A0
  8
DETAIL
  6
CONTINUOUS
 62
     5
 10
-170.41428900000031
 20
71.114736999999863
 30
0.0
 11
-166.52520100000041
 21
61.588456999999821
 31
0.0
  0
LINE
  5
8A1
  8
DETAIL
  6
CONTINUOUS
 62
     5
 10
-163.31103499999969
 20
34.5
 30
0.0
 11
-168.00589099999979
 21
46.0
 31
0.0
  0
LINE
  5
8A2
  8
DETAIL
  6
CONTINUOUS
 62
     5
 10
-179.08956500000019
 20
66.864736999999892
 30
0.0
 11
-175.20047799999969
 21
57.338456999999821
 31
0.0
  0
LINE
  5
8A3
  8
DETAIL
  6
CONTINUOUS
 62
     5
 10
-189.3215719999998
 20
144.50431099999969
 30
0.0
 11
-183.8215719999998
 21
152.2824849999997
 31
0.0
  0
LINE
  5
8A4
  8
DETAIL
  6
CONTINUOUS
 62
     5
 10
-168.00589099999979
 20
159.0
 30
0.0
 11
-163.31103499999969
 21
170.5
 31
0.0
  0
LINE
  5
8A5
  8
DETAIL
  6
CONTINUOUS
 62
     5
 10
-186.029786
 20
66.864736999999892
 30
0.0
 11
-182.14069899999959
 21
57.338456999999821
 31
0.0
  0
LINE
  5
8A6
  8
DETAIL
  6
CONTINUOUS
 62
     5
 10
142.17584600000009
 20
200.5
 30
0.0
 11
139.5
 21
200.5
 31
0.0
  0
LINE
  5
8A7
  8
DETAIL
  6
CONTINUOUS
 62
     5
 10
142.17584600000009
 20
50.5
 30
0.0
 11
139.5
 21
50.5
 31
0.0
  0
LINE
  5
8A8
  8
DETAIL
  6
CONTINUOUS
 62
     5
 10
138.5
 20
200.5
 30
0.0
 11
135.82415299999951
 21
200.5
 31
0.0
  0
LINE
  5
8A9
  8
DETAIL
  6
CONTINUOUS
 62
     5
 10
138.5
 20
50.5
 30
0.0
 11
135.82415299999951
 21
50.5
 31
0.0
  0
LINE
  5
8AA
  8
DETAIL
  6
CONTINUOUS
 62
     5
 10
135.82415299999951
 20
201.5
 30
0.0
 11
138.5
 21
201.5
 31
0.0
  0
LINE
  5
8AB
  8
DETAIL
  6
CONTINUOUS
 62
     5
 10
135.82415299999951
 20
51.5
 30
0.0
 11
138.5
 21
51.5
 31
0.0
  0
LINE
  5
8AC
  8
DETAIL
  6
CONTINUOUS
 62
     5
 10
139.5
 20
201.5
 30
0.0
 11
142.17584600000009
 21
201.5
 31
0.0
  0
LINE
  5
8AD
  8
DETAIL
  6
CONTINUOUS
 62
     5
 10
139.5
 20
51.5
 30
0.0
 11
142.17584600000009
 21
51.5
 31
0.0
  0
LINE
  5
8AE
  8
DETAIL
  6
CONTINUOUS
 62
     5
 10
-12.64212000000043
 20
15.5592859999997
 30
0.0
 11
-13.64212000000043
 21
15.5592859999997
 31
0.0
  0
LINE
  5
8AF
  8
DETAIL
  6
CONTINUOUS
 62
     5
 10
-10.89212000000043
 20
17.309285999999702
 30
0.0
 11
-12.64212000000043
 21
17.309285999999702
 31
0.0
  0
LINE
  5
8B0
  8
DETAIL
  6
CONTINUOUS
 62
     5
 10
-13.64212000000043
 20
17.309285999999702
 30
0.0
 11
-15.39212000000043
 21
17.309285999999702
 31
0.0
  0
LINE
  5
8B1
  8
DETAIL
  6
CONTINUOUS
 62
     5
 10
-15.39212000000043
 20
18.309285999999702
 30
0.0
 11
-13.64212000000043
 21
18.309285999999702
 31
0.0
  0
LINE
  5
8B2
  8
DETAIL
  6
CONTINUOUS
 62
     5
 10
-12.64212000000043
 20
18.309285999999702
 30
0.0
 11
-10.89212000000043
 21
18.309285999999702
 31
0.0
  0
LINE
  5
8B3
  8
DETAIL
  6
CONTINUOUS
 62
     5
 10
-13.64212000000043
 20
20.059285999999702
 30
0.0
 11
-12.64212000000043
 21
20.059285999999702
 31
0.0
  0
LINE
  5
8B4
  8
DETAIL
  6
CONTINUOUS
 62
     5
 10
-15.39212000000043
 20
17.309285999999702
 30
0.0
 11
-15.39212000000043
 21
18.309285999999702
 31
0.0
  0
LINE
  5
8B5
  8
DETAIL
  6
CONTINUOUS
 62
     5
 10
-13.64212000000043
 20
15.5592859999997
 30
0.0
 11
-13.64212000000043
 21
17.309285999999702
 31
0.0
  0
LINE
  5
8B6
  8
DETAIL
  6
CONTINUOUS
 62
     5
 10
-13.64212000000043
 20
18.309285999999702
 30
0.0
 11
-13.64212000000043
 21
20.059285999999702
 31
0.0
  0
LINE
  5
8B7
  8
DETAIL
  6
CONTINUOUS
 62
     5
 10
-12.64212000000043
 20
20.059285999999702
 30
0.0
 11
-12.64212000000043
 21
18.309285999999702
 31
0.0
  0
LINE
  5
8B8
  8
DETAIL
  6
CONTINUOUS
 62
     5
 10
-12.64212000000043
 20
17.309285999999702
 30
0.0
 11
-12.64212000000043
 21
15.5592859999997
 31
0.0
  0
LINE
  5
8B9
  8
DETAIL
  6
CONTINUOUS
 62
     5
 10
-10.89212000000043
 20
18.309285999999702
 30
0.0
 11
-10.89212000000043
 21
17.309285999999702
 31
0.0
  0
LINE
  5
8BA
  8
DETAIL
  6
CONTINUOUS
 62
     5
 10
138.5
 20
197.82415399999991
 30
0.0
 11
138.5
 21
200.5
 31
0.0
  0
LINE
  5
8BB
  8
DETAIL
  6
CONTINUOUS
 62
     5
 10
138.5
 20
47.824153999999893
 30
0.0
 11
138.5
 21
50.5
 31
0.0
  0
LINE
  5
8BC
  8
DETAIL
  6
CONTINUOUS
 62
     5
 10
138.5
 20
201.5
 30
0.0
 11
138.5
 21
204.17584600000001
 31
0.0
  0
LINE
  5
8BD
  8
DETAIL
  6
CONTINUOUS
 62
     5
 10
138.5
 20
51.5
 30
0.0
 11
138.5
 21
54.175845999999183
 31
0.0
  0
LINE
  5
8BE
  8
DETAIL
  6
CONTINUOUS
 62
     5
 10
139.5
 20
204.17584600000001
 30
0.0
 11
139.5
 21
201.5
 31
0.0
  0
LINE
  5
8BF
  8
DETAIL
  6
CONTINUOUS
 62
     5
 10
139.5
 20
54.175845999999183
 30
0.0
 11
139.5
 21
51.5
 31
0.0
  0
LINE
  5
8C0
  8
DETAIL
  6
CONTINUOUS
 62
     5
 10
139.5
 20
200.5
 30
0.0
 11
139.5
 21
197.82415399999991
 31
0.0
  0
LINE
  5
8C1
  8
DETAIL
  6
CONTINUOUS
 62
     5
 10
139.5
 20
50.5
 30
0.0
 11
139.5
 21
47.824153999999893
 31
0.0
  0
ARC
  5
8C2
  8
DETAIL
  6
CONTINUOUS
 62
     5
 10
139.0
 20
201.0
 30
0.0
 40
3.2149649999999981
 50
81.052887999937681
 51
98.947112000062333
  0
ARC
  5
8C3
  8
DETAIL
  6
CONTINUOUS
 62
     5
 10
139.0
 20
51.0
 30
0.0
 40
3.2149649999999981
 50
81.052887999937681
 51
98.947112000062333
  0
ARC
  5
8C4
  8
DETAIL
  6
CONTINUOUS
 62
     5
 10
139.0
 20
201.0
 30
0.0
 40
3.2149649999999981
 50
261.0528879999377
 51
278.9471120000623
  0
ARC
  5
8C5
  8
DETAIL
  6
CONTINUOUS
 62
     5
 10
139.0
 20
51.0
 30
0.0
 40
3.2149649999999981
 50
261.0528879999377
 51
278.9471120000623
  0
ARC
  5
8C6
  8
DETAIL
  6
CONTINUOUS
 62
     5
 10
139.0
 20
201.0
 30
0.0
 40
3.2149649999999981
 50
351.05288799998908
 51
8.9471120000108453
  0
ARC
  5
8C7
  8
DETAIL
  6
CONTINUOUS
 62
     5
 10
139.0
 20
51.0
 30
0.0
 40
3.2149649999999981
 50
351.05288799998908
 51
8.9471120000108453
  0
ARC
  5
8C8
  8
DETAIL
  6
CONTINUOUS
 62
     5
 10
139.0
 20
201.0
 30
0.0
 40
3.2149649999999981
 50
171.05288799998911
 51
188.94711199999799
  0
ARC
  5
8C9
  8
DETAIL
  6
CONTINUOUS
 62
     5
 10
139.0
 20
51.0
 30
0.0
 40
3.2149649999999981
 50
171.05288799998911
 51
188.94711199999799
  0
CIRCLE
  5
8CA
  8
DETAIL
  6
CONTINUOUS
 62
     5
 10
-13.14212000000043
 20
17.809285999999702
 30
0.0
 40
4.7000000000000002
  0
CIRCLE
  5
8CB
  8
DETAIL
  6
CONTINUOUS
 62
     5
 10
139.0
 20
201.0
 30
0.0
 40
4.7000000000000002
  0
CIRCLE
  5
8CC
  8
DETAIL
  6
CONTINUOUS
 62
     5
 10
139.0
 20
51.0
 30
0.0
 40
4.7000000000000002
  0
LINE
  5
8CF
  8
SIZE
  6
CONTINUOUS
 62
    30
 10
-236.8835748688052
 20
159.0
 30
0.0
 11
-720.21321542664896
 21
159.00000000000011
 31
0.0
  0
LINE
  5
8D0
  8
SIZE
  6
CONTINUOUS
 62
    30
 10
-260.0
 20
0.0000000000000057
 30
0.0
 11
-720.21321542664896
 21
0.000000000000136
 31
0.0
  0
LINE
  5
8D1
  8
SIZE
  6
CONTINUOUS
 62
    30
 10
-700.21321542664896
 20
159.00000000000011
 30
0.0
 11
-700.21321542664896
 21
0.0000000000001304
 31
0.0
  0
CIRCLE
  5
8D2
  8
SIZE
  6
CONTINUOUS
 62
    30
 10
-700.21321542664896
 20
159.00000000000011
 30
0.0
 40
7.5
  0
CIRCLE
  5
8D3
  8
SIZE
  6
CONTINUOUS
 62
    30
 10
-700.21321542664896
 20
0.0000000000001304
 30
0.0
 40
7.5
  0
TEXT
  5
8D4
  8
SIZE
  6
CONTINUOUS
 62
    30
 10
-720.21321542664896
 20
16.500000000000121
 30
0.0
 40
60.0
  1
159
 50
90.0
 41
0.9
 72
     1
 11
-720.21321542664896
 21
79.500000000000128
 31
0.0
  0
POINT
  5
8D6
  8
DEFPOINTS
  6
CONTINUOUS
 62
     7
 10
-240.0
 20
0.0
 30
0.0
  0
POINT
  5
8D7
  8
DEFPOINTS
  6
CONTINUOUS
 62
     7
 10
-700.21321542664896
 20
0.0000000000001304
 30
0.0
  0
LINE
  5
8D8
  8
SIZE
  6
CONTINUOUS
 62
    30
 10
-241.65704893768171
 20
46.0
 30
0.0
 11
-607.07490494024921
 21
46.000000000000107
 31
0.0
  0
LINE
  5
8D9
  8
SIZE
  6
CONTINUOUS
 62
    30
 10
-260.0
 20
0.0000000000000057
 30
0.0
 11
-607.07490494024921
 21
0.000000000000104
 31
0.0
  0
LINE
  5
8DA
  8
SIZE
  6
CONTINUOUS
 62
    30
 10
-587.07490494024898
 20
46.000000000000107
 30
0.0
 11
-587.07490494024898
 21
0.0000000000000983
 31
0.0
  0
LINE
  5
8DB
  8
SIZE
  6
CONTINUOUS
 62
    30
 10
-587.07490494024898
 20
0.0000000000000983
 30
0.0
 11
-587.07490494024898
 21
-130.38761717372199
 31
0.0
  0
CIRCLE
  5
8DC
  8
SIZE
  6
CONTINUOUS
 62
    30
 10
-587.07490494024898
 20
46.000000000000107
 30
0.0
 40
7.5
  0
CIRCLE
  5
8DD
  8
SIZE
  6
CONTINUOUS
 62
    30
 10
-587.07490494024898
 20
0.0000000000000983
 30
0.0
 40
7.5
  0
TEXT
  5
8DE
  8
SIZE
  6
CONTINUOUS
 62
    30
 10
-607.07490494024921
 20
-115.5939463572934
 30
0.0
 40
60.0
  1
46
 50
90.0
 41
0.9
 72
     1
 11
-607.07490494024921
 21
-73.165374928722031
 31
0.0
  0
POINT
  5
8DF
  8
DEFPOINTS
  6
CONTINUOUS
 62
     7
 10
-221.65704893768171
 20
46.0
 30
0.0
  0
POINT
  5
8E0
  8
DEFPOINTS
  6
CONTINUOUS
 62
     7
 10
-240.0
 20
0.0
 30
0.0
  0
POINT
  5
8E1
  8
DEFPOINTS
  6
CONTINUOUS
 62
     7
 10
-587.07490494024898
 20
0.0000000000000983
 30
0.0
  0
LINE
  5
8E2
  8
NOTE
  6
CONTINUOUS
 62
     4
 10
-202.00000000000091
 20
170.6779991224866
 30
0.0
 11
-202.00000000000091
 21
147.32200087751309
 31
0.0
  0
LINE
  5
8E3
  8
NOTE
  6
CONTINUOUS
 62
     4
 10
-202.00000000000091
 20
61.181398859232097
 30
0.0
 11
-202.00000000000091
 21
30.8186011407679
 31
0.0
  0
LINE
  5
8E4
  8
SIZE
  6
CONTINUOUS
 62
    30
 10
-240.0
 20
-20.0
 30
0.0
 11
-240.0
 21
-394.8225436363
 31
0.0
  0
LINE
  5
8E5
  8
SIZE
  6
CONTINUOUS
 62
    30
 10
-202.00000000000091
 20
10.818601140767891
 30
0.0
 11
-202.00000000000091
 21
-394.8225436363
 31
0.0
  0
LINE
  5
8E6
  8
SIZE
  6
CONTINUOUS
 62
    30
 10
-202.00000000000091
 20
-374.8225436363
 30
0.0
 11
-172.00000000000091
 21
-374.8225436363
 31
0.0
  0
LINE
  5
8E7
  8
SIZE
  6
CONTINUOUS
 62
    30
 10
-240.0
 20
-374.8225436363
 30
0.0
 11
-378.6072671455932
 21
-374.8225436363
 31
0.0
  0
LINE
  5
8E8
  8
SIZE
  6
CONTINUOUS
 62
    30
 10
-202.00000000000091
 20
-374.8225436363
 30
0.0
 11
-240.0
 21
-374.8225436363
 31
0.0
  0
CIRCLE
  5
8E9
  8
SIZE
  6
CONTINUOUS
 62
    30
 10
-202.00000000000091
 20
-374.8225436363
 30
0.0
 40
7.5
  0
CIRCLE
  5
8EA
  8
SIZE
  6
CONTINUOUS
 62
    30
 10
-240.0
 20
-374.8225436363
 30
0.0
 40
7.5
  0
TEXT
  5
8EB
  8
SIZE
  6
CONTINUOUS
 62
    30
 10
-370.11092297298222
 20
-354.8225436363
 30
0.0
 40
60.0
  1
38
 41
0.9
 72
     1
 11
-326.3966372586965
 21
-354.8225436363
 31
0.0
  0
POINT
  5
8EC
  8
DEFPOINTS
  6
CONTINUOUS
 62
     7
 10
-240.0
 20
0.0
 30
0.0
  0
POINT
  5
8ED
  8
DEFPOINTS
  6
CONTINUOUS
 62
     7
 10
-202.00000000000091
 20
30.8186011407679
 30
0.0
  0
POINT
  5
8EE
  8
DEFPOINTS
  6
CONTINUOUS
 62
     7
 10
-202.00000000000091
 20
-374.8225436363
 30
0.0
  0
LINE
  5
8EF
  8
NOTE
  6
CENTER
 62
     4
 10
-230.0
 20
9.75
 30
0.0
 11
-230.0
 21
-9.75
 31
0.0
  0
LINE
  5
8F0
  8
NOTE
  6
CENTER
 62
     4
 10
80.0
 20
9.75
 30
0.0
 11
80.0
 21
-9.75
 31
0.0
  0
CIRCLE
  5
8F1
  8
FIX
  6
CONTINUOUS
 62
    11
 10
-230.0
 20
0.0
 30
0.0
 40
8.6950485571074356
  0
CIRCLE
  5
8F2
  8
FIX
  6
CONTINUOUS
 62
    11
 10
80.0
 20
0.0
 30
0.0
 40
8.6950485571074356
  0
LINE
  5
8F3
  8
SIZE
  6
CONTINUOUS
 62
    30
 10
-230.0
 20
-29.75
 30
0.0
 11
-230.0
 21
-668.84490929989352
 31
0.0
  0
LINE
  5
8F4
  8
SIZE
  6
CONTINUOUS
 62
    30
 10
80.0
 20
-29.75
 30
0.0
 11
79.999999999999957
 21
-668.84490929989352
 31
0.0
  0
LINE
  5
8F5
  8
SIZE
  6
CONTINUOUS
 62
    30
 10
-230.0
 20
-648.84490929989329
 30
0.0
 11
79.999999999999957
 21
-648.84490929989329
 31
0.0
  0
CIRCLE
  5
8F6
  8
SIZE
  6
CONTINUOUS
 62
    30
 10
-230.0
 20
-648.84490929989329
 30
0.0
 40
7.5
  0
CIRCLE
  5
8F7
  8
SIZE
  6
CONTINUOUS
 62
    30
 10
79.999999999999957
 20
-648.84490929989329
 30
0.0
 40
7.5
  0
TEXT
  5
8F8
  8
SIZE
  6
CONTINUOUS
 62
    30
 10
-139.28571428571431
 20
-628.84490929989317
 30
0.0
 40
60.0
  1
310
 41
0.9
 72
     1
 11
-75.000000000000014
 21
-628.84490929989317
 31
0.0
  0
POINT
  5
8F9
  8
DEFPOINTS
  6
CONTINUOUS
 62
     7
 10
-230.0
 20
-9.75
 30
0.0
  0
POINT
  5
8FA
  8
DEFPOINTS
  6
CONTINUOUS
 62
     7
 10
80.0
 20
-9.75
 30
0.0
  0
POINT
  5
8FB
  8
DEFPOINTS
  6
CONTINUOUS
 62
     7
 10
79.999999999999957
 20
-648.84490929989329
 30
0.0
  0
LINE
  5
8FC
  8
SIZE
  6
CONTINUOUS
 62
    30
 10
-230.0
 20
-29.75
 30
0.0
 11
-230.0
 21
-668.84490929989352
 31
0.0
  0
LINE
  5
8FD
  8
SIZE
  6
CONTINUOUS
 62
    30
 10
-240.0
 20
-20.0
 30
0.0
 11
-240.0
 21
-668.84490929989352
 31
0.0
  0
LINE
  5
8FE
  8
SIZE
  6
CONTINUOUS
 62
    30
 10
-230.0
 20
-648.84490929989329
 30
0.0
 11
-200.0
 21
-648.84490929989329
 31
0.0
  0
LINE
  5
8FF
  8
SIZE
  6
CONTINUOUS
 62
    30
 10
-240.0
 20
-648.84490929989329
 30
0.0
 11
-375.62380631690212
 21
-648.84490929989329
 31
0.0
  0
LINE
  5
900
  8
SIZE
  6
CONTINUOUS
 62
    30
 10
-230.0
 20
-648.84490929989329
 30
0.0
 11
-240.0
 21
-648.84490929989329
 31
0.0
  0
CIRCLE
  5
901
  8
SIZE
  6
CONTINUOUS
 62
    30
 10
-230.0
 20
-648.84490929989329
 30
0.0
 40
7.5
  0
CIRCLE
  5
902
  8
SIZE
  6
CONTINUOUS
 62
    30
 10
-240.0
 20
-648.84490929989329
 30
0.0
 40
7.5
  0
TEXT
  5
903
  8
SIZE
  6
CONTINUOUS
 62
    30
 10
-363.47632947170598
 20
-628.84490929989317
 30
0.0
 40
60.0
  1
10
 41
0.9
 72
     1
 11
-324.90490090027743
 21
-628.84490929989317
 31
0.0
  0
POINT
  5
904
  8
DEFPOINTS
  6
CONTINUOUS
 62
     7
 10
-230.0
 20
-9.75
 30
0.0
  0
POINT
  5
905
  8
DEFPOINTS
  6
CONTINUOUS
 62
     7
 10
-240.0
 20
0.0
 30
0.0
  0
POINT
  5
906
  8
DEFPOINTS
  6
CONTINUOUS
 62
     7
 10
-240.0
 20
-648.84490929989329
 30
0.0
  0
LINE
  5
907
  8
SIZE
  6
CONTINUOUS
 62
    30
 10
-240.0
 20
-20.0
 30
0.0
 11
-240.00000000000011
 21
-797.15695859489369
 31
0.0
  0
LINE
  5
908
  8
SIZE
  6
CONTINUOUS
 62
    30
 10
240.0
 20
-20.0
 30
0.0
 11
239.99999999999989
 21
-797.15695859489369
 31
0.0
  0
LINE
  5
909
  8
SIZE
  6
CONTINUOUS
 62
    30
 10
-240.00000000000011
 20
-777.15695859489347
 30
0.0
 11
239.99999999999989
 21
-777.15695859489347
 31
0.0
  0
CIRCLE
  5
90A
  8
SIZE
  6
CONTINUOUS
 62
    30
 10
-240.00000000000011
 20
-777.15695859489347
 30
0.0
 40
7.5
  0
CIRCLE
  5
90B
  8
SIZE
  6
CONTINUOUS
 62
    30
 10
239.99999999999989
 20
-777.15695859489347
 30
0.0
 40
7.5
  0
TEXT
  5
90C
  8
SIZE
  6
CONTINUOUS
 62
    30
 10
-69.428571428571431
 20
-757.15695859489324
 30
0.0
 40
60.0
  1
480
 41
0.9
 72
     1
 11
0.0
 21
-757.15695859489324
 31
0.0
  0
POINT
  5
90D
  8
DEFPOINTS
  6
CONTINUOUS
 62
     7
 10
-240.0
 20
0.0
 30
0.0
  0
POINT
  5
90E
  8
DEFPOINTS
  6
CONTINUOUS
 62
     7
 10
240.0
 20
0.0
 30
0.0
  0
POINT
  5
90F
  8
DEFPOINTS
  6
CONTINUOUS
 62
     7
 10
239.99999999999989
 20
-777.15695859489347
 30
0.0
  0
LINE
  5
910
  8
NOTE
  6
CENTER
 62
     4
 10
-190.0
 20
9.75
 30
0.0
 11
-190.0
 21
-9.75
 31
0.0
  0
CIRCLE
  5
911
  8
FIX
  6
CONTINUOUS
 62
    11
 10
-190.0
 20
0.0
 30
0.0
 40
8.6950485571074356
  0
LINE
  5
912
  8
SIZE
  6
CONTINUOUS
 62
    30
 10
-230.0
 20
-29.75
 30
0.0
 11
-230.0
 21
-540.05545059100496
 31
0.0
  0
LINE
  5
913
  8
SIZE
  6
CONTINUOUS
 62
    30
 10
-190.0
 20
-29.75
 30
0.0
 11
-190.0
 21
-540.05545059100496
 31
0.0
  0
LINE
  5
914
  8
SIZE
  6
CONTINUOUS
 62
    30
 10
-230.0
 20
-520.05545059100496
 30
0.0
 11
-190.0
 21
-520.05545059100496
 31
0.0
  0
LINE
  5
915
  8
SIZE
  6
CONTINUOUS
 62
    30
 10
-190.0
 20
-520.05545059100496
 30
0.0
 11
-48.934405713825981
 21
-520.05545059100496
 31
0.0
  0
CIRCLE
  5
916
  8
SIZE
  6
CONTINUOUS
 62
    30
 10
-230.0
 20
-520.05545059100496
 30
0.0
 40
7.5
  0
CIRCLE
  5
917
  8
SIZE
  6
CONTINUOUS
 62
    30
 10
-190.0
 20
-520.05545059100496
 30
0.0
 40
7.5
  0
TEXT
  5
918
  8
SIZE
  6
CONTINUOUS
 62
    30
 10
-149.33452444619201
 20
-500.05545059100479
 30
0.0
 40
60.0
  1
40
 41
0.9
 72
     1
 11
-105.6202387319063
 21
-500.05545059100479
 31
0.0
  0
POINT
  5
919
  8
DEFPOINTS
  6
CONTINUOUS
 62
     7
 10
-230.0
 20
-9.75
 30
0.0
  0
POINT
  5
91A
  8
DEFPOINTS
  6
CONTINUOUS
 62
     7
 10
-190.0
 20
-9.75
 30
0.0
  0
POINT
  5
91B
  8
DEFPOINTS
  6
CONTINUOUS
 62
     7
 10
-190.0
 20
-520.05545059100496
 30
0.0
  0
LINE
  5
91C
  8
SIZE
  6
CONTINUOUS
 62
    30
 10
-260.0
 20
0.0000000000000057
 30
0.0
 11
-848.5817220348307
 21
0.0000000000001724
 31
0.0
  0
LINE
  5
91D
  8
SIZE
  6
CONTINUOUS
 62
    30
 10
-98.30000000000021
 20
230.9999999999992
 30
0.0
 11
-848.5817220348307
 21
230.9999999999996
 31
0.0
  0
LINE
  5
91E
  8
SIZE
  6
CONTINUOUS
 62
    30
 10
-828.58172203483082
 20
0.0000000000001667
 30
0.0
 11
-828.58172203483082
 21
230.99999999999949
 31
0.0
  0
CIRCLE
  5
91F
  8
SIZE
  6
CONTINUOUS
 62
    30
 10
-828.58172203483082
 20
0.0000000000001667
 30
0.0
 40
7.5
  0
CIRCLE
  5
920
  8
SIZE
  6
CONTINUOUS
 62
    30
 10
-828.58172203483082
 20
230.99999999999949
 30
0.0
 40
7.5
  0
TEXT
  5
921
  8
SIZE
  6
CONTINUOUS
 62
    30
 10
-848.5817220348307
 20
57.642857142857551
 30
0.0
 40
60.0
  1
231
 50
90.0
 41
0.9
 72
     1
 11
-848.5817220348307
 21
115.5000000000004
 31
0.0
  0
POINT
  5
922
  8
DEFPOINTS
  6
CONTINUOUS
 62
     7
 10
-240.0
 20
0.0
 30
0.0
  0
POINT
  5
923
  8
DEFPOINTS
  6
CONTINUOUS
 62
     7
 10
-78.300000000000196
 20
230.9999999999992
 30
0.0
  0
POINT
  5
924
  8
DEFPOINTS
  6
CONTINUOUS
 62
     7
 10
-828.58172203483082
 20
230.99999999999949
 30
0.0
  0
TEXT
  5
925
  8
NOTE
  6
CONTINUOUS
 62
     4
 10
289.37221606260852
 20
-182.67622198782001
 30
0.0
 40
60.0
  1
AH 5-%%C10
 50
0.0000025044165917
 41
0.7
  7
STANDARD1
  0
TEXT
  5
926
  8
NOTE
  6
CONTINUOUS
 62
     4
 10
-765.54303276169833
 20
-234.28399192387079
 30
0.0
 40
60.0
  1
AH 10x35長穴
 50
0.0000025044165917
 41
0.7
  7
STANDARD1
  0
TEXT
  5
927
  8
NOTE
  6
CONTINUOUS
 62
     4
 10
-633.50166294615406
 20
435.69985383442651
 30
0.0
 40
60.0
  1
RL %%C6.35
 50
0.0000025044165917
 41
0.7
  7
STANDARD1
  0
TEXT
  5
928
  8
NOTE
  6
CONTINUOUS
 62
     4
 10
-692.01175007413894
 20
302.02211464265201
 30
0.0
 40
60.0
  1
RG %%C9.52
 50
0.0000025044165917
 41
0.7
  7
STANDARD1
  0
LINE
  5
929
  8
BASIS
  6
DASHDOT
 62
     6
 10
0.0
 20
264.87021789791009
 30
0.0
 11
0.0
 21
-68.521703394101678
 31
0.0
  0
CIRCLE
  5
92A
  8
ARRANGE
  6
CONTINUOUS
 62
     1
 10
0.0
 20
0.0
 30
0.0
 40
50.0
  0
LINE
  5
92B
  8
ARRANGE
  6
CONTINUOUS
 62
     1
 10
50.037350031328963
 20
-49.522353150325202
 30
0.0
 11
-50.037350031328963
 21
49.522353150325202
 31
0.0
  0
LINE
  5
92C
  8
ARRANGE
  6
CONTINUOUS
 62
     1
 10
49.963763310501221
 20
49.596594797985738
 30
0.0
 11
-49.963763310501221
 21
-49.5965947979821
 31
0.0
  0
TEXT
  5
92D
  8
ETC
  6
CONTINUOUS
 62
    61
 10
60.063908875873487
 20
342.64699281925868
 30
0.0
 40
64.0
  1
M9A-03LAB_2
 50
0.0000029998804485
 41
0.9
  7
STANDARD_MODELNAME
  0
LINE
  5
92E
  8
OUTLINE
  6
CONTINUOUS
 62
     3
 10
-240.0
 20
0.0
 30
0.0
 11
240.0
 21
0.0
 31
0.0
  0
LINE
  5
92F
  8
OUTLINE
  6
CONTINUOUS
 62
     3
 10
240.0
 20
0.0
 30
0.0
 11
240.0
 21
8.7999999999992724
 31
0.0
  0
ARC
  5
930
  8
OUTLINE
  6
CONTINUOUS
 62
     3
 10
237.80000000000021
 20
8.7999999999992724
 30
0.0
 40
2.2000000000000002
 50
0.0
 51
90.0
  0
LINE
  5
931
  8
OUTLINE
  6
CONTINUOUS
 62
     3
 10
-237.80000000000021
 20
10.99999999999927
 30
0.0
 11
237.80000000000021
 21
10.99999999999927
 31
0.0
  0
LINE
  5
932
  8
OUTLINE
  6
CONTINUOUS
 62
     3
 10
237.0
 20
11.0
 30
0.0
 11
237.0
 21
212.0
 31
0.0
  0
LINE
  5
933
  8
OUTLINE
  6
CONTINUOUS
 62
     3
 10
237.0
 20
212.0
 30
0.0
 11
238.5
 21
212.0
 31
0.0
  0
LINE
  5
934
  8
OUTLINE
  6
CONTINUOUS
 62
     3
 10
238.5
 20
212.0
 30
0.0
 11
238.5
 21
222.7999999999993
 31
0.0
  0
ARC
  5
935
  8
OUTLINE
  6
CONTINUOUS
 62
     3
 10
237.30000000000021
 20
222.7999999999993
 30
0.0
 40
1.1999999999999991
 50
0.0
 51
90.0
  0
LINE
  5
936
  8
OUTLINE
  6
CONTINUOUS
 62
     3
 10
237.30000000000021
 20
224.0
 30
0.0
 11
134.0
 21
224.0
 31
0.0
  0
ARC
  5
937
  8
OUTLINE
  6
CONTINUOUS
 62
     3
 10
134.0
 20
223.0
 30
0.0
 40
1.0
 50
90.0
 51
180.0
  0
LINE
  5
938
  8
OUTLINE
  6
CONTINUOUS
 62
     3
 10
133.0
 20
223.0
 30
0.0
 11
133.0
 21
12.19999999999982
 31
0.0
  0
LINE
  5
939
  8
OUTLINE
  6
CONTINUOUS
 62
     3
 10
133.0
 20
216.34999999999951
 30
0.0
 11
129.75147199999981
 21
216.34999999999951
 31
0.0
  0
LINE
  5
93A
  8
OUTLINE
  6
CONTINUOUS
 62
     3
 10
129.75147199999981
 20
216.34999999999951
 30
0.0
 11
128.9264720000001
 21
215.52499999999969
 31
0.0
  0
LINE
  5
93B
  8
OUTLINE
  6
CONTINUOUS
 62
     3
 10
102.6863190000003
 20
215.52499999999969
 30
0.0
 11
128.9264720000001
 21
215.52499999999969
 31
0.0
  0
LINE
  5
93C
  8
OUTLINE
  6
CONTINUOUS
 62
     3
 10
100.9057320000001
 20
217.092028
 30
0.0
 11
103.0058410000001
 21
215.24379999999931
 31
0.0
  0
LINE
  5
93D
  8
OUTLINE
  6
CONTINUOUS
 62
     3
 10
98.554559000000154
 20
218.57638499999939
 30
0.0
 11
100.9057320000001
 21
217.092028
 31
0.0
  0
LINE
  5
93E
  8
OUTLINE
  6
CONTINUOUS
 62
     3
 10
96.010624999999905
 20
219.66176999999971
 30
0.0
 11
98.554559000000154
 21
218.57638499999939
 31
0.0
  0
LINE
  5
93F
  8
OUTLINE
  6
CONTINUOUS
 62
     3
 10
93.336463999999964
 20
220.32293899999971
 30
0.0
 11
96.010624999999905
 21
219.66176999999971
 31
0.0
  0
LINE
  5
940
  8
OUTLINE
  6
CONTINUOUS
 62
     3
 10
90.597316999999705
 20
220.5449159999998
 30
0.0
 11
93.336463999999964
 21
220.32293899999971
 31
0.0
  0
LINE
  5
941
  8
OUTLINE
  6
CONTINUOUS
 62
     3
 10
71.498021999999764
 20
220.5449159999998
 30
0.0
 11
90.597316999999705
 21
220.5449159999998
 31
0.0
  0
LINE
  5
942
  8
OUTLINE
  6
CONTINUOUS
 62
     3
 10
68.756859000000077
 20
220.32260999999929
 30
0.0
 11
71.498021999999764
 21
220.5449159999998
 31
0.0
  0
LINE
  5
943
  8
OUTLINE
  6
CONTINUOUS
 62
     3
 10
66.082110000000284
 20
219.66089800000009
 30
0.0
 11
68.756859000000077
 21
220.32260999999929
 31
0.0
  0
LINE
  5
944
  8
OUTLINE
  6
CONTINUOUS
 62
     3
 10
63.538695000000182
 20
218.5752899999998
 30
0.0
 11
66.082110000000284
 21
219.66089800000009
 31
0.0
  0
LINE
  5
945
  8
OUTLINE
  6
CONTINUOUS
 62
     3
 10
61.188662999999892
 20
217.09132099999991
 30
0.0
 11
63.538695000000182
 21
218.5752899999998
 31
0.0
  0
LINE
  5
946
  8
OUTLINE
  6
CONTINUOUS
 62
     3
 10
59.089758000000067
 20
215.244068
 30
0.0
 11
61.188662999999892
 21
217.09132099999991
 31
0.0
  0
LINE
  5
947
  8
OUTLINE
  6
CONTINUOUS
 62
     3
 10
57.293829999999623
 20
213.07712699999959
 30
0.0
 11
59.089758000000067
 21
215.244068
 31
0.0
  0
LINE
  5
948
  8
OUTLINE
  6
CONTINUOUS
 62
     3
 10
55.847001000000091
 20
210.64387699999949
 30
0.0
 11
57.293829999999623
 21
213.07712699999959
 31
0.0
  0
LINE
  5
949
  8
OUTLINE
  6
CONTINUOUS
 62
     3
 10
54.786070000000102
 20
208.00411899999929
 30
0.0
 11
55.847001000000091
 21
210.64387699999949
 31
0.0
  0
LINE
  5
94A
  8
OUTLINE
  6
CONTINUOUS
 62
     3
 10
54.138234000000011
 20
205.22311499999981
 30
0.0
 11
54.786070000000102
 21
208.00411899999929
 31
0.0
  0
LINE
  5
94B
  8
OUTLINE
  6
CONTINUOUS
 62
     3
 10
54.026501000000273
 20
203.7600409999996
 30
0.0
 11
54.138234000000011
 21
205.22311499999981
 31
0.0
  0
LINE
  5
94C
  8
OUTLINE
  6
CONTINUOUS
 62
     3
 10
52.699999999999811
 20
204.4883190000001
 30
0.0
 11
54.026501012754117
 21
203.76004116700051
 31
0.0
  0
LINE
  5
94D
  8
OUTLINE
  6
CONTINUOUS
 62
     3
 10
52.700000000000102
 20
10.99999999999971
 30
0.0
 11
52.699999999999811
 21
229.99999999999929
 31
0.0
  0
ARC
  5
94E
  8
OUTLINE
  6
CONTINUOUS
 62
     3
 10
51.699999999999818
 20
229.99999999999929
 30
0.0
 40
1.0
 50
0.0
 51
90.0
  0
LINE
  5
94F
  8
OUTLINE
  6
CONTINUOUS
 62
     3
 10
51.699999999999818
 20
230.9999999999992
 30
0.0
 11
-96.300000000000225
 21
230.9999999999992
 31
0.0
  0
ARC
  5
950
  8
OUTLINE
  6
CONTINUOUS
 62
     3
 10
-96.300000000000225
 20
229.99999999999929
 30
0.0
 40
1.0
 50
90.0
 51
180.0
  0
LINE
  5
951
  8
OUTLINE
  6
CONTINUOUS
 62
     3
 10
-97.30000000000021
 20
229.99999999999929
 30
0.0
 11
-97.30000000000021
 21
11.0
 31
0.0
  0
LINE
  5
954
  8
OUTLINE
  6
CONTINUOUS
 62
     3
 10
-97.293606608239728
 20
230.11289777704911
 30
0.0
 11
-109.8459460000003
 21
230.39999999999961
 31
0.0
  0
LINE
  5
955
  8
OUTLINE
  6
CONTINUOUS
 62
     3
 10
-109.85569099999969
 20
230.39999999999961
 30
0.0
 11
-121.3123530000002
 21
230.1738349999996
 31
0.0
  0
LINE
  5
956
  8
OUTLINE
  6
CONTINUOUS
 62
     3
 10
-121.3123530000002
 20
230.1738349999996
 30
0.0
 11
-132.7513950000002
 21
229.4960659999997
 31
0.0
  0
LINE
  5
957
  8
OUTLINE
  6
CONTINUOUS
 62
     3
 10
-132.7513950000002
 20
229.4960659999997
 30
0.0
 11
-144.15506699999969
 21
228.3677389999994
 31
0.0
  0
LINE
  5
958
  8
OUTLINE
  6
CONTINUOUS
 62
     3
 10
-144.15506699999969
 20
228.3677389999994
 30
0.0
 11
-155.34863800000039
 21
226.81553699999949
 31
0.0
  0
LINE
  5
959
  8
OUTLINE
  6
CONTINUOUS
 62
     3
 10
-155.3485190000001
 20
226.81555599999959
 30
0.0
 11
-157.23544599999971
 21
226.4374029999999
 31
0.0
  0
ARC
  5
95A
  8
OUTLINE
  6
CONTINUOUS
 62
     3
 10
-153.98086499999951
 20
205.4651530000001
 30
0.0
 40
21.223279000000002
 50
98.821090000024995
 51
147.99919800002661
  0
ARC
  5
95B
  8
OUTLINE
  6
CONTINUOUS
 62
     3
 10
-161.71071700003259
 20
196.4000000000126
 30
0.0
 40
22.75999999996759
 50
116.81799174826639
 51
122.9497287499606
  0
LINE
  5
95C
  8
OUTLINE
  6
CONTINUOUS
 62
     3
 10
-174.0899487540992
 20
215.49901099999991
 30
0.0
 11
-178.6263220000001
 21
215.49901099999991
 31
0.0
  0
LINE
  5
95D
  8
OUTLINE
  6
CONTINUOUS
 62
     3
 10
-178.62632181840399
 20
215.49901099999991
 30
0.0
 11
-179.871196
 21
216.80145799999991
 31
0.0
  0
LINE
  5
95E
  8
OUTLINE
  6
CONTINUOUS
 62
     3
 10
-179.91756400000031
 20
216.84169399999971
 30
0.0
 11
-179.871196
 21
216.80145799999991
 31
0.0
  0
LINE
  5
95F
  8
OUTLINE
  6
CONTINUOUS
 62
     3
 10
-180.0115089999999
 20
216.87401099999991
 30
0.0
 11
-179.91756400000031
 21
216.84169399999971
 31
0.0
  0
LINE
  5
960
  8
OUTLINE
  6
CONTINUOUS
 62
     3
 10
-180.0115089999999
 20
216.87401099999991
 30
0.0
 11
-182.24884899999961
 21
216.87401099999991
 31
0.0
  0
LINE
  5
961
  8
OUTLINE
  6
CONTINUOUS
 62
     3
 10
-182.24884899999961
 20
216.87401099999991
 30
0.0
 11
-198.35343300000011
 21
216.87401099999991
 31
0.0
  0
LINE
  5
962
  8
OUTLINE
  6
CONTINUOUS
 62
     3
 10
-198.35343300000011
 20
216.87401099999991
 30
0.0
 11
-201.35287700000029
 21
216.61907900000011
 31
0.0
  0
LINE
  5
963
  8
OUTLINE
  6
CONTINUOUS
 62
     3
 10
-201.35287700000029
 20
216.61907900000011
 30
0.0
 11
-204.28353700000011
 21
215.86050100000011
 31
0.0
  0
LINE
  5
964
  8
OUTLINE
  6
CONTINUOUS
 62
     3
 10
-204.28353700000011
 20
215.86050100000011
 30
0.0
 11
-207.06413400000019
 21
214.61713499999951
 31
0.0
  0
LINE
  5
965
  8
OUTLINE
  6
CONTINUOUS
 62
     3
 10
-207.06413400000019
 20
214.61713499999951
 30
0.0
 11
-209.6100749999996
 21
212.9253369999997
 31
0.0
  0
LINE
  5
966
  8
OUTLINE
  6
CONTINUOUS
 62
     3
 10
-209.6100749999996
 20
212.9253369999997
 30
0.0
 11
-211.84967500000039
 21
210.83243299999961
 31
0.0
  0
LINE
  5
967
  8
OUTLINE
  6
CONTINUOUS
 62
     3
 10
-211.84967500000039
 20
210.83243299999961
 30
0.0
 11
-213.71744599999971
 21
208.39964799999959
 31
0.0
  0
LINE
  5
968
  8
OUTLINE
  6
CONTINUOUS
 62
     3
 10
-213.71744599999971
 20
208.39964799999959
 30
0.0
 11
-215.1608260000003
 21
205.69622899999919
 31
0.0
  0
LINE
  5
969
  8
OUTLINE
  6
CONTINUOUS
 62
     3
 10
-215.1608260000003
 20
205.69622899999919
 30
0.0
 11
-216.1386590000001
 21
202.80084199999959
 31
0.0
  0
LINE
  5
96A
  8
OUTLINE
  6
CONTINUOUS
 62
     3
 10
-216.1386590000001
 20
202.80084199999959
 30
0.0
 11
-216.62427300000039
 21
199.79554699999969
 31
0.0
  0
LINE
  5
96B
  8
OUTLINE
  6
CONTINUOUS
 62
     3
 10
-216.62427300000039
 20
199.79554699999969
 30
0.0
 11
-216.6049000000003
 21
196.76767799999919
 31
0.0
  0
LINE
  5
96C
  8
OUTLINE
  6
CONTINUOUS
 62
     3
 10
-216.6049000000003
 20
196.76767799999919
 30
0.0
 11
-216.08236500000021
 21
193.8008669999999
 31
0.0
  0
LINE
  5
96D
  8
OUTLINE
  6
CONTINUOUS
 62
     3
 10
-216.08236500000021
 20
193.8008669999999
 30
0.0
 11
-215.07329999999999
 21
190.98124199999981
 31
0.0
  0
LINE
  5
96E
  8
OUTLINE
  6
CONTINUOUS
 62
     3
 10
-215.07329999999999
 20
190.98124199999981
 30
0.0
 11
-213.60607900000011
 21
188.384548
 31
0.0
  0
LINE
  5
96F
  8
OUTLINE
  6
CONTINUOUS
 62
     3
 10
-213.60607900000011
 20
188.384548
 30
0.0
 11
-211.7235959999997
 21
186.0851949999996
 31
0.0
  0
LINE
  5
970
  8
OUTLINE
  6
CONTINUOUS
 62
     3
 10
-211.7235959999997
 20
186.0851949999996
 30
0.0
 11
-209.73999999999981
 21
184.37216199999929
 31
0.0
  0
LINE
  5
971
  8
OUTLINE
  6
CONTINUOUS
 62
     3
 10
-209.73999999999981
 20
171.0
 30
0.0
 11
-209.73999999999981
 21
184.37216199999929
 31
0.0
  0
LINE
  5
972
  8
OUTLINE
  6
CONTINUOUS
 62
     3
 10
-207.61867999999961
 20
168.0
 30
0.0
 11
-209.73999999999981
 21
171.0
 31
0.0
  0
LINE
  5
973
  8
OUTLINE
  6
CONTINUOUS
 62
     3
 10
-207.61867999999961
 20
168.0
 30
0.0
 11
-196.76242300000001
 21
168.0
 31
0.0
  0
LINE
  5
974
  8
OUTLINE
  6
CONTINUOUS
 62
     3
 10
-196.85886199999999
 20
167.5
 30
0.0
 11
-196.76242300000001
 21
168.0
 31
0.0
  0
LINE
  5
975
  8
OUTLINE
  6
CONTINUOUS
 62
     3
 10
-196.85886199999999
 20
167.5
 30
0.0
 11
-205.9269110000005
 21
167.5
 31
0.0
  0
LINE
  5
976
  8
OUTLINE
  6
CONTINUOUS
 62
     3
 10
-205.9269110000005
 20
167.5
 30
0.0
 11
-207.04699600000001
 21
164.75636200000011
 31
0.0
  0
LINE
  5
977
  8
OUTLINE
  6
CONTINUOUS
 62
     3
 10
-208.32578699999971
 20
163.39999999999961
 30
0.0
 11
-207.04699563870511
 21
164.7563628849893
 31
0.0
  0
LINE
  5
978
  8
OUTLINE
  6
CONTINUOUS
 62
     3
 10
-208.4171409999999
 20
163.3000729999994
 30
0.0
 11
-209.0329449999999
 21
162.42919399999931
 31
0.0
  0
LINE
  5
979
  8
OUTLINE
  6
CONTINUOUS
 62
     3
 10
-209.0329449999999
 20
162.42919399999931
 30
0.0
 11
-209.1458845773285
 21
162.17499999999919
 31
0.0
  0
LINE
  5
97A
  8
OUTLINE
  6
CONTINUOUS
 62
     3
 10
-209.14588499999991
 20
162.17499999999919
 30
0.0
 11
-213.9754032143328
 21
162.17499999999919
 31
0.0
  0
ARC
  5
97B
  8
OUTLINE
  6
CONTINUOUS
 62
     3
 10
-216.0174609999994
 20
158.99999999999861
 30
0.0
 40
3.7750000000007748
 50
57.252180762669653
 51
302.74781923733741
  0
LINE
  5
97C
  8
OUTLINE
  6
CONTINUOUS
 62
     3
 10
-209.14588499999991
 20
155.82499999999979
 30
0.0
 11
-213.97540321433189
 21
155.8249999999984
 31
0.0
  0
LINE
  5
97D
  8
OUTLINE
  6
CONTINUOUS
 62
     3
 10
-209.0329449999999
 20
155.57080599999969
 30
0.0
 11
-209.14588499999991
 21
155.82499999999979
 31
0.0
  0
LINE
  5
97E
  8
OUTLINE
  6
CONTINUOUS
 62
     3
 10
-208.4171409999999
 20
154.6999269999996
 30
0.0
 11
-209.0329449999999
 21
155.57080599999969
 31
0.0
  0
LINE
  5
97F
  8
OUTLINE
  6
CONTINUOUS
 62
     3
 10
-208.32578699999971
 20
154.5999999999994
 30
0.0
 11
-207.0469956387042
 21
153.24363711500899
 31
0.0
  0
LINE
  5
980
  8
OUTLINE
  6
CONTINUOUS
 62
     3
 10
-208.32625300000021
 20
154.6005799999993
 30
0.0
 11
-208.4171409999999
 21
154.6999269999996
 31
0.0
  0
LINE
  5
981
  8
OUTLINE
  6
CONTINUOUS
 62
     3
 10
-207.04699600000001
 20
153.24363799999981
 30
0.0
 11
-205.9269110000005
 21
150.5
 31
0.0
  0
LINE
  5
982
  8
OUTLINE
  6
CONTINUOUS
 62
     3
 10
-205.9269110000005
 20
150.5
 30
0.0
 11
-196.85886199999999
 21
150.5
 31
0.0
  0
LINE
  5
983
  8
OUTLINE
  6
CONTINUOUS
 62
     3
 10
-196.76242300000001
 20
150.0
 30
0.0
 11
-196.85886199999999
 21
150.5
 31
0.0
  0
LINE
  5
984
  8
OUTLINE
  6
CONTINUOUS
 62
     3
 10
-207.61867999999961
 20
150.0
 30
0.0
 11
-196.76242300000001
 21
150.0
 31
0.0
  0
LINE
  5
985
  8
OUTLINE
  6
CONTINUOUS
 62
     3
 10
-209.73999999999981
 20
147.0
 30
0.0
 11
-207.61867999999961
 21
150.0
 31
0.0
  0
LINE
  5
986
  8
OUTLINE
  6
CONTINUOUS
 62
     3
 10
-209.73999999999981
 20
58.0
 30
0.0
 11
-209.73999999999981
 21
67.299999999999272
 31
0.0
  0
LINE
  5
987
  8
OUTLINE
  6
CONTINUOUS
 62
     3
 10
-229.31075200000029
 20
121.5
 30
0.0
 11
-209.73999999999981
 21
121.5
 31
0.0
  0
LINE
  5
988
  8
OUTLINE
  6
CONTINUOUS
 62
     3
 10
-229.31075200000029
 20
67.299999999999272
 30
0.0
 11
-229.31075200000029
 21
121.5
 31
0.0
  0
LINE
  5
989
  8
OUTLINE
  6
CONTINUOUS
 62
     3
 10
-229.31075200000029
 20
67.299999999999272
 30
0.0
 11
-209.73999999999981
 21
67.299999999999272
 31
0.0
  0
LINE
  5
98A
  8
OUTLINE
  6
CONTINUOUS
 62
     3
 10
-208.00435238106911
 20
55.545423538912459
 30
0.0
 11
-209.73999999999981
 21
58.0
 31
0.0
  0
LINE
  5
98B
  8
OUTLINE
  6
CONTINUOUS
 62
     3
 10
-211.79583199999971
 20
53.452327999999397
 30
0.0
 11
-208.00435238106911
 21
55.545423538912459
 31
0.0
  0
LINE
  5
98C
  8
OUTLINE
  6
CONTINUOUS
 62
     3
 10
-211.79504999999969
 20
53.452511999999849
 30
0.0
 11
-212.56722100000019
 21
52.928202999999492
 31
0.0
  0
LINE
  5
98D
  8
OUTLINE
  6
CONTINUOUS
 62
     3
 10
-212.56722100000019
 20
52.928202999999492
 30
0.0
 11
-213.52396800000039
 21
51.945157999999552
 31
0.0
  0
LINE
  5
98E
  8
OUTLINE
  6
CONTINUOUS
 62
     3
 10
-213.52396800000039
 20
51.945157999999552
 30
0.0
 11
-214.3152849999997
 21
50.702281999999279
 31
0.0
  0
LINE
  5
98F
  8
OUTLINE
  6
CONTINUOUS
 62
     3
 10
-214.3152849999997
 20
50.702281999999279
 30
0.0
 11
-214.3912770074738
 21
50.516140567072398
 31
0.0
  0
ARC
  5
990
  8
OUTLINE
  6
CONTINUOUS
 62
     3
 10
-216.0174610000004
 20
46.0
 30
0.0
 40
4.799999999999998
 50
70.19693011453694
 51
289.80306988546749
  0
LINE
  5
991
  8
OUTLINE
  6
CONTINUOUS
 62
     3
 10
-214.3152849999997
 20
41.29771799999979
 30
0.0
 11
-214.39127700747491
 21
41.48385943292736
 31
0.0
  0
LINE
  5
992
  8
OUTLINE
  6
CONTINUOUS
 62
     3
 10
-213.52396800000039
 20
40.054841000000103
 30
0.0
 11
-214.3152849999997
 21
41.29771799999979
 31
0.0
  0
LINE
  5
993
  8
OUTLINE
  6
CONTINUOUS
 62
     3
 10
-212.56722100000019
 20
39.071796999999613
 30
0.0
 11
-213.52396800000039
 21
40.054841000000103
 31
0.0
  0
LINE
  5
994
  8
OUTLINE
  6
CONTINUOUS
 62
     3
 10
-211.79504999999969
 20
38.547487999999248
 30
0.0
 11
-212.56722100000019
 21
39.071796999999613
 31
0.0
  0
LINE
  5
995
  8
OUTLINE
  6
CONTINUOUS
 62
     3
 10
-211.79583199999971
 20
38.547671999999693
 30
0.0
 11
-208.00435238106721
 21
36.454576461087299
 31
0.0
  0
LINE
  5
996
  8
OUTLINE
  6
CONTINUOUS
 62
     3
 10
-209.73999999999981
 20
34.0
 30
0.0
 11
-208.00435238106721
 21
36.454576461087299
 31
0.0
  0
LINE
  5
997
  8
OUTLINE
  6
CONTINUOUS
 62
     3
 10
-209.73999999999981
 20
13.5
 30
0.0
 11
-209.73999999999981
 21
34.0
 31
0.0
  0
LINE
  5
998
  8
OUTLINE
  6
CONTINUOUS
 62
     3
 10
-209.70615699999959
 20
13.013154999999641
 30
0.0
 11
-209.73999999999981
 21
13.5
 31
0.0
  0
LINE
  5
999
  8
OUTLINE
  6
CONTINUOUS
 62
     3
 10
-209.61750171620309
 20
12.59999999999968
 30
0.0
 11
-209.70615699999959
 21
13.013154999999641
 31
0.0
  0
LINE
  5
99A
  8
OUTLINE
  6
CONTINUOUS
 62
     3
 10
-223.58765899999889
 20
12.60000000000036
 30
0.0
 11
-209.61750171620309
 21
12.59999999999968
 31
0.0
  0
LINE
  5
99B
  8
OUTLINE
  6
CONTINUOUS
 62
     3
 10
-223.58765899999889
 20
12.60000000000036
 30
0.0
 11
-223.5876589999998
 21
11.0
 31
0.0
  0
ARC
  5
99C
  8
OUTLINE
  6
CONTINUOUS
 62
     3
 10
-237.80000000000021
 20
8.7999999999992724
 30
0.0
 40
2.2000000000000002
 50
90.0
 51
180.0
  0
LINE
  5
99D
  8
OUTLINE
  6
CONTINUOUS
 62
     3
 10
-240.0
 20
0.0
 30
0.0
 11
-240.0
 21
8.7999999999992724
 31
0.0
  0
LINE
  5
99E
  8
OUTLINE
  6
CONTINUOUS
 62
     3
 10
-208.32625300000021
 20
163.39941999999971
 30
0.0
 11
-208.4171409999999
 21
163.3000729999994
 31
0.0
  0
LINE
  5
99F
  8
OUTLINE
  6
CONTINUOUS
 62
     3
 10
-209.73999999999981
 20
121.5
 30
0.0
 11
-209.73999999999981
 21
147.0
 31
0.0
  0
LINE
  5
9A1
  8
NOTE
  6
CONTINUOUS
 62
     4
 10
-202.00000000000091
 20
46.0
 30
0.0
 11
-379.64802095041779
 21
272.23194652629172
 31
0.0
  0
LINE
  5
9A2
  8
NOTE
  6
CONTINUOUS
 62
     4
 10
-379.64802095041779
 20
272.23194652629172
 30
0.0
 11
-714.2601811792656
 21
272.23194652629172
 31
0.0
  0
LINE
  5
9A3
  8
NOTE
  6
CONTINUOUS
 62
     4
 10
-214.104331278968
 20
74.602486882586149
 30
0.0
 11
-202.00000000000091
 21
46.0
 31
0.0
  0
LINE
  5
9A4
  8
NOTE
  6
CONTINUOUS
 62
     4
 10
-202.00000000000091
 20
46.0
 30
0.0
 11
-226.78390173978551
 21
64.718314724680354
 31
0.0
  0
LINE
  5
9A5
  8
NOTE
  6
CONTINUOUS
 62
     4
 10
-202.00000000000091
 20
159.0
 30
0.0
 11
-321.13793382243318
 21
405.90968571806678
 31
0.0
  0
LINE
  5
9A6
  8
NOTE
  6
CONTINUOUS
 62
     4
 10
-321.13793382243318
 20
405.90968571806678
 30
0.0
 11
-655.75009405128094
 21
405.90968571806678
 31
0.0
  0
LINE
  5
9A7
  8
NOTE
  6
CONTINUOUS
 62
     4
 10
-208.38402701885209
 20
189.3950866194204
 30
0.0
 11
-202.00000000000091
 21
159.0
 31
0.0
  0
LINE
  5
9A8
  8
NOTE
  6
CONTINUOUS
 62
     4
 10
-202.00000000000091
 20
159.0
 30
0.0
 11
-222.72627278154781
 21
182.13090374724669
 31
0.0
  0
LINE
  5
9A9
  8
NOTE
  6
CONTINUOUS
 62
     4
 10
-190.0
 20
0.0
 30
0.0
 11
-347.32209910090648
 21
-252.10629394213049
 31
0.0
  0
LINE
  5
9AA
  8
NOTE
  6
CONTINUOUS
 62
     4
 10
-798.20133265386994
 20
-252.10629394213021
 30
0.0
 11
-347.3220991009066
 21
-252.10629394213049
 31
0.0
  0
LINE
  5
9AB
  8
NOTE
  6
CONTINUOUS
 62
     4
 10
-212.89628428445189
 20
-20.985167560566591
 30
0.0
 11
-190.0
 21
0.0
 31
0.0
  0
LINE
  5
9AC
  8
NOTE
  6
CONTINUOUS
 62
     4
 10
-190.0
 20
0.0
 30
0.0
 11
-199.3361801967028
 21
-29.621830309995431
 31
0.0
  0
LINE
  5
9AD
  8
NOTE
  6
CONTINUOUS
 62
     4
 10
80.0
 20
0.0
 30
0.0
 11
253.30776667841289
 21
-204.4567902481522
 31
0.0
  0
LINE
  5
9AE
  8
NOTE
  6
CONTINUOUS
 62
     4
 10
253.30776667841289
 20
-204.4567902481522
 30
0.0
 11
628.84125461092208
 21
-204.4567902481522
 31
0.0
  0
LINE
  5
9AF
  8
NOTE
  6
CONTINUOUS
 62
     4
 10
92.340317372543325
 20
-28.501467659129641
 30
0.0
 11
80.0
 21
0.0
 31
0.0
  0
LINE
  5
9B0
  8
NOTE
  6
CONTINUOUS
 62
     4
 10
80.0
 20
0.0
 30
0.0
 11
104.9377620809652
 21
-18.512836464806451
 31
0.0
  0
LINE
  5
9B1
  8
SIZE
  6
CONTINUOUS
 62
    30
 10
-260.0
 20
0.0000000000000057
 30
0.0
 11
-478.58488993734318
 21
0.0000000000000676
 31
0.0
  0
LINE
  5
9B2
  8
SIZE
  6
CONTINUOUS
 62
    30
 10
-257.84671200000048
 20
11.0
 30
0.0
 11
-478.58488993734318
 21
11.00000000000006
 31
0.0
  0
LINE
  5
9B3
  8
SIZE
  6
CONTINUOUS
 62
    30
 10
-458.58488993734318
 20
11.00000000000006
 30
0.0
 11
-458.58488993734318
 21
41.000000000000043
 31
0.0
  0
LINE
  5
9B4
  8
SIZE
  6
CONTINUOUS
 62
    30
 10
-458.58488993734318
 20
0.0000000000000619
 30
0.0
 11
-458.58488993734318
 21
-127.72611512961841
 31
0.0
  0
LINE
  5
9B5
  8
SIZE
  6
CONTINUOUS
 62
    30
 10
-458.58488993734318
 20
11.00000000000006
 30
0.0
 11
-458.58488993734318
 21
0.0000000000000619
 31
0.0
  0
CIRCLE
  5
9B6
  8
SIZE
  6
CONTINUOUS
 62
    30
 10
-458.58488993734318
 20
11.00000000000006
 30
0.0
 40
7.5
  0
CIRCLE
  5
9B7
  8
SIZE
  6
CONTINUOUS
 62
    30
 10
-458.58488993734318
 20
0.0000000000000619
 30
0.0
 40
7.5
  0
TEXT
  5
9B8
  8
SIZE
  6
CONTINUOUS
 62
    30
 10
-478.58488993734318
 20
-100.165374928722
 30
0.0
 40
60.0
  1
11
 50
90.0
 41
0.9
 72
     1
 11
-478.58488993734318
 21
-73.165374928722031
 31
0.0
  0
POINT
  5
9B9
  8
DEFPOINTS
  6
CONTINUOUS
 62
     7
 10
-240.0
 20
0.0
 30
0.0
  0
POINT
  5
9BB
  8
DEFPOINTS
  6
CONTINUOUS
 62
     7
 10
-458.58488993734318
 20
11.00000000000006
 30
0.0
  0
LINE
  5
9D2
  8
DETAIL
  6
CONTINUOUS
 62
     5
 10
-97.300000000000196
 20
30.33644203414546
 30
0.0
 11
-97.989811000000358
 21
29.648513999999519
 31
0.0
  0
LINE
  5
9D3
  8
DETAIL
  6
CONTINUOUS
 62
     5
 10
-97.989811000000358
 20
29.648513999999519
 30
0.0
 11
-99.350534000000152
 21
28.506098999999271
 31
0.0
  0
LINE
  5
9D4
  8
DETAIL
  6
CONTINUOUS
 62
     5
 10
-99.350534000000152
 20
28.506098999999271
 30
0.0
 11
-99.350534000000152
 21
28.506098999999271
 31
0.0
  0
LINE
  5
9D5
  8
DETAIL
  6
CONTINUOUS
 62
     5
 10
-99.350534000000152
 20
28.506098999999271
 30
0.0
 11
-100.585634
 21
27.616363000000089
 31
0.0
  0
LINE
  5
9D6
  8
DETAIL
  6
CONTINUOUS
 62
     5
 10
-100.585634
 20
27.616363000000089
 30
0.0
 11
-101.7910110000002
 21
26.953067999999799
 31
0.0
  0
LINE
  5
9D7
  8
DETAIL
  6
CONTINUOUS
 62
     5
 10
-101.7910110000002
 20
26.953067999999799
 30
0.0
 11
-101.7910110000002
 21
26.953067999999799
 31
0.0
  0
LINE
  5
9D8
  8
DETAIL
  6
CONTINUOUS
 62
     5
 10
-101.7910110000002
 20
26.953067999999799
 30
0.0
 11
-103.0784240000002
 21
26.471530999999231
 31
0.0
  0
LINE
  5
9D9
  8
DETAIL
  6
CONTINUOUS
 62
     5
 10
-103.0784240000002
 20
26.471530999999231
 30
0.0
 11
-104.3424199999999
 21
26.17655299999933
 31
0.0
  0
LINE
  5
9DA
  8
DETAIL
  6
CONTINUOUS
 62
     5
 10
-104.3424199999999
 20
26.17655299999933
 30
0.0
 11
-104.3424199999999
 21
26.17655299999933
 31
0.0
  0
LINE
  5
9DB
  8
DETAIL
  6
CONTINUOUS
 62
     5
 10
-104.3424199999999
 20
26.17655299999933
 30
0.0
 11
-105.7923209999999
 21
26.081282000000101
 31
0.0
  0
LINE
  5
9DC
  8
DETAIL
  6
CONTINUOUS
 62
     5
 10
-105.7923209999999
 20
26.081282000000101
 30
0.0
 11
-106.9978270000001
 21
26.25783899999988
 31
0.0
  0
LINE
  5
9DD
  8
DETAIL
  6
CONTINUOUS
 62
     5
 10
-106.9978270000001
 20
26.25783899999988
 30
0.0
 11
-108.0404029999999
 21
26.61561499999971
 31
0.0
  0
LINE
  5
9DE
  8
DETAIL
  6
CONTINUOUS
 62
     5
 10
-108.0404029999999
 20
26.61561499999971
 30
0.0
 11
-109.0015139999996
 21
27.063998999999971
 31
0.0
  0
LINE
  5
9E8
  8
DETAIL
  6
CONTINUOUS
 62
     5
 10
-179.2158643258941
 20
13.299999999999271
 30
0.0
 11
-179.12227841479211
 21
13.49999974389584
 31
0.0
  0
ARC
  5
9FB
  8
OUTLINE
  6
CONTINUOUS
 62
     3
 10
132.80000000000021
 20
12.19999999999909
 30
0.0
 40
0.2
 50
270.0
 51
0.0
  0
LINE
  5
9FC
  8
OUTLINE
  6
CONTINUOUS
 62
     3
 10
119.0
 20
11.99999999999927
 30
0.0
 11
119.0
 21
10.99999999999927
 31
0.0
  0
LINE
  5
9FD
  8
OUTLINE
  6
CONTINUOUS
 62
     3
 10
132.80000000000021
 20
11.99999999999927
 30
0.0
 11
119.0
 21
11.99999999999927
 31
0.0
  0
LINE
  5
A05
  8
NOTE
  6
CONTINUOUS
 62
     4
 10
-213.67799912248759
 20
159.0
 30
0.0
 11
-190.3220008775142
 21
159.0
 31
0.0
  0
LINE
  5
A19
  8
NOTE
  6
CONTINUOUS
 62
     4
 10
-186.81860114076869
 20
46.0
 30
0.0
 11
-217.18139885923301
 21
46.0
 31
0.0
  0
LINE
  5
A21
  8
NOTE
  6
CENTER
 62
     4
 10
-239.75
 20
0.0
 30
0.0
 11
-220.25
 21
0.0
 31
0.0
  0
LINE
  5
A29
  8
NOTE
  6
CENTER
 62
     4
 10
-199.75
 20
0.0
 30
0.0
 11
-180.25
 21
0.0
 31
0.0
  0
LINE
  5
B23
  8
DETAIL
  6
CONTINUOUS
 62
     5
 10
-97.30000000000021
 20
215.17401100000009
 30
0.0
 11
-101.47650899999999
 21
215.17401100000009
 31
0.0
  0
ARC
  5
B26
  8
DETAIL
  6
CONTINUOUS
 62
     5
 10
-114.3432929999999
 20
196.39999999999941
 30
0.0
 40
22.760000000000002
 50
41.511165235311893
 51
90.0
  0
ARC
  5
B7C
  8
DETAIL
  6
CONTINUOUS
 62
     5
 10
-96.609480703992645
 20
160.0
 30
0.0
 40
3.0
 50
180.0
 51
256.69273700001281
  0
ARC
  5
B7D
  8
DETAIL
  6
CONTINUOUS
 62
     5
 10
-96.609480703992645
 20
180.0
 30
0.0
 40
3.0
 50
103.3072629999872
 51
180.0
  0
LINE
  5
B7E
  8
DETAIL
  6
CONTINUOUS
 62
     5
 10
-99.609480703992631
 20
160.0
 30
0.0
 11
-99.609480703992631
 21
180.0
 31
0.0
  0
ARC
  5
B7F
  8
DETAIL
  6
CONTINUOUS
 62
     5
 10
-96.799999703992441
 20
139.0
 30
0.0
 40
2.5
 50
101.53695899998981
 51
180.0
  0
LINE
  5
B80
  8
DETAIL
  6
CONTINUOUS
 62
     5
 10
-99.299999703992441
 20
119.0
 30
0.0
 11
-99.299999703992441
 21
139.0
 31
0.0
  0
ARC
  5
B81
  8
DETAIL
  6
CONTINUOUS
 62
     5
 10
-96.799999703992441
 20
119.0
 30
0.0
 40
2.5
 50
180.0
 51
258.46304100001021
  0
LINE
  5
B95
  8
DETAIL
  6
CONTINUOUS
 62
     5
 10
54.887757050288378
 20
40.000001111122302
 30
0.0
 11
52.700000000000038
 21
40.00000111112228
 31
0.0
  0
LINE
  5
B96
  8
DETAIL
  6
CONTINUOUS
 62
     5
 10
54.887756850242283
 20
80.000000000000014
 30
0.0
 11
52.699999799953957
 21
80.0
 31
0.0
  0
ENDSEC
  0
EOF
