  0
SECTION
  2
HEADER
  9
$ACADVER
  1
AC1009
  9
$INSBASE
 10
0.0
 20
0.0
 30
0.0
  9
$EXTMIN
 10
-992.87572136016752
 20
-715.36751424262536
 30
-0.0000000349181948
  9
$EXTMAX
 10
779.05891150396201
 20
707.11711023503813
 30
0.0000000814935747
  9
$LIMMIN
 10
-4267.1522210604817
 20
-2696.0832101984129
  9
$LIMMAX
 10
7190.7174225864646
 20
5141.155363923066
  9
$ORTHOMODE
 70
     0
  9
$REGENMODE
 70
     1
  9
$FILLMODE
 70
     1
  9
$QTEXTMODE
 70
     0
  9
$MIRRTEXT
 70
     0
  9
$DRAGMODE
 70
     2
  9
$LTSCALE
 40
20.0
  9
$OSMODE
 70
   431
  9
$ATTMODE
 70
     1
  9
$TEXTSIZE
 40
60.0
  9
$TRACEWID
 40
0.05
  9
$TEXTSTYLE
  7
STANDARD1
  9
$CLAYER
  8
SYMBOLLINE
  9
$CELTYPE
  6
CONTINUOUS
  9
$CECOLOR
 62
     7
  9
$DIMSCALE
 40
1.0
  9
$DIMASZ
 40
30.0
  9
$DIMEXO
 40
20.0
  9
$DIMDLI
 40
80.0
  9
$DIMRND
 40
0.0
  9
$DIMDLE
 40
0.0
  9
$DIMEXE
 40
20.0
  9
$DIMTP
 40
0.0
  9
$DIMTM
 40
0.0
  9
$DIMTXT
 40
40.0
  9
$DIMCEN
 40
0.09
  9
$DIMTSZ
 40
0.0
  9
$DIMTOL
 70
     0
  9
$DIMLIM
 70
     0
  9
$DIMTIH
 70
     0
  9
$DIMTOH
 70
     0
  9
$DIMSE1
 70
     0
  9
$DIMSE2
 70
     0
  9
$DIMTAD
 70
     1
  9
$DIMZIN
 70
     8
  9
$DIMBLK
  1
SMALL
  9
$DIMASO
 70
     1
  9
$DIMSHO
 70
     0
  9
$DIMPOST
  1

  9
$DIMAPOST
  1

  9
$DIMALT
 70
     0
  9
$DIMALTD
 70
     2
  9
$DIMALTF
 40
25.399999999999999
  9
$DIMLFAC
 40
1.0
  9
$DIMTOFL
 70
     1
  9
$DIMTVP
 40
0.0
  9
$DIMTIX
 70
     0
  9
$DIMSOXD
 70
     0
  9
$DIMSAH
 70
     0
  9
$DIMBLK1
  1

  9
$DIMBLK2
  1

  9
$DIMSTYLE
  2
STANDARD
  9
$DIMCLRD
 70
     0
  9
$DIMCLRE
 70
     0
  9
$DIMCLRT
 70
     0
  9
$DIMTFAC
 40
1.0
  9
$DIMGAP
 40
0.09
  9
$LUNITS
 70
     2
  9
$LUPREC
 70
     4
  9
$SKETCHINC
 40
0.1
  9
$FILLETRAD
 40
0.0
  9
$AUNITS
 70
     1
  9
$AUPREC
 70
     3
  9
$MENU
  1
ACAD
  9
$ELEVATION
 40
0.0
  9
$PELEVATION
 40
0.0
  9
$THICKNESS
 40
0.0
  9
$LIMCHECK
 70
     0
  9
$BLIPMODE
 70
     0
  9
$CHAMFERA
 40
0.0
  9
$CHAMFERB
 40
0.0
  9
$SKPOLY
 70
     0
  9
$TDCREATE
 40
2455902.6071690628
  9
$TDUPDATE
 40
2457036.4441143172
  9
$TDINDWG
 40
1.6474805556000001
  9
$TDUSRTIMER
 40
1.6474768981000001
  9
$USRTIMER
 70
     1
  9
$ANGBASE
 50
0.0
  9
$ANGDIR
 70
     0
  9
$PDMODE
 70
     3
  9
$PDSIZE
 40
-2.0
  9
$PLINEWID
 40
0.0
  9
$COORDS
 70
     1
  9
$SPLFRAME
 70
     0
  9
$SPLINETYPE
 70
     6
  9
$SPLINESEGS
 70
     8
  9
$ATTDIA
 70
     1
  9
$ATTREQ
 70
     1
  9
$HANDLING
 70
     1
  9
$HANDSEED
  5
2E8
  9
$SURFTAB1
 70
     6
  9
$SURFTAB2
 70
     6
  9
$SURFTYPE
 70
     6
  9
$SURFU
 70
     6
  9
$SURFV
 70
     6
  9
$UCSNAME
  2

  9
$UCSORG
 10
0.0
 20
0.0
 30
0.0
  9
$UCSXDIR
 10
1.0
 20
0.0
 30
0.0
  9
$UCSYDIR
 10
0.0
 20
1.0
 30
0.0
  9
$PUCSNAME
  2

  9
$PUCSORG
 10
0.0
 20
0.0
 30
0.0
  9
$PUCSXDIR
 10
1.0
 20
0.0
 30
0.0
  9
$PUCSYDIR
 10
0.0
 20
1.0
 30
0.0
  9
$USERI1
 70
     0
  9
$USERI2
 70
     0
  9
$USERI3
 70
     0
  9
$USERI4
 70
     0
  9
$USERI5
 70
     0
  9
$USERR1
 40
20.0
  9
$USERR2
 40
0.0
  9
$USERR3
 40
0.0
  9
$USERR4
 40
0.0
  9
$USERR5
 40
0.0
  9
$WORLDVIEW
 70
     1
  9
$SHADEDGE
 70
     3
  9
$SHADEDIF
 70
    70
  9
$TILEMODE
 70
     1
  9
$MAXACTVP
 70
    64
  9
$PLIMCHECK
 70
     0
  9
$PEXTMIN
 10
1.0000000000000000E+020
 20
1.0000000000000000E+020
 30
1.0000000000000000E+020
  9
$PEXTMAX
 10
-1.0000000000000000E+020
 20
-1.0000000000000000E+020
 30
-1.0000000000000000E+020
  9
$PLIMMIN
 10
0.0
 20
0.0
  9
$PLIMMAX
 10
12.0
 20
9.0
  9
$UNITMODE
 70
     0
  9
$VISRETAIN
 70
     1
  9
$PLINEGEN
 70
     0
  9
$PSLTSCALE
 70
     1
  0
ENDSEC
  0
SECTION
  2
TABLES
  0
TABLE
  2
VPORT
 70
     1
  0
VPORT
  2
*ACTIVE
 70
     0
 10
0.0
 20
0.0
 11
1.0
 21
1.0
 12
-106.9084049281028
 22
-4.1252020037936736
 13
0.0
 23
0.0
 14
50.0
 24
50.0
 15
100.0
 25
100.0
 16
0.0
 26
0.0
 36
1.0
 17
0.0
 27
0.0
 37
0.0
 40
1433.655969696074
 41
1.6159895150720831
 42
50.0
 43
0.0
 44
0.0
 50
0.0
 51
0.0
 71
     0
 72
  1000
 73
     1
 74
     0
 75
     0
 76
     0
 77
     0
 78
     0
  0
ENDTAB
  0
TABLE
  2
LTYPE
 70
     3
  0
LTYPE
  2
CONTINUOUS
 70
     0
  3
実線
 72
    65
 73
     0
 40
0.0
  0
LTYPE
  2
DASHDOT
 70
     0
  3
____ _ ____ _ ____ _ ____ _ ____ _ ____ _ ____
 72
    65
 73
     4
 40
5.5
 49
4.0
 49
-0.6
 49
0.3
 49
-0.6
  0
ENDTAB
  0
TABLE
  2
LAYER
 70
    12
  0
LAYER
  2
0
 70
     0
 62
     7
  6
CONTINUOUS
  0
LAYER
  2
SYMBOLLINE
 70
     0
 62
    15
  6
CONTINUOUS
  0
LAYER
  2
NOTE
 70
     0
 62
     4
  6
CONTINUOUS
  0
LAYER
  2
OUTLINE
 70
     0
 62
     3
  6
CONTINUOUS
  0
LAYER
  2
DETAIL
 70
     0
 62
     5
  6
CONTINUOUS
  0
LAYER
  2
BASIS
 70
     0
 62
     6
  6
DASHDOT
  0
LAYER
  2
SIZE
 70
     0
 62
    30
  6
CONTINUOUS
  0
LAYER
  2
ARRANGE
 70
     0
 62
     1
  6
CONTINUOUS
  0
LAYER
  2
FIX
 70
     0
 62
    11
  6
CONTINUOUS
  0
LAYER
  2
SERVICESPACE
 70
     0
 62
     2
  6
DASHDOT
  0
LAYER
  2
ETC
 70
     0
 62
    61
  6
CONTINUOUS
  0
LAYER
  2
DEFPOINTS
 70
     0
 62
     7
  6
CONTINUOUS
  0
ENDTAB
  0
TABLE
  2
STYLE
 70
     4
  0
STYLE
  2
STANDARD
 70
     0
 40
0.0
 41
0.9
 50
0.0
 71
     0
 42
64.0
  3
SIMPLEX
  4
BIGFONT
  0
STYLE
  2
ANNOTATIVE
 70
     0
 40
0.0
 41
1.0
 50
0.0
 71
     0
 42
0.2
  3
txt
  4

  0
STYLE
  2
STANDARD1
 70
     0
 40
60.0
 41
0.7
 50
0.0
 71
     0
 42
60.0
  3
MONOTXT.shx
  4
BIGFONT.shx
  0
STYLE
  2
STANDARD_MODELNAME
 70
     0
 40
80.0
 41
0.8
 50
0.0
 71
     0
 42
64.0
  3
MONOTXT.shx
  4
BIGFONT.shx
  0
ENDTAB
  0
TABLE
  2
VIEW
 70
     1
  0
VIEW
  2
ALL
 70
     0
 40
9000.0
 10
241.50664699999999
 20
0.0
 41
12483.01
 11
0.0
 21
0.0
 31
1.0
 12
0.0
 22
0.0
 32
0.0
 42
50.0
 43
0.0
 44
0.0
 50
0.0
 71
     0
  0
ENDTAB
  0
TABLE
  2
UCS
 70
     0
  0
ENDTAB
  0
TABLE
  2
APPID
 70
     5
  0
APPID
  2
ACAD
 70
     0
  0
APPID
  2
ACADANNOTATIVE
 70
     0
  0
APPID
  2
ACAD_EXEMPT_FROM_CAD_STANDARDS
 70
     0
  0
APPID
  2
ACAD_NAV_VCDISPLAY
 70
     0
  0
APPID
  2
ACAD_MLEADERVER
 70
     0
  0
ENDTAB
  0
TABLE
  2
DIMSTYLE
 70
     3
  0
DIMSTYLE
  2
STANDARD
 70
     0
  3

  4

  5

  6

  7

 40
1.0
 41
0.18
 42
0.0625
 43
0.38
 44
0.18
 45
0.0
 46
0.0
 47
0.0
 48
0.0
140
0.18
141
0.09
142
0.0
143
25.399999999999999
144
1.0
145
0.0
146
1.0
147
0.09
 71
     0
 72
     0
 73
     1
 74
     1
 75
     0
 76
     0
 77
     0
 78
     0
170
     0
171
     2
172
     0
173
     0
174
     0
175
     0
176
     0
177
     0
178
     0
  0
DIMSTYLE
  2
ANNOTATIVE
 70
     0
  3

  4

  5

  6

  7

 40
1.0
 41
0.18
 42
0.0625
 43
0.38
 44
0.18
 45
0.0
 46
0.0
 47
0.0
 48
0.0
140
0.18
141
0.09
142
0.0
143
25.399999999999999
144
1.0
145
0.0
146
1.0
147
0.09
 71
     0
 72
     0
 73
     1
 74
     1
 75
     0
 76
     0
 77
     0
 78
     0
170
     0
171
     2
172
     0
173
     0
174
     0
175
     0
176
     0
177
     0
178
     0
  0
ENDTAB
  0
ENDSEC
  0
SECTION
  2
BLOCKS
  0
BLOCK
  8
0
  2
$MODEL_SPACE
 70
     0
 10
0.0
 20
0.0
 30
0.0
  3
$MODEL_SPACE
  1

  0
ENDBLK
  5
25B
  8
0
  0
BLOCK
 67
     1
  8
0
  2
$PAPER_SPACE
 70
     0
 10
0.0
 20
0.0
 30
0.0
  3
$PAPER_SPACE
  1

  0
ENDBLK
  5
257
 67
     1
  8
0
  0
BLOCK
  8
0
  2
_SMALL
 70
     0
 10
0.0
 20
0.0
 30
0.0
  3
_SMALL
  1

  0
CIRCLE
  5
89
  8
0
  6
CONTINUOUS
 62
     7
 10
0.0
 20
0.0
 30
0.0
 40
0.25
  0
ENDBLK
  5
8A
  8
0
  0
ENDSEC
  0
SECTION
  2
ENTITIES
  0
TEXT
  5
8B
  8
ETC
  6
CONTINUOUS
 62
    61
 10
2.774005210925679
 20
626.65779452729646
 30
0.0
 40
80.0
  1
M9A-04LATB_6
 50
0.0000029998804485
 41
0.8
  7
STANDARD_MODELNAME
  0
LINE
  5
8C
  8
BASIS
  6
DASHDOT
 62
     6
 10
-0.000000000001819
 20
250.0
 30
0.0
 11
-0.000000000001819
 21
-250.0
 31
0.0
  0
LINE
  5
8D
  8
BASIS
  6
DASHDOT
 62
     6
 10
300.0
 20
0.000000000001819
 30
0.0
 11
-300.0
 21
0.000000000001819
 31
0.0
  0
CIRCLE
  5
8E
  8
ARRANGE
  6
CONTINUOUS
 62
     1
 10
0.0
 20
0.0
 30
0.0
 40
50.0
  0
LINE
  5
8F
  8
ARRANGE
  6
CONTINUOUS
 62
     1
 10
50.037350031328963
 20
-49.522353150325202
 30
0.0
 11
-50.037350031328963
 21
49.522353150325202
 31
0.0
  0
LINE
  5
90
  8
ARRANGE
  6
CONTINUOUS
 62
     1
 10
49.963763310501221
 20
49.596594797985738
 30
0.0
 11
-49.963763310501221
 21
-49.5965947979821
 31
0.0
  0
TEXT
  5
91
  8
NOTE
  6
CONTINUOUS
 62
     4
 10
-812.78169508919541
 20
-602.66607517566615
 30
0.0
 40
60.0
  1
RL %%C6.35
 50
0.0000025044165917
 41
0.7
  7
STANDARD1
  0
TEXT
  5
92
  8
NOTE
  6
CONTINUOUS
 62
     4
 10
-880.69925325738745
 20
-702.93543864562525
 30
0.0
 40
60.0
  1
RG %%C9.52
 50
0.0000025044165917
 41
0.7
  7
STANDARD1
  0
LINE
  5
93
  8
NOTE
  6
CONTINUOUS
 62
     4
 10
-228.77211255715699
 20
-183.11984804073111
 30
0.0
 11
-205.99999999999821
 21
-162.0
 31
0.0
  0
LINE
  5
94
  8
NOTE
  6
CONTINUOUS
 62
     4
 10
-205.99999999999821
 20
-162.0
 30
0.0
 11
-215.16130408659771
 21
-191.6763811643595
 31
0.0
  0
LINE
  5
96
  8
NOTE
  6
CONTINUOUS
 62
     4
 10
-205.9999999999973
 20
-161.9999999999973
 30
0.0
 11
-492.43454896392541
 21
-617.62913495109569
 31
0.0
  0
LINE
  5
97
  8
NOTE
  6
CONTINUOUS
 62
     4
 10
-492.43454896392541
 20
-617.62913495109569
 30
0.0
 11
-819.80513072395252
 21
-617.62913495109569
 31
0.0
  0
LINE
  5
98
  8
NOTE
  6
CONTINUOUS
 62
     4
 10
-492.43454896392541
 20
-617.62913495109569
 30
0.0
 11
-554.65143182879717
 21
-714.93543864562525
 31
0.0
  0
LINE
  5
99
  8
NOTE
  6
CONTINUOUS
 62
     4
 10
-554.65143182879717
 20
-714.93543864562525
 30
0.0
 11
-888.69301244034614
 21
-714.93543864562525
 31
0.0
  0
LINE
  5
9A
  8
NOTE
  6
CONTINUOUS
 62
     4
 10
-215.8994949366097
 20
-171.8994949366097
 30
0.0
 11
-196.1005050633903
 21
-152.1005050633903
 31
0.0
  0
LINE
  5
9B
  8
NOTE
  6
CONTINUOUS
 62
     4
 10
-232.4222284432326
 20
162.57777155681831
 30
0.0
 11
-217.57777155676919
 21
177.42222844327981
 31
0.0
  0
LINE
  5
9C
  8
NOTE
  6
CONTINUOUS
 62
     4
 10
-215.20265845493671
 20
160.20265845499119
 30
0.0
 11
-234.7973415450688
 21
179.7973415451215
 31
0.0
  0
CIRCLE
  5
9D
  8
FIX
  6
CONTINUOUS
 62
    11
 10
-225.0
 20
170.0000000000509
 30
0.0
 40
8.6950485571074356
  0
LINE
  5
9E
  8
NOTE
  6
CONTINUOUS
 62
     4
 10
-235.49661612744961
 20
-145.0
 30
0.0
 11
-214.5033838725503
 21
-145.0
 31
0.0
  0
LINE
  5
9F
  8
NOTE
  6
CONTINUOUS
 62
     4
 10
-225.0
 20
-155.49661612744961
 30
0.0
 11
-225.0
 21
-134.50338387254851
 31
0.0
  0
CIRCLE
  5
A0
  8
FIX
  6
CONTINUOUS
 62
    11
 10
-225.0
 20
-145.0
 30
0.0
 40
8.6950485571074356
  0
LINE
  5
A1
  8
NOTE
  6
CONTINUOUS
 62
     4
 10
69.50338387255033
 20
-145.0
 30
0.0
 11
90.496616127449684
 21
-145.0
 31
0.0
  0
LINE
  5
A2
  8
NOTE
  6
CONTINUOUS
 62
     4
 10
80.0
 20
-155.49661612744961
 30
0.0
 11
80.0
 21
-134.50338387254851
 31
0.0
  0
CIRCLE
  5
A3
  8
FIX
  6
CONTINUOUS
 62
    11
 10
80.0
 20
-145.0
 30
0.0
 40
8.6950485571074356
  0
LINE
  5
A4
  8
NOTE
  6
CONTINUOUS
 62
     4
 10
69.50338387255033
 20
170.0
 30
0.0
 11
90.496616127449684
 21
170.0
 31
0.0
  0
LINE
  5
A5
  8
NOTE
  6
CONTINUOUS
 62
     4
 10
80.0
 20
159.5033838725503
 30
0.0
 11
80.0
 21
180.49661612745149
 31
0.0
  0
CIRCLE
  5
A6
  8
FIX
  6
CONTINUOUS
 62
    11
 10
80.0
 20
170.0
 30
0.0
 40
8.6950485571074356
  0
LINE
  5
A7
  8
NOTE
  6
CONTINUOUS
 62
     4
 10
-196.10050506338851
 20
-171.8994949366097
 30
0.0
 11
-215.89949493660791
 21
-152.1005050633903
 31
0.0
  0
LINE
  5
A8
  8
SIZE
  6
CONTINUOUS
 62
    30
 10
-240.0
 20
-203.0
 30
0.0
 11
-240.0
 21
-500.75494579932621
 31
0.0
  0
LINE
  5
A9
  8
SIZE
  6
CONTINUOUS
 62
    30
 10
-206.0
 20
-182.0
 30
0.0
 11
-206.0
 21
-500.75494579932621
 31
0.0
  0
LINE
  5
AA
  8
SIZE
  6
CONTINUOUS
 62
    30
 10
-240.0
 20
-480.75494579932632
 30
0.0
 11
-270.0
 21
-480.75494579932632
 31
0.0
  0
LINE
  5
AB
  8
SIZE
  6
CONTINUOUS
 62
    30
 10
-206.0
 20
-480.75494579932632
 30
0.0
 11
-16.000000000000021
 21
-480.75494579932632
 31
0.0
  0
LINE
  5
AC
  8
SIZE
  6
CONTINUOUS
 62
    30
 10
-240.0
 20
-480.75494579932632
 30
0.0
 11
-206.0
 21
-480.75494579932632
 31
0.0
  0
CIRCLE
  5
AD
  8
SIZE
  6
CONTINUOUS
 62
    30
 10
-240.0
 20
-480.75494579932632
 30
0.0
 40
7.5
  0
CIRCLE
  5
AE
  8
SIZE
  6
CONTINUOUS
 62
    30
 10
-206.0
 20
-480.75494579932632
 30
0.0
 40
7.5
  0
TEXT
  5
AF
  8
SIZE
  6
CONTINUOUS
 62
    30
 10
-126.0
 20
-460.75494579932632
 30
0.0
 40
60.0
  1
34
 41
0.9
 72
     1
 11
-81.000000000000028
 21
-460.75494579932632
 31
0.0
  0
POINT
  5
B0
  8
DEFPOINTS
  6
CONTINUOUS
 62
     7
 10
-240.0
 20
-183.0
 30
0.0
  0
POINT
  5
B1
  8
DEFPOINTS
  6
CONTINUOUS
 62
     7
 10
-206.0
 20
-162.0
 30
0.0
  0
POINT
  5
B2
  8
DEFPOINTS
  6
CONTINUOUS
 62
     7
 10
-206.0
 20
-480.75494579932632
 30
0.0
  0
LINE
  5
B3
  8
SIZE
  6
CONTINUOUS
 62
    30
 10
-225.0
 20
-175.49661612744961
 30
0.0
 11
-225.0
 21
-630.75494579932626
 31
0.0
  0
LINE
  5
B4
  8
SIZE
  6
CONTINUOUS
 62
    30
 10
-240.0
 20
-203.0
 30
0.0
 11
-240.0
 21
-630.75494579932626
 31
0.0
  0
LINE
  5
B5
  8
SIZE
  6
CONTINUOUS
 62
    30
 10
-225.0
 20
-610.75494579932638
 30
0.0
 11
-195.0
 21
-610.75494579932638
 31
0.0
  0
LINE
  5
B6
  8
SIZE
  6
CONTINUOUS
 62
    30
 10
-240.0
 20
-610.75494579932638
 30
0.0
 11
-417.14285714285768
 21
-610.75494579932638
 31
0.0
  0
LINE
  5
B7
  8
SIZE
  6
CONTINUOUS
 62
    30
 10
-225.0
 20
-610.75494579932638
 30
0.0
 11
-240.0
 21
-610.75494579932638
 31
0.0
  0
CIRCLE
  5
B8
  8
SIZE
  6
CONTINUOUS
 62
    30
 10
-225.0
 20
-610.75494579932638
 30
0.0
 40
7.5
  0
CIRCLE
  5
B9
  8
SIZE
  6
CONTINUOUS
 62
    30
 10
-240.0
 20
-610.75494579932638
 30
0.0
 40
7.5
  0
TEXT
  5
BA
  8
SIZE
  6
CONTINUOUS
 62
    30
 10
-397.14285714285779
 20
-590.75494579932638
 30
0.0
 40
60.0
  1
15
 41
0.9
 72
     1
 11
-358.57142857142918
 21
-590.75494579932638
 31
0.0
  0
POINT
  5
BB
  8
DEFPOINTS
  6
CONTINUOUS
 62
     7
 10
-225.0
 20
-155.49661612744961
 30
0.0
  0
POINT
  5
BC
  8
DEFPOINTS
  6
CONTINUOUS
 62
     7
 10
-240.0
 20
-183.0
 30
0.0
  0
POINT
  5
BD
  8
DEFPOINTS
  6
CONTINUOUS
 62
     7
 10
-240.0
 20
-610.75494579932638
 30
0.0
  0
LINE
  5
BE
  8
SIZE
  6
CONTINUOUS
 62
    30
 10
-225.0
 20
-175.49661612744961
 30
0.0
 11
-225.0
 21
-630.75494579932626
 31
0.0
  0
LINE
  5
BF
  8
SIZE
  6
CONTINUOUS
 62
    30
 10
80.0
 20
-175.49661612744961
 30
0.0
 11
79.999999999999972
 21
-630.75494579932626
 31
0.0
  0
LINE
  5
C0
  8
SIZE
  6
CONTINUOUS
 62
    30
 10
-225.0
 20
-610.75494579932638
 30
0.0
 11
79.999999999999972
 21
-610.75494579932638
 31
0.0
  0
CIRCLE
  5
C1
  8
SIZE
  6
CONTINUOUS
 62
    30
 10
-225.0
 20
-610.75494579932638
 30
0.0
 40
7.5
  0
CIRCLE
  5
C2
  8
SIZE
  6
CONTINUOUS
 62
    30
 10
79.999999999999972
 20
-610.75494579932638
 30
0.0
 40
7.5
  0
TEXT
  5
C3
  8
SIZE
  6
CONTINUOUS
 62
    30
 10
-141.92857142857139
 20
-590.75494579932638
 30
0.0
 40
60.0
  1
305
 41
0.9
 72
     1
 11
-72.5
 21
-590.75494579932638
 31
0.0
  0
POINT
  5
C4
  8
DEFPOINTS
  6
CONTINUOUS
 62
     7
 10
-225.0
 20
-155.49661612744961
 30
0.0
  0
POINT
  5
C5
  8
DEFPOINTS
  6
CONTINUOUS
 62
     7
 10
80.0
 20
-155.49661612744961
 30
0.0
  0
POINT
  5
C6
  8
DEFPOINTS
  6
CONTINUOUS
 62
     7
 10
79.999999999999972
 20
-610.75494579932638
 30
0.0
  0
LINE
  5
C7
  8
SIZE
  6
CONTINUOUS
 62
    30
 10
-225.00000000000179
 20
190.00000000004911
 30
0.0
 11
-225.00000000000179
 21
331.32231395106282
 31
0.0
  0
LINE
  5
C8
  8
SIZE
  6
CONTINUOUS
 62
    30
 10
-240.0
 20
203.0
 30
0.0
 11
-240.0
 21
331.32231395106282
 31
0.0
  0
LINE
  5
C9
  8
SIZE
  6
CONTINUOUS
 62
    30
 10
-225.00000000000179
 20
311.32231395106282
 30
0.0
 11
-195.00000000000171
 21
311.32231395106282
 31
0.0
  0
LINE
  5
CA
  8
SIZE
  6
CONTINUOUS
 62
    30
 10
-240.0
 20
311.32231395106282
 30
0.0
 11
-417.14285714285768
 21
311.32231395106282
 31
0.0
  0
LINE
  5
CB
  8
SIZE
  6
CONTINUOUS
 62
    30
 10
-225.00000000000179
 20
311.32231395106282
 30
0.0
 11
-240.0
 21
311.32231395106282
 31
0.0
  0
CIRCLE
  5
CC
  8
SIZE
  6
CONTINUOUS
 62
    30
 10
-225.00000000000179
 20
311.32231395106282
 30
0.0
 40
7.5
  0
CIRCLE
  5
CD
  8
SIZE
  6
CONTINUOUS
 62
    30
 10
-240.0
 20
311.32231395106282
 30
0.0
 40
7.5
  0
TEXT
  5
CE
  8
SIZE
  6
CONTINUOUS
 62
    30
 10
-397.14285714285779
 20
331.32231395106282
 30
0.0
 40
60.0
  1
15
 41
0.9
 72
     1
 11
-358.57142857142918
 21
331.32231395106282
 31
0.0
  0
POINT
  5
CF
  8
DEFPOINTS
  6
CONTINUOUS
 62
     7
 10
-225.00000000000179
 20
170.00000000004911
 30
0.0
  0
POINT
  5
D0
  8
DEFPOINTS
  6
CONTINUOUS
 62
     7
 10
-240.0
 20
183.0
 30
0.0
  0
POINT
  5
D1
  8
DEFPOINTS
  6
CONTINUOUS
 62
     7
 10
-240.0
 20
311.32231395106282
 30
0.0
  0
LINE
  5
D2
  8
SIZE
  6
CONTINUOUS
 62
    30
 10
-225.00000000000179
 20
190.00000000004911
 30
0.0
 11
-225.00000000000179
 21
331.32231395106282
 31
0.0
  0
LINE
  5
D3
  8
SIZE
  6
CONTINUOUS
 62
    30
 10
80.0
 20
200.49661612745149
 30
0.0
 11
80.000000000000014
 21
331.32231395106282
 31
0.0
  0
LINE
  5
D4
  8
SIZE
  6
CONTINUOUS
 62
    30
 10
-225.00000000000179
 20
311.32231395106282
 30
0.0
 11
80.000000000000014
 21
311.32231395106282
 31
0.0
  0
CIRCLE
  5
D5
  8
SIZE
  6
CONTINUOUS
 62
    30
 10
-225.00000000000179
 20
311.32231395106282
 30
0.0
 40
7.5
  0
CIRCLE
  5
D6
  8
SIZE
  6
CONTINUOUS
 62
    30
 10
80.000000000000014
 20
311.32231395106282
 30
0.0
 40
7.5
  0
TEXT
  5
D7
  8
SIZE
  6
CONTINUOUS
 62
    30
 10
-141.92857142857321
 20
331.32231395106282
 30
0.0
 40
60.0
  1
305
 41
0.9
 72
     1
 11
-72.500000000001819
 21
331.32231395106282
 31
0.0
  0
POINT
  5
D8
  8
DEFPOINTS
  6
CONTINUOUS
 62
     7
 10
-225.00000000000179
 20
170.00000000004911
 30
0.0
  0
POINT
  5
D9
  8
DEFPOINTS
  6
CONTINUOUS
 62
     7
 10
80.0
 20
180.49661612745149
 30
0.0
  0
POINT
  5
DA
  8
DEFPOINTS
  6
CONTINUOUS
 62
     7
 10
80.000000000000014
 20
311.32231395106282
 30
0.0
  0
LINE
  5
DB
  8
SIZE
  6
CONTINUOUS
 62
    30
 10
-240.0
 20
203.0
 30
0.0
 11
-240.0
 21
461.32231395106271
 31
0.0
  0
LINE
  5
DC
  8
SIZE
  6
CONTINUOUS
 62
    30
 10
240.0
 20
203.0
 30
0.0
 11
240.0
 21
461.32231395106271
 31
0.0
  0
LINE
  5
DD
  8
SIZE
  6
CONTINUOUS
 62
    30
 10
-240.0
 20
441.32231395106271
 30
0.0
 11
240.0
 21
441.32231395106271
 31
0.0
  0
CIRCLE
  5
DE
  8
SIZE
  6
CONTINUOUS
 62
    30
 10
-240.0
 20
441.32231395106271
 30
0.0
 40
7.5
  0
CIRCLE
  5
DF
  8
SIZE
  6
CONTINUOUS
 62
    30
 10
240.0
 20
441.32231395106271
 30
0.0
 40
7.5
  0
TEXT
  5
E0
  8
SIZE
  6
CONTINUOUS
 62
    30
 10
-69.428571428571402
 20
461.32231395106271
 30
0.0
 40
60.0
  1
480
 41
0.9
 72
     1
 11
0.0000000000000284
 21
461.32231395106271
 31
0.0
  0
POINT
  5
E1
  8
DEFPOINTS
  6
CONTINUOUS
 62
     7
 10
-240.0
 20
183.0
 30
0.0
  0
POINT
  5
E2
  8
DEFPOINTS
  6
CONTINUOUS
 62
     7
 10
240.0
 20
183.0
 30
0.0
  0
POINT
  5
E3
  8
DEFPOINTS
  6
CONTINUOUS
 62
     7
 10
240.0
 20
441.32231395106271
 30
0.0
  0
LINE
  5
E4
  8
SIZE
  6
CONTINUOUS
 62
    30
 10
-258.0
 20
-185.0
 30
0.0
 11
-392.41078483569618
 21
-184.99999999999989
 31
0.0
  0
LINE
  5
E5
  8
SIZE
  6
CONTINUOUS
 62
    30
 10
-226.0
 20
-162.0
 30
0.0
 11
-392.41078483569618
 21
-161.9999999999998
 31
0.0
  0
LINE
  5
E6
  8
SIZE
  6
CONTINUOUS
 62
    30
 10
-372.41078483569618
 20
-184.99999999999989
 30
0.0
 11
-372.41078483569618
 21
-215.0
 31
0.0
  0
LINE
  5
E7
  8
SIZE
  6
CONTINUOUS
 62
    30
 10
-372.41078483569618
 20
-161.9999999999998
 30
0.0
 11
-372.41078483569601
 21
25.428571428571431
 31
0.0
  0
LINE
  5
E8
  8
SIZE
  6
CONTINUOUS
 62
    30
 10
-372.41078483569618
 20
-184.99999999999989
 30
0.0
 11
-372.41078483569618
 21
-161.9999999999998
 31
0.0
  0
CIRCLE
  5
E9
  8
SIZE
  6
CONTINUOUS
 62
    30
 10
-372.41078483569618
 20
-184.99999999999989
 30
0.0
 40
7.5
  0
CIRCLE
  5
EA
  8
SIZE
  6
CONTINUOUS
 62
    30
 10
-372.41078483569618
 20
-161.9999999999998
 30
0.0
 40
7.5
  0
TEXT
  5
EB
  8
SIZE
  6
CONTINUOUS
 62
    30
 10
-392.41078483569601
 20
-82.000000000000014
 30
0.0
 40
60.0
  1
23
 50
90.0
 41
0.9
 72
     1
 11
-392.41078483569601
 21
-38.285714285714342
 31
0.0
  0
POINT
  5
EC
  8
DEFPOINTS
  6
CONTINUOUS
 62
     7
 10
-238.0
 20
-185.0
 30
0.0
  0
POINT
  5
ED
  8
DEFPOINTS
  6
CONTINUOUS
 62
     7
 10
-206.0
 20
-162.0
 30
0.0
  0
POINT
  5
EE
  8
DEFPOINTS
  6
CONTINUOUS
 62
     7
 10
-372.41078483569618
 20
-161.9999999999998
 30
0.0
  0
LINE
  5
EF
  8
SIZE
  6
CONTINUOUS
 62
    30
 10
-255.4966161274497
 20
-145.0
 30
0.0
 11
-509.1368485226356
 21
-144.9999999999998
 31
0.0
  0
LINE
  5
F0
  8
SIZE
  6
CONTINUOUS
 62
    30
 10
-258.0
 20
-185.0
 30
0.0
 11
-509.1368485226356
 21
-184.99999999999989
 31
0.0
  0
LINE
  5
F1
  8
SIZE
  6
CONTINUOUS
 62
    30
 10
-489.1368485226356
 20
-144.9999999999998
 30
0.0
 11
-489.1368485226356
 21
-184.99999999999989
 31
0.0
  0
LINE
  5
F2
  8
SIZE
  6
CONTINUOUS
 62
    30
 10
-489.1368485226356
 20
-184.99999999999989
 30
0.0
 11
-489.1368485226356
 21
-342.42857142857122
 31
0.0
  0
CIRCLE
  5
F3
  8
SIZE
  6
CONTINUOUS
 62
    30
 10
-489.1368485226356
 20
-144.9999999999998
 30
0.0
 40
7.5
  0
CIRCLE
  5
F4
  8
SIZE
  6
CONTINUOUS
 62
    30
 10
-489.1368485226356
 20
-184.99999999999989
 30
0.0
 40
7.5
  0
TEXT
  5
F5
  8
SIZE
  6
CONTINUOUS
 62
    30
 10
-509.1368485226356
 20
-322.4285714285715
 30
0.0
 40
60.0
  1
40
 50
90.0
 41
0.9
 72
     1
 11
-509.1368485226356
 21
-278.71428571428572
 31
0.0
  0
POINT
  5
F6
  8
DEFPOINTS
  6
CONTINUOUS
 62
     7
 10
-235.49661612744961
 20
-145.0
 30
0.0
  0
POINT
  5
F7
  8
DEFPOINTS
  6
CONTINUOUS
 62
     7
 10
-238.0
 20
-185.0
 30
0.0
  0
POINT
  5
F8
  8
DEFPOINTS
  6
CONTINUOUS
 62
     7
 10
-489.1368485226356
 20
-184.99999999999989
 30
0.0
  0
LINE
  5
F9
  8
SIZE
  6
CONTINUOUS
 62
    30
 10
-255.4966161274497
 20
-145.0
 30
0.0
 11
-509.13684852263589
 21
-144.9999999999998
 31
0.0
  0
LINE
  5
FA
  8
SIZE
  6
CONTINUOUS
 62
    30
 10
-245.00000000000171
 20
170.00000000004911
 30
0.0
 11
-509.1368485226356
 21
170.0000000000492
 31
0.0
  0
LINE
  5
FB
  8
SIZE
  6
CONTINUOUS
 62
    30
 10
-489.1368485226356
 20
-144.9999999999998
 30
0.0
 11
-489.1368485226356
 21
170.0000000000492
 31
0.0
  0
CIRCLE
  5
FC
  8
SIZE
  6
CONTINUOUS
 62
    30
 10
-489.1368485226356
 20
-144.9999999999998
 30
0.0
 40
7.5
  0
CIRCLE
  5
FD
  8
SIZE
  6
CONTINUOUS
 62
    30
 10
-489.1368485226356
 20
170.0000000000492
 30
0.0
 40
7.5
  0
TEXT
  5
FE
  8
SIZE
  6
CONTINUOUS
 62
    30
 10
-509.1368485226356
 20
-51.785714285689608
 30
0.0
 40
60.0
  1
315
 50
90.0
 41
0.9
 72
     1
 11
-509.1368485226356
 21
12.50000000002467
 31
0.0
  0
POINT
  5
FF
  8
DEFPOINTS
  6
CONTINUOUS
 62
     7
 10
-235.49661612744961
 20
-145.0
 30
0.0
  0
POINT
  5
100
  8
DEFPOINTS
  6
CONTINUOUS
 62
     7
 10
-225.00000000000179
 20
170.00000000004911
 30
0.0
  0
POINT
  5
101
  8
DEFPOINTS
  6
CONTINUOUS
 62
     7
 10
-489.1368485226356
 20
170.0000000000492
 30
0.0
  0
LINE
  5
102
  8
SIZE
  6
CONTINUOUS
 62
    30
 10
258.0
 20
-185.0
 30
0.0
 11
447.46141961942141
 21
-185.0
 31
0.0
  0
LINE
  5
103
  8
SIZE
  6
CONTINUOUS
 62
    30
 10
110.4966161274496
 20
-145.0
 30
0.0
 11
447.46141961942141
 21
-145.00000000000011
 31
0.0
  0
LINE
  5
104
  8
SIZE
  6
CONTINUOUS
 62
    30
 10
427.46141961942141
 20
-145.00000000000011
 30
0.0
 11
427.46141961942158
 21
-115.0000000000001
 31
0.0
  0
LINE
  5
105
  8
SIZE
  6
CONTINUOUS
 62
    30
 10
427.46141961942141
 20
-185.0
 30
0.0
 11
427.46141961942141
 21
-372.4285714285715
 31
0.0
  0
LINE
  5
106
  8
SIZE
  6
CONTINUOUS
 62
    30
 10
427.46141961942141
 20
-145.00000000000011
 30
0.0
 11
427.46141961942141
 21
-185.0
 31
0.0
  0
CIRCLE
  5
107
  8
SIZE
  6
CONTINUOUS
 62
    30
 10
427.46141961942141
 20
-145.00000000000011
 30
0.0
 40
7.5
  0
CIRCLE
  5
108
  8
SIZE
  6
CONTINUOUS
 62
    30
 10
427.46141961942141
 20
-185.0
 30
0.0
 40
7.5
  0
TEXT
  5
109
  8
SIZE
  6
CONTINUOUS
 62
    30
 10
407.46141961942158
 20
-352.42857142857139
 30
0.0
 40
60.0
  1
40
 50
90.0
 41
0.9
 72
     1
 11
407.46141961942158
 21
-308.71428571428572
 31
0.0
  0
POINT
  5
10A
  8
DEFPOINTS
  6
CONTINUOUS
 62
     7
 10
238.0
 20
-185.0
 30
0.0
  0
POINT
  5
10B
  8
DEFPOINTS
  6
CONTINUOUS
 62
     7
 10
90.496616127449684
 20
-145.0
 30
0.0
  0
POINT
  5
10C
  8
DEFPOINTS
  6
CONTINUOUS
 62
     7
 10
427.46141961942141
 20
-145.00000000000011
 30
0.0
  0
LINE
  5
10D
  8
SIZE
  6
CONTINUOUS
 62
    30
 10
110.4966161274496
 20
-145.0
 30
0.0
 11
447.46141961942322
 21
-145.00000000000011
 31
0.0
  0
LINE
  5
10E
  8
SIZE
  6
CONTINUOUS
 62
    30
 10
110.4966161274496
 20
170.0
 30
0.0
 11
447.4614196194234
 21
169.9999999999998
 31
0.0
  0
LINE
  5
10F
  8
SIZE
  6
CONTINUOUS
 62
    30
 10
427.46141961942322
 20
-145.00000000000011
 30
0.0
 11
427.46141961942322
 21
169.9999999999998
 31
0.0
  0
CIRCLE
  5
110
  8
SIZE
  6
CONTINUOUS
 62
    30
 10
427.46141961942322
 20
-145.00000000000011
 30
0.0
 40
7.5
  0
CIRCLE
  5
111
  8
SIZE
  6
CONTINUOUS
 62
    30
 10
427.46141961942322
 20
169.9999999999998
 30
0.0
 40
7.5
  0
TEXT
  5
112
  8
SIZE
  6
CONTINUOUS
 62
    30
 10
407.46141961942311
 20
-51.785714285714299
 30
0.0
 40
60.0
  1
315
 50
90.0
 41
0.9
 72
     1
 11
407.46141961942311
 21
12.49999999999998
 31
0.0
  0
POINT
  5
113
  8
DEFPOINTS
  6
CONTINUOUS
 62
     7
 10
90.496616127449684
 20
-145.0
 30
0.0
  0
POINT
  5
114
  8
DEFPOINTS
  6
CONTINUOUS
 62
     7
 10
90.496616127449684
 20
170.0
 30
0.0
  0
POINT
  5
115
  8
DEFPOINTS
  6
CONTINUOUS
 62
     7
 10
427.46141961942322
 20
169.9999999999998
 30
0.0
  0
LINE
  5
116
  8
SIZE
  6
CONTINUOUS
 62
    30
 10
258.0
 20
-185.0
 30
0.0
 11
587.4614196194234
 21
-185.00000000000011
 31
0.0
  0
LINE
  5
117
  8
SIZE
  6
CONTINUOUS
 62
    30
 10
258.0
 20
185.0
 30
0.0
 11
587.4614196194234
 21
184.99999999999989
 31
0.0
  0
LINE
  5
118
  8
SIZE
  6
CONTINUOUS
 62
    30
 10
567.4614196194234
 20
-185.00000000000011
 30
0.0
 11
567.4614196194234
 21
184.99999999999989
 31
0.0
  0
CIRCLE
  5
119
  8
SIZE
  6
CONTINUOUS
 62
    30
 10
567.4614196194234
 20
-185.00000000000011
 30
0.0
 40
7.5
  0
CIRCLE
  5
11A
  8
SIZE
  6
CONTINUOUS
 62
    30
 10
567.4614196194234
 20
184.99999999999989
 30
0.0
 40
7.5
  0
TEXT
  5
11B
  8
SIZE
  6
CONTINUOUS
 62
    30
 10
547.4614196194234
 20
-69.428571428567793
 30
0.0
 40
60.0
  1
370
 50
90.0
 41
0.9
 72
     1
 11
547.4614196194234
 21
0.0000000000036423
 31
0.0
  0
POINT
  5
11C
  8
DEFPOINTS
  6
CONTINUOUS
 62
     7
 10
238.0
 20
-185.0
 30
0.0
  0
POINT
  5
11D
  8
DEFPOINTS
  6
CONTINUOUS
 62
     7
 10
238.0
 20
185.0
 30
0.0
  0
POINT
  5
11E
  8
DEFPOINTS
  6
CONTINUOUS
 62
     7
 10
567.4614196194234
 20
184.99999999999989
 30
0.0
  0
LINE
  5
11F
  8
SIZE
  6
CONTINUOUS
 62
    30
 10
258.0
 20
-185.0
 30
0.0
 11
587.46141961942533
 21
-185.00000000000011
 31
0.0
  0
LINE
  5
120
  8
SIZE
  6
CONTINUOUS
 62
    30
 10
147.5
 20
-210.0
 30
0.0
 11
587.46141961942533
 21
-210.00000000000011
 31
0.0
  0
LINE
  5
121
  8
SIZE
  6
CONTINUOUS
 62
    30
 10
567.46141961942533
 20
-185.00000000000011
 30
0.0
 11
567.46141961942533
 21
-155.00000000000011
 31
0.0
  0
LINE
  5
122
  8
SIZE
  6
CONTINUOUS
 62
    30
 10
567.46141961942533
 20
-210.00000000000011
 30
0.0
 11
567.4614196194251
 21
-466.85714285714289
 31
0.0
  0
LINE
  5
123
  8
SIZE
  6
CONTINUOUS
 62
    30
 10
567.46141961942533
 20
-185.00000000000011
 30
0.0
 11
567.46141961942533
 21
-210.00000000000011
 31
0.0
  0
CIRCLE
  5
124
  8
SIZE
  6
CONTINUOUS
 62
    30
 10
567.46141961942533
 20
-185.00000000000011
 30
0.0
 40
7.5
  0
CIRCLE
  5
125
  8
SIZE
  6
CONTINUOUS
 62
    30
 10
567.46141961942533
 20
-210.00000000000011
 30
0.0
 40
7.5
  0
TEXT
  5
126
  8
SIZE
  6
CONTINUOUS
 62
    30
 10
531.74713390513944
 20
-446.85714285714278
 30
0.0
 40
60.0
  1
(25)
 50
90.0
 41
0.9
 72
     1
 11
531.74713390513944
 21
-368.4285714285715
 31
0.0
  0
POINT
  5
127
  8
DEFPOINTS
  6
CONTINUOUS
 62
     7
 10
238.0
 20
-185.0
 30
0.0
  0
POINT
  5
128
  8
DEFPOINTS
  6
CONTINUOUS
 62
     7
 10
127.5
 20
-210.0
 30
0.0
  0
POINT
  5
129
  8
DEFPOINTS
  6
CONTINUOUS
 62
     7
 10
567.46141961942533
 20
-210.00000000000011
 30
0.0
  0
LINE
  5
12A
  8
SIZE
  6
CONTINUOUS
 62
    30
 10
258.0
 20
185.0
 30
0.0
 11
727.46141961942328
 21
184.9999999999998
 31
0.0
  0
LINE
  5
12B
  8
SIZE
  6
CONTINUOUS
 62
    30
 10
147.5
 20
-210.0
 30
0.0
 11
727.46141961942328
 21
-210.0000000000002
 31
0.0
  0
LINE
  5
12C
  8
SIZE
  6
CONTINUOUS
 62
    30
 10
707.46141961942305
 20
184.9999999999998
 30
0.0
 11
707.46141961942305
 21
-210.0000000000002
 31
0.0
  0
CIRCLE
  5
12D
  8
SIZE
  6
CONTINUOUS
 62
    30
 10
707.46141961942305
 20
184.9999999999998
 30
0.0
 40
7.5
  0
CIRCLE
  5
12E
  8
SIZE
  6
CONTINUOUS
 62
    30
 10
707.46141961942305
 20
-210.0000000000002
 30
0.0
 40
7.5
  0
TEXT
  5
12F
  8
SIZE
  6
CONTINUOUS
 62
    30
 10
687.46141961942305
 20
-81.928571428567778
 30
0.0
 40
60.0
  1
395
 50
90.0
 41
0.9
 72
     1
 11
687.46141961942305
 21
-12.49999999999636
 31
0.0
  0
POINT
  5
130
  8
DEFPOINTS
  6
CONTINUOUS
 62
     7
 10
238.0
 20
185.0
 30
0.0
  0
POINT
  5
131
  8
DEFPOINTS
  6
CONTINUOUS
 62
     7
 10
127.5
 20
-210.0
 30
0.0
  0
POINT
  5
132
  8
DEFPOINTS
  6
CONTINUOUS
 62
     7
 10
707.46141961942305
 20
-210.0000000000002
 30
0.0
  0
POINT
  5
13C
  8
DEFPOINTS
  6
CONTINUOUS
 62
     7
 10
-237.99999999999989
 20
-184.99999999999989
 30
0.0
  0
POINT
  5
13D
  8
DEFPOINTS
  6
CONTINUOUS
 62
     7
 10
-215.8994949366097
 20
-171.89949493660961
 30
0.0
  0
POINT
  5
13E
  8
DEFPOINTS
  6
CONTINUOUS
 62
     7
 10
-196.10050506338999
 20
-152.1005050633903
 30
0.0
  0
POINT
  5
13F
  8
DEFPOINTS
  6
CONTINUOUS
 62
     7
 10
-119.393
 20
-184.99999999999989
 30
0.0
  0
TEXT
  5
140
  8
NOTE
  6
CONTINUOUS
 62
     4
 10
291.46671041442818
 20
-628.56070914373413
 30
0.0
 40
60.0
  1
AH1 %%C10穴
 50
0.0000025044165917
 41
0.7
  7
STANDARD1
  0
LINE
  5
141
  8
NOTE
  6
CONTINUOUS
 62
     4
 10
83.249791897076648
 20
-175.88779603994411
 30
0.0
 11
80.0
 21
-145.0
 31
0.0
  0
LINE
  5
142
  8
NOTE
  6
CONTINUOUS
 62
     4
 10
80.0
 20
-145.0
 30
0.0
 11
98.258300245874125
 21
-170.12472017179601
 31
0.0
  0
LINE
  5
143
  8
NOTE
  6
CONTINUOUS
 62
     4
 10
80.0
 20
-145.0
 30
0.0
 11
90.754046071475386
 21
-173.00625810586999
 31
0.0
  0
LINE
  5
144
  8
NOTE
  6
CONTINUOUS
 62
     4
 10
90.754046071475386
 20
-173.00625810586999
 30
0.0
 11
271.02778223168929
 21
-642.48469915553835
 31
0.0
  0
LINE
  5
145
  8
NOTE
  6
CONTINUOUS
 62
     4
 10
271.02778223168929
 20
-642.48469915553835
 30
0.0
 11
627.99307035831373
 21
-642.48469915553835
 31
0.0
  0
TEXT
  5
146
  8
NOTE
  6
CONTINUOUS
 62
     4
 10
-948.27112297926203
 20
-465.23703450006718
 30
0.0
 40
60.0
  1
AH2 10x20長穴
 50
0.0000025044165917
 41
0.7
  7
STANDARD1
  0
LINE
  5
147
  8
NOTE
  6
CONTINUOUS
 62
     4
 10
-249.46713223304511
 20
-164.1305131104782
 30
0.0
 11
-225.0
 21
-145.0
 31
0.0
  0
LINE
  5
148
  8
NOTE
  6
CONTINUOUS
 62
     4
 10
-225.0
 20
-145.0
 30
0.0
 11
-236.62390164698809
 21
-173.80107640489581
 31
0.0
  0
LINE
  5
149
  8
NOTE
  6
CONTINUOUS
 62
     4
 10
-225.0
 20
-145.0
 30
0.0
 11
-243.04551694001751
 21
-168.96579475768701
 31
0.0
  0
LINE
  5
14A
  8
NOTE
  6
CONTINUOUS
 62
     4
 10
-243.04551694001751
 20
-168.96579475768701
 30
0.0
 11
-476.61312151304418
 21
-479.16102451187169
 31
0.0
  0
LINE
  5
14B
  8
NOTE
  6
CONTINUOUS
 62
     4
 10
-476.61312151304418
 20
-479.16102451187169
 30
0.0
 11
-964.12267145528835
 21
-479.16102451187169
 31
0.0
  0
TEXT
  5
14C
  8
NOTE
  6
CONTINUOUS
 62
     4
 10
311.62225037631652
 20
404.78618704422479
 30
0.0
 40
60.0
  1
AH4 10x20長穴
 50
0.0000025044165917
 41
0.7
  7
STANDARD1
  0
LINE
  5
14D
  8
NOTE
  6
CONTINUOUS
 62
     4
 10
107.0510146049655
 20
185.2597411649549
 30
0.0
 11
80.0
 21
170.0
 31
0.0
  0
LINE
  5
14E
  8
NOTE
  6
CONTINUOUS
 62
     4
 10
80.0
 20
170.0
 30
0.0
 11
95.796995384876936
 21
196.7408307348451
 31
0.0
  0
LINE
  5
14F
  8
NOTE
  6
CONTINUOUS
 62
     4
 10
80.0
 20
170.0
 30
0.0
 11
101.4240049949221
 21
191.00028594989999
 31
0.0
  0
LINE
  5
150
  8
NOTE
  6
CONTINUOUS
 62
     4
 10
101.4240049949221
 20
191.00028594989999
 30
0.0
 11
305.3184944100467
 21
390.86219703242023
 31
0.0
  0
LINE
  5
151
  8
NOTE
  6
CONTINUOUS
 62
     4
 10
305.3184944100467
 20
390.86219703242023
 30
0.0
 11
778.21771473723311
 21
390.86219703242023
 31
0.0
  0
TEXT
  5
152
  8
NOTE
  6
CONTINUOUS
 62
     4
 10
-985.95446307924806
 20
349.87422349216649
 30
0.0
 40
60.0
  1
AH3 10x24長穴
 50
0.0000025044165917
 41
0.7
  7
STANDARD1
  0
LINE
  5
153
  8
NOTE
  6
CONTINUOUS
 62
     4
 10
-247.0949407748285
 20
191.82729217604719
 30
0.0
 11
-225.0
 21
170.0000000000509
 31
0.0
  0
LINE
  5
154
  8
NOTE
  6
CONTINUOUS
 62
     4
 10
-225.0
 20
170.0000000000509
 30
0.0
 11
-255.04842605847631
 21
177.85551926919109
 31
0.0
  0
LINE
  5
155
  8
NOTE
  6
CONTINUOUS
 62
     4
 10
-225.0
 20
170.0000000000509
 30
0.0
 11
-251.07168341665241
 21
184.84140572261811
 31
0.0
  0
LINE
  5
156
  8
NOTE
  6
CONTINUOUS
 62
     4
 10
-251.07168341665241
 20
184.84140572261811
 30
0.0
 11
-516.52238211768577
 21
335.95023348036187
 31
0.0
  0
LINE
  5
157
  8
NOTE
  6
CONTINUOUS
 62
     4
 10
-516.52238211768577
 20
335.95023348036187
 30
0.0
 11
-992.25821904551754
 21
335.95023348036187
 31
0.0
  0
ARC
  5
158
  8
OUTLINE
  6
CONTINUOUS
 62
     3
 10
16.0069999999996
 20
-194.7999999999993
 30
0.0
 40
1.1999999999999991
 50
270.0
 51
0.0
  0
ARC
  5
159
  8
OUTLINE
  6
CONTINUOUS
 62
     3
 10
-118.1929999999993
 20
-194.7999999999993
 30
0.0
 40
1.1999999999999991
 50
180.0
 51
270.0
  0
LINE
  5
15A
  8
OUTLINE
  6
CONTINUOUS
 62
     3
 10
240.0
 20
-183.0
 30
0.0
 11
240.0
 21
183.0
 31
0.0
  0
LINE
  5
15B
  8
OUTLINE
  6
CONTINUOUS
 62
     3
 10
238.0
 20
-185.0
 30
0.0
 11
238.0
 21
-183.0
 31
0.0
  0
LINE
  5
15C
  8
OUTLINE
  6
CONTINUOUS
 62
     3
 10
238.0
 20
185.0
 30
0.0
 11
238.0
 21
183.0
 31
0.0
  0
LINE
  5
15D
  8
OUTLINE
  6
CONTINUOUS
 62
     3
 10
238.0
 20
185.0
 30
0.0
 11
-238.0
 21
185.0
 31
0.0
  0
LINE
  5
15E
  8
OUTLINE
  6
CONTINUOUS
 62
     3
 10
-240.0
 20
183.0
 30
0.0
 11
-238.0
 21
183.0
 31
0.0
  0
LINE
  5
15F
  8
OUTLINE
  6
CONTINUOUS
 62
     3
 10
240.0
 20
183.0
 30
0.0
 11
238.0
 21
183.0
 31
0.0
  0
LINE
  5
160
  8
OUTLINE
  6
CONTINUOUS
 62
     3
 10
127.5000000000018
 20
-185.0
 30
0.0
 11
127.5
 21
-210.0
 31
0.0
  0
LINE
  5
161
  8
OUTLINE
  6
CONTINUOUS
 62
     3
 10
21.499999999998181
 20
-185.0
 30
0.0
 11
21.5
 21
-210.0
 31
0.0
  0
LINE
  5
162
  8
OUTLINE
  6
CONTINUOUS
 62
     3
 10
17.207000000000331
 20
-185.0
 30
0.0
 11
17.207000000000331
 21
-194.7999999999993
 31
0.0
  0
LINE
  5
163
  8
OUTLINE
  6
CONTINUOUS
 62
     3
 10
-119.393
 20
-185.0
 30
0.0
 11
-119.393
 21
-194.7999999999993
 31
0.0
  0
LINE
  5
164
  8
OUTLINE
  6
CONTINUOUS
 62
     3
 10
-240.0
 20
-183.0
 30
0.0
 11
-238.0
 21
-183.0
 31
0.0
  0
LINE
  5
165
  8
OUTLINE
  6
CONTINUOUS
 62
     3
 10
240.0
 20
-183.0
 30
0.0
 11
238.0
 21
-183.0
 31
0.0
  0
LINE
  5
166
  8
OUTLINE
  6
CONTINUOUS
 62
     3
 10
-238.0
 20
-185.0
 30
0.0
 11
238.0
 21
-185.0
 31
0.0
  0
LINE
  5
169
  8
OUTLINE
  6
CONTINUOUS
 62
     3
 10
-118.1929999999993
 20
-196.0
 30
0.0
 11
16.0069999999996
 21
-196.0
 31
0.0
  0
LINE
  5
16A
  8
OUTLINE
  6
CONTINUOUS
 62
     3
 10
127.5
 20
-210.0
 30
0.0
 11
21.5
 21
-210.0
 31
0.0
  0
LINE
  5
16B
  8
OUTLINE
  6
CONTINUOUS
 62
     3
 10
-238.0
 20
-185.0
 30
0.0
 11
-238.0
 21
-183.0
 31
0.0
  0
LINE
  5
16C
  8
OUTLINE
  6
CONTINUOUS
 62
     3
 10
-238.0
 20
185.0
 30
0.0
 11
-238.0
 21
183.0
 31
0.0
  0
LINE
  5
16D
  8
OUTLINE
  6
CONTINUOUS
 62
     3
 10
-240.0
 20
183.0
 30
0.0
 11
-240.0
 21
-183.0
 31
0.0
  0
LINE
  5
16E
  8
DETAIL
  6
CONTINUOUS
 62
     5
 10
-240.0
 20
183.0
 30
0.0
 11
-240.0
 21
-183.0
 31
0.0
  0
LINE
  5
16F
  8
DETAIL
  6
CONTINUOUS
 62
     5
 10
-238.0
 20
185.0
 30
0.0
 11
-238.0
 21
183.0
 31
0.0
  0
LINE
  5
170
  8
DETAIL
  6
CONTINUOUS
 62
     5
 10
-238.0
 20
-185.0
 30
0.0
 11
-238.0
 21
-183.0
 31
0.0
  0
LINE
  5
171
  8
DETAIL
  6
CONTINUOUS
 62
     5
 10
127.5
 20
-210.0
 30
0.0
 11
21.5
 21
-210.0
 31
0.0
  0
LINE
  5
172
  8
DETAIL
  6
CONTINUOUS
 62
     5
 10
-118.1929999999993
 20
-196.0
 30
0.0
 11
16.0069999999996
 21
-196.0
 31
0.0
  0
LINE
  5
173
  8
DETAIL
  6
CONTINUOUS
 62
     5
 10
-238.0
 20
-185.0
 30
0.0
 11
238.0
 21
-185.0
 31
0.0
  0
LINE
  5
174
  8
DETAIL
  6
CONTINUOUS
 62
     5
 10
240.0
 20
-183.0
 30
0.0
 11
238.0
 21
-183.0
 31
0.0
  0
LINE
  5
175
  8
DETAIL
  6
CONTINUOUS
 62
     5
 10
-240.0
 20
-183.0
 30
0.0
 11
-238.0
 21
-183.0
 31
0.0
  0
LINE
  5
176
  8
DETAIL
  6
CONTINUOUS
 62
     5
 10
-119.393
 20
-185.0
 30
0.0
 11
-119.393
 21
-194.7999999999993
 31
0.0
  0
LINE
  5
177
  8
DETAIL
  6
CONTINUOUS
 62
     5
 10
17.207000000000331
 20
-185.0
 30
0.0
 11
17.207000000000331
 21
-194.7999999999993
 31
0.0
  0
LINE
  5
178
  8
DETAIL
  6
CONTINUOUS
 62
     5
 10
21.499999999998181
 20
-185.0
 30
0.0
 11
21.5
 21
-210.0
 31
0.0
  0
LINE
  5
179
  8
DETAIL
  6
CONTINUOUS
 62
     5
 10
127.5000000000018
 20
-185.0
 30
0.0
 11
127.5
 21
-210.0
 31
0.0
  0
LINE
  5
17A
  8
DETAIL
  6
CONTINUOUS
 62
     5
 10
240.0
 20
183.0
 30
0.0
 11
238.0
 21
183.0
 31
0.0
  0
LINE
  5
17B
  8
DETAIL
  6
CONTINUOUS
 62
     5
 10
-240.0
 20
183.0
 30
0.0
 11
-238.0
 21
183.0
 31
0.0
  0
LINE
  5
17C
  8
DETAIL
  6
CONTINUOUS
 62
     5
 10
238.0
 20
185.0
 30
0.0
 11
-238.0
 21
185.0
 31
0.0
  0
LINE
  5
17D
  8
DETAIL
  6
CONTINUOUS
 62
     5
 10
238.0
 20
185.0
 30
0.0
 11
238.0
 21
183.0
 31
0.0
  0
LINE
  5
17E
  8
DETAIL
  6
CONTINUOUS
 62
     5
 10
238.0
 20
-185.0
 30
0.0
 11
238.0
 21
-183.0
 31
0.0
  0
LINE
  5
17F
  8
DETAIL
  6
CONTINUOUS
 62
     5
 10
240.0
 20
-183.0
 30
0.0
 11
240.0
 21
183.0
 31
0.0
  0
ARC
  5
180
  8
DETAIL
  6
CONTINUOUS
 62
     5
 10
-118.1929999999993
 20
-194.7999999999993
 30
0.0
 40
1.1999999999999991
 50
180.0
 51
270.0
  0
ARC
  5
181
  8
DETAIL
  6
CONTINUOUS
 62
     5
 10
16.0069999999996
 20
-194.7999999999993
 30
0.0
 40
1.1999999999999991
 50
270.0
 51
0.0
  0
ARC
  5
182
  8
DETAIL
  6
CONTINUOUS
 62
     5
 10
-220.05025253170061
 20
165.05025253170061
 30
0.0
 40
5.0
 50
225.0
 51
45.0
  0
LINE
  5
183
  8
DETAIL
  6
CONTINUOUS
 62
     5
 10
-226.4142135624005
 20
178.4852813743
 30
0.0
 11
-216.51471862579999
 21
168.58578643770119
 31
0.0
  0
LINE
  5
184
  8
DETAIL
  6
CONTINUOUS
 62
     5
 10
-223.58578643759941
 20
161.51471862579999
 30
0.0
 11
-233.48528137420001
 21
171.41421356240059
 31
0.0
  0
ARC
  5
185
  8
DETAIL
  6
CONTINUOUS
 62
     5
 10
-229.94974746829931
 20
174.94974746830121
 30
0.0
 40
5.0
 50
45.0
 51
225.0
  0
ARC
  5
186
  8
DETAIL
  6
CONTINUOUS
 62
     5
 10
80.0
 20
175.0
 30
0.0
 40
5.0
 50
0.0
 51
180.0
  0
ARC
  5
187
  8
DETAIL
  6
CONTINUOUS
 62
     5
 10
80.0
 20
165.0
 30
0.0
 40
5.0
 50
180.0
 51
0.0
  0
LINE
  5
188
  8
DETAIL
  6
CONTINUOUS
 62
     5
 10
85.0
 20
175.0
 30
0.0
 11
85.0
 21
165.0
 31
0.0
  0
LINE
  5
189
  8
DETAIL
  6
CONTINUOUS
 62
     5
 10
75.0
 20
165.0
 30
0.0
 11
75.0
 21
175.0
 31
0.0
  0
ARC
  5
18A
  8
DETAIL
  6
CONTINUOUS
 62
     5
 10
80.0
 20
-145.0
 30
0.0
 40
5.0
 50
116.2699117316148
 51
317.74196740095073
  0
ARC
  5
18B
  8
DETAIL
  6
CONTINUOUS
 62
     5
 10
80.0
 20
-145.0
 30
0.0
 40
5.0
 50
317.71764782393763
 51
116.2823521762771
  0
ARC
  5
18C
  8
DETAIL
  6
CONTINUOUS
 62
     5
 10
-220.0
 20
-145.0
 30
0.0
 40
5.0
 50
270.0
 51
90.0
  0
ARC
  5
18D
  8
DETAIL
  6
CONTINUOUS
 62
     5
 10
-230.0
 20
-145.0
 30
0.0
 40
5.0
 50
90.0
 51
270.0
  0
LINE
  5
18E
  8
DETAIL
  6
CONTINUOUS
 62
     5
 10
-230.0
 20
-140.0
 30
0.0
 11
-220.0
 21
-140.0
 31
0.0
  0
LINE
  5
18F
  8
DETAIL
  6
CONTINUOUS
 62
     5
 10
-220.0
 20
-150.0
 30
0.0
 11
-230.0
 21
-150.0
 31
0.0
  0
ENDSEC
  0
EOF
