  0
SECTION
  2
HEADER
  9
$ACADVER
  1
AC1015
  9
$ACADMAINTVER
 70
    20
  9
$DWGCODEPAGE
  3
ANSI_932
  9
$INSBASE
 10
0.0
 20
0.0
 30
0.0
  9
$EXTMIN
 10
-1368.727630583791
 20
-661.1589548489555
 30
0.0
  9
$EXTMAX
 10
1103.1968303596
 20
2383.586136656228
 30
0.0
  9
$LIMMIN
 10
-4267.15222106048
 20
-2696.083210198413
  9
$LIMMAX
 10
7190.717422586465
 20
5141.155363923066
  9
$ORTHOMODE
 70
     0
  9
$REGENMODE
 70
     1
  9
$FILLMODE
 70
     1
  9
$QTEXTMODE
 70
     0
  9
$MIRRTEXT
 70
     0
  9
$LTSCALE
 40
20.0
  9
$ATTMODE
 70
     1
  9
$TEXTSIZE
 40
64.0
  9
$TRACEWID
 40
0.05
  9
$TEXTSTYLE
  7
STANDARD_MODELNAME
  9
$CLAYER
  8
SYMBOLLINE
  9
$CELTYPE
  6
CONTINUOUS
  9
$CECOLOR
 62
     7
  9
$CELTSCALE
 40
1.0
  9
$DISPSILH
 70
     0
  9
$DIMSCALE
 40
1.0
  9
$DIMASZ
 40
30.0
  9
$DIMEXO
 40
20.0
  9
$DIMDLI
 40
80.0
  9
$DIMRND
 40
0.0
  9
$DIMDLE
 40
0.0
  9
$DIMEXE
 40
20.0
  9
$DIMTP
 40
0.0
  9
$DIMTM
 40
0.0
  9
$DIMTXT
 40
60.0
  9
$DIMCEN
 40
0.09
  9
$DIMTSZ
 40
0.0
  9
$DIMTOL
 70
     0
  9
$DIMLIM
 70
     0
  9
$DIMTIH
 70
     0
  9
$DIMTOH
 70
     0
  9
$DIMSE1
 70
     0
  9
$DIMSE2
 70
     0
  9
$DIMTAD
 70
     1
  9
$DIMZIN
 70
     8
  9
$DIMBLK
  1
SMALL
  9
$DIMASO
 70
     1
  9
$DIMSHO
 70
     0
  9
$DIMPOST
  1

  9
$DIMAPOST
  1

  9
$DIMALT
 70
     0
  9
$DIMALTD
 70
     2
  9
$DIMALTF
 40
25.4
  9
$DIMLFAC
 40
1.0
  9
$DIMTOFL
 70
     1
  9
$DIMTVP
 40
0.0
  9
$DIMTIX
 70
     0
  9
$DIMSOXD
 70
     0
  9
$DIMSAH
 70
     0
  9
$DIMBLK1
  1

  9
$DIMBLK2
  1

  9
$DIMSTYLE
  2
STANDARD
  9
$DIMCLRD
 70
     0
  9
$DIMCLRE
 70
     0
  9
$DIMCLRT
 70
     0
  9
$DIMTFAC
 40
1.0
  9
$DIMGAP
 40
0.09
  9
$DIMJUST
 70
     0
  9
$DIMSD1
 70
     0
  9
$DIMSD2
 70
     0
  9
$DIMTOLJ
 70
     1
  9
$DIMTZIN
 70
     0
  9
$DIMALTZ
 70
     0
  9
$DIMALTTZ
 70
     0
  9
$DIMUPT
 70
     0
  9
$DIMDEC
 70
     4
  9
$DIMTDEC
 70
     4
  9
$DIMALTU
 70
     2
  9
$DIMALTTD
 70
     2
  9
$DIMTXSTY
  7
STANDARD
  9
$DIMAUNIT
 70
     0
  9
$DIMADEC
 70
     0
  9
$DIMALTRND
 40
0.0
  9
$DIMAZIN
 70
     0
  9
$DIMDSEP
 70
    46
  9
$DIMATFIT
 70
     3
  9
$DIMFRAC
 70
     0
  9
$DIMLDRBLK
  1
SMALL
  9
$DIMLUNIT
 70
     2
  9
$DIMLWD
 70
    -2
  9
$DIMLWE
 70
    -2
  9
$DIMTMOVE
 70
     0
  9
$LUNITS
 70
     2
  9
$LUPREC
 70
     4
  9
$SKETCHINC
 40
0.1
  9
$FILLETRAD
 40
30.0
  9
$AUNITS
 70
     1
  9
$AUPREC
 70
     3
  9
$MENU
  1
ACAD
  9
$ELEVATION
 40
0.0
  9
$PELEVATION
 40
0.0
  9
$THICKNESS
 40
0.0
  9
$LIMCHECK
 70
     0
  9
$CHAMFERA
 40
0.0
  9
$CHAMFERB
 40
0.0
  9
$CHAMFERC
 40
0.0
  9
$CHAMFERD
 40
0.0
  9
$SKPOLY
 70
     0
  9
$TDCREATE
 40
2450330.439930556
  9
$TDUCREATE
 40
2450330.064930556
  9
$TDUPDATE
 40
2459087.437268518
  9
$TDUUPDATE
 40
2459087.062268519
  9
$TDINDWG
 40
4.0478669792
  9
$TDUSRTIMER
 40
4.0478660764
  9
$USRTIMER
 70
     1
  9
$ANGBASE
 50
0.0
  9
$ANGDIR
 70
     0
  9
$PDMODE
 70
     3
  9
$PDSIZE
 40
-2.0
  9
$PLINEWID
 40
0.0
  9
$SPLFRAME
 70
     0
  9
$SPLINETYPE
 70
     6
  9
$SPLINESEGS
 70
     8
  9
$HANDSEED
  5
1119E
  9
$SURFTAB1
 70
     6
  9
$SURFTAB2
 70
     6
  9
$SURFTYPE
 70
     6
  9
$SURFU
 70
     6
  9
$SURFV
 70
     6
  9
$UCSBASE
  2

  9
$UCSNAME
  2

  9
$UCSORG
 10
0.0
 20
0.0
 30
0.0
  9
$UCSXDIR
 10
1.0
 20
0.0
 30
0.0
  9
$UCSYDIR
 10
0.0
 20
1.0
 30
0.0
  9
$UCSORTHOREF
  2

  9
$UCSORTHOVIEW
 70
     0
  9
$UCSORGTOP
 10
0.0
 20
0.0
 30
0.0
  9
$UCSORGBOTTOM
 10
0.0
 20
0.0
 30
0.0
  9
$UCSORGLEFT
 10
0.0
 20
0.0
 30
0.0
  9
$UCSORGRIGHT
 10
0.0
 20
0.0
 30
0.0
  9
$UCSORGFRONT
 10
0.0
 20
0.0
 30
0.0
  9
$UCSORGBACK
 10
0.0
 20
0.0
 30
0.0
  9
$PUCSBASE
  2

  9
$PUCSNAME
  2

  9
$PUCSORG
 10
0.0
 20
0.0
 30
0.0
  9
$PUCSXDIR
 10
1.0
 20
0.0
 30
0.0
  9
$PUCSYDIR
 10
0.0
 20
1.0
 30
0.0
  9
$PUCSORTHOREF
  2

  9
$PUCSORTHOVIEW
 70
     0
  9
$PUCSORGTOP
 10
0.0
 20
0.0
 30
0.0
  9
$PUCSORGBOTTOM
 10
0.0
 20
0.0
 30
0.0
  9
$PUCSORGLEFT
 10
0.0
 20
0.0
 30
0.0
  9
$PUCSORGRIGHT
 10
0.0
 20
0.0
 30
0.0
  9
$PUCSORGFRONT
 10
0.0
 20
0.0
 30
0.0
  9
$PUCSORGBACK
 10
0.0
 20
0.0
 30
0.0
  9
$USERI1
 70
     0
  9
$USERI2
 70
     0
  9
$USERI3
 70
     0
  9
$USERI4
 70
     0
  9
$USERI5
 70
     0
  9
$USERR1
 40
20.0
  9
$USERR2
 40
0.0
  9
$USERR3
 40
0.0
  9
$USERR4
 40
0.0
  9
$USERR5
 40
0.0
  9
$WORLDVIEW
 70
     1
  9
$SHADEDGE
 70
     3
  9
$SHADEDIF
 70
    70
  9
$TILEMODE
 70
     1
  9
$MAXACTVP
 70
    64
  9
$PINSBASE
 10
0.0
 20
0.0
 30
0.0
  9
$PLIMCHECK
 70
     0
  9
$PEXTMIN
 10
1.000000000000000E+20
 20
1.000000000000000E+20
 30
1.000000000000000E+20
  9
$PEXTMAX
 10
-1.000000000000000E+20
 20
-1.000000000000000E+20
 30
-1.000000000000000E+20
  9
$PLIMMIN
 10
0.0
 20
0.0
  9
$PLIMMAX
 10
12.0
 20
9.0
  9
$UNITMODE
 70
     0
  9
$VISRETAIN
 70
     1
  9
$PLINEGEN
 70
     0
  9
$PSLTSCALE
 70
     1
  9
$TREEDEPTH
 70
  3020
  9
$CMLSTYLE
  2
Standard
  9
$CMLJUST
 70
     0
  9
$CMLSCALE
 40
1.0
  9
$PROXYGRAPHICS
 70
     1
  9
$MEASUREMENT
 70
     0
  9
$CELWEIGHT
370
    -1
  9
$ENDCAPS
280
     0
  9
$JOINSTYLE
280
     0
  9
$LWDISPLAY
290
     0
  9
$INSUNITS
 70
     0
  9
$HYPERLINKBASE
  1

  9
$STYLESHEET
  1

  9
$XEDIT
290
     1
  9
$CEPSNTYPE
380
     0
  9
$PSTYLEMODE
290
     1
  9
$FINGERPRINTGUID
  2
{508587D2-D594-994C-B745-3EEE0125070E}
  9
$VERSIONGUID
  2
{214D6067-462B-BD48-8294-BD9F75C161AE}
  9
$EXTNAMES
290
     1
  9
$PSVPSCALE
 40
0.0
  9
$OLESTARTUP
290
     0
  0
ENDSEC
  0
SECTION
  2
CLASSES
  0
CLASS
  1
ACDBDICTIONARYWDFLT
  2
AcDbDictionaryWithDefault
  3
ObjectDBX Classes
 90
        0
280
     0
281
     0
  0
CLASS
  1
MATERIAL
  2
AcDbMaterial
  3
ObjectDBX Classes
 90
     1153
280
     0
281
     0
  0
CLASS
  1
VISUALSTYLE
  2
AcDbVisualStyle
  3
ObjectDBX Classes
 90
     4095
280
     0
281
     0
  0
CLASS
  1
SCALE
  2
AcDbScale
  3
ObjectDBX Classes
 90
     1153
280
     0
281
     0
  0
CLASS
  1
TABLESTYLE
  2
AcDbTableStyle
  3
ObjectDBX Classes
 90
     4095
280
     0
281
     0
  0
CLASS
  1
MLEADERSTYLE
  2
AcDbMLeaderStyle
  3
ACDB_MLEADERSTYLE_CLASS
 90
     4095
280
     0
281
     0
  0
CLASS
  1
ACDBSECTIONVIEWSTYLE
  2
AcDbSectionViewStyle
  3
ObjectDBX Classes
 90
     1025
280
     0
281
     0
  0
CLASS
  1
ACDBDETAILVIEWSTYLE
  2
AcDbDetailViewStyle
  3
ObjectDBX Classes
 90
     1025
280
     0
281
     0
  0
CLASS
  1
DICTIONARYVAR
  2
AcDbDictionaryVar
  3
ObjectDBX Classes
 90
        0
280
     0
281
     0
  0
CLASS
  1
CELLSTYLEMAP
  2
AcDbCellStyleMap
  3
ObjectDBX Classes
 90
     1152
280
     0
281
     0
  0
CLASS
  1
ACDBPLACEHOLDER
  2
AcDbPlaceHolder
  3
ObjectDBX Classes
 90
        0
280
     0
281
     0
  0
CLASS
  1
LAYOUT
  2
AcDbLayout
  3
ObjectDBX Classes
 90
        0
280
     0
281
     0
  0
ENDSEC
  0
SECTION
  2
TABLES
  0
TABLE
  2
VPORT
  5
1101D
330
0
100
AcDbSymbolTable
 70
     1
  0
VPORT
  5
1108A
330
1101D
100
AcDbSymbolTableRecord
100
AcDbViewportTableRecord
  2
*ACTIVE
 70
     0
 10
0.0
 20
0.0
 11
1.0
 21
1.0
 12
-49.5618627965182
 22
206.9532388859402
 13
0.0
 23
0.0
 14
50.0
 24
50.0
 15
100.0
 25
100.0
 16
0.0
 26
0.0
 36
1.0
 17
0.0
 27
0.0
 37
0.0
 40
2526.790803188123
 41
1.926430517711171
 42
50.0
 43
0.0
 44
0.0
 50
0.0
 51
0.0
 71
     0
 72
  1000
 73
     1
 74
     0
 75
     0
 76
     0
 77
     0
 78
     0
281
     0
 65
     1
110
0.0
120
0.0
130
0.0
111
1.0
121
0.0
131
0.0
112
0.0
122
1.0
132
0.0
 79
     0
146
0.0
1001
ACAD_NAV_VCDISPLAY
1070
     3
  0
ENDTAB
  0
TABLE
  2
LTYPE
  5
1101A
330
0
100
AcDbSymbolTable
 70
     3
  0
LTYPE
  5
1106F
330
1101A
100
AcDbSymbolTableRecord
100
AcDbLinetypeTableRecord
  2
ByBlock
 70
     0
  3

 72
    65
 73
     0
 40
0.0
  0
LTYPE
  5
11070
330
1101A
100
AcDbSymbolTableRecord
100
AcDbLinetypeTableRecord
  2
ByLayer
 70
     0
  3

 72
    65
 73
     0
 40
0.0
  0
LTYPE
  5
11071
330
1101A
100
AcDbSymbolTableRecord
100
AcDbLinetypeTableRecord
  2
CONTINUOUS
 70
     0
  3
実線
 72
    65
 73
     0
 40
0.0
  0
LTYPE
  5
1108B
330
1101A
100
AcDbSymbolTableRecord
100
AcDbLinetypeTableRecord
  2
DASHDOT
 70
     0
  3
____ _ ____ _ ____ _ ____ _ ____ _ ____ _ ____
 72
    65
 73
     4
 40
5.5
 49
4.0
 74
     0
 49
-0.6
 74
     0
 49
0.3
 74
     0
 49
-0.6
 74
     0
  0
ENDTAB
  0
TABLE
  2
LAYER
  5
11017
330
0
100
AcDbSymbolTable
 70
    12
  0
LAYER
  5
11069
102
{ACAD_XDICTIONARY
360
110AA
102
}
330
11017
100
AcDbSymbolTableRecord
100
AcDbLayerTableRecord
  2
0
 70
     0
 62
     7
  6
CONTINUOUS
370
    -3
390
11024
  0
LAYER
  5
11088
102
{ACAD_XDICTIONARY
360
110AC
102
}
330
11017
100
AcDbSymbolTableRecord
100
AcDbLayerTableRecord
  2
SYMBOLLINE
 70
     0
 62
    15
  6
CONTINUOUS
370
    -3
390
11024
  0
LAYER
  5
1108C
102
{ACAD_XDICTIONARY
360
110AE
102
}
330
11017
100
AcDbSymbolTableRecord
100
AcDbLayerTableRecord
  2
NOTE
 70
     0
 62
     4
  6
CONTINUOUS
370
    -3
390
11024
  0
LAYER
  5
1108D
102
{ACAD_XDICTIONARY
360
110B0
102
}
330
11017
100
AcDbSymbolTableRecord
100
AcDbLayerTableRecord
  2
OUTLINE
 70
     0
 62
     3
  6
CONTINUOUS
370
    -3
390
11024
  0
LAYER
  5
1108E
102
{ACAD_XDICTIONARY
360
110B2
102
}
330
11017
100
AcDbSymbolTableRecord
100
AcDbLayerTableRecord
  2
DETAIL
 70
     0
 62
     5
  6
CONTINUOUS
370
    -3
390
11024
  0
LAYER
  5
1108F
102
{ACAD_XDICTIONARY
360
110B4
102
}
330
11017
100
AcDbSymbolTableRecord
100
AcDbLayerTableRecord
  2
BASIS
 70
     0
 62
     6
  6
DASHDOT
370
    -3
390
11024
  0
LAYER
  5
11090
102
{ACAD_XDICTIONARY
360
110B6
102
}
330
11017
100
AcDbSymbolTableRecord
100
AcDbLayerTableRecord
  2
SIZE
 70
     0
 62
    30
  6
CONTINUOUS
370
    -3
390
11024
  0
LAYER
  5
11091
102
{ACAD_XDICTIONARY
360
110B8
102
}
330
11017
100
AcDbSymbolTableRecord
100
AcDbLayerTableRecord
  2
ARRANGE
 70
     0
 62
     1
  6
CONTINUOUS
370
    -3
390
11024
  0
LAYER
  5
11092
102
{ACAD_XDICTIONARY
360
110BA
102
}
330
11017
100
AcDbSymbolTableRecord
100
AcDbLayerTableRecord
  2
FIX
 70
     0
 62
    11
  6
CONTINUOUS
370
    -3
390
11024
  0
LAYER
  5
11093
102
{ACAD_XDICTIONARY
360
110BC
102
}
330
11017
100
AcDbSymbolTableRecord
100
AcDbLayerTableRecord
  2
SERVICESPACE
 70
     0
 62
     2
  6
DASHDOT
370
    -3
390
11024
  0
LAYER
  5
11094
102
{ACAD_XDICTIONARY
360
110BE
102
}
330
11017
100
AcDbSymbolTableRecord
100
AcDbLayerTableRecord
  2
ETC
 70
     0
 62
    61
  6
CONTINUOUS
370
    -3
390
11024
  0
LAYER
  5
11095
330
11017
100
AcDbSymbolTableRecord
100
AcDbLayerTableRecord
  2
DEFPOINTS
 70
     0
 62
     7
  6
CONTINUOUS
290
     0
370
    -3
390
11024
  0
ENDTAB
  0
TABLE
  2
STYLE
  5
11018
330
0
100
AcDbSymbolTable
 70
     4
  0
STYLE
  5
1106A
330
11018
100
AcDbSymbolTableRecord
100
AcDbTextStyleTableRecord
  2
STANDARD
 70
     0
 40
0.0
 41
0.9
 50
0.0
 71
     0
 42
64.0
  3
SIMPLEX
  4
BIGFONT
  0
STYLE
  5
1106E
330
11018
100
AcDbSymbolTableRecord
100
AcDbTextStyleTableRecord
  2
ANNOTATIVE
 70
     0
 40
0.0
 41
1.0
 50
0.0
 71
     0
 42
0.2
  3
txt
  4

1001
ACADANNOTATIVE
1000
AnnotativeData
1002
{
1070
     1
1070
     1
1002
}
  0
STYLE
  5
11089
330
11018
100
AcDbSymbolTableRecord
100
AcDbTextStyleTableRecord
  2
STANDARD_MODELNAME
 70
     0
 40
80.0
 41
0.8
 50
0.0
 71
     0
 42
64.0
  3
MONOTXT.shx
  4
BIGFONT.shx
  0
STYLE
  5
11096
330
11018
100
AcDbSymbolTableRecord
100
AcDbTextStyleTableRecord
  2
STANDARD1
 70
     0
 40
60.0
 41
0.7
 50
0.0
 71
     0
 42
64.0
  3
MONOTXT.shx
  4
BIGFONT.shx
  0
ENDTAB
  0
TABLE
  2
VIEW
  5
1101B
330
0
100
AcDbSymbolTable
 70
     1
  0
VIEW
  5
11097
330
1101B
100
AcDbSymbolTableRecord
100
AcDbViewTableRecord
  2
ALL
 70
     0
 40
9000.0
 10
241.506647
 20
0.0
 41
12483.01
 11
0.0
 21
0.0
 31
1.0
 12
0.0
 22
0.0
 32
0.0
 42
50.0
 43
0.0
 44
0.0
 50
0.0
 71
     0
281
     0
 72
     0
  0
ENDTAB
  0
TABLE
  2
UCS
  5
1101C
330
0
100
AcDbSymbolTable
 70
     0
  0
ENDTAB
  0
TABLE
  2
APPID
  5
1101E
330
0
100
AcDbSymbolTable
 70
     5
  0
APPID
  5
1106B
330
1101E
100
AcDbSymbolTableRecord
100
AcDbRegAppTableRecord
  2
ACAD
 70
     0
  0
APPID
  5
11072
330
1101E
100
AcDbSymbolTableRecord
100
AcDbRegAppTableRecord
  2
ACADANNOTATIVE
 70
     0
  0
APPID
  5
11098
330
1101E
100
AcDbSymbolTableRecord
100
AcDbRegAppTableRecord
  2
ACAD_MLEADERVER
 70
     0
  0
APPID
  5
11099
330
1101E
100
AcDbSymbolTableRecord
100
AcDbRegAppTableRecord
  2
ACAD_EXEMPT_FROM_CAD_STANDARDS
 70
     0
  0
APPID
  5
1109A
330
1101E
100
AcDbSymbolTableRecord
100
AcDbRegAppTableRecord
  2
ACAD_NAV_VCDISPLAY
 70
     0
  0
ENDTAB
  0
TABLE
  2
DIMSTYLE
  5
1101F
330
0
100
AcDbSymbolTable
 70
     2
100
AcDbDimStyleTable
 71
     0
  0
DIMSTYLE
105
1106C
330
1101F
100
AcDbSymbolTableRecord
100
AcDbDimStyleTableRecord
  2
STANDARD
 70
     0
275
     1
279
     2
284
     8
285
     8
286
     8
340
11089
  0
DIMSTYLE
105
1106D
330
1101F
100
AcDbSymbolTableRecord
100
AcDbDimStyleTableRecord
  2
ANNOTATIVE
 70
     0
275
     1
279
     2
284
     8
285
     8
286
     8
340
11089
1001
ACADANNOTATIVE
1000
AnnotativeData
1002
{
1070
     1
1070
     1
1002
}
  0
ENDTAB
  0
TABLE
  2
BLOCK_RECORD
  5
11016
330
0
100
AcDbSymbolTable
 70
     4
  0
BLOCK_RECORD
  5
11084
330
11016
100
AcDbSymbolTableRecord
100
AcDbBlockTableRecord
  2
*Model_Space
340
11087
  0
BLOCK_RECORD
  5
11080
330
11016
100
AcDbSymbolTableRecord
100
AcDbBlockTableRecord
  2
*Paper_Space
340
11083
  0
BLOCK_RECORD
  5
1109F
330
11016
100
AcDbSymbolTableRecord
100
AcDbBlockTableRecord
  2
$MODEL_SPACE
340
0
  0
BLOCK_RECORD
  5
110A1
330
11016
100
AcDbSymbolTableRecord
100
AcDbBlockTableRecord
  2
$PAPER_SPACE
340
0
  0
BLOCK_RECORD
  5
110A3
330
11016
100
AcDbSymbolTableRecord
100
AcDbBlockTableRecord
  2
_SMALL
340
0
  0
BLOCK_RECORD
  5
110A5
330
11016
100
AcDbSymbolTableRecord
100
AcDbBlockTableRecord
  2
A$C770F4D9A
340
0
  0
ENDTAB
  0
ENDSEC
  0
SECTION
  2
BLOCKS
  0
BLOCK
  5
11085
330
11084
100
AcDbEntity
  8
0
100
AcDbBlockBegin
  2
*Model_Space
 70
     0
 10
0.0
 20
0.0
 30
0.0
  3
*Model_Space
  1

  0
ENDBLK
  5
11086
330
11084
100
AcDbEntity
  8
0
100
AcDbBlockEnd
  0
BLOCK
  5
11081
330
11080
100
AcDbEntity
 67
     1
  8
0
100
AcDbBlockBegin
  2
*Paper_Space
 70
     0
 10
0.0
 20
0.0
 30
0.0
  3
*Paper_Space
  1

  0
ENDBLK
  5
11082
330
11080
100
AcDbEntity
 67
     1
  8
0
100
AcDbBlockEnd
  0
BLOCK
  5
110A0
330
1109F
100
AcDbEntity
  8
0
100
AcDbBlockBegin
  2
$MODEL_SPACE
 70
     0
 10
0.0
 20
0.0
 30
0.0
  3
$MODEL_SPACE
  1

  0
ENDBLK
  5
10F86
330
1109F
100
AcDbEntity
  8
0
100
AcDbBlockEnd
  0
BLOCK
  5
110A2
330
110A1
100
AcDbEntity
  8
0
100
AcDbBlockBegin
  2
$PAPER_SPACE
 70
     0
 10
0.0
 20
0.0
 30
0.0
  3
$PAPER_SPACE
  1

  0
ENDBLK
  5
10F82
330
110A1
100
AcDbEntity
  8
0
100
AcDbBlockEnd
  0
BLOCK
  5
110A4
330
110A3
100
AcDbEntity
  8
0
100
AcDbBlockBegin
  2
_SMALL
 70
     0
 10
0.0
 20
0.0
 30
0.0
  3
_SMALL
  1

  0
CIRCLE
  5
8D
330
110A3
100
AcDbEntity
  8
0
  6
Continuous
 62
     7
100
AcDbCircle
 10
0.0
 20
0.0
 30
0.0
 40
0.25
  0
ENDBLK
  5
8E
330
110A3
100
AcDbEntity
  8
0
100
AcDbBlockEnd
  0
BLOCK
  5
110A6
330
110A5
100
AcDbEntity
  8
0
 62
     7
100
AcDbBlockBegin
  2
A$C770F4D9A
 70
     0
 10
0.0
 20
0.0
 30
0.0
  3
A$C770F4D9A
  1

  0
LINE
  5
10D77
330
110A5
100
AcDbEntity
  8
NOTE
  6
Continuous
 62
     4
100
AcDbLine
 10
1466.815617830118
 20
673.6636022528617
 30
0.0
 11
1501.578066692436
 21
673.6636022528617
 31
0.0
  0
LINE
  5
10D78
330
110A5
100
AcDbEntity
  8
NOTE
  6
Continuous
 62
     4
100
AcDbLine
 10
1466.187316729876
 20
1139.663602252862
 30
0.0
 11
1502.206367792678
 21
1139.663602252862
 31
0.0
  0
LINE
  5
10D79
330
110A5
100
AcDbEntity
  8
NOTE
  6
Continuous
 62
     4
100
AcDbLine
 10
741.1968422612773
 20
562.5837201360391
 30
0.0
 11
741.1968422612773
 21
536.7434843696845
 31
0.0
  0
LINE
  5
10D7A
330
110A5
100
AcDbEntity
  8
NOTE
  6
Continuous
 62
     4
100
AcDbLine
 10
1465.196842261277
 20
562.5837201360391
 30
0.0
 11
1465.196842261277
 21
536.7434843696845
 31
0.0
  0
LINE
  5
10D7B
330
110A5
100
AcDbEntity
  8
BASIS
  6
DASHDOT
 62
     6
100
AcDbLine
 10
1103.196842261277
 20
2264.949587722187
 30
0.0
 11
1103.196842261277
 21
474.8747588679052
 31
0.0
  0
TEXT
  5
10D7C
330
110A5
100
AcDbEntity
  8
NOTE
  6
Continuous
 62
     4
100
AcDbText
 10
8.774016147553084
 20
339.8895549079152
 30
0.0
 40
60.0
  1
AH 2x4-14x20長穴
 50
0.0000025044165941
 41
0.7
  7
STANDARD1
100
AcDbText
  0
LINE
  5
10D7D
330
110A5
100
AcDbEntity
  8
NOTE
  6
Continuous
 62
     4
100
AcDbLine
 10
0.000011901677226
 20
320.2370970827178
 30
0.0
 11
598.6174139498325
 21
320.2370970827178
 31
0.0
  0
LINE
  5
10D7E
330
110A5
100
AcDbEntity
  8
NOTE
  6
Continuous
 62
     4
100
AcDbLine
 10
1452.2767243781
 20
549.6636022528614
 30
0.0
 11
1478.116960144454
 21
549.6636022528614
 31
0.0
  0
LINE
  5
10D7F
330
110A5
100
AcDbEntity
  8
NOTE
  6
Continuous
 62
     4
100
AcDbLine
 10
728.2767243780998
 20
549.6636022528614
 30
0.0
 11
754.1169601444542
 21
549.6636022528614
 31
0.0
  0
LINE
  5
10D80
330
110A5
100
AcDbEntity
  8
NOTE
  6
Continuous
 62
     4
100
AcDbLine
 10
1484.196842261277
 20
1121.654076721461
 30
0.0
 11
1484.196842261277
 21
1157.673127784263
 31
0.0
  0
LINE
  5
10D81
330
110A5
100
AcDbEntity
  8
NOTE
  6
Continuous
 62
     4
100
AcDbLine
 10
1484.196842261277
 20
656.2823778217032
 30
0.0
 11
1484.196842261277
 21
691.0448266840202
 31
0.0
  0
TEXT
  5
10D82
330
110A5
100
AcDbEntity
  8
NOTE
  6
Continuous
 62
     4
100
AcDbText
 10
1758.431235297394
 20
21.69470425337386
 30
0.0
 40
60.0
  1
CR Rc2-1/2B
 50
0.0000025044165917
 41
0.7
  7
STANDARD1
100
AcDbText
  0
TEXT
  5
10D83
330
110A5
100
AcDbEntity
  8
NOTE
  6
Continuous
 62
     4
100
AcDbText
 10
1737.009514086916
 20
201.6846351880502
 30
0.0
 40
60.0
  1
C Rc2-1/2B
 50
0.0000025044165917
 41
0.7
  7
STANDARD1
100
AcDbText
  0
LINE
  5
10D84
330
110A5
100
AcDbEntity
  8
NOTE
  6
Continuous
 62
     4
100
AcDbLine
 10
1484.196842261277
 20
1139.663602252862
 30
0.0
 11
1721.081754361308
 21
185.2108294424797
 31
0.0
  0
LINE
  5
10D85
330
110A5
100
AcDbEntity
  8
NOTE
  6
Continuous
 62
     4
100
AcDbLine
 10
1721.081754361308
 20
185.2108294424797
 30
0.0
 11
2136.014036284635
 21
185.2108294424797
 31
0.0
  0
LINE
  5
10D86
330
110A5
100
AcDbEntity
  8
NOTE
  6
Continuous
 62
     4
100
AcDbLine
 10
1484.930756596073
 20
1108.61398935143
 30
0.0
 11
1484.196842261277
 21
1139.663602252862
 31
0.0
  0
LINE
  5
10D87
330
110A5
100
AcDbEntity
  8
NOTE
  6
Continuous
 62
     4
100
AcDbLine
 10
1484.196842261277
 20
1139.663602252862
 30
0.0
 11
1500.357237049805
 21
1113.140805796635
 31
0.0
  0
LINE
  5
10D88
330
110A5
100
AcDbEntity
  8
NOTE
  6
Continuous
 62
     4
100
AcDbLine
 10
1484.196842261277
 20
673.6636022528617
 30
0.0
 11
1742.191254405282
 21
-0.0000089859605623
 31
0.0
  0
LINE
  5
10D89
330
110A5
100
AcDbEntity
  8
NOTE
  6
Continuous
 62
     4
100
AcDbLine
 10
1742.191254405282
 20
-0.0000089859605623
 30
0.0
 11
2201.810914412781
 21
-0.0000089859605623
 31
0.0
  0
LINE
  5
10D8A
330
110A5
100
AcDbEntity
  8
NOTE
  6
Continuous
 62
     4
100
AcDbLine
 10
1488.153673330092
 20
642.8583984802465
 30
0.0
 11
1484.196842261277
 21
673.6636022528617
 31
0.0
  0
LINE
  5
10D8B
330
110A5
100
AcDbEntity
  8
NOTE
  6
Continuous
 62
     4
100
AcDbLine
 10
1484.196842261277
 20
673.6636022528617
 30
0.0
 11
1503.026160259612
 21
648.9639286660084
 31
0.0
  0
LINE
  5
10D8C
330
110A5
100
AcDbEntity
  8
NOTE
  6
Continuous
 62
     4
100
AcDbLine
 10
741.1968422612773
 20
549.6636022528614
 30
0.0
 11
598.6174139498325
 21
320.2370970827178
 31
0.0
  0
LINE
  5
10D8D
330
110A5
100
AcDbEntity
  8
NOTE
  6
Continuous
 62
     4
100
AcDbLine
 10
719.0783305472879
 20
527.8601958415315
 30
0.0
 11
741.1968422612773
 21
549.6636022528614
 31
0.0
  0
LINE
  5
10D8E
330
110A5
100
AcDbEntity
  8
NOTE
  6
Continuous
 62
     4
100
AcDbLine
 10
741.1968422612773
 20
549.6636022528614
 30
0.0
 11
732.9433522928923
 21
519.722042592062
 31
0.0
  0
ENDBLK
  5
10D90
330
110A5
100
AcDbEntity
  8
0
 62
     7
100
AcDbBlockEnd
  0
ENDSEC
  0
SECTION
  2
ENTITIES
  0
LINE
  5
34E
330
11084
100
AcDbEntity
  8
DETAIL
  6
Continuous
 62
     5
100
AcDbLine
 10
-308.5
 20
1290.9
 30
0.0
 11
173.5
 21
1290.9
 31
0.0
  0
LINE
  5
34F
330
11084
100
AcDbEntity
  8
DETAIL
  6
Continuous
 62
     5
100
AcDbLine
 10
172.5
 20
1289.5
 30
0.0
 11
173.5
 21
1289.5
 31
0.0
  0
LINE
  5
350
330
11084
100
AcDbEntity
  8
DETAIL
  6
Continuous
 62
     5
100
AcDbLine
 10
-307.3000000000011
 20
1289.5
 30
0.0
 11
172.5
 21
1289.5
 31
0.0
  0
LINE
  5
351
330
11084
100
AcDbEntity
  8
DETAIL
  6
Continuous
 62
     5
100
AcDbLine
 10
143.4682209999992
 20
1288.7
 30
0.0
 11
-292.5
 21
1288.7
 31
0.0
  0
LINE
  5
352
330
11084
100
AcDbEntity
  8
DETAIL
  6
Continuous
 62
     5
100
AcDbLine
 10
143.4682209999992
 20
1269.5
 30
0.0
 11
143.4682209999992
 21
1289.5
 31
0.0
  0
LINE
  5
357
330
11084
100
AcDbEntity
  8
DETAIL
  6
Continuous
 62
     5
100
AcDbLine
 10
157.5
 20
1269.5
 30
0.0
 11
157.5
 21
1289.5
 31
0.0
  0
LINE
  5
358
330
11084
100
AcDbEntity
  8
DETAIL
  6
Continuous
 62
     5
100
AcDbLine
 10
172.5
 20
83.49999999999999
 30
0.0
 11
172.5
 21
1289.5
 31
0.0
  0
LINE
  5
359
330
11084
100
AcDbEntity
  8
DETAIL
  6
Continuous
 62
     5
100
AcDbLine
 10
173.5
 20
1290.9
 30
0.0
 11
173.5
 21
1289.5
 31
0.0
  0
LINE
  5
35A
330
11084
100
AcDbEntity
  8
DETAIL
  6
Continuous
 62
     5
100
AcDbLine
 10
-308.5
 20
1290.9
 30
0.0
 11
-308.5
 21
1289.5
 31
0.0
  0
CIRCLE
  5
35B
330
11084
100
AcDbEntity
  8
DETAIL
  6
Continuous
 62
     5
100
AcDbCircle
 10
-298.5
 20
1262.5
 30
0.0
 40
2.299999999999998
  0
CIRCLE
  5
35C
330
11084
100
AcDbEntity
  8
DETAIL
  6
Continuous
 62
     5
100
AcDbCircle
 10
163.5
 20
1262.5
 30
0.0
 40
2.299999999999998
  0
LINE
  5
35D
330
11084
100
AcDbEntity
  8
DETAIL
  6
Continuous
 62
     5
100
AcDbLine
 10
-263.75
 20
1279.5
 30
0.0
 11
-267.25
 21
1279.5
 31
0.0
  0
LINE
  5
35E
330
11084
100
AcDbEntity
  8
DETAIL
  6
Continuous
 62
     5
100
AcDbLine
 10
-131.75
 20
1279.5
 30
0.0
 11
-135.25
 21
1279.5
 31
0.0
  0
LINE
  5
35F
330
11084
100
AcDbEntity
  8
DETAIL
  6
Continuous
 62
     5
100
AcDbLine
 10
0.25
 20
1279.5
 30
0.0
 11
-3.25
 21
1279.5
 31
0.0
  0
LINE
  5
360
330
11084
100
AcDbEntity
  8
DETAIL
  6
Continuous
 62
     5
100
AcDbLine
 10
132.25
 20
1279.5
 30
0.0
 11
128.75
 21
1279.5
 31
0.0
  0
LINE
  5
361
330
11084
100
AcDbEntity
  8
DETAIL
  6
Continuous
 62
     5
100
AcDbLine
 10
-267.25
 20
1123.25
 30
0.0
 11
-282.5
 21
1123.25
 31
0.0
  0
LINE
  5
362
330
11084
100
AcDbEntity
  8
DETAIL
  6
Continuous
 62
     5
100
AcDbLine
 10
-135.25
 20
1123.25
 30
0.0
 11
-263.75
 21
1123.25
 31
0.0
  0
LINE
  5
363
330
11084
100
AcDbEntity
  8
DETAIL
  6
Continuous
 62
     5
100
AcDbLine
 10
-3.25
 20
1123.25
 30
0.0
 11
-131.75
 21
1123.25
 31
0.0
  0
LINE
  5
364
330
11084
100
AcDbEntity
  8
DETAIL
  6
Continuous
 62
     5
100
AcDbLine
 10
128.75
 20
1123.25
 30
0.0
 11
0.25
 21
1123.25
 31
0.0
  0
LINE
  5
365
330
11084
100
AcDbEntity
  8
DETAIL
  6
Continuous
 62
     5
100
AcDbLine
 10
147.5
 20
1123.25
 30
0.0
 11
132.25
 21
1123.25
 31
0.0
  0
LINE
  5
366
330
11084
100
AcDbEntity
  8
DETAIL
  6
Continuous
 62
     5
100
AcDbLine
 10
-267.25
 20
1119.75
 30
0.0
 11
-282.5
 21
1119.75
 31
0.0
  0
LINE
  5
367
330
11084
100
AcDbEntity
  8
DETAIL
  6
Continuous
 62
     5
100
AcDbLine
 10
-135.25
 20
1119.75
 30
0.0
 11
-263.75
 21
1119.75
 31
0.0
  0
LINE
  5
368
330
11084
100
AcDbEntity
  8
DETAIL
  6
Continuous
 62
     5
100
AcDbLine
 10
-3.25
 20
1119.75
 30
0.0
 11
-131.75
 21
1119.75
 31
0.0
  0
LINE
  5
369
330
11084
100
AcDbEntity
  8
DETAIL
  6
Continuous
 62
     5
100
AcDbLine
 10
128.75
 20
1119.75
 30
0.0
 11
0.25
 21
1119.75
 31
0.0
  0
LINE
  5
36A
330
11084
100
AcDbEntity
  8
DETAIL
  6
Continuous
 62
     5
100
AcDbLine
 10
147.5
 20
1119.75
 30
0.0
 11
132.25
 21
1119.75
 31
0.0
  0
LINE
  5
36B
330
11084
100
AcDbEntity
  8
DETAIL
  6
Continuous
 62
     5
100
AcDbLine
 10
-282.5
 20
1123.25
 30
0.0
 11
-282.5
 21
1119.75
 31
0.0
  0
LINE
  5
36C
330
11084
100
AcDbEntity
  8
DETAIL
  6
Continuous
 62
     5
100
AcDbLine
 10
-267.25
 20
93.49999999999999
 30
0.0
 11
-267.25
 21
1279.5
 31
0.0
  0
LINE
  5
36D
330
11084
100
AcDbEntity
  8
DETAIL
  6
Continuous
 62
     5
100
AcDbLine
 10
-263.75
 20
93.49999999999999
 30
0.0
 11
-263.75
 21
1279.5
 31
0.0
  0
LINE
  5
36E
330
11084
100
AcDbEntity
  8
DETAIL
  6
Continuous
 62
     5
100
AcDbLine
 10
-135.25
 20
93.49999999999999
 30
0.0
 11
-135.25
 21
1279.5
 31
0.0
  0
LINE
  5
36F
330
11084
100
AcDbEntity
  8
DETAIL
  6
Continuous
 62
     5
100
AcDbLine
 10
-131.75
 20
93.49999999999999
 30
0.0
 11
-131.75
 21
1279.5
 31
0.0
  0
LINE
  5
370
330
11084
100
AcDbEntity
  8
DETAIL
  6
Continuous
 62
     5
100
AcDbLine
 10
-3.25
 20
93.49999999999999
 30
0.0
 11
-3.25
 21
1279.5
 31
0.0
  0
LINE
  5
371
330
11084
100
AcDbEntity
  8
DETAIL
  6
Continuous
 62
     5
100
AcDbLine
 10
0.25
 20
93.49999999999999
 30
0.0
 11
0.25
 21
1279.5
 31
0.0
  0
LINE
  5
372
330
11084
100
AcDbEntity
  8
DETAIL
  6
Continuous
 62
     5
100
AcDbLine
 10
128.75
 20
93.49999999999999
 30
0.0
 11
128.75
 21
1279.5
 31
0.0
  0
LINE
  5
373
330
11084
100
AcDbEntity
  8
DETAIL
  6
Continuous
 62
     5
100
AcDbLine
 10
132.25
 20
93.49999999999999
 30
0.0
 11
132.25
 21
1279.5
 31
0.0
  0
LINE
  5
374
330
11084
100
AcDbEntity
  8
DETAIL
  6
Continuous
 62
     5
100
AcDbLine
 10
147.5
 20
1123.25
 30
0.0
 11
147.5
 21
1119.75
 31
0.0
  0
ARC
  5
375
330
11084
100
AcDbEntity
  8
DETAIL
  6
Continuous
 62
     5
100
AcDbCircle
 10
-298.5
 20
1262.5
 30
0.0
 40
3.5
100
AcDbArc
 50
90.0
 51
0.0
  0
ARC
  5
376
330
11084
100
AcDbEntity
  8
DETAIL
  6
Continuous
 62
     5
100
AcDbCircle
 10
-298.5
 20
1262.5
 30
0.0
 40
7.0
100
AcDbArc
 50
90.0
 51
0.0
  0
ARC
  5
377
330
11084
100
AcDbEntity
  8
DETAIL
  6
Continuous
 62
     5
100
AcDbCircle
 10
163.5
 20
1262.5
 30
0.0
 40
3.5
100
AcDbArc
 50
180.0
 51
90.0
  0
ARC
  5
378
330
11084
100
AcDbEntity
  8
DETAIL
  6
Continuous
 62
     5
100
AcDbCircle
 10
163.5
 20
1262.5
 30
0.0
 40
7.0
100
AcDbArc
 50
180.0
 51
90.0
  0
LINE
  5
379
330
11084
100
AcDbEntity
  8
DETAIL
  6
Continuous
 62
     5
100
AcDbLine
 10
-307.3000000000011
 20
1289.5
 30
0.0
 11
-308.5
 21
1289.5
 31
0.0
  0
LINE
  5
37A
330
11084
100
AcDbEntity
  8
DETAIL
  6
Continuous
 62
     5
100
AcDbLine
 10
132.25
 20
1269.5
 30
0.0
 11
163.5
 21
1269.5
 31
0.0
  0
LINE
  5
37B
330
11084
100
AcDbEntity
  8
DETAIL
  6
Continuous
 62
     5
100
AcDbLine
 10
0.25
 20
1269.5
 30
0.0
 11
128.75
 21
1269.5
 31
0.0
  0
LINE
  5
37C
330
11084
100
AcDbEntity
  8
DETAIL
  6
Continuous
 62
     5
100
AcDbLine
 10
-131.75
 20
1269.5
 30
0.0
 11
-3.25
 21
1269.5
 31
0.0
  0
LINE
  5
37D
330
11084
100
AcDbEntity
  8
DETAIL
  6
Continuous
 62
     5
100
AcDbLine
 10
-263.75
 20
1269.5
 30
0.0
 11
-135.25
 21
1269.5
 31
0.0
  0
LINE
  5
37E
330
11084
100
AcDbEntity
  8
DETAIL
  6
Continuous
 62
     5
100
AcDbLine
 10
-298.5
 20
1269.5
 30
0.0
 11
-267.25
 21
1269.5
 31
0.0
  0
LINE
  5
37F
330
11084
100
AcDbEntity
  8
DETAIL
  6
Continuous
 62
     5
100
AcDbLine
 10
132.25
 20
1266.0
 30
0.0
 11
163.5
 21
1266.0
 31
0.0
  0
LINE
  5
380
330
11084
100
AcDbEntity
  8
DETAIL
  6
Continuous
 62
     5
100
AcDbLine
 10
0.25
 20
1266.0
 30
0.0
 11
128.75
 21
1266.0
 31
0.0
  0
LINE
  5
381
330
11084
100
AcDbEntity
  8
DETAIL
  6
Continuous
 62
     5
100
AcDbLine
 10
-131.75
 20
1266.0
 30
0.0
 11
-3.25
 21
1266.0
 31
0.0
  0
LINE
  5
382
330
11084
100
AcDbEntity
  8
DETAIL
  6
Continuous
 62
     5
100
AcDbLine
 10
-263.75
 20
1266.0
 30
0.0
 11
-135.25
 21
1266.0
 31
0.0
  0
LINE
  5
383
330
11084
100
AcDbEntity
  8
DETAIL
  6
Continuous
 62
     5
100
AcDbLine
 10
-298.5
 20
1266.0
 30
0.0
 11
-267.25
 21
1266.0
 31
0.0
  0
LINE
  5
384
330
11084
100
AcDbEntity
  8
DETAIL
  6
Continuous
 62
     5
100
AcDbLine
 10
160.0
 20
1264.0
 30
0.0
 11
156.5
 21
1264.0
 31
0.0
  0
LINE
  5
385
330
11084
100
AcDbEntity
  8
DETAIL
  6
Continuous
 62
     5
100
AcDbLine
 10
-295.0
 20
1264.0
 30
0.0
 11
-291.5
 21
1264.0
 31
0.0
  0
LINE
  5
386
330
11084
100
AcDbEntity
  8
DETAIL
  6
Continuous
 62
     5
100
AcDbLine
 10
160.0
 20
1262.5
 30
0.0
 11
156.5
 21
1262.5
 31
0.0
  0
LINE
  5
387
330
11084
100
AcDbEntity
  8
DETAIL
  6
Continuous
 62
     5
100
AcDbLine
 10
-295.0
 20
1262.5
 30
0.0
 11
-291.5
 21
1262.5
 31
0.0
  0
LINE
  5
388
330
11084
100
AcDbEntity
  8
DETAIL
  6
Continuous
 62
     5
100
AcDbLine
 10
-307.3000000000011
 20
83.49999999999999
 30
0.0
 11
-307.3000000000011
 21
1289.5
 31
0.0
  0
LINE
  5
389
330
11084
100
AcDbEntity
  8
DETAIL
  6
Continuous
 62
     5
100
AcDbLine
 10
-298.5
 20
1266.0
 30
0.0
 11
-298.5
 21
1269.5
 31
0.0
  0
LINE
  5
38A
330
11084
100
AcDbEntity
  8
DETAIL
  6
Continuous
 62
     5
100
AcDbLine
 10
-295.0
 20
1264.0
 30
0.0
 11
-295.0
 21
1262.5
 31
0.0
  0
LINE
  5
38B
330
11084
100
AcDbEntity
  8
DETAIL
  6
Continuous
 62
     5
100
AcDbLine
 10
-292.5
 20
1258.898029
 30
0.0
 11
-292.5
 21
687.5
 31
0.0
  0
LINE
  5
38C
330
11084
100
AcDbEntity
  8
DETAIL
  6
Continuous
 62
     5
100
AcDbLine
 10
-292.5
 20
1266.0
 30
0.0
 11
-292.5
 21
1264.0
 31
0.0
  0
LINE
  5
38D
330
11084
100
AcDbEntity
  8
DETAIL
  6
Continuous
 62
     5
100
AcDbLine
 10
-292.5
 20
1289.5
 30
0.0
 11
-292.5
 21
1269.5
 31
0.0
  0
LINE
  5
38E
330
11084
100
AcDbEntity
  8
DETAIL
  6
Continuous
 62
     5
100
AcDbLine
 10
-291.5
 20
1264.0
 30
0.0
 11
-291.5
 21
1262.5
 31
0.0
  0
LINE
  5
38F
330
11084
100
AcDbEntity
  8
DETAIL
  6
Continuous
 62
     5
100
AcDbLine
 10
-240.7902200000008
 20
1269.5
 30
0.0
 11
-240.7902200000008
 21
1288.7
 31
0.0
  0
LINE
  5
390
330
11084
100
AcDbEntity
  8
DETAIL
  6
Continuous
 62
     5
100
AcDbLine
 10
-240.7902200000008
 20
1123.25
 30
0.0
 11
-240.7902200000008
 21
1266.0
 31
0.0
  0
LINE
  5
391
330
11084
100
AcDbEntity
  8
DETAIL
  6
Continuous
 62
     5
100
AcDbLine
 10
-240.7902200000008
 20
978.25
 30
0.0
 11
-240.7902200000008
 21
1119.75
 31
0.0
  0
LINE
  5
392
330
11084
100
AcDbEntity
  8
DETAIL
  6
Continuous
 62
     5
100
AcDbLine
 10
143.4682209999992
 20
1123.25
 30
0.0
 11
143.4682209999992
 21
1266.0
 31
0.0
  0
LINE
  5
393
330
11084
100
AcDbEntity
  8
DETAIL
  6
Continuous
 62
     5
100
AcDbLine
 10
143.4682209999992
 20
978.25
 30
0.0
 11
143.4682209999992
 21
1119.75
 31
0.0
  0
LINE
  5
394
330
11084
100
AcDbEntity
  8
DETAIL
  6
Continuous
 62
     5
100
AcDbLine
 10
156.5
 20
1262.5
 30
0.0
 11
156.5
 21
1264.0
 31
0.0
  0
LINE
  5
395
330
11084
100
AcDbEntity
  8
DETAIL
  6
Continuous
 62
     5
100
AcDbLine
 10
157.5
 20
1264.0
 30
0.0
 11
157.5
 21
1266.0
 31
0.0
  0
LINE
  5
396
330
11084
100
AcDbEntity
  8
DETAIL
  6
Continuous
 62
     5
100
AcDbLine
 10
157.5
 20
687.5
 30
0.0
 11
157.5
 21
1258.898029
 31
0.0
  0
LINE
  5
397
330
11084
100
AcDbEntity
  8
DETAIL
  6
Continuous
 62
     5
100
AcDbLine
 10
160.0
 20
1262.5
 30
0.0
 11
160.0
 21
1264.0
 31
0.0
  0
LINE
  5
398
330
11084
100
AcDbEntity
  8
DETAIL
  6
Continuous
 62
     5
100
AcDbLine
 10
163.5
 20
1266.0
 30
0.0
 11
163.5
 21
1269.5
 31
0.0
  0
CIRCLE
  5
399
330
11084
100
AcDbEntity
  8
DETAIL
  6
Continuous
 62
     5
100
AcDbCircle
 10
-298.5
 20
680.4999999999997
 30
0.0
 40
2.299999999999998
  0
CIRCLE
  5
39A
330
11084
100
AcDbEntity
  8
DETAIL
  6
Continuous
 62
     5
100
AcDbCircle
 10
-298.5
 20
98.50000000000001
 30
0.0
 40
2.299999999999998
  0
CIRCLE
  5
39B
330
11084
100
AcDbEntity
  8
DETAIL
  6
Continuous
 62
     5
100
AcDbCircle
 10
163.5
 20
680.4999999999997
 30
0.0
 40
2.299999999999998
  0
CIRCLE
  5
39C
330
11084
100
AcDbEntity
  8
DETAIL
  6
Continuous
 62
     5
100
AcDbCircle
 10
163.5
 20
98.50000000000001
 30
0.0
 40
2.299999999999998
  0
LINE
  5
39D
330
11084
100
AcDbEntity
  8
DETAIL
  6
Continuous
 62
     5
100
AcDbLine
 10
-282.5
 20
253.25
 30
0.0
 11
-282.5
 21
249.75
 31
0.0
  0
LINE
  5
39E
330
11084
100
AcDbEntity
  8
DETAIL
  6
Continuous
 62
     5
100
AcDbLine
 10
-282.5
 20
398.25
 30
0.0
 11
-282.5
 21
394.75
 31
0.0
  0
LINE
  5
39F
330
11084
100
AcDbEntity
  8
DETAIL
  6
Continuous
 62
     5
100
AcDbLine
 10
-282.5
 20
543.25
 30
0.0
 11
-282.5
 21
539.7499999999999
 31
0.0
  0
LINE
  5
3A0
330
11084
100
AcDbEntity
  8
DETAIL
  6
Continuous
 62
     5
100
AcDbLine
 10
-282.5
 20
833.2499999999999
 30
0.0
 11
-282.5
 21
829.7499999999999
 31
0.0
  0
LINE
  5
3A1
330
11084
100
AcDbEntity
  8
DETAIL
  6
Continuous
 62
     5
100
AcDbLine
 10
-282.5
 20
978.25
 30
0.0
 11
-282.5
 21
974.75
 31
0.0
  0
LINE
  5
3A2
330
11084
100
AcDbEntity
  8
DETAIL
  6
Continuous
 62
     5
100
AcDbLine
 10
-267.25
 20
978.25
 30
0.0
 11
-282.5
 21
978.25
 31
0.0
  0
LINE
  5
3A3
330
11084
100
AcDbEntity
  8
DETAIL
  6
Continuous
 62
     5
100
AcDbLine
 10
-135.25
 20
978.25
 30
0.0
 11
-263.75
 21
978.25
 31
0.0
  0
LINE
  5
3A4
330
11084
100
AcDbEntity
  8
DETAIL
  6
Continuous
 62
     5
100
AcDbLine
 10
-3.25
 20
978.25
 30
0.0
 11
-131.75
 21
978.25
 31
0.0
  0
LINE
  5
3A5
330
11084
100
AcDbEntity
  8
DETAIL
  6
Continuous
 62
     5
100
AcDbLine
 10
128.75
 20
978.25
 30
0.0
 11
0.25
 21
978.25
 31
0.0
  0
LINE
  5
3A6
330
11084
100
AcDbEntity
  8
DETAIL
  6
Continuous
 62
     5
100
AcDbLine
 10
147.5
 20
978.25
 30
0.0
 11
132.25
 21
978.25
 31
0.0
  0
LINE
  5
3A7
330
11084
100
AcDbEntity
  8
DETAIL
  6
Continuous
 62
     5
100
AcDbLine
 10
-267.25
 20
974.75
 30
0.0
 11
-282.5
 21
974.75
 31
0.0
  0
LINE
  5
3A8
330
11084
100
AcDbEntity
  8
DETAIL
  6
Continuous
 62
     5
100
AcDbLine
 10
-135.25
 20
974.75
 30
0.0
 11
-263.75
 21
974.75
 31
0.0
  0
LINE
  5
3A9
330
11084
100
AcDbEntity
  8
DETAIL
  6
Continuous
 62
     5
100
AcDbLine
 10
-3.25
 20
974.75
 30
0.0
 11
-131.75
 21
974.75
 31
0.0
  0
LINE
  5
3AA
330
11084
100
AcDbEntity
  8
DETAIL
  6
Continuous
 62
     5
100
AcDbLine
 10
128.75
 20
974.75
 30
0.0
 11
0.25
 21
974.75
 31
0.0
  0
LINE
  5
3AB
330
11084
100
AcDbEntity
  8
DETAIL
  6
Continuous
 62
     5
100
AcDbLine
 10
147.5
 20
974.75
 30
0.0
 11
132.25
 21
974.75
 31
0.0
  0
LINE
  5
3AC
330
11084
100
AcDbEntity
  8
DETAIL
  6
Continuous
 62
     5
100
AcDbLine
 10
-267.25
 20
833.2499999999999
 30
0.0
 11
-282.5
 21
833.2499999999999
 31
0.0
  0
LINE
  5
3AD
330
11084
100
AcDbEntity
  8
DETAIL
  6
Continuous
 62
     5
100
AcDbLine
 10
-135.25
 20
833.2499999999999
 30
0.0
 11
-263.75
 21
833.2499999999999
 31
0.0
  0
LINE
  5
3AE
330
11084
100
AcDbEntity
  8
DETAIL
  6
Continuous
 62
     5
100
AcDbLine
 10
-3.25
 20
833.2499999999999
 30
0.0
 11
-131.75
 21
833.2499999999999
 31
0.0
  0
LINE
  5
3AF
330
11084
100
AcDbEntity
  8
DETAIL
  6
Continuous
 62
     5
100
AcDbLine
 10
128.75
 20
833.2499999999999
 30
0.0
 11
0.25
 21
833.2499999999999
 31
0.0
  0
LINE
  5
3B0
330
11084
100
AcDbEntity
  8
DETAIL
  6
Continuous
 62
     5
100
AcDbLine
 10
147.5
 20
833.2499999999999
 30
0.0
 11
132.25
 21
833.2499999999999
 31
0.0
  0
LINE
  5
3B1
330
11084
100
AcDbEntity
  8
DETAIL
  6
Continuous
 62
     5
100
AcDbLine
 10
-267.25
 20
829.7499999999999
 30
0.0
 11
-282.5
 21
829.7499999999999
 31
0.0
  0
LINE
  5
3B2
330
11084
100
AcDbEntity
  8
DETAIL
  6
Continuous
 62
     5
100
AcDbLine
 10
-135.25
 20
829.7499999999999
 30
0.0
 11
-263.75
 21
829.7499999999999
 31
0.0
  0
LINE
  5
3B3
330
11084
100
AcDbEntity
  8
DETAIL
  6
Continuous
 62
     5
100
AcDbLine
 10
-3.25
 20
829.7499999999999
 30
0.0
 11
-131.75
 21
829.7499999999999
 31
0.0
  0
LINE
  5
3B4
330
11084
100
AcDbEntity
  8
DETAIL
  6
Continuous
 62
     5
100
AcDbLine
 10
128.75
 20
829.7499999999999
 30
0.0
 11
0.25
 21
829.7499999999999
 31
0.0
  0
LINE
  5
3B5
330
11084
100
AcDbEntity
  8
DETAIL
  6
Continuous
 62
     5
100
AcDbLine
 10
147.5
 20
829.7499999999999
 30
0.0
 11
132.25
 21
829.7499999999999
 31
0.0
  0
LINE
  5
3B6
330
11084
100
AcDbEntity
  8
DETAIL
  6
Continuous
 62
     5
100
AcDbLine
 10
147.5
 20
253.25
 30
0.0
 11
147.5
 21
249.75
 31
0.0
  0
LINE
  5
3B7
330
11084
100
AcDbEntity
  8
DETAIL
  6
Continuous
 62
     5
100
AcDbLine
 10
147.5
 20
398.25
 30
0.0
 11
147.5
 21
394.75
 31
0.0
  0
LINE
  5
3B8
330
11084
100
AcDbEntity
  8
DETAIL
  6
Continuous
 62
     5
100
AcDbLine
 10
147.5
 20
543.25
 30
0.0
 11
147.5
 21
539.7499999999999
 31
0.0
  0
LINE
  5
3B9
330
11084
100
AcDbEntity
  8
DETAIL
  6
Continuous
 62
     5
100
AcDbLine
 10
147.5
 20
833.2499999999999
 30
0.0
 11
147.5
 21
829.7499999999999
 31
0.0
  0
LINE
  5
3BA
330
11084
100
AcDbEntity
  8
DETAIL
  6
Continuous
 62
     5
100
AcDbLine
 10
147.5
 20
978.25
 30
0.0
 11
147.5
 21
974.75
 31
0.0
  0
LINE
  5
3BB
330
11084
100
AcDbEntity
  8
DETAIL
  6
Continuous
 62
     5
100
AcDbLine
 10
-267.25
 20
543.25
 30
0.0
 11
-282.5
 21
543.25
 31
0.0
  0
LINE
  5
3BC
330
11084
100
AcDbEntity
  8
DETAIL
  6
Continuous
 62
     5
100
AcDbLine
 10
-135.25
 20
543.25
 30
0.0
 11
-263.75
 21
543.25
 31
0.0
  0
LINE
  5
3BD
330
11084
100
AcDbEntity
  8
DETAIL
  6
Continuous
 62
     5
100
AcDbLine
 10
-3.25
 20
543.25
 30
0.0
 11
-131.75
 21
543.25
 31
0.0
  0
LINE
  5
3BE
330
11084
100
AcDbEntity
  8
DETAIL
  6
Continuous
 62
     5
100
AcDbLine
 10
128.75
 20
543.25
 30
0.0
 11
0.25
 21
543.25
 31
0.0
  0
LINE
  5
3BF
330
11084
100
AcDbEntity
  8
DETAIL
  6
Continuous
 62
     5
100
AcDbLine
 10
147.5
 20
543.25
 30
0.0
 11
132.25
 21
543.25
 31
0.0
  0
LINE
  5
3C0
330
11084
100
AcDbEntity
  8
DETAIL
  6
Continuous
 62
     5
100
AcDbLine
 10
-267.25
 20
539.7499999999999
 30
0.0
 11
-282.5
 21
539.7499999999999
 31
0.0
  0
LINE
  5
3C1
330
11084
100
AcDbEntity
  8
DETAIL
  6
Continuous
 62
     5
100
AcDbLine
 10
-135.25
 20
539.7499999999999
 30
0.0
 11
-263.75
 21
539.7499999999999
 31
0.0
  0
LINE
  5
3C2
330
11084
100
AcDbEntity
  8
DETAIL
  6
Continuous
 62
     5
100
AcDbLine
 10
-3.25
 20
539.7499999999999
 30
0.0
 11
-131.75
 21
539.7499999999999
 31
0.0
  0
LINE
  5
3C3
330
11084
100
AcDbEntity
  8
DETAIL
  6
Continuous
 62
     5
100
AcDbLine
 10
128.75
 20
539.7499999999999
 30
0.0
 11
0.25
 21
539.7499999999999
 31
0.0
  0
LINE
  5
3C4
330
11084
100
AcDbEntity
  8
DETAIL
  6
Continuous
 62
     5
100
AcDbLine
 10
147.5
 20
539.7499999999999
 30
0.0
 11
132.25
 21
539.7499999999999
 31
0.0
  0
LINE
  5
3C5
330
11084
100
AcDbEntity
  8
DETAIL
  6
Continuous
 62
     5
100
AcDbLine
 10
-267.25
 20
398.25
 30
0.0
 11
-282.5
 21
398.25
 31
0.0
  0
LINE
  5
3C6
330
11084
100
AcDbEntity
  8
DETAIL
  6
Continuous
 62
     5
100
AcDbLine
 10
-135.25
 20
398.25
 30
0.0
 11
-263.75
 21
398.25
 31
0.0
  0
LINE
  5
3C7
330
11084
100
AcDbEntity
  8
DETAIL
  6
Continuous
 62
     5
100
AcDbLine
 10
-3.25
 20
398.25
 30
0.0
 11
-131.75
 21
398.25
 31
0.0
  0
LINE
  5
3C8
330
11084
100
AcDbEntity
  8
DETAIL
  6
Continuous
 62
     5
100
AcDbLine
 10
128.75
 20
398.25
 30
0.0
 11
0.25
 21
398.25
 31
0.0
  0
LINE
  5
3C9
330
11084
100
AcDbEntity
  8
DETAIL
  6
Continuous
 62
     5
100
AcDbLine
 10
147.5
 20
398.25
 30
0.0
 11
132.25
 21
398.25
 31
0.0
  0
LINE
  5
3CA
330
11084
100
AcDbEntity
  8
DETAIL
  6
Continuous
 62
     5
100
AcDbLine
 10
-267.25
 20
394.75
 30
0.0
 11
-282.5
 21
394.75
 31
0.0
  0
LINE
  5
3CB
330
11084
100
AcDbEntity
  8
DETAIL
  6
Continuous
 62
     5
100
AcDbLine
 10
-135.25
 20
394.75
 30
0.0
 11
-263.75
 21
394.75
 31
0.0
  0
LINE
  5
3CC
330
11084
100
AcDbEntity
  8
DETAIL
  6
Continuous
 62
     5
100
AcDbLine
 10
-3.25
 20
394.75
 30
0.0
 11
-131.75
 21
394.75
 31
0.0
  0
LINE
  5
3CD
330
11084
100
AcDbEntity
  8
DETAIL
  6
Continuous
 62
     5
100
AcDbLine
 10
128.75
 20
394.75
 30
0.0
 11
0.25
 21
394.75
 31
0.0
  0
LINE
  5
3CE
330
11084
100
AcDbEntity
  8
DETAIL
  6
Continuous
 62
     5
100
AcDbLine
 10
147.5
 20
394.75
 30
0.0
 11
132.25
 21
394.75
 31
0.0
  0
LINE
  5
3CF
330
11084
100
AcDbEntity
  8
DETAIL
  6
Continuous
 62
     5
100
AcDbLine
 10
-267.25
 20
253.25
 30
0.0
 11
-282.5
 21
253.25
 31
0.0
  0
LINE
  5
3D0
330
11084
100
AcDbEntity
  8
DETAIL
  6
Continuous
 62
     5
100
AcDbLine
 10
-135.25
 20
253.25
 30
0.0
 11
-263.75
 21
253.25
 31
0.0
  0
LINE
  5
3D1
330
11084
100
AcDbEntity
  8
DETAIL
  6
Continuous
 62
     5
100
AcDbLine
 10
-3.25
 20
253.25
 30
0.0
 11
-131.75
 21
253.25
 31
0.0
  0
LINE
  5
3D2
330
11084
100
AcDbEntity
  8
DETAIL
  6
Continuous
 62
     5
100
AcDbLine
 10
128.75
 20
253.25
 30
0.0
 11
0.25
 21
253.25
 31
0.0
  0
LINE
  5
3D3
330
11084
100
AcDbEntity
  8
DETAIL
  6
Continuous
 62
     5
100
AcDbLine
 10
147.5
 20
253.25
 30
0.0
 11
132.25
 21
253.25
 31
0.0
  0
LINE
  5
3D4
330
11084
100
AcDbEntity
  8
DETAIL
  6
Continuous
 62
     5
100
AcDbLine
 10
-267.25
 20
249.75
 30
0.0
 11
-282.5
 21
249.75
 31
0.0
  0
LINE
  5
3D5
330
11084
100
AcDbEntity
  8
DETAIL
  6
Continuous
 62
     5
100
AcDbLine
 10
-135.25
 20
249.75
 30
0.0
 11
-263.75
 21
249.75
 31
0.0
  0
LINE
  5
3D6
330
11084
100
AcDbEntity
  8
DETAIL
  6
Continuous
 62
     5
100
AcDbLine
 10
-3.25
 20
249.75
 30
0.0
 11
-131.75
 21
249.75
 31
0.0
  0
LINE
  5
3D7
330
11084
100
AcDbEntity
  8
DETAIL
  6
Continuous
 62
     5
100
AcDbLine
 10
128.75
 20
249.75
 30
0.0
 11
0.25
 21
249.75
 31
0.0
  0
LINE
  5
3D8
330
11084
100
AcDbEntity
  8
DETAIL
  6
Continuous
 62
     5
100
AcDbLine
 10
147.5
 20
249.75
 30
0.0
 11
132.25
 21
249.75
 31
0.0
  0
LINE
  5
3D9
330
11084
100
AcDbEntity
  8
DETAIL
  6
Continuous
 62
     5
100
AcDbLine
 10
-263.75
 20
93.49999999999999
 30
0.0
 11
-267.25
 21
93.49999999999999
 31
0.0
  0
LINE
  5
3DA
330
11084
100
AcDbEntity
  8
DETAIL
  6
Continuous
 62
     5
100
AcDbLine
 10
-131.75
 20
93.49999999999999
 30
0.0
 11
-135.25
 21
93.49999999999999
 31
0.0
  0
LINE
  5
3DB
330
11084
100
AcDbEntity
  8
DETAIL
  6
Continuous
 62
     5
100
AcDbLine
 10
0.25
 20
93.49999999999999
 30
0.0
 11
-3.25
 21
93.49999999999999
 31
0.0
  0
LINE
  5
3DC
330
11084
100
AcDbEntity
  8
DETAIL
  6
Continuous
 62
     5
100
AcDbLine
 10
132.25
 20
93.49999999999999
 30
0.0
 11
128.75
 21
93.49999999999999
 31
0.0
  0
LINE
  5
3DD
330
11084
100
AcDbEntity
  8
DETAIL
  6
Continuous
 62
     5
100
AcDbLine
 10
161.2066809999996
 20
680.4650299999997
 30
0.0
 11
161.2167969999991
 21
680.4723050000001
 31
0.0
  0
ARC
  5
3DE
330
11084
100
AcDbEntity
  8
DETAIL
  6
Continuous
 62
     5
100
AcDbCircle
 10
-298.5
 20
680.4999999999997
 30
0.0
 40
3.5
100
AcDbArc
 50
90.0
 51
0.0
  0
ARC
  5
3DF
330
11084
100
AcDbEntity
  8
DETAIL
  6
Continuous
 62
     5
100
AcDbCircle
 10
-298.5
 20
680.4999999999997
 30
0.0
 40
7.0
100
AcDbArc
 50
90.0
 51
0.0
  0
ARC
  5
3E0
330
11084
100
AcDbEntity
  8
DETAIL
  6
Continuous
 62
     5
100
AcDbCircle
 10
-298.5
 20
98.50000000000001
 30
0.0
 40
3.5
100
AcDbArc
 50
90.0
 51
0.0
  0
ARC
  5
3E1
330
11084
100
AcDbEntity
  8
DETAIL
  6
Continuous
 62
     5
100
AcDbCircle
 10
-298.5
 20
98.50000000000001
 30
0.0
 40
7.0
100
AcDbArc
 50
90.0
 51
0.0
  0
ARC
  5
3E2
330
11084
100
AcDbEntity
  8
DETAIL
  6
Continuous
 62
     5
100
AcDbCircle
 10
163.5
 20
680.4999999999997
 30
0.0
 40
3.5
100
AcDbArc
 50
180.0
 51
90.0
  0
ARC
  5
3E3
330
11084
100
AcDbEntity
  8
DETAIL
  6
Continuous
 62
     5
100
AcDbCircle
 10
163.5
 20
680.4999999999997
 30
0.0
 40
7.0
100
AcDbArc
 50
180.0
 51
90.0
  0
ARC
  5
3E4
330
11084
100
AcDbEntity
  8
DETAIL
  6
Continuous
 62
     5
100
AcDbCircle
 10
152.9587129999999
 20
691.9429039999997
 30
0.0
 40
14.134022
100
AcDbArc
 50
305.7514279999884
 51
306.0229179999481
  0
ARC
  5
3E5
330
11084
100
AcDbEntity
  8
DETAIL
  6
Continuous
 62
     5
100
AcDbCircle
 10
152.927098
 20
691.9861899999999
 30
0.0
 40
14.187624
100
AcDbArc
 50
306.0233769999616
 51
319.4830480000431
  0
ARC
  5
3E6
330
11084
100
AcDbEntity
  8
DETAIL
  6
Continuous
 62
     5
100
AcDbCircle
 10
163.5
 20
98.50000000000001
 30
0.0
 40
3.5
100
AcDbArc
 50
180.0
 51
90.0
  0
ARC
  5
3E7
330
11084
100
AcDbEntity
  8
DETAIL
  6
Continuous
 62
     5
100
AcDbCircle
 10
163.5
 20
98.50000000000001
 30
0.0
 40
7.0
100
AcDbArc
 50
180.0
 51
90.0
  0
LINE
  5
3E8
330
11084
100
AcDbEntity
  8
DETAIL
  6
Continuous
 62
     5
100
AcDbLine
 10
-298.5
 20
684.0
 30
0.0
 11
-298.5
 21
687.5
 31
0.0
  0
LINE
  5
3E9
330
11084
100
AcDbEntity
  8
DETAIL
  6
Continuous
 62
     5
100
AcDbLine
 10
-298.5
 20
102.0
 30
0.0
 11
-298.5
 21
105.5
 31
0.0
  0
LINE
  5
3EA
330
11084
100
AcDbEntity
  8
DETAIL
  6
Continuous
 62
     5
100
AcDbLine
 10
-295.0
 20
100.0
 30
0.0
 11
-295.0
 21
98.50000000000001
 31
0.0
  0
LINE
  5
3EB
330
11084
100
AcDbEntity
  8
DETAIL
  6
Continuous
 62
     5
100
AcDbLine
 10
-295.0
 20
682.0
 30
0.0
 11
-295.0
 21
680.4999999999997
 31
0.0
  0
LINE
  5
3EC
330
11084
100
AcDbEntity
  8
DETAIL
  6
Continuous
 62
     5
100
AcDbLine
 10
-292.5
 20
94.89802899999999
 30
0.0
 11
-292.5
 21
83.49999999999999
 31
0.0
  0
LINE
  5
3ED
330
11084
100
AcDbEntity
  8
DETAIL
  6
Continuous
 62
     5
100
AcDbLine
 10
-292.5
 20
102.0
 30
0.0
 11
-292.5
 21
100.0
 31
0.0
  0
LINE
  5
3EE
330
11084
100
AcDbEntity
  8
DETAIL
  6
Continuous
 62
     5
100
AcDbLine
 10
-292.5
 20
676.898029
 30
0.0
 11
-292.5
 21
105.5
 31
0.0
  0
LINE
  5
3EF
330
11084
100
AcDbEntity
  8
DETAIL
  6
Continuous
 62
     5
100
AcDbLine
 10
-292.5
 20
684.0
 30
0.0
 11
-292.5
 21
682.0
 31
0.0
  0
LINE
  5
3F0
330
11084
100
AcDbEntity
  8
DETAIL
  6
Continuous
 62
     5
100
AcDbLine
 10
-291.5
 20
100.0
 30
0.0
 11
-291.5
 21
98.50000000000001
 31
0.0
  0
LINE
  5
3F1
330
11084
100
AcDbEntity
  8
DETAIL
  6
Continuous
 62
     5
100
AcDbLine
 10
-291.5
 20
682.0
 30
0.0
 11
-291.5
 21
680.4999999999997
 31
0.0
  0
LINE
  5
3F2
330
11084
100
AcDbEntity
  8
DETAIL
  6
Continuous
 62
     5
100
AcDbLine
 10
-240.7902200000008
 20
833.2499999999999
 30
0.0
 11
-240.7902200000008
 21
974.75
 31
0.0
  0
LINE
  5
3F3
330
11084
100
AcDbEntity
  8
DETAIL
  6
Continuous
 62
     5
100
AcDbLine
 10
-240.7902200000008
 20
687.5
 30
0.0
 11
-240.7902200000008
 21
829.7499999999999
 31
0.0
  0
LINE
  5
3F4
330
11084
100
AcDbEntity
  8
DETAIL
  6
Continuous
 62
     5
100
AcDbLine
 10
-240.7902200000008
 20
543.25
 30
0.0
 11
-240.7902200000008
 21
684.0
 31
0.0
  0
LINE
  5
3F5
330
11084
100
AcDbEntity
  8
DETAIL
  6
Continuous
 62
     5
100
AcDbLine
 10
-240.7902200000008
 20
398.25
 30
0.0
 11
-240.7902200000008
 21
539.7499999999999
 31
0.0
  0
LINE
  5
3F6
330
11084
100
AcDbEntity
  8
DETAIL
  6
Continuous
 62
     5
100
AcDbLine
 10
-240.7902200000008
 20
253.25
 30
0.0
 11
-240.7902200000008
 21
394.75
 31
0.0
  0
LINE
  5
3F7
330
11084
100
AcDbEntity
  8
DETAIL
  6
Continuous
 62
     5
100
AcDbLine
 10
-240.7902200000008
 20
105.5
 30
0.0
 11
-240.7902200000008
 21
249.75
 31
0.0
  0
LINE
  5
3F8
330
11084
100
AcDbEntity
  8
DETAIL
  6
Continuous
 62
     5
100
AcDbLine
 10
-240.7902200000008
 20
83.49999999999999
 30
0.0
 11
-240.7902200000008
 21
102.0
 31
0.0
  0
LINE
  5
3F9
330
11084
100
AcDbEntity
  8
DETAIL
  6
Continuous
 62
     5
100
AcDbLine
 10
132.25
 20
687.5
 30
0.0
 11
163.5
 21
687.5
 31
0.0
  0
LINE
  5
3FA
330
11084
100
AcDbEntity
  8
DETAIL
  6
Continuous
 62
     5
100
AcDbLine
 10
0.25
 20
687.5
 30
0.0
 11
128.75
 21
687.5
 31
0.0
  0
LINE
  5
3FB
330
11084
100
AcDbEntity
  8
DETAIL
  6
Continuous
 62
     5
100
AcDbLine
 10
-131.75
 20
687.5
 30
0.0
 11
-3.25
 21
687.5
 31
0.0
  0
LINE
  5
3FC
330
11084
100
AcDbEntity
  8
DETAIL
  6
Continuous
 62
     5
100
AcDbLine
 10
-263.75
 20
687.5
 30
0.0
 11
-135.25
 21
687.5
 31
0.0
  0
LINE
  5
3FD
330
11084
100
AcDbEntity
  8
DETAIL
  6
Continuous
 62
     5
100
AcDbLine
 10
-298.5
 20
687.5
 30
0.0
 11
-267.25
 21
687.5
 31
0.0
  0
LINE
  5
3FE
330
11084
100
AcDbEntity
  8
DETAIL
  6
Continuous
 62
     5
100
AcDbLine
 10
132.25
 20
684.0
 30
0.0
 11
163.5
 21
684.0
 31
0.0
  0
LINE
  5
3FF
330
11084
100
AcDbEntity
  8
DETAIL
  6
Continuous
 62
     5
100
AcDbLine
 10
0.25
 20
684.0
 30
0.0
 11
128.75
 21
684.0
 31
0.0
  0
LINE
  5
400
330
11084
100
AcDbEntity
  8
DETAIL
  6
Continuous
 62
     5
100
AcDbLine
 10
-131.75
 20
684.0
 30
0.0
 11
-3.25
 21
684.0
 31
0.0
  0
LINE
  5
401
330
11084
100
AcDbEntity
  8
DETAIL
  6
Continuous
 62
     5
100
AcDbLine
 10
-263.75
 20
684.0
 30
0.0
 11
-135.25
 21
684.0
 31
0.0
  0
LINE
  5
402
330
11084
100
AcDbEntity
  8
DETAIL
  6
Continuous
 62
     5
100
AcDbLine
 10
-298.5
 20
684.0
 30
0.0
 11
-267.25
 21
684.0
 31
0.0
  0
LINE
  5
403
330
11084
100
AcDbEntity
  8
DETAIL
  6
Continuous
 62
     5
100
AcDbLine
 10
160.0
 20
682.0
 30
0.0
 11
156.5
 21
682.0
 31
0.0
  0
LINE
  5
404
330
11084
100
AcDbEntity
  8
DETAIL
  6
Continuous
 62
     5
100
AcDbLine
 10
-295.0
 20
682.0
 30
0.0
 11
-291.5
 21
682.0
 31
0.0
  0
LINE
  5
405
330
11084
100
AcDbEntity
  8
DETAIL
  6
Continuous
 62
     5
100
AcDbLine
 10
160.0
 20
680.4999999999997
 30
0.0
 11
156.5
 21
680.4999999999997
 31
0.0
  0
LINE
  5
406
330
11084
100
AcDbEntity
  8
DETAIL
  6
Continuous
 62
     5
100
AcDbLine
 10
-295.0
 20
680.4999999999997
 30
0.0
 11
-291.5
 21
680.4999999999997
 31
0.0
  0
LINE
  5
407
330
11084
100
AcDbEntity
  8
DETAIL
  6
Continuous
 62
     5
100
AcDbLine
 10
143.4682209999992
 20
833.2499999999999
 30
0.0
 11
143.4682209999992
 21
974.75
 31
0.0
  0
LINE
  5
408
330
11084
100
AcDbEntity
  8
DETAIL
  6
Continuous
 62
     5
100
AcDbLine
 10
143.4682209999992
 20
687.5
 30
0.0
 11
143.4682209999992
 21
829.7499999999999
 31
0.0
  0
LINE
  5
409
330
11084
100
AcDbEntity
  8
DETAIL
  6
Continuous
 62
     5
100
AcDbLine
 10
143.4682209999992
 20
543.25
 30
0.0
 11
143.4682209999992
 21
684.0
 31
0.0
  0
LINE
  5
40A
330
11084
100
AcDbEntity
  8
DETAIL
  6
Continuous
 62
     5
100
AcDbLine
 10
143.4682209999992
 20
398.25
 30
0.0
 11
143.4682209999992
 21
539.7499999999999
 31
0.0
  0
LINE
  5
40B
330
11084
100
AcDbEntity
  8
DETAIL
  6
Continuous
 62
     5
100
AcDbLine
 10
143.4682209999992
 20
253.25
 30
0.0
 11
143.4682209999992
 21
394.75
 31
0.0
  0
LINE
  5
40C
330
11084
100
AcDbEntity
  8
DETAIL
  6
Continuous
 62
     5
100
AcDbLine
 10
143.4682209999992
 20
105.5
 30
0.0
 11
143.4682209999992
 21
249.75
 31
0.0
  0
LINE
  5
40D
330
11084
100
AcDbEntity
  8
DETAIL
  6
Continuous
 62
     5
100
AcDbLine
 10
143.4682209999992
 20
83.49999999999999
 30
0.0
 11
143.4682209999992
 21
102.0
 31
0.0
  0
LINE
  5
40E
330
11084
100
AcDbEntity
  8
DETAIL
  6
Continuous
 62
     5
100
AcDbLine
 10
156.5
 20
680.4999999999997
 30
0.0
 11
156.5
 21
682.0
 31
0.0
  0
LINE
  5
40F
330
11084
100
AcDbEntity
  8
DETAIL
  6
Continuous
 62
     5
100
AcDbLine
 10
156.5
 20
98.50000000000001
 30
0.0
 11
156.5
 21
100.0
 31
0.0
  0
LINE
  5
410
330
11084
100
AcDbEntity
  8
DETAIL
  6
Continuous
 62
     5
100
AcDbLine
 10
157.5
 20
682.0
 30
0.0
 11
157.5
 21
684.0
 31
0.0
  0
LINE
  5
411
330
11084
100
AcDbEntity
  8
DETAIL
  6
Continuous
 62
     5
100
AcDbLine
 10
157.5
 20
105.5
 30
0.0
 11
157.5
 21
676.898029
 31
0.0
  0
LINE
  5
412
330
11084
100
AcDbEntity
  8
DETAIL
  6
Continuous
 62
     5
100
AcDbLine
 10
157.5
 20
100.0
 30
0.0
 11
157.5
 21
102.0
 31
0.0
  0
LINE
  5
413
330
11084
100
AcDbEntity
  8
DETAIL
  6
Continuous
 62
     5
100
AcDbLine
 10
157.5
 20
83.49999999999999
 30
0.0
 11
157.5
 21
94.89802899999999
 31
0.0
  0
LINE
  5
414
330
11084
100
AcDbEntity
  8
DETAIL
  6
Continuous
 62
     5
100
AcDbLine
 10
160.0
 20
680.4999999999997
 30
0.0
 11
160.0
 21
682.0
 31
0.0
  0
LINE
  5
415
330
11084
100
AcDbEntity
  8
DETAIL
  6
Continuous
 62
     5
100
AcDbLine
 10
160.0
 20
98.50000000000001
 30
0.0
 11
160.0
 21
100.0
 31
0.0
  0
LINE
  5
416
330
11084
100
AcDbEntity
  8
DETAIL
  6
Continuous
 62
     5
100
AcDbLine
 10
163.5
 20
684.0
 30
0.0
 11
163.5
 21
687.5
 31
0.0
  0
LINE
  5
417
330
11084
100
AcDbEntity
  8
DETAIL
  6
Continuous
 62
     5
100
AcDbLine
 10
163.5
 20
102.0
 30
0.0
 11
163.5
 21
105.5
 31
0.0
  0
LINE
  5
418
330
11084
100
AcDbEntity
  8
DETAIL
  6
Continuous
 62
     5
100
AcDbLine
 10
132.25
 20
105.5
 30
0.0
 11
163.5
 21
105.5
 31
0.0
  0
LINE
  5
419
330
11084
100
AcDbEntity
  8
DETAIL
  6
Continuous
 62
     5
100
AcDbLine
 10
0.25
 20
105.5
 30
0.0
 11
128.75
 21
105.5
 31
0.0
  0
LINE
  5
41A
330
11084
100
AcDbEntity
  8
DETAIL
  6
Continuous
 62
     5
100
AcDbLine
 10
-131.75
 20
105.5
 30
0.0
 11
-3.25
 21
105.5
 31
0.0
  0
LINE
  5
41B
330
11084
100
AcDbEntity
  8
DETAIL
  6
Continuous
 62
     5
100
AcDbLine
 10
-263.75
 20
105.5
 30
0.0
 11
-135.25
 21
105.5
 31
0.0
  0
LINE
  5
41C
330
11084
100
AcDbEntity
  8
DETAIL
  6
Continuous
 62
     5
100
AcDbLine
 10
-298.5
 20
105.5
 30
0.0
 11
-267.25
 21
105.5
 31
0.0
  0
LINE
  5
41D
330
11084
100
AcDbEntity
  8
DETAIL
  6
Continuous
 62
     5
100
AcDbLine
 10
132.25
 20
102.0
 30
0.0
 11
163.5
 21
102.0
 31
0.0
  0
LINE
  5
41E
330
11084
100
AcDbEntity
  8
DETAIL
  6
Continuous
 62
     5
100
AcDbLine
 10
0.25
 20
102.0
 30
0.0
 11
128.75
 21
102.0
 31
0.0
  0
LINE
  5
41F
330
11084
100
AcDbEntity
  8
DETAIL
  6
Continuous
 62
     5
100
AcDbLine
 10
-131.75
 20
102.0
 30
0.0
 11
-3.25
 21
102.0
 31
0.0
  0
LINE
  5
420
330
11084
100
AcDbEntity
  8
DETAIL
  6
Continuous
 62
     5
100
AcDbLine
 10
-263.75
 20
102.0
 30
0.0
 11
-135.25
 21
102.0
 31
0.0
  0
LINE
  5
421
330
11084
100
AcDbEntity
  8
DETAIL
  6
Continuous
 62
     5
100
AcDbLine
 10
-298.5
 20
102.0
 30
0.0
 11
-267.25
 21
102.0
 31
0.0
  0
LINE
  5
422
330
11084
100
AcDbEntity
  8
DETAIL
  6
Continuous
 62
     5
100
AcDbLine
 10
160.0
 20
100.0
 30
0.0
 11
156.5
 21
100.0
 31
0.0
  0
LINE
  5
423
330
11084
100
AcDbEntity
  8
DETAIL
  6
Continuous
 62
     5
100
AcDbLine
 10
-295.0
 20
100.0
 30
0.0
 11
-291.5
 21
100.0
 31
0.0
  0
LINE
  5
424
330
11084
100
AcDbEntity
  8
DETAIL
  6
Continuous
 62
     5
100
AcDbLine
 10
160.0
 20
98.50000000000001
 30
0.0
 11
156.5
 21
98.50000000000001
 31
0.0
  0
LINE
  5
425
330
11084
100
AcDbEntity
  8
DETAIL
  6
Continuous
 62
     5
100
AcDbLine
 10
-295.0
 20
98.50000000000001
 30
0.0
 11
-291.5
 21
98.50000000000001
 31
0.0
  0
LINE
  5
426
330
11084
100
AcDbEntity
  8
DETAIL
  6
Continuous
 62
     5
100
AcDbLine
 10
172.5
 20
83.49999999999999
 30
0.0
 11
-307.3000000000011
 21
83.49999999999999
 31
0.0
  0
LINE
  5
427
330
11084
100
AcDbEntity
  8
DETAIL
  6
Continuous
 62
     5
100
AcDbLine
 10
-30.0
 20
47.0
 30
0.0
 11
-30.0
 21
38.19999999999981
 31
0.0
  0
LINE
  5
428
330
11084
100
AcDbEntity
  8
DETAIL
  6
Continuous
 62
     5
100
AcDbLine
 10
30.0
 20
47.0
 30
0.0
 11
30.0
 21
38.19999999999981
 31
0.0
  0
LINE
  5
429
330
11084
100
AcDbEntity
  8
NOTE
  6
Continuous
 62
     4
100
AcDbLine
 10
-228.3258940000013
 20
1749.5
 30
0.0
 11
-278.3258940000014
 21
1749.5
 31
0.0
  0
LINE
  5
42A
330
11084
100
AcDbEntity
  8
NOTE
  6
Continuous
 62
     4
100
AcDbLine
 10
228.325895
 20
1749.5
 30
0.0
 11
278.325895
 21
1749.5
 31
0.0
  0
LINE
  5
42B
330
11084
100
AcDbEntity
  8
NOTE
  6
Continuous
 62
     4
100
AcDbLine
 10
-253.3258940000013
 20
1840.082133
 30
0.0
 11
-203.3258940000013
 21
1790.186088
 31
0.0
  0
LINE
  5
42C
330
11084
100
AcDbEntity
  8
NOTE
  6
Continuous
 62
     4
100
AcDbLine
 10
-303.3258940000014
 20
1790.186088
 30
0.0
 11
-253.3258940000013
 21
1840.082133
 31
0.0
  0
LINE
  5
42D
330
11084
100
AcDbEntity
  8
NOTE
  6
Continuous
 62
     4
100
AcDbLine
 10
-303.3258940000014
 20
1790.186088
 30
0.0
 11
-278.3258940000014
 21
1790.186088
 31
0.0
  0
LINE
  5
42E
330
11084
100
AcDbEntity
  8
NOTE
  6
Continuous
 62
     4
100
AcDbLine
 10
-228.3258940000013
 20
1790.186088
 30
0.0
 11
-203.3258940000013
 21
1790.186088
 31
0.0
  0
LINE
  5
42F
330
11084
100
AcDbEntity
  8
NOTE
  6
Continuous
 62
     4
100
AcDbLine
 10
-228.3258940000013
 20
1790.186088
 30
0.0
 11
-228.3258940000013
 21
1749.5
 31
0.0
  0
LINE
  5
430
330
11084
100
AcDbEntity
  8
NOTE
  6
Continuous
 62
     4
100
AcDbLine
 10
-278.3258940000014
 20
1790.186088
 30
0.0
 11
-278.3258940000014
 21
1749.5
 31
0.0
  0
LINE
  5
431
330
11084
100
AcDbEntity
  8
NOTE
  6
Continuous
 62
     4
100
AcDbLine
 10
278.325895
 20
1790.186088
 30
0.0
 11
278.325895
 21
1749.5
 31
0.0
  0
LINE
  5
432
330
11084
100
AcDbEntity
  8
NOTE
  6
Continuous
 62
     4
100
AcDbLine
 10
228.325895
 20
1790.186088
 30
0.0
 11
228.325895
 21
1749.5
 31
0.0
  0
LINE
  5
433
330
11084
100
AcDbEntity
  8
NOTE
  6
Continuous
 62
     4
100
AcDbLine
 10
228.325895
 20
1790.186088
 30
0.0
 11
203.325895
 21
1790.186088
 31
0.0
  0
LINE
  5
434
330
11084
100
AcDbEntity
  8
NOTE
  6
Continuous
 62
     4
100
AcDbLine
 10
303.325895
 20
1790.186088
 30
0.0
 11
278.325895
 21
1790.186088
 31
0.0
  0
LINE
  5
435
330
11084
100
AcDbEntity
  8
NOTE
  6
Continuous
 62
     4
100
AcDbLine
 10
303.325895
 20
1790.186088
 30
0.0
 11
253.325895
 21
1840.082133
 31
0.0
  0
LINE
  5
436
330
11084
100
AcDbEntity
  8
NOTE
  6
Continuous
 62
     4
100
AcDbLine
 10
253.325895
 20
1840.082133
 30
0.0
 11
203.325895
 21
1790.186088
 31
0.0
  0
LINE
  5
437
330
11084
100
AcDbEntity
  8
NOTE
  6
Continuous
 62
     4
100
AcDbLine
 10
-475.7000000000005
 20
937.5
 30
0.0
 11
-525.5960450000001
 21
887.5
 31
0.0
  0
LINE
  5
438
330
11084
100
AcDbEntity
  8
NOTE
  6
Continuous
 62
     4
100
AcDbLine
 10
-525.5960450000001
 20
987.5
 30
0.0
 11
-475.7000000000005
 21
937.5
 31
0.0
  0
LINE
  5
439
330
11084
100
AcDbEntity
  8
NOTE
  6
Continuous
 62
     4
100
AcDbLine
 10
-525.5960450000001
 20
987.5
 30
0.0
 11
-525.5960450000001
 21
962.5
 31
0.0
  0
LINE
  5
43A
330
11084
100
AcDbEntity
  8
NOTE
  6
Continuous
 62
     4
100
AcDbLine
 10
-525.5960450000001
 20
912.5
 30
0.0
 11
-525.5960450000001
 21
887.5
 31
0.0
  0
LINE
  5
43B
330
11084
100
AcDbEntity
  8
NOTE
  6
Continuous
 62
     4
100
AcDbLine
 10
-525.5960450000001
 20
912.5
 30
0.0
 11
-566.282132
 21
912.5
 31
0.0
  0
LINE
  5
43C
330
11084
100
AcDbEntity
  8
NOTE
  6
Continuous
 62
     4
100
AcDbLine
 10
-525.5960450000001
 20
962.5
 30
0.0
 11
-566.282132
 21
962.5
 31
0.0
  0
LINE
  5
43D
330
11084
100
AcDbEntity
  8
NOTE
  6
Continuous
 62
     4
100
AcDbLine
 10
-475.7000000000005
 20
437.5
 30
0.0
 11
-525.5960450000001
 21
387.5
 31
0.0
  0
LINE
  5
43E
330
11084
100
AcDbEntity
  8
NOTE
  6
Continuous
 62
     4
100
AcDbLine
 10
-525.5960450000001
 20
487.5
 30
0.0
 11
-475.7000000000005
 21
437.5
 31
0.0
  0
LINE
  5
43F
330
11084
100
AcDbEntity
  8
NOTE
  6
Continuous
 62
     4
100
AcDbLine
 10
-525.5960450000001
 20
487.5
 30
0.0
 11
-525.5960450000001
 21
462.5
 31
0.0
  0
LINE
  5
440
330
11084
100
AcDbEntity
  8
NOTE
  6
Continuous
 62
     4
100
AcDbLine
 10
-525.5960450000001
 20
412.5
 30
0.0
 11
-525.5960450000001
 21
387.5
 31
0.0
  0
LINE
  5
441
330
11084
100
AcDbEntity
  8
NOTE
  6
Continuous
 62
     4
100
AcDbLine
 10
-525.5960450000001
 20
412.5
 30
0.0
 11
-566.282132
 21
412.5
 31
0.0
  0
LINE
  5
442
330
11084
100
AcDbEntity
  8
NOTE
  6
Continuous
 62
     4
100
AcDbLine
 10
-525.5960450000001
 20
462.5
 30
0.0
 11
-566.282132
 21
462.5
 31
0.0
  0
LINE
  5
443
330
11084
100
AcDbEntity
  8
NOTE
  6
Continuous
 62
     4
100
AcDbLine
 10
-566.282132
 20
412.5
 30
0.0
 11
-566.282132
 21
462.5
 31
0.0
  0
LINE
  5
444
330
11084
100
AcDbEntity
  8
NOTE
  6
Continuous
 62
     4
100
AcDbLine
 10
-566.282132
 20
912.5
 30
0.0
 11
-566.282132
 21
962.5
 31
0.0
  0
LINE
  5
445
330
11084
100
AcDbEntity
  8
DETAIL
  6
Continuous
 62
     5
100
AcDbLine
 10
333.1999999999989
 20
0.0
 30
0.0
 11
380.0
 21
0.0
 31
0.0
  0
LINE
  5
446
330
11084
100
AcDbEntity
  8
DETAIL
  6
Continuous
 62
     5
100
AcDbLine
 10
-333.2000000000008
 20
0.0
 30
0.0
 11
-380.0
 21
0.0
 31
0.0
  0
LINE
  5
447
330
11084
100
AcDbEntity
  8
DETAIL
  6
Continuous
 62
     5
100
AcDbLine
 10
333.1999999999989
 20
3.199999999999818
 30
0.0
 11
330.0
 21
3.199999999999818
 31
0.0
  0
LINE
  5
448
330
11084
100
AcDbEntity
  8
DETAIL
  6
Continuous
 62
     5
100
AcDbLine
 10
-328.5916280000001
 20
53.5
 30
0.0
 11
-367.020633
 21
56.01221500000018
 31
0.0
  0
LINE
  5
449
330
11084
100
AcDbEntity
  8
DETAIL
  6
Continuous
 62
     5
100
AcDbLine
 10
300.0
 20
38.19999999999981
 30
0.0
 11
30.0
 21
38.19999999999981
 31
0.0
  0
LINE
  5
44A
330
11084
100
AcDbEntity
  8
DETAIL
  6
Continuous
 62
     5
100
AcDbLine
 10
-30.0
 20
38.19999999999981
 30
0.0
 11
-300.0
 21
38.19999999999981
 31
0.0
  0
LINE
  5
44B
330
11084
100
AcDbEntity
  8
DETAIL
  6
Continuous
 62
     5
100
AcDbLine
 10
-30.0
 20
42.0
 30
0.0
 11
30.0
 21
42.0
 31
0.0
  0
LINE
  5
44C
330
11084
100
AcDbEntity
  8
DETAIL
  6
Continuous
 62
     5
100
AcDbLine
 10
30.0
 20
45.49999999999999
 30
0.0
 11
287.4944469999992
 21
45.49999999999999
 31
0.0
  0
LINE
  5
44D
330
11084
100
AcDbEntity
  8
DETAIL
  6
Continuous
 62
     5
100
AcDbLine
 10
-30.0
 20
45.49999999999999
 30
0.0
 11
-283.649147
 21
45.49999999999999
 31
0.0
  0
LINE
  5
44E
330
11084
100
AcDbEntity
  8
DETAIL
  6
Continuous
 62
     5
100
AcDbLine
 10
-30.0
 20
47.0
 30
0.0
 11
30.0
 21
47.0
 31
0.0
  0
LINE
  5
44F
330
11084
100
AcDbEntity
  8
DETAIL
  6
Continuous
 62
     5
100
AcDbLine
 10
-333.2000000000008
 20
50.30000000000018
 30
0.0
 11
-300.0
 21
50.30000000000018
 31
0.0
  0
LINE
  5
450
330
11084
100
AcDbEntity
  8
DETAIL
  6
Continuous
 62
     5
100
AcDbLine
 10
333.1999999999989
 20
50.30000000000018
 30
0.0
 11
300.0
 21
50.30000000000018
 31
0.0
  0
LINE
  5
451
330
11084
100
AcDbEntity
  8
DETAIL
  6
Continuous
 62
     5
100
AcDbLine
 10
330.0
 20
53.5
 30
0.0
 11
297.8867519999985
 21
53.5
 31
0.0
  0
LINE
  5
452
330
11084
100
AcDbEntity
  8
DETAIL
  6
Continuous
 62
     5
100
AcDbLine
 10
-291.7320500000005
 20
53.5
 30
0.0
 11
-330.0
 21
53.5
 31
0.0
  0
LINE
  5
453
330
11084
100
AcDbEntity
  8
DETAIL
  6
Continuous
 62
     5
100
AcDbLine
 10
368.5
 20
54.0
 30
0.0
 11
374.5
 21
54.0
 31
0.0
  0
LINE
  5
454
330
11084
100
AcDbEntity
  8
DETAIL
  6
Continuous
 62
     5
100
AcDbLine
 10
374.5
 20
54.80000000000018
 30
0.0
 11
368.5
 21
54.80000000000018
 31
0.0
  0
LINE
  5
455
330
11084
100
AcDbEntity
  8
DETAIL
  6
Continuous
 62
     5
100
AcDbLine
 10
374.6999999999989
 20
55.50000000000046
 30
0.0
 11
359.1666669999995
 21
55.5
 31
0.0
  0
LINE
  5
456
330
11084
100
AcDbEntity
  8
DETAIL
  6
Continuous
 62
     5
100
AcDbLine
 10
375.5
 20
58.5
 30
0.0
 11
176.5
 21
58.5
 31
0.0
  0
LINE
  5
457
330
11084
100
AcDbEntity
  8
DETAIL
  6
Continuous
 62
     5
100
AcDbLine
 10
-313.5
 20
58.5
 30
0.0
 11
-376.5
 21
58.5
 31
0.0
  0
LINE
  5
458
330
11084
100
AcDbEntity
  8
DETAIL
  6
Continuous
 62
     5
100
AcDbLine
 10
-376.5
 20
81.5
 30
0.0
 11
-381.0
 21
81.5
 31
0.0
  0
LINE
  5
459
330
11084
100
AcDbEntity
  8
DETAIL
  6
Continuous
 62
     5
100
AcDbLine
 10
173.5
 20
83.49999999999999
 30
0.0
 11
-308.5
 21
83.49999999999999
 31
0.0
  0
LINE
  5
45A
330
11084
100
AcDbEntity
  8
DETAIL
  6
Continuous
 62
     5
100
AcDbLine
 10
367.0206329999984
 20
56.01221500000018
 30
0.0
 11
328.5916279999983
 21
53.5
 31
0.0
  0
LINE
  5
45B
330
11084
100
AcDbEntity
  8
DETAIL
  6
Continuous
 62
     5
100
AcDbLine
 10
-381.0
 20
166.5
 30
0.0
 11
-376.5
 21
166.5
 31
0.0
  0
LINE
  5
45C
330
11084
100
AcDbEntity
  8
DETAIL
  6
Continuous
 62
     5
100
AcDbLine
 10
291.8245739999981
 20
48.0
 30
0.0
 11
293.5566249999993
 21
51.0
 31
0.0
  0
LINE
  5
45D
330
11084
100
AcDbEntity
  8
DETAIL
  6
Continuous
 62
     5
100
AcDbLine
 10
366.8202369999999
 20
1416.694666999999
 30
0.0
 11
366.8754979999994
 21
1416.070976
 31
0.0
  0
LINE
  5
45E
330
11084
100
AcDbEntity
  8
DETAIL
  6
Continuous
 62
     5
100
AcDbLine
 10
366.8754979999994
 20
1416.070976
 30
0.0
 11
367.0204289999984
 21
1415.310869
 31
0.0
  0
LINE
  5
45F
330
11084
100
AcDbEntity
  8
DETAIL
  6
Continuous
 62
     5
100
AcDbLine
 10
367.0204289999984
 20
1415.310869
 30
0.0
 11
367.2483699999994
 21
1414.571403
 31
0.0
  0
LINE
  5
460
330
11084
100
AcDbEntity
  8
DETAIL
  6
Continuous
 62
     5
100
AcDbLine
 10
367.2483699999994
 20
1414.571403
 30
0.0
 11
367.5565369999986
 21
1413.861613
 31
0.0
  0
LINE
  5
461
330
11084
100
AcDbEntity
  8
DETAIL
  6
Continuous
 62
     5
100
AcDbLine
 10
367.5565369999986
 20
1413.861613
 30
0.0
 11
367.9411629999994
 21
1413.190174
 31
0.0
  0
LINE
  5
462
330
11084
100
AcDbEntity
  8
DETAIL
  6
Continuous
 62
     5
100
AcDbLine
 10
367.9411629999994
 20
1413.190174
 30
0.0
 11
368.3975489999994
 21
1412.56529
 31
0.0
  0
LINE
  5
463
330
11084
100
AcDbEntity
  8
DETAIL
  6
Continuous
 62
     5
100
AcDbLine
 10
368.3975489999994
 20
1412.56529
 30
0.0
 11
368.9201169999997
 21
1411.994597
 31
0.0
  0
LINE
  5
464
330
11084
100
AcDbEntity
  8
DETAIL
  6
Continuous
 62
     5
100
AcDbLine
 10
368.9201169999997
 20
1411.994597
 30
0.0
 11
369.5024819999999
 21
1411.485069
 31
0.0
  0
LINE
  5
465
330
11084
100
AcDbEntity
  8
DETAIL
  6
Continuous
 62
     5
100
AcDbLine
 10
369.5024819999999
 20
1411.485069
 30
0.0
 11
370.1375269999993
 21
1411.042932
 31
0.0
  0
LINE
  5
466
330
11084
100
AcDbEntity
  8
DETAIL
  6
Continuous
 62
     5
100
AcDbLine
 10
370.1375269999993
 20
1411.042932
 30
0.0
 11
370.8174929999985
 21
1410.673589
 31
0.0
  0
LINE
  5
467
330
11084
100
AcDbEntity
  8
DETAIL
  6
Continuous
 62
     5
100
AcDbLine
 10
370.8174929999985
 20
1410.673589
 30
0.0
 11
371.5340699999997
 21
1410.381552
 31
0.0
  0
LINE
  5
468
330
11084
100
AcDbEntity
  8
DETAIL
  6
Continuous
 62
     5
100
AcDbLine
 10
371.5340699999997
 20
1410.381552
 30
0.0
 11
372.2785019999991
 21
1410.170392
 31
0.0
  0
LINE
  5
469
330
11084
100
AcDbEntity
  8
DETAIL
  6
Continuous
 62
     5
100
AcDbLine
 10
372.2785019999991
 20
1410.170392
 30
0.0
 11
373.0416919999989
 21
1410.042688
 31
0.0
  0
LINE
  5
46A
330
11084
100
AcDbEntity
  8
DETAIL
  6
Continuous
 62
     5
100
AcDbLine
 10
373.0416919999989
 20
1410.042688
 30
0.0
 11
373.8135769999989
 21
1410.0
 31
0.0
  0
LINE
  5
46B
330
11084
100
AcDbEntity
  8
DETAIL
  6
Continuous
 62
     5
100
AcDbLine
 10
379.0
 20
1406.0
 30
0.0
 11
379.0
 21
1370.0
 31
0.0
  0
LINE
  5
46C
330
11084
100
AcDbEntity
  8
DETAIL
  6
Continuous
 62
     5
100
AcDbLine
 10
375.5
 20
55.0
 30
0.0
 11
375.5
 21
58.5
 31
0.0
  0
LINE
  5
46D
330
11084
100
AcDbEntity
  8
DETAIL
  6
Continuous
 62
     5
100
AcDbLine
 10
374.6999999999989
 20
55.0
 30
0.0
 11
374.6999999999989
 21
55.50000000000046
 31
0.0
  0
LINE
  5
46E
330
11084
100
AcDbEntity
  8
DETAIL
  6
Continuous
 62
     5
100
AcDbLine
 10
368.5
 20
54.80000000000018
 30
0.0
 11
368.5
 21
54.0
 31
0.0
  0
LINE
  5
46F
330
11084
100
AcDbEntity
  8
DETAIL
  6
Continuous
 62
     5
100
AcDbLine
 10
333.1999999999989
 20
3.199999999999818
 30
0.0
 11
333.1999999999989
 21
50.30000000000018
 31
0.0
  0
LINE
  5
470
330
11084
100
AcDbEntity
  8
DETAIL
  6
Continuous
 62
     5
100
AcDbLine
 10
328.9142139999985
 20
58.5
 30
0.0
 11
328.9142139999985
 21
1370.0
 31
0.0
  0
LINE
  5
471
330
11084
100
AcDbEntity
  8
DETAIL
  6
Continuous
 62
     5
100
AcDbLine
 10
300.0
 20
53.5
 30
0.0
 11
300.0
 21
50.30000000000018
 31
0.0
  0
LINE
  5
472
330
11084
100
AcDbEntity
  8
DETAIL
  6
Continuous
 62
     5
100
AcDbLine
 10
-381.0
 20
547.5000000000005
 30
0.0
 11
-376.5
 21
547.5000000000005
 31
0.0
  0
LINE
  5
473
330
11084
100
AcDbEntity
  8
DETAIL
  6
Continuous
 62
     5
100
AcDbLine
 10
173.5
 20
1370.0
 30
0.0
 11
173.5
 21
1289.5
 31
0.0
  0
LINE
  5
474
330
11084
100
AcDbEntity
  8
DETAIL
  6
Continuous
 62
     5
100
AcDbLine
 10
173.5
 20
61.5
 30
0.0
 11
173.5
 21
83.49999999999999
 31
0.0
  0
LINE
  5
475
330
11084
100
AcDbEntity
  8
DETAIL
  6
Continuous
 62
     5
100
AcDbLine
 10
-381.0
 20
632.5
 30
0.0
 11
-376.5
 21
632.5
 31
0.0
  0
LINE
  5
476
330
11084
100
AcDbEntity
  8
DETAIL
  6
Continuous
 62
     5
100
AcDbLine
 10
-300.0
 20
53.5
 30
0.0
 11
-300.0
 21
50.30000000000018
 31
0.0
  0
LINE
  5
477
330
11084
100
AcDbEntity
  8
DETAIL
  6
Continuous
 62
     5
100
AcDbLine
 10
-308.5
 20
1370.0
 30
0.0
 11
-308.5
 21
1289.5
 31
0.0
  0
LINE
  5
478
330
11084
100
AcDbEntity
  8
DETAIL
  6
Continuous
 62
     5
100
AcDbLine
 10
-308.5
 20
63.5
 30
0.0
 11
-308.5
 21
83.49999999999999
 31
0.0
  0
LINE
  5
479
330
11084
100
AcDbEntity
  8
DETAIL
  6
Continuous
 62
     5
100
AcDbLine
 10
-328.9970560000002
 20
58.5
 30
0.0
 11
-328.9970560000002
 21
1370.0
 31
0.0
  0
LINE
  5
47A
330
11084
100
AcDbEntity
  8
DETAIL
  6
Continuous
 62
     5
100
AcDbLine
 10
-333.2000000000008
 20
50.30000000000018
 30
0.0
 11
-333.2000000000008
 21
3.199999999999818
 31
0.0
  0
LINE
  5
47B
330
11084
100
AcDbEntity
  8
DETAIL
  6
Continuous
 62
     5
100
AcDbLine
 10
-376.5
 20
58.5
 30
0.0
 11
-376.5
 21
1370.0
 31
0.0
  0
LINE
  5
47C
330
11084
100
AcDbEntity
  8
DETAIL
  6
Continuous
 62
     5
100
AcDbLine
 10
-379.0
 20
1370.0
 30
0.0
 11
-379.0
 21
1406.0
 31
0.0
  0
LINE
  5
47D
330
11084
100
AcDbEntity
  8
DETAIL
  6
Continuous
 62
     5
100
AcDbLine
 10
-381.0
 20
632.5
 30
0.0
 11
-381.0
 21
547.5000000000005
 31
0.0
  0
LINE
  5
47E
330
11084
100
AcDbEntity
  8
DETAIL
  6
Continuous
 62
     5
100
AcDbLine
 10
-381.0
 20
166.5
 30
0.0
 11
-381.0
 21
81.5
 31
0.0
  0
LINE
  5
47F
330
11084
100
AcDbEntity
  8
DETAIL
  6
Continuous
 62
     5
100
AcDbLine
 10
-307.3000000000011
 20
1289.5
 30
0.0
 11
172.5
 21
1289.5
 31
0.0
  0
LINE
  5
480
330
11084
100
AcDbEntity
  8
DETAIL
  6
Continuous
 62
     5
100
AcDbLine
 10
172.5
 20
1289.5
 30
0.0
 11
173.5
 21
1289.5
 31
0.0
  0
LINE
  5
481
330
11084
100
AcDbEntity
  8
DETAIL
  6
Continuous
 62
     5
100
AcDbLine
 10
-307.3000000000011
 20
1289.5
 30
0.0
 11
-308.5
 21
1289.5
 31
0.0
  0
LINE
  5
482
330
11084
100
AcDbEntity
  8
DETAIL
  6
Continuous
 62
     5
100
AcDbLine
 10
379.0
 20
1370.0
 30
0.0
 11
-379.0
 21
1370.0
 31
0.0
  0
LINE
  5
483
330
11084
100
AcDbEntity
  8
DETAIL
  6
Continuous
 62
     5
100
AcDbLine
 10
-286.2472230000003
 20
47.0
 30
0.0
 11
-289.1339740000003
 21
52.0
 31
0.0
  0
LINE
  5
484
330
11084
100
AcDbEntity
  8
DETAIL
  6
Continuous
 62
     5
100
AcDbLine
 10
-375.0
 20
1410.0
 30
0.0
 11
375.0
 21
1410.0
 31
0.0
  0
LINE
  5
485
330
11084
100
AcDbEntity
  8
DETAIL
  6
Continuous
 62
     5
100
AcDbLine
 10
-374.7708680000014
 20
1410.0
 30
0.0
 11
-373.9487350000018
 21
1410.042356
 31
0.0
  0
LINE
  5
486
330
11084
100
AcDbEntity
  8
DETAIL
  6
Continuous
 62
     5
100
AcDbLine
 10
-373.9487350000018
 20
1410.042356
 30
0.0
 11
-373.1345140000012
 21
1410.169142
 31
0.0
  0
LINE
  5
487
330
11084
100
AcDbEntity
  8
DETAIL
  6
Continuous
 62
     5
100
AcDbLine
 10
-373.1345140000012
 20
1410.169142
 30
0.0
 11
-372.3376540000008
 21
1410.379011
 31
0.0
  0
LINE
  5
488
330
11084
100
AcDbEntity
  8
DETAIL
  6
Continuous
 62
     5
100
AcDbLine
 10
-372.3376540000008
 20
1410.379011
 30
0.0
 11
-371.5666100000015
 21
1410.669739
 31
0.0
  0
LINE
  5
489
330
11084
100
AcDbEntity
  8
DETAIL
  6
Continuous
 62
     5
100
AcDbLine
 10
-371.5666100000015
 20
1410.669739
 30
0.0
 11
-370.829563000001
 21
1411.038239
 31
0.0
  0
LINE
  5
48A
330
11084
100
AcDbEntity
  8
DETAIL
  6
Continuous
 62
     5
100
AcDbLine
 10
-370.829563000001
 20
1411.038239
 30
0.0
 11
-370.1343320000014
 21
1411.480603
 31
0.0
  0
LINE
  5
48B
330
11084
100
AcDbEntity
  8
DETAIL
  6
Continuous
 62
     5
100
AcDbLine
 10
-370.1343320000014
 20
1411.480603
 30
0.0
 11
-369.4882950000009
 21
1411.992136
 31
0.0
  0
LINE
  5
48C
330
11084
100
AcDbEntity
  8
DETAIL
  6
Continuous
 62
     5
100
AcDbLine
 10
-369.4882950000009
 20
1411.992136
 30
0.0
 11
-368.898304
 21
1412.567412
 31
0.0
  0
LINE
  5
48D
330
11084
100
AcDbEntity
  8
DETAIL
  6
Continuous
 62
     5
100
AcDbLine
 10
-368.898304
 20
1412.567412
 30
0.0
 11
-368.370621
 21
1413.200328
 31
0.0
  0
LINE
  5
48E
330
11084
100
AcDbEntity
  8
DETAIL
  6
Continuous
 62
     5
100
AcDbLine
 10
-368.370621
 20
1413.200328
 30
0.0
 11
-367.910844
 21
1413.884166
 31
0.0
  0
LINE
  5
48F
330
11084
100
AcDbEntity
  8
DETAIL
  6
Continuous
 62
     5
100
AcDbLine
 10
-367.910844
 20
1413.884166
 30
0.0
 11
-367.5238500000014
 21
1414.611674
 31
0.0
  0
LINE
  5
490
330
11084
100
AcDbEntity
  8
DETAIL
  6
Continuous
 62
     5
100
AcDbLine
 10
-367.5238500000014
 20
1414.611674
 30
0.0
 11
-367.2137460000012
 21
1415.375131
 31
0.0
  0
LINE
  5
491
330
11084
100
AcDbEntity
  8
DETAIL
  6
Continuous
 62
     5
100
AcDbLine
 10
-367.2137460000012
 20
1415.375131
 30
0.0
 11
-366.983822
 21
1416.166438
 31
0.0
  0
LINE
  5
492
330
11084
100
AcDbEntity
  8
DETAIL
  6
Continuous
 62
     5
100
AcDbLine
 10
-366.983822
 20
1416.166438
 30
0.0
 11
-366.8365180000001
 21
1416.977198
 31
0.0
  0
LINE
  5
493
330
11084
100
AcDbEntity
  8
DETAIL
  6
Continuous
 62
     5
100
AcDbLine
 10
-366.8365180000001
 20
1416.977198
 30
0.0
 11
-366.7784800000009
 21
1417.651048
 31
0.0
  0
ARC
  5
494
330
11084
100
AcDbEntity
  8
DETAIL
  6
Continuous
 62
     5
100
AcDbCircle
 10
366.5
 20
63.99525600000015
 30
0.0
 40
8.0
100
AcDbArc
 50
273.7313970000428
 51
316.5470210000157
  0
ARC
  5
495
330
11084
100
AcDbEntity
  8
DETAIL
  6
Continuous
 62
     5
100
AcDbCircle
 10
297.8867519999985
 20
48.5
 30
0.0
 40
5.0
100
AcDbArc
 50
90.0
 51
149.9999999999671
  0
ARC
  5
496
330
11084
100
AcDbEntity
  8
DETAIL
  6
Continuous
 62
     5
100
AcDbCircle
 10
330.0
 20
50.30000000000018
 30
0.0
 40
3.2
100
AcDbArc
 50
0.0
 51
90.0
  0
ARC
  5
497
330
11084
100
AcDbEntity
  8
DETAIL
  6
Continuous
 62
     5
100
AcDbCircle
 10
333.1999999999989
 20
3.199999999999818
 30
0.0
 40
3.2
100
AcDbArc
 50
180.0
 51
270.0
  0
ARC
  5
498
330
11084
100
AcDbEntity
  8
DETAIL
  6
Continuous
 62
     5
100
AcDbCircle
 10
375.2782403131877
 20
56.74213384466685
 30
0.0
 40
1.245254790881592
100
AcDbArc
 50
280.2581655777089
 51
348.8523730808545
  0
ARC
  5
499
330
11084
100
AcDbEntity
  8
DETAIL
  6
Continuous
 62
     5
100
AcDbCircle
 10
374.5
 20
55.0
 30
0.0
 40
1.0
100
AcDbArc
 50
270.0
 51
0.0
  0
ARC
  5
49A
330
11084
100
AcDbEntity
  8
DETAIL
  6
Continuous
 62
     5
100
AcDbCircle
 10
374.5
 20
55.0
 30
0.0
 40
0.2
100
AcDbArc
 50
270.0
 51
0.0
  0
ARC
  5
49B
330
11084
100
AcDbEntity
  8
DETAIL
  6
Continuous
 62
     5
100
AcDbCircle
 10
287.4944469999992
 20
50.5
 30
0.0
 40
5.0
100
AcDbArc
 50
270.0
 51
329.9999999999672
  0
ARC
  5
49C
330
11084
100
AcDbEntity
  8
DETAIL
  6
Continuous
 62
     5
100
AcDbCircle
 10
176.5
 20
61.5
 30
0.0
 40
3.0
100
AcDbArc
 50
180.0
 51
270.0
  0
ARC
  5
49D
330
11084
100
AcDbEntity
  8
DETAIL
  6
Continuous
 62
     5
100
AcDbCircle
 10
375.0
 20
1406.0
 30
0.0
 40
4.0
100
AcDbArc
 50
0.0
 51
90.0
  0
ARC
  5
49E
330
11084
100
AcDbEntity
  8
DETAIL
  6
Continuous
 62
     5
100
AcDbCircle
 10
-283.649147
 20
48.5
 30
0.0
 40
3.0
100
AcDbArc
 50
210.0000000000329
 51
270.0
  0
ARC
  5
49F
330
11084
100
AcDbEntity
  8
DETAIL
  6
Continuous
 62
     5
100
AcDbCircle
 10
-291.7320500000005
 20
50.5
 30
0.0
 40
3.0
100
AcDbArc
 50
30.00000000003288
 51
90.0
  0
ARC
  5
4A0
330
11084
100
AcDbEntity
  8
DETAIL
  6
Continuous
 62
     5
100
AcDbCircle
 10
-366.5
 20
63.99525600000015
 30
0.0
 40
8.0
100
AcDbArc
 50
223.4529789999843
 51
266.2686029999572
  0
ARC
  5
4A1
330
11084
100
AcDbEntity
  8
DETAIL
  6
Continuous
 62
     5
100
AcDbCircle
 10
-313.5
 20
63.5
 30
0.0
 40
5.0
100
AcDbArc
 50
270.0
 51
0.0
  0
ARC
  5
4A2
330
11084
100
AcDbEntity
  8
DETAIL
  6
Continuous
 62
     5
100
AcDbCircle
 10
-330.0
 20
50.30000000000018
 30
0.0
 40
3.2
100
AcDbArc
 50
90.0
 51
180.0
  0
ARC
  5
4A3
330
11084
100
AcDbEntity
  8
DETAIL
  6
Continuous
 62
     5
100
AcDbCircle
 10
-333.2000000000008
 20
3.199999999999818
 30
0.0
 40
3.2
100
AcDbArc
 50
270.0
 51
0.0
  0
ARC
  5
4A4
330
11084
100
AcDbEntity
  8
DETAIL
  6
Continuous
 62
     5
100
AcDbCircle
 10
-375.0
 20
1406.0
 30
0.0
 40
4.0
100
AcDbArc
 50
90.0
 51
180.0
  0
LINE
  5
109AB
330
11084
100
AcDbEntity
  8
DETAIL
  6
Continuous
 62
     5
100
AcDbLine
 10
366.8201949999984
 20
1416.695622
 30
0.0
 11
361.0
 21
1550.0
 31
0.0
  0
LINE
  5
109AC
330
11084
100
AcDbEntity
  8
DETAIL
  6
Continuous
 62
     5
100
AcDbLine
 10
-366.7784390000015
 20
1417.651983
 30
0.0
 11
-361.0
 21
1550.0
 31
0.0
  0
LINE
  5
109B0
330
11084
100
AcDbEntity
  8
DETAIL
  6
Continuous
 62
     5
100
AcDbLine
 10
-361.0
 20
1550.0
 30
0.0
 11
361.0
 21
1550.0
 31
0.0
  0
LINE
  5
109B1
330
11084
100
AcDbEntity
  8
DETAIL
  6
Continuous
 62
     5
100
AcDbLine
 10
380.0
 20
3.200000000000271
 30
0.0
 11
-380.0
 21
3.199999999999818
 31
0.0
  0
LINE
  5
109B2
330
11084
100
AcDbEntity
  8
DETAIL
  6
Continuous
 62
     5
100
AcDbLine
 10
380.0
 20
3.200000000000271
 30
0.0
 11
380.0
 21
0.0
 31
0.0
  0
LINE
  5
109B3
330
11084
100
AcDbEntity
  8
DETAIL
  6
Continuous
 62
     5
100
AcDbLine
 10
376.5
 20
56.50137927691368
 30
0.0
 11
376.5
 21
1370.0
 31
0.0
  0
LINE
  5
109B4
330
11084
100
AcDbEntity
  8
DETAIL
  6
Continuous
 62
     5
100
AcDbLine
 10
343.0
 20
3.199999999999818
 30
0.0
 11
343.0
 21
0.0
 31
0.0
  0
LINE
  5
109B5
330
11084
100
AcDbEntity
  8
DETAIL
  6
Continuous
 62
     5
100
AcDbLine
 10
-300.0
 20
8.199999999999818
 30
0.0
 11
-305.0
 21
3.199999999999818
 31
0.0
  0
LINE
  5
109B6
330
11084
100
AcDbEntity
  8
DETAIL
  6
Continuous
 62
     5
100
AcDbLine
 10
300.0
 20
8.199999999999818
 30
0.0
 11
300.0
 21
50.30000000000018
 31
0.0
  0
LINE
  5
109B7
330
11084
100
AcDbEntity
  8
DETAIL
  6
Continuous
 62
     5
100
AcDbLine
 10
-300.0
 20
50.30000000000018
 30
0.0
 11
-300.0
 21
8.199999999999818
 31
0.0
  0
LINE
  5
109B8
330
11084
100
AcDbEntity
  8
DETAIL
  6
Continuous
 62
     5
100
AcDbLine
 10
-343.0
 20
3.199999999999818
 30
0.0
 11
-343.0
 21
0.0
 31
0.0
  0
LINE
  5
109B9
330
11084
100
AcDbEntity
  8
DETAIL
  6
Continuous
 62
     5
100
AcDbLine
 10
305.0
 20
3.199999999999818
 30
0.0
 11
300.0
 21
8.199999999999818
 31
0.0
  0
LINE
  5
109BA
330
11084
100
AcDbEntity
  8
DETAIL
  6
Continuous
 62
     5
100
AcDbLine
 10
-380.0
 20
3.199999999999818
 30
0.0
 11
-380.0
 21
0.0
 31
0.0
  0
LINE
  5
109BE
330
11084
100
AcDbEntity
  8
SIZE
  6
Continuous
 62
    30
100
AcDbLine
 10
-380.0
 20
-20.0
 30
0.0
 11
-380.0000000000002
 21
-661.1589548489555
 31
0.0
  0
LINE
  5
109BF
330
11084
100
AcDbEntity
  8
SIZE
  6
Continuous
 62
    30
100
AcDbLine
 10
380.0
 20
-20.0
 30
0.0
 11
379.9999999999998
 21
-661.1589548489555
 31
0.0
  0
LINE
  5
109C0
330
11084
100
AcDbEntity
  8
SIZE
  6
Continuous
 62
    30
100
AcDbLine
 10
-380.0000000000002
 20
-641.1589548489555
 30
0.0
 11
379.9999999999998
 21
-641.1589548489555
 31
0.0
  0
CIRCLE
  5
109C1
330
11084
100
AcDbEntity
  8
SIZE
  6
Continuous
 62
    30
100
AcDbCircle
 10
-380.0000000000002
 20
-641.1589548489555
 30
0.0
 40
7.5
  0
CIRCLE
  5
109C2
330
11084
100
AcDbEntity
  8
SIZE
  6
Continuous
 62
    30
100
AcDbCircle
 10
379.9999999999998
 20
-641.1589548489555
 30
0.0
 40
7.5
  0
TEXT
  5
109C3
330
11084
100
AcDbEntity
  8
SIZE
  6
Continuous
 62
    30
100
AcDbText
 10
-69.42857142857142
 20
-621.1589548489556
 30
0.0
 40
60.0
  1
760
 41
0.9
 72
     1
 11
0.0
 21
-621.1589548489556
 31
0.0
100
AcDbText
  0
POINT
  5
109C5
330
11084
100
AcDbEntity
  8
DEFPOINTS
  6
Continuous
 62
     7
100
AcDbPoint
 10
380.0
 20
0.0
 30
0.0
  0
POINT
  5
109C6
330
11084
100
AcDbEntity
  8
DEFPOINTS
  6
Continuous
 62
     7
100
AcDbPoint
 10
379.9999999999998
 20
-641.1589548489555
 30
0.0
  0
LINE
  5
109C7
330
11084
100
AcDbEntity
  8
SIZE
  6
Continuous
 62
    30
100
AcDbLine
 10
329.9999999999982
 20
-16.80000000000018
 30
0.0
 11
329.9999999999982
 21
-396.3326780321751
 31
0.0
  0
LINE
  5
109C8
330
11084
100
AcDbEntity
  8
SIZE
  6
Continuous
 62
    30
100
AcDbLine
 10
300.0
 20
-11.80000000000018
 30
0.0
 11
300.0
 21
-396.3326780321751
 31
0.0
  0
LINE
  5
109C9
330
11084
100
AcDbEntity
  8
SIZE
  6
Continuous
 62
    30
100
AcDbLine
 10
329.9999999999982
 20
-376.3326780321751
 30
0.0
 11
359.9999999999982
 21
-376.3326780321751
 31
0.0
  0
LINE
  5
109CA
330
11084
100
AcDbEntity
  8
SIZE
  6
Continuous
 62
    30
100
AcDbLine
 10
300.0
 20
-376.3326780321751
 30
0.0
 11
112.5714285714286
 21
-376.3326780321751
 31
0.0
  0
LINE
  5
109CB
330
11084
100
AcDbEntity
  8
SIZE
  6
Continuous
 62
    30
100
AcDbLine
 10
329.9999999999982
 20
-376.3326780321751
 30
0.0
 11
300.0
 21
-376.3326780321751
 31
0.0
  0
CIRCLE
  5
109CC
330
11084
100
AcDbEntity
  8
SIZE
  6
Continuous
 62
    30
100
AcDbCircle
 10
329.9999999999982
 20
-376.3326780321751
 30
0.0
 40
7.5
  0
CIRCLE
  5
109CD
330
11084
100
AcDbEntity
  8
SIZE
  6
Continuous
 62
    30
100
AcDbCircle
 10
300.0
 20
-376.3326780321751
 30
0.0
 40
7.5
  0
TEXT
  5
109CE
330
11084
100
AcDbEntity
  8
SIZE
  6
Continuous
 62
    30
100
AcDbText
 10
132.5714285714286
 20
-356.332678032175
 30
0.0
 40
60.0
  1
30
 41
0.9
 72
     1
 11
176.2857142857143
 21
-356.332678032175
 31
0.0
100
AcDbText
  0
POINT
  5
109CF
330
11084
100
AcDbEntity
  8
DEFPOINTS
  6
Continuous
 62
     7
100
AcDbPoint
 10
329.9999999999982
 20
3.199999999999818
 30
0.0
  0
POINT
  5
109D0
330
11084
100
AcDbEntity
  8
DEFPOINTS
  6
Continuous
 62
     7
100
AcDbPoint
 10
300.0
 20
8.199999999999818
 30
0.0
  0
POINT
  5
109D1
330
11084
100
AcDbEntity
  8
DEFPOINTS
  6
Continuous
 62
     7
100
AcDbPoint
 10
300.0
 20
-376.3326780321751
 30
0.0
  0
LINE
  5
109D2
330
11084
100
AcDbEntity
  8
SIZE
  6
Continuous
 62
    30
100
AcDbLine
 10
-381.0
 20
186.5
 30
0.0
 11
-381.0
 21
260.0266193152256
 31
0.0
  0
LINE
  5
109D3
330
11084
100
AcDbEntity
  8
SIZE
  6
Continuous
 62
    30
100
AcDbLine
 10
-376.5000000000089
 20
186.4999999999993
 30
0.0
 11
-376.5000000000089
 21
260.0266193152256
 31
0.0
  0
LINE
  5
109D4
330
11084
100
AcDbEntity
  8
SIZE
  6
Continuous
 62
    30
100
AcDbLine
 10
-376.5000000000089
 20
240.0266193152256
 30
0.0
 11
-346.5000000000089
 21
240.0266193152256
 31
0.0
  0
LINE
  5
109D5
330
11084
100
AcDbEntity
  8
SIZE
  6
Continuous
 62
    30
100
AcDbLine
 10
-381.0
 20
240.0266193152256
 30
0.0
 11
-594.1628571428582
 21
240.0266193152256
 31
0.0
  0
LINE
  5
109D6
330
11084
100
AcDbEntity
  8
SIZE
  6
Continuous
 62
    30
100
AcDbLine
 10
-376.5000000000089
 20
240.0266193152256
 30
0.0
 11
-381.0
 21
240.0266193152256
 31
0.0
  0
CIRCLE
  5
109D7
330
11084
100
AcDbEntity
  8
SIZE
  6
Continuous
 62
    30
100
AcDbCircle
 10
-376.5000000000089
 20
240.0266193152256
 30
0.0
 40
7.5
  0
CIRCLE
  5
109D8
330
11084
100
AcDbEntity
  8
SIZE
  6
Continuous
 62
    30
100
AcDbCircle
 10
-381.0
 20
240.0266193152256
 30
0.0
 40
7.5
  0
TEXT
  5
109D9
330
11084
100
AcDbEntity
  8
SIZE
  6
Continuous
 62
    30
100
AcDbText
 10
-574.1628571428583
 20
260.0266193152256
 30
0.0
 40
60.0
  1
4.5
 41
0.9
 72
     1
 11
-517.5914285714298
 21
260.0266193152256
 31
0.0
100
AcDbText
  0
POINT
  5
109DA
330
11084
100
AcDbEntity
  8
DEFPOINTS
  6
Continuous
 62
     7
100
AcDbPoint
 10
-381.0
 20
166.5
 30
0.0
  0
POINT
  5
109DB
330
11084
100
AcDbEntity
  8
DEFPOINTS
  6
Continuous
 62
     7
100
AcDbPoint
 10
-376.5000000000089
 20
166.4999999999993
 30
0.0
  0
POINT
  5
109DC
330
11084
100
AcDbEntity
  8
DEFPOINTS
  6
Continuous
 62
     7
100
AcDbPoint
 10
-376.5000000000089
 20
240.0266193152256
 30
0.0
  0
LINE
  5
109DF
330
11084
100
AcDbEntity
  8
SIZE
  6
Continuous
 62
    30
100
AcDbLine
 10
-417.1896366934688
 20
124.0
 30
0.0
 11
-757.7915832357795
 21
124.0000000000001
 31
0.0
  0
LINE
  5
109E0
330
11084
100
AcDbEntity
  8
SIZE
  6
Continuous
 62
    30
100
AcDbLine
 10
-419.7864685616694
 20
590.0
 30
0.0
 11
-757.7915832357795
 21
590.0
 31
0.0
  0
LINE
  5
109E1
330
11084
100
AcDbEntity
  8
SIZE
  6
Continuous
 62
    30
100
AcDbLine
 10
-737.7915832357796
 20
124.0000000000001
 30
0.0
 11
-737.7915832357796
 21
590.0
 31
0.0
  0
CIRCLE
  5
109E2
330
11084
100
AcDbEntity
  8
SIZE
  6
Continuous
 62
    30
100
AcDbCircle
 10
-737.7915832357796
 20
124.0000000000001
 30
0.0
 40
7.5
  0
CIRCLE
  5
109E3
330
11084
100
AcDbEntity
  8
SIZE
  6
Continuous
 62
    30
100
AcDbCircle
 10
-737.7915832357796
 20
590.0
 30
0.0
 40
7.5
  0
TEXT
  5
109E4
330
11084
100
AcDbEntity
  8
SIZE
  6
Continuous
 62
    30
100
AcDbText
 10
-757.7915832357795
 20
288.8571428571447
 30
0.0
 40
60.0
  1
466
 50
90.0
 41
0.9
 72
     1
 11
-757.7915832357795
 21
357.0000000000018
 31
0.0
100
AcDbText
  0
POINT
  5
109E7
330
11084
100
AcDbEntity
  8
DEFPOINTS
  6
Continuous
 62
     7
100
AcDbPoint
 10
-737.7915832357796
 20
590.0
 30
0.0
  0
LINE
  5
109E8
330
11084
100
AcDbEntity
  8
SIZE
  6
Continuous
 62
    30
100
AcDbLine
 10
-417.1896366934688
 20
124.0
 30
0.0
 11
-757.7915832357795
 21
124.0000000000001
 31
0.0
  0
LINE
  5
109E9
330
11084
100
AcDbEntity
  8
SIZE
  6
Continuous
 62
    30
100
AcDbLine
 10
-400.0
 20
0.0000000000000057
 30
0.0
 11
-757.7915832357795
 21
0.000000000000107
 31
0.0
  0
LINE
  5
109EA
330
11084
100
AcDbEntity
  8
SIZE
  6
Continuous
 62
    30
100
AcDbLine
 10
-737.7915832357796
 20
124.0000000000001
 30
0.0
 11
-737.7915832357796
 21
0.0000000000001014
 31
0.0
  0
LINE
  5
109EB
330
11084
100
AcDbEntity
  8
SIZE
  6
Continuous
 62
    30
100
AcDbLine
 10
-737.7915832357796
 20
0.0000000000001014
 30
0.0
 11
-737.7915832357796
 21
-201.142857142857
 31
0.0
  0
CIRCLE
  5
109EC
330
11084
100
AcDbEntity
  8
SIZE
  6
Continuous
 62
    30
100
AcDbCircle
 10
-737.7915832357796
 20
124.0000000000001
 30
0.0
 40
7.5
  0
CIRCLE
  5
109ED
330
11084
100
AcDbEntity
  8
SIZE
  6
Continuous
 62
    30
100
AcDbCircle
 10
-737.7915832357796
 20
0.0000000000001014
 30
0.0
 40
7.5
  0
TEXT
  5
109EE
330
11084
100
AcDbEntity
  8
SIZE
  6
Continuous
 62
    30
100
AcDbText
 10
-757.7915832357795
 20
-181.1428571428571
 30
0.0
 40
60.0
  1
124
 50
90.0
 41
0.9
 72
     1
 11
-757.7915832357795
 21
-115.5714285714286
 31
0.0
100
AcDbText
  0
POINT
  5
109F1
330
11084
100
AcDbEntity
  8
DEFPOINTS
  6
Continuous
 62
     7
100
AcDbPoint
 10
-737.7915832357796
 20
0.0000000000001014
 30
0.0
  0
LINE
  5
109F2
330
11084
100
AcDbEntity
  8
SIZE
  6
Continuous
 62
    30
100
AcDbLine
 10
-99.99996800000008
 20
1650.0
 30
0.0
 11
-885.7010934415628
 21
1650.0
 31
0.0
  0
LINE
  5
109F3
330
11084
100
AcDbEntity
  8
SIZE
  6
Continuous
 62
    30
100
AcDbLine
 10
-395.0
 20
1410.0
 30
0.0
 11
-885.7010934415628
 21
1410.0
 31
0.0
  0
LINE
  5
109F4
330
11084
100
AcDbEntity
  8
SIZE
  6
Continuous
 62
    30
100
AcDbLine
 10
-865.7010934415625
 20
1650.0
 30
0.0
 11
-865.7010934415625
 21
1410.0
 31
0.0
  0
CIRCLE
  5
109F5
330
11084
100
AcDbEntity
  8
SIZE
  6
Continuous
 62
    30
100
AcDbCircle
 10
-865.7010934415625
 20
1650.0
 30
0.0
 40
7.5
  0
CIRCLE
  5
109F6
330
11084
100
AcDbEntity
  8
SIZE
  6
Continuous
 62
    30
100
AcDbCircle
 10
-865.7010934415625
 20
1410.0
 30
0.0
 40
7.5
  0
TEXT
  5
109F7
330
11084
100
AcDbEntity
  8
SIZE
  6
Continuous
 62
    30
100
AcDbText
 10
-885.7010934415628
 20
1460.571428571429
 30
0.0
 40
60.0
  1
240
 50
90.0
 41
0.9
 72
     1
 11
-885.7010934415628
 21
1530.0
 31
0.0
100
AcDbText
  0
POINT
  5
109F8
330
11084
100
AcDbEntity
  8
DEFPOINTS
  6
Continuous
 62
     7
100
AcDbPoint
 10
-79.99996800000008
 20
1650.0
 30
0.0
  0
POINT
  5
109F9
330
11084
100
AcDbEntity
  8
DEFPOINTS
  6
Continuous
 62
     7
100
AcDbPoint
 10
-375.0
 20
1410.0
 30
0.0
  0
POINT
  5
109FA
330
11084
100
AcDbEntity
  8
DEFPOINTS
  6
Continuous
 62
     7
100
AcDbPoint
 10
-865.7010934415625
 20
1410.0
 30
0.0
  0
LINE
  5
109FB
330
11084
100
AcDbEntity
  8
SIZE
  6
Continuous
 62
    30
100
AcDbLine
 10
-395.0
 20
1410.0
 30
0.0
 11
-885.7010934415622
 21
1410.0
 31
0.0
  0
LINE
  5
109FC
330
11084
100
AcDbEntity
  8
SIZE
  6
Continuous
 62
    30
100
AcDbLine
 10
-400.0
 20
0.0000000000000057
 30
0.0
 11
-885.7010934415628
 21
0.0000000000001433
 31
0.0
  0
LINE
  5
109FD
330
11084
100
AcDbEntity
  8
SIZE
  6
Continuous
 62
    30
100
AcDbLine
 10
-865.7010934415625
 20
1410.0
 30
0.0
 11
-865.7010934415625
 21
0.0000000000001376
 31
0.0
  0
CIRCLE
  5
109FE
330
11084
100
AcDbEntity
  8
SIZE
  6
Continuous
 62
    30
100
AcDbCircle
 10
-865.7010934415625
 20
1410.0
 30
0.0
 40
7.5
  0
CIRCLE
  5
109FF
330
11084
100
AcDbEntity
  8
SIZE
  6
Continuous
 62
    30
100
AcDbCircle
 10
-865.7010934415625
 20
0.0000000000001376
 30
0.0
 40
7.5
  0
TEXT
  5
10A00
330
11084
100
AcDbEntity
  8
SIZE
  6
Continuous
 62
    30
100
AcDbText
 10
-885.7010934415628
 20
620.1428571428585
 30
0.0
 40
60.0
  1
1410
 50
90.0
 41
0.9
 72
     1
 11
-885.7010934415628
 21
705.0000000000014
 31
0.0
100
AcDbText
  0
POINT
  5
10A01
330
11084
100
AcDbEntity
  8
DEFPOINTS
  6
Continuous
 62
     7
100
AcDbPoint
 10
-375.0
 20
1410.0
 30
0.0
  0
POINT
  5
10A03
330
11084
100
AcDbEntity
  8
DEFPOINTS
  6
Continuous
 62
     7
100
AcDbPoint
 10
-865.7010934415625
 20
0.0000000000001376
 30
0.0
  0
LINE
  5
10A3E
330
11084
100
AcDbEntity
  8
OUTLINE
  6
Continuous
 62
     3
100
AcDbLine
 10
366.8201949999984
 20
1416.695622
 30
0.0
 11
361.0
 21
1550.0
 31
0.0
  0
ARC
  5
10A3F
330
11084
100
AcDbEntity
  8
OUTLINE
  6
Continuous
 62
     3
100
AcDbCircle
 10
375.0
 20
1406.0
 30
0.0
 40
4.0
100
AcDbArc
 50
0.0
 51
90.0
  0
LINE
  5
10A40
330
11084
100
AcDbEntity
  8
OUTLINE
  6
Continuous
 62
     3
100
AcDbLine
 10
-375.0
 20
1410.0
 30
0.0
 11
-374.7708680000014
 21
1410.0
 31
0.0
  0
LINE
  5
10A42
330
11084
100
AcDbEntity
  8
OUTLINE
  6
Continuous
 62
     3
100
AcDbLine
 10
373.0416919999989
 20
1410.042688
 30
0.0
 11
373.8135769999989
 21
1410.0
 31
0.0
  0
LINE
  5
10A43
330
11084
100
AcDbEntity
  8
OUTLINE
  6
Continuous
 62
     3
100
AcDbLine
 10
372.2785019999991
 20
1410.170392
 30
0.0
 11
373.0416919999989
 21
1410.042688
 31
0.0
  0
LINE
  5
10A44
330
11084
100
AcDbEntity
  8
OUTLINE
  6
Continuous
 62
     3
100
AcDbLine
 10
371.5340699999997
 20
1410.381552
 30
0.0
 11
372.2785019999991
 21
1410.170392
 31
0.0
  0
LINE
  5
10A45
330
11084
100
AcDbEntity
  8
OUTLINE
  6
Continuous
 62
     3
100
AcDbLine
 10
370.8174929999985
 20
1410.673589
 30
0.0
 11
371.5340699999997
 21
1410.381552
 31
0.0
  0
LINE
  5
10A46
330
11084
100
AcDbEntity
  8
OUTLINE
  6
Continuous
 62
     3
100
AcDbLine
 10
370.1375269999993
 20
1411.042932
 30
0.0
 11
370.8174929999985
 21
1410.673589
 31
0.0
  0
LINE
  5
10A47
330
11084
100
AcDbEntity
  8
OUTLINE
  6
Continuous
 62
     3
100
AcDbLine
 10
369.5024819999999
 20
1411.485069
 30
0.0
 11
370.1375269999993
 21
1411.042932
 31
0.0
  0
LINE
  5
10A48
330
11084
100
AcDbEntity
  8
OUTLINE
  6
Continuous
 62
     3
100
AcDbLine
 10
368.9201169999997
 20
1411.994597
 30
0.0
 11
369.5024819999999
 21
1411.485069
 31
0.0
  0
LINE
  5
10A49
330
11084
100
AcDbEntity
  8
OUTLINE
  6
Continuous
 62
     3
100
AcDbLine
 10
368.3975489999994
 20
1412.56529
 30
0.0
 11
368.9201169999997
 21
1411.994597
 31
0.0
  0
LINE
  5
10A4A
330
11084
100
AcDbEntity
  8
OUTLINE
  6
Continuous
 62
     3
100
AcDbLine
 10
367.9411629999994
 20
1413.190174
 30
0.0
 11
368.3975489999994
 21
1412.56529
 31
0.0
  0
LINE
  5
10A4B
330
11084
100
AcDbEntity
  8
OUTLINE
  6
Continuous
 62
     3
100
AcDbLine
 10
367.5565369999986
 20
1413.861613
 30
0.0
 11
367.9411629999994
 21
1413.190174
 31
0.0
  0
LINE
  5
10A4C
330
11084
100
AcDbEntity
  8
OUTLINE
  6
Continuous
 62
     3
100
AcDbLine
 10
367.2483699999994
 20
1414.571403
 30
0.0
 11
367.5565369999986
 21
1413.861613
 31
0.0
  0
LINE
  5
10A4D
330
11084
100
AcDbEntity
  8
OUTLINE
  6
Continuous
 62
     3
100
AcDbLine
 10
367.0204289999984
 20
1415.310869
 30
0.0
 11
367.2483699999994
 21
1414.571403
 31
0.0
  0
LINE
  5
10A4E
330
11084
100
AcDbEntity
  8
OUTLINE
  6
Continuous
 62
     3
100
AcDbLine
 10
366.8754979999994
 20
1416.070976
 30
0.0
 11
367.0204289999984
 21
1415.310869
 31
0.0
  0
LINE
  5
10A4F
330
11084
100
AcDbEntity
  8
OUTLINE
  6
Continuous
 62
     3
100
AcDbLine
 10
366.8202369999999
 20
1416.694666999999
 30
0.0
 11
366.8754979999994
 21
1416.070976
 31
0.0
  0
LINE
  5
10A50
330
11084
100
AcDbEntity
  8
OUTLINE
  6
Continuous
 62
     3
100
AcDbLine
 10
376.5
 20
56.50137927691368
 30
0.0
 11
376.5000000000018
 21
1370.0
 31
0.0
  0
LINE
  5
10A51
330
11084
100
AcDbEntity
  8
OUTLINE
  6
Continuous
 62
     3
100
AcDbLine
 10
379.0
 20
1370.0
 30
0.0
 11
376.5000000000018
 21
1370.0
 31
0.0
  0
LINE
  5
10A52
330
11084
100
AcDbEntity
  8
OUTLINE
  6
Continuous
 62
     3
100
AcDbLine
 10
-376.5
 20
1370.0
 30
0.0
 11
-379.0
 21
1370.0
 31
0.0
  0
LINE
  5
10A53
330
11084
100
AcDbEntity
  8
OUTLINE
  6
Continuous
 62
     3
100
AcDbLine
 10
379.0
 20
1406.0
 30
0.0
 11
379.0
 21
1370.0
 31
0.0
  0
ARC
  5
10A54
330
11084
100
AcDbEntity
  8
OUTLINE
  6
Continuous
 62
     3
100
AcDbCircle
 10
375.2782403131877
 20
56.74213384466685
 30
0.0
 40
1.245254790881592
100
AcDbArc
 50
280.2581655777089
 51
348.8523730808545
  0
LINE
  5
10A55
330
11084
100
AcDbEntity
  8
OUTLINE
  6
Continuous
 62
     3
100
AcDbLine
 10
375.5
 20
55.0
 30
0.0
 11
375.5000000001655
 21
55.51678404340782
 31
0.0
  0
ARC
  5
10A56
330
11084
100
AcDbEntity
  8
OUTLINE
  6
Continuous
 62
     3
100
AcDbCircle
 10
374.5
 20
55.0
 30
0.0
 40
1.0
100
AcDbArc
 50
270.0
 51
0.0
  0
LINE
  5
10A57
330
11084
100
AcDbEntity
  8
OUTLINE
  6
Continuous
 62
     3
100
AcDbLine
 10
368.5
 20
54.0
 30
0.0
 11
374.5
 21
54.0
 31
0.0
  0
LINE
  5
10A58
330
11084
100
AcDbEntity
  8
OUTLINE
  6
Continuous
 62
     3
100
AcDbLine
 10
368.5
 20
54.80000000000018
 30
0.0
 11
368.5
 21
54.0
 31
0.0
  0
LINE
  5
10A59
330
11084
100
AcDbEntity
  8
OUTLINE
  6
Continuous
 62
     3
100
AcDbLine
 10
374.5
 20
54.80000000000018
 30
0.0
 11
368.5
 21
54.80000000000018
 31
0.0
  0
ARC
  5
10A5A
330
11084
100
AcDbEntity
  8
OUTLINE
  6
Continuous
 62
     3
100
AcDbCircle
 10
374.5
 20
55.0
 30
0.0
 40
0.2
100
AcDbArc
 50
270.0
 51
0.0
  0
LINE
  5
10A5B
330
11084
100
AcDbEntity
  8
OUTLINE
  6
Continuous
 62
     3
100
AcDbLine
 10
374.6999999999989
 20
55.0
 30
0.0
 11
374.6999999999989
 21
55.50000000000046
 31
0.0
  0
LINE
  5
10A5C
330
11084
100
AcDbEntity
  8
OUTLINE
  6
Continuous
 62
     3
100
AcDbLine
 10
374.6999999999989
 20
55.50000000000046
 30
0.0
 11
359.1666669999995
 21
55.5
 31
0.0
  0
LINE
  5
10A5D
330
11084
100
AcDbEntity
  8
OUTLINE
  6
Continuous
 62
     3
100
AcDbLine
 10
359.16666823603
 20
55.5
 30
0.0
 11
328.5916279999983
 21
53.5
 31
0.0
  0
ARC
  5
10A5E
330
11084
100
AcDbEntity
  8
OUTLINE
  6
Continuous
 62
     3
100
AcDbCircle
 10
330.0
 20
50.30000000000018
 30
0.0
 40
3.2
100
AcDbArc
 50
0.0
 51
90.0
  0
LINE
  5
10A5F
330
11084
100
AcDbEntity
  8
OUTLINE
  6
Continuous
 62
     3
100
AcDbLine
 10
333.1999999999989
 20
3.200000000000271
 30
0.0
 11
333.1999999999989
 21
50.30000000000018
 31
0.0
  0
LINE
  5
10A60
330
11084
100
AcDbEntity
  8
OUTLINE
  6
Continuous
 62
     3
100
AcDbLine
 10
380.0
 20
3.200000000000271
 30
0.0
 11
333.1999999999989
 21
3.200000000000271
 31
0.0
  0
LINE
  5
10A61
330
11084
100
AcDbEntity
  8
OUTLINE
  6
Continuous
 62
     3
100
AcDbLine
 10
329.9999999999982
 20
3.200000000000271
 30
0.0
 11
-330.0
 21
3.199999999999818
 31
0.0
  0
LINE
  5
10A62
330
11084
100
AcDbEntity
  8
OUTLINE
  6
Continuous
 62
     3
100
AcDbLine
 10
-333.2000000000008
 20
3.199999999999818
 30
0.0
 11
-380.0
 21
3.199999999999818
 31
0.0
  0
LINE
  5
10A63
330
11084
100
AcDbEntity
  8
OUTLINE
  6
Continuous
 62
     3
100
AcDbLine
 10
380.0
 20
3.200000000000271
 30
0.0
 11
380.0
 21
0.0
 31
0.0
  0
LINE
  5
10A66
330
11084
100
AcDbEntity
  8
OUTLINE
  6
Continuous
 62
     3
100
AcDbLine
 10
333.1999999999989
 20
0.0
 30
0.0
 11
380.0
 21
0.0
 31
0.0
  0
ARC
  5
10A67
330
11084
100
AcDbEntity
  8
OUTLINE
  6
Continuous
 62
     3
100
AcDbCircle
 10
333.1999999999989
 20
3.199999999999818
 30
0.0
 40
3.2
100
AcDbArc
 50
180.0
 51
270.0
  0
ARC
  5
10A68
330
11084
100
AcDbEntity
  8
OUTLINE
  6
Continuous
 62
     3
100
AcDbCircle
 10
-333.2000000000008
 20
3.199999999999818
 30
0.0
 40
3.2
100
AcDbArc
 50
270.0
 51
0.0
  0
LINE
  5
10A69
330
11084
100
AcDbEntity
  8
OUTLINE
  6
Continuous
 62
     3
100
AcDbLine
 10
-333.2000000000008
 20
0.0
 30
0.0
 11
-380.0
 21
0.0
 31
0.0
  0
LINE
  5
10A6A
330
11084
100
AcDbEntity
  8
OUTLINE
  6
Continuous
 62
     3
100
AcDbLine
 10
-380.0
 20
3.199999999999818
 30
0.0
 11
-380.0
 21
0.0
 31
0.0
  0
LINE
  5
10A6B
330
11084
100
AcDbEntity
  8
OUTLINE
  6
Continuous
 62
     3
100
AcDbLine
 10
-333.2000000000008
 20
50.30000000000018
 30
0.0
 11
-333.2000000000008
 21
3.199999999999818
 31
0.0
  0
ARC
  5
10A6C
330
11084
100
AcDbEntity
  8
OUTLINE
  6
Continuous
 62
     3
100
AcDbCircle
 10
-330.0
 20
50.30000000000018
 30
0.0
 40
3.2
100
AcDbArc
 50
90.0
 51
180.0
  0
LINE
  5
10A6D
330
11084
100
AcDbEntity
  8
OUTLINE
  6
Continuous
 62
     3
100
AcDbLine
 10
-328.5916280000001
 20
53.5
 30
0.0
 11
-367.020633
 21
56.01221500000018
 31
0.0
  0
ARC
  5
10A6E
330
11084
100
AcDbEntity
  8
OUTLINE
  6
Continuous
 62
     3
100
AcDbCircle
 10
-366.5
 20
63.99525600000015
 30
0.0
 40
8.0
100
AcDbArc
 50
223.4529789999843
 51
266.2686029999572
  0
LINE
  5
10A6F
330
11084
100
AcDbEntity
  8
OUTLINE
  6
Continuous
 62
     3
100
AcDbLine
 10
-372.3075123160068
 20
58.49318359958397
 30
0.0
 11
-376.5
 21
58.5
 31
0.0
  0
LINE
  5
10A72
330
11084
100
AcDbEntity
  8
OUTLINE
  6
Continuous
 62
     3
100
AcDbLine
 10
-376.5
 20
58.5
 30
0.0
 11
-376.5
 21
1370.0
 31
0.0
  0
LINE
  5
10A79
330
11084
100
AcDbEntity
  8
OUTLINE
  6
Continuous
 62
     3
100
AcDbLine
 10
-379.0
 20
1370.0
 30
0.0
 11
-379.0
 21
1406.0
 31
0.0
  0
ARC
  5
10A7A
330
11084
100
AcDbEntity
  8
OUTLINE
  6
Continuous
 62
     3
100
AcDbCircle
 10
-375.0
 20
1406.0
 30
0.0
 40
4.0
100
AcDbArc
 50
90.0
 51
180.0
  0
LINE
  5
10A7B
330
11084
100
AcDbEntity
  8
OUTLINE
  6
Continuous
 62
     3
100
AcDbLine
 10
-373.1345140000012
 20
1410.169142
 30
0.0
 11
-372.3376540000008
 21
1410.379011
 31
0.0
  0
LINE
  5
10A7C
330
11084
100
AcDbEntity
  8
OUTLINE
  6
Continuous
 62
     3
100
AcDbLine
 10
-373.9487350000018
 20
1410.042356
 30
0.0
 11
-373.1345140000012
 21
1410.169142
 31
0.0
  0
LINE
  5
10A7D
330
11084
100
AcDbEntity
  8
OUTLINE
  6
Continuous
 62
     3
100
AcDbLine
 10
-374.7708680000014
 20
1410.0
 30
0.0
 11
375.0002262157158
 21
1409.999999993603
 31
0.0
  0
LINE
  5
10A7E
330
11084
100
AcDbEntity
  8
OUTLINE
  6
Continuous
 62
     3
100
AcDbLine
 10
-371.5666100000015
 20
1410.669739
 30
0.0
 11
-370.829563000001
 21
1411.038239
 31
0.0
  0
LINE
  5
10A7F
330
11084
100
AcDbEntity
  8
OUTLINE
  6
Continuous
 62
     3
100
AcDbLine
 10
-372.3376540000008
 20
1410.379011
 30
0.0
 11
-371.5666100000015
 21
1410.669739
 31
0.0
  0
LINE
  5
10A80
330
11084
100
AcDbEntity
  8
OUTLINE
  6
Continuous
 62
     3
100
AcDbLine
 10
-366.7784390000015
 20
1417.651983
 30
0.0
 11
-361.0
 21
1550.0
 31
0.0
  0
LINE
  5
10A81
330
11084
100
AcDbEntity
  8
OUTLINE
  6
Continuous
 62
     3
100
AcDbLine
 10
-366.8365180000001
 20
1416.977198
 30
0.0
 11
-366.7784800000009
 21
1417.651048
 31
0.0
  0
LINE
  5
10A82
330
11084
100
AcDbEntity
  8
OUTLINE
  6
Continuous
 62
     3
100
AcDbLine
 10
-366.983822
 20
1416.166438
 30
0.0
 11
-366.8365180000001
 21
1416.977198
 31
0.0
  0
LINE
  5
10A83
330
11084
100
AcDbEntity
  8
OUTLINE
  6
Continuous
 62
     3
100
AcDbLine
 10
-367.2137460000012
 20
1415.375131
 30
0.0
 11
-366.983822
 21
1416.166438
 31
0.0
  0
LINE
  5
10A84
330
11084
100
AcDbEntity
  8
OUTLINE
  6
Continuous
 62
     3
100
AcDbLine
 10
-367.5238500000014
 20
1414.611674
 30
0.0
 11
-367.2137460000012
 21
1415.375131
 31
0.0
  0
LINE
  5
10A85
330
11084
100
AcDbEntity
  8
OUTLINE
  6
Continuous
 62
     3
100
AcDbLine
 10
-367.910844
 20
1413.884166
 30
0.0
 11
-367.5238500000014
 21
1414.611674
 31
0.0
  0
LINE
  5
10A86
330
11084
100
AcDbEntity
  8
OUTLINE
  6
Continuous
 62
     3
100
AcDbLine
 10
-368.370621
 20
1413.200328
 30
0.0
 11
-367.910844
 21
1413.884166
 31
0.0
  0
LINE
  5
10A87
330
11084
100
AcDbEntity
  8
OUTLINE
  6
Continuous
 62
     3
100
AcDbLine
 10
-368.898304
 20
1412.567412
 30
0.0
 11
-368.370621
 21
1413.200328
 31
0.0
  0
LINE
  5
10A88
330
11084
100
AcDbEntity
  8
OUTLINE
  6
Continuous
 62
     3
100
AcDbLine
 10
-369.4882950000009
 20
1411.992136
 30
0.0
 11
-368.898304
 21
1412.567412
 31
0.0
  0
LINE
  5
10A89
330
11084
100
AcDbEntity
  8
OUTLINE
  6
Continuous
 62
     3
100
AcDbLine
 10
-370.1343320000014
 20
1411.480603
 30
0.0
 11
-369.4882950000009
 21
1411.992136
 31
0.0
  0
LINE
  5
10A8A
330
11084
100
AcDbEntity
  8
OUTLINE
  6
Continuous
 62
     3
100
AcDbLine
 10
-370.829563000001
 20
1411.038239
 30
0.0
 11
-370.1343320000014
 21
1411.480603
 31
0.0
  0
LINE
  5
10A8B
330
11084
100
AcDbEntity
  8
SIZE
  6
Continuous
 62
    30
100
AcDbLine
 10
329.9999999999982
 20
-16.79999999999973
 30
0.0
 11
329.9999999999982
 21
-396.3326780321751
 31
0.0
  0
LINE
  5
10A8C
330
11084
100
AcDbEntity
  8
SIZE
  6
Continuous
 62
    30
100
AcDbLine
 10
380.0
 20
-20.0
 30
0.0
 11
380.0
 21
-396.3326780321751
 31
0.0
  0
LINE
  5
10A8D
330
11084
100
AcDbEntity
  8
SIZE
  6
Continuous
 62
    30
100
AcDbLine
 10
329.9999999999982
 20
-376.3326780321751
 30
0.0
 11
380.0
 21
-376.3326780321751
 31
0.0
  0
LINE
  5
10A8E
330
11084
100
AcDbEntity
  8
SIZE
  6
Continuous
 62
    30
100
AcDbLine
 10
380.0
 20
-376.3326780321751
 30
0.0
 11
537.4285714285711
 21
-376.3326780321751
 31
0.0
  0
CIRCLE
  5
10A8F
330
11084
100
AcDbEntity
  8
SIZE
  6
Continuous
 62
    30
100
AcDbCircle
 10
329.9999999999982
 20
-376.3326780321751
 30
0.0
 40
7.5
  0
CIRCLE
  5
10A90
330
11084
100
AcDbEntity
  8
SIZE
  6
Continuous
 62
    30
100
AcDbCircle
 10
380.0
 20
-376.3326780321751
 30
0.0
 40
7.5
  0
TEXT
  5
10A91
330
11084
100
AcDbEntity
  8
SIZE
  6
Continuous
 62
    30
100
AcDbText
 10
429.9999999999995
 20
-356.332678032175
 30
0.0
 40
60.0
  1
50
 41
0.9
 72
     1
 11
473.7142857142853
 21
-356.332678032175
 31
0.0
100
AcDbText
  0
POINT
  5
10A92
330
11084
100
AcDbEntity
  8
DEFPOINTS
  6
Continuous
 62
     7
100
AcDbPoint
 10
329.9999999999982
 20
3.200000000000271
 30
0.0
  0
POINT
  5
10A93
330
11084
100
AcDbEntity
  8
DEFPOINTS
  6
Continuous
 62
     7
100
AcDbPoint
 10
380.0
 20
0.0
 30
0.0
  0
POINT
  5
10A94
330
11084
100
AcDbEntity
  8
DEFPOINTS
  6
Continuous
 62
     7
100
AcDbPoint
 10
380.0
 20
-376.3326780321751
 30
0.0
  0
LINE
  5
10A95
330
11084
100
AcDbEntity
  8
SIZE
  6
Continuous
 62
    30
100
AcDbLine
 10
-330.0
 20
-16.80000000000018
 30
0.0
 11
-330.0
 21
-396.3326780321751
 31
0.0
  0
LINE
  5
10A96
330
11084
100
AcDbEntity
  8
SIZE
  6
Continuous
 62
    30
100
AcDbLine
 10
-300.0
 20
-11.80000000000018
 30
0.0
 11
-300.0
 21
-396.3326780321751
 31
0.0
  0
LINE
  5
10A97
330
11084
100
AcDbEntity
  8
SIZE
  6
Continuous
 62
    30
100
AcDbLine
 10
-330.0
 20
-376.3326780321751
 30
0.0
 11
-360.0
 21
-376.3326780321751
 31
0.0
  0
LINE
  5
10A98
330
11084
100
AcDbEntity
  8
SIZE
  6
Continuous
 62
    30
100
AcDbLine
 10
-300.0
 20
-376.3326780321751
 30
0.0
 11
-112.5714285714286
 21
-376.3326780321751
 31
0.0
  0
LINE
  5
10A99
330
11084
100
AcDbEntity
  8
SIZE
  6
Continuous
 62
    30
100
AcDbLine
 10
-330.0
 20
-376.3326780321751
 30
0.0
 11
-300.0
 21
-376.3326780321751
 31
0.0
  0
CIRCLE
  5
10A9A
330
11084
100
AcDbEntity
  8
SIZE
  6
Continuous
 62
    30
100
AcDbCircle
 10
-330.0
 20
-376.3326780321751
 30
0.0
 40
7.5
  0
CIRCLE
  5
10A9B
330
11084
100
AcDbEntity
  8
SIZE
  6
Continuous
 62
    30
100
AcDbCircle
 10
-300.0
 20
-376.3326780321751
 30
0.0
 40
7.5
  0
TEXT
  5
10A9C
330
11084
100
AcDbEntity
  8
SIZE
  6
Continuous
 62
    30
100
AcDbText
 10
-220.0
 20
-356.332678032175
 30
0.0
 40
60.0
  1
30
 41
0.9
 72
     1
 11
-176.2857142857143
 21
-356.332678032175
 31
0.0
100
AcDbText
  0
POINT
  5
10A9D
330
11084
100
AcDbEntity
  8
DEFPOINTS
  6
Continuous
 62
     7
100
AcDbPoint
 10
-330.0
 20
3.199999999999818
 30
0.0
  0
POINT
  5
10A9E
330
11084
100
AcDbEntity
  8
DEFPOINTS
  6
Continuous
 62
     7
100
AcDbPoint
 10
-300.0
 20
8.199999999999818
 30
0.0
  0
POINT
  5
10A9F
330
11084
100
AcDbEntity
  8
DEFPOINTS
  6
Continuous
 62
     7
100
AcDbPoint
 10
-300.0
 20
-376.3326780321751
 30
0.0
  0
LINE
  5
10AA0
330
11084
100
AcDbEntity
  8
SIZE
  6
Continuous
 62
    30
100
AcDbLine
 10
-330.0
 20
-16.80000000000018
 30
0.0
 11
-330.0
 21
-396.3326780321751
 31
0.0
  0
LINE
  5
10AA1
330
11084
100
AcDbEntity
  8
SIZE
  6
Continuous
 62
    30
100
AcDbLine
 10
-380.0
 20
-20.0
 30
0.0
 11
-380.0
 21
-396.3326780321751
 31
0.0
  0
LINE
  5
10AA2
330
11084
100
AcDbEntity
  8
SIZE
  6
Continuous
 62
    30
100
AcDbLine
 10
-330.0
 20
-376.3326780321751
 30
0.0
 11
-380.0
 21
-376.3326780321751
 31
0.0
  0
LINE
  5
10AA3
330
11084
100
AcDbEntity
  8
SIZE
  6
Continuous
 62
    30
100
AcDbLine
 10
-380.0
 20
-376.3326780321751
 30
0.0
 11
-537.4285714285711
 21
-376.3326780321751
 31
0.0
  0
CIRCLE
  5
10AA4
330
11084
100
AcDbEntity
  8
SIZE
  6
Continuous
 62
    30
100
AcDbCircle
 10
-330.0
 20
-376.3326780321751
 30
0.0
 40
7.5
  0
CIRCLE
  5
10AA5
330
11084
100
AcDbEntity
  8
SIZE
  6
Continuous
 62
    30
100
AcDbCircle
 10
-380.0
 20
-376.3326780321751
 30
0.0
 40
7.5
  0
TEXT
  5
10AA6
330
11084
100
AcDbEntity
  8
SIZE
  6
Continuous
 62
    30
100
AcDbText
 10
-517.4285714285709
 20
-356.332678032175
 30
0.0
 40
60.0
  1
50
 41
0.9
 72
     1
 11
-473.7142857142853
 21
-356.332678032175
 31
0.0
100
AcDbText
  0
POINT
  5
10AA7
330
11084
100
AcDbEntity
  8
DEFPOINTS
  6
Continuous
 62
     7
100
AcDbPoint
 10
-330.0
 20
3.199999999999818
 30
0.0
  0
POINT
  5
10AA9
330
11084
100
AcDbEntity
  8
DEFPOINTS
  6
Continuous
 62
     7
100
AcDbPoint
 10
-380.0
 20
-376.3326780321751
 30
0.0
  0
LINE
  5
10AAA
330
11084
100
AcDbEntity
  8
SIZE
  6
Continuous
 62
    30
100
AcDbLine
 10
-362.0
 20
-31.40709959532796
 30
0.0
 11
-362.0
 21
-526.792302005162
 31
0.0
  0
LINE
  5
10AAB
330
11084
100
AcDbEntity
  8
SIZE
  6
Continuous
 62
    30
100
AcDbLine
 10
362.0
 20
-31.40709959532796
 30
0.0
 11
362.0
 21
-526.792302005162
 31
0.0
  0
LINE
  5
10AAC
330
11084
100
AcDbEntity
  8
SIZE
  6
Continuous
 62
    30
100
AcDbLine
 10
-362.0
 20
-506.7923020051621
 30
0.0
 11
362.0
 21
-506.7923020051621
 31
0.0
  0
TEXT
  5
10AAD
330
11084
100
AcDbEntity
  8
SIZE
  6
Continuous
 62
    30
100
AcDbText
 10
-282.3428571428571
 20
-485.4886730426968
 30
0.0
 40
60.0
  1
724 (据付ピッチ)
 41
0.9
 72
     1
 11
0.0
 21
-485.4886730426968
 31
0.0
100
AcDbText
  0
CIRCLE
  5
10AAE
330
11084
100
AcDbEntity
  8
SIZE
  6
Continuous
 62
    30
100
AcDbCircle
 10
-362.0
 20
-506.7923020051621
 30
0.0
 40
7.5
  0
CIRCLE
  5
10AAF
330
11084
100
AcDbEntity
  8
SIZE
  6
Continuous
 62
    30
100
AcDbCircle
 10
362.0
 20
-506.7923020051621
 30
0.0
 40
7.5
  0
POINT
  5
10AB2
330
11084
100
AcDbEntity
  8
DEFPOINTS
  6
Continuous
 62
     7
100
AcDbPoint
 10
362.0
 20
-506.7923020051621
 30
0.0
  0
LINE
  5
10AB3
330
11084
100
AcDbEntity
  8
SIZE
  6
Continuous
 62
    30
100
AcDbLine
 10
362.0
 20
-31.40709959532796
 30
0.0
 11
362.0
 21
-526.792302005162
 31
0.0
  0
LINE
  5
10AB4
330
11084
100
AcDbEntity
  8
SIZE
  6
Continuous
 62
    30
100
AcDbLine
 10
380.0
 20
-20.0
 30
0.0
 11
379.9999999999998
 21
-526.792302005162
 31
0.0
  0
LINE
  5
10AB5
330
11084
100
AcDbEntity
  8
SIZE
  6
Continuous
 62
    30
100
AcDbLine
 10
362.0
 20
-506.7923020051621
 30
0.0
 11
331.9999999999999
 21
-506.7923020051621
 31
0.0
  0
LINE
  5
10AB6
330
11084
100
AcDbEntity
  8
SIZE
  6
Continuous
 62
    30
100
AcDbLine
 10
379.9999999999998
 20
-506.7923020051621
 30
0.0
 11
557.1428571428571
 21
-506.7923020051621
 31
0.0
  0
LINE
  5
10AB7
330
11084
100
AcDbEntity
  8
SIZE
  6
Continuous
 62
    30
100
AcDbLine
 10
362.0
 20
-506.7923020051621
 30
0.0
 11
379.9999999999998
 21
-506.7923020051621
 31
0.0
  0
CIRCLE
  5
10AB8
330
11084
100
AcDbEntity
  8
SIZE
  6
Continuous
 62
    30
100
AcDbCircle
 10
362.0
 20
-506.7923020051621
 30
0.0
 40
7.5
  0
CIRCLE
  5
10AB9
330
11084
100
AcDbEntity
  8
SIZE
  6
Continuous
 62
    30
100
AcDbCircle
 10
379.9999999999998
 20
-506.7923020051621
 30
0.0
 40
7.5
  0
TEXT
  5
10ABA
330
11084
100
AcDbEntity
  8
SIZE
  6
Continuous
 62
    30
100
AcDbText
 10
459.9999999999996
 20
-486.7923020051621
 30
0.0
 40
60.0
  1
18
 41
0.9
 72
     1
 11
498.5714285714283
 21
-486.7923020051621
 31
0.0
100
AcDbText
  0
POINT
  5
10ABC
330
11084
100
AcDbEntity
  8
DEFPOINTS
  6
Continuous
 62
     7
100
AcDbPoint
 10
380.0
 20
0.0
 30
0.0
  0
POINT
  5
10ABD
330
11084
100
AcDbEntity
  8
DEFPOINTS
  6
Continuous
 62
     7
100
AcDbPoint
 10
379.9999999999998
 20
-506.7923020051621
 30
0.0
  0
LINE
  5
10ABE
330
11084
100
AcDbEntity
  8
SIZE
  6
Continuous
 62
    30
100
AcDbLine
 10
-362.0
 20
-31.40709959532796
 30
0.0
 11
-362.0
 21
-526.792302005162
 31
0.0
  0
LINE
  5
10ABF
330
11084
100
AcDbEntity
  8
SIZE
  6
Continuous
 62
    30
100
AcDbLine
 10
-380.0
 20
-20.0
 30
0.0
 11
-380.0000000000002
 21
-526.792302005162
 31
0.0
  0
LINE
  5
10AC0
330
11084
100
AcDbEntity
  8
SIZE
  6
Continuous
 62
    30
100
AcDbLine
 10
-362.0
 20
-506.7923020051621
 30
0.0
 11
-332.0000000000001
 21
-506.7923020051621
 31
0.0
  0
LINE
  5
10AC1
330
11084
100
AcDbEntity
  8
SIZE
  6
Continuous
 62
    30
100
AcDbLine
 10
-380.0000000000002
 20
-506.7923020051621
 30
0.0
 11
-557.1428571428572
 21
-506.7923020051621
 31
0.0
  0
LINE
  5
10AC2
330
11084
100
AcDbEntity
  8
SIZE
  6
Continuous
 62
    30
100
AcDbLine
 10
-362.0
 20
-506.7923020051621
 30
0.0
 11
-380.0000000000002
 21
-506.7923020051621
 31
0.0
  0
CIRCLE
  5
10AC3
330
11084
100
AcDbEntity
  8
SIZE
  6
Continuous
 62
    30
100
AcDbCircle
 10
-362.0
 20
-506.7923020051621
 30
0.0
 40
7.5
  0
CIRCLE
  5
10AC4
330
11084
100
AcDbEntity
  8
SIZE
  6
Continuous
 62
    30
100
AcDbCircle
 10
-380.0000000000002
 20
-506.7923020051621
 30
0.0
 40
7.5
  0
TEXT
  5
10AC5
330
11084
100
AcDbEntity
  8
SIZE
  6
Continuous
 62
    30
100
AcDbText
 10
-537.1428571428572
 20
-486.7923020051621
 30
0.0
 40
60.0
  1
18
 41
0.9
 72
     1
 11
-498.5714285714286
 21
-486.7923020051621
 31
0.0
100
AcDbText
  0
POINT
  5
10AC8
330
11084
100
AcDbEntity
  8
DEFPOINTS
  6
Continuous
 62
     7
100
AcDbPoint
 10
-380.0000000000002
 20
-506.7923020051621
 30
0.0
  0
CIRCLE
  5
10AC9
330
11084
100
AcDbEntity
  8
FIX
  6
Continuous
 62
    11
100
AcDbCircle
 10
362.0
 20
0.0
 30
0.0
 40
12.42149793872491
  0
CIRCLE
  5
10ACA
330
11084
100
AcDbEntity
  8
FIX
  6
Continuous
 62
    11
100
AcDbCircle
 10
-362.0
 20
0.0
 30
0.0
 40
12.42149793872491
  0
TEXT
  5
10ACB
330
11084
100
AcDbEntity
  8
NOTE
  6
Continuous
 62
     4
100
AcDbText
 10
-673.2004363453905
 20
737.6711221387918
 30
0.0
 40
60.0
  1
空気吸込
 50
0.0000025044165941
 41
0.7
  7
STANDARD1
100
AcDbText
  0
TEXT
  5
10ACC
330
11084
100
AcDbEntity
  8
NOTE
  6
Continuous
 62
     4
100
AcDbText
 10
-85.33669887039058
 20
1783.92119872753
 30
0.0
 40
60.0
  1
空気吹出
 50
0.0000025044165941
 41
0.7
  7
STANDARD1
100
AcDbText
  0
CIRCLE
  5
10ACE
330
11084
100
AcDbEntity
  8
ARRANGE
  6
Continuous
 62
     1
100
AcDbCircle
 10
0.0
 20
0.0
 30
0.0
 40
50.0
  0
LINE
  5
10ACF
330
11084
100
AcDbEntity
  8
ARRANGE
  6
Continuous
 62
     1
100
AcDbLine
 10
-50.03735003132896
 20
-49.5223531503252
 30
0.0
 11
50.03735003132896
 21
49.5223531503252
 31
0.0
  0
LINE
  5
10AD0
330
11084
100
AcDbEntity
  8
ARRANGE
  6
Continuous
 62
     1
100
AcDbLine
 10
-49.96376331050122
 20
49.59659479798574
 30
0.0
 11
49.96376331050122
 21
-49.59659479798208
 31
0.0
  0
LINE
  5
10AD1
330
11084
100
AcDbEntity
  8
BASIS
  6
DASHDOT
 62
     6
100
AcDbLine
 10
0.0
 20
1715.285985469324
 30
0.0
 11
0.0
 21
-74.78884338495662
 31
0.0
  0
LINE
  5
10AD4
330
11084
100
AcDbEntity
  8
SIZE
  6
Continuous
 62
    30
100
AcDbLine
 10
-100.0
 20
1650.0
 30
0.0
 11
-1014.707794817472
 21
1650.0
 31
0.0
  0
LINE
  5
10AD5
330
11084
100
AcDbEntity
  8
SIZE
  6
Continuous
 62
    30
100
AcDbLine
 10
-400.0
 20
0.0000000000000057
 30
0.0
 11
-1014.707794817474
 21
0.0000000000001798
 31
0.0
  0
LINE
  5
10AD6
330
11084
100
AcDbEntity
  8
SIZE
  6
Continuous
 62
    30
100
AcDbLine
 10
-994.7077948174737
 20
1650.0
 30
0.0
 11
-994.7077948174737
 21
0.0000000000001741
 31
0.0
  0
CIRCLE
  5
10AD7
330
11084
100
AcDbEntity
  8
SIZE
  6
Continuous
 62
    30
100
AcDbCircle
 10
-994.7077948174737
 20
1650.0
 30
0.0
 40
7.5
  0
CIRCLE
  5
10AD8
330
11084
100
AcDbEntity
  8
SIZE
  6
Continuous
 62
    30
100
AcDbCircle
 10
-994.7077948174737
 20
0.0000000000001741
 30
0.0
 40
7.5
  0
TEXT
  5
10AD9
330
11084
100
AcDbEntity
  8
SIZE
  6
Continuous
 62
    30
100
AcDbText
 10
-1014.707794817472
 20
735.0000000000001
 30
0.0
 40
60.0
  1
1650
 50
90.0
 41
0.9
 72
     1
 11
-1014.707794817472
 21
825.0000000000001
 31
0.0
100
AcDbText
  0
POINT
  5
10ADA
330
11084
100
AcDbEntity
  8
DEFPOINTS
  6
Continuous
 62
     7
100
AcDbPoint
 10
-80.0
 20
1650.0
 30
0.0
  0
POINT
  5
10ADC
330
11084
100
AcDbEntity
  8
DEFPOINTS
  6
Continuous
 62
     7
100
AcDbPoint
 10
-994.7077948174737
 20
0.0000000000001741
 30
0.0
  0
LINE
  5
10C30
330
11084
100
AcDbEntity
  8
DETAIL
  6
Continuous
 62
     5
100
AcDbLine
 10
23.38108848362464
 20
1585.0
 30
0.0
 11
1.499999999999938
 21
1585.0
 31
0.0
  0
LINE
  5
10C31
330
11084
100
AcDbEntity
  8
DETAIL
  6
Continuous
 62
     5
100
AcDbLine
 10
23.47388752388628
 20
1580.0
 30
0.0
 11
1.499999999999938
 21
1580.0
 31
0.0
  0
LINE
  5
10C32
330
11084
100
AcDbEntity
  8
DETAIL
  6
Continuous
 62
     5
100
AcDbLine
 10
48.25283492327439
 20
1580.0
 30
0.0
 11
26.41223800000074
 21
1580.0
 31
0.0
  0
LINE
  5
10C33
330
11084
100
AcDbEntity
  8
DETAIL
  6
Continuous
 62
     5
100
AcDbLine
 10
48.06225858400804
 20
1585.0
 30
0.0
 11
26.33141900000095
 21
1585.0
 31
0.0
  0
LINE
  5
10C34
330
11084
100
AcDbEntity
  8
DETAIL
  6
Continuous
 62
     5
100
AcDbLine
 10
72.96650908524424
 20
1580.0
 30
0.0
 11
51.19579900000092
 21
1580.0
 31
0.0
  0
LINE
  5
10C35
330
11084
100
AcDbEntity
  8
DETAIL
  6
Continuous
 62
     5
100
AcDbLine
 10
72.69165952612837
 20
1585.0
 30
0.0
 11
51.03455400000068
 21
1585.0
 31
0.0
  0
LINE
  5
10C36
330
11084
100
AcDbEntity
  8
DETAIL
  6
Continuous
 62
     5
100
AcDbLine
 10
97.15145448771451
 20
1580.0
 30
0.0
 11
75.72993900000078
 21
1580.0
 31
0.0
  0
LINE
  5
10C37
330
11084
100
AcDbEntity
  8
DETAIL
  6
Continuous
 62
     5
100
AcDbLine
 10
96.78271174483549
 20
1585.0
 30
0.0
 11
75.48905400000153
 21
1585.0
 31
0.0
  0
LINE
  5
10C38
330
11084
100
AcDbEntity
  8
DETAIL
  6
Continuous
 62
     5
100
AcDbLine
 10
120.9963395599244
 20
1580.0
 30
0.0
 11
99.89513000000066
 21
1580.0
 31
0.0
  0
LINE
  5
10C39
330
11084
100
AcDbEntity
  8
DETAIL
  6
Continuous
 62
     5
100
AcDbLine
 10
120.5495373193423
 20
1585.0
 30
0.0
 11
99.5757780000004
 21
1585.0
 31
0.0
  0
LINE
  5
10C3A
330
11084
100
AcDbEntity
  8
DETAIL
  6
Continuous
 62
     5
100
AcDbLine
 10
144.2292275803182
 20
1580.0
 30
0.0
 11
123.5736410000008
 21
1580.0
 31
0.0
  0
LINE
  5
10C3B
330
11084
100
AcDbEntity
  8
DETAIL
  6
Continuous
 62
     5
100
AcDbLine
 10
143.6840461631891
 20
1585.0
 30
0.0
 11
123.1773790000006
 21
1585.0
 31
0.0
  0
LINE
  5
10C3C
330
11084
100
AcDbEntity
  8
DETAIL
  6
Continuous
 62
     5
100
AcDbLine
 10
166.7059064242597
 20
1580.0
 30
0.0
 11
146.6161680000005
 21
1580.0
 31
0.0
  0
LINE
  5
10C3D
330
11084
100
AcDbEntity
  8
DETAIL
  6
Continuous
 62
     5
100
AcDbLine
 10
166.0932478982931
 20
1585.0
 30
0.0
 11
146.1625270000003
 21
1585.0
 31
0.0
  0
LINE
  5
10C3E
330
11084
100
AcDbEntity
  8
DETAIL
  6
Continuous
 62
     5
100
AcDbLine
 10
188.0065740000009
 20
1580.0
 30
0.0
 11
169.012122000001
 21
1580.0
 31
0.0
  0
LINE
  5
10C3F
330
11084
100
AcDbEntity
  8
DETAIL
  6
Continuous
 62
     5
100
AcDbLine
 10
187.392614
 20
1585.0
 30
0.0
 11
168.4681950000009
 21
1585.0
 31
0.0
  0
LINE
  5
10C40
330
11084
100
AcDbEntity
  8
DETAIL
  6
Continuous
 62
     5
100
AcDbLine
 10
247.5060974027532
 20
1580.0
 30
0.0
 11
230.7424690000008
 21
1580.0
 31
0.0
  0
LINE
  5
10C41
330
11084
100
AcDbEntity
  8
DETAIL
  6
Continuous
 62
     5
100
AcDbLine
 10
264.8678139343431
 20
1580.0
 30
0.0
 11
249.1998110000003
 21
1580.0
 31
0.0
  0
LINE
  5
10C42
330
11084
100
AcDbEntity
  8
DETAIL
  6
Continuous
 62
     5
100
AcDbLine
 10
229.1937101041966
 20
1580.0
 30
0.0
 11
211.1609710000015
 21
1580.0
 31
0.0
  0
LINE
  5
10C43
330
11084
100
AcDbEntity
  8
DETAIL
  6
Continuous
 62
     5
100
AcDbLine
 10
209.1419583328575
 20
1580.0
 30
0.0
 11
190.5507190000006
 21
1580.0
 31
0.0
  0
LINE
  5
10C44
330
11084
100
AcDbEntity
  8
DETAIL
  6
Continuous
 62
     5
100
AcDbLine
 10
208.3861770609221
 20
1585.0
 30
0.0
 11
189.9367580000005
 21
1585.0
 31
0.0
  0
LINE
  5
10C45
330
11084
100
AcDbEntity
  8
DETAIL
  6
Continuous
 62
     5
100
AcDbLine
 10
228.4282865572243
 20
1585.0
 30
0.0
 11
210.4799680000017
 21
1585.0
 31
0.0
  0
LINE
  5
10C46
330
11084
100
AcDbEntity
  8
DETAIL
  6
Continuous
 62
     5
100
AcDbLine
 10
246.6195806608268
 20
1585.0
 30
0.0
 11
229.9977400000007
 21
1585.0
 31
0.0
  0
LINE
  5
10C47
330
11084
100
AcDbEntity
  8
DETAIL
  6
Continuous
 62
     5
100
AcDbLine
 10
263.9241497600634
 20
1585.0
 30
0.0
 11
248.394986000001
 21
1585.0
 31
0.0
  0
LINE
  5
10C48
330
11084
100
AcDbEntity
  8
DETAIL
  6
Continuous
 62
     5
100
AcDbLine
 10
280.5412750000006
 20
1580.0
 30
0.0
 11
266.568082330946
 21
1580.0
 31
0.0
  0
LINE
  5
10C49
330
11084
100
AcDbEntity
  8
DETAIL
  6
Continuous
 62
     5
100
AcDbLine
 10
279.6282930000016
 20
1585.0
 30
0.0
 11
265.5820760000005
 21
1585.0
 31
0.0
  0
LINE
  5
10C4A
330
11084
100
AcDbEntity
  8
DETAIL
  6
Continuous
 62
     5
100
AcDbLine
 10
295.2800950000007
 20
1580.0
 30
0.0
 11
282.3882600000008
 21
1580.0
 31
0.0
  0
LINE
  5
10C4B
330
11084
100
AcDbEntity
  8
DETAIL
  6
Continuous
 62
     5
100
AcDbLine
 10
294.3195800000011
 20
1585.0
 30
0.0
 11
281.4752770000015
 21
1585.0
 31
0.0
  0
LINE
  5
10C4C
330
11084
100
AcDbEntity
  8
DETAIL
  6
Continuous
 62
     5
100
AcDbLine
 10
308.5803410000008
 20
1580.0
 30
0.0
 11
296.9576740000011
 21
1580.0
 31
0.0
  0
LINE
  5
10C4D
330
11084
100
AcDbEntity
  8
DETAIL
  6
Continuous
 62
     5
100
AcDbLine
 10
307.5769710000001
 20
1585.0
 30
0.0
 11
295.9971580000007
 21
1585.0
 31
0.0
  0
LINE
  5
10C4E
330
11084
100
AcDbEntity
  8
DETAIL
  6
Continuous
 62
     5
100
AcDbLine
 10
320.377214
 20
1580.0
 30
0.0
 11
310.0803410000008
 21
1580.0
 31
0.0
  0
LINE
  5
10C4F
330
11084
100
AcDbEntity
  8
DETAIL
  6
Continuous
 62
     5
100
AcDbLine
 10
319.3358790000013
 20
1585.0
 30
0.0
 11
309.0769710000003
 21
1585.0
 31
0.0
  0
LINE
  5
10C50
330
11084
100
AcDbEntity
  8
DETAIL
  6
Continuous
 62
     5
100
AcDbLine
 10
329.5390150000001
 20
1585.0
 30
0.0
 11
320.6509930000009
 21
1585.0
 31
0.0
  0
LINE
  5
10C51
330
11084
100
AcDbEntity
  8
DETAIL
  6
Continuous
 62
     5
100
AcDbLine
 10
346.3061417941776
 20
1580.0
 30
0.0
 11
340.3465253568868
 21
1580.0
 31
0.0
  0
LINE
  5
10C52
330
11084
100
AcDbEntity
  8
DETAIL
  6
Continuous
 62
     5
100
AcDbLine
 10
338.1366690000012
 20
1585.0
 30
0.0
 11
330.6628340000005
 21
1585.0
 31
0.0
  0
LINE
  5
10C53
330
11084
100
AcDbEntity
  8
DETAIL
  6
Continuous
 62
     5
100
AcDbLine
 10
345.0869560000011
 20
1585.0
 30
0.0
 11
339.0637200000012
 21
1585.0
 31
0.0
  0
LINE
  5
10C54
330
11084
100
AcDbEntity
  8
DETAIL
  6
Continuous
 62
     5
100
AcDbLine
 10
350.3560150000012
 20
1585.0
 30
0.0
 11
345.8115130000004
 21
1585.0
 31
0.0
  0
LINE
  5
10C55
330
11084
100
AcDbEntity
  8
DETAIL
  6
Continuous
 62
     5
100
AcDbLine
 10
351.4970030000002
 20
1580.0
 30
0.0
 11
346.9368750000011
 21
1580.0
 31
0.0
  0
LINE
  5
10C56
330
11084
100
AcDbEntity
  8
DETAIL
  6
Continuous
 62
     5
100
AcDbLine
 10
355.0704170000007
 20
1580.0
 30
0.0
 11
352.1325926731847
 21
1580.0
 31
0.0
  0
LINE
  5
10C57
330
11084
100
AcDbEntity
  8
DETAIL
  6
Continuous
 62
     5
100
AcDbLine
 10
353.9181740000003
 20
1585.0
 30
0.0
 11
350.8769590000011
 21
1585.0
 31
0.0
  0
ARC
  5
10C58
330
11084
100
AcDbEntity
  8
DETAIL
  6
Continuous
 62
     5
100
AcDbCircle
 10
325.7760480000006
 20
1630.507082
 30
0.0
 40
9.993019
100
AcDbArc
 50
32.00295699999045
 51
89.39720000000098
  0
LINE
  5
10C59
330
11084
100
AcDbEntity
  8
DETAIL
  6
Continuous
 62
     5
100
AcDbLine
 10
20.82548000000151
 20
1640.5
 30
0.0
 11
20.82548000000151
 21
1632.5
 31
0.0
  0
LINE
  5
10C5A
330
11084
100
AcDbEntity
  8
DETAIL
  6
Continuous
 62
     5
100
AcDbLine
 10
43.04950100000147
 20
1640.5
 30
0.0
 11
43.04950100000147
 21
1632.5
 31
0.0
  0
LINE
  5
10C5B
330
11084
100
AcDbEntity
  8
DETAIL
  6
Continuous
 62
     5
100
AcDbLine
 10
65.06378800000146
 20
1640.5
 30
0.0
 11
65.06378800000146
 21
1632.5
 31
0.0
  0
LINE
  5
10C5C
330
11084
100
AcDbEntity
  8
DETAIL
  6
Continuous
 62
     5
100
AcDbLine
 10
86.76109200000055
 20
1640.5
 30
0.0
 11
86.76109200000055
 21
1632.5
 31
0.0
  0
LINE
  5
10C5D
330
11084
100
AcDbEntity
  8
DETAIL
  6
Continuous
 62
     5
100
AcDbLine
 10
108.0357040000007
 20
1640.5
 30
0.0
 11
108.0357040000007
 21
1632.5
 31
0.0
  0
LINE
  5
10C5E
330
11084
100
AcDbEntity
  8
DETAIL
  6
Continuous
 62
     5
100
AcDbLine
 10
128.7839770000009
 20
1640.5
 30
0.0
 11
128.7839770000009
 21
1632.5
 31
0.0
  0
LINE
  5
10C5F
330
11084
100
AcDbEntity
  8
DETAIL
  6
Continuous
 62
     5
100
AcDbLine
 10
148.9048280000003
 20
1640.5
 30
0.0
 11
148.9048280000003
 21
1632.5
 31
0.0
  0
LINE
  5
10C60
330
11084
100
AcDbEntity
  8
DETAIL
  6
Continuous
 62
     5
100
AcDbLine
 10
324.3991790000007
 20
1640.5
 30
0.0
 11
148.9048280000003
 21
1640.5
 31
0.0
  0
LINE
  5
10C61
330
11084
100
AcDbEntity
  8
DETAIL
  6
Continuous
 62
     5
100
AcDbLine
 10
24.23893800000059
 20
1640.5
 30
0.0
 11
20.82548000000151
 21
1640.5
 31
0.0
  0
LINE
  5
10C62
330
11084
100
AcDbEntity
  8
DETAIL
  6
Continuous
 62
     5
100
AcDbLine
 10
46.85978600000095
 20
1640.5
 30
0.0
 11
43.04950100000147
 21
1640.5
 31
0.0
  0
LINE
  5
10C63
330
11084
100
AcDbEntity
  8
DETAIL
  6
Continuous
 62
     5
100
AcDbLine
 10
69.2523380000012
 20
1640.5
 30
0.0
 11
65.06378800000146
 21
1640.5
 31
0.0
  0
LINE
  5
10C64
330
11084
100
AcDbEntity
  8
DETAIL
  6
Continuous
 62
     5
100
AcDbLine
 10
91.30749900000052
 20
1640.5
 30
0.0
 11
86.76109200000055
 21
1640.5
 31
0.0
  0
LINE
  5
10C65
330
11084
100
AcDbEntity
  8
DETAIL
  6
Continuous
 62
     5
100
AcDbLine
 10
112.9178200000004
 20
1640.5
 30
0.0
 11
108.0357040000007
 21
1640.5
 31
0.0
  0
LINE
  5
10C66
330
11084
100
AcDbEntity
  8
DETAIL
  6
Continuous
 62
     5
100
AcDbLine
 10
133.978017000001
 20
1640.5
 30
0.0
 11
128.7839770000009
 21
1640.5
 31
0.0
  0
LINE
  5
10C67
330
11084
100
AcDbEntity
  8
DETAIL
  6
Continuous
 62
     5
100
AcDbLine
 10
154.385486000001
 20
1640.5
 30
0.0
 11
148.9048280000003
 21
1640.5
 31
0.0
  0
ARC
  5
10C68
330
11084
100
AcDbEntity
  8
DETAIL
  6
Continuous
 62
     5
100
AcDbCircle
 10
325.1295160000009
 20
1630.599177
 30
0.0
 40
9.900823
100
AcDbArc
 50
88.7986270000521
 51
89.99962800002508
  0
ARC
  5
10C69
330
11084
100
AcDbEntity
  8
DETAIL
  6
Continuous
 62
     5
100
AcDbCircle
 10
325.7774310000003
 20
1630.571473000001
 30
0.0
 40
9.928527
100
AcDbArc
 50
89.40126800002083
 51
89.99990499996437
  0
LINE
  5
10C6A
330
11084
100
AcDbEntity
  8
DETAIL
  6
Continuous
 62
     5
100
AcDbLine
 10
325.33885
 20
1640.5
 30
0.0
 11
325.7774470000004
 21
1640.5
 31
0.0
  0
LINE
  5
10C6B
330
11084
100
AcDbEntity
  8
DETAIL
  6
Continuous
 62
     5
100
AcDbLine
 10
324.3991790000007
 20
1640.5
 30
0.0
 11
325.1295800000006
 21
1640.5
 31
0.0
  0
LINE
  5
10C6C
330
11084
100
AcDbEntity
  8
DETAIL
  6
Continuous
 62
     5
100
AcDbLine
 10
-353.9181749999992
 20
1585.0
 30
0.0
 11
-350.8769599999982
 21
1585.0
 31
0.0
  0
LINE
  5
10C6D
330
11084
100
AcDbEntity
  8
DETAIL
  6
Continuous
 62
     5
100
AcDbLine
 10
-142.1889541852731
 20
1585.0
 30
0.0
 11
-123.1773799999988
 21
1585.0
 31
0.0
  0
LINE
  5
10C6E
330
11084
100
AcDbEntity
  8
DETAIL
  6
Continuous
 62
     5
100
AcDbLine
 10
-119.4013118141039
 20
1585.0
 30
0.0
 11
-99.57577899999892
 21
1585.0
 31
0.0
  0
LINE
  5
10C6F
330
11084
100
AcDbEntity
  8
DETAIL
  6
Continuous
 62
     5
100
AcDbLine
 10
-96.48585807528336
 20
1585.0
 30
0.0
 11
-75.48905499999886
 21
1585.0
 31
0.0
  0
LINE
  5
10C70
330
11084
100
AcDbEntity
  8
DETAIL
  6
Continuous
 62
     5
100
AcDbLine
 10
-72.66957603667555
 20
1585.0
 30
0.0
 11
-51.03455499999853
 21
1585.0
 31
0.0
  0
LINE
  5
10C71
330
11084
100
AcDbEntity
  8
DETAIL
  6
Continuous
 62
     5
100
AcDbLine
 10
-47.73262496060904
 20
1585.0
 30
0.0
 11
-26.33141999999845
 21
1585.0
 31
0.0
  0
LINE
  5
10C72
330
11084
100
AcDbEntity
  8
DETAIL
  6
Continuous
 62
     5
100
AcDbLine
 10
-23.38044685999483
 20
1585.0
 30
0.0
 11
-1.500000000000054
 21
1585.0
 31
0.0
  0
LINE
  5
10C73
330
11084
100
AcDbEntity
  8
DETAIL
  6
Continuous
 62
     5
100
AcDbLine
 10
-154.385485999999
 20
1640.5
 30
0.0
 11
-148.9048289999988
 21
1640.5
 31
0.0
  0
LINE
  5
10C74
330
11084
100
AcDbEntity
  8
DETAIL
  6
Continuous
 62
     5
100
AcDbLine
 10
-133.978016999999
 20
1640.5
 30
0.0
 11
-128.783977999999
 21
1640.5
 31
0.0
  0
LINE
  5
10C75
330
11084
100
AcDbEntity
  8
DETAIL
  6
Continuous
 62
     5
100
AcDbLine
 10
-112.917820999999
 20
1640.5
 30
0.0
 11
-108.0357049999983
 21
1640.5
 31
0.0
  0
LINE
  5
10C76
330
11084
100
AcDbEntity
  8
DETAIL
  6
Continuous
 62
     5
100
AcDbLine
 10
-91.30749999999887
 20
1640.5
 30
0.0
 11
-86.76109299999898
 21
1640.5
 31
0.0
  0
LINE
  5
10C77
330
11084
100
AcDbEntity
  8
DETAIL
  6
Continuous
 62
     5
100
AcDbLine
 10
-69.25233899999892
 20
1640.5
 30
0.0
 11
-65.06378899999896
 21
1640.5
 31
0.0
  0
LINE
  5
10C78
330
11084
100
AcDbEntity
  8
DETAIL
  6
Continuous
 62
     5
100
AcDbLine
 10
-86.76109299999898
 20
1640.5
 30
0.0
 11
-86.76109299999898
 21
1632.5
 31
0.0
  0
LINE
  5
10C79
330
11084
100
AcDbEntity
  8
DETAIL
  6
Continuous
 62
     5
100
AcDbLine
 10
-65.06378899999896
 20
1640.5
 30
0.0
 11
-65.06378899999896
 21
1632.5
 31
0.0
  0
LINE
  5
10C7A
330
11084
100
AcDbEntity
  8
DETAIL
  6
Continuous
 62
     5
100
AcDbLine
 10
-20.77328212954211
 20
1640.517163381258
 30
0.0
 11
-20.77330000000001
 21
1632.5
 31
0.0
  0
LINE
  5
10C7B
330
11084
100
AcDbEntity
  8
DETAIL
  6
Continuous
 62
     5
100
AcDbLine
 10
-329.5390149999992
 20
1585.0
 30
0.0
 11
-320.6509929999991
 21
1585.0
 31
0.0
  0
LINE
  5
10C7C
330
11084
100
AcDbEntity
  8
DETAIL
  6
Continuous
 62
     5
100
AcDbLine
 10
-295.2800959999986
 20
1580.0
 30
0.0
 11
-282.3882599999996
 21
1580.0
 31
0.0
  0
LINE
  5
10C7D
330
11084
100
AcDbEntity
  8
DETAIL
  6
Continuous
 62
     5
100
AcDbLine
 10
-320.3772139999992
 20
1580.0
 30
0.0
 11
-310.0803409999981
 21
1580.0
 31
0.0
  0
LINE
  5
10C7E
330
11084
100
AcDbEntity
  8
DETAIL
  6
Continuous
 62
     5
100
AcDbLine
 10
-246.2369669999986
 20
1585.0
 30
0.0
 11
-229.9977409999993
 21
1585.0
 31
0.0
  0
LINE
  5
10C7F
330
11084
100
AcDbEntity
  8
DETAIL
  6
Continuous
 62
     5
100
AcDbLine
 10
-319.3358799999984
 20
1585.0
 30
0.0
 11
-309.0769719999989
 21
1585.0
 31
0.0
  0
LINE
  5
10C80
330
11084
100
AcDbEntity
  8
DETAIL
  6
Continuous
 62
     5
100
AcDbLine
 10
-228.4443359999984
 20
1580.0
 30
0.0
 11
-211.1609719999993
 21
1580.0
 31
0.0
  0
LINE
  5
10C81
330
11084
100
AcDbEntity
  8
DETAIL
  6
Continuous
 62
     5
100
AcDbLine
 10
-307.576971999999
 20
1585.0
 30
0.0
 11
-295.9971589999984
 21
1585.0
 31
0.0
  0
LINE
  5
10C82
330
11084
100
AcDbEntity
  8
DETAIL
  6
Continuous
 62
     5
100
AcDbLine
 10
-279.6282929999996
 20
1585.0
 30
0.0
 11
-265.5820769999995
 21
1585.0
 31
0.0
  0
LINE
  5
10C83
330
11084
100
AcDbEntity
  8
DETAIL
  6
Continuous
 62
     5
100
AcDbLine
 10
-308.5803409999986
 20
1580.0
 30
0.0
 11
-296.9576749999996
 21
1580.0
 31
0.0
  0
LINE
  5
10C84
330
11084
100
AcDbEntity
  8
DETAIL
  6
Continuous
 62
     5
100
AcDbLine
 10
-227.6996069999984
 20
1585.0
 30
0.0
 11
-210.4799689999985
 21
1585.0
 31
0.0
  0
LINE
  5
10C85
330
11084
100
AcDbEntity
  8
DETAIL
  6
Continuous
 62
     5
100
AcDbLine
 10
-294.3195799999994
 20
1585.0
 30
0.0
 11
-281.4752779999985
 21
1585.0
 31
0.0
  0
LINE
  5
10C86
330
11084
100
AcDbEntity
  8
DETAIL
  6
Continuous
 62
     5
100
AcDbLine
 10
-280.5412759999991
 20
1580.0
 30
0.0
 11
-266.4430779999984
 21
1580.0
 31
0.0
  0
LINE
  5
10C87
330
11084
100
AcDbEntity
  8
DETAIL
  6
Continuous
 62
     5
100
AcDbLine
 10
-263.5746849999999
 20
1585.0
 30
0.0
 11
-248.3949869999997
 21
1585.0
 31
0.0
  0
LINE
  5
10C88
330
11084
100
AcDbEntity
  8
DETAIL
  6
Continuous
 62
     5
100
AcDbLine
 10
-208.0529179999995
 20
1585.0
 30
0.0
 11
-189.936758999999
 21
1585.0
 31
0.0
  0
LINE
  5
10C89
330
11084
100
AcDbEntity
  8
DETAIL
  6
Continuous
 62
     5
100
AcDbLine
 10
-264.4356859999984
 20
1580.0
 30
0.0
 11
-249.1998119999989
 21
1580.0
 31
0.0
  0
LINE
  5
10C8A
330
11084
100
AcDbEntity
  8
DETAIL
  6
Continuous
 62
     5
100
AcDbLine
 10
-247.0417929999993
 20
1580.0
 30
0.0
 11
-230.742468999999
 21
1580.0
 31
0.0
  0
LINE
  5
10C8B
330
11084
100
AcDbEntity
  8
DETAIL
  6
Continuous
 62
     5
100
AcDbLine
 10
-187.3926149999986
 20
1585.0
 30
0.0
 11
-168.4681959999988
 21
1585.0
 31
0.0
  0
LINE
  5
10C8C
330
11084
100
AcDbEntity
  8
DETAIL
  6
Continuous
 62
     5
100
AcDbLine
 10
-188.0065749999993
 20
1580.0
 30
0.0
 11
-169.0121219999987
 21
1580.0
 31
0.0
  0
LINE
  5
10C8D
330
11084
100
AcDbEntity
  8
DETAIL
  6
Continuous
 62
     5
100
AcDbLine
 10
-165.0208019608933
 20
1585.0
 30
0.0
 11
-146.1625279999989
 21
1585.0
 31
0.0
  0
LINE
  5
10C8E
330
11084
100
AcDbEntity
  8
DETAIL
  6
Continuous
 62
     5
100
AcDbLine
 10
-208.7339209999989
 20
1580.0
 30
0.0
 11
-190.5507189999989
 21
1580.0
 31
0.0
  0
LINE
  5
10C8F
330
11084
100
AcDbEntity
  8
DETAIL
  6
Continuous
 62
     5
100
AcDbLine
 10
-165.6154714949996
 20
1580.0
 30
0.0
 11
-146.6161689999983
 21
1580.0
 31
0.0
  0
ARC
  5
10C90
330
11084
100
AcDbEntity
  8
OUTLINE
  6
Continuous
 62
     3
100
AcDbCircle
 10
-186.1400559999989
 20
1543.0
 30
0.0
 40
175.0
100
AcDbArc
 50
147.9740679999971
 51
177.7075570000014
  0
LINE
  5
10C91
330
11084
100
AcDbEntity
  8
DETAIL
  6
Continuous
 62
     5
100
AcDbLine
 10
-355.0704179999992
 20
1580.0
 30
0.0
 11
-352.0179489999982
 21
1580.0
 31
0.0
  0
LINE
  5
10C92
330
11084
100
AcDbEntity
  8
DETAIL
  6
Continuous
 62
     5
100
AcDbLine
 10
-142.727181878296
 20
1580.0
 30
0.0
 11
-123.5736419999995
 21
1580.0
 31
0.0
  0
ARC
  5
10C93
330
11084
100
AcDbEntity
  8
OUTLINE
  6
Continuous
 62
     3
100
AcDbCircle
 10
-326.028404999999
 20
1630.5
 30
0.0
 40
10.0
100
AcDbArc
 50
90.0
 51
147.9740679999971
  0
LINE
  5
10C94
330
11084
100
AcDbEntity
  8
DETAIL
  6
Continuous
 62
     5
100
AcDbLine
 10
-346.211131999998
 20
1580.0
 30
0.0
 11
-340.165605999998
 21
1580.0
 31
0.0
  0
LINE
  5
10C95
330
11084
100
AcDbEntity
  8
DETAIL
  6
Continuous
 62
     5
100
AcDbLine
 10
-119.8285245703771
 20
1580.0
 30
0.0
 11
-99.8951299999987
 21
1580.0
 31
0.0
  0
ARC
  5
10C96
330
11084
100
AcDbEntity
  8
DETAIL
  6
Continuous
 62
     5
100
AcDbCircle
 10
-325.8807719999982
 20
1630.507107
 30
0.0
 40
9.992986
100
AcDbArc
 50
90.00787799999434
 51
147.9970869999708
  0
ARC
  5
10C97
330
11084
100
AcDbEntity
  8
DETAIL
  6
Continuous
 62
     5
100
AcDbCircle
 10
-325.7774309999983
 20
1630.571473000001
 30
0.0
 40
9.928527
100
AcDbArc
 50
90.00009500003564
 51
90.59873199997914
  0
LINE
  5
10C98
330
11084
100
AcDbEntity
  8
DETAIL
  6
Continuous
 62
     5
100
AcDbLine
 10
-96.87462634790549
 20
1580.0
 30
0.0
 11
-75.72993999999899
 21
1580.0
 31
0.0
  0
LINE
  5
10C99
330
11084
100
AcDbEntity
  8
DETAIL
  6
Continuous
 62
     5
100
AcDbLine
 10
-350.356014999998
 20
1585.0
 30
0.0
 11
-345.8115139999991
 21
1585.0
 31
0.0
  0
LINE
  5
10C9A
330
11084
100
AcDbEntity
  8
DETAIL
  6
Continuous
 62
     5
100
AcDbLine
 10
-72.94431956647078
 20
1580.0
 30
0.0
 11
-51.19579999999956
 21
1580.0
 31
0.0
  0
LINE
  5
10C9B
330
11084
100
AcDbEntity
  8
DETAIL
  6
Continuous
 62
     5
100
AcDbLine
 10
-47.88920429361309
 20
1580.0
 30
0.0
 11
-26.41223899999926
 21
1580.0
 31
0.0
  0
LINE
  5
10C9C
330
11084
100
AcDbEntity
  8
DETAIL
  6
Continuous
 62
     5
100
AcDbLine
 10
-23.47329431056852
 20
1580.0
 30
0.0
 11
-1.500000000000054
 21
1580.0
 31
0.0
  0
LINE
  5
10C9D
330
11084
100
AcDbEntity
  8
DETAIL
  6
Continuous
 62
     5
100
AcDbLine
 10
-339.238554999998
 20
1580.0
 30
0.0
 11
-331.7370619999997
 21
1580.0
 31
0.0
  0
LINE
  5
10C9E
330
11084
100
AcDbEntity
  8
DETAIL
  6
Continuous
 62
     5
100
AcDbLine
 10
-351.497003999998
 20
1580.0
 30
0.0
 11
-346.9368760000002
 21
1580.0
 31
0.0
  0
LINE
  5
10C9F
330
11084
100
AcDbEntity
  8
DETAIL
  6
Continuous
 62
     5
100
AcDbLine
 10
-323.0642779999992
 20
1640.5
 30
0.0
 11
-325.7774474621248
 21
1640.499999999987
 31
0.0
  0
LINE
  5
10CA0
330
11084
100
AcDbEntity
  8
DETAIL
  6
Continuous
 62
     5
100
AcDbLine
 10
-345.0869569999992
 20
1585.0
 30
0.0
 11
-339.0637209999982
 21
1585.0
 31
0.0
  0
LINE
  5
10CA1
330
11084
100
AcDbEntity
  8
DETAIL
  6
Continuous
 62
     5
100
AcDbLine
 10
-330.6132419999987
 20
1580.0
 30
0.0
 11
-321.6923279999991
 21
1580.0
 31
0.0
  0
LINE
  5
10CA2
330
11084
100
AcDbEntity
  8
DETAIL
  6
Continuous
 62
     5
100
AcDbLine
 10
-338.13667
 20
1585.0
 30
0.0
 11
-330.6628349999991
 21
1585.0
 31
0.0
  0
LINE
  5
10CA3
330
11084
100
AcDbEntity
  8
DETAIL
  6
Continuous
 62
     5
100
AcDbLine
 10
-323.0642779999992
 20
1640.5
 30
0.0
 11
-148.9048289999988
 21
1640.5
 31
0.0
  0
LINE
  5
10CA4
330
11084
100
AcDbEntity
  8
DETAIL
  6
Continuous
 62
     5
100
AcDbLine
 10
-148.9048289999988
 20
1640.5
 30
0.0
 11
-148.9048289999988
 21
1632.5
 31
0.0
  0
LINE
  5
10CA5
330
11084
100
AcDbEntity
  8
DETAIL
  6
Continuous
 62
     5
100
AcDbLine
 10
-128.783977999999
 20
1640.5
 30
0.0
 11
-128.783977999999
 21
1632.5
 31
0.0
  0
LINE
  5
10CA6
330
11084
100
AcDbEntity
  8
DETAIL
  6
Continuous
 62
     5
100
AcDbLine
 10
-108.0357049999983
 20
1640.5
 30
0.0
 11
-108.0357049999983
 21
1632.5
 31
0.0
  0
LINE
  5
10CA7
330
11084
100
AcDbEntity
  8
DETAIL
  6
Continuous
 62
     5
100
AcDbLine
 10
319.9999999999999
 20
1641.6
 30
0.0
 11
319.9999999999999
 21
1640.5
 31
0.0
  0
LINE
  5
10CA8
330
11084
100
AcDbEntity
  8
DETAIL
  6
Continuous
 62
     5
100
AcDbLine
 10
299.9999999999999
 20
1642.300000000001
 30
0.0
 11
299.9999999999999
 21
1641.6
 31
0.0
  0
LINE
  5
10CA9
330
11084
100
AcDbEntity
  8
DETAIL
  6
Continuous
 62
     5
100
AcDbLine
 10
279.9999999999999
 20
1643.0
 30
0.0
 11
279.9999999999999
 21
1642.300000000001
 31
0.0
  0
LINE
  5
10CAA
330
11084
100
AcDbEntity
  8
DETAIL
  6
Continuous
 62
     5
100
AcDbLine
 10
260.0
 20
1643.7
 30
0.0
 11
260.0
 21
1643.0
 31
0.0
  0
LINE
  5
10CAB
330
11084
100
AcDbEntity
  8
DETAIL
  6
Continuous
 62
     5
100
AcDbLine
 10
239.9999999999999
 20
1644.400000000001
 30
0.0
 11
239.9999999999999
 21
1643.7
 31
0.0
  0
LINE
  5
10CAC
330
11084
100
AcDbEntity
  8
DETAIL
  6
Continuous
 62
     5
100
AcDbLine
 10
219.9999999999999
 20
1645.1
 30
0.0
 11
219.9999999999999
 21
1644.400000000001
 31
0.0
  0
LINE
  5
10CAD
330
11084
100
AcDbEntity
  8
DETAIL
  6
Continuous
 62
     5
100
AcDbLine
 10
199.9999999999998
 20
1645.8
 30
0.0
 11
199.9999999999998
 21
1645.1
 31
0.0
  0
LINE
  5
10CAE
330
11084
100
AcDbEntity
  8
DETAIL
  6
Continuous
 62
     5
100
AcDbLine
 10
180.0
 20
1646.5
 30
0.0
 11
180.0
 21
1645.8
 31
0.0
  0
LINE
  5
10CAF
330
11084
100
AcDbEntity
  8
DETAIL
  6
Continuous
 62
     5
100
AcDbLine
 10
160.0
 20
1647.199999999999
 30
0.0
 11
160.0
 21
1646.5
 31
0.0
  0
LINE
  5
10CB0
330
11084
100
AcDbEntity
  8
DETAIL
  6
Continuous
 62
     5
100
AcDbLine
 10
140.0
 20
1647.900000000001
 30
0.0
 11
140.0
 21
1647.199999999999
 31
0.0
  0
LINE
  5
10CB1
330
11084
100
AcDbEntity
  8
DETAIL
  6
Continuous
 62
     5
100
AcDbLine
 10
119.9999999999999
 20
1648.6
 30
0.0
 11
119.9999999999999
 21
1647.900000000001
 31
0.0
  0
LINE
  5
10CB2
330
11084
100
AcDbEntity
  8
DETAIL
  6
Continuous
 62
     5
100
AcDbLine
 10
-139.9999699999989
 20
1647.900000000001
 30
0.0
 11
139.9999690000004
 21
1647.900000000001
 31
0.0
  0
LINE
  5
10CB3
330
11084
100
AcDbEntity
  8
DETAIL
  6
Continuous
 62
     5
100
AcDbLine
 10
-159.9999699999989
 20
1647.199999999999
 30
0.0
 11
159.9999690000005
 21
1647.199999999999
 31
0.0
  0
LINE
  5
10CB4
330
11084
100
AcDbEntity
  8
DETAIL
  6
Continuous
 62
     5
100
AcDbLine
 10
-179.9999709999989
 20
1646.5
 30
0.0
 11
179.9999700000005
 21
1646.5
 31
0.0
  0
LINE
  5
10CB5
330
11084
100
AcDbEntity
  8
DETAIL
  6
Continuous
 62
     5
100
AcDbLine
 10
-200.0
 20
1645.8
 30
0.0
 11
199.9999999999998
 21
1645.8
 31
0.0
  0
LINE
  5
10CB6
330
11084
100
AcDbEntity
  8
DETAIL
  6
Continuous
 62
     5
100
AcDbLine
 10
-220.0000000000001
 20
1645.1
 30
0.0
 11
219.9999999999999
 21
1645.1
 31
0.0
  0
LINE
  5
10CB7
330
11084
100
AcDbEntity
  8
DETAIL
  6
Continuous
 62
     5
100
AcDbLine
 10
-239.9999699999989
 20
1644.400000000001
 30
0.0
 11
239.9999690000004
 21
1644.400000000001
 31
0.0
  0
LINE
  5
10CB8
330
11084
100
AcDbEntity
  8
DETAIL
  6
Continuous
 62
     5
100
AcDbLine
 10
-259.9999709999996
 20
1643.7
 30
0.0
 11
259.9999700000006
 21
1643.7
 31
0.0
  0
LINE
  5
10CB9
330
11084
100
AcDbEntity
  8
DETAIL
  6
Continuous
 62
     5
100
AcDbLine
 10
-280.0000000000001
 20
1643.0
 30
0.0
 11
279.9999999999999
 21
1643.0
 31
0.0
  0
LINE
  5
10CBA
330
11084
100
AcDbEntity
  8
DETAIL
  6
Continuous
 62
     5
100
AcDbLine
 10
-299.999969999999
 20
1642.300000000001
 30
0.0
 11
299.9999690000001
 21
1642.300000000001
 31
0.0
  0
LINE
  5
10CBB
330
11084
100
AcDbEntity
  8
DETAIL
  6
Continuous
 62
     5
100
AcDbLine
 10
-320.0000000000003
 20
1641.6
 30
0.0
 11
319.9999999999999
 21
1641.6
 31
0.0
  0
LINE
  5
10CBC
330
11084
100
AcDbEntity
  8
DETAIL
  6
Continuous
 62
     5
100
AcDbLine
 10
-1.500000000000054
 20
1640.5
 30
0.0
 11
1.499999999999938
 21
1640.5
 31
0.0
  0
LINE
  5
10CBD
330
11084
100
AcDbEntity
  8
DETAIL
  6
Continuous
 62
     5
100
AcDbLine
 10
1.499999999999938
 20
1640.5
 30
0.0
 11
1.499999999999938
 21
1550.0
 31
0.0
  0
LINE
  5
10CBE
330
11084
100
AcDbEntity
  8
DETAIL
  6
Continuous
 62
     5
100
AcDbLine
 10
-1.500000000000054
 20
1640.5
 30
0.0
 11
-1.500000000000054
 21
1550.0
 31
0.0
  0
LINE
  5
10CBF
330
11084
100
AcDbEntity
  8
DETAIL
  6
Continuous
 62
     5
100
AcDbLine
 10
-120.0
 20
1648.6
 30
0.0
 11
-120.0
 21
1647.900000000001
 31
0.0
  0
LINE
  5
10CC0
330
11084
100
AcDbEntity
  8
DETAIL
  6
Continuous
 62
     5
100
AcDbLine
 10
-140.0
 20
1647.900000000001
 30
0.0
 11
-140.0
 21
1647.199999999999
 31
0.0
  0
LINE
  5
10CC1
330
11084
100
AcDbEntity
  8
DETAIL
  6
Continuous
 62
     5
100
AcDbLine
 10
-160.0
 20
1647.199999999999
 30
0.0
 11
-160.0
 21
1646.5
 31
0.0
  0
LINE
  5
10CC2
330
11084
100
AcDbEntity
  8
DETAIL
  6
Continuous
 62
     5
100
AcDbLine
 10
-180.0
 20
1646.5
 30
0.0
 11
-180.0
 21
1645.8
 31
0.0
  0
LINE
  5
10CC3
330
11084
100
AcDbEntity
  8
DETAIL
  6
Continuous
 62
     5
100
AcDbLine
 10
-200.0
 20
1645.8
 30
0.0
 11
-200.0
 21
1645.1
 31
0.0
  0
LINE
  5
10CC4
330
11084
100
AcDbEntity
  8
DETAIL
  6
Continuous
 62
     5
100
AcDbLine
 10
-220.0000000000001
 20
1645.1
 30
0.0
 11
-220.0000000000001
 21
1644.400000000001
 31
0.0
  0
LINE
  5
10CC5
330
11084
100
AcDbEntity
  8
DETAIL
  6
Continuous
 62
     5
100
AcDbLine
 10
-240.0000000000002
 20
1644.400000000001
 30
0.0
 11
-240.0000000000002
 21
1643.7
 31
0.0
  0
LINE
  5
10CC6
330
11084
100
AcDbEntity
  8
DETAIL
  6
Continuous
 62
     5
100
AcDbLine
 10
-260.0000000000003
 20
1643.7
 30
0.0
 11
-260.0000000000003
 21
1643.0
 31
0.0
  0
LINE
  5
10CC7
330
11084
100
AcDbEntity
  8
DETAIL
  6
Continuous
 62
     5
100
AcDbLine
 10
-280.0000000000001
 20
1643.0
 30
0.0
 11
-280.0000000000001
 21
1642.300000000001
 31
0.0
  0
LINE
  5
10CC8
330
11084
100
AcDbEntity
  8
DETAIL
  6
Continuous
 62
     5
100
AcDbLine
 10
-300.0000000000003
 20
1642.300000000001
 30
0.0
 11
-300.0000000000003
 21
1641.6
 31
0.0
  0
LINE
  5
10CC9
330
11084
100
AcDbEntity
  8
DETAIL
  6
Continuous
 62
     5
100
AcDbLine
 10
-320.0000000000003
 20
1641.6
 30
0.0
 11
-320.0000000000003
 21
1640.5
 31
0.0
  0
LINE
  5
10CCA
330
11084
100
AcDbEntity
  8
OUTLINE
  6
Continuous
 62
     3
100
AcDbLine
 10
-320.0000000000003
 20
1640.5
 30
0.0
 11
-320.0000000000003
 21
1641.6
 31
0.0
  0
LINE
  5
10CCB
330
11084
100
AcDbEntity
  8
OUTLINE
  6
Continuous
 62
     3
100
AcDbLine
 10
-320.0000000000003
 20
1641.6
 30
0.0
 11
-300.0000000000003
 21
1641.6
 31
0.0
  0
LINE
  5
10CCC
330
11084
100
AcDbEntity
  8
OUTLINE
  6
Continuous
 62
     3
100
AcDbLine
 10
-300.0000000000003
 20
1641.6
 30
0.0
 11
-300.0000000000003
 21
1642.300000000001
 31
0.0
  0
LINE
  5
10CCD
330
11084
100
AcDbEntity
  8
OUTLINE
  6
Continuous
 62
     3
100
AcDbLine
 10
-300.0000000000003
 20
1642.300000000001
 30
0.0
 11
-280.0000000000001
 21
1642.300000000001
 31
0.0
  0
LINE
  5
10CCE
330
11084
100
AcDbEntity
  8
OUTLINE
  6
Continuous
 62
     3
100
AcDbLine
 10
-280.0000000000001
 20
1642.300000000001
 30
0.0
 11
-280.0000000000001
 21
1643.0
 31
0.0
  0
LINE
  5
10CCF
330
11084
100
AcDbEntity
  8
OUTLINE
  6
Continuous
 62
     3
100
AcDbLine
 10
-280.0000000000001
 20
1643.0
 30
0.0
 11
-260.0000000000003
 21
1643.0
 31
0.0
  0
LINE
  5
10CD0
330
11084
100
AcDbEntity
  8
OUTLINE
  6
Continuous
 62
     3
100
AcDbLine
 10
-260.0000000000003
 20
1643.0
 30
0.0
 11
-259.9999709999996
 21
1643.7
 31
0.0
  0
LINE
  5
10CD1
330
11084
100
AcDbEntity
  8
OUTLINE
  6
Continuous
 62
     3
100
AcDbLine
 10
-259.9999709999996
 20
1643.7
 30
0.0
 11
-240.0000000000002
 21
1643.7
 31
0.0
  0
LINE
  5
10CD2
330
11084
100
AcDbEntity
  8
OUTLINE
  6
Continuous
 62
     3
100
AcDbLine
 10
-240.0000000000002
 20
1643.7
 30
0.0
 11
-239.9999699999989
 21
1644.400000000001
 31
0.0
  0
LINE
  5
10CD3
330
11084
100
AcDbEntity
  8
OUTLINE
  6
Continuous
 62
     3
100
AcDbLine
 10
-239.9999699999989
 20
1644.400000000001
 30
0.0
 11
-220.0000000000001
 21
1644.400000000001
 31
0.0
  0
LINE
  5
10CD4
330
11084
100
AcDbEntity
  8
OUTLINE
  6
Continuous
 62
     3
100
AcDbLine
 10
-220.0000000000001
 20
1644.400000000001
 30
0.0
 11
-220.0000000000001
 21
1645.1
 31
0.0
  0
LINE
  5
10CD5
330
11084
100
AcDbEntity
  8
OUTLINE
  6
Continuous
 62
     3
100
AcDbLine
 10
-220.0000000000001
 20
1645.1
 30
0.0
 11
-200.0
 21
1645.1
 31
0.0
  0
LINE
  5
10CD6
330
11084
100
AcDbEntity
  8
OUTLINE
  6
Continuous
 62
     3
100
AcDbLine
 10
-200.0
 20
1645.1
 30
0.0
 11
-200.0
 21
1645.8
 31
0.0
  0
LINE
  5
10CD7
330
11084
100
AcDbEntity
  8
OUTLINE
  6
Continuous
 62
     3
100
AcDbLine
 10
-200.0
 20
1645.8
 30
0.0
 11
-180.0
 21
1645.8
 31
0.0
  0
LINE
  5
10CD8
330
11084
100
AcDbEntity
  8
OUTLINE
  6
Continuous
 62
     3
100
AcDbLine
 10
-180.0
 20
1645.8
 30
0.0
 11
-180.0
 21
1646.5
 31
0.0
  0
LINE
  5
10CD9
330
11084
100
AcDbEntity
  8
OUTLINE
  6
Continuous
 62
     3
100
AcDbLine
 10
-180.0
 20
1646.5
 30
0.0
 11
-160.0
 21
1646.5
 31
0.0
  0
LINE
  5
10CDA
330
11084
100
AcDbEntity
  8
OUTLINE
  6
Continuous
 62
     3
100
AcDbLine
 10
-160.0
 20
1646.5
 30
0.0
 11
-159.9999699999989
 21
1647.199999999999
 31
0.0
  0
LINE
  5
10CDB
330
11084
100
AcDbEntity
  8
OUTLINE
  6
Continuous
 62
     3
100
AcDbLine
 10
-159.9999699999989
 20
1647.199999999999
 30
0.0
 11
-140.0
 21
1647.199999999999
 31
0.0
  0
LINE
  5
10CDC
330
11084
100
AcDbEntity
  8
OUTLINE
  6
Continuous
 62
     3
100
AcDbLine
 10
-140.0
 20
1647.199999999999
 30
0.0
 11
-139.9999699999989
 21
1647.900000000001
 31
0.0
  0
LINE
  5
10CDD
330
11084
100
AcDbEntity
  8
OUTLINE
  6
Continuous
 62
     3
100
AcDbLine
 10
-139.9999699999989
 20
1647.900000000001
 30
0.0
 11
-120.0
 21
1647.900000000001
 31
0.0
  0
LINE
  5
10CDE
330
11084
100
AcDbEntity
  8
OUTLINE
  6
Continuous
 62
     3
100
AcDbLine
 10
-120.0
 20
1647.900000000001
 30
0.0
 11
-120.0
 21
1648.6
 31
0.0
  0
LINE
  5
10CDF
330
11084
100
AcDbEntity
  8
OUTLINE
  6
Continuous
 62
     3
100
AcDbLine
 10
-120.0
 20
1648.6
 30
0.0
 11
-100.0
 21
1648.6
 31
0.0
  0
LINE
  5
10CE0
330
11084
100
AcDbEntity
  8
OUTLINE
  6
Continuous
 62
     3
100
AcDbLine
 10
-100.0
 20
1648.6
 30
0.0
 11
-100.0
 21
1649.300000000001
 31
0.0
  0
LINE
  5
10CE1
330
11084
100
AcDbEntity
  8
OUTLINE
  6
Continuous
 62
     3
100
AcDbLine
 10
-100.0
 20
1649.300000000001
 30
0.0
 11
-80.00000000000005
 21
1649.300000000001
 31
0.0
  0
LINE
  5
10CE2
330
11084
100
AcDbEntity
  8
OUTLINE
  6
Continuous
 62
     3
100
AcDbLine
 10
-80.00000000000005
 20
1649.300000000001
 30
0.0
 11
-79.99996899999866
 21
1650.0
 31
0.0
  0
LINE
  5
10CE3
330
11084
100
AcDbEntity
  8
OUTLINE
  6
Continuous
 62
     3
100
AcDbLine
 10
-79.99996899999866
 20
1650.0
 30
0.0
 11
79.99996800000092
 21
1650.0
 31
0.0
  0
LINE
  5
10CE4
330
11084
100
AcDbEntity
  8
OUTLINE
  6
Continuous
 62
     3
100
AcDbLine
 10
79.99996800000092
 20
1650.0
 30
0.0
 11
79.9999999999999
 21
1649.300000000001
 31
0.0
  0
LINE
  5
10CE5
330
11084
100
AcDbEntity
  8
OUTLINE
  6
Continuous
 62
     3
100
AcDbLine
 10
79.9999999999999
 20
1649.300000000001
 30
0.0
 11
99.99999999999992
 21
1649.300000000001
 31
0.0
  0
LINE
  5
10CE6
330
11084
100
AcDbEntity
  8
OUTLINE
  6
Continuous
 62
     3
100
AcDbLine
 10
99.99999999999992
 20
1649.300000000001
 30
0.0
 11
99.99999999999992
 21
1648.6
 31
0.0
  0
LINE
  5
10CE7
330
11084
100
AcDbEntity
  8
OUTLINE
  6
Continuous
 62
     3
100
AcDbLine
 10
99.99999999999992
 20
1648.6
 30
0.0
 11
119.9999700000006
 21
1648.6
 31
0.0
  0
LINE
  5
10CE8
330
11084
100
AcDbEntity
  8
OUTLINE
  6
Continuous
 62
     3
100
AcDbLine
 10
119.9999700000006
 20
1648.6
 30
0.0
 11
119.9999999999999
 21
1647.900000000001
 31
0.0
  0
LINE
  5
10CE9
330
11084
100
AcDbEntity
  8
OUTLINE
  6
Continuous
 62
     3
100
AcDbLine
 10
119.9999999999999
 20
1647.900000000001
 30
0.0
 11
139.9999690000004
 21
1647.900000000001
 31
0.0
  0
LINE
  5
10CEA
330
11084
100
AcDbEntity
  8
OUTLINE
  6
Continuous
 62
     3
100
AcDbLine
 10
139.9999690000004
 20
1647.900000000001
 30
0.0
 11
140.0
 21
1647.199999999999
 31
0.0
  0
LINE
  5
10CEB
330
11084
100
AcDbEntity
  8
OUTLINE
  6
Continuous
 62
     3
100
AcDbLine
 10
140.0
 20
1647.199999999999
 30
0.0
 11
160.0
 21
1647.199999999999
 31
0.0
  0
LINE
  5
10CEC
330
11084
100
AcDbEntity
  8
OUTLINE
  6
Continuous
 62
     3
100
AcDbLine
 10
160.0
 20
1647.199999999999
 30
0.0
 11
160.0
 21
1646.5
 31
0.0
  0
LINE
  5
10CED
330
11084
100
AcDbEntity
  8
OUTLINE
  6
Continuous
 62
     3
100
AcDbLine
 10
160.0
 20
1646.5
 30
0.0
 11
179.9999700000005
 21
1646.5
 31
0.0
  0
LINE
  5
10CEE
330
11084
100
AcDbEntity
  8
OUTLINE
  6
Continuous
 62
     3
100
AcDbLine
 10
179.9999700000005
 20
1646.5
 30
0.0
 11
179.9999700000005
 21
1645.8
 31
0.0
  0
LINE
  5
10CEF
330
11084
100
AcDbEntity
  8
OUTLINE
  6
Continuous
 62
     3
100
AcDbLine
 10
179.9999700000005
 20
1645.8
 30
0.0
 11
199.9999999999998
 21
1645.8
 31
0.0
  0
LINE
  5
10CF0
330
11084
100
AcDbEntity
  8
OUTLINE
  6
Continuous
 62
     3
100
AcDbLine
 10
199.9999999999998
 20
1645.8
 30
0.0
 11
199.9999999999998
 21
1645.1
 31
0.0
  0
LINE
  5
10CF1
330
11084
100
AcDbEntity
  8
OUTLINE
  6
Continuous
 62
     3
100
AcDbLine
 10
199.9999999999998
 20
1645.1
 30
0.0
 11
219.9999999999999
 21
1645.1
 31
0.0
  0
LINE
  5
10CF2
330
11084
100
AcDbEntity
  8
OUTLINE
  6
Continuous
 62
     3
100
AcDbLine
 10
219.9999999999999
 20
1645.1
 30
0.0
 11
219.9999999999999
 21
1644.400000000001
 31
0.0
  0
LINE
  5
10CF3
330
11084
100
AcDbEntity
  8
OUTLINE
  6
Continuous
 62
     3
100
AcDbLine
 10
219.9999999999999
 20
1644.400000000001
 30
0.0
 11
239.9999690000004
 21
1644.400000000001
 31
0.0
  0
LINE
  5
10CF4
330
11084
100
AcDbEntity
  8
OUTLINE
  6
Continuous
 62
     3
100
AcDbLine
 10
239.9999690000004
 20
1644.400000000001
 30
0.0
 11
239.9999690000004
 21
1643.7
 31
0.0
  0
LINE
  5
10CF5
330
11084
100
AcDbEntity
  8
OUTLINE
  6
Continuous
 62
     3
100
AcDbLine
 10
239.9999690000004
 20
1643.7
 30
0.0
 11
259.9999700000006
 21
1643.7
 31
0.0
  0
LINE
  5
10CF6
330
11084
100
AcDbEntity
  8
OUTLINE
  6
Continuous
 62
     3
100
AcDbLine
 10
259.9999700000006
 20
1643.7
 30
0.0
 11
260.0
 21
1643.0
 31
0.0
  0
LINE
  5
10CF7
330
11084
100
AcDbEntity
  8
OUTLINE
  6
Continuous
 62
     3
100
AcDbLine
 10
260.0
 20
1643.0
 30
0.0
 11
279.9999999999999
 21
1643.0
 31
0.0
  0
LINE
  5
10CF8
330
11084
100
AcDbEntity
  8
OUTLINE
  6
Continuous
 62
     3
100
AcDbLine
 10
279.9999999999999
 20
1643.0
 30
0.0
 11
279.9999999999999
 21
1642.300000000001
 31
0.0
  0
LINE
  5
10CF9
330
11084
100
AcDbEntity
  8
OUTLINE
  6
Continuous
 62
     3
100
AcDbLine
 10
279.9999999999999
 20
1642.300000000001
 30
0.0
 11
299.9999999999999
 21
1642.300000000001
 31
0.0
  0
LINE
  5
10CFA
330
11084
100
AcDbEntity
  8
OUTLINE
  6
Continuous
 62
     3
100
AcDbLine
 10
299.9999999999999
 20
1642.300000000001
 30
0.0
 11
299.9999999999999
 21
1641.6
 31
0.0
  0
LINE
  5
10CFB
330
11084
100
AcDbEntity
  8
OUTLINE
  6
Continuous
 62
     3
100
AcDbLine
 10
299.9999999999999
 20
1641.6
 30
0.0
 11
319.9999999999999
 21
1641.6
 31
0.0
  0
LINE
  5
10CFC
330
11084
100
AcDbEntity
  8
OUTLINE
  6
Continuous
 62
     3
100
AcDbLine
 10
319.9999999999999
 20
1641.6
 30
0.0
 11
319.9999999999999
 21
1640.5
 31
0.0
  0
LINE
  5
10CFD
330
11084
100
AcDbEntity
  8
OUTLINE
  6
Continuous
 62
     3
100
AcDbLine
 10
319.9999999999999
 20
1640.5
 30
0.0
 11
326.0284040000005
 21
1640.5
 31
0.0
  0
ARC
  5
10CFE
330
11084
100
AcDbEntity
  8
OUTLINE
  6
Continuous
 62
     3
100
AcDbCircle
 10
326.0284040000005
 20
1630.5
 30
0.0
 40
10.0
100
AcDbArc
 50
32.02593200000286
 51
90.0
  0
ARC
  5
10CFF
330
11084
100
AcDbEntity
  8
OUTLINE
  6
Continuous
 62
     3
100
AcDbCircle
 10
186.1400751509648
 20
1543.000005821881
 30
0.0
 40
174.9999806762958
100
AcDbArc
 50
2.292441121589772
 51
32.02593370905685
  0
ARC
  5
10D00
330
11084
100
AcDbEntity
  8
OUTLINE
  6
Continuous
 62
     3
100
AcDbCircle
 10
-186.1400559999989
 20
1543.0
 30
0.0
 40
175.0
100
AcDbArc
 50
147.9740679999971
 51
177.7075570000014
  0
LINE
  5
10D01
330
11084
100
AcDbEntity
  8
OUTLINE
  6
Continuous
 62
     3
100
AcDbLine
 10
-326.028404999999
 20
1640.5
 30
0.0
 11
-320.0000000000003
 21
1640.5
 31
0.0
  0
LINE
  5
10D02
330
11084
100
AcDbEntity
  8
DETAIL
  6
Continuous
 62
     5
100
AcDbLine
 10
241.2826253395814
 20
1640.500000376783
 30
0.0
 11
241.3257200674243
 21
1640.499297427568
 31
0.0
  0
LINE
  5
10D03
330
11084
100
AcDbEntity
  8
DETAIL
  6
Continuous
 62
     5
100
AcDbLine
 10
241.3257200674243
 20
1640.499297427568
 30
0.0
 11
241.3688142379623
 21
1640.498533116454
 31
0.0
  0
LINE
  5
10D04
330
11084
100
AcDbEntity
  8
DETAIL
  6
Continuous
 62
     5
100
AcDbLine
 10
241.3688142379623
 20
1640.498533116454
 30
0.0
 11
241.4119072938905
 21
1640.497646081536
 31
0.0
  0
LINE
  5
10D05
330
11084
100
AcDbEntity
  8
DETAIL
  6
Continuous
 62
     5
100
AcDbLine
 10
241.4119072938905
 20
1640.497646081536
 30
0.0
 11
241.454998677904
 21
1640.496574960917
 31
0.0
  0
LINE
  5
10D06
330
11084
100
AcDbEntity
  8
DETAIL
  6
Continuous
 62
     5
100
AcDbLine
 10
241.454998677904
 20
1640.496574960917
 30
0.0
 11
241.4980878326976
 21
1640.495258392691
 31
0.0
  0
LINE
  5
10D07
330
11084
100
AcDbEntity
  8
DETAIL
  6
Continuous
 62
     5
100
AcDbLine
 10
43.95543572264879
 20
1640.488635880138
 30
0.0
 11
43.96454352556024
 21
1640.485486888384
 31
0.0
  0
LINE
  5
10D08
330
11084
100
AcDbEntity
  8
DETAIL
  6
Continuous
 62
     5
100
AcDbLine
 10
43.96454352556024
 20
1640.485486888384
 30
0.0
 11
43.97351696044466
 21
1640.481841728936
 31
0.0
  0
LINE
  5
10D09
330
11084
100
AcDbEntity
  8
DETAIL
  6
Continuous
 62
     5
100
AcDbLine
 10
43.88898155998155
 20
1640.500000376783
 30
0.0
 11
43.89863069217375
 21
1640.498995219098
 31
0.0
  0
LINE
  5
10D0A
330
11084
100
AcDbEntity
  8
DETAIL
  6
Continuous
 62
     5
100
AcDbLine
 10
43.89863069217375
 20
1640.498995219098
 30
0.0
 11
43.9082603643182
 21
1640.497912768684
 31
0.0
  0
LINE
  5
10D0B
330
11084
100
AcDbEntity
  8
DETAIL
  6
Continuous
 62
     5
100
AcDbLine
 10
43.9082603643182
 20
1640.497912768684
 30
0.0
 11
43.9178511163671
 21
1640.49667573281
 31
0.0
  0
LINE
  5
10D0C
330
11084
100
AcDbEntity
  8
DETAIL
  6
Continuous
 62
     5
100
AcDbLine
 10
43.9178511163671
 20
1640.49667573281
 30
0.0
 11
43.92738348827236
 21
1640.495206818749
 31
0.0
  0
LINE
  5
10D0D
330
11084
100
AcDbEntity
  8
DETAIL
  6
Continuous
 62
     5
100
AcDbLine
 10
43.92738348827236
 20
1640.495206818749
 30
0.0
 11
43.93683801998625
 21
1640.49342873377
 31
0.0
  0
LINE
  5
10D0E
330
11084
100
AcDbEntity
  8
DETAIL
  6
Continuous
 62
     5
100
AcDbLine
 10
43.93683801998625
 20
1640.49342873377
 30
0.0
 11
43.94619525146135
 21
1640.491264185142
 31
0.0
  0
LINE
  5
10D0F
330
11084
100
AcDbEntity
  8
DETAIL
  6
Continuous
 62
     5
100
AcDbLine
 10
43.94619525146135
 20
1640.491264185142
 30
0.0
 11
43.95543572264879
 21
1640.488635880138
 31
0.0
  0
ARC
  5
10D10
330
11084
100
AcDbEntity
  8
DETAIL
  6
Continuous
 62
     5
100
AcDbCircle
 10
113.4472526555419
 20
1540.041429821965
 30
0.0
 40
327.0029307645738
100
AcDbArc
 50
162.1088277148656
 51
178.2548409908644
  0
ARC
  5
10D11
330
11084
100
AcDbEntity
  8
DETAIL
  6
Continuous
 62
     5
100
AcDbCircle
 10
103.1584131767681
 20
1542.245631861692
 30
0.0
 40
314.2100630638661
100
AcDbArc
 50
161.7778101930301
 51
178.5858578986394
  0
ARC
  5
10D12
330
11084
100
AcDbEntity
  8
DETAIL
  6
Continuous
 62
     5
100
AcDbCircle
 10
27.85805335069638
 20
1542.530761354411
 30
0.0
 40
261.1602846662882
100
AcDbArc
 50
157.9676092915079
 51
178.3611057377501
  0
ARC
  5
10D13
330
11084
100
AcDbEntity
  8
DETAIL
  6
Continuous
 62
     5
100
AcDbCircle
 10
5.583942388924752
 20
1546.612171890173
 30
0.0
 40
236.3555692163112
100
AcDbArc
 50
156.5947931234734
 51
179.1787164435236
  0
ARC
  5
10D14
330
11084
100
AcDbEntity
  8
DETAIL
  6
Continuous
 62
     5
100
AcDbCircle
 10
-13.60723858998307
 20
1544.153948832432
 30
0.0
 40
238.3142603778232
100
AcDbArc
 50
156.1538887448827
 51
178.555420534015
  0
ARC
  5
10D15
330
11084
100
AcDbEntity
  8
DETAIL
  6
Continuous
 62
     5
100
AcDbCircle
 10
-24.36585415541384
 20
1547.307992624254
 30
0.0
 40
225.0499458673735
100
AcDbArc
 50
155.5376767283267
 51
179.2734121112314
  0
ARC
  5
10D16
330
11084
100
AcDbEntity
  8
DETAIL
  6
Continuous
 62
     5
100
AcDbCircle
 10
-84.63988464227766
 20
1548.191953723895
 30
0.0
 40
184.6480686221295
100
AcDbArc
 50
150.0668986527306
 51
179.4406295894873
  0
ARC
  5
10D17
330
11084
100
AcDbEntity
  8
DETAIL
  6
Continuous
 62
     5
100
AcDbCircle
 10
-84.9773724442029
 20
1548.417858998873
 30
0.0
 40
182.3008657316906
100
AcDbArc
 50
149.7010803550102
 51
179.499922592232
  0
ARC
  5
10D18
330
11084
100
AcDbEntity
  8
DETAIL
  6
Continuous
 62
     5
100
AcDbCircle
 10
-115.9543503529372
 20
1548.752498423708
 30
0.0
 40
169.4456201905823
100
AcDbArc
 50
147.2285982482556
 51
179.5781706960246
  0
ARC
  5
10D19
330
11084
100
AcDbEntity
  8
DETAIL
  6
Continuous
 62
     5
100
AcDbCircle
 10
-112.8623764716291
 20
1548.684255074048
 30
0.0
 40
170.672927247887
100
AcDbArc
 50
147.4743374410652
 51
179.5582932857139
  0
ARC
  5
10D1A
330
11084
100
AcDbEntity
  8
DETAIL
  6
Continuous
 62
     5
100
AcDbCircle
 10
-139.7701533892366
 20
1548.845787259662
 30
0.0
 40
160.315814608962
100
AcDbArc
 50
145.132182115693
 51
179.5874889822643
  0
ARC
  5
10D1B
330
11084
100
AcDbEntity
  8
DETAIL
  6
Continuous
 62
     5
100
AcDbCircle
 10
-133.7915342444132
 20
1548.359646207378
 30
0.0
 40
164.6201343148594
100
AcDbArc
 50
145.9852344958233
 51
179.4193338780514
  0
ARC
  5
10D1C
330
11084
100
AcDbEntity
  8
DETAIL
  6
Continuous
 62
     5
100
AcDbCircle
 10
-163.2382473560332
 20
1551.228708701701
 30
0.0
 40
149.7479285961371
100
AcDbArc
 50
143.4102983586639
 51
180.471240828643
  0
ARC
  5
10D1D
330
11084
100
AcDbEntity
  8
DETAIL
  6
Continuous
 62
     5
100
AcDbCircle
 10
-159.0810891239563
 20
1549.575875503884
 30
0.0
 40
152.8046704769477
100
AcDbArc
 50
143.4876550725873
 51
179.8409696854031
  0
ARC
  5
10D1E
330
11084
100
AcDbEntity
  8
DETAIL
  6
Continuous
 62
     5
100
AcDbCircle
 10
-156.6961454296764
 20
1546.26548402387
 30
0.0
 40
168.4674633697902
100
AcDbArc
 50
145.9898836229086
 51
178.7297874750514
  0
ARC
  5
10D1F
330
11084
100
AcDbEntity
  8
DETAIL
  6
Continuous
 62
     5
100
AcDbCircle
 10
-153.8942137895177
 20
1546.1797399812
 30
0.0
 40
169.9351156931784
100
AcDbArc
 50
146.3073216596512
 51
178.7118423655314
  0
ARC
  5
10D20
330
11084
100
AcDbEntity
  8
DETAIL
  6
Continuous
 62
     5
100
AcDbCircle
 10
-184.1041587249276
 20
1547.88194393003
 30
0.0
 40
151.1859638918722
100
AcDbArc
 50
142.2384586557875
 51
179.1972826685371
  0
ARC
  5
10D21
330
11084
100
AcDbEntity
  8
DETAIL
  6
Continuous
 62
     5
100
AcDbCircle
 10
-178.4616975244984
 20
1547.286472835665
 30
0.0
 40
155.7134097846688
100
AcDbArc
 50
143.2320377766004
 51
179.0014891816801
  0
ARC
  5
10D22
330
11084
100
AcDbEntity
  8
DETAIL
  6
Continuous
 62
     5
100
AcDbCircle
 10
-192.3620072968406
 20
1547.264499741731
 30
0.0
 40
151.4576294305706
100
AcDbArc
 50
142.0053416366154
 51
178.9651158106933
  0
ARC
  5
10D23
330
11084
100
AcDbEntity
  8
DETAIL
  6
Continuous
 62
     5
100
AcDbCircle
 10
-189.8083560081584
 20
1547.129596648726
 30
0.0
 40
153.0864336956432
100
AcDbArc
 50
142.4258141462985
 51
178.9256289290442
  0
ARC
  5
10D24
330
11084
100
AcDbEntity
  8
DETAIL
  6
Continuous
 62
     5
100
AcDbCircle
 10
-202.3488181429551
 20
1547.360371943467
 30
0.0
 40
148.3143168649446
100
AcDbArc
 50
141.098155313694
 51
178.9802233154424
  0
ARC
  5
10D25
330
11084
100
AcDbEntity
  8
DETAIL
  6
Continuous
 62
     5
100
AcDbCircle
 10
-200.7675393852422
 20
1547.828037492573
 30
0.0
 40
149.0398647785811
100
AcDbArc
 50
141.5528038500516
 51
179.1664742414354
  0
ARC
  5
10D26
330
11084
100
AcDbEntity
  8
DETAIL
  6
Continuous
 62
     5
100
AcDbCircle
 10
-211.0113173266825
 20
1547.579471353776
 30
0.0
 40
144.7849921938827
100
AcDbArc
 50
140.0751071192524
 51
179.0420796762813
  0
ARC
  5
10D27
330
11084
100
AcDbEntity
  8
DETAIL
  6
Continuous
 62
     5
100
AcDbCircle
 10
-209.7053538769666
 20
1547.469600484794
 30
0.0
 40
145.5717670501976
100
AcDbArc
 50
140.2807691018383
 51
179.0040066307606
  0
ARC
  5
10D28
330
11084
100
AcDbEntity
  8
DETAIL
  6
Continuous
 62
     5
100
AcDbCircle
 10
-216.1681330134728
 20
1548.377239667655
 30
0.0
 40
143.0132115511473
100
AcDbArc
 50
139.897605653915
 51
179.3498550763718
  0
ARC
  5
10D29
330
11084
100
AcDbEntity
  8
DETAIL
  6
Continuous
 62
     5
100
AcDbCircle
 10
-213.2926169196157
 20
1547.272152696375
 30
0.0
 40
145.5985509803759
100
AcDbArc
 50
140.1852455779857
 51
178.9264777592102
  0
ARC
  5
10D2A
330
11084
100
AcDbEntity
  8
DETAIL
  6
Continuous
 62
     5
100
AcDbCircle
 10
-186.1400560722168
 20
1542.999999316248
 30
0.0
 40
175.0
100
AcDbArc
 50
147.9740679999971
 51
177.7075570000014
  0
ARC
  5
10D2B
330
11084
100
AcDbEntity
  8
DETAIL
  6
Continuous
 62
     5
100
AcDbCircle
 10
-326.0284049999981
 20
1630.5
 30
0.0
 40
10.0
100
AcDbArc
 50
90.0
 51
147.9740679999974
  0
ARC
  5
10D2C
330
11084
100
AcDbEntity
  8
DETAIL
  6
Continuous
 62
     5
100
AcDbCircle
 10
-182.9911321941634
 20
1542.107838478399
 30
0.0
 40
178.0163393509743
100
AcDbArc
 50
148.2422409306078
 51
177.4590217915112
  0
ARC
  5
10D2D
330
11084
100
AcDbEntity
  8
DETAIL
  6
Continuous
 62
     5
100
AcDbCircle
 10
61.9847701114782
 20
1547.36137014659
 30
0.0
 40
254.5713679045835
100
AcDbArc
 50
158.579347096153
 51
179.4061189685913
  0
ARC
  5
10D2E
330
11084
100
AcDbEntity
  8
DETAIL
  6
Continuous
 62
     5
100
AcDbCircle
 10
48.46710401788863
 20
1550.172891841849
 30
0.0
 40
238.4959492928059
100
AcDbArc
 50
157.7755591229492
 51
180.0415351271503
  0
ARC
  5
10D2F
330
11084
100
AcDbEntity
  8
DETAIL
  6
Continuous
 62
     5
100
AcDbCircle
 10
83.46125639881455
 20
1550.611476430284
 30
0.0
 40
254.2656475799885
100
AcDbArc
 50
159.2971060481467
 51
180.1377891142233
  0
ARC
  5
10D30
330
11084
100
AcDbEntity
  8
DETAIL
  6
Continuous
 62
     5
100
AcDbCircle
 10
96.28407615800512
 20
1551.386626788408
 30
0.0
 40
263.457962846816
100
AcDbArc
 50
160.2300060035128
 51
180.3015594164619
  0
LINE
  5
10D31
330
11084
100
AcDbEntity
  8
DETAIL
  6
Continuous
 62
     5
100
AcDbLine
 10
-100.0000299999998
 20
1649.300000000001
 30
0.0
 11
-100.0000299999998
 21
1648.6
 31
0.0
  0
LINE
  5
10D32
330
11084
100
AcDbEntity
  8
DETAIL
  6
Continuous
 62
     5
100
AcDbLine
 10
-80.00002999999992
 20
1649.300000000001
 30
0.0
 11
-80.00002999999992
 21
1650.0
 31
0.0
  0
LINE
  5
10D33
330
11084
100
AcDbEntity
  8
DETAIL
  6
Continuous
 62
     5
100
AcDbLine
 10
79.99996999999912
 20
1649.300000000001
 30
0.0
 11
79.99996999999912
 21
1650.0
 31
0.0
  0
LINE
  5
10D34
330
11084
100
AcDbEntity
  8
DETAIL
  6
Continuous
 62
     5
100
AcDbLine
 10
99.99996999999913
 20
1649.300000000001
 30
0.0
 11
99.99996999999913
 21
1648.6
 31
0.0
  0
LINE
  5
10D35
330
11084
100
AcDbEntity
  8
DETAIL
  6
Continuous
 62
     5
100
AcDbLine
 10
-120.0
 20
1648.6
 30
0.0
 11
119.9999399999997
 21
1648.6
 31
0.0
  0
LINE
  5
10D36
330
11084
100
AcDbEntity
  8
DETAIL
  6
Continuous
 62
     5
100
AcDbLine
 10
-100.0000299999998
 20
1649.300000000001
 30
0.0
 11
99.99996999999913
 21
1649.300000000001
 31
0.0
  0
LINE
  5
10D37
330
11084
100
AcDbEntity
  8
DETAIL
  6
Continuous
 62
     5
100
AcDbLine
 10
-79.99999899999959
 20
1650.0
 30
0.0
 11
79.99993799999917
 21
1650.0
 31
0.0
  0
ARC
  5
10D38
330
11084
100
AcDbEntity
  8
DETAIL
  6
Continuous
 62
     5
100
AcDbCircle
 10
143.0975504948604
 20
1550.583126952671
 30
0.0
 40
291.3003847598012
100
AcDbArc
 50
162.0206585231834
 51
180.1146957043883
  0
ARC
  5
10D39
330
11084
100
AcDbEntity
  8
DETAIL
  6
Continuous
 62
     5
100
AcDbCircle
 10
237.4406513793955
 20
1541.605597733784
 30
0.0
 40
382.1017031749903
100
AcDbArc
 50
165.0086176816406
 51
178.7411667286624
  0
ARC
  5
10D3A
330
11084
100
AcDbEntity
  8
DETAIL
  6
Continuous
 62
     5
100
AcDbCircle
 10
216.2097736265565
 20
1550.960211693038
 30
0.0
 40
341.0899400960367
100
AcDbArc
 50
164.780904383411
 51
180.1612956315819
  0
ARC
  5
10D3B
330
11084
100
AcDbEntity
  8
DETAIL
  6
Continuous
 62
     5
100
AcDbCircle
 10
284.8603845532249
 20
1547.940598213965
 30
0.0
 40
405.9567937730927
100
AcDbArc
 50
166.8204669295535
 51
179.7093396672338
  0
ARC
  5
10D3C
330
11084
100
AcDbEntity
  8
DETAIL
  6
Continuous
 62
     5
100
AcDbCircle
 10
318.3880849159244
 20
1551.098475315967
 30
0.0
 40
419.3365055840364
100
AcDbArc
 50
167.6901957555319
 51
180.1500900538023
  0
ARC
  5
10D3D
330
11084
100
AcDbEntity
  8
DETAIL
  6
Continuous
 62
     5
100
AcDbCircle
 10
360.4923685397981
 20
1546.953158765622
 30
0.0
 40
458.5593328329266
100
AcDbArc
 50
168.2289395770988
 51
179.6193024204455
  0
ARC
  5
10D3E
330
11084
100
AcDbEntity
  8
DETAIL
  6
Continuous
 62
     5
100
AcDbCircle
 10
400.6746921599008
 20
1559.9953570566
 30
0.0
 40
476.7729146566551
100
AcDbArc
 50
170.2788503218893
 51
181.200773647812
  0
ARC
  5
10D3F
330
11084
100
AcDbEntity
  8
DETAIL
  6
Continuous
 62
     5
100
AcDbCircle
 10
442.0039376291604
 20
1554.211808031963
 30
0.0
 40
515.5935787360025
100
AcDbArc
 50
170.3658153926676
 51
180.4680459925407
  0
ARC
  5
10D40
330
11084
100
AcDbEntity
  8
DETAIL
  6
Continuous
 62
     5
100
AcDbCircle
 10
764.4643023160766
 20
1553.020285046804
 30
0.0
 40
816.1967863486635
100
AcDbArc
 50
173.8472380588822
 51
180.2120201293828
  0
ARC
  5
10D41
330
11084
100
AcDbEntity
  8
DETAIL
  6
Continuous
 62
     5
100
AcDbCircle
 10
666.3279768938504
 20
1560.136121738665
 30
0.0
 40
714.4933558564047
100
AcDbArc
 50
173.541892106699
 51
180.8128510288945
  0
LINE
  5
10D42
330
11084
100
AcDbEntity
  8
DETAIL
  6
Continuous
 62
     5
100
AcDbLine
 10
-47.03091890911667
 20
1640.499996835081
 30
0.0
 11
-42.84236890911715
 21
1640.499996835081
 31
0.0
  0
LINE
  5
10D43
330
11084
100
AcDbEntity
  8
DETAIL
  6
Continuous
 62
     5
100
AcDbLine
 10
-42.84236890911715
 20
1640.499996835081
 30
0.0
 11
-42.84236890911715
 21
1632.499996835081
 31
0.0
  0
ARC
  5
10D44
330
11084
100
AcDbEntity
  8
DETAIL
  6
Continuous
 62
     5
100
AcDbCircle
 10
1500.006065166348
 20
1554.210627159046
 30
0.0
 40
1523.697624367686
100
AcDbArc
 50
176.75351373432
 51
180.158332896479
  0
LINE
  5
10D45
330
11084
100
AcDbEntity
  8
DETAIL
  6
Continuous
 62
     5
100
AcDbLine
 10
-24.9618321295423
 20
1640.517163381258
 30
0.0
 11
-20.77328212954211
 21
1640.517163381258
 31
0.0
  0
ARC
  5
10D46
330
11084
100
AcDbEntity
  8
DETAIL
  6
Continuous
 62
     5
100
AcDbCircle
 10
-1498.379907054785
 20
1554.255546855109
 30
0.0
 40
1522.071532136788
100
AcDbArc
 50
359.84062766569
 51
3.24826469673765
  0
ARC
  5
10D47
330
11084
100
AcDbEntity
  8
DETAIL
  6
Continuous
 62
     5
100
AcDbCircle
 10
-1604.166702905316
 20
1551.322224202071
 30
0.0
 40
1630.845671908558
100
AcDbArc
 50
359.9535468769636
 51
3.134606821921423
  0
ARC
  5
10D48
330
11084
100
AcDbEntity
  8
DETAIL
  6
Continuous
 62
     5
100
AcDbCircle
 10
-772.0963146295062
 20
1551.235804365719
 30
0.0
 40
820.8532792907989
100
AcDbArc
 50
359.9142233219061
 51
6.243010894291442
  0
ARC
  5
10D49
330
11084
100
AcDbEntity
  8
DETAIL
  6
Continuous
 62
     5
100
AcDbCircle
 10
-768.1190210820459
 20
1551.289424408002
 30
0.0
 40
819.846926246871
100
AcDbArc
 50
359.9098873331976
 51
6.24693499144123
  0
ARC
  5
10D4A
330
11084
100
AcDbEntity
  8
DETAIL
  6
Continuous
 62
     5
100
AcDbCircle
 10
-438.7860069300658
 20
1554.376563547394
 30
0.0
 40
512.3935968995324
100
AcDbArc
 50
359.5106073601326
 51
9.67624134279738
  0
ARC
  5
10D4B
330
11084
100
AcDbEntity
  8
DETAIL
  6
Continuous
 62
     5
100
AcDbCircle
 10
-476.0537267044882
 20
1551.18587344566
 30
0.0
 40
552.5783406129849
100
AcDbArc
 50
359.8770390069751
 51
9.301564466073646
  0
ARC
  5
10D4C
330
11084
100
AcDbEntity
  8
DETAIL
  6
Continuous
 62
     5
100
AcDbCircle
 10
-305.1359502644377
 20
1552.84548491022
 30
0.0
 40
403.2028319741598
100
AcDbArc
 50
359.5956486005983
 51
12.55610906197456
  0
ARC
  5
10D4D
330
11084
100
AcDbEntity
  8
DETAIL
  6
Continuous
 62
     5
100
AcDbCircle
 10
-275.0386676305329
 20
1558.261029627095
 30
0.0
 40
375.463396422184
100
AcDbArc
 50
358.7429827586757
 51
12.65225784662722
  0
ARC
  5
10D4E
330
11084
100
AcDbEntity
  8
DETAIL
  6
Continuous
 62
     5
100
AcDbCircle
 10
-199.8938911875251
 20
1553.845068408466
 30
0.0
 40
321.9543766369844
100
AcDbArc
 50
359.3157060589427
 51
15.61313540202042
  0
ARC
  5
10D4F
330
11084
100
AcDbEntity
  8
DETAIL
  6
Continuous
 62
     5
100
AcDbCircle
 10
-215.9848860940738
 20
1550.993011755717
 30
0.0
 40
340.8643293461015
100
AcDbArc
 50
359.8407507984445
 51
15.22369890939569
  0
ARC
  5
10D50
330
11084
100
AcDbEntity
  8
DETAIL
  6
Continuous
 62
     5
100
AcDbCircle
 10
-131.2092311380702
 20
1552.496936426571
 30
0.0
 40
276.8081701234371
100
AcDbArc
 50
359.4831588275932
 51
18.53722779938795
  0
ARC
  5
10D51
330
11084
100
AcDbEntity
  8
DETAIL
  6
Continuous
 62
     5
100
AcDbCircle
 10
-143.0500611902166
 20
1550.737678195333
 30
0.0
 40
291.2528666052919
100
AcDbArc
 50
359.8585089812585
 51
17.95007754382731
  0
ARC
  5
10D52
330
11084
100
AcDbEntity
  8
DETAIL
  6
Continuous
 62
     5
100
AcDbCircle
 10
-70.00941593237445
 20
1553.532402953183
 30
0.0
 40
238.1904228381949
100
AcDbArc
 50
359.1502631225209
 51
21.41484134639217
  0
ARC
  5
10D53
330
11084
100
AcDbEntity
  8
DETAIL
  6
Continuous
 62
     5
100
AcDbCircle
 10
-87.25871324127599
 20
1550.358081376377
 30
0.0
 40
258.0626166738771
100
AcDbArc
 50
359.9204977519205
 51
20.4430576178577
  0
ARC
  5
10D54
330
11084
100
AcDbEntity
  8
DETAIL
  6
Continuous
 62
     5
100
AcDbCircle
 10
-28.00125228091491
 20
1553.119487002531
 30
0.0
 40
218.0179428505491
100
AcDbArc
 50
359.1801613371685
 51
23.62468630526716
  0
ARC
  5
10D55
330
11084
100
AcDbEntity
  8
DETAIL
  6
Continuous
 62
     5
100
AcDbCircle
 10
-36.22723991574203
 20
1550.366257573725
 30
0.0
 40
228.8004590635293
100
AcDbArc
 50
359.9082824298686
 51
23.19970501015766
  0
ARC
  5
10D56
330
11084
100
AcDbEntity
  8
DETAIL
  6
Continuous
 62
     5
100
AcDbCircle
 10
13.3755466791535
 20
1552.965803012741
 30
0.0
 40
197.6242286221843
100
AcDbArc
 50
359.136067255836
 51
26.29000004539028
  0
ARC
  5
10D57
330
11084
100
AcDbEntity
  8
DETAIL
  6
Continuous
 62
     5
100
AcDbCircle
 10
0.7625043297518346
 20
1549.857262498803
 30
0.0
 40
212.6415447822006
100
AcDbArc
 50
0.03846036370093
 51
25.22780299177342
  0
ARC
  5
10D58
330
11084
100
AcDbEntity
  8
DETAIL
  6
Continuous
 62
     5
100
AcDbCircle
 10
57.88711905137897
 20
1555.313437812411
 30
0.0
 40
173.0917141671258
100
AcDbArc
 50
358.2409014670544
 51
29.4804713164093
  0
ARC
  5
10D59
330
11084
100
AcDbEntity
  8
DETAIL
  6
Continuous
 62
     5
100
AcDbCircle
 10
34.65989986265544
 20
1549.507565660604
 30
0.0
 40
198.5361042351223
100
AcDbArc
 50
0.1421124510932417
 51
27.2718497327463
  0
ARC
  5
10D5A
330
11084
100
AcDbEntity
  8
DETAIL
  6
Continuous
 62
     5
100
AcDbCircle
 10
78.40589916930645
 20
1552.596559833976
 30
0.0
 40
171.3062333236121
100
AcDbArc
 50
359.1330432047028
 51
30.8726856000378
  0
ARC
  5
10D5B
330
11084
100
AcDbEntity
  8
DETAIL
  6
Continuous
 62
     5
100
AcDbCircle
 10
68.20775154529832
 20
1549.586496102955
 30
0.0
 40
183.6328246161872
100
AcDbArc
 50
0.1290176796368195
 51
29.67351525373388
  0
ARC
  5
10D5C
330
11084
100
AcDbEntity
  8
DETAIL
  6
Continuous
 62
     5
100
AcDbCircle
 10
102.0299118246556
 20
1551.856191320221
 30
0.0
 40
165.2520993224841
100
AcDbArc
 50
359.3564126231334
 51
32.43801890757924
  0
ARC
  5
10D5D
330
11084
100
AcDbEntity
  8
DETAIL
  6
Continuous
 62
     5
100
AcDbCircle
 10
93.00106233252469
 20
1548.369584736124
 30
0.0
 40
176.4256035866044
100
AcDbArc
 50
0.528010555677554
 51
31.47900241460809
  0
ARC
  5
10D5E
330
11084
100
AcDbEntity
  8
DETAIL
  6
Continuous
 62
     5
100
AcDbCircle
 10
115.4949025836146
 20
1548.89707700619
 30
0.0
 40
168.0571060630136
100
AcDbArc
 50
0.3760226971873818
 51
33.023961344315
  0
ARC
  5
10D5F
330
11084
100
AcDbEntity
  8
DETAIL
  6
Continuous
 62
     5
100
AcDbCircle
 10
117.3418763839893
 20
1548.897073818352
 30
0.0
 40
168.0571167093312
100
AcDbArc
 50
0.3760237602194317
 51
33.02396028128113
  0
ARC
  5
10D60
330
11084
100
AcDbEntity
  8
DETAIL
  6
Continuous
 62
     5
100
AcDbCircle
 10
139.6999401027939
 20
1549.03924817877
 30
0.0
 40
158.7463659851468
100
AcDbArc
 50
0.3512396325011641
 51
35.179780708728
  0
ARC
  5
10D61
330
11084
100
AcDbEntity
  8
DETAIL
  6
Continuous
 62
     5
100
AcDbCircle
 10
138.649964749198
 20
1548.716963109755
 30
0.0
 40
161.4763078283757
100
AcDbArc
 50
0.4574772497609993
 51
34.63407978464356
  0
ARC
  5
10D62
330
11084
100
AcDbEntity
  8
DETAIL
  6
Continuous
 62
     5
100
AcDbCircle
 10
155.1374174097238
 20
1548.469174138238
 30
0.0
 40
156.7541439542715
100
AcDbArc
 50
0.5736607690183241
 51
35.94887319273535
  0
ARC
  5
10D63
330
11084
100
AcDbEntity
  8
DETAIL
  6
Continuous
 62
     5
100
AcDbCircle
 10
156.568138746735
 20
1548.455795771483
 30
0.0
 40
156.8246340910357
100
AcDbArc
 50
0.5641831419940992
 51
35.93298786755809
  0
ARC
  5
10D64
330
11084
100
AcDbEntity
  8
DETAIL
  6
Continuous
 62
     5
100
AcDbCircle
 10
174.1110938644245
 20
1548.750661988668
 30
0.0
 40
149.6805021501934
100
AcDbArc
 50
0.4782361455578672
 51
37.80440997891176
  0
ARC
  5
10D65
330
11084
100
AcDbEntity
  8
DETAIL
  6
Continuous
 62
     5
100
AcDbCircle
 10
174.8712402774665
 20
1548.591190039819
 30
0.0
 40
150.2575713452064
100
AcDbArc
 50
0.5372111822849485
 51
37.71038646323199
  0
ARC
  5
10D66
330
11084
100
AcDbEntity
  8
DETAIL
  6
Continuous
 62
     5
100
AcDbCircle
 10
181.3570126875808
 20
1547.668032930127
 30
0.0
 40
152.8122428819884
100
AcDbArc
 50
0.8743860292286623
 51
37.40826009524393
  0
ARC
  5
10D67
330
11084
100
AcDbEntity
  8
DETAIL
  6
Continuous
 62
     5
100
AcDbCircle
 10
182.2891028019577
 20
1547.642762673898
 30
0.0
 40
153.0043374884121
100
AcDbArc
 50
0.8827522704708457
 51
37.36484537504861
  0
ARC
  5
10D68
330
11084
100
AcDbEntity
  8
DETAIL
  6
Continuous
 62
     5
100
AcDbCircle
 10
196.3904272043747
 20
1548.801814401582
 30
0.0
 40
146.3272789347223
100
AcDbArc
 50
0.4691657328540795
 51
38.80449931607194
  0
ARC
  5
10D69
330
11084
100
AcDbEntity
  8
DETAIL
  6
Continuous
 62
     5
100
AcDbCircle
 10
200.8244591741593
 20
1549.434206051744
 30
0.0
 40
142.8309305143139
100
AcDbArc
 50
0.2269654757163103
 51
39.60815849168741
  0
LINE
  5
10D6A
330
11084
100
AcDbEntity
  8
DETAIL
  6
Continuous
 62
     5
100
AcDbLine
 10
330.7097009125222
 20
1580.0
 30
0.0
 11
321.6923270000008
 21
1580.0
 31
0.0
  0
ARC
  5
10D6B
330
11084
100
AcDbEntity
  8
DETAIL
  6
Continuous
 62
     5
100
AcDbCircle
 10
202.6268321145014
 20
1547.61428674436
 30
0.0
 40
147.284006100815
100
AcDbArc
 50
0.9281203196308512
 51
39.09693795564608
  0
ARC
  5
10D6C
330
11084
100
AcDbEntity
  8
DETAIL
  6
Continuous
 62
     5
100
AcDbCircle
 10
205.5534660406271
 20
1547.818885098764
 30
0.0
 40
145.1025673175936
100
AcDbArc
 50
0.8612761808136378
 51
39.69019349067713
  0
LINE
  5
10D6D
330
11084
100
AcDbEntity
  8
DETAIL
  6
Continuous
 62
     5
100
AcDbLine
 10
339.3531698186894
 20
1580.0
 30
0.0
 11
331.832863898468
 21
1580.0
 31
0.0
  0
ARC
  5
10D6E
330
11084
100
AcDbEntity
  8
DETAIL
  6
Continuous
 62
     5
100
AcDbCircle
 10
212.8257992019561
 20
1547.906919281171
 30
0.0
 40
142.4445306638293
100
AcDbArc
 50
0.8444092830552481
 51
40.5419518467093
  0
ARC
  5
10D6F
330
11084
100
AcDbEntity
  8
DETAIL
  6
Continuous
 62
     5
100
AcDbCircle
 10
214.5909717127434
 20
1548.074420594553
 30
0.0
 40
141.1982298642558
100
AcDbArc
 50
0.7813907668308567
 51
40.88783359715946
  0
ARC
  5
10D70
330
11084
100
AcDbEntity
  8
DETAIL
  6
Continuous
 62
     5
100
AcDbCircle
 10
216.7668679494221
 20
1547.763256054286
 30
0.0
 40
142.1163461782565
100
AcDbArc
 50
0.9018053370263451
 51
40.73309221808742
  0
ARC
  5
10D71
330
11084
100
AcDbEntity
  8
DETAIL
  6
Continuous
 62
     5
100
AcDbCircle
 10
225.6785711381439
 20
1550.720529567332
 30
0.0
 40
133.5025698260144
100
AcDbArc
 50
359.690766330853
 51
42.2591101242668
  0
ARC
  5
10D72
330
11084
100
AcDbEntity
  8
DETAIL
  6
Continuous
 62
     5
100
AcDbCircle
 10
183.2769692790065
 20
1541.729929652247
 30
0.0
 40
177.8839571990537
100
AcDbArc
 50
2.664720291402959
 51
31.92746510342677
  0
ARC
  5
10D73
330
11084
100
AcDbEntity
  8
DETAIL
  6
Continuous
 62
     5
100
AcDbCircle
 10
326.0284040000005
 20
1630.500000000005
 30
0.0
 40
10.0
100
AcDbArc
 50
32.02593200000244
 51
90.0
  0
ARC
  5
10D74
330
11084
100
AcDbEntity
  8
DETAIL
  6
Continuous
 62
     5
100
AcDbCircle
 10
186.140075150967
 20
1543.000005821887
 30
0.0
 40
174.9999806762934
100
AcDbArc
 50
2.292441121589772
 51
32.02593370905685
  0
ARC
  5
10D75
330
11084
100
AcDbEntity
  8
DETAIL
  6
Continuous
 62
     5
100
AcDbCircle
 10
1496.290479150017
 20
1554.227790163414
 30
0.0
 40
1523.697624367686
100
AcDbArc
 50
176.75351373432
 51
180.158332896479
  0
LINE
  5
10D94
330
11084
100
AcDbEntity
  8
NOTE
  6
Continuous
 62
     4
100
AcDbLine
 10
-363.6187755688415
 20
124.0
 30
0.0
 11
-398.3812244311585
 21
124.0
 31
0.0
  0
LINE
  5
10D95
330
11084
100
AcDbEntity
  8
NOTE
  6
Continuous
 62
     4
100
AcDbLine
 10
-362.9904744685991
 20
590.0
 30
0.0
 11
-399.0095255314009
 21
590.0
 31
0.0
  0
LINE
  5
10D96
330
11084
100
AcDbEntity
  8
NOTE
  6
Continuous
 62
     4
100
AcDbLine
 10
362.0
 20
12.92011788317722
 30
0.0
 11
362.0
 21
-12.92011788317722
 31
0.0
  0
LINE
  5
10D97
330
11084
100
AcDbEntity
  8
NOTE
  6
Continuous
 62
     4
100
AcDbLine
 10
-362.0
 20
12.92011788317722
 30
0.0
 11
-362.0
 21
-12.92011788317722
 31
0.0
  0
TEXT
  5
10D99
330
11084
100
AcDbEntity
  8
NOTE
  6
Continuous
 62
     4
100
AcDbText
 10
517.6228261137244
 20
-209.774022132837
 30
0.0
 40
60.0
  1
AH 2x4-14x20長穴
 50
359.9999974955833
 41
0.7
  7
STANDARD1
100
AcDbText
  0
LINE
  5
10D9A
330
11084
100
AcDbEntity
  8
NOTE
  6
Continuous
 62
     4
100
AcDbLine
 10
1103.1968303596
 20
-229.4265051701441
 30
0.0
 11
504.5794283114444
 21
-229.4265051701441
 31
0.0
  0
LINE
  5
10D9B
330
11084
100
AcDbEntity
  8
NOTE
  6
Continuous
 62
     4
100
AcDbLine
 10
-349.0798821168228
 20
0.0
 30
0.0
 11
-374.9201178831772
 21
0.0
 31
0.0
  0
LINE
  5
10D9C
330
11084
100
AcDbEntity
  8
NOTE
  6
Continuous
 62
     4
100
AcDbLine
 10
374.9201178831772
 20
0.0
 30
0.0
 11
349.0798821168228
 21
0.0
 31
0.0
  0
LINE
  5
10D9D
330
11084
100
AcDbEntity
  8
NOTE
  6
Continuous
 62
     4
100
AcDbLine
 10
-381.0
 20
571.9904744685991
 30
0.0
 11
-381.0
 21
608.0095255314007
 31
0.0
  0
LINE
  5
10D9E
330
11084
100
AcDbEntity
  8
NOTE
  6
Continuous
 62
     4
100
AcDbLine
 10
-381.0
 20
106.6187755688415
 30
0.0
 11
-381.0
 21
141.3812244311584
 31
0.0
  0
TEXT
  5
10D9F
330
11084
100
AcDbEntity
  8
NOTE
  6
Continuous
 62
     4
100
AcDbText
 10
-1350.968729755739
 20
-527.9688791516
 30
0.0
 40
60.0
  1
水出口 Rc2-1/2B(65A)
 50
359.9999974955833
 41
0.7
  7
STANDARD1
100
AcDbText
  0
TEXT
  5
10DA0
330
11084
100
AcDbEntity
  8
NOTE
  6
Continuous
 62
     4
100
AcDbText
 10
-1337.308042471682
 20
-347.9789500527571
 30
0.0
 40
60.0
  1
水入口 Rc2-1/2B(65A)
 50
359.9999974955833
 41
0.7
  7
STANDARD1
100
AcDbText
  0
LINE
  5
10DA1
330
11084
100
AcDbEntity
  8
NOTE
  6
Continuous
 62
     4
100
AcDbLine
 10
-381.0
 20
590.0
 30
0.0
 11
-617.8849121000313
 21
-364.4527728103822
 31
0.0
  0
LINE
  5
10DA2
330
11084
100
AcDbEntity
  8
NOTE
  6
Continuous
 62
     4
100
AcDbLine
 10
-617.8849121000313
 20
-364.4527728103822
 30
0.0
 11
-1350.968729755739
 21
-364.4527728103822
 31
0.0
  0
LINE
  5
10DA3
330
11084
100
AcDbEntity
  8
NOTE
  6
Continuous
 62
     4
100
AcDbLine
 10
-381.7339143347954
 20
558.9503870985696
 30
0.0
 11
-381.0
 21
590.0
 31
0.0
  0
LINE
  5
10DA4
330
11084
100
AcDbEntity
  8
NOTE
  6
Continuous
 62
     4
100
AcDbLine
 10
-381.0
 20
590.0
 30
0.0
 11
-397.1603947885279
 21
563.4772035437729
 31
0.0
  0
LINE
  5
10DA5
330
11084
100
AcDbEntity
  8
NOTE
  6
Continuous
 62
     4
100
AcDbLine
 10
-381.0
 20
124.0000000000002
 30
0.0
 11
-638.9944121440056
 21
-549.6636112388224
 31
0.0
  0
LINE
  5
10DA6
330
11084
100
AcDbEntity
  8
NOTE
  6
Continuous
 62
     4
100
AcDbLine
 10
-638.9944121440056
 20
-549.6636112388224
 30
0.0
 11
-1368.727630583791
 21
-549.6636112388224
 31
0.0
  0
LINE
  5
10DA7
330
11084
100
AcDbEntity
  8
NOTE
  6
Continuous
 62
     4
100
AcDbLine
 10
-384.9568310688153
 20
93.19479622738459
 30
0.0
 11
-381.0
 21
124.0000000000002
 31
0.0
  0
LINE
  5
10DA8
330
11084
100
AcDbEntity
  8
NOTE
  6
Continuous
 62
     4
100
AcDbLine
 10
-381.0
 20
124.0000000000002
 30
0.0
 11
-399.8293179983349
 21
99.30032641314642
 31
0.0
  0
LINE
  5
10DA9
330
11084
100
AcDbEntity
  8
NOTE
  6
Continuous
 62
     4
100
AcDbLine
 10
362.0
 20
0.0
 30
0.0
 11
504.5794283114444
 21
-229.4265051701441
 31
0.0
  0
LINE
  5
10DAA
330
11084
100
AcDbEntity
  8
NOTE
  6
Continuous
 62
     4
100
AcDbLine
 10
384.1185117139894
 20
-21.80340641132989
 30
0.0
 11
362.0
 21
0.0
 31
0.0
  0
LINE
  5
10DAB
330
11084
100
AcDbEntity
  8
NOTE
  6
Continuous
 62
     4
100
AcDbLine
 10
362.0
 20
0.0
 30
0.0
 11
370.2534899683846
 21
-29.94155966079985
 31
0.0
  0
LINE
  5
10DB8
330
11084
100
AcDbEntity
  8
OUTLINE
  6
Continuous
 62
     3
100
AcDbLine
 10
330.0
 20
53.50000000000019
 30
0.0
 11
328.5916280000012
 21
53.50000000000019
 31
0.0
  0
LINE
  5
10DC2
330
11084
100
AcDbEntity
  8
OUTLINE
  6
Continuous
 62
     3
100
AcDbLine
 10
-328.5916280000001
 20
53.5
 30
0.0
 11
-330.0000151698478
 21
53.50001267960871
 31
0.0
  0
TEXT
  5
11118
330
11084
100
AcDbEntity
  8
ETC
  6
Continuous
 62
    61
100
AcDbText
 10
-148.3139085639376
 20
1927.764506026537
 30
0.0
 40
80.0
  1
BALV-P900F_5
 50
0.0000029998804485
 41
0.8
  7
STANDARD_MODELNAME
100
AcDbText
  0
TEXT
  5
11119
330
11084
100
AcDbEntity
  8
ETC
  6
Continuous
 62
    61
100
AcDbText
 10
-148.3139085639376
 20
2051.538473097471
 30
0.0
 40
80.0
  1
BALV-P750F_5
 50
0.0000029998804485
 41
0.8
  7
STANDARD_MODELNAME
100
AcDbText
  0
TEXT
  5
1111A
330
11084
100
AcDbEntity
  8
ETC
  6
Continuous
 62
    61
100
AcDbText
 10
-148.3139085639376
 20
2179.812120438784
 30
0.0
 40
80.0
  1
MCAV-P900F(W)_5
 50
0.0000029998804485
 41
0.8
  7
STANDARD_MODELNAME
100
AcDbText
  0
TEXT
  5
1111B
330
11084
100
AcDbEntity
  8
ETC
  6
Continuous
 62
    61
100
AcDbText
 10
-148.3139085639376
 20
2303.586087509717
 30
0.0
 40
80.0
  1
MCAV-P750F(W)_5
 50
0.0000029998804485
 41
0.8
  7
STANDARD_MODELNAME
100
AcDbText
  0
ENDSEC
  0
SECTION
  2
OBJECTS
  0
DICTIONARY
  5
11021
330
0
100
AcDbDictionary
281
     1
  3
ACAD_CIP_PREVIOUS_PRODUCT_INFO
350
110A7
  3
ACAD_COLOR
350
11077
  3
ACAD_DETAILVIEWSTYLE
350
1107E
  3
ACAD_GROUP
350
11022
  3
ACAD_LAYOUT
350
11076
  3
ACAD_MATERIAL
350
11025
  3
ACAD_MLEADERSTYLE
350
1107A
  3
ACAD_MLINESTYLE
350
11073
  3
ACAD_PLOTSETTINGS
350
11075
  3
ACAD_PLOTSTYLENAME
350
11023
  3
ACAD_SCALELIST
350
11057
  3
ACAD_SECTIONVIEWSTYLE
350
1107C
  3
ACAD_TABLESTYLE
350
11078
  3
ACAD_VISUALSTYLE
350
1103E
  3
ACDB_RECOMPOSE_DATA
350
11163
  3
AcDbVariableDictionary
350
110C0
  3
DWGPROPS
350
11164
  0
DICTIONARY
  5
110AA
330
11069
100
AcDbDictionary
280
     1
281
     1
  3
ADSK_XREC_LAYER_RECONCILED
360
110AB
  0
DICTIONARY
  5
110AC
330
11088
100
AcDbDictionary
280
     1
281
     1
  3
ADSK_XREC_LAYER_RECONCILED
360
110AD
  0
DICTIONARY
  5
110AE
330
1108C
100
AcDbDictionary
280
     1
281
     1
  3
ADSK_XREC_LAYER_RECONCILED
360
110AF
  0
DICTIONARY
  5
110B0
330
1108D
100
AcDbDictionary
280
     1
281
     1
  3
ADSK_XREC_LAYER_RECONCILED
360
110B1
  0
DICTIONARY
  5
110B2
330
1108E
100
AcDbDictionary
280
     1
281
     1
  3
ADSK_XREC_LAYER_RECONCILED
360
110B3
  0
DICTIONARY
  5
110B4
330
1108F
100
AcDbDictionary
280
     1
281
     1
  3
ADSK_XREC_LAYER_RECONCILED
360
110B5
  0
DICTIONARY
  5
110B6
330
11090
100
AcDbDictionary
280
     1
281
     1
  3
ADSK_XREC_LAYER_RECONCILED
360
110B7
  0
DICTIONARY
  5
110B8
330
11091
100
AcDbDictionary
280
     1
281
     1
  3
ADSK_XREC_LAYER_RECONCILED
360
110B9
  0
DICTIONARY
  5
110BA
330
11092
100
AcDbDictionary
280
     1
281
     1
  3
ADSK_XREC_LAYER_RECONCILED
360
110BB
  0
DICTIONARY
  5
110BC
330
11093
100
AcDbDictionary
280
     1
281
     1
  3
ADSK_XREC_LAYER_RECONCILED
360
110BD
  0
DICTIONARY
  5
110BE
330
11094
100
AcDbDictionary
280
     1
281
     1
  3
ADSK_XREC_LAYER_RECONCILED
360
110BF
  0
XRECORD
  5
110A7
102
{ACAD_REACTORS
330
11021
102
}
330
11021
100
AcDbXrecord
280
     1
300
ACDLT
300
2018
300
86831ACDLT_2018_0F
  0
DICTIONARY
  5
11077
102
{ACAD_REACTORS
330
11021
102
}
330
11021
100
AcDbDictionary
281
     1
  0
DICTIONARY
  5
1107E
102
{ACAD_REACTORS
330
11021
102
}
330
11021
100
AcDbDictionary
281
     1
  3
Imperial24
350
1107F
  0
DICTIONARY
  5
11022
102
{ACAD_REACTORS
330
11021
102
}
330
11021
100
AcDbDictionary
281
     1
  0
DICTIONARY
  5
11076
102
{ACAD_REACTORS
330
11021
102
}
330
11021
100
AcDbDictionary
281
     1
  3
Model
350
11087
  3
レイアウト1
350
11083
  0
DICTIONARY
  5
11025
102
{ACAD_REACTORS
330
11021
102
}
330
11021
100
AcDbDictionary
281
     1
  3
ByBlock
350
1102E
  3
ByLayer
350
11026
  3
Global
350
11036
  0
DICTIONARY
  5
1107A
102
{ACAD_REACTORS
330
11021
102
}
330
11021
100
AcDbDictionary
281
     1
  3
Standard
350
1107B
  0
DICTIONARY
  5
11073
102
{ACAD_REACTORS
330
11021
102
}
330
11021
100
AcDbDictionary
281
     1
  3
Standard
350
11074
  0
DICTIONARY
  5
11075
102
{ACAD_REACTORS
330
11021
102
}
330
11021
100
AcDbDictionary
281
     1
  0
ACDBDICTIONARYWDFLT
  5
11023
102
{ACAD_REACTORS
330
11021
102
}
330
11021
100
AcDbDictionary
281
     1
  3
Normal
350
11024
100
AcDbDictionaryWithDefault
340
11024
  0
DICTIONARY
  5
11057
102
{ACAD_REACTORS
330
11021
102
}
330
11021
100
AcDbDictionary
281
     1
  3
A0
350
11058
  3
A1
350
11059
  3
A2
350
1105A
  3
A3
350
1105B
  3
A4
350
1105C
  3
A5
350
1105D
  3
A6
350
1105E
  3
A7
350
1105F
  3
A8
350
11060
  3
A9
350
11061
  3
B0
350
11062
  3
B1
350
11063
  3
B2
350
11064
  3
B3
350
11065
  3
B4
350
11066
  3
B5
350
11067
  3
B6
350
11068
  0
DICTIONARY
  5
1107C
102
{ACAD_REACTORS
330
11021
102
}
330
11021
100
AcDbDictionary
281
     1
  3
Imperial24
350
1107D
  0
DICTIONARY
  5
11078
102
{ACAD_REACTORS
330
11021
102
}
330
11021
100
AcDbDictionary
281
     1
  3
Standard
350
11079
  0
DICTIONARY
  5
1103E
102
{ACAD_REACTORS
330
11021
102
}
330
11021
100
AcDbDictionary
281
     1
  3
2dWireframe
350
11044
  3
Basic
350
11043
  3
Brighten
350
1104A
  3
ColorChange
350
1104E
  3
Conceptual
350
11047
  3
Dim
350
11049
  3
EdgeColorOff
350
11056
  3
Facepattern
350
1104D
  3
Flat
350
1103F
  3
FlatWithEdges
350
11040
  3
Gouraud
350
11041
  3
GouraudWithEdges
350
11042
  3
Hidden
350
11046
  3
JitterOff
350
11054
  3
Linepattern
350
1104C
  3
OverhangOff
350
11055
  3
Realistic
350
11048
  3
Shaded
350
11053
  3
Shaded with edges
350
11052
  3
Shades of Gray
350
1104F
  3
Sketchy
350
11050
  3
Thicken
350
1104B
  3
Wireframe
350
11045
  3
X-Ray
350
11051
  0
XRECORD
  5
11163
102
{ACAD_REACTORS
330
11021
102
}
330
11021
100
AcDbXrecord
280
     1
 90
        1
330
11079
  0
DICTIONARY
  5
110C0
102
{ACAD_REACTORS
330
11021
102
}
330
11021
100
AcDbDictionary
281
     1
  3
CANNOSCALE
350
110C5
  3
CMLEADERSTYLE
350
110C2
  3
CTABLESTYLE
350
110C1
  3
CVIEWDETAILSTYLE
350
110C3
  3
CVIEWSECTIONSTYLE
350
110C4
  3
DIMASSOC
350
110C8
  3
INDEXCTL
350
110C7
  3
SORTENTS
350
110C6
  3
XCLIPFRAME
350
11161
  0
XRECORD
  5
11164
102
{ACAD_REACTORS
330
11021
102
}
330
11021
100
AcDbXrecord
280
     1
  1
DWGPROPS COOKIE
  2

  3

  4

  6

  7

  8
idobatak
  9

300
=
301
=
302
=
303
=
304
=
305
=
306
=
307
=
308
=
309
=
 40
4.047866979166666
 41
2450330.439930556
 42
2459087.437268518
  1

 90
        0
  0
XRECORD
  5
110AB
102
{ACAD_REACTORS
330
110AA
102
}
330
110AA
100
AcDbXrecord
280
     1
290
     1
  0
XRECORD
  5
110AD
102
{ACAD_REACTORS
330
110AC
102
}
330
110AC
100
AcDbXrecord
280
     1
290
     1
  0
XRECORD
  5
110AF
102
{ACAD_REACTORS
330
110AE
102
}
330
110AE
100
AcDbXrecord
280
     1
290
     1
  0
XRECORD
  5
110B1
102
{ACAD_REACTORS
330
110B0
102
}
330
110B0
100
AcDbXrecord
280
     1
290
     1
  0
XRECORD
  5
110B3
102
{ACAD_REACTORS
330
110B2
102
}
330
110B2
100
AcDbXrecord
280
     1
290
     1
  0
XRECORD
  5
110B5
102
{ACAD_REACTORS
330
110B4
102
}
330
110B4
100
AcDbXrecord
280
     1
290
     1
  0
XRECORD
  5
110B7
102
{ACAD_REACTORS
330
110B6
102
}
330
110B6
100
AcDbXrecord
280
     1
290
     1
  0
XRECORD
  5
110B9
102
{ACAD_REACTORS
330
110B8
102
}
330
110B8
100
AcDbXrecord
280
     1
290
     1
  0
XRECORD
  5
110BB
102
{ACAD_REACTORS
330
110BA
102
}
330
110BA
100
AcDbXrecord
280
     1
290
     1
  0
XRECORD
  5
110BD
102
{ACAD_REACTORS
330
110BC
102
}
330
110BC
100
AcDbXrecord
280
     1
290
     1
  0
XRECORD
  5
110BF
102
{ACAD_REACTORS
330
110BE
102
}
330
110BE
100
AcDbXrecord
280
     1
290
     1
  0
ACDBDETAILVIEWSTYLE
  5
1107F
102
{ACAD_XDICTIONARY
360
11198
102
}
102
{ACAD_REACTORS
330
1107E
102
}
330
1107E
100
AcDbModelDocViewStyle
 70
     0
  3
Imperial24
290
     0
100
AcDbDetailViewStyle
 70
     0
 71
     0
 90
        3
 71
     1
340
1106A
 40
0.24
340
0
 40
0.24
300

 40
0.36
280
     3
 71
     2
340
11071
 90
       25
 71
     3
340
1106A
 40
0.24
 90
        1
 40
0.75
 90
        1
300
%<\AcVar ViewType \f "%tc1">% %<\AcVar ViewDetailId>%\PSCALE %<\AcVar ViewScale \f "%sn">%
 71
     4
340
11071
 90
       25
340
11071
 90
       25
280
     0
  0
LAYOUT
  5
11087
102
{ACAD_XDICTIONARY
360
1119C
102
}
102
{ACAD_REACTORS
330
11076
102
}
330
11076
100
AcDbPlotSettings
  1

  2
FX C5575(5工場6F 西内側 X018) 64bit
  4

  6

 40
0.0
 41
0.0
 42
0.0
 43
0.0
 44
0.0
 45
0.0
 46
0.0
 47
0.0
 48
0.0
 49
0.0
140
0.0
141
0.0
142
1.0
143
1.0
 70
  1712
 72
     0
 73
     0
 74
     0
  7

 75
     0
147
1.0
148
0.0
149
0.0
100
AcDbLayout
  1
Model
 70
     1
 71
     0
 10
0.0
 20
0.0
 11
12.0
 21
9.0
 12
0.0
 22
0.0
 32
0.0
 14
0.0
 24
0.0
 34
0.0
 15
0.0
 25
0.0
 35
0.0
146
0.0
 13
0.0
 23
0.0
 33
0.0
 16
1.0
 26
0.0
 36
0.0
 17
0.0
 27
1.0
 37
0.0
 76
     0
330
11084
331
1108A
  0
LAYOUT
  5
11083
102
{ACAD_XDICTIONARY
360
1119A
102
}
102
{ACAD_REACTORS
330
11076
102
}
330
11076
100
AcDbPlotSettings
  1

  2
FX C5575(5工場6F 西内側 X018) 64bit
  4

  6

 40
0.0
 41
0.0
 42
0.0
 43
0.0
 44
0.0
 45
0.0
 46
0.0
 47
0.0
 48
0.0
 49
0.0
140
0.0
141
0.0
142
1.0
143
1.0
 70
   688
 72
     0
 73
     0
 74
     5
  7

 75
    16
147
1.0
148
0.0
149
0.0
100
AcDbLayout
  1
レイアウト1
 70
     1
 71
     1
 10
0.0
 20
0.0
 11
12.0
 21
9.0
 12
0.0
 22
0.0
 32
0.0
 14
1.000000000000000E+20
 24
1.000000000000000E+20
 34
1.000000000000000E+20
 15
-1.000000000000000E+20
 25
-1.000000000000000E+20
 35
-1.000000000000000E+20
146
0.0
 13
0.0
 23
0.0
 33
0.0
 16
1.0
 26
0.0
 36
0.0
 17
0.0
 27
1.0
 37
0.0
 76
     0
330
11080
  0
MATERIAL
  5
1102E
102
{ACAD_XDICTIONARY
360
1102F
102
}
102
{ACAD_REACTORS
330
11025
102
}
330
11025
100
AcDbMaterial
  1
ByBlock
 72
     0
 43
0.0208333333333333
 43
0.0
 43
0.0
 43
0.0
 43
0.0
 43
0.0208333333333333
 43
0.0
 43
0.0
 43
0.0
 43
0.0
 43
1.0
 43
0.0
 43
0.0
 43
0.0
 43
0.0
 43
1.0
 77
     0
 47
0.0208333333333333
 47
0.0
 47
0.0
 47
0.0
 47
0.0
 47
0.0208333333333333
 47
0.0
 47
0.0
 47
0.0
 47
0.0
 47
1.0
 47
0.0
 47
0.0
 47
0.0
 47
0.0
 47
1.0
171
     0
 49
0.0208333333333333
 49
0.0
 49
0.0
 49
0.0
 49
0.0
 49
0.0208333333333333
 49
0.0
 49
0.0
 49
0.0
 49
0.0
 49
1.0
 49
0.0
 49
0.0
 49
0.0
 49
0.0
 49
1.0
175
     0
142
0.0208333333333333
142
0.0
142
0.0
142
0.0
142
0.0
142
0.0208333333333333
142
0.0
142
0.0
142
0.0
142
0.0
142
1.0
142
0.0
142
0.0
142
0.0
142
0.0
142
1.0
179
     0
144
0.0208333333333333
144
0.0
144
0.0
144
0.0
144
0.0
144
0.0208333333333333
144
0.0
144
0.0
144
0.0
144
0.0
144
1.0
144
0.0
144
0.0
144
0.0
144
0.0
144
1.0
147
0.0208333333333333
147
0.0
147
0.0
147
0.0
147
0.0
147
0.0208333333333333
147
0.0
147
0.0
147
0.0
147
0.0
147
1.0
147
0.0
147
0.0
147
0.0
147
0.0
147
1.0
  0
MATERIAL
  5
11026
102
{ACAD_XDICTIONARY
360
11027
102
}
102
{ACAD_REACTORS
330
11025
102
}
330
11025
100
AcDbMaterial
  1
ByLayer
 72
     0
 43
0.0208333333333333
 43
0.0
 43
0.0
 43
0.0
 43
0.0
 43
0.0208333333333333
 43
0.0
 43
0.0
 43
0.0
 43
0.0
 43
1.0
 43
0.0
 43
0.0
 43
0.0
 43
0.0
 43
1.0
 77
     0
 47
0.0208333333333333
 47
0.0
 47
0.0
 47
0.0
 47
0.0
 47
0.0208333333333333
 47
0.0
 47
0.0
 47
0.0
 47
0.0
 47
1.0
 47
0.0
 47
0.0
 47
0.0
 47
0.0
 47
1.0
171
     0
 49
0.0208333333333333
 49
0.0
 49
0.0
 49
0.0
 49
0.0
 49
0.0208333333333333
 49
0.0
 49
0.0
 49
0.0
 49
0.0
 49
1.0
 49
0.0
 49
0.0
 49
0.0
 49
0.0
 49
1.0
175
     0
142
0.0208333333333333
142
0.0
142
0.0
142
0.0
142
0.0
142
0.0208333333333333
142
0.0
142
0.0
142
0.0
142
0.0
142
1.0
142
0.0
142
0.0
142
0.0
142
0.0
142
1.0
179
     0
144
0.0208333333333333
144
0.0
144
0.0
144
0.0
144
0.0
144
0.0208333333333333
144
0.0
144
0.0
144
0.0
144
0.0
144
1.0
144
0.0
144
0.0
144
0.0
144
0.0
144
1.0
147
0.0208333333333333
147
0.0
147
0.0
147
0.0
147
0.0
147
0.0208333333333333
147
0.0
147
0.0
147
0.0
147
0.0
147
1.0
147
0.0
147
0.0
147
0.0
147
0.0
147
1.0
  0
MATERIAL
  5
11036
102
{ACAD_XDICTIONARY
360
11037
102
}
102
{ACAD_REACTORS
330
11025
102
}
330
11025
100
AcDbMaterial
  1
Global
 72
     0
 43
0.0208333333333333
 43
0.0
 43
0.0
 43
0.0
 43
0.0
 43
0.0208333333333333
 43
0.0
 43
0.0
 43
0.0
 43
0.0
 43
1.0
 43
0.0
 43
0.0
 43
0.0
 43
0.0
 43
1.0
 77
     0
 47
0.0208333333333333
 47
0.0
 47
0.0
 47
0.0
 47
0.0
 47
0.0208333333333333
 47
0.0
 47
0.0
 47
0.0
 47
0.0
 47
1.0
 47
0.0
 47
0.0
 47
0.0
 47
0.0
 47
1.0
171
     0
 49
0.0208333333333333
 49
0.0
 49
0.0
 49
0.0
 49
0.0
 49
0.0208333333333333
 49
0.0
 49
0.0
 49
0.0
 49
0.0
 49
1.0
 49
0.0
 49
0.0
 49
0.0
 49
0.0
 49
1.0
175
     0
142
0.0208333333333333
142
0.0
142
0.0
142
0.0
142
0.0
142
0.0208333333333333
142
0.0
142
0.0
142
0.0
142
0.0
142
1.0
142
0.0
142
0.0
142
0.0
142
0.0
142
1.0
179
     0
144
0.0208333333333333
144
0.0
144
0.0
144
0.0
144
0.0
144
0.0208333333333333
144
0.0
144
0.0
144
0.0
144
0.0
144
1.0
144
0.0
144
0.0
144
0.0
144
0.0
144
1.0
147
0.0208333333333333
147
0.0
147
0.0
147
0.0
147
0.0
147
0.0208333333333333
147
0.0
147
0.0
147
0.0
147
0.0
147
1.0
147
0.0
147
0.0
147
0.0
147
0.0
147
1.0
  0
MLEADERSTYLE
  5
1107B
102
{ACAD_REACTORS
330
1107A
102
}
330
1107A
100
AcDbMLeaderStyle
170
     2
171
     1
172
     0
 90
        2
 40
0.0
 41
0.0
173
     1
 91
-1056964608
340
1106F
 92
       -2
290
     1
 42
0.09
291
     1
 43
0.36
  3
Standard
 44
0.18
300

342
1106A
174
     1
178
     6
175
     1
176
     0
 93
-1056964608
 45
0.18
292
     0
297
     0
 46
0.18
 94
-1056964608
 47
1.0
 49
1.0
140
1.0
293
     1
141
0.0
294
     1
177
     0
142
1.0
295
     0
296
     0
143
0.125
1001
ACAD_MLEADERVER
1070
     2
  0
MLINESTYLE
  5
11074
102
{ACAD_REACTORS
330
11073
102
}
330
11073
100
AcDbMlineStyle
  2
STANDARD
 70
     0
  3

 62
   256
 51
90.0
 52
90.0
 71
     2
 49
0.5
 62
   256
  6
BYLAYER
 49
-0.5
 62
   256
  6
BYLAYER
  0
ACDBPLACEHOLDER
  5
11024
102
{ACAD_REACTORS
330
11023
102
}
330
11023
  0
SCALE
  5
11058
102
{ACAD_REACTORS
330
11057
102
}
330
11057
100
AcDbScale
 70
     0
300
1:1
140
1.0
141
1.0
290
     1
  0
SCALE
  5
11059
102
{ACAD_REACTORS
330
11057
102
}
330
11057
100
AcDbScale
 70
     0
300
1/128" = 1'-0"
140
0.0078125
141
12.0
290
     0
  0
SCALE
  5
1105A
102
{ACAD_REACTORS
330
11057
102
}
330
11057
100
AcDbScale
 70
     0
300
1/64" = 1'-0"
140
0.015625
141
12.0
290
     0
  0
SCALE
  5
1105B
102
{ACAD_REACTORS
330
11057
102
}
330
11057
100
AcDbScale
 70
     0
300
1/32" = 1'-0"
140
0.03125
141
12.0
290
     0
  0
SCALE
  5
1105C
102
{ACAD_REACTORS
330
11057
102
}
330
11057
100
AcDbScale
 70
     0
300
1/16" = 1'-0"
140
0.0625
141
12.0
290
     0
  0
SCALE
  5
1105D
102
{ACAD_REACTORS
330
11057
102
}
330
11057
100
AcDbScale
 70
     0
300
3/32" = 1'-0"
140
0.09375
141
12.0
290
     0
  0
SCALE
  5
1105E
102
{ACAD_REACTORS
330
11057
102
}
330
11057
100
AcDbScale
 70
     0
300
1/8" = 1'-0"
140
0.125
141
12.0
290
     0
  0
SCALE
  5
1105F
102
{ACAD_REACTORS
330
11057
102
}
330
11057
100
AcDbScale
 70
     0
300
3/16" = 1'-0"
140
0.1875
141
12.0
290
     0
  0
SCALE
  5
11060
102
{ACAD_REACTORS
330
11057
102
}
330
11057
100
AcDbScale
 70
     0
300
1/4" = 1'-0"
140
0.25
141
12.0
290
     0
  0
SCALE
  5
11061
102
{ACAD_REACTORS
330
11057
102
}
330
11057
100
AcDbScale
 70
     0
300
3/8" = 1'-0"
140
0.375
141
12.0
290
     0
  0
SCALE
  5
11062
102
{ACAD_REACTORS
330
11057
102
}
330
11057
100
AcDbScale
 70
     0
300
1/2" = 1'-0"
140
0.5
141
12.0
290
     0
  0
SCALE
  5
11063
102
{ACAD_REACTORS
330
11057
102
}
330
11057
100
AcDbScale
 70
     0
300
3/4" = 1'-0"
140
0.75
141
12.0
290
     0
  0
SCALE
  5
11064
102
{ACAD_REACTORS
330
11057
102
}
330
11057
100
AcDbScale
 70
     0
300
1" = 1'-0"
140
1.0
141
12.0
290
     0
  0
SCALE
  5
11065
102
{ACAD_REACTORS
330
11057
102
}
330
11057
100
AcDbScale
 70
     0
300
1-1/2" = 1'-0"
140
1.5
141
12.0
290
     0
  0
SCALE
  5
11066
102
{ACAD_REACTORS
330
11057
102
}
330
11057
100
AcDbScale
 70
     0
300
3" = 1'-0"
140
3.0
141
12.0
290
     0
  0
SCALE
  5
11067
102
{ACAD_REACTORS
330
11057
102
}
330
11057
100
AcDbScale
 70
     0
300
6" = 1'-0"
140
6.0
141
12.0
290
     0
  0
SCALE
  5
11068
102
{ACAD_REACTORS
330
11057
102
}
330
11057
100
AcDbScale
 70
     0
300
1'-0" = 1'-0"
140
12.0
141
12.0
290
     0
  0
ACDBSECTIONVIEWSTYLE
  5
1107D
102
{ACAD_XDICTIONARY
360
11196
102
}
102
{ACAD_REACTORS
330
1107C
102
}
330
1107C
100
AcDbModelDocViewStyle
 70
     0
  3
Imperial24
290
     0
100
AcDbSectionViewStyle
 70
     0
 71
     0
 90
       78
 71
     1
340
1106A
 40
0.24
340
0
340
0
 40
0.24
300
I, O, Q, S, X, Z
 40
0.48
 90
        3
 40
0.18
 90
        1
 71
     2
340
11071
 90
       25
340
11071
 90
       50
 40
0.24
 40
0.0
 40
0.24
 71
     3
340
1106A
 40
0.24
 90
        1
 40
0.75
 90
        1
300
%<\AcVar ViewType \f "%tc1">% %<\AcVar ViewSectionStartId>%-%<\AcVar ViewSectionEndId>%\PSCALE %<\AcVar ViewScale \f "%sn">%
 71
     4
300
ANSI31
 40
1.0
 90
        0
290
     0
290
     0
 90
        6
 40
0.0
 40
1.570796326794896
 40
0.2617993877991494
 40
1.308996938995747
 40
-0.2617993877991494
 40
1.832595714594044
  0
TABLESTYLE
  5
11079
102
{ACAD_XDICTIONARY
360
110CA
102
}
102
{ACAD_REACTORS
330
11078
102
}
330
11078
100
AcDbTableStyle
  3
Standard
 70
     0
 71
     0
 40
0.06
 41
0.06
280
     0
281
     0
  7
STANDARD
140
0.18
170
     2
 62
     0
 63
     7
283
     0
274
    -2
284
     1
 64
     0
275
    -2
285
     1
 65
     0
276
    -2
286
     1
 66
     0
277
    -2
287
     1
 67
     0
278
    -2
288
     1
 68
     0
279
    -2
289
     1
 69
     0
  7
STANDARD
140
0.25
170
     5
 62
     0
 63
     7
283
     0
274
    -2
284
     1
 64
     0
275
    -2
285
     1
 65
     0
276
    -2
286
     1
 66
     0
277
    -2
287
     1
 67
     0
278
    -2
288
     1
 68
     0
279
    -2
289
     1
 69
     0
  7
STANDARD
140
0.18
170
     5
 62
     0
 63
     7
283
     0
274
    -2
284
     1
 64
     0
275
    -2
285
     1
 65
     0
276
    -2
286
     1
 66
     0
277
    -2
287
     1
 67
     0
278
    -2
288
     1
 68
     0
279
    -2
289
     1
 69
     0
  0
VISUALSTYLE
  5
11044
102
{ACAD_XDICTIONARY
360
1116F
102
}
102
{ACAD_REACTORS
330
1103E
102
}
330
1103E
100
AcDbVisualStyle
  2

 70
     4
 71
     0
 72
     2
 73
     0
 90
        0
 40
-0.6
 41
-30.0
 62
     5
 63
     7
 74
     1
 91
        4
 64
     7
 65
   257
 75
     1
175
     1
 42
1.0
 92
        0
 66
   257
 43
1.0
 76
     1
 77
     6
 78
     2
 67
     7
 79
     5
170
     0
171
     0
290
     0
174
     0
 93
        1
 44
0.0
173
     0
291
     0
 45
0.0
1001
ACAD
1000
AcDbSavedByObjectVersion
1070
     0
  0
VISUALSTYLE
  5
11043
102
{ACAD_XDICTIONARY
360
1116D
102
}
102
{ACAD_REACTORS
330
1103E
102
}
330
1103E
100
AcDbVisualStyle
  2

 70
     7
 71
     1
 72
     0
 73
     1
 90
        0
 40
-0.6
 41
-30.0
 62
     5
 63
     7
 74
     0
 91
        4
 64
     7
 65
   257
 75
     1
175
     1
 42
1.0
 92
        8
 66
     7
 43
1.0
 76
     1
 77
     6
 78
     2
 67
     7
 79
     5
170
     0
171
     0
290
     0
174
     0
 93
        1
 44
0.0
173
     0
291
     1
 45
0.0
1001
ACAD
1000
AcDbSavedByObjectVersion
1070
     0
  0
VISUALSTYLE
  5
1104A
102
{ACAD_XDICTIONARY
360
1117B
102
}
102
{ACAD_REACTORS
330
1103E
102
}
330
1103E
100
AcDbVisualStyle
  2

 70
    12
 71
     2
 72
     2
 73
     0
 90
        0
 40
-0.6
 41
-30.0
 62
     5
 63
     7
 74
     1
 91
        4
 64
     7
 65
   257
 75
     1
175
     1
 42
1.0
 92
        8
 66
     7
 43
1.0
 76
     1
 77
     6
 78
     2
 67
     7
 79
     5
170
     0
171
     0
290
     0
174
     0
 93
        1
 44
50.0
173
     0
291
     1
 45
0.0
1001
ACAD
1000
AcDbSavedByObjectVersion
1070
     0
  0
VISUALSTYLE
  5
1104E
102
{ACAD_XDICTIONARY
360
11183
102
}
102
{ACAD_REACTORS
330
1103E
102
}
330
1103E
100
AcDbVisualStyle
  2

 70
    16
 71
     2
 72
     2
 73
     3
 90
        0
 40
-0.6
 41
-30.0
 62
     5
 63
     8
 74
     1
 91
        4
 64
     7
 65
   257
 75
     1
175
     1
 42
1.0
 92
        8
 66
     8
 43
1.0
 76
     1
 77
     6
 78
     2
 67
     7
 79
     5
170
     0
171
     0
290
     0
174
     0
 93
        1
 44
0.0
173
     0
291
     1
 45
0.0
1001
ACAD
1000
AcDbSavedByObjectVersion
1070
     0
  0
VISUALSTYLE
  5
11047
102
{ACAD_XDICTIONARY
360
11175
102
}
102
{ACAD_REACTORS
330
1103E
102
}
330
1103E
100
AcDbVisualStyle
  2

 70
     9
 71
     3
 72
     2
 73
     0
 90
        0
 40
-0.6
 41
-30.0
 62
     5
 63
     7
 74
     2
 91
        2
 64
     7
 65
   257
 75
     1
175
     1
 42
179.0
 92
        8
 66
     7
 43
1.0
 76
     1
 77
     6
 78
     2
 67
     7
 79
     3
170
     0
171
     0
290
     0
174
     0
 93
        1
 44
0.0
173
     0
291
     0
 45
0.0
1001
ACAD
1000
AcDbSavedByObjectVersion
1070
     0
  0
VISUALSTYLE
  5
11049
102
{ACAD_XDICTIONARY
360
11179
102
}
102
{ACAD_REACTORS
330
1103E
102
}
330
1103E
100
AcDbVisualStyle
  2

 70
    11
 71
     2
 72
     2
 73
     0
 90
        0
 40
-0.6
 41
-30.0
 62
     5
 63
     7
 74
     1
 91
        4
 64
     7
 65
   257
 75
     1
175
     1
 42
1.0
 92
        8
 66
     7
 43
1.0
 76
     1
 77
     6
 78
     2
 67
     7
 79
     5
170
     0
171
     0
290
     0
174
     0
 93
        1
 44
-50.0
173
     0
291
     1
 45
0.0
1001
ACAD
1000
AcDbSavedByObjectVersion
1070
     0
  0
VISUALSTYLE
  5
11056
102
{ACAD_XDICTIONARY
360
11193
102
}
102
{ACAD_REACTORS
330
1103E
102
}
330
1103E
100
AcDbVisualStyle
  2

 70
    22
 71
     2
 72
     2
 73
     0
 90
        0
 40
-0.6
 41
-30.0
 62
     5
 63
     7
 74
     1
 91
        4
 64
     7
 65
   257
 75
     1
175
     1
 42
1.0
 92
        8
 66
     7
 43
1.0
 76
     1
 77
     6
 78
     2
 67
     7
 79
     5
170
     0
171
     0
290
     0
174
     0
 93
        1
 44
0.0
173
     0
291
     1
 45
0.0
1001
ACAD
1000
AcDbSavedByObjectVersion
1070
     0
  0
VISUALSTYLE
  5
1104D
102
{ACAD_XDICTIONARY
360
11181
102
}
102
{ACAD_REACTORS
330
1103E
102
}
330
1103E
100
AcDbVisualStyle
  2

 70
    15
 71
     2
 72
     2
 73
     0
 90
        0
 40
-0.6
 41
-30.0
 62
     5
 63
     7
 74
     1
 91
        4
 64
     7
 65
   257
 75
     1
175
     1
 42
1.0
 92
        8
 66
     7
 43
1.0
 76
     1
 77
     6
 78
     2
 67
     7
 79
     5
170
     0
171
     0
290
     0
174
     0
 93
        1
 44
0.0
173
     0
291
     1
 45
0.0
1001
ACAD
1000
AcDbSavedByObjectVersion
1070
     0
  0
VISUALSTYLE
  5
1103F
102
{ACAD_XDICTIONARY
360
11165
102
}
102
{ACAD_REACTORS
330
1103E
102
}
330
1103E
100
AcDbVisualStyle
  2

 70
     0
 71
     2
 72
     1
 73
     1
 90
        2
 40
-0.6
 41
30.0
 62
     5
 63
     7
 74
     0
 91
        0
 64
     7
 65
   257
 75
     1
175
     1
 42
1.0
 92
        8
 66
     7
 43
1.0
 76
     1
 77
     6
 78
     2
 67
     7
 79
     5
170
     0
171
     0
290
     0
174
     0
 93
       13
 44
0.0
173
     0
291
     1
 45
0.0
1001
ACAD
1000
AcDbSavedByObjectVersion
1070
     0
  0
VISUALSTYLE
  5
11040
102
{ACAD_XDICTIONARY
360
11167
102
}
102
{ACAD_REACTORS
330
1103E
102
}
330
1103E
100
AcDbVisualStyle
  2

 70
     1
 71
     2
 72
     1
 73
     1
 90
        2
 40
-0.6
 41
30.0
 62
     5
 63
     7
 74
     1
 91
        0
 64
     7
 65
   257
 75
     1
175
     1
 42
1.0
 92
        0
 66
   257
 43
1.0
 76
     1
 77
     6
 78
     2
 67
     7
 79
     5
170
     0
171
     0
290
     0
174
     0
 93
       13
 44
0.0
173
     0
291
     1
 45
0.0
1001
ACAD
1000
AcDbSavedByObjectVersion
1070
     0
  0
VISUALSTYLE
  5
11041
102
{ACAD_XDICTIONARY
360
11169
102
}
102
{ACAD_REACTORS
330
1103E
102
}
330
1103E
100
AcDbVisualStyle
  2

 70
     2
 71
     2
 72
     2
 73
     1
 90
        2
 40
-0.6
 41
30.0
 62
     5
 63
     7
 74
     0
 91
        0
 64
     7
 65
   257
 75
     1
175
     1
 42
1.0
 92
        0
 66
     7
 43
1.0
 76
     1
 77
     6
 78
     2
 67
     7
 79
     5
170
     0
171
     0
290
     0
174
     0
 93
       13
 44
0.0
173
     0
291
     1
 45
0.0
1001
ACAD
1000
AcDbSavedByObjectVersion
1070
     0
  0
VISUALSTYLE
  5
11042
102
{ACAD_XDICTIONARY
360
1116B
102
}
102
{ACAD_REACTORS
330
1103E
102
}
330
1103E
100
AcDbVisualStyle
  2

 70
     3
 71
     2
 72
     2
 73
     1
 90
        2
 40
-0.6
 41
30.0
 62
     5
 63
     7
 74
     1
 91
        0
 64
     7
 65
   257
 75
     1
175
     1
 42
1.0
 92
        0
 66
   257
 43
1.0
 76
     1
 77
     6
 78
     2
 67
     7
 79
     5
170
     0
171
     0
290
     0
174
     0
 93
       13
 44
0.0
173
     0
291
     1
 45
0.0
1001
ACAD
1000
AcDbSavedByObjectVersion
1070
     0
  0
VISUALSTYLE
  5
11046
102
{ACAD_XDICTIONARY
360
11173
102
}
102
{ACAD_REACTORS
330
1103E
102
}
330
1103E
100
AcDbVisualStyle
  2

 70
     6
 71
     1
 72
     2
 73
     2
 90
        0
 40
-0.6
 41
-30.0
 62
     5
 63
     7
 74
     2
 91
        2
 64
     7
 65
   257
 75
     2
175
     1
 42
40.0
 92
        0
 66
   257
 43
1.0
 76
     1
 77
     6
 78
     2
 67
     7
 79
     3
170
     0
171
     0
290
     0
174
     0
 93
        1
 44
0.0
173
     0
291
     0
 45
0.0
1001
ACAD
1000
AcDbSavedByObjectVersion
1070
     0
  0
VISUALSTYLE
  5
11054
102
{ACAD_XDICTIONARY
360
1118F
102
}
102
{ACAD_REACTORS
330
1103E
102
}
330
1103E
100
AcDbVisualStyle
  2

 70
    20
 71
     2
 72
     2
 73
     0
 90
        0
 40
-0.6
 41
-30.0
 62
     5
 63
     7
 74
     1
 91
        4
 64
     7
 65
   257
 75
     1
175
     1
 42
1.0
 92
       10
 66
     7
 43
1.0
 76
     1
 77
     6
 78
     2
 67
     7
 79
     5
170
     0
171
     0
290
     0
174
     0
 93
        1
 44
0.0
173
     0
291
     1
 45
0.0
1001
ACAD
1000
AcDbSavedByObjectVersion
1070
     0
  0
VISUALSTYLE
  5
1104C
102
{ACAD_XDICTIONARY
360
1117F
102
}
102
{ACAD_REACTORS
330
1103E
102
}
330
1103E
100
AcDbVisualStyle
  2

 70
    14
 71
     2
 72
     2
 73
     0
 90
        0
 40
-0.6
 41
-30.0
 62
     5
 63
     7
 74
     1
 91
        4
 64
     7
 65
   257
 75
     7
175
     7
 42
1.0
 92
        8
 66
     7
 43
1.0
 76
     1
 77
     6
 78
     2
 67
     7
 79
     5
170
     0
171
     0
290
     0
174
     0
 93
        1
 44
0.0
173
     0
291
     1
 45
0.0
1001
ACAD
1000
AcDbSavedByObjectVersion
1070
     0
  0
VISUALSTYLE
  5
11055
102
{ACAD_XDICTIONARY
360
11191
102
}
102
{ACAD_REACTORS
330
1103E
102
}
330
1103E
100
AcDbVisualStyle
  2

 70
    21
 71
     2
 72
     2
 73
     0
 90
        0
 40
-0.6
 41
-30.0
 62
     5
 63
     7
 74
     1
 91
        4
 64
     7
 65
   257
 75
     1
175
     1
 42
1.0
 92
        9
 66
     7
 43
1.0
 76
     1
 77
     6
 78
     2
 67
     7
 79
     5
170
     0
171
     0
290
     0
174
     0
 93
        1
 44
0.0
173
     0
291
     1
 45
0.0
1001
ACAD
1000
AcDbSavedByObjectVersion
1070
     0
  0
VISUALSTYLE
  5
11048
102
{ACAD_XDICTIONARY
360
11177
102
}
102
{ACAD_REACTORS
330
1103E
102
}
330
1103E
100
AcDbVisualStyle
  2

 70
     8
 71
     2
 72
     3
 73
     0
 90
        2
 40
-0.6
 41
30.0
 62
     5
 63
     7
 74
     0
 91
        0
 64
     7
 65
   257
 75
     1
175
     1
 42
1.0
 92
        8
 66
   257
 43
1.0
 76
     1
 77
     6
 78
     2
 67
     7
 79
     3
170
     0
171
     0
290
     0
174
     0
 93
       13
 44
0.0
173
     0
291
     0
 45
0.0
1001
ACAD
1000
AcDbSavedByObjectVersion
1070
     0
  0
VISUALSTYLE
  5
11053
102
{ACAD_XDICTIONARY
360
1118D
102
}
102
{ACAD_REACTORS
330
1103E
102
}
330
1103E
100
AcDbVisualStyle
  2

 70
    27
 71
     2
 72
     2
 73
     1
 90
        2
 40
-0.6
 41
30.0
 62
     5
 63
     7
 74
     0
 91
        4
 64
     7
 65
   257
 75
     1
175
     1
 42
1.0
 92
        8
 66
   257
 43
1.0
 76
     1
 77
     6
 78
     2
 67
     8
 79
     3
170
     0
171
     0
290
     0
174
     0
 93
        5
 44
0.0
173
     0
291
     0
 45
0.0
1001
ACAD
1000
AcDbSavedByObjectVersion
1070
     0
  0
VISUALSTYLE
  5
11052
102
{ACAD_XDICTIONARY
360
1118B
102
}
102
{ACAD_REACTORS
330
1103E
102
}
330
1103E
100
AcDbVisualStyle
  2

 70
    26
 71
     2
 72
     2
 73
     1
 90
        2
 40
-0.6
 41
30.0
 62
     5
 63
     7
 74
     1
 91
        2
 64
     7
 65
   257
 75
     2
175
     1
 42
1.0
 92
        8
 66
   257
 43
1.0
 76
     1
 77
     6
 78
     2
 67
     7
 79
     3
170
     0
171
     0
290
     0
174
     0
 93
        5
 44
0.0
173
     0
291
     0
 45
0.0
1001
ACAD
1000
AcDbSavedByObjectVersion
1070
     0
  0
VISUALSTYLE
  5
1104F
102
{ACAD_XDICTIONARY
360
11185
102
}
102
{ACAD_REACTORS
330
1103E
102
}
330
1103E
100
AcDbVisualStyle
  2

 70
    23
 71
     2
 72
     2
 73
     3
 90
        0
 40
-0.6
 41
-30.0
 62
     5
 63
     7
 74
     2
 91
        2
 64
     7
 65
     7
 75
     1
175
     1
 42
40.0
 92
        8
 66
     7
 43
1.0
 76
     1
 77
     6
 78
     2
 67
     7
 79
     3
170
     0
171
     0
290
     0
174
     0
 93
        1
 44
0.0
173
     0
291
     0
 45
0.0
1001
ACAD
1000
AcDbSavedByObjectVersion
1070
     0
  0
VISUALSTYLE
  5
11050
102
{ACAD_XDICTIONARY
360
11187
102
}
102
{ACAD_REACTORS
330
1103E
102
}
330
1103E
100
AcDbVisualStyle
  2

 70
    24
 71
     1
 72
     2
 73
     2
 90
        0
 40
-0.6
 41
-30.0
 62
     5
 63
     7
 74
     2
 91
        2
 64
     7
 65
     7
 75
     1
175
     1
 42
40.0
 92
       11
 66
     7
 43
1.0
 76
     1
 77
     6
 78
     2
 67
     7
 79
     6
170
     0
171
     0
290
     0
174
     0
 93
        1
 44
0.0
173
     0
291
     0
 45
0.0
1001
ACAD
1000
AcDbSavedByObjectVersion
1070
     0
  0
VISUALSTYLE
  5
1104B
102
{ACAD_XDICTIONARY
360
1117D
102
}
102
{ACAD_REACTORS
330
1103E
102
}
330
1103E
100
AcDbVisualStyle
  2

 70
    13
 71
     2
 72
     2
 73
     0
 90
        0
 40
-0.6
 41
-30.0
 62
     5
 63
     7
 74
     1
 91
        4
 64
     7
 65
   257
 75
     1
175
     1
 42
1.0
 92
       12
 66
     7
 43
1.0
 76
     1
 77
     6
 78
     2
 67
     7
 79
     5
170
     0
171
     0
290
     0
174
     0
 93
        1
 44
0.0
173
     0
291
     1
 45
0.0
1001
ACAD
1000
AcDbSavedByObjectVersion
1070
     0
  0
VISUALSTYLE
  5
11045
102
{ACAD_XDICTIONARY
360
11171
102
}
102
{ACAD_REACTORS
330
1103E
102
}
330
1103E
100
AcDbVisualStyle
  2

 70
     5
 71
     0
 72
     2
 73
     0
 90
        0
 40
-0.6
 41
-30.0
 62
     5
 63
     7
 74
     1
 91
        4
 64
     7
 65
   257
 75
     1
175
     1
 42
1.0
 92
        0
 66
   257
 43
1.0
 76
     1
 77
     6
 78
     2
 67
     7
 79
     3
170
     0
171
     0
290
     0
174
     0
 93
        1
 44
0.0
173
     0
291
     0
 45
0.0
1001
ACAD
1000
AcDbSavedByObjectVersion
1070
     0
  0
VISUALSTYLE
  5
11051
102
{ACAD_XDICTIONARY
360
11189
102
}
102
{ACAD_REACTORS
330
1103E
102
}
330
1103E
100
AcDbVisualStyle
  2

 70
    25
 71
     2
 72
     2
 73
     1
 90
        1
 40
0.5
 41
-30.0
 62
     5
 63
     7
 74
     1
 91
        0
 64
     7
 65
   257
 75
     1
175
     1
 42
1.0
 92
        8
 66
     7
 43
1.0
 76
     1
 77
     6
 78
     2
 67
     7
 79
     3
170
     0
171
     0
290
     0
174
     0
 93
       13
 44
0.0
173
     0
291
     0
 45
0.0
1001
ACAD
1000
AcDbSavedByObjectVersion
1070
     0
  0
DICTIONARYVAR
  5
110C5
102
{ACAD_REACTORS
330
110C0
102
}
330
110C0
100
DictionaryVariables
280
     0
  1
1:1
  0
DICTIONARYVAR
  5
110C2
102
{ACAD_REACTORS
330
110C0
102
}
330
110C0
100
DictionaryVariables
280
     0
  1
STANDARD
  0
DICTIONARYVAR
  5
110C1
102
{ACAD_REACTORS
330
110C0
102
}
330
110C0
100
DictionaryVariables
280
     0
  1
STANDARD
  0
DICTIONARYVAR
  5
110C3
102
{ACAD_REACTORS
330
110C0
102
}
330
110C0
100
DictionaryVariables
280
     0
  1
Imperial24
  0
DICTIONARYVAR
  5
110C4
102
{ACAD_REACTORS
330
110C0
102
}
330
110C0
100
DictionaryVariables
280
     0
  1
Imperial24
  0
DICTIONARYVAR
  5
110C8
102
{ACAD_REACTORS
330
110C0
102
}
330
110C0
100
DictionaryVariables
280
     0
  1
1
  0
DICTIONARYVAR
  5
110C7
102
{ACAD_REACTORS
330
110C0
102
}
330
110C0
100
DictionaryVariables
280
     0
  1
0
  0
DICTIONARYVAR
  5
110C6
102
{ACAD_REACTORS
330
110C0
102
}
330
110C0
100
DictionaryVariables
280
     0
  1
127
  0
DICTIONARYVAR
  5
11161
102
{ACAD_REACTORS
330
110C0
102
}
330
110C0
100
DictionaryVariables
280
     0
  1
2
  0
DICTIONARY
  5
11198
330
1107F
100
AcDbDictionary
280
     1
281
     1
  3
ACAD_XREC_ROUNDTRIP
360
11199
  0
DICTIONARY
  5
1119C
330
11087
100
AcDbDictionary
280
     1
281
     1
  3
ACAD_XREC_ROUNDTRIP
360
1119D
  0
DICTIONARY
  5
1119A
330
11083
100
AcDbDictionary
280
     1
281
     1
  3
ACAD_XREC_ROUNDTRIP
360
1119B
  0
DICTIONARY
  5
1102F
330
1102E
100
AcDbDictionary
280
     1
281
     1
  3
ACAD_XREC_ROUNDTRIP
360
110CF
  3
BUMPTILE
360
11031
  3
DIFFUSETILE
360
11030
  3
OPACITYTILE
360
11034
  3
REFLECTIONTILE
360
11033
  3
REFRACTIONTILE
360
11035
  3
SPECULARTILE
360
11032
  0
DICTIONARY
  5
11027
330
11026
100
AcDbDictionary
280
     1
281
     1
  3
ACAD_XREC_ROUNDTRIP
360
110CE
  3
BUMPTILE
360
11029
  3
DIFFUSETILE
360
11028
  3
OPACITYTILE
360
1102C
  3
REFLECTIONTILE
360
1102B
  3
REFRACTIONTILE
360
1102D
  3
SPECULARTILE
360
1102A
  0
DICTIONARY
  5
11037
330
11036
100
AcDbDictionary
280
     1
281
     1
  3
ACAD_XREC_ROUNDTRIP
360
110D0
  3
BUMPTILE
360
11039
  3
DIFFUSETILE
360
11038
  3
OPACITYTILE
360
1103C
  3
REFLECTIONTILE
360
1103B
  3
REFRACTIONTILE
360
1103D
  3
SPECULARTILE
360
1103A
  0
DICTIONARY
  5
11196
330
1107D
100
AcDbDictionary
280
     1
281
     1
  3
ACAD_XREC_ROUNDTRIP
360
11197
  0
DICTIONARY
  5
110CA
330
11079
100
AcDbDictionary
280
     1
281
     1
  3
ACAD_ROUNDTRIP_2008_TABLESTYLE_CELLSTYLEMAP
360
11162
  3
ACAD_XREC_ROUNDTRIP
360
11195
  0
DICTIONARY
  5
1116F
330
11044
100
AcDbDictionary
280
     1
281
     1
  3
ACAD_XREC_ROUNDTRIP
360
11170
  0
DICTIONARY
  5
1116D
330
11043
100
AcDbDictionary
280
     1
281
     1
  3
ACAD_XREC_ROUNDTRIP
360
1116E
  0
DICTIONARY
  5
1117B
330
1104A
100
AcDbDictionary
280
     1
281
     1
  3
ACAD_XREC_ROUNDTRIP
360
1117C
  0
DICTIONARY
  5
11183
330
1104E
100
AcDbDictionary
280
     1
281
     1
  3
ACAD_XREC_ROUNDTRIP
360
11184
  0
DICTIONARY
  5
11175
330
11047
100
AcDbDictionary
280
     1
281
     1
  3
ACAD_XREC_ROUNDTRIP
360
11176
  0
DICTIONARY
  5
11179
330
11049
100
AcDbDictionary
280
     1
281
     1
  3
ACAD_XREC_ROUNDTRIP
360
1117A
  0
DICTIONARY
  5
11193
330
11056
100
AcDbDictionary
280
     1
281
     1
  3
ACAD_XREC_ROUNDTRIP
360
11194
  0
DICTIONARY
  5
11181
330
1104D
100
AcDbDictionary
280
     1
281
     1
  3
ACAD_XREC_ROUNDTRIP
360
11182
  0
DICTIONARY
  5
11165
330
1103F
100
AcDbDictionary
280
     1
281
     1
  3
ACAD_XREC_ROUNDTRIP
360
11166
  0
DICTIONARY
  5
11167
330
11040
100
AcDbDictionary
280
     1
281
     1
  3
ACAD_XREC_ROUNDTRIP
360
11168
  0
DICTIONARY
  5
11169
330
11041
100
AcDbDictionary
280
     1
281
     1
  3
ACAD_XREC_ROUNDTRIP
360
1116A
  0
DICTIONARY
  5
1116B
330
11042
100
AcDbDictionary
280
     1
281
     1
  3
ACAD_XREC_ROUNDTRIP
360
1116C
  0
DICTIONARY
  5
11173
330
11046
100
AcDbDictionary
280
     1
281
     1
  3
ACAD_XREC_ROUNDTRIP
360
11174
  0
DICTIONARY
  5
1118F
330
11054
100
AcDbDictionary
280
     1
281
     1
  3
ACAD_XREC_ROUNDTRIP
360
11190
  0
DICTIONARY
  5
1117F
330
1104C
100
AcDbDictionary
280
     1
281
     1
  3
ACAD_XREC_ROUNDTRIP
360
11180
  0
DICTIONARY
  5
11191
330
11055
100
AcDbDictionary
280
     1
281
     1
  3
ACAD_XREC_ROUNDTRIP
360
11192
  0
DICTIONARY
  5
11177
330
11048
100
AcDbDictionary
280
     1
281
     1
  3
ACAD_XREC_ROUNDTRIP
360
11178
  0
DICTIONARY
  5
1118D
330
11053
100
AcDbDictionary
280
     1
281
     1
  3
ACAD_XREC_ROUNDTRIP
360
1118E
  0
DICTIONARY
  5
1118B
330
11052
100
AcDbDictionary
280
     1
281
     1
  3
ACAD_XREC_ROUNDTRIP
360
1118C
  0
DICTIONARY
  5
11185
330
1104F
100
AcDbDictionary
280
     1
281
     1
  3
ACAD_XREC_ROUNDTRIP
360
11186
  0
DICTIONARY
  5
11187
330
11050
100
AcDbDictionary
280
     1
281
     1
  3
ACAD_XREC_ROUNDTRIP
360
11188
  0
DICTIONARY
  5
1117D
330
1104B
100
AcDbDictionary
280
     1
281
     1
  3
ACAD_XREC_ROUNDTRIP
360
1117E
  0
DICTIONARY
  5
11171
330
11045
100
AcDbDictionary
280
     1
281
     1
  3
ACAD_XREC_ROUNDTRIP
360
11172
  0
DICTIONARY
  5
11189
330
11051
100
AcDbDictionary
280
     1
281
     1
  3
ACAD_XREC_ROUNDTRIP
360
1118A
  0
XRECORD
  5
11199
102
{ACAD_REACTORS
330
11198
102
}
330
11198
100
AcDbXrecord
280
     1
102
DISPLAYNAME
  1
Imperial24
102
FLAGS
 90
        0
  0
XRECORD
  5
1119D
102
{ACAD_REACTORS
330
1119C
102
}
330
1119C
100
AcDbXrecord
280
     1
102
SHADEPLOT
 70
     0
102
SHADEPLOTRESLEVEL
 70
     2
102
SHADEPLOTCUSTOMDPI
 70
   300
  0
XRECORD
  5
1119B
102
{ACAD_REACTORS
330
1119A
102
}
330
1119A
100
AcDbXrecord
280
     1
102
SHADEPLOT
 70
     0
102
SHADEPLOTRESLEVEL
 70
     2
102
SHADEPLOTCUSTOMDPI
 70
   300
  0
XRECORD
  5
110CF
102
{ACAD_REACTORS
330
1102F
102
}
330
1102F
100
AcDbXrecord
280
     1
102
MATERIAL
148
0.0
149
0.0
149
0.0
 93
        0
 94
      127
282
     0
 72
     0
 77
     0
171
     0
175
     0
179
     0
273
     0
  0
XRECORD
  5
11031
102
{ACAD_REACTORS
330
1102F
102
}
330
1102F
100
AcDbXrecord
280
     1
270
     1
271
     1
  0
XRECORD
  5
11030
102
{ACAD_REACTORS
330
1102F
102
}
330
1102F
100
AcDbXrecord
280
     1
270
     1
271
     1
  0
XRECORD
  5
11034
102
{ACAD_REACTORS
330
1102F
102
}
330
1102F
100
AcDbXrecord
280
     1
270
     1
271
     1
  0
XRECORD
  5
11033
102
{ACAD_REACTORS
330
1102F
102
}
330
1102F
100
AcDbXrecord
280
     1
270
     1
271
     1
  0
XRECORD
  5
11035
102
{ACAD_REACTORS
330
1102F
102
}
330
1102F
100
AcDbXrecord
280
     1
270
     1
271
     1
  0
XRECORD
  5
11032
102
{ACAD_REACTORS
330
1102F
102
}
330
1102F
100
AcDbXrecord
280
     1
270
     1
271
     1
  0
XRECORD
  5
110CE
102
{ACAD_REACTORS
330
11027
102
}
330
11027
100
AcDbXrecord
280
     1
102
MATERIAL
148
0.0
149
0.0
149
0.0
 93
        0
 94
      127
282
     0
 72
     0
 77
     0
171
     0
175
     0
179
     0
273
     0
  0
XRECORD
  5
11029
102
{ACAD_REACTORS
330
11027
102
}
330
11027
100
AcDbXrecord
280
     1
270
     1
271
     1
  0
XRECORD
  5
11028
102
{ACAD_REACTORS
330
11027
102
}
330
11027
100
AcDbXrecord
280
     1
270
     1
271
     1
  0
XRECORD
  5
1102C
102
{ACAD_REACTORS
330
11027
102
}
330
11027
100
AcDbXrecord
280
     1
270
     1
271
     1
  0
XRECORD
  5
1102B
102
{ACAD_REACTORS
330
11027
102
}
330
11027
100
AcDbXrecord
280
     1
270
     1
271
     1
  0
XRECORD
  5
1102D
102
{ACAD_REACTORS
330
11027
102
}
330
11027
100
AcDbXrecord
280
     1
270
     1
271
     1
  0
XRECORD
  5
1102A
102
{ACAD_REACTORS
330
11027
102
}
330
11027
100
AcDbXrecord
280
     1
270
     1
271
     1
  0
XRECORD
  5
110D0
102
{ACAD_REACTORS
330
11037
102
}
330
11037
100
AcDbXrecord
280
     1
102
MATERIAL
148
0.0
149
0.0
149
0.0
 93
        0
 94
      127
282
     0
 72
     0
 77
     0
171
     0
175
     0
179
     0
273
     0
  0
XRECORD
  5
11039
102
{ACAD_REACTORS
330
11037
102
}
330
11037
100
AcDbXrecord
280
     1
270
     1
271
     1
  0
XRECORD
  5
11038
102
{ACAD_REACTORS
330
11037
102
}
330
11037
100
AcDbXrecord
280
     1
270
     1
271
     1
  0
XRECORD
  5
1103C
102
{ACAD_REACTORS
330
11037
102
}
330
11037
100
AcDbXrecord
280
     1
270
     1
271
     1
  0
XRECORD
  5
1103B
102
{ACAD_REACTORS
330
11037
102
}
330
11037
100
AcDbXrecord
280
     1
270
     1
271
     1
  0
XRECORD
  5
1103D
102
{ACAD_REACTORS
330
11037
102
}
330
11037
100
AcDbXrecord
280
     1
270
     1
271
     1
  0
XRECORD
  5
1103A
102
{ACAD_REACTORS
330
11037
102
}
330
11037
100
AcDbXrecord
280
     1
270
     1
271
     1
  0
XRECORD
  5
11197
102
{ACAD_REACTORS
330
11196
102
}
330
11196
100
AcDbXrecord
280
     1
102
DISPLAYNAME
  1
Imperial24
102
FLAGS
 90
        0
  0
CELLSTYLEMAP
  5
11162
102
{ACAD_REACTORS
330
110CA
102
}
330
110CA
100
AcDbCellStyleMap
 90
        3
300
CELLSTYLE
  1
TABLEFORMAT_BEGIN
 90
        5
170
     1
 91
        0
 92
    32768
 62
   257
 93
        1
300
CONTENTFORMAT
  1
CONTENTFORMAT_BEGIN
 90
        0
 91
        0
 92
      512
 93
        0
300

 40
0.0
140
1.0
 94
        5
 62
     0
340
1106A
144
0.25
309
CONTENTFORMAT_END
171
     1
301
MARGIN
  1
CELLMARGIN_BEGIN
 40
0.06
 40
0.06
 40
0.06
 40
0.06
 40
0.18
 40
0.18
309
CELLMARGIN_END
 94
        6
 95
        1
302
GRIDFORMAT
  1
GRIDFORMAT_BEGIN
 90
        0
 91
        1
 62
     0
 92
       -2
340
0
 93
        0
 40
0.045
309
GRIDFORMAT_END
 95
        2
302
GRIDFORMAT
  1
GRIDFORMAT_BEGIN
 90
        0
 91
        1
 62
     0
 92
       -2
340
0
 93
        0
 40
0.045
309
GRIDFORMAT_END
 95
        4
302
GRIDFORMAT
  1
GRIDFORMAT_BEGIN
 90
        0
 91
        1
 62
     0
 92
       -2
340
0
 93
        0
 40
0.045
309
GRIDFORMAT_END
 95
        8
302
GRIDFORMAT
  1
GRIDFORMAT_BEGIN
 90
        0
 91
        1
 62
     0
 92
       -2
340
0
 93
        0
 40
0.045
309
GRIDFORMAT_END
 95
       16
302
GRIDFORMAT
  1
GRIDFORMAT_BEGIN
 90
        0
 91
        1
 62
     0
 92
       -2
340
0
 93
        0
 40
0.045
309
GRIDFORMAT_END
 95
       32
302
GRIDFORMAT
  1
GRIDFORMAT_BEGIN
 90
        0
 91
        1
 62
     0
 92
       -2
340
0
 93
        0
 40
0.045
309
GRIDFORMAT_END
309
TABLEFORMAT_END
  1
CELLSTYLE_BEGIN
 90
        1
 91
        1
300
_TITLE
309
CELLSTYLE_END
300
CELLSTYLE
  1
TABLEFORMAT_BEGIN
 90
        5
170
     1
 91
        0
 92
        0
 62
   257
 93
        1
300
CONTENTFORMAT
  1
CONTENTFORMAT_BEGIN
 90
        0
 91
        0
 92
      512
 93
        0
300

 40
0.0
140
1.0
 94
        5
 62
     0
340
1106A
144
0.18
309
CONTENTFORMAT_END
171
     1
301
MARGIN
  1
CELLMARGIN_BEGIN
 40
0.06
 40
0.06
 40
0.06
 40
0.06
 40
0.18
 40
0.18
309
CELLMARGIN_END
 94
        6
 95
        1
302
GRIDFORMAT
  1
GRIDFORMAT_BEGIN
 90
        0
 91
        1
 62
     0
 92
       -2
340
0
 93
        0
 40
0.045
309
GRIDFORMAT_END
 95
        2
302
GRIDFORMAT
  1
GRIDFORMAT_BEGIN
 90
        0
 91
        1
 62
     0
 92
       -2
340
0
 93
        0
 40
0.045
309
GRIDFORMAT_END
 95
        4
302
GRIDFORMAT
  1
GRIDFORMAT_BEGIN
 90
        0
 91
        1
 62
     0
 92
       -2
340
0
 93
        0
 40
0.045
309
GRIDFORMAT_END
 95
        8
302
GRIDFORMAT
  1
GRIDFORMAT_BEGIN
 90
        0
 91
        1
 62
     0
 92
       -2
340
0
 93
        0
 40
0.045
309
GRIDFORMAT_END
 95
       16
302
GRIDFORMAT
  1
GRIDFORMAT_BEGIN
 90
        0
 91
        1
 62
     0
 92
       -2
340
0
 93
        0
 40
0.045
309
GRIDFORMAT_END
 95
       32
302
GRIDFORMAT
  1
GRIDFORMAT_BEGIN
 90
        0
 91
        1
 62
     0
 92
       -2
340
0
 93
        0
 40
0.045
309
GRIDFORMAT_END
309
TABLEFORMAT_END
  1
CELLSTYLE_BEGIN
 90
        2
 91
        1
300
_HEADER
309
CELLSTYLE_END
300
CELLSTYLE
  1
TABLEFORMAT_BEGIN
 90
        5
170
     1
 91
        0
 92
        0
 62
   257
 93
        1
300
CONTENTFORMAT
  1
CONTENTFORMAT_BEGIN
 90
        0
 91
        0
 92
      512
 93
        0
300

 40
0.0
140
1.0
 94
        2
 62
     0
340
1106A
144
0.18
309
CONTENTFORMAT_END
171
     1
301
MARGIN
  1
CELLMARGIN_BEGIN
 40
0.06
 40
0.06
 40
0.06
 40
0.06
 40
0.18
 40
0.18
309
CELLMARGIN_END
 94
        6
 95
        1
302
GRIDFORMAT
  1
GRIDFORMAT_BEGIN
 90
        0
 91
        1
 62
     0
 92
       -2
340
0
 93
        0
 40
0.045
309
GRIDFORMAT_END
 95
        2
302
GRIDFORMAT
  1
GRIDFORMAT_BEGIN
 90
        0
 91
        1
 62
     0
 92
       -2
340
0
 93
        0
 40
0.045
309
GRIDFORMAT_END
 95
        4
302
GRIDFORMAT
  1
GRIDFORMAT_BEGIN
 90
        0
 91
        1
 62
     0
 92
       -2
340
0
 93
        0
 40
0.045
309
GRIDFORMAT_END
 95
        8
302
GRIDFORMAT
  1
GRIDFORMAT_BEGIN
 90
        0
 91
        1
 62
     0
 92
       -2
340
0
 93
        0
 40
0.045
309
GRIDFORMAT_END
 95
       16
302
GRIDFORMAT
  1
GRIDFORMAT_BEGIN
 90
        0
 91
        1
 62
     0
 92
       -2
340
0
 93
        0
 40
0.045
309
GRIDFORMAT_END
 95
       32
302
GRIDFORMAT
  1
GRIDFORMAT_BEGIN
 90
        0
 91
        1
 62
     0
 92
       -2
340
0
 93
        0
 40
0.045
309
GRIDFORMAT_END
309
TABLEFORMAT_END
  1
CELLSTYLE_BEGIN
 90
        3
 91
        2
300
_DATA
309
CELLSTYLE_END
  0
XRECORD
  5
11195
102
{ACAD_REACTORS
330
110CA
102
}
330
110CA
100
AcDbXrecord
280
     1
102
ACAD_ROUNDTRIP_PRE2007_TABLESTYLE
 90
      512
 91
        0
  1

 92
      512
 93
        0
  2

 94
      512
 95
        0
  3

  0
XRECORD
  5
11170
102
{ACAD_REACTORS
330
1116F
102
}
330
1116F
100
AcDbXrecord
280
     1
102
RTVSPost2010Prop28
280
     1
102
RTVSPost2010PropOp28
 70
     1
102
RTVSPost2010Prop29
280
     1
102
RTVSPost2010PropOp29
 70
     1
102
RTVSPost2010Prop30
280
     0
102
RTVSPost2010PropOp30
 70
     1
102
RTVSPost2010Prop31
280
     0
102
RTVSPost2010PropOp31
 70
     1
102
RTVSPost2010Prop32
280
     0
102
RTVSPost2010PropOp32
 70
     1
102
RTVSPost2010Prop33
280
     0
102
RTVSPost2010PropOp33
 70
     1
102
RTVSPost2010Prop34
280
     0
102
RTVSPost2010PropOp34
 70
     1
102
RTVSPost2010Prop35
280
     0
102
RTVSPost2010PropOp35
 70
     1
102
RTVSPost2010Prop36
280
     0
102
RTVSPost2010PropOp36
 70
     1
102
RTVSPost2010Prop37
 90
       50
102
RTVSPost2010PropOp37
 70
     1
102
RTVSPost2010Prop38
140
0.0
102
RTVSPost2010PropOp38
 70
     1
102
RTVSPost2010Prop39
140
1.0
102
RTVSPost2010PropOp39
 70
     1
102
RTVSPost2010Prop40
 90
        0
102
RTVSPost2010PropOp40
 70
     1
102
RTVSPost2010Prop41ColorIndex
 90
       18
102
RTVSPost2010Prop41ColorRGB
 90
        0
102
RTVSPost2010PropOp41
 70
     1
102
RTVSPost2010Prop42
 90
       50
102
RTVSPost2010PropOp42
 70
     1
102
RTVSPost2010Prop43
 90
        3
102
RTVSPost2010PropOp43
 70
     1
102
RTVSPost2010Prop44ColorIndex
 90
        5
102
RTVSPost2010Prop44ColorRGB
 90
      255
102
RTVSPost2010PropOp44
 70
     1
102
RTVSPost2010Prop45
280
     0
102
RTVSPost2010PropOp45
 70
     1
102
RTVSPost2010Prop46
 90
       50
102
RTVSPost2010PropOp46
 70
     1
102
RTVSPost2010Prop47
 90
       50
102
RTVSPost2010PropOp47
 70
     1
102
RTVSPost2010Prop48
 90
       50
102
RTVSPost2010PropOp48
 70
     1
102
RTVSPost2010Prop49
280
     0
102
RTVSPost2010PropOp49
 70
     1
102
RTVSPost2010Prop50
 90
       50
102
RTVSPost2010PropOp50
 70
     1
102
RTVSPost2010Prop51ColorIndex
 90
      256
102
RTVSPost2010Prop51ColorRGB
 90
-16777216
102
RTVSPost2010PropOp51
 70
     0
102
RTVSPost2010Prop52
140
1.0
102
RTVSPost2010PropOp52
 70
     0
102
RTVSPost2010Prop53
 90
        2
102
RTVSPost2010PropOp53
 70
     1
102
RTVSPost2010Prop54
  1
strokes_ogs.tif
102
RTVSPost2010PropOp54
 70
     1
102
RTVSPost2010Prop55
280
     0
102
RTVSPost2010PropOp55
 70
     1
102
RTVSPost2010Prop56
140
1.0
102
RTVSPost2010PropOp56
 70
     1
102
RTVSPost2010Prop57
140
1.0
102
RTVSPost2010PropOp57
 70
     1
102
RTVSPropertyOp0
 70
     1
102
RTVSPropertyOp1
 70
     1
102
RTVSPropertyOp2
 70
     1
102
RTVSPropertyOp3
 70
     1
102
RTVSPropertyOp4
 70
     1
102
RTVSPropertyOp5
 70
     1
102
RTVSPropertyOp6
 70
     1
102
RTVSPropertyOp7
 70
     1
102
RTVSPropertyOp8
 70
     1
102
RTVSPropertyOp9
 70
     1
102
RTVSPropertyOp10
 70
     1
102
RTVSPropertyOp11
 70
     1
102
RTVSPropertyOp12
 70
     1
102
RTVSPropertyOp13
 70
     1
102
RTVSPropertyOp14
 70
     1
102
RTVSPropertyOp15
 70
     1
102
RTVSPropertyOp16
 70
     1
102
RTVSPropertyOp17
 70
     1
102
RTVSPropertyOp18
 70
     1
102
RTVSPropertyOp19
 70
     1
102
RTVSPropertyOp20
 70
     1
102
RTVSPropertyOp21
 70
     1
102
RTVSPropertyOp22
 70
     1
102
RTVSPropertyOp23
 70
     1
102
RTVSPropertyOp24
 70
     1
102
RTVSPropertyOp25
 70
     1
102
RTVSPropertyOp26
 70
     1
102
RTVSPropertyOp27
 70
     1
102
RTVSPropertyOp28
 70
     1
102
RTVSPropertyOp29
 70
     1
102
RTVSPropertyOp30
 70
     1
102
RTVSPropertyOp31
 70
     1
102
RTVSPropertyOp32
 70
     1
102
RTVSPropertyOp33
 70
     1
102
RTVSPropertyOp34
 70
     1
102
RTVSPropertyOp35
 70
     1
102
RTVSPropertyOp36
 70
     1
102
RTVSPropertyOp37
 70
     1
102
RTVSPropertyOp38
 70
     1
102
RTVSPropertyOp39
 70
     1
102
RTVSPropertyOp40
 70
     1
102
RTVSPropertyOp41
 70
     1
102
RTVSPropertyOp42
 70
     1
102
RTVSPropertyOp43
 70
     1
102
RTVSPropertyOp44
 70
     1
102
RTVSPropertyOp45
 70
     1
102
RTVSPropertyOp46
 70
     1
102
RTVSPropertyOp47
 70
     1
102
RTVSPropertyOp48
 70
     1
102
RTVSPropertyOp49
 70
     1
102
RTVSPropertyOp50
 70
     1
102
RTVSPropertyOp51
 70
     0
102
RTVSPropertyOp52
 70
     0
102
RTVSPropertyOp53
 70
     1
102
RTVSPropertyOp54
 70
     1
102
RTVSPropertyOp55
 70
     1
102
RTVSPropertyOp56
 70
     1
102
RTVSPropertyOp57
 70
     1
102
RTVSPropertyOp58
 70
     1
102
RTVSPropertyOp59
 70
     1
102
RTVSPropertyOp60
 70
     1
102
RTVSPropertyOp61
 70
     1
102
RTVSPropertyOp62
 70
     1
  0
XRECORD
  5
1116E
102
{ACAD_REACTORS
330
1116D
102
}
330
1116D
100
AcDbXrecord
280
     1
102
RTVSPost2010Prop28
280
     0
102
RTVSPost2010PropOp28
 70
     1
102
RTVSPost2010Prop29
280
     1
102
RTVSPost2010PropOp29
 70
     1
102
RTVSPost2010Prop30
280
     1
102
RTVSPost2010PropOp30
 70
     1
102
RTVSPost2010Prop31
280
     0
102
RTVSPost2010PropOp31
 70
     1
102
RTVSPost2010Prop32
280
     0
102
RTVSPost2010PropOp32
 70
     1
102
RTVSPost2010Prop33
280
     0
102
RTVSPost2010PropOp33
 70
     1
102
RTVSPost2010Prop34
280
     0
102
RTVSPost2010PropOp34
 70
     1
102
RTVSPost2010Prop35
280
     0
102
RTVSPost2010PropOp35
 70
     1
102
RTVSPost2010Prop36
280
     0
102
RTVSPost2010PropOp36
 70
     1
102
RTVSPost2010Prop37
 90
       50
102
RTVSPost2010PropOp37
 70
     1
102
RTVSPost2010Prop38
140
0.0
102
RTVSPost2010PropOp38
 70
     1
102
RTVSPost2010Prop39
140
1.0
102
RTVSPost2010PropOp39
 70
     1
102
RTVSPost2010Prop40
 90
        0
102
RTVSPost2010PropOp40
 70
     1
102
RTVSPost2010Prop41ColorIndex
 90
       18
102
RTVSPost2010Prop41ColorRGB
 90
        0
102
RTVSPost2010PropOp41
 70
     1
102
RTVSPost2010Prop42
 90
       50
102
RTVSPost2010PropOp42
 70
     1
102
RTVSPost2010Prop43
 90
        3
102
RTVSPost2010PropOp43
 70
     1
102
RTVSPost2010Prop44ColorIndex
 90
        5
102
RTVSPost2010Prop44ColorRGB
 90
      255
102
RTVSPost2010PropOp44
 70
     1
102
RTVSPost2010Prop45
280
     0
102
RTVSPost2010PropOp45
 70
     1
102
RTVSPost2010Prop46
 90
       50
102
RTVSPost2010PropOp46
 70
     1
102
RTVSPost2010Prop47
 90
       50
102
RTVSPost2010PropOp47
 70
     1
102
RTVSPost2010Prop48
 90
       50
102
RTVSPost2010PropOp48
 70
     1
102
RTVSPost2010Prop49
280
     0
102
RTVSPost2010PropOp49
 70
     1
102
RTVSPost2010Prop50
 90
       50
102
RTVSPost2010PropOp50
 70
     1
102
RTVSPost2010Prop51ColorIndex
 90
      256
102
RTVSPost2010Prop51ColorRGB
 90
-16777216
102
RTVSPost2010PropOp51
 70
     0
102
RTVSPost2010Prop52
140
1.0
102
RTVSPost2010PropOp52
 70
     0
102
RTVSPost2010Prop53
 90
        2
102
RTVSPost2010PropOp53
 70
     1
102
RTVSPost2010Prop54
  1
strokes_ogs.tif
102
RTVSPost2010PropOp54
 70
     1
102
RTVSPost2010Prop55
280
     0
102
RTVSPost2010PropOp55
 70
     1
102
RTVSPost2010Prop56
140
1.0
102
RTVSPost2010PropOp56
 70
     1
102
RTVSPost2010Prop57
140
1.0
102
RTVSPost2010PropOp57
 70
     1
102
RTVSPropertyOp0
 70
     1
102
RTVSPropertyOp1
 70
     1
102
RTVSPropertyOp2
 70
     1
102
RTVSPropertyOp3
 70
     1
102
RTVSPropertyOp4
 70
     1
102
RTVSPropertyOp5
 70
     1
102
RTVSPropertyOp6
 70
     1
102
RTVSPropertyOp7
 70
     1
102
RTVSPropertyOp8
 70
     1
102
RTVSPropertyOp9
 70
     1
102
RTVSPropertyOp10
 70
     1
102
RTVSPropertyOp11
 70
     1
102
RTVSPropertyOp12
 70
     1
102
RTVSPropertyOp13
 70
     1
102
RTVSPropertyOp14
 70
     1
102
RTVSPropertyOp15
 70
     1
102
RTVSPropertyOp16
 70
     1
102
RTVSPropertyOp17
 70
     1
102
RTVSPropertyOp18
 70
     1
102
RTVSPropertyOp19
 70
     1
102
RTVSPropertyOp20
 70
     1
102
RTVSPropertyOp21
 70
     1
102
RTVSPropertyOp22
 70
     1
102
RTVSPropertyOp23
 70
     1
102
RTVSPropertyOp24
 70
     1
102
RTVSPropertyOp25
 70
     1
102
RTVSPropertyOp26
 70
     1
102
RTVSPropertyOp27
 70
     1
102
RTVSPropertyOp28
 70
     1
102
RTVSPropertyOp29
 70
     1
102
RTVSPropertyOp30
 70
     1
102
RTVSPropertyOp31
 70
     1
102
RTVSPropertyOp32
 70
     1
102
RTVSPropertyOp33
 70
     1
102
RTVSPropertyOp34
 70
     1
102
RTVSPropertyOp35
 70
     1
102
RTVSPropertyOp36
 70
     1
102
RTVSPropertyOp37
 70
     1
102
RTVSPropertyOp38
 70
     1
102
RTVSPropertyOp39
 70
     1
102
RTVSPropertyOp40
 70
     1
102
RTVSPropertyOp41
 70
     1
102
RTVSPropertyOp42
 70
     1
102
RTVSPropertyOp43
 70
     1
102
RTVSPropertyOp44
 70
     1
102
RTVSPropertyOp45
 70
     1
102
RTVSPropertyOp46
 70
     1
102
RTVSPropertyOp47
 70
     1
102
RTVSPropertyOp48
 70
     1
102
RTVSPropertyOp49
 70
     1
102
RTVSPropertyOp50
 70
     1
102
RTVSPropertyOp51
 70
     0
102
RTVSPropertyOp52
 70
     0
102
RTVSPropertyOp53
 70
     1
102
RTVSPropertyOp54
 70
     1
102
RTVSPropertyOp55
 70
     1
102
RTVSPropertyOp56
 70
     1
102
RTVSPropertyOp57
 70
     1
102
RTVSPropertyOp58
 70
     1
102
RTVSPropertyOp59
 70
     1
102
RTVSPropertyOp60
 70
     1
102
RTVSPropertyOp61
 70
     1
102
RTVSPropertyOp62
 70
     1
  0
XRECORD
  5
1117C
102
{ACAD_REACTORS
330
1117B
102
}
330
1117B
100
AcDbXrecord
280
     1
102
RTVSPost2010Prop28
280
     0
102
RTVSPost2010PropOp28
 70
     1
102
RTVSPost2010Prop29
280
     1
102
RTVSPost2010PropOp29
 70
     1
102
RTVSPost2010Prop30
280
     1
102
RTVSPost2010PropOp30
 70
     1
102
RTVSPost2010Prop31
280
     0
102
RTVSPost2010PropOp31
 70
     1
102
RTVSPost2010Prop32
280
     0
102
RTVSPost2010PropOp32
 70
     1
102
RTVSPost2010Prop33
280
     0
102
RTVSPost2010PropOp33
 70
     1
102
RTVSPost2010Prop34
280
     0
102
RTVSPost2010PropOp34
 70
     1
102
RTVSPost2010Prop35
280
     0
102
RTVSPost2010PropOp35
 70
     1
102
RTVSPost2010Prop36
280
     0
102
RTVSPost2010PropOp36
 70
     1
102
RTVSPost2010Prop37
 90
       50
102
RTVSPost2010PropOp37
 70
     1
102
RTVSPost2010Prop38
140
0.0
102
RTVSPost2010PropOp38
 70
     1
102
RTVSPost2010Prop39
140
1.0
102
RTVSPost2010PropOp39
 70
     1
102
RTVSPost2010Prop40
 90
        0
102
RTVSPost2010PropOp40
 70
     1
102
RTVSPost2010Prop41ColorIndex
 90
       18
102
RTVSPost2010Prop41ColorRGB
 90
        0
102
RTVSPost2010PropOp41
 70
     1
102
RTVSPost2010Prop42
 90
       50
102
RTVSPost2010PropOp42
 70
     1
102
RTVSPost2010Prop43
 90
        3
102
RTVSPost2010PropOp43
 70
     1
102
RTVSPost2010Prop44ColorIndex
 90
        5
102
RTVSPost2010Prop44ColorRGB
 90
      255
102
RTVSPost2010PropOp44
 70
     1
102
RTVSPost2010Prop45
280
     0
102
RTVSPost2010PropOp45
 70
     1
102
RTVSPost2010Prop46
 90
       50
102
RTVSPost2010PropOp46
 70
     1
102
RTVSPost2010Prop47
 90
       50
102
RTVSPost2010PropOp47
 70
     1
102
RTVSPost2010Prop48
 90
       50
102
RTVSPost2010PropOp48
 70
     1
102
RTVSPost2010Prop49
280
     0
102
RTVSPost2010PropOp49
 70
     1
102
RTVSPost2010Prop50
 90
       50
102
RTVSPost2010PropOp50
 70
     1
102
RTVSPost2010Prop51ColorIndex
 90
      256
102
RTVSPost2010Prop51ColorRGB
 90
-16777216
102
RTVSPost2010PropOp51
 70
     0
102
RTVSPost2010Prop52
140
1.0
102
RTVSPost2010PropOp52
 70
     0
102
RTVSPost2010Prop53
 90
        2
102
RTVSPost2010PropOp53
 70
     1
102
RTVSPost2010Prop54
  1
strokes_ogs.tif
102
RTVSPost2010PropOp54
 70
     1
102
RTVSPost2010Prop55
280
     0
102
RTVSPost2010PropOp55
 70
     1
102
RTVSPost2010Prop56
140
1.0
102
RTVSPost2010PropOp56
 70
     1
102
RTVSPost2010Prop57
140
1.0
102
RTVSPost2010PropOp57
 70
     1
102
RTVSPropertyOp0
 70
     1
102
RTVSPropertyOp1
 70
     1
102
RTVSPropertyOp2
 70
     1
102
RTVSPropertyOp3
 70
     1
102
RTVSPropertyOp4
 70
     1
102
RTVSPropertyOp5
 70
     1
102
RTVSPropertyOp6
 70
     1
102
RTVSPropertyOp7
 70
     1
102
RTVSPropertyOp8
 70
     1
102
RTVSPropertyOp9
 70
     1
102
RTVSPropertyOp10
 70
     1
102
RTVSPropertyOp11
 70
     1
102
RTVSPropertyOp12
 70
     1
102
RTVSPropertyOp13
 70
     1
102
RTVSPropertyOp14
 70
     1
102
RTVSPropertyOp15
 70
     1
102
RTVSPropertyOp16
 70
     1
102
RTVSPropertyOp17
 70
     1
102
RTVSPropertyOp18
 70
     1
102
RTVSPropertyOp19
 70
     1
102
RTVSPropertyOp20
 70
     1
102
RTVSPropertyOp21
 70
     1
102
RTVSPropertyOp22
 70
     1
102
RTVSPropertyOp23
 70
     1
102
RTVSPropertyOp24
 70
     1
102
RTVSPropertyOp25
 70
     1
102
RTVSPropertyOp26
 70
     1
102
RTVSPropertyOp27
 70
     1
102
RTVSPropertyOp28
 70
     1
102
RTVSPropertyOp29
 70
     1
102
RTVSPropertyOp30
 70
     1
102
RTVSPropertyOp31
 70
     1
102
RTVSPropertyOp32
 70
     1
102
RTVSPropertyOp33
 70
     1
102
RTVSPropertyOp34
 70
     1
102
RTVSPropertyOp35
 70
     1
102
RTVSPropertyOp36
 70
     1
102
RTVSPropertyOp37
 70
     1
102
RTVSPropertyOp38
 70
     1
102
RTVSPropertyOp39
 70
     1
102
RTVSPropertyOp40
 70
     1
102
RTVSPropertyOp41
 70
     1
102
RTVSPropertyOp42
 70
     1
102
RTVSPropertyOp43
 70
     1
102
RTVSPropertyOp44
 70
     1
102
RTVSPropertyOp45
 70
     1
102
RTVSPropertyOp46
 70
     1
102
RTVSPropertyOp47
 70
     1
102
RTVSPropertyOp48
 70
     1
102
RTVSPropertyOp49
 70
     1
102
RTVSPropertyOp50
 70
     1
102
RTVSPropertyOp51
 70
     0
102
RTVSPropertyOp52
 70
     0
102
RTVSPropertyOp53
 70
     1
102
RTVSPropertyOp54
 70
     1
102
RTVSPropertyOp55
 70
     1
102
RTVSPropertyOp56
 70
     1
102
RTVSPropertyOp57
 70
     1
102
RTVSPropertyOp58
 70
     1
102
RTVSPropertyOp59
 70
     1
102
RTVSPropertyOp60
 70
     1
102
RTVSPropertyOp61
 70
     1
102
RTVSPropertyOp62
 70
     1
  0
XRECORD
  5
11184
102
{ACAD_REACTORS
330
11183
102
}
330
11183
100
AcDbXrecord
280
     1
102
RTVSPost2010Prop28
280
     0
102
RTVSPost2010PropOp28
 70
     1
102
RTVSPost2010Prop29
280
     1
102
RTVSPost2010PropOp29
 70
     1
102
RTVSPost2010Prop30
280
     1
102
RTVSPost2010PropOp30
 70
     1
102
RTVSPost2010Prop31
280
     0
102
RTVSPost2010PropOp31
 70
     1
102
RTVSPost2010Prop32
280
     0
102
RTVSPost2010PropOp32
 70
     1
102
RTVSPost2010Prop33
280
     0
102
RTVSPost2010PropOp33
 70
     1
102
RTVSPost2010Prop34
280
     0
102
RTVSPost2010PropOp34
 70
     1
102
RTVSPost2010Prop35
280
     0
102
RTVSPost2010PropOp35
 70
     1
102
RTVSPost2010Prop36
280
     0
102
RTVSPost2010PropOp36
 70
     1
102
RTVSPost2010Prop37
 90
       50
102
RTVSPost2010PropOp37
 70
     1
102
RTVSPost2010Prop38
140
0.0
102
RTVSPost2010PropOp38
 70
     1
102
RTVSPost2010Prop39
140
1.0
102
RTVSPost2010PropOp39
 70
     1
102
RTVSPost2010Prop40
 90
        0
102
RTVSPost2010PropOp40
 70
     1
102
RTVSPost2010Prop41ColorIndex
 90
       18
102
RTVSPost2010Prop41ColorRGB
 90
        0
102
RTVSPost2010PropOp41
 70
     1
102
RTVSPost2010Prop42
 90
       50
102
RTVSPost2010PropOp42
 70
     1
102
RTVSPost2010Prop43
 90
        3
102
RTVSPost2010PropOp43
 70
     1
102
RTVSPost2010Prop44ColorIndex
 90
        5
102
RTVSPost2010Prop44ColorRGB
 90
      255
102
RTVSPost2010PropOp44
 70
     1
102
RTVSPost2010Prop45
280
     0
102
RTVSPost2010PropOp45
 70
     1
102
RTVSPost2010Prop46
 90
       50
102
RTVSPost2010PropOp46
 70
     1
102
RTVSPost2010Prop47
 90
       50
102
RTVSPost2010PropOp47
 70
     1
102
RTVSPost2010Prop48
 90
       50
102
RTVSPost2010PropOp48
 70
     1
102
RTVSPost2010Prop49
280
     0
102
RTVSPost2010PropOp49
 70
     1
102
RTVSPost2010Prop50
 90
       50
102
RTVSPost2010PropOp50
 70
     1
102
RTVSPost2010Prop51ColorIndex
 90
      256
102
RTVSPost2010Prop51ColorRGB
 90
-16777216
102
RTVSPost2010PropOp51
 70
     0
102
RTVSPost2010Prop52
140
1.0
102
RTVSPost2010PropOp52
 70
     0
102
RTVSPost2010Prop53
 90
        2
102
RTVSPost2010PropOp53
 70
     1
102
RTVSPost2010Prop54
  1
strokes_ogs.tif
102
RTVSPost2010PropOp54
 70
     1
102
RTVSPost2010Prop55
280
     0
102
RTVSPost2010PropOp55
 70
     1
102
RTVSPost2010Prop56
140
1.0
102
RTVSPost2010PropOp56
 70
     1
102
RTVSPost2010Prop57
140
1.0
102
RTVSPost2010PropOp57
 70
     1
102
RTVSPropertyOp0
 70
     1
102
RTVSPropertyOp1
 70
     1
102
RTVSPropertyOp2
 70
     1
102
RTVSPropertyOp3
 70
     1
102
RTVSPropertyOp4
 70
     1
102
RTVSPropertyOp5
 70
     1
102
RTVSPropertyOp6
 70
     1
102
RTVSPropertyOp7
 70
     1
102
RTVSPropertyOp8
 70
     1
102
RTVSPropertyOp9
 70
     1
102
RTVSPropertyOp10
 70
     1
102
RTVSPropertyOp11
 70
     1
102
RTVSPropertyOp12
 70
     1
102
RTVSPropertyOp13
 70
     1
102
RTVSPropertyOp14
 70
     1
102
RTVSPropertyOp15
 70
     1
102
RTVSPropertyOp16
 70
     1
102
RTVSPropertyOp17
 70
     1
102
RTVSPropertyOp18
 70
     1
102
RTVSPropertyOp19
 70
     1
102
RTVSPropertyOp20
 70
     1
102
RTVSPropertyOp21
 70
     1
102
RTVSPropertyOp22
 70
     1
102
RTVSPropertyOp23
 70
     1
102
RTVSPropertyOp24
 70
     1
102
RTVSPropertyOp25
 70
     1
102
RTVSPropertyOp26
 70
     1
102
RTVSPropertyOp27
 70
     1
102
RTVSPropertyOp28
 70
     1
102
RTVSPropertyOp29
 70
     1
102
RTVSPropertyOp30
 70
     1
102
RTVSPropertyOp31
 70
     1
102
RTVSPropertyOp32
 70
     1
102
RTVSPropertyOp33
 70
     1
102
RTVSPropertyOp34
 70
     1
102
RTVSPropertyOp35
 70
     1
102
RTVSPropertyOp36
 70
     1
102
RTVSPropertyOp37
 70
     1
102
RTVSPropertyOp38
 70
     1
102
RTVSPropertyOp39
 70
     1
102
RTVSPropertyOp40
 70
     1
102
RTVSPropertyOp41
 70
     1
102
RTVSPropertyOp42
 70
     1
102
RTVSPropertyOp43
 70
     1
102
RTVSPropertyOp44
 70
     1
102
RTVSPropertyOp45
 70
     1
102
RTVSPropertyOp46
 70
     1
102
RTVSPropertyOp47
 70
     1
102
RTVSPropertyOp48
 70
     1
102
RTVSPropertyOp49
 70
     1
102
RTVSPropertyOp50
 70
     1
102
RTVSPropertyOp51
 70
     0
102
RTVSPropertyOp52
 70
     0
102
RTVSPropertyOp53
 70
     1
102
RTVSPropertyOp54
 70
     1
102
RTVSPropertyOp55
 70
     1
102
RTVSPropertyOp56
 70
     1
102
RTVSPropertyOp57
 70
     1
102
RTVSPropertyOp58
 70
     1
102
RTVSPropertyOp59
 70
     1
102
RTVSPropertyOp60
 70
     1
102
RTVSPropertyOp61
 70
     1
102
RTVSPropertyOp62
 70
     1
  0
XRECORD
  5
11176
102
{ACAD_REACTORS
330
11175
102
}
330
11175
100
AcDbXrecord
280
     1
102
RTVSPost2010Prop28
280
     0
102
RTVSPost2010PropOp28
 70
     1
102
RTVSPost2010Prop29
280
     1
102
RTVSPost2010PropOp29
 70
     1
102
RTVSPost2010Prop30
280
     1
102
RTVSPost2010PropOp30
 70
     1
102
RTVSPost2010Prop31
280
     0
102
RTVSPost2010PropOp31
 70
     1
102
RTVSPost2010Prop32
280
     0
102
RTVSPost2010PropOp32
 70
     1
102
RTVSPost2010Prop33
280
     0
102
RTVSPost2010PropOp33
 70
     1
102
RTVSPost2010Prop34
280
     0
102
RTVSPost2010PropOp34
 70
     1
102
RTVSPost2010Prop35
280
     0
102
RTVSPost2010PropOp35
 70
     1
102
RTVSPost2010Prop36
280
     0
102
RTVSPost2010PropOp36
 70
     1
102
RTVSPost2010Prop37
 90
       50
102
RTVSPost2010PropOp37
 70
     1
102
RTVSPost2010Prop38
140
0.0
102
RTVSPost2010PropOp38
 70
     1
102
RTVSPost2010Prop39
140
1.0
102
RTVSPost2010PropOp39
 70
     1
102
RTVSPost2010Prop40
 90
        0
102
RTVSPost2010PropOp40
 70
     1
102
RTVSPost2010Prop41ColorIndex
 90
       18
102
RTVSPost2010Prop41ColorRGB
 90
        0
102
RTVSPost2010PropOp41
 70
     1
102
RTVSPost2010Prop42
 90
       50
102
RTVSPost2010PropOp42
 70
     1
102
RTVSPost2010Prop43
 90
        3
102
RTVSPost2010PropOp43
 70
     1
102
RTVSPost2010Prop44ColorIndex
 90
        5
102
RTVSPost2010Prop44ColorRGB
 90
      255
102
RTVSPost2010PropOp44
 70
     1
102
RTVSPost2010Prop45
280
     0
102
RTVSPost2010PropOp45
 70
     1
102
RTVSPost2010Prop46
 90
       50
102
RTVSPost2010PropOp46
 70
     1
102
RTVSPost2010Prop47
 90
       50
102
RTVSPost2010PropOp47
 70
     1
102
RTVSPost2010Prop48
 90
       50
102
RTVSPost2010PropOp48
 70
     1
102
RTVSPost2010Prop49
280
     0
102
RTVSPost2010PropOp49
 70
     1
102
RTVSPost2010Prop50
 90
       50
102
RTVSPost2010PropOp50
 70
     1
102
RTVSPost2010Prop51ColorIndex
 90
      256
102
RTVSPost2010Prop51ColorRGB
 90
-16777216
102
RTVSPost2010PropOp51
 70
     0
102
RTVSPost2010Prop52
140
1.0
102
RTVSPost2010PropOp52
 70
     0
102
RTVSPost2010Prop53
 90
        2
102
RTVSPost2010PropOp53
 70
     1
102
RTVSPost2010Prop54
  1
strokes_ogs.tif
102
RTVSPost2010PropOp54
 70
     1
102
RTVSPost2010Prop55
280
     0
102
RTVSPost2010PropOp55
 70
     1
102
RTVSPost2010Prop56
140
1.0
102
RTVSPost2010PropOp56
 70
     1
102
RTVSPost2010Prop57
140
1.0
102
RTVSPost2010PropOp57
 70
     1
102
RTVSPropertyOp0
 70
     1
102
RTVSPropertyOp1
 70
     1
102
RTVSPropertyOp2
 70
     1
102
RTVSPropertyOp3
 70
     1
102
RTVSPropertyOp4
 70
     1
102
RTVSPropertyOp5
 70
     1
102
RTVSPropertyOp6
 70
     1
102
RTVSPropertyOp7
 70
     1
102
RTVSPropertyOp8
 70
     1
102
RTVSPropertyOp9
 70
     1
102
RTVSPropertyOp10
 70
     1
102
RTVSPropertyOp11
 70
     1
102
RTVSPropertyOp12
 70
     1
102
RTVSPropertyOp13
 70
     1
102
RTVSPropertyOp14
 70
     1
102
RTVSPropertyOp15
 70
     1
102
RTVSPropertyOp16
 70
     1
102
RTVSPropertyOp17
 70
     1
102
RTVSPropertyOp18
 70
     1
102
RTVSPropertyOp19
 70
     1
102
RTVSPropertyOp20
 70
     1
102
RTVSPropertyOp21
 70
     1
102
RTVSPropertyOp22
 70
     1
102
RTVSPropertyOp23
 70
     1
102
RTVSPropertyOp24
 70
     1
102
RTVSPropertyOp25
 70
     1
102
RTVSPropertyOp26
 70
     1
102
RTVSPropertyOp27
 70
     1
102
RTVSPropertyOp28
 70
     1
102
RTVSPropertyOp29
 70
     1
102
RTVSPropertyOp30
 70
     1
102
RTVSPropertyOp31
 70
     1
102
RTVSPropertyOp32
 70
     1
102
RTVSPropertyOp33
 70
     1
102
RTVSPropertyOp34
 70
     1
102
RTVSPropertyOp35
 70
     1
102
RTVSPropertyOp36
 70
     1
102
RTVSPropertyOp37
 70
     1
102
RTVSPropertyOp38
 70
     1
102
RTVSPropertyOp39
 70
     1
102
RTVSPropertyOp40
 70
     1
102
RTVSPropertyOp41
 70
     1
102
RTVSPropertyOp42
 70
     1
102
RTVSPropertyOp43
 70
     1
102
RTVSPropertyOp44
 70
     1
102
RTVSPropertyOp45
 70
     1
102
RTVSPropertyOp46
 70
     1
102
RTVSPropertyOp47
 70
     1
102
RTVSPropertyOp48
 70
     1
102
RTVSPropertyOp49
 70
     1
102
RTVSPropertyOp50
 70
     1
102
RTVSPropertyOp51
 70
     0
102
RTVSPropertyOp52
 70
     0
102
RTVSPropertyOp53
 70
     1
102
RTVSPropertyOp54
 70
     1
102
RTVSPropertyOp55
 70
     1
102
RTVSPropertyOp56
 70
     1
102
RTVSPropertyOp57
 70
     1
102
RTVSPropertyOp58
 70
     1
102
RTVSPropertyOp59
 70
     1
102
RTVSPropertyOp60
 70
     1
102
RTVSPropertyOp61
 70
     1
102
RTVSPropertyOp62
 70
     1
  0
XRECORD
  5
1117A
102
{ACAD_REACTORS
330
11179
102
}
330
11179
100
AcDbXrecord
280
     1
102
RTVSPost2010Prop28
280
     0
102
RTVSPost2010PropOp28
 70
     1
102
RTVSPost2010Prop29
280
     1
102
RTVSPost2010PropOp29
 70
     1
102
RTVSPost2010Prop30
280
     1
102
RTVSPost2010PropOp30
 70
     1
102
RTVSPost2010Prop31
280
     0
102
RTVSPost2010PropOp31
 70
     1
102
RTVSPost2010Prop32
280
     0
102
RTVSPost2010PropOp32
 70
     1
102
RTVSPost2010Prop33
280
     0
102
RTVSPost2010PropOp33
 70
     1
102
RTVSPost2010Prop34
280
     0
102
RTVSPost2010PropOp34
 70
     1
102
RTVSPost2010Prop35
280
     0
102
RTVSPost2010PropOp35
 70
     1
102
RTVSPost2010Prop36
280
     0
102
RTVSPost2010PropOp36
 70
     1
102
RTVSPost2010Prop37
 90
       50
102
RTVSPost2010PropOp37
 70
     1
102
RTVSPost2010Prop38
140
0.0
102
RTVSPost2010PropOp38
 70
     1
102
RTVSPost2010Prop39
140
1.0
102
RTVSPost2010PropOp39
 70
     1
102
RTVSPost2010Prop40
 90
        0
102
RTVSPost2010PropOp40
 70
     1
102
RTVSPost2010Prop41ColorIndex
 90
       18
102
RTVSPost2010Prop41ColorRGB
 90
        0
102
RTVSPost2010PropOp41
 70
     1
102
RTVSPost2010Prop42
 90
       50
102
RTVSPost2010PropOp42
 70
     1
102
RTVSPost2010Prop43
 90
        3
102
RTVSPost2010PropOp43
 70
     1
102
RTVSPost2010Prop44ColorIndex
 90
        5
102
RTVSPost2010Prop44ColorRGB
 90
      255
102
RTVSPost2010PropOp44
 70
     1
102
RTVSPost2010Prop45
280
     0
102
RTVSPost2010PropOp45
 70
     1
102
RTVSPost2010Prop46
 90
       50
102
RTVSPost2010PropOp46
 70
     1
102
RTVSPost2010Prop47
 90
       50
102
RTVSPost2010PropOp47
 70
     1
102
RTVSPost2010Prop48
 90
       50
102
RTVSPost2010PropOp48
 70
     1
102
RTVSPost2010Prop49
280
     0
102
RTVSPost2010PropOp49
 70
     1
102
RTVSPost2010Prop50
 90
       50
102
RTVSPost2010PropOp50
 70
     1
102
RTVSPost2010Prop51ColorIndex
 90
      256
102
RTVSPost2010Prop51ColorRGB
 90
-16777216
102
RTVSPost2010PropOp51
 70
     0
102
RTVSPost2010Prop52
140
1.0
102
RTVSPost2010PropOp52
 70
     0
102
RTVSPost2010Prop53
 90
        2
102
RTVSPost2010PropOp53
 70
     1
102
RTVSPost2010Prop54
  1
strokes_ogs.tif
102
RTVSPost2010PropOp54
 70
     1
102
RTVSPost2010Prop55
280
     0
102
RTVSPost2010PropOp55
 70
     1
102
RTVSPost2010Prop56
140
1.0
102
RTVSPost2010PropOp56
 70
     1
102
RTVSPost2010Prop57
140
1.0
102
RTVSPost2010PropOp57
 70
     1
102
RTVSPropertyOp0
 70
     1
102
RTVSPropertyOp1
 70
     1
102
RTVSPropertyOp2
 70
     1
102
RTVSPropertyOp3
 70
     1
102
RTVSPropertyOp4
 70
     1
102
RTVSPropertyOp5
 70
     1
102
RTVSPropertyOp6
 70
     1
102
RTVSPropertyOp7
 70
     1
102
RTVSPropertyOp8
 70
     1
102
RTVSPropertyOp9
 70
     1
102
RTVSPropertyOp10
 70
     1
102
RTVSPropertyOp11
 70
     1
102
RTVSPropertyOp12
 70
     1
102
RTVSPropertyOp13
 70
     1
102
RTVSPropertyOp14
 70
     1
102
RTVSPropertyOp15
 70
     1
102
RTVSPropertyOp16
 70
     1
102
RTVSPropertyOp17
 70
     1
102
RTVSPropertyOp18
 70
     1
102
RTVSPropertyOp19
 70
     1
102
RTVSPropertyOp20
 70
     1
102
RTVSPropertyOp21
 70
     1
102
RTVSPropertyOp22
 70
     1
102
RTVSPropertyOp23
 70
     1
102
RTVSPropertyOp24
 70
     1
102
RTVSPropertyOp25
 70
     1
102
RTVSPropertyOp26
 70
     1
102
RTVSPropertyOp27
 70
     1
102
RTVSPropertyOp28
 70
     1
102
RTVSPropertyOp29
 70
     1
102
RTVSPropertyOp30
 70
     1
102
RTVSPropertyOp31
 70
     1
102
RTVSPropertyOp32
 70
     1
102
RTVSPropertyOp33
 70
     1
102
RTVSPropertyOp34
 70
     1
102
RTVSPropertyOp35
 70
     1
102
RTVSPropertyOp36
 70
     1
102
RTVSPropertyOp37
 70
     1
102
RTVSPropertyOp38
 70
     1
102
RTVSPropertyOp39
 70
     1
102
RTVSPropertyOp40
 70
     1
102
RTVSPropertyOp41
 70
     1
102
RTVSPropertyOp42
 70
     1
102
RTVSPropertyOp43
 70
     1
102
RTVSPropertyOp44
 70
     1
102
RTVSPropertyOp45
 70
     1
102
RTVSPropertyOp46
 70
     1
102
RTVSPropertyOp47
 70
     1
102
RTVSPropertyOp48
 70
     1
102
RTVSPropertyOp49
 70
     1
102
RTVSPropertyOp50
 70
     1
102
RTVSPropertyOp51
 70
     0
102
RTVSPropertyOp52
 70
     0
102
RTVSPropertyOp53
 70
     1
102
RTVSPropertyOp54
 70
     1
102
RTVSPropertyOp55
 70
     1
102
RTVSPropertyOp56
 70
     1
102
RTVSPropertyOp57
 70
     1
102
RTVSPropertyOp58
 70
     1
102
RTVSPropertyOp59
 70
     1
102
RTVSPropertyOp60
 70
     1
102
RTVSPropertyOp61
 70
     1
102
RTVSPropertyOp62
 70
     1
  0
XRECORD
  5
11194
102
{ACAD_REACTORS
330
11193
102
}
330
11193
100
AcDbXrecord
280
     1
102
RTVSPost2010Prop28
280
     0
102
RTVSPost2010PropOp28
 70
     1
102
RTVSPost2010Prop29
280
     1
102
RTVSPost2010PropOp29
 70
     1
102
RTVSPost2010Prop30
280
     1
102
RTVSPost2010PropOp30
 70
     1
102
RTVSPost2010Prop31
280
     0
102
RTVSPost2010PropOp31
 70
     1
102
RTVSPost2010Prop32
280
     0
102
RTVSPost2010PropOp32
 70
     1
102
RTVSPost2010Prop33
280
     0
102
RTVSPost2010PropOp33
 70
     1
102
RTVSPost2010Prop34
280
     0
102
RTVSPost2010PropOp34
 70
     1
102
RTVSPost2010Prop35
280
     0
102
RTVSPost2010PropOp35
 70
     1
102
RTVSPost2010Prop36
280
     0
102
RTVSPost2010PropOp36
 70
     1
102
RTVSPost2010Prop37
 90
       50
102
RTVSPost2010PropOp37
 70
     0
102
RTVSPost2010Prop38
140
0.0
102
RTVSPost2010PropOp38
 70
     0
102
RTVSPost2010Prop39
140
1.0
102
RTVSPost2010PropOp39
 70
     0
102
RTVSPost2010Prop40
 90
        0
102
RTVSPost2010PropOp40
 70
     0
102
RTVSPost2010Prop41ColorIndex
 90
       18
102
RTVSPost2010Prop41ColorRGB
 90
        0
102
RTVSPost2010PropOp41
 70
     0
102
RTVSPost2010Prop42
 90
       50
102
RTVSPost2010PropOp42
 70
     0
102
RTVSPost2010Prop43
 90
        3
102
RTVSPost2010PropOp43
 70
     0
102
RTVSPost2010Prop44ColorIndex
 90
        5
102
RTVSPost2010Prop44ColorRGB
 90
      255
102
RTVSPost2010PropOp44
 70
     0
102
RTVSPost2010Prop45
280
     0
102
RTVSPost2010PropOp45
 70
     1
102
RTVSPost2010Prop46
 90
       50
102
RTVSPost2010PropOp46
 70
     0
102
RTVSPost2010Prop47
 90
       50
102
RTVSPost2010PropOp47
 70
     0
102
RTVSPost2010Prop48
 90
       50
102
RTVSPost2010PropOp48
 70
     0
102
RTVSPost2010Prop49
280
     0
102
RTVSPost2010PropOp49
 70
     1
102
RTVSPost2010Prop50
 90
       50
102
RTVSPost2010PropOp50
 70
     0
102
RTVSPost2010Prop51ColorIndex
 90
      256
102
RTVSPost2010Prop51ColorRGB
 90
-16777216
102
RTVSPost2010PropOp51
 70
     0
102
RTVSPost2010Prop52
140
1.0
102
RTVSPost2010PropOp52
 70
     0
102
RTVSPost2010Prop53
 90
        2
102
RTVSPost2010PropOp53
 70
     0
102
RTVSPost2010Prop54
  1
strokes_ogs.tif
102
RTVSPost2010PropOp54
 70
     0
102
RTVSPost2010Prop55
280
     0
102
RTVSPost2010PropOp55
 70
     1
102
RTVSPost2010Prop56
140
1.0
102
RTVSPost2010PropOp56
 70
     0
102
RTVSPost2010Prop57
140
1.0
102
RTVSPost2010PropOp57
 70
     0
102
RTVSPropertyOp0
 70
     0
102
RTVSPropertyOp1
 70
     0
102
RTVSPropertyOp2
 70
     0
102
RTVSPropertyOp3
 70
     0
102
RTVSPropertyOp4
 70
     0
102
RTVSPropertyOp5
 70
     0
102
RTVSPropertyOp6
 70
     0
102
RTVSPropertyOp7
 70
     0
102
RTVSPropertyOp8
 70
     0
102
RTVSPropertyOp9
 70
     0
102
RTVSPropertyOp10
 70
     0
102
RTVSPropertyOp11
 70
     0
102
RTVSPropertyOp12
 70
     0
102
RTVSPropertyOp13
 70
     0
102
RTVSPropertyOp14
 70
     2
102
RTVSPropertyOp15
 70
     0
102
RTVSPropertyOp16
 70
     0
102
RTVSPropertyOp17
 70
     0
102
RTVSPropertyOp18
 70
     0
102
RTVSPropertyOp19
 70
     0
102
RTVSPropertyOp20
 70
     0
102
RTVSPropertyOp21
 70
     0
102
RTVSPropertyOp22
 70
     0
102
RTVSPropertyOp23
 70
     0
102
RTVSPropertyOp24
 70
     0
102
RTVSPropertyOp25
 70
     0
102
RTVSPropertyOp26
 70
     0
102
RTVSPropertyOp27
 70
     0
102
RTVSPropertyOp28
 70
     1
102
RTVSPropertyOp29
 70
     1
102
RTVSPropertyOp30
 70
     1
102
RTVSPropertyOp31
 70
     1
102
RTVSPropertyOp32
 70
     1
102
RTVSPropertyOp33
 70
     1
102
RTVSPropertyOp34
 70
     1
102
RTVSPropertyOp35
 70
     1
102
RTVSPropertyOp36
 70
     1
102
RTVSPropertyOp37
 70
     0
102
RTVSPropertyOp38
 70
     0
102
RTVSPropertyOp39
 70
     0
102
RTVSPropertyOp40
 70
     0
102
RTVSPropertyOp41
 70
     0
102
RTVSPropertyOp42
 70
     0
102
RTVSPropertyOp43
 70
     0
102
RTVSPropertyOp44
 70
     0
102
RTVSPropertyOp45
 70
     1
102
RTVSPropertyOp46
 70
     0
102
RTVSPropertyOp47
 70
     0
102
RTVSPropertyOp48
 70
     0
102
RTVSPropertyOp49
 70
     1
102
RTVSPropertyOp50
 70
     0
102
RTVSPropertyOp51
 70
     0
102
RTVSPropertyOp52
 70
     0
102
RTVSPropertyOp53
 70
     0
102
RTVSPropertyOp54
 70
     0
102
RTVSPropertyOp55
 70
     1
102
RTVSPropertyOp56
 70
     0
102
RTVSPropertyOp57
 70
     0
102
RTVSPropertyOp58
 70
     0
102
RTVSPropertyOp59
 70
     0
102
RTVSPropertyOp60
 70
     0
102
RTVSPropertyOp61
 70
     0
102
RTVSPropertyOp62
 70
     0
  0
XRECORD
  5
11182
102
{ACAD_REACTORS
330
11181
102
}
330
11181
100
AcDbXrecord
280
     1
102
RTVSPost2010Prop28
280
     0
102
RTVSPost2010PropOp28
 70
     1
102
RTVSPost2010Prop29
280
     1
102
RTVSPost2010PropOp29
 70
     1
102
RTVSPost2010Prop30
280
     1
102
RTVSPost2010PropOp30
 70
     1
102
RTVSPost2010Prop31
280
     0
102
RTVSPost2010PropOp31
 70
     1
102
RTVSPost2010Prop32
280
     0
102
RTVSPost2010PropOp32
 70
     1
102
RTVSPost2010Prop33
280
     0
102
RTVSPost2010PropOp33
 70
     1
102
RTVSPost2010Prop34
280
     0
102
RTVSPost2010PropOp34
 70
     1
102
RTVSPost2010Prop35
280
     0
102
RTVSPost2010PropOp35
 70
     1
102
RTVSPost2010Prop36
280
     0
102
RTVSPost2010PropOp36
 70
     1
102
RTVSPost2010Prop37
 90
       50
102
RTVSPost2010PropOp37
 70
     1
102
RTVSPost2010Prop38
140
0.0
102
RTVSPost2010PropOp38
 70
     1
102
RTVSPost2010Prop39
140
1.0
102
RTVSPost2010PropOp39
 70
     1
102
RTVSPost2010Prop40
 90
        0
102
RTVSPost2010PropOp40
 70
     1
102
RTVSPost2010Prop41ColorIndex
 90
       18
102
RTVSPost2010Prop41ColorRGB
 90
        0
102
RTVSPost2010PropOp41
 70
     1
102
RTVSPost2010Prop42
 90
       50
102
RTVSPost2010PropOp42
 70
     1
102
RTVSPost2010Prop43
 90
        3
102
RTVSPost2010PropOp43
 70
     1
102
RTVSPost2010Prop44ColorIndex
 90
        5
102
RTVSPost2010Prop44ColorRGB
 90
      255
102
RTVSPost2010PropOp44
 70
     1
102
RTVSPost2010Prop45
280
     0
102
RTVSPost2010PropOp45
 70
     1
102
RTVSPost2010Prop46
 90
       50
102
RTVSPost2010PropOp46
 70
     1
102
RTVSPost2010Prop47
 90
       50
102
RTVSPost2010PropOp47
 70
     1
102
RTVSPost2010Prop48
 90
       50
102
RTVSPost2010PropOp48
 70
     1
102
RTVSPost2010Prop49
280
     0
102
RTVSPost2010PropOp49
 70
     1
102
RTVSPost2010Prop50
 90
       50
102
RTVSPost2010PropOp50
 70
     1
102
RTVSPost2010Prop51ColorIndex
 90
      256
102
RTVSPost2010Prop51ColorRGB
 90
-16777216
102
RTVSPost2010PropOp51
 70
     0
102
RTVSPost2010Prop52
140
1.0
102
RTVSPost2010PropOp52
 70
     0
102
RTVSPost2010Prop53
 90
        2
102
RTVSPost2010PropOp53
 70
     1
102
RTVSPost2010Prop54
  1
strokes_ogs.tif
102
RTVSPost2010PropOp54
 70
     1
102
RTVSPost2010Prop55
280
     0
102
RTVSPost2010PropOp55
 70
     1
102
RTVSPost2010Prop56
140
1.0
102
RTVSPost2010PropOp56
 70
     1
102
RTVSPost2010Prop57
140
1.0
102
RTVSPost2010PropOp57
 70
     1
102
RTVSPropertyOp0
 70
     1
102
RTVSPropertyOp1
 70
     1
102
RTVSPropertyOp2
 70
     1
102
RTVSPropertyOp3
 70
     1
102
RTVSPropertyOp4
 70
     1
102
RTVSPropertyOp5
 70
     1
102
RTVSPropertyOp6
 70
     1
102
RTVSPropertyOp7
 70
     1
102
RTVSPropertyOp8
 70
     1
102
RTVSPropertyOp9
 70
     1
102
RTVSPropertyOp10
 70
     1
102
RTVSPropertyOp11
 70
     1
102
RTVSPropertyOp12
 70
     1
102
RTVSPropertyOp13
 70
     1
102
RTVSPropertyOp14
 70
     1
102
RTVSPropertyOp15
 70
     1
102
RTVSPropertyOp16
 70
     1
102
RTVSPropertyOp17
 70
     1
102
RTVSPropertyOp18
 70
     1
102
RTVSPropertyOp19
 70
     1
102
RTVSPropertyOp20
 70
     1
102
RTVSPropertyOp21
 70
     1
102
RTVSPropertyOp22
 70
     1
102
RTVSPropertyOp23
 70
     1
102
RTVSPropertyOp24
 70
     1
102
RTVSPropertyOp25
 70
     1
102
RTVSPropertyOp26
 70
     1
102
RTVSPropertyOp27
 70
     1
102
RTVSPropertyOp28
 70
     1
102
RTVSPropertyOp29
 70
     1
102
RTVSPropertyOp30
 70
     1
102
RTVSPropertyOp31
 70
     1
102
RTVSPropertyOp32
 70
     1
102
RTVSPropertyOp33
 70
     1
102
RTVSPropertyOp34
 70
     1
102
RTVSPropertyOp35
 70
     1
102
RTVSPropertyOp36
 70
     1
102
RTVSPropertyOp37
 70
     1
102
RTVSPropertyOp38
 70
     1
102
RTVSPropertyOp39
 70
     1
102
RTVSPropertyOp40
 70
     1
102
RTVSPropertyOp41
 70
     1
102
RTVSPropertyOp42
 70
     1
102
RTVSPropertyOp43
 70
     1
102
RTVSPropertyOp44
 70
     1
102
RTVSPropertyOp45
 70
     1
102
RTVSPropertyOp46
 70
     1
102
RTVSPropertyOp47
 70
     1
102
RTVSPropertyOp48
 70
     1
102
RTVSPropertyOp49
 70
     1
102
RTVSPropertyOp50
 70
     1
102
RTVSPropertyOp51
 70
     0
102
RTVSPropertyOp52
 70
     0
102
RTVSPropertyOp53
 70
     1
102
RTVSPropertyOp54
 70
     1
102
RTVSPropertyOp55
 70
     1
102
RTVSPropertyOp56
 70
     1
102
RTVSPropertyOp57
 70
     1
102
RTVSPropertyOp58
 70
     1
102
RTVSPropertyOp59
 70
     1
102
RTVSPropertyOp60
 70
     1
102
RTVSPropertyOp61
 70
     1
102
RTVSPropertyOp62
 70
     1
  0
XRECORD
  5
11166
102
{ACAD_REACTORS
330
11165
102
}
330
11165
100
AcDbXrecord
280
     1
102
RTVSPost2010Prop28
280
     0
102
RTVSPost2010PropOp28
 70
     1
102
RTVSPost2010Prop29
280
     1
102
RTVSPost2010PropOp29
 70
     1
102
RTVSPost2010Prop30
280
     1
102
RTVSPost2010PropOp30
 70
     1
102
RTVSPost2010Prop31
280
     0
102
RTVSPost2010PropOp31
 70
     1
102
RTVSPost2010Prop32
280
     0
102
RTVSPost2010PropOp32
 70
     1
102
RTVSPost2010Prop33
280
     0
102
RTVSPost2010PropOp33
 70
     1
102
RTVSPost2010Prop34
280
     0
102
RTVSPost2010PropOp34
 70
     1
102
RTVSPost2010Prop35
280
     0
102
RTVSPost2010PropOp35
 70
     1
102
RTVSPost2010Prop36
280
     0
102
RTVSPost2010PropOp36
 70
     1
102
RTVSPost2010Prop37
 90
       50
102
RTVSPost2010PropOp37
 70
     1
102
RTVSPost2010Prop38
140
0.0
102
RTVSPost2010PropOp38
 70
     1
102
RTVSPost2010Prop39
140
1.0
102
RTVSPost2010PropOp39
 70
     1
102
RTVSPost2010Prop40
 90
        0
102
RTVSPost2010PropOp40
 70
     1
102
RTVSPost2010Prop41ColorIndex
 90
       18
102
RTVSPost2010Prop41ColorRGB
 90
        0
102
RTVSPost2010PropOp41
 70
     1
102
RTVSPost2010Prop42
 90
       50
102
RTVSPost2010PropOp42
 70
     1
102
RTVSPost2010Prop43
 90
        3
102
RTVSPost2010PropOp43
 70
     1
102
RTVSPost2010Prop44ColorIndex
 90
        5
102
RTVSPost2010Prop44ColorRGB
 90
      255
102
RTVSPost2010PropOp44
 70
     1
102
RTVSPost2010Prop45
280
     0
102
RTVSPost2010PropOp45
 70
     1
102
RTVSPost2010Prop46
 90
       50
102
RTVSPost2010PropOp46
 70
     1
102
RTVSPost2010Prop47
 90
       50
102
RTVSPost2010PropOp47
 70
     1
102
RTVSPost2010Prop48
 90
       50
102
RTVSPost2010PropOp48
 70
     1
102
RTVSPost2010Prop49
280
     0
102
RTVSPost2010PropOp49
 70
     1
102
RTVSPost2010Prop50
 90
       50
102
RTVSPost2010PropOp50
 70
     1
102
RTVSPost2010Prop51ColorIndex
 90
      256
102
RTVSPost2010Prop51ColorRGB
 90
-16777216
102
RTVSPost2010PropOp51
 70
     0
102
RTVSPost2010Prop52
140
1.0
102
RTVSPost2010PropOp52
 70
     0
102
RTVSPost2010Prop53
 90
        2
102
RTVSPost2010PropOp53
 70
     1
102
RTVSPost2010Prop54
  1
strokes_ogs.tif
102
RTVSPost2010PropOp54
 70
     1
102
RTVSPost2010Prop55
280
     0
102
RTVSPost2010PropOp55
 70
     1
102
RTVSPost2010Prop56
140
1.0
102
RTVSPost2010PropOp56
 70
     1
102
RTVSPost2010Prop57
140
1.0
102
RTVSPost2010PropOp57
 70
     1
102
RTVSPropertyOp0
 70
     1
102
RTVSPropertyOp1
 70
     1
102
RTVSPropertyOp2
 70
     1
102
RTVSPropertyOp3
 70
     1
102
RTVSPropertyOp4
 70
     1
102
RTVSPropertyOp5
 70
     1
102
RTVSPropertyOp6
 70
     1
102
RTVSPropertyOp7
 70
     1
102
RTVSPropertyOp8
 70
     1
102
RTVSPropertyOp9
 70
     1
102
RTVSPropertyOp10
 70
     1
102
RTVSPropertyOp11
 70
     1
102
RTVSPropertyOp12
 70
     1
102
RTVSPropertyOp13
 70
     1
102
RTVSPropertyOp14
 70
     1
102
RTVSPropertyOp15
 70
     1
102
RTVSPropertyOp16
 70
     1
102
RTVSPropertyOp17
 70
     1
102
RTVSPropertyOp18
 70
     1
102
RTVSPropertyOp19
 70
     1
102
RTVSPropertyOp20
 70
     1
102
RTVSPropertyOp21
 70
     1
102
RTVSPropertyOp22
 70
     1
102
RTVSPropertyOp23
 70
     1
102
RTVSPropertyOp24
 70
     1
102
RTVSPropertyOp25
 70
     1
102
RTVSPropertyOp26
 70
     1
102
RTVSPropertyOp27
 70
     1
102
RTVSPropertyOp28
 70
     1
102
RTVSPropertyOp29
 70
     1
102
RTVSPropertyOp30
 70
     1
102
RTVSPropertyOp31
 70
     1
102
RTVSPropertyOp32
 70
     1
102
RTVSPropertyOp33
 70
     1
102
RTVSPropertyOp34
 70
     1
102
RTVSPropertyOp35
 70
     1
102
RTVSPropertyOp36
 70
     1
102
RTVSPropertyOp37
 70
     1
102
RTVSPropertyOp38
 70
     1
102
RTVSPropertyOp39
 70
     1
102
RTVSPropertyOp40
 70
     1
102
RTVSPropertyOp41
 70
     1
102
RTVSPropertyOp42
 70
     1
102
RTVSPropertyOp43
 70
     1
102
RTVSPropertyOp44
 70
     1
102
RTVSPropertyOp45
 70
     1
102
RTVSPropertyOp46
 70
     1
102
RTVSPropertyOp47
 70
     1
102
RTVSPropertyOp48
 70
     1
102
RTVSPropertyOp49
 70
     1
102
RTVSPropertyOp50
 70
     1
102
RTVSPropertyOp51
 70
     0
102
RTVSPropertyOp52
 70
     0
102
RTVSPropertyOp53
 70
     1
102
RTVSPropertyOp54
 70
     1
102
RTVSPropertyOp55
 70
     1
102
RTVSPropertyOp56
 70
     1
102
RTVSPropertyOp57
 70
     1
102
RTVSPropertyOp58
 70
     1
102
RTVSPropertyOp59
 70
     1
102
RTVSPropertyOp60
 70
     1
102
RTVSPropertyOp61
 70
     1
102
RTVSPropertyOp62
 70
     1
  0
XRECORD
  5
11168
102
{ACAD_REACTORS
330
11167
102
}
330
11167
100
AcDbXrecord
280
     1
102
RTVSPost2010Prop28
280
     0
102
RTVSPost2010PropOp28
 70
     1
102
RTVSPost2010Prop29
280
     1
102
RTVSPost2010PropOp29
 70
     1
102
RTVSPost2010Prop30
280
     1
102
RTVSPost2010PropOp30
 70
     1
102
RTVSPost2010Prop31
280
     0
102
RTVSPost2010PropOp31
 70
     1
102
RTVSPost2010Prop32
280
     0
102
RTVSPost2010PropOp32
 70
     1
102
RTVSPost2010Prop33
280
     0
102
RTVSPost2010PropOp33
 70
     1
102
RTVSPost2010Prop34
280
     0
102
RTVSPost2010PropOp34
 70
     1
102
RTVSPost2010Prop35
280
     0
102
RTVSPost2010PropOp35
 70
     1
102
RTVSPost2010Prop36
280
     0
102
RTVSPost2010PropOp36
 70
     1
102
RTVSPost2010Prop37
 90
       50
102
RTVSPost2010PropOp37
 70
     1
102
RTVSPost2010Prop38
140
0.0
102
RTVSPost2010PropOp38
 70
     1
102
RTVSPost2010Prop39
140
1.0
102
RTVSPost2010PropOp39
 70
     1
102
RTVSPost2010Prop40
 90
        0
102
RTVSPost2010PropOp40
 70
     1
102
RTVSPost2010Prop41ColorIndex
 90
       18
102
RTVSPost2010Prop41ColorRGB
 90
        0
102
RTVSPost2010PropOp41
 70
     1
102
RTVSPost2010Prop42
 90
       50
102
RTVSPost2010PropOp42
 70
     1
102
RTVSPost2010Prop43
 90
        3
102
RTVSPost2010PropOp43
 70
     1
102
RTVSPost2010Prop44ColorIndex
 90
        5
102
RTVSPost2010Prop44ColorRGB
 90
      255
102
RTVSPost2010PropOp44
 70
     1
102
RTVSPost2010Prop45
280
     0
102
RTVSPost2010PropOp45
 70
     1
102
RTVSPost2010Prop46
 90
       50
102
RTVSPost2010PropOp46
 70
     1
102
RTVSPost2010Prop47
 90
       50
102
RTVSPost2010PropOp47
 70
     1
102
RTVSPost2010Prop48
 90
       50
102
RTVSPost2010PropOp48
 70
     1
102
RTVSPost2010Prop49
280
     0
102
RTVSPost2010PropOp49
 70
     1
102
RTVSPost2010Prop50
 90
       50
102
RTVSPost2010PropOp50
 70
     1
102
RTVSPost2010Prop51ColorIndex
 90
      256
102
RTVSPost2010Prop51ColorRGB
 90
-16777216
102
RTVSPost2010PropOp51
 70
     0
102
RTVSPost2010Prop52
140
1.0
102
RTVSPost2010PropOp52
 70
     0
102
RTVSPost2010Prop53
 90
        2
102
RTVSPost2010PropOp53
 70
     1
102
RTVSPost2010Prop54
  1
strokes_ogs.tif
102
RTVSPost2010PropOp54
 70
     1
102
RTVSPost2010Prop55
280
     0
102
RTVSPost2010PropOp55
 70
     1
102
RTVSPost2010Prop56
140
1.0
102
RTVSPost2010PropOp56
 70
     1
102
RTVSPost2010Prop57
140
1.0
102
RTVSPost2010PropOp57
 70
     1
102
RTVSPropertyOp0
 70
     1
102
RTVSPropertyOp1
 70
     1
102
RTVSPropertyOp2
 70
     1
102
RTVSPropertyOp3
 70
     1
102
RTVSPropertyOp4
 70
     1
102
RTVSPropertyOp5
 70
     1
102
RTVSPropertyOp6
 70
     1
102
RTVSPropertyOp7
 70
     1
102
RTVSPropertyOp8
 70
     1
102
RTVSPropertyOp9
 70
     1
102
RTVSPropertyOp10
 70
     1
102
RTVSPropertyOp11
 70
     1
102
RTVSPropertyOp12
 70
     1
102
RTVSPropertyOp13
 70
     1
102
RTVSPropertyOp14
 70
     1
102
RTVSPropertyOp15
 70
     1
102
RTVSPropertyOp16
 70
     1
102
RTVSPropertyOp17
 70
     1
102
RTVSPropertyOp18
 70
     1
102
RTVSPropertyOp19
 70
     1
102
RTVSPropertyOp20
 70
     1
102
RTVSPropertyOp21
 70
     1
102
RTVSPropertyOp22
 70
     1
102
RTVSPropertyOp23
 70
     1
102
RTVSPropertyOp24
 70
     1
102
RTVSPropertyOp25
 70
     1
102
RTVSPropertyOp26
 70
     1
102
RTVSPropertyOp27
 70
     1
102
RTVSPropertyOp28
 70
     1
102
RTVSPropertyOp29
 70
     1
102
RTVSPropertyOp30
 70
     1
102
RTVSPropertyOp31
 70
     1
102
RTVSPropertyOp32
 70
     1
102
RTVSPropertyOp33
 70
     1
102
RTVSPropertyOp34
 70
     1
102
RTVSPropertyOp35
 70
     1
102
RTVSPropertyOp36
 70
     1
102
RTVSPropertyOp37
 70
     1
102
RTVSPropertyOp38
 70
     1
102
RTVSPropertyOp39
 70
     1
102
RTVSPropertyOp40
 70
     1
102
RTVSPropertyOp41
 70
     1
102
RTVSPropertyOp42
 70
     1
102
RTVSPropertyOp43
 70
     1
102
RTVSPropertyOp44
 70
     1
102
RTVSPropertyOp45
 70
     1
102
RTVSPropertyOp46
 70
     1
102
RTVSPropertyOp47
 70
     1
102
RTVSPropertyOp48
 70
     1
102
RTVSPropertyOp49
 70
     1
102
RTVSPropertyOp50
 70
     1
102
RTVSPropertyOp51
 70
     0
102
RTVSPropertyOp52
 70
     0
102
RTVSPropertyOp53
 70
     1
102
RTVSPropertyOp54
 70
     1
102
RTVSPropertyOp55
 70
     1
102
RTVSPropertyOp56
 70
     1
102
RTVSPropertyOp57
 70
     1
102
RTVSPropertyOp58
 70
     1
102
RTVSPropertyOp59
 70
     1
102
RTVSPropertyOp60
 70
     1
102
RTVSPropertyOp61
 70
     1
102
RTVSPropertyOp62
 70
     1
  0
XRECORD
  5
1116A
102
{ACAD_REACTORS
330
11169
102
}
330
11169
100
AcDbXrecord
280
     1
102
RTVSPost2010Prop28
280
     0
102
RTVSPost2010PropOp28
 70
     1
102
RTVSPost2010Prop29
280
     1
102
RTVSPost2010PropOp29
 70
     1
102
RTVSPost2010Prop30
280
     1
102
RTVSPost2010PropOp30
 70
     1
102
RTVSPost2010Prop31
280
     0
102
RTVSPost2010PropOp31
 70
     1
102
RTVSPost2010Prop32
280
     0
102
RTVSPost2010PropOp32
 70
     1
102
RTVSPost2010Prop33
280
     0
102
RTVSPost2010PropOp33
 70
     1
102
RTVSPost2010Prop34
280
     0
102
RTVSPost2010PropOp34
 70
     1
102
RTVSPost2010Prop35
280
     0
102
RTVSPost2010PropOp35
 70
     1
102
RTVSPost2010Prop36
280
     0
102
RTVSPost2010PropOp36
 70
     1
102
RTVSPost2010Prop37
 90
       50
102
RTVSPost2010PropOp37
 70
     1
102
RTVSPost2010Prop38
140
0.0
102
RTVSPost2010PropOp38
 70
     1
102
RTVSPost2010Prop39
140
1.0
102
RTVSPost2010PropOp39
 70
     1
102
RTVSPost2010Prop40
 90
        0
102
RTVSPost2010PropOp40
 70
     1
102
RTVSPost2010Prop41ColorIndex
 90
       18
102
RTVSPost2010Prop41ColorRGB
 90
        0
102
RTVSPost2010PropOp41
 70
     1
102
RTVSPost2010Prop42
 90
       50
102
RTVSPost2010PropOp42
 70
     1
102
RTVSPost2010Prop43
 90
        3
102
RTVSPost2010PropOp43
 70
     1
102
RTVSPost2010Prop44ColorIndex
 90
        5
102
RTVSPost2010Prop44ColorRGB
 90
      255
102
RTVSPost2010PropOp44
 70
     1
102
RTVSPost2010Prop45
280
     0
102
RTVSPost2010PropOp45
 70
     1
102
RTVSPost2010Prop46
 90
       50
102
RTVSPost2010PropOp46
 70
     1
102
RTVSPost2010Prop47
 90
       50
102
RTVSPost2010PropOp47
 70
     1
102
RTVSPost2010Prop48
 90
       50
102
RTVSPost2010PropOp48
 70
     1
102
RTVSPost2010Prop49
280
     0
102
RTVSPost2010PropOp49
 70
     1
102
RTVSPost2010Prop50
 90
       50
102
RTVSPost2010PropOp50
 70
     1
102
RTVSPost2010Prop51ColorIndex
 90
      256
102
RTVSPost2010Prop51ColorRGB
 90
-16777216
102
RTVSPost2010PropOp51
 70
     0
102
RTVSPost2010Prop52
140
1.0
102
RTVSPost2010PropOp52
 70
     0
102
RTVSPost2010Prop53
 90
        2
102
RTVSPost2010PropOp53
 70
     1
102
RTVSPost2010Prop54
  1
strokes_ogs.tif
102
RTVSPost2010PropOp54
 70
     1
102
RTVSPost2010Prop55
280
     0
102
RTVSPost2010PropOp55
 70
     1
102
RTVSPost2010Prop56
140
1.0
102
RTVSPost2010PropOp56
 70
     1
102
RTVSPost2010Prop57
140
1.0
102
RTVSPost2010PropOp57
 70
     1
102
RTVSPropertyOp0
 70
     1
102
RTVSPropertyOp1
 70
     1
102
RTVSPropertyOp2
 70
     1
102
RTVSPropertyOp3
 70
     1
102
RTVSPropertyOp4
 70
     1
102
RTVSPropertyOp5
 70
     1
102
RTVSPropertyOp6
 70
     1
102
RTVSPropertyOp7
 70
     1
102
RTVSPropertyOp8
 70
     1
102
RTVSPropertyOp9
 70
     1
102
RTVSPropertyOp10
 70
     1
102
RTVSPropertyOp11
 70
     1
102
RTVSPropertyOp12
 70
     1
102
RTVSPropertyOp13
 70
     1
102
RTVSPropertyOp14
 70
     1
102
RTVSPropertyOp15
 70
     1
102
RTVSPropertyOp16
 70
     1
102
RTVSPropertyOp17
 70
     1
102
RTVSPropertyOp18
 70
     1
102
RTVSPropertyOp19
 70
     1
102
RTVSPropertyOp20
 70
     1
102
RTVSPropertyOp21
 70
     1
102
RTVSPropertyOp22
 70
     1
102
RTVSPropertyOp23
 70
     1
102
RTVSPropertyOp24
 70
     1
102
RTVSPropertyOp25
 70
     1
102
RTVSPropertyOp26
 70
     1
102
RTVSPropertyOp27
 70
     1
102
RTVSPropertyOp28
 70
     1
102
RTVSPropertyOp29
 70
     1
102
RTVSPropertyOp30
 70
     1
102
RTVSPropertyOp31
 70
     1
102
RTVSPropertyOp32
 70
     1
102
RTVSPropertyOp33
 70
     1
102
RTVSPropertyOp34
 70
     1
102
RTVSPropertyOp35
 70
     1
102
RTVSPropertyOp36
 70
     1
102
RTVSPropertyOp37
 70
     1
102
RTVSPropertyOp38
 70
     1
102
RTVSPropertyOp39
 70
     1
102
RTVSPropertyOp40
 70
     1
102
RTVSPropertyOp41
 70
     1
102
RTVSPropertyOp42
 70
     1
102
RTVSPropertyOp43
 70
     1
102
RTVSPropertyOp44
 70
     1
102
RTVSPropertyOp45
 70
     1
102
RTVSPropertyOp46
 70
     1
102
RTVSPropertyOp47
 70
     1
102
RTVSPropertyOp48
 70
     1
102
RTVSPropertyOp49
 70
     1
102
RTVSPropertyOp50
 70
     1
102
RTVSPropertyOp51
 70
     0
102
RTVSPropertyOp52
 70
     0
102
RTVSPropertyOp53
 70
     1
102
RTVSPropertyOp54
 70
     1
102
RTVSPropertyOp55
 70
     1
102
RTVSPropertyOp56
 70
     1
102
RTVSPropertyOp57
 70
     1
102
RTVSPropertyOp58
 70
     1
102
RTVSPropertyOp59
 70
     1
102
RTVSPropertyOp60
 70
     1
102
RTVSPropertyOp61
 70
     1
102
RTVSPropertyOp62
 70
     1
  0
XRECORD
  5
1116C
102
{ACAD_REACTORS
330
1116B
102
}
330
1116B
100
AcDbXrecord
280
     1
102
RTVSPost2010Prop28
280
     0
102
RTVSPost2010PropOp28
 70
     1
102
RTVSPost2010Prop29
280
     1
102
RTVSPost2010PropOp29
 70
     1
102
RTVSPost2010Prop30
280
     1
102
RTVSPost2010PropOp30
 70
     1
102
RTVSPost2010Prop31
280
     0
102
RTVSPost2010PropOp31
 70
     1
102
RTVSPost2010Prop32
280
     0
102
RTVSPost2010PropOp32
 70
     1
102
RTVSPost2010Prop33
280
     0
102
RTVSPost2010PropOp33
 70
     1
102
RTVSPost2010Prop34
280
     0
102
RTVSPost2010PropOp34
 70
     1
102
RTVSPost2010Prop35
280
     0
102
RTVSPost2010PropOp35
 70
     1
102
RTVSPost2010Prop36
280
     0
102
RTVSPost2010PropOp36
 70
     1
102
RTVSPost2010Prop37
 90
       50
102
RTVSPost2010PropOp37
 70
     1
102
RTVSPost2010Prop38
140
0.0
102
RTVSPost2010PropOp38
 70
     1
102
RTVSPost2010Prop39
140
1.0
102
RTVSPost2010PropOp39
 70
     1
102
RTVSPost2010Prop40
 90
        0
102
RTVSPost2010PropOp40
 70
     1
102
RTVSPost2010Prop41ColorIndex
 90
       18
102
RTVSPost2010Prop41ColorRGB
 90
        0
102
RTVSPost2010PropOp41
 70
     1
102
RTVSPost2010Prop42
 90
       50
102
RTVSPost2010PropOp42
 70
     1
102
RTVSPost2010Prop43
 90
        3
102
RTVSPost2010PropOp43
 70
     1
102
RTVSPost2010Prop44ColorIndex
 90
        5
102
RTVSPost2010Prop44ColorRGB
 90
      255
102
RTVSPost2010PropOp44
 70
     1
102
RTVSPost2010Prop45
280
     0
102
RTVSPost2010PropOp45
 70
     1
102
RTVSPost2010Prop46
 90
       50
102
RTVSPost2010PropOp46
 70
     1
102
RTVSPost2010Prop47
 90
       50
102
RTVSPost2010PropOp47
 70
     1
102
RTVSPost2010Prop48
 90
       50
102
RTVSPost2010PropOp48
 70
     1
102
RTVSPost2010Prop49
280
     0
102
RTVSPost2010PropOp49
 70
     1
102
RTVSPost2010Prop50
 90
       50
102
RTVSPost2010PropOp50
 70
     1
102
RTVSPost2010Prop51ColorIndex
 90
      256
102
RTVSPost2010Prop51ColorRGB
 90
-16777216
102
RTVSPost2010PropOp51
 70
     0
102
RTVSPost2010Prop52
140
1.0
102
RTVSPost2010PropOp52
 70
     0
102
RTVSPost2010Prop53
 90
        2
102
RTVSPost2010PropOp53
 70
     1
102
RTVSPost2010Prop54
  1
strokes_ogs.tif
102
RTVSPost2010PropOp54
 70
     1
102
RTVSPost2010Prop55
280
     0
102
RTVSPost2010PropOp55
 70
     1
102
RTVSPost2010Prop56
140
1.0
102
RTVSPost2010PropOp56
 70
     1
102
RTVSPost2010Prop57
140
1.0
102
RTVSPost2010PropOp57
 70
     1
102
RTVSPropertyOp0
 70
     1
102
RTVSPropertyOp1
 70
     1
102
RTVSPropertyOp2
 70
     1
102
RTVSPropertyOp3
 70
     1
102
RTVSPropertyOp4
 70
     1
102
RTVSPropertyOp5
 70
     1
102
RTVSPropertyOp6
 70
     1
102
RTVSPropertyOp7
 70
     1
102
RTVSPropertyOp8
 70
     1
102
RTVSPropertyOp9
 70
     1
102
RTVSPropertyOp10
 70
     1
102
RTVSPropertyOp11
 70
     1
102
RTVSPropertyOp12
 70
     1
102
RTVSPropertyOp13
 70
     1
102
RTVSPropertyOp14
 70
     1
102
RTVSPropertyOp15
 70
     1
102
RTVSPropertyOp16
 70
     1
102
RTVSPropertyOp17
 70
     1
102
RTVSPropertyOp18
 70
     1
102
RTVSPropertyOp19
 70
     1
102
RTVSPropertyOp20
 70
     1
102
RTVSPropertyOp21
 70
     1
102
RTVSPropertyOp22
 70
     1
102
RTVSPropertyOp23
 70
     1
102
RTVSPropertyOp24
 70
     1
102
RTVSPropertyOp25
 70
     1
102
RTVSPropertyOp26
 70
     1
102
RTVSPropertyOp27
 70
     1
102
RTVSPropertyOp28
 70
     1
102
RTVSPropertyOp29
 70
     1
102
RTVSPropertyOp30
 70
     1
102
RTVSPropertyOp31
 70
     1
102
RTVSPropertyOp32
 70
     1
102
RTVSPropertyOp33
 70
     1
102
RTVSPropertyOp34
 70
     1
102
RTVSPropertyOp35
 70
     1
102
RTVSPropertyOp36
 70
     1
102
RTVSPropertyOp37
 70
     1
102
RTVSPropertyOp38
 70
     1
102
RTVSPropertyOp39
 70
     1
102
RTVSPropertyOp40
 70
     1
102
RTVSPropertyOp41
 70
     1
102
RTVSPropertyOp42
 70
     1
102
RTVSPropertyOp43
 70
     1
102
RTVSPropertyOp44
 70
     1
102
RTVSPropertyOp45
 70
     1
102
RTVSPropertyOp46
 70
     1
102
RTVSPropertyOp47
 70
     1
102
RTVSPropertyOp48
 70
     1
102
RTVSPropertyOp49
 70
     1
102
RTVSPropertyOp50
 70
     1
102
RTVSPropertyOp51
 70
     0
102
RTVSPropertyOp52
 70
     0
102
RTVSPropertyOp53
 70
     1
102
RTVSPropertyOp54
 70
     1
102
RTVSPropertyOp55
 70
     1
102
RTVSPropertyOp56
 70
     1
102
RTVSPropertyOp57
 70
     1
102
RTVSPropertyOp58
 70
     1
102
RTVSPropertyOp59
 70
     1
102
RTVSPropertyOp60
 70
     1
102
RTVSPropertyOp61
 70
     1
102
RTVSPropertyOp62
 70
     1
  0
XRECORD
  5
11174
102
{ACAD_REACTORS
330
11173
102
}
330
11173
100
AcDbXrecord
280
     1
102
RTVSPost2010Prop28
280
     0
102
RTVSPost2010PropOp28
 70
     1
102
RTVSPost2010Prop29
280
     1
102
RTVSPost2010PropOp29
 70
     1
102
RTVSPost2010Prop30
280
     1
102
RTVSPost2010PropOp30
 70
     1
102
RTVSPost2010Prop31
280
     0
102
RTVSPost2010PropOp31
 70
     1
102
RTVSPost2010Prop32
280
     0
102
RTVSPost2010PropOp32
 70
     1
102
RTVSPost2010Prop33
280
     0
102
RTVSPost2010PropOp33
 70
     1
102
RTVSPost2010Prop34
280
     0
102
RTVSPost2010PropOp34
 70
     1
102
RTVSPost2010Prop35
280
     0
102
RTVSPost2010PropOp35
 70
     1
102
RTVSPost2010Prop36
280
     0
102
RTVSPost2010PropOp36
 70
     1
102
RTVSPost2010Prop37
 90
       50
102
RTVSPost2010PropOp37
 70
     1
102
RTVSPost2010Prop38
140
0.0
102
RTVSPost2010PropOp38
 70
     1
102
RTVSPost2010Prop39
140
1.0
102
RTVSPost2010PropOp39
 70
     1
102
RTVSPost2010Prop40
 90
        0
102
RTVSPost2010PropOp40
 70
     1
102
RTVSPost2010Prop41ColorIndex
 90
       18
102
RTVSPost2010Prop41ColorRGB
 90
        0
102
RTVSPost2010PropOp41
 70
     1
102
RTVSPost2010Prop42
 90
       50
102
RTVSPost2010PropOp42
 70
     1
102
RTVSPost2010Prop43
 90
        3
102
RTVSPost2010PropOp43
 70
     1
102
RTVSPost2010Prop44ColorIndex
 90
        5
102
RTVSPost2010Prop44ColorRGB
 90
      255
102
RTVSPost2010PropOp44
 70
     1
102
RTVSPost2010Prop45
280
     0
102
RTVSPost2010PropOp45
 70
     1
102
RTVSPost2010Prop46
 90
       50
102
RTVSPost2010PropOp46
 70
     1
102
RTVSPost2010Prop47
 90
       50
102
RTVSPost2010PropOp47
 70
     1
102
RTVSPost2010Prop48
 90
       50
102
RTVSPost2010PropOp48
 70
     1
102
RTVSPost2010Prop49
280
     0
102
RTVSPost2010PropOp49
 70
     1
102
RTVSPost2010Prop50
 90
       50
102
RTVSPost2010PropOp50
 70
     1
102
RTVSPost2010Prop51ColorIndex
 90
      256
102
RTVSPost2010Prop51ColorRGB
 90
-16777216
102
RTVSPost2010PropOp51
 70
     0
102
RTVSPost2010Prop52
140
1.0
102
RTVSPost2010PropOp52
 70
     0
102
RTVSPost2010Prop53
 90
        2
102
RTVSPost2010PropOp53
 70
     1
102
RTVSPost2010Prop54
  1
strokes_ogs.tif
102
RTVSPost2010PropOp54
 70
     1
102
RTVSPost2010Prop55
280
     0
102
RTVSPost2010PropOp55
 70
     1
102
RTVSPost2010Prop56
140
1.0
102
RTVSPost2010PropOp56
 70
     1
102
RTVSPost2010Prop57
140
1.0
102
RTVSPost2010PropOp57
 70
     1
102
RTVSPropertyOp0
 70
     1
102
RTVSPropertyOp1
 70
     1
102
RTVSPropertyOp2
 70
     1
102
RTVSPropertyOp3
 70
     1
102
RTVSPropertyOp4
 70
     1
102
RTVSPropertyOp5
 70
     1
102
RTVSPropertyOp6
 70
     1
102
RTVSPropertyOp7
 70
     1
102
RTVSPropertyOp8
 70
     1
102
RTVSPropertyOp9
 70
     1
102
RTVSPropertyOp10
 70
     1
102
RTVSPropertyOp11
 70
     1
102
RTVSPropertyOp12
 70
     1
102
RTVSPropertyOp13
 70
     1
102
RTVSPropertyOp14
 70
     1
102
RTVSPropertyOp15
 70
     1
102
RTVSPropertyOp16
 70
     1
102
RTVSPropertyOp17
 70
     1
102
RTVSPropertyOp18
 70
     1
102
RTVSPropertyOp19
 70
     1
102
RTVSPropertyOp20
 70
     1
102
RTVSPropertyOp21
 70
     1
102
RTVSPropertyOp22
 70
     1
102
RTVSPropertyOp23
 70
     1
102
RTVSPropertyOp24
 70
     1
102
RTVSPropertyOp25
 70
     1
102
RTVSPropertyOp26
 70
     1
102
RTVSPropertyOp27
 70
     1
102
RTVSPropertyOp28
 70
     1
102
RTVSPropertyOp29
 70
     1
102
RTVSPropertyOp30
 70
     1
102
RTVSPropertyOp31
 70
     1
102
RTVSPropertyOp32
 70
     1
102
RTVSPropertyOp33
 70
     1
102
RTVSPropertyOp34
 70
     1
102
RTVSPropertyOp35
 70
     1
102
RTVSPropertyOp36
 70
     1
102
RTVSPropertyOp37
 70
     1
102
RTVSPropertyOp38
 70
     1
102
RTVSPropertyOp39
 70
     1
102
RTVSPropertyOp40
 70
     1
102
RTVSPropertyOp41
 70
     1
102
RTVSPropertyOp42
 70
     1
102
RTVSPropertyOp43
 70
     1
102
RTVSPropertyOp44
 70
     1
102
RTVSPropertyOp45
 70
     1
102
RTVSPropertyOp46
 70
     1
102
RTVSPropertyOp47
 70
     1
102
RTVSPropertyOp48
 70
     1
102
RTVSPropertyOp49
 70
     1
102
RTVSPropertyOp50
 70
     1
102
RTVSPropertyOp51
 70
     0
102
RTVSPropertyOp52
 70
     0
102
RTVSPropertyOp53
 70
     1
102
RTVSPropertyOp54
 70
     1
102
RTVSPropertyOp55
 70
     1
102
RTVSPropertyOp56
 70
     1
102
RTVSPropertyOp57
 70
     1
102
RTVSPropertyOp58
 70
     1
102
RTVSPropertyOp59
 70
     1
102
RTVSPropertyOp60
 70
     1
102
RTVSPropertyOp61
 70
     1
102
RTVSPropertyOp62
 70
     1
  0
XRECORD
  5
11190
102
{ACAD_REACTORS
330
1118F
102
}
330
1118F
100
AcDbXrecord
280
     1
102
RTVSPost2010Prop28
280
     0
102
RTVSPost2010PropOp28
 70
     1
102
RTVSPost2010Prop29
280
     1
102
RTVSPost2010PropOp29
 70
     1
102
RTVSPost2010Prop30
280
     1
102
RTVSPost2010PropOp30
 70
     1
102
RTVSPost2010Prop31
280
     0
102
RTVSPost2010PropOp31
 70
     1
102
RTVSPost2010Prop32
280
     0
102
RTVSPost2010PropOp32
 70
     1
102
RTVSPost2010Prop33
280
     0
102
RTVSPost2010PropOp33
 70
     1
102
RTVSPost2010Prop34
280
     0
102
RTVSPost2010PropOp34
 70
     1
102
RTVSPost2010Prop35
280
     0
102
RTVSPost2010PropOp35
 70
     1
102
RTVSPost2010Prop36
280
     0
102
RTVSPost2010PropOp36
 70
     1
102
RTVSPost2010Prop37
 90
       50
102
RTVSPost2010PropOp37
 70
     0
102
RTVSPost2010Prop38
140
0.0
102
RTVSPost2010PropOp38
 70
     0
102
RTVSPost2010Prop39
140
1.0
102
RTVSPost2010PropOp39
 70
     0
102
RTVSPost2010Prop40
 90
        0
102
RTVSPost2010PropOp40
 70
     0
102
RTVSPost2010Prop41ColorIndex
 90
       18
102
RTVSPost2010Prop41ColorRGB
 90
        0
102
RTVSPost2010PropOp41
 70
     0
102
RTVSPost2010Prop42
 90
       50
102
RTVSPost2010PropOp42
 70
     0
102
RTVSPost2010Prop43
 90
        3
102
RTVSPost2010PropOp43
 70
     0
102
RTVSPost2010Prop44ColorIndex
 90
        5
102
RTVSPost2010Prop44ColorRGB
 90
      255
102
RTVSPost2010PropOp44
 70
     0
102
RTVSPost2010Prop45
280
     0
102
RTVSPost2010PropOp45
 70
     1
102
RTVSPost2010Prop46
 90
       50
102
RTVSPost2010PropOp46
 70
     0
102
RTVSPost2010Prop47
 90
       50
102
RTVSPost2010PropOp47
 70
     0
102
RTVSPost2010Prop48
 90
       50
102
RTVSPost2010PropOp48
 70
     0
102
RTVSPost2010Prop49
280
     0
102
RTVSPost2010PropOp49
 70
     1
102
RTVSPost2010Prop50
 90
       50
102
RTVSPost2010PropOp50
 70
     0
102
RTVSPost2010Prop51ColorIndex
 90
      256
102
RTVSPost2010Prop51ColorRGB
 90
-16777216
102
RTVSPost2010PropOp51
 70
     0
102
RTVSPost2010Prop52
140
1.0
102
RTVSPost2010PropOp52
 70
     0
102
RTVSPost2010Prop53
 90
        2
102
RTVSPost2010PropOp53
 70
     0
102
RTVSPost2010Prop54
  1
strokes_ogs.tif
102
RTVSPost2010PropOp54
 70
     0
102
RTVSPost2010Prop55
280
     0
102
RTVSPost2010PropOp55
 70
     1
102
RTVSPost2010Prop56
140
1.0
102
RTVSPost2010PropOp56
 70
     0
102
RTVSPost2010Prop57
140
1.0
102
RTVSPost2010PropOp57
 70
     0
102
RTVSPropertyOp0
 70
     0
102
RTVSPropertyOp1
 70
     0
102
RTVSPropertyOp2
 70
     0
102
RTVSPropertyOp3
 70
     0
102
RTVSPropertyOp4
 70
     0
102
RTVSPropertyOp5
 70
     0
102
RTVSPropertyOp6
 70
     0
102
RTVSPropertyOp7
 70
     0
102
RTVSPropertyOp8
 70
     0
102
RTVSPropertyOp9
 70
     0
102
RTVSPropertyOp10
 70
     0
102
RTVSPropertyOp11
 70
     0
102
RTVSPropertyOp12
 70
     0
102
RTVSPropertyOp13
 70
     0
102
RTVSPropertyOp14
 70
     2
102
RTVSPropertyOp15
 70
     0
102
RTVSPropertyOp16
 70
     0
102
RTVSPropertyOp17
 70
     0
102
RTVSPropertyOp18
 70
     0
102
RTVSPropertyOp19
 70
     0
102
RTVSPropertyOp20
 70
     0
102
RTVSPropertyOp21
 70
     0
102
RTVSPropertyOp22
 70
     0
102
RTVSPropertyOp23
 70
     0
102
RTVSPropertyOp24
 70
     0
102
RTVSPropertyOp25
 70
     0
102
RTVSPropertyOp26
 70
     0
102
RTVSPropertyOp27
 70
     0
102
RTVSPropertyOp28
 70
     1
102
RTVSPropertyOp29
 70
     1
102
RTVSPropertyOp30
 70
     1
102
RTVSPropertyOp31
 70
     1
102
RTVSPropertyOp32
 70
     1
102
RTVSPropertyOp33
 70
     1
102
RTVSPropertyOp34
 70
     1
102
RTVSPropertyOp35
 70
     1
102
RTVSPropertyOp36
 70
     1
102
RTVSPropertyOp37
 70
     0
102
RTVSPropertyOp38
 70
     0
102
RTVSPropertyOp39
 70
     0
102
RTVSPropertyOp40
 70
     0
102
RTVSPropertyOp41
 70
     0
102
RTVSPropertyOp42
 70
     0
102
RTVSPropertyOp43
 70
     0
102
RTVSPropertyOp44
 70
     0
102
RTVSPropertyOp45
 70
     1
102
RTVSPropertyOp46
 70
     0
102
RTVSPropertyOp47
 70
     0
102
RTVSPropertyOp48
 70
     0
102
RTVSPropertyOp49
 70
     1
102
RTVSPropertyOp50
 70
     0
102
RTVSPropertyOp51
 70
     0
102
RTVSPropertyOp52
 70
     0
102
RTVSPropertyOp53
 70
     0
102
RTVSPropertyOp54
 70
     0
102
RTVSPropertyOp55
 70
     1
102
RTVSPropertyOp56
 70
     0
102
RTVSPropertyOp57
 70
     0
102
RTVSPropertyOp58
 70
     0
102
RTVSPropertyOp59
 70
     0
102
RTVSPropertyOp60
 70
     0
102
RTVSPropertyOp61
 70
     0
102
RTVSPropertyOp62
 70
     0
  0
XRECORD
  5
11180
102
{ACAD_REACTORS
330
1117F
102
}
330
1117F
100
AcDbXrecord
280
     1
102
RTVSPost2010Prop28
280
     0
102
RTVSPost2010PropOp28
 70
     1
102
RTVSPost2010Prop29
280
     1
102
RTVSPost2010PropOp29
 70
     1
102
RTVSPost2010Prop30
280
     1
102
RTVSPost2010PropOp30
 70
     1
102
RTVSPost2010Prop31
280
     0
102
RTVSPost2010PropOp31
 70
     1
102
RTVSPost2010Prop32
280
     0
102
RTVSPost2010PropOp32
 70
     1
102
RTVSPost2010Prop33
280
     0
102
RTVSPost2010PropOp33
 70
     1
102
RTVSPost2010Prop34
280
     0
102
RTVSPost2010PropOp34
 70
     1
102
RTVSPost2010Prop35
280
     0
102
RTVSPost2010PropOp35
 70
     1
102
RTVSPost2010Prop36
280
     0
102
RTVSPost2010PropOp36
 70
     1
102
RTVSPost2010Prop37
 90
       50
102
RTVSPost2010PropOp37
 70
     1
102
RTVSPost2010Prop38
140
0.0
102
RTVSPost2010PropOp38
 70
     1
102
RTVSPost2010Prop39
140
1.0
102
RTVSPost2010PropOp39
 70
     1
102
RTVSPost2010Prop40
 90
        0
102
RTVSPost2010PropOp40
 70
     1
102
RTVSPost2010Prop41ColorIndex
 90
       18
102
RTVSPost2010Prop41ColorRGB
 90
        0
102
RTVSPost2010PropOp41
 70
     1
102
RTVSPost2010Prop42
 90
       50
102
RTVSPost2010PropOp42
 70
     1
102
RTVSPost2010Prop43
 90
        3
102
RTVSPost2010PropOp43
 70
     1
102
RTVSPost2010Prop44ColorIndex
 90
        5
102
RTVSPost2010Prop44ColorRGB
 90
      255
102
RTVSPost2010PropOp44
 70
     1
102
RTVSPost2010Prop45
280
     0
102
RTVSPost2010PropOp45
 70
     1
102
RTVSPost2010Prop46
 90
       50
102
RTVSPost2010PropOp46
 70
     1
102
RTVSPost2010Prop47
 90
       50
102
RTVSPost2010PropOp47
 70
     1
102
RTVSPost2010Prop48
 90
       50
102
RTVSPost2010PropOp48
 70
     1
102
RTVSPost2010Prop49
280
     0
102
RTVSPost2010PropOp49
 70
     1
102
RTVSPost2010Prop50
 90
       50
102
RTVSPost2010PropOp50
 70
     1
102
RTVSPost2010Prop51ColorIndex
 90
      256
102
RTVSPost2010Prop51ColorRGB
 90
-16777216
102
RTVSPost2010PropOp51
 70
     0
102
RTVSPost2010Prop52
140
1.0
102
RTVSPost2010PropOp52
 70
     0
102
RTVSPost2010Prop53
 90
        2
102
RTVSPost2010PropOp53
 70
     1
102
RTVSPost2010Prop54
  1
strokes_ogs.tif
102
RTVSPost2010PropOp54
 70
     1
102
RTVSPost2010Prop55
280
     0
102
RTVSPost2010PropOp55
 70
     1
102
RTVSPost2010Prop56
140
1.0
102
RTVSPost2010PropOp56
 70
     1
102
RTVSPost2010Prop57
140
1.0
102
RTVSPost2010PropOp57
 70
     1
102
RTVSPropertyOp0
 70
     1
102
RTVSPropertyOp1
 70
     1
102
RTVSPropertyOp2
 70
     1
102
RTVSPropertyOp3
 70
     1
102
RTVSPropertyOp4
 70
     1
102
RTVSPropertyOp5
 70
     1
102
RTVSPropertyOp6
 70
     1
102
RTVSPropertyOp7
 70
     1
102
RTVSPropertyOp8
 70
     1
102
RTVSPropertyOp9
 70
     1
102
RTVSPropertyOp10
 70
     1
102
RTVSPropertyOp11
 70
     1
102
RTVSPropertyOp12
 70
     1
102
RTVSPropertyOp13
 70
     1
102
RTVSPropertyOp14
 70
     1
102
RTVSPropertyOp15
 70
     1
102
RTVSPropertyOp16
 70
     1
102
RTVSPropertyOp17
 70
     1
102
RTVSPropertyOp18
 70
     1
102
RTVSPropertyOp19
 70
     1
102
RTVSPropertyOp20
 70
     1
102
RTVSPropertyOp21
 70
     1
102
RTVSPropertyOp22
 70
     1
102
RTVSPropertyOp23
 70
     1
102
RTVSPropertyOp24
 70
     1
102
RTVSPropertyOp25
 70
     1
102
RTVSPropertyOp26
 70
     1
102
RTVSPropertyOp27
 70
     1
102
RTVSPropertyOp28
 70
     1
102
RTVSPropertyOp29
 70
     1
102
RTVSPropertyOp30
 70
     1
102
RTVSPropertyOp31
 70
     1
102
RTVSPropertyOp32
 70
     1
102
RTVSPropertyOp33
 70
     1
102
RTVSPropertyOp34
 70
     1
102
RTVSPropertyOp35
 70
     1
102
RTVSPropertyOp36
 70
     1
102
RTVSPropertyOp37
 70
     1
102
RTVSPropertyOp38
 70
     1
102
RTVSPropertyOp39
 70
     1
102
RTVSPropertyOp40
 70
     1
102
RTVSPropertyOp41
 70
     1
102
RTVSPropertyOp42
 70
     1
102
RTVSPropertyOp43
 70
     1
102
RTVSPropertyOp44
 70
     1
102
RTVSPropertyOp45
 70
     1
102
RTVSPropertyOp46
 70
     1
102
RTVSPropertyOp47
 70
     1
102
RTVSPropertyOp48
 70
     1
102
RTVSPropertyOp49
 70
     1
102
RTVSPropertyOp50
 70
     1
102
RTVSPropertyOp51
 70
     0
102
RTVSPropertyOp52
 70
     0
102
RTVSPropertyOp53
 70
     1
102
RTVSPropertyOp54
 70
     1
102
RTVSPropertyOp55
 70
     1
102
RTVSPropertyOp56
 70
     1
102
RTVSPropertyOp57
 70
     1
102
RTVSPropertyOp58
 70
     1
102
RTVSPropertyOp59
 70
     1
102
RTVSPropertyOp60
 70
     1
102
RTVSPropertyOp61
 70
     1
102
RTVSPropertyOp62
 70
     1
  0
XRECORD
  5
11192
102
{ACAD_REACTORS
330
11191
102
}
330
11191
100
AcDbXrecord
280
     1
102
RTVSPost2010Prop28
280
     0
102
RTVSPost2010PropOp28
 70
     1
102
RTVSPost2010Prop29
280
     1
102
RTVSPost2010PropOp29
 70
     1
102
RTVSPost2010Prop30
280
     1
102
RTVSPost2010PropOp30
 70
     1
102
RTVSPost2010Prop31
280
     0
102
RTVSPost2010PropOp31
 70
     1
102
RTVSPost2010Prop32
280
     0
102
RTVSPost2010PropOp32
 70
     1
102
RTVSPost2010Prop33
280
     0
102
RTVSPost2010PropOp33
 70
     1
102
RTVSPost2010Prop34
280
     0
102
RTVSPost2010PropOp34
 70
     1
102
RTVSPost2010Prop35
280
     0
102
RTVSPost2010PropOp35
 70
     1
102
RTVSPost2010Prop36
280
     0
102
RTVSPost2010PropOp36
 70
     1
102
RTVSPost2010Prop37
 90
       50
102
RTVSPost2010PropOp37
 70
     0
102
RTVSPost2010Prop38
140
0.0
102
RTVSPost2010PropOp38
 70
     0
102
RTVSPost2010Prop39
140
1.0
102
RTVSPost2010PropOp39
 70
     0
102
RTVSPost2010Prop40
 90
        0
102
RTVSPost2010PropOp40
 70
     0
102
RTVSPost2010Prop41ColorIndex
 90
       18
102
RTVSPost2010Prop41ColorRGB
 90
        0
102
RTVSPost2010PropOp41
 70
     0
102
RTVSPost2010Prop42
 90
       50
102
RTVSPost2010PropOp42
 70
     0
102
RTVSPost2010Prop43
 90
        3
102
RTVSPost2010PropOp43
 70
     0
102
RTVSPost2010Prop44ColorIndex
 90
        5
102
RTVSPost2010Prop44ColorRGB
 90
      255
102
RTVSPost2010PropOp44
 70
     0
102
RTVSPost2010Prop45
280
     0
102
RTVSPost2010PropOp45
 70
     1
102
RTVSPost2010Prop46
 90
       50
102
RTVSPost2010PropOp46
 70
     0
102
RTVSPost2010Prop47
 90
       50
102
RTVSPost2010PropOp47
 70
     0
102
RTVSPost2010Prop48
 90
       50
102
RTVSPost2010PropOp48
 70
     0
102
RTVSPost2010Prop49
280
     0
102
RTVSPost2010PropOp49
 70
     1
102
RTVSPost2010Prop50
 90
       50
102
RTVSPost2010PropOp50
 70
     0
102
RTVSPost2010Prop51ColorIndex
 90
      256
102
RTVSPost2010Prop51ColorRGB
 90
-16777216
102
RTVSPost2010PropOp51
 70
     0
102
RTVSPost2010Prop52
140
1.0
102
RTVSPost2010PropOp52
 70
     0
102
RTVSPost2010Prop53
 90
        2
102
RTVSPost2010PropOp53
 70
     0
102
RTVSPost2010Prop54
  1
strokes_ogs.tif
102
RTVSPost2010PropOp54
 70
     0
102
RTVSPost2010Prop55
280
     0
102
RTVSPost2010PropOp55
 70
     1
102
RTVSPost2010Prop56
140
1.0
102
RTVSPost2010PropOp56
 70
     0
102
RTVSPost2010Prop57
140
1.0
102
RTVSPost2010PropOp57
 70
     0
102
RTVSPropertyOp0
 70
     0
102
RTVSPropertyOp1
 70
     0
102
RTVSPropertyOp2
 70
     0
102
RTVSPropertyOp3
 70
     0
102
RTVSPropertyOp4
 70
     0
102
RTVSPropertyOp5
 70
     0
102
RTVSPropertyOp6
 70
     0
102
RTVSPropertyOp7
 70
     0
102
RTVSPropertyOp8
 70
     0
102
RTVSPropertyOp9
 70
     0
102
RTVSPropertyOp10
 70
     0
102
RTVSPropertyOp11
 70
     0
102
RTVSPropertyOp12
 70
     0
102
RTVSPropertyOp13
 70
     0
102
RTVSPropertyOp14
 70
     2
102
RTVSPropertyOp15
 70
     0
102
RTVSPropertyOp16
 70
     0
102
RTVSPropertyOp17
 70
     0
102
RTVSPropertyOp18
 70
     0
102
RTVSPropertyOp19
 70
     0
102
RTVSPropertyOp20
 70
     0
102
RTVSPropertyOp21
 70
     0
102
RTVSPropertyOp22
 70
     0
102
RTVSPropertyOp23
 70
     0
102
RTVSPropertyOp24
 70
     0
102
RTVSPropertyOp25
 70
     0
102
RTVSPropertyOp26
 70
     0
102
RTVSPropertyOp27
 70
     0
102
RTVSPropertyOp28
 70
     1
102
RTVSPropertyOp29
 70
     1
102
RTVSPropertyOp30
 70
     1
102
RTVSPropertyOp31
 70
     1
102
RTVSPropertyOp32
 70
     1
102
RTVSPropertyOp33
 70
     1
102
RTVSPropertyOp34
 70
     1
102
RTVSPropertyOp35
 70
     1
102
RTVSPropertyOp36
 70
     1
102
RTVSPropertyOp37
 70
     0
102
RTVSPropertyOp38
 70
     0
102
RTVSPropertyOp39
 70
     0
102
RTVSPropertyOp40
 70
     0
102
RTVSPropertyOp41
 70
     0
102
RTVSPropertyOp42
 70
     0
102
RTVSPropertyOp43
 70
     0
102
RTVSPropertyOp44
 70
     0
102
RTVSPropertyOp45
 70
     1
102
RTVSPropertyOp46
 70
     0
102
RTVSPropertyOp47
 70
     0
102
RTVSPropertyOp48
 70
     0
102
RTVSPropertyOp49
 70
     1
102
RTVSPropertyOp50
 70
     0
102
RTVSPropertyOp51
 70
     0
102
RTVSPropertyOp52
 70
     0
102
RTVSPropertyOp53
 70
     0
102
RTVSPropertyOp54
 70
     0
102
RTVSPropertyOp55
 70
     1
102
RTVSPropertyOp56
 70
     0
102
RTVSPropertyOp57
 70
     0
102
RTVSPropertyOp58
 70
     0
102
RTVSPropertyOp59
 70
     0
102
RTVSPropertyOp60
 70
     0
102
RTVSPropertyOp61
 70
     0
102
RTVSPropertyOp62
 70
     0
  0
XRECORD
  5
11178
102
{ACAD_REACTORS
330
11177
102
}
330
11177
100
AcDbXrecord
280
     1
102
RTVSPost2010Prop28
280
     0
102
RTVSPost2010PropOp28
 70
     1
102
RTVSPost2010Prop29
280
     1
102
RTVSPost2010PropOp29
 70
     1
102
RTVSPost2010Prop30
280
     1
102
RTVSPost2010PropOp30
 70
     1
102
RTVSPost2010Prop31
280
     0
102
RTVSPost2010PropOp31
 70
     1
102
RTVSPost2010Prop32
280
     0
102
RTVSPost2010PropOp32
 70
     1
102
RTVSPost2010Prop33
280
     0
102
RTVSPost2010PropOp33
 70
     1
102
RTVSPost2010Prop34
280
     0
102
RTVSPost2010PropOp34
 70
     1
102
RTVSPost2010Prop35
280
     0
102
RTVSPost2010PropOp35
 70
     1
102
RTVSPost2010Prop36
280
     0
102
RTVSPost2010PropOp36
 70
     1
102
RTVSPost2010Prop37
 90
       50
102
RTVSPost2010PropOp37
 70
     1
102
RTVSPost2010Prop38
140
0.0
102
RTVSPost2010PropOp38
 70
     1
102
RTVSPost2010Prop39
140
1.0
102
RTVSPost2010PropOp39
 70
     1
102
RTVSPost2010Prop40
 90
        0
102
RTVSPost2010PropOp40
 70
     1
102
RTVSPost2010Prop41ColorIndex
 90
       18
102
RTVSPost2010Prop41ColorRGB
 90
        0
102
RTVSPost2010PropOp41
 70
     1
102
RTVSPost2010Prop42
 90
       50
102
RTVSPost2010PropOp42
 70
     1
102
RTVSPost2010Prop43
 90
        3
102
RTVSPost2010PropOp43
 70
     1
102
RTVSPost2010Prop44ColorIndex
 90
        5
102
RTVSPost2010Prop44ColorRGB
 90
      255
102
RTVSPost2010PropOp44
 70
     1
102
RTVSPost2010Prop45
280
     0
102
RTVSPost2010PropOp45
 70
     1
102
RTVSPost2010Prop46
 90
       50
102
RTVSPost2010PropOp46
 70
     1
102
RTVSPost2010Prop47
 90
       50
102
RTVSPost2010PropOp47
 70
     1
102
RTVSPost2010Prop48
 90
       50
102
RTVSPost2010PropOp48
 70
     1
102
RTVSPost2010Prop49
280
     0
102
RTVSPost2010PropOp49
 70
     1
102
RTVSPost2010Prop50
 90
       50
102
RTVSPost2010PropOp50
 70
     1
102
RTVSPost2010Prop51ColorIndex
 90
      256
102
RTVSPost2010Prop51ColorRGB
 90
-16777216
102
RTVSPost2010PropOp51
 70
     0
102
RTVSPost2010Prop52
140
1.0
102
RTVSPost2010PropOp52
 70
     0
102
RTVSPost2010Prop53
 90
        2
102
RTVSPost2010PropOp53
 70
     1
102
RTVSPost2010Prop54
  1
strokes_ogs.tif
102
RTVSPost2010PropOp54
 70
     1
102
RTVSPost2010Prop55
280
     0
102
RTVSPost2010PropOp55
 70
     1
102
RTVSPost2010Prop56
140
1.0
102
RTVSPost2010PropOp56
 70
     1
102
RTVSPost2010Prop57
140
1.0
102
RTVSPost2010PropOp57
 70
     1
102
RTVSPropertyOp0
 70
     1
102
RTVSPropertyOp1
 70
     1
102
RTVSPropertyOp2
 70
     1
102
RTVSPropertyOp3
 70
     1
102
RTVSPropertyOp4
 70
     1
102
RTVSPropertyOp5
 70
     1
102
RTVSPropertyOp6
 70
     1
102
RTVSPropertyOp7
 70
     1
102
RTVSPropertyOp8
 70
     1
102
RTVSPropertyOp9
 70
     1
102
RTVSPropertyOp10
 70
     1
102
RTVSPropertyOp11
 70
     1
102
RTVSPropertyOp12
 70
     1
102
RTVSPropertyOp13
 70
     1
102
RTVSPropertyOp14
 70
     1
102
RTVSPropertyOp15
 70
     1
102
RTVSPropertyOp16
 70
     1
102
RTVSPropertyOp17
 70
     1
102
RTVSPropertyOp18
 70
     1
102
RTVSPropertyOp19
 70
     1
102
RTVSPropertyOp20
 70
     1
102
RTVSPropertyOp21
 70
     1
102
RTVSPropertyOp22
 70
     1
102
RTVSPropertyOp23
 70
     1
102
RTVSPropertyOp24
 70
     1
102
RTVSPropertyOp25
 70
     1
102
RTVSPropertyOp26
 70
     1
102
RTVSPropertyOp27
 70
     1
102
RTVSPropertyOp28
 70
     1
102
RTVSPropertyOp29
 70
     1
102
RTVSPropertyOp30
 70
     1
102
RTVSPropertyOp31
 70
     1
102
RTVSPropertyOp32
 70
     1
102
RTVSPropertyOp33
 70
     1
102
RTVSPropertyOp34
 70
     1
102
RTVSPropertyOp35
 70
     1
102
RTVSPropertyOp36
 70
     1
102
RTVSPropertyOp37
 70
     1
102
RTVSPropertyOp38
 70
     1
102
RTVSPropertyOp39
 70
     1
102
RTVSPropertyOp40
 70
     1
102
RTVSPropertyOp41
 70
     1
102
RTVSPropertyOp42
 70
     1
102
RTVSPropertyOp43
 70
     1
102
RTVSPropertyOp44
 70
     1
102
RTVSPropertyOp45
 70
     1
102
RTVSPropertyOp46
 70
     1
102
RTVSPropertyOp47
 70
     1
102
RTVSPropertyOp48
 70
     1
102
RTVSPropertyOp49
 70
     1
102
RTVSPropertyOp50
 70
     1
102
RTVSPropertyOp51
 70
     0
102
RTVSPropertyOp52
 70
     0
102
RTVSPropertyOp53
 70
     1
102
RTVSPropertyOp54
 70
     1
102
RTVSPropertyOp55
 70
     1
102
RTVSPropertyOp56
 70
     1
102
RTVSPropertyOp57
 70
     1
102
RTVSPropertyOp58
 70
     1
102
RTVSPropertyOp59
 70
     1
102
RTVSPropertyOp60
 70
     1
102
RTVSPropertyOp61
 70
     1
102
RTVSPropertyOp62
 70
     1
  0
XRECORD
  5
1118E
102
{ACAD_REACTORS
330
1118D
102
}
330
1118D
100
AcDbXrecord
280
     1
102
RTVSPost2010Prop28
280
     0
102
RTVSPost2010PropOp28
 70
     1
102
RTVSPost2010Prop29
280
     1
102
RTVSPost2010PropOp29
 70
     1
102
RTVSPost2010Prop30
280
     1
102
RTVSPost2010PropOp30
 70
     1
102
RTVSPost2010Prop31
280
     0
102
RTVSPost2010PropOp31
 70
     1
102
RTVSPost2010Prop32
280
     0
102
RTVSPost2010PropOp32
 70
     1
102
RTVSPost2010Prop33
280
     0
102
RTVSPost2010PropOp33
 70
     1
102
RTVSPost2010Prop34
280
     0
102
RTVSPost2010PropOp34
 70
     1
102
RTVSPost2010Prop35
280
     0
102
RTVSPost2010PropOp35
 70
     1
102
RTVSPost2010Prop36
280
     0
102
RTVSPost2010PropOp36
 70
     1
102
RTVSPost2010Prop37
 90
       50
102
RTVSPost2010PropOp37
 70
     1
102
RTVSPost2010Prop38
140
0.0
102
RTVSPost2010PropOp38
 70
     1
102
RTVSPost2010Prop39
140
1.0
102
RTVSPost2010PropOp39
 70
     1
102
RTVSPost2010Prop40
 90
        0
102
RTVSPost2010PropOp40
 70
     1
102
RTVSPost2010Prop41ColorIndex
 90
       18
102
RTVSPost2010Prop41ColorRGB
 90
        0
102
RTVSPost2010PropOp41
 70
     1
102
RTVSPost2010Prop42
 90
       50
102
RTVSPost2010PropOp42
 70
     1
102
RTVSPost2010Prop43
 90
        3
102
RTVSPost2010PropOp43
 70
     1
102
RTVSPost2010Prop44ColorIndex
 90
        5
102
RTVSPost2010Prop44ColorRGB
 90
      255
102
RTVSPost2010PropOp44
 70
     1
102
RTVSPost2010Prop45
280
     0
102
RTVSPost2010PropOp45
 70
     1
102
RTVSPost2010Prop46
 90
       50
102
RTVSPost2010PropOp46
 70
     1
102
RTVSPost2010Prop47
 90
       50
102
RTVSPost2010PropOp47
 70
     1
102
RTVSPost2010Prop48
 90
       50
102
RTVSPost2010PropOp48
 70
     1
102
RTVSPost2010Prop49
280
     0
102
RTVSPost2010PropOp49
 70
     1
102
RTVSPost2010Prop50
 90
       50
102
RTVSPost2010PropOp50
 70
     1
102
RTVSPost2010Prop51ColorIndex
 90
      256
102
RTVSPost2010Prop51ColorRGB
 90
-16777216
102
RTVSPost2010PropOp51
 70
     0
102
RTVSPost2010Prop52
140
1.0
102
RTVSPost2010PropOp52
 70
     0
102
RTVSPost2010Prop53
 90
        2
102
RTVSPost2010PropOp53
 70
     1
102
RTVSPost2010Prop54
  1
strokes_ogs.tif
102
RTVSPost2010PropOp54
 70
     1
102
RTVSPost2010Prop55
280
     0
102
RTVSPost2010PropOp55
 70
     1
102
RTVSPost2010Prop56
140
1.0
102
RTVSPost2010PropOp56
 70
     1
102
RTVSPost2010Prop57
140
1.0
102
RTVSPost2010PropOp57
 70
     1
102
RTVSPropertyOp0
 70
     1
102
RTVSPropertyOp1
 70
     1
102
RTVSPropertyOp2
 70
     1
102
RTVSPropertyOp3
 70
     1
102
RTVSPropertyOp4
 70
     1
102
RTVSPropertyOp5
 70
     1
102
RTVSPropertyOp6
 70
     1
102
RTVSPropertyOp7
 70
     1
102
RTVSPropertyOp8
 70
     1
102
RTVSPropertyOp9
 70
     1
102
RTVSPropertyOp10
 70
     1
102
RTVSPropertyOp11
 70
     1
102
RTVSPropertyOp12
 70
     1
102
RTVSPropertyOp13
 70
     1
102
RTVSPropertyOp14
 70
     1
102
RTVSPropertyOp15
 70
     1
102
RTVSPropertyOp16
 70
     1
102
RTVSPropertyOp17
 70
     1
102
RTVSPropertyOp18
 70
     1
102
RTVSPropertyOp19
 70
     1
102
RTVSPropertyOp20
 70
     1
102
RTVSPropertyOp21
 70
     1
102
RTVSPropertyOp22
 70
     1
102
RTVSPropertyOp23
 70
     1
102
RTVSPropertyOp24
 70
     1
102
RTVSPropertyOp25
 70
     1
102
RTVSPropertyOp26
 70
     1
102
RTVSPropertyOp27
 70
     1
102
RTVSPropertyOp28
 70
     1
102
RTVSPropertyOp29
 70
     1
102
RTVSPropertyOp30
 70
     1
102
RTVSPropertyOp31
 70
     1
102
RTVSPropertyOp32
 70
     1
102
RTVSPropertyOp33
 70
     1
102
RTVSPropertyOp34
 70
     1
102
RTVSPropertyOp35
 70
     1
102
RTVSPropertyOp36
 70
     1
102
RTVSPropertyOp37
 70
     1
102
RTVSPropertyOp38
 70
     1
102
RTVSPropertyOp39
 70
     1
102
RTVSPropertyOp40
 70
     1
102
RTVSPropertyOp41
 70
     1
102
RTVSPropertyOp42
 70
     1
102
RTVSPropertyOp43
 70
     1
102
RTVSPropertyOp44
 70
     1
102
RTVSPropertyOp45
 70
     1
102
RTVSPropertyOp46
 70
     1
102
RTVSPropertyOp47
 70
     1
102
RTVSPropertyOp48
 70
     1
102
RTVSPropertyOp49
 70
     1
102
RTVSPropertyOp50
 70
     1
102
RTVSPropertyOp51
 70
     0
102
RTVSPropertyOp52
 70
     0
102
RTVSPropertyOp53
 70
     1
102
RTVSPropertyOp54
 70
     1
102
RTVSPropertyOp55
 70
     1
102
RTVSPropertyOp56
 70
     1
102
RTVSPropertyOp57
 70
     1
102
RTVSPropertyOp58
 70
     1
102
RTVSPropertyOp59
 70
     1
102
RTVSPropertyOp60
 70
     1
102
RTVSPropertyOp61
 70
     1
102
RTVSPropertyOp62
 70
     1
  0
XRECORD
  5
1118C
102
{ACAD_REACTORS
330
1118B
102
}
330
1118B
100
AcDbXrecord
280
     1
102
RTVSPost2010Prop28
280
     0
102
RTVSPost2010PropOp28
 70
     1
102
RTVSPost2010Prop29
280
     1
102
RTVSPost2010PropOp29
 70
     1
102
RTVSPost2010Prop30
280
     1
102
RTVSPost2010PropOp30
 70
     1
102
RTVSPost2010Prop31
280
     0
102
RTVSPost2010PropOp31
 70
     1
102
RTVSPost2010Prop32
280
     0
102
RTVSPost2010PropOp32
 70
     1
102
RTVSPost2010Prop33
280
     0
102
RTVSPost2010PropOp33
 70
     1
102
RTVSPost2010Prop34
280
     0
102
RTVSPost2010PropOp34
 70
     1
102
RTVSPost2010Prop35
280
     0
102
RTVSPost2010PropOp35
 70
     1
102
RTVSPost2010Prop36
280
     0
102
RTVSPost2010PropOp36
 70
     1
102
RTVSPost2010Prop37
 90
       50
102
RTVSPost2010PropOp37
 70
     1
102
RTVSPost2010Prop38
140
0.0
102
RTVSPost2010PropOp38
 70
     1
102
RTVSPost2010Prop39
140
1.0
102
RTVSPost2010PropOp39
 70
     1
102
RTVSPost2010Prop40
 90
        0
102
RTVSPost2010PropOp40
 70
     1
102
RTVSPost2010Prop41ColorIndex
 90
       18
102
RTVSPost2010Prop41ColorRGB
 90
        0
102
RTVSPost2010PropOp41
 70
     1
102
RTVSPost2010Prop42
 90
       50
102
RTVSPost2010PropOp42
 70
     1
102
RTVSPost2010Prop43
 90
        3
102
RTVSPost2010PropOp43
 70
     1
102
RTVSPost2010Prop44ColorIndex
 90
        5
102
RTVSPost2010Prop44ColorRGB
 90
      255
102
RTVSPost2010PropOp44
 70
     1
102
RTVSPost2010Prop45
280
     0
102
RTVSPost2010PropOp45
 70
     1
102
RTVSPost2010Prop46
 90
       50
102
RTVSPost2010PropOp46
 70
     1
102
RTVSPost2010Prop47
 90
       50
102
RTVSPost2010PropOp47
 70
     1
102
RTVSPost2010Prop48
 90
       50
102
RTVSPost2010PropOp48
 70
     1
102
RTVSPost2010Prop49
280
     0
102
RTVSPost2010PropOp49
 70
     1
102
RTVSPost2010Prop50
 90
       50
102
RTVSPost2010PropOp50
 70
     1
102
RTVSPost2010Prop51ColorIndex
 90
      256
102
RTVSPost2010Prop51ColorRGB
 90
-16777216
102
RTVSPost2010PropOp51
 70
     0
102
RTVSPost2010Prop52
140
1.0
102
RTVSPost2010PropOp52
 70
     0
102
RTVSPost2010Prop53
 90
        2
102
RTVSPost2010PropOp53
 70
     1
102
RTVSPost2010Prop54
  1
strokes_ogs.tif
102
RTVSPost2010PropOp54
 70
     1
102
RTVSPost2010Prop55
280
     0
102
RTVSPost2010PropOp55
 70
     1
102
RTVSPost2010Prop56
140
1.0
102
RTVSPost2010PropOp56
 70
     1
102
RTVSPost2010Prop57
140
1.0
102
RTVSPost2010PropOp57
 70
     1
102
RTVSPropertyOp0
 70
     1
102
RTVSPropertyOp1
 70
     1
102
RTVSPropertyOp2
 70
     1
102
RTVSPropertyOp3
 70
     1
102
RTVSPropertyOp4
 70
     1
102
RTVSPropertyOp5
 70
     1
102
RTVSPropertyOp6
 70
     1
102
RTVSPropertyOp7
 70
     1
102
RTVSPropertyOp8
 70
     1
102
RTVSPropertyOp9
 70
     1
102
RTVSPropertyOp10
 70
     1
102
RTVSPropertyOp11
 70
     1
102
RTVSPropertyOp12
 70
     1
102
RTVSPropertyOp13
 70
     1
102
RTVSPropertyOp14
 70
     1
102
RTVSPropertyOp15
 70
     1
102
RTVSPropertyOp16
 70
     1
102
RTVSPropertyOp17
 70
     1
102
RTVSPropertyOp18
 70
     1
102
RTVSPropertyOp19
 70
     1
102
RTVSPropertyOp20
 70
     1
102
RTVSPropertyOp21
 70
     1
102
RTVSPropertyOp22
 70
     1
102
RTVSPropertyOp23
 70
     1
102
RTVSPropertyOp24
 70
     1
102
RTVSPropertyOp25
 70
     1
102
RTVSPropertyOp26
 70
     1
102
RTVSPropertyOp27
 70
     1
102
RTVSPropertyOp28
 70
     1
102
RTVSPropertyOp29
 70
     1
102
RTVSPropertyOp30
 70
     1
102
RTVSPropertyOp31
 70
     1
102
RTVSPropertyOp32
 70
     1
102
RTVSPropertyOp33
 70
     1
102
RTVSPropertyOp34
 70
     1
102
RTVSPropertyOp35
 70
     1
102
RTVSPropertyOp36
 70
     1
102
RTVSPropertyOp37
 70
     1
102
RTVSPropertyOp38
 70
     1
102
RTVSPropertyOp39
 70
     1
102
RTVSPropertyOp40
 70
     1
102
RTVSPropertyOp41
 70
     1
102
RTVSPropertyOp42
 70
     1
102
RTVSPropertyOp43
 70
     1
102
RTVSPropertyOp44
 70
     1
102
RTVSPropertyOp45
 70
     1
102
RTVSPropertyOp46
 70
     1
102
RTVSPropertyOp47
 70
     1
102
RTVSPropertyOp48
 70
     1
102
RTVSPropertyOp49
 70
     1
102
RTVSPropertyOp50
 70
     1
102
RTVSPropertyOp51
 70
     0
102
RTVSPropertyOp52
 70
     0
102
RTVSPropertyOp53
 70
     1
102
RTVSPropertyOp54
 70
     1
102
RTVSPropertyOp55
 70
     1
102
RTVSPropertyOp56
 70
     1
102
RTVSPropertyOp57
 70
     1
102
RTVSPropertyOp58
 70
     1
102
RTVSPropertyOp59
 70
     1
102
RTVSPropertyOp60
 70
     1
102
RTVSPropertyOp61
 70
     1
102
RTVSPropertyOp62
 70
     1
  0
XRECORD
  5
11186
102
{ACAD_REACTORS
330
11185
102
}
330
11185
100
AcDbXrecord
280
     1
102
RTVSPost2010Prop28
280
     0
102
RTVSPost2010PropOp28
 70
     1
102
RTVSPost2010Prop29
280
     1
102
RTVSPost2010PropOp29
 70
     1
102
RTVSPost2010Prop30
280
     1
102
RTVSPost2010PropOp30
 70
     1
102
RTVSPost2010Prop31
280
     0
102
RTVSPost2010PropOp31
 70
     1
102
RTVSPost2010Prop32
280
     0
102
RTVSPost2010PropOp32
 70
     1
102
RTVSPost2010Prop33
280
     0
102
RTVSPost2010PropOp33
 70
     1
102
RTVSPost2010Prop34
280
     0
102
RTVSPost2010PropOp34
 70
     1
102
RTVSPost2010Prop35
280
     0
102
RTVSPost2010PropOp35
 70
     1
102
RTVSPost2010Prop36
280
     0
102
RTVSPost2010PropOp36
 70
     1
102
RTVSPost2010Prop37
 90
       50
102
RTVSPost2010PropOp37
 70
     1
102
RTVSPost2010Prop38
140
0.0
102
RTVSPost2010PropOp38
 70
     1
102
RTVSPost2010Prop39
140
1.0
102
RTVSPost2010PropOp39
 70
     1
102
RTVSPost2010Prop40
 90
        0
102
RTVSPost2010PropOp40
 70
     1
102
RTVSPost2010Prop41ColorIndex
 90
       18
102
RTVSPost2010Prop41ColorRGB
 90
        0
102
RTVSPost2010PropOp41
 70
     1
102
RTVSPost2010Prop42
 90
       50
102
RTVSPost2010PropOp42
 70
     1
102
RTVSPost2010Prop43
 90
        3
102
RTVSPost2010PropOp43
 70
     1
102
RTVSPost2010Prop44ColorIndex
 90
        5
102
RTVSPost2010Prop44ColorRGB
 90
      255
102
RTVSPost2010PropOp44
 70
     1
102
RTVSPost2010Prop45
280
     0
102
RTVSPost2010PropOp45
 70
     1
102
RTVSPost2010Prop46
 90
       50
102
RTVSPost2010PropOp46
 70
     1
102
RTVSPost2010Prop47
 90
       50
102
RTVSPost2010PropOp47
 70
     1
102
RTVSPost2010Prop48
 90
       50
102
RTVSPost2010PropOp48
 70
     1
102
RTVSPost2010Prop49
280
     0
102
RTVSPost2010PropOp49
 70
     1
102
RTVSPost2010Prop50
 90
       50
102
RTVSPost2010PropOp50
 70
     1
102
RTVSPost2010Prop51ColorIndex
 90
      256
102
RTVSPost2010Prop51ColorRGB
 90
-16777216
102
RTVSPost2010PropOp51
 70
     0
102
RTVSPost2010Prop52
140
1.0
102
RTVSPost2010PropOp52
 70
     0
102
RTVSPost2010Prop53
 90
        2
102
RTVSPost2010PropOp53
 70
     1
102
RTVSPost2010Prop54
  1
strokes_ogs.tif
102
RTVSPost2010PropOp54
 70
     1
102
RTVSPost2010Prop55
280
     0
102
RTVSPost2010PropOp55
 70
     1
102
RTVSPost2010Prop56
140
1.0
102
RTVSPost2010PropOp56
 70
     1
102
RTVSPost2010Prop57
140
1.0
102
RTVSPost2010PropOp57
 70
     1
102
RTVSPropertyOp0
 70
     1
102
RTVSPropertyOp1
 70
     1
102
RTVSPropertyOp2
 70
     1
102
RTVSPropertyOp3
 70
     1
102
RTVSPropertyOp4
 70
     1
102
RTVSPropertyOp5
 70
     1
102
RTVSPropertyOp6
 70
     1
102
RTVSPropertyOp7
 70
     1
102
RTVSPropertyOp8
 70
     1
102
RTVSPropertyOp9
 70
     1
102
RTVSPropertyOp10
 70
     1
102
RTVSPropertyOp11
 70
     1
102
RTVSPropertyOp12
 70
     1
102
RTVSPropertyOp13
 70
     1
102
RTVSPropertyOp14
 70
     1
102
RTVSPropertyOp15
 70
     1
102
RTVSPropertyOp16
 70
     1
102
RTVSPropertyOp17
 70
     1
102
RTVSPropertyOp18
 70
     1
102
RTVSPropertyOp19
 70
     1
102
RTVSPropertyOp20
 70
     1
102
RTVSPropertyOp21
 70
     1
102
RTVSPropertyOp22
 70
     1
102
RTVSPropertyOp23
 70
     1
102
RTVSPropertyOp24
 70
     1
102
RTVSPropertyOp25
 70
     1
102
RTVSPropertyOp26
 70
     1
102
RTVSPropertyOp27
 70
     1
102
RTVSPropertyOp28
 70
     1
102
RTVSPropertyOp29
 70
     1
102
RTVSPropertyOp30
 70
     1
102
RTVSPropertyOp31
 70
     1
102
RTVSPropertyOp32
 70
     1
102
RTVSPropertyOp33
 70
     1
102
RTVSPropertyOp34
 70
     1
102
RTVSPropertyOp35
 70
     1
102
RTVSPropertyOp36
 70
     1
102
RTVSPropertyOp37
 70
     1
102
RTVSPropertyOp38
 70
     1
102
RTVSPropertyOp39
 70
     1
102
RTVSPropertyOp40
 70
     1
102
RTVSPropertyOp41
 70
     1
102
RTVSPropertyOp42
 70
     1
102
RTVSPropertyOp43
 70
     1
102
RTVSPropertyOp44
 70
     1
102
RTVSPropertyOp45
 70
     1
102
RTVSPropertyOp46
 70
     1
102
RTVSPropertyOp47
 70
     1
102
RTVSPropertyOp48
 70
     1
102
RTVSPropertyOp49
 70
     1
102
RTVSPropertyOp50
 70
     1
102
RTVSPropertyOp51
 70
     0
102
RTVSPropertyOp52
 70
     0
102
RTVSPropertyOp53
 70
     1
102
RTVSPropertyOp54
 70
     1
102
RTVSPropertyOp55
 70
     1
102
RTVSPropertyOp56
 70
     1
102
RTVSPropertyOp57
 70
     1
102
RTVSPropertyOp58
 70
     1
102
RTVSPropertyOp59
 70
     1
102
RTVSPropertyOp60
 70
     1
102
RTVSPropertyOp61
 70
     1
102
RTVSPropertyOp62
 70
     1
  0
XRECORD
  5
11188
102
{ACAD_REACTORS
330
11187
102
}
330
11187
100
AcDbXrecord
280
     1
102
RTVSPost2010Prop28
280
     0
102
RTVSPost2010PropOp28
 70
     1
102
RTVSPost2010Prop29
280
     1
102
RTVSPost2010PropOp29
 70
     1
102
RTVSPost2010Prop30
280
     1
102
RTVSPost2010PropOp30
 70
     1
102
RTVSPost2010Prop31
280
     0
102
RTVSPost2010PropOp31
 70
     1
102
RTVSPost2010Prop32
280
     0
102
RTVSPost2010PropOp32
 70
     1
102
RTVSPost2010Prop33
280
     0
102
RTVSPost2010PropOp33
 70
     1
102
RTVSPost2010Prop34
280
     0
102
RTVSPost2010PropOp34
 70
     1
102
RTVSPost2010Prop35
280
     0
102
RTVSPost2010PropOp35
 70
     1
102
RTVSPost2010Prop36
280
     0
102
RTVSPost2010PropOp36
 70
     1
102
RTVSPost2010Prop37
 90
       50
102
RTVSPost2010PropOp37
 70
     1
102
RTVSPost2010Prop38
140
0.0
102
RTVSPost2010PropOp38
 70
     1
102
RTVSPost2010Prop39
140
1.0
102
RTVSPost2010PropOp39
 70
     1
102
RTVSPost2010Prop40
 90
        0
102
RTVSPost2010PropOp40
 70
     1
102
RTVSPost2010Prop41ColorIndex
 90
       18
102
RTVSPost2010Prop41ColorRGB
 90
        0
102
RTVSPost2010PropOp41
 70
     1
102
RTVSPost2010Prop42
 90
       50
102
RTVSPost2010PropOp42
 70
     1
102
RTVSPost2010Prop43
 90
        3
102
RTVSPost2010PropOp43
 70
     1
102
RTVSPost2010Prop44ColorIndex
 90
        5
102
RTVSPost2010Prop44ColorRGB
 90
      255
102
RTVSPost2010PropOp44
 70
     1
102
RTVSPost2010Prop45
280
     0
102
RTVSPost2010PropOp45
 70
     1
102
RTVSPost2010Prop46
 90
       50
102
RTVSPost2010PropOp46
 70
     1
102
RTVSPost2010Prop47
 90
       50
102
RTVSPost2010PropOp47
 70
     1
102
RTVSPost2010Prop48
 90
       50
102
RTVSPost2010PropOp48
 70
     1
102
RTVSPost2010Prop49
280
     0
102
RTVSPost2010PropOp49
 70
     1
102
RTVSPost2010Prop50
 90
       50
102
RTVSPost2010PropOp50
 70
     1
102
RTVSPost2010Prop51ColorIndex
 90
      256
102
RTVSPost2010Prop51ColorRGB
 90
-16777216
102
RTVSPost2010PropOp51
 70
     0
102
RTVSPost2010Prop52
140
1.0
102
RTVSPost2010PropOp52
 70
     0
102
RTVSPost2010Prop53
 90
        2
102
RTVSPost2010PropOp53
 70
     1
102
RTVSPost2010Prop54
  1
strokes_ogs.tif
102
RTVSPost2010PropOp54
 70
     1
102
RTVSPost2010Prop55
280
     0
102
RTVSPost2010PropOp55
 70
     1
102
RTVSPost2010Prop56
140
1.0
102
RTVSPost2010PropOp56
 70
     1
102
RTVSPost2010Prop57
140
1.0
102
RTVSPost2010PropOp57
 70
     1
102
RTVSPropertyOp0
 70
     1
102
RTVSPropertyOp1
 70
     1
102
RTVSPropertyOp2
 70
     1
102
RTVSPropertyOp3
 70
     1
102
RTVSPropertyOp4
 70
     1
102
RTVSPropertyOp5
 70
     1
102
RTVSPropertyOp6
 70
     1
102
RTVSPropertyOp7
 70
     1
102
RTVSPropertyOp8
 70
     1
102
RTVSPropertyOp9
 70
     1
102
RTVSPropertyOp10
 70
     1
102
RTVSPropertyOp11
 70
     1
102
RTVSPropertyOp12
 70
     1
102
RTVSPropertyOp13
 70
     1
102
RTVSPropertyOp14
 70
     1
102
RTVSPropertyOp15
 70
     1
102
RTVSPropertyOp16
 70
     1
102
RTVSPropertyOp17
 70
     1
102
RTVSPropertyOp18
 70
     1
102
RTVSPropertyOp19
 70
     1
102
RTVSPropertyOp20
 70
     1
102
RTVSPropertyOp21
 70
     1
102
RTVSPropertyOp22
 70
     1
102
RTVSPropertyOp23
 70
     1
102
RTVSPropertyOp24
 70
     1
102
RTVSPropertyOp25
 70
     1
102
RTVSPropertyOp26
 70
     1
102
RTVSPropertyOp27
 70
     1
102
RTVSPropertyOp28
 70
     1
102
RTVSPropertyOp29
 70
     1
102
RTVSPropertyOp30
 70
     1
102
RTVSPropertyOp31
 70
     1
102
RTVSPropertyOp32
 70
     1
102
RTVSPropertyOp33
 70
     1
102
RTVSPropertyOp34
 70
     1
102
RTVSPropertyOp35
 70
     1
102
RTVSPropertyOp36
 70
     1
102
RTVSPropertyOp37
 70
     1
102
RTVSPropertyOp38
 70
     1
102
RTVSPropertyOp39
 70
     1
102
RTVSPropertyOp40
 70
     1
102
RTVSPropertyOp41
 70
     1
102
RTVSPropertyOp42
 70
     1
102
RTVSPropertyOp43
 70
     1
102
RTVSPropertyOp44
 70
     1
102
RTVSPropertyOp45
 70
     1
102
RTVSPropertyOp46
 70
     1
102
RTVSPropertyOp47
 70
     1
102
RTVSPropertyOp48
 70
     1
102
RTVSPropertyOp49
 70
     1
102
RTVSPropertyOp50
 70
     1
102
RTVSPropertyOp51
 70
     0
102
RTVSPropertyOp52
 70
     0
102
RTVSPropertyOp53
 70
     1
102
RTVSPropertyOp54
 70
     1
102
RTVSPropertyOp55
 70
     1
102
RTVSPropertyOp56
 70
     1
102
RTVSPropertyOp57
 70
     1
102
RTVSPropertyOp58
 70
     1
102
RTVSPropertyOp59
 70
     1
102
RTVSPropertyOp60
 70
     1
102
RTVSPropertyOp61
 70
     1
102
RTVSPropertyOp62
 70
     1
  0
XRECORD
  5
1117E
102
{ACAD_REACTORS
330
1117D
102
}
330
1117D
100
AcDbXrecord
280
     1
102
RTVSPost2010Prop28
280
     0
102
RTVSPost2010PropOp28
 70
     1
102
RTVSPost2010Prop29
280
     1
102
RTVSPost2010PropOp29
 70
     1
102
RTVSPost2010Prop30
280
     1
102
RTVSPost2010PropOp30
 70
     1
102
RTVSPost2010Prop31
280
     0
102
RTVSPost2010PropOp31
 70
     1
102
RTVSPost2010Prop32
280
     0
102
RTVSPost2010PropOp32
 70
     1
102
RTVSPost2010Prop33
280
     0
102
RTVSPost2010PropOp33
 70
     1
102
RTVSPost2010Prop34
280
     0
102
RTVSPost2010PropOp34
 70
     1
102
RTVSPost2010Prop35
280
     0
102
RTVSPost2010PropOp35
 70
     1
102
RTVSPost2010Prop36
280
     0
102
RTVSPost2010PropOp36
 70
     1
102
RTVSPost2010Prop37
 90
       50
102
RTVSPost2010PropOp37
 70
     1
102
RTVSPost2010Prop38
140
0.0
102
RTVSPost2010PropOp38
 70
     1
102
RTVSPost2010Prop39
140
1.0
102
RTVSPost2010PropOp39
 70
     1
102
RTVSPost2010Prop40
 90
        0
102
RTVSPost2010PropOp40
 70
     1
102
RTVSPost2010Prop41ColorIndex
 90
       18
102
RTVSPost2010Prop41ColorRGB
 90
        0
102
RTVSPost2010PropOp41
 70
     1
102
RTVSPost2010Prop42
 90
       50
102
RTVSPost2010PropOp42
 70
     1
102
RTVSPost2010Prop43
 90
        3
102
RTVSPost2010PropOp43
 70
     1
102
RTVSPost2010Prop44ColorIndex
 90
        5
102
RTVSPost2010Prop44ColorRGB
 90
      255
102
RTVSPost2010PropOp44
 70
     1
102
RTVSPost2010Prop45
280
     0
102
RTVSPost2010PropOp45
 70
     1
102
RTVSPost2010Prop46
 90
       50
102
RTVSPost2010PropOp46
 70
     1
102
RTVSPost2010Prop47
 90
       50
102
RTVSPost2010PropOp47
 70
     1
102
RTVSPost2010Prop48
 90
       50
102
RTVSPost2010PropOp48
 70
     1
102
RTVSPost2010Prop49
280
     0
102
RTVSPost2010PropOp49
 70
     1
102
RTVSPost2010Prop50
 90
       50
102
RTVSPost2010PropOp50
 70
     1
102
RTVSPost2010Prop51ColorIndex
 90
      256
102
RTVSPost2010Prop51ColorRGB
 90
-16777216
102
RTVSPost2010PropOp51
 70
     0
102
RTVSPost2010Prop52
140
1.0
102
RTVSPost2010PropOp52
 70
     0
102
RTVSPost2010Prop53
 90
        2
102
RTVSPost2010PropOp53
 70
     1
102
RTVSPost2010Prop54
  1
strokes_ogs.tif
102
RTVSPost2010PropOp54
 70
     1
102
RTVSPost2010Prop55
280
     0
102
RTVSPost2010PropOp55
 70
     1
102
RTVSPost2010Prop56
140
1.0
102
RTVSPost2010PropOp56
 70
     1
102
RTVSPost2010Prop57
140
1.0
102
RTVSPost2010PropOp57
 70
     1
102
RTVSPropertyOp0
 70
     1
102
RTVSPropertyOp1
 70
     1
102
RTVSPropertyOp2
 70
     1
102
RTVSPropertyOp3
 70
     1
102
RTVSPropertyOp4
 70
     1
102
RTVSPropertyOp5
 70
     1
102
RTVSPropertyOp6
 70
     1
102
RTVSPropertyOp7
 70
     1
102
RTVSPropertyOp8
 70
     1
102
RTVSPropertyOp9
 70
     1
102
RTVSPropertyOp10
 70
     1
102
RTVSPropertyOp11
 70
     1
102
RTVSPropertyOp12
 70
     1
102
RTVSPropertyOp13
 70
     1
102
RTVSPropertyOp14
 70
     1
102
RTVSPropertyOp15
 70
     1
102
RTVSPropertyOp16
 70
     1
102
RTVSPropertyOp17
 70
     1
102
RTVSPropertyOp18
 70
     1
102
RTVSPropertyOp19
 70
     1
102
RTVSPropertyOp20
 70
     1
102
RTVSPropertyOp21
 70
     1
102
RTVSPropertyOp22
 70
     1
102
RTVSPropertyOp23
 70
     1
102
RTVSPropertyOp24
 70
     1
102
RTVSPropertyOp25
 70
     1
102
RTVSPropertyOp26
 70
     1
102
RTVSPropertyOp27
 70
     1
102
RTVSPropertyOp28
 70
     1
102
RTVSPropertyOp29
 70
     1
102
RTVSPropertyOp30
 70
     1
102
RTVSPropertyOp31
 70
     1
102
RTVSPropertyOp32
 70
     1
102
RTVSPropertyOp33
 70
     1
102
RTVSPropertyOp34
 70
     1
102
RTVSPropertyOp35
 70
     1
102
RTVSPropertyOp36
 70
     1
102
RTVSPropertyOp37
 70
     1
102
RTVSPropertyOp38
 70
     1
102
RTVSPropertyOp39
 70
     1
102
RTVSPropertyOp40
 70
     1
102
RTVSPropertyOp41
 70
     1
102
RTVSPropertyOp42
 70
     1
102
RTVSPropertyOp43
 70
     1
102
RTVSPropertyOp44
 70
     1
102
RTVSPropertyOp45
 70
     1
102
RTVSPropertyOp46
 70
     1
102
RTVSPropertyOp47
 70
     1
102
RTVSPropertyOp48
 70
     1
102
RTVSPropertyOp49
 70
     1
102
RTVSPropertyOp50
 70
     1
102
RTVSPropertyOp51
 70
     0
102
RTVSPropertyOp52
 70
     0
102
RTVSPropertyOp53
 70
     1
102
RTVSPropertyOp54
 70
     1
102
RTVSPropertyOp55
 70
     1
102
RTVSPropertyOp56
 70
     1
102
RTVSPropertyOp57
 70
     1
102
RTVSPropertyOp58
 70
     1
102
RTVSPropertyOp59
 70
     1
102
RTVSPropertyOp60
 70
     1
102
RTVSPropertyOp61
 70
     1
102
RTVSPropertyOp62
 70
     1
  0
XRECORD
  5
11172
102
{ACAD_REACTORS
330
11171
102
}
330
11171
100
AcDbXrecord
280
     1
102
RTVSPost2010Prop28
280
     0
102
RTVSPost2010PropOp28
 70
     1
102
RTVSPost2010Prop29
280
     1
102
RTVSPost2010PropOp29
 70
     1
102
RTVSPost2010Prop30
280
     1
102
RTVSPost2010PropOp30
 70
     1
102
RTVSPost2010Prop31
280
     0
102
RTVSPost2010PropOp31
 70
     1
102
RTVSPost2010Prop32
280
     0
102
RTVSPost2010PropOp32
 70
     1
102
RTVSPost2010Prop33
280
     0
102
RTVSPost2010PropOp33
 70
     1
102
RTVSPost2010Prop34
280
     0
102
RTVSPost2010PropOp34
 70
     1
102
RTVSPost2010Prop35
280
     0
102
RTVSPost2010PropOp35
 70
     1
102
RTVSPost2010Prop36
280
     0
102
RTVSPost2010PropOp36
 70
     1
102
RTVSPost2010Prop37
 90
       50
102
RTVSPost2010PropOp37
 70
     1
102
RTVSPost2010Prop38
140
0.0
102
RTVSPost2010PropOp38
 70
     1
102
RTVSPost2010Prop39
140
1.0
102
RTVSPost2010PropOp39
 70
     1
102
RTVSPost2010Prop40
 90
        0
102
RTVSPost2010PropOp40
 70
     1
102
RTVSPost2010Prop41ColorIndex
 90
       18
102
RTVSPost2010Prop41ColorRGB
 90
        0
102
RTVSPost2010PropOp41
 70
     1
102
RTVSPost2010Prop42
 90
       50
102
RTVSPost2010PropOp42
 70
     1
102
RTVSPost2010Prop43
 90
        3
102
RTVSPost2010PropOp43
 70
     1
102
RTVSPost2010Prop44ColorIndex
 90
        5
102
RTVSPost2010Prop44ColorRGB
 90
      255
102
RTVSPost2010PropOp44
 70
     1
102
RTVSPost2010Prop45
280
     0
102
RTVSPost2010PropOp45
 70
     1
102
RTVSPost2010Prop46
 90
       50
102
RTVSPost2010PropOp46
 70
     1
102
RTVSPost2010Prop47
 90
       50
102
RTVSPost2010PropOp47
 70
     1
102
RTVSPost2010Prop48
 90
       50
102
RTVSPost2010PropOp48
 70
     1
102
RTVSPost2010Prop49
280
     0
102
RTVSPost2010PropOp49
 70
     1
102
RTVSPost2010Prop50
 90
       50
102
RTVSPost2010PropOp50
 70
     1
102
RTVSPost2010Prop51ColorIndex
 90
      256
102
RTVSPost2010Prop51ColorRGB
 90
-16777216
102
RTVSPost2010PropOp51
 70
     0
102
RTVSPost2010Prop52
140
1.0
102
RTVSPost2010PropOp52
 70
     0
102
RTVSPost2010Prop53
 90
        2
102
RTVSPost2010PropOp53
 70
     1
102
RTVSPost2010Prop54
  1
strokes_ogs.tif
102
RTVSPost2010PropOp54
 70
     1
102
RTVSPost2010Prop55
280
     0
102
RTVSPost2010PropOp55
 70
     1
102
RTVSPost2010Prop56
140
1.0
102
RTVSPost2010PropOp56
 70
     1
102
RTVSPost2010Prop57
140
1.0
102
RTVSPost2010PropOp57
 70
     1
102
RTVSPropertyOp0
 70
     1
102
RTVSPropertyOp1
 70
     1
102
RTVSPropertyOp2
 70
     1
102
RTVSPropertyOp3
 70
     1
102
RTVSPropertyOp4
 70
     1
102
RTVSPropertyOp5
 70
     1
102
RTVSPropertyOp6
 70
     1
102
RTVSPropertyOp7
 70
     1
102
RTVSPropertyOp8
 70
     1
102
RTVSPropertyOp9
 70
     1
102
RTVSPropertyOp10
 70
     1
102
RTVSPropertyOp11
 70
     1
102
RTVSPropertyOp12
 70
     1
102
RTVSPropertyOp13
 70
     1
102
RTVSPropertyOp14
 70
     1
102
RTVSPropertyOp15
 70
     1
102
RTVSPropertyOp16
 70
     1
102
RTVSPropertyOp17
 70
     1
102
RTVSPropertyOp18
 70
     1
102
RTVSPropertyOp19
 70
     1
102
RTVSPropertyOp20
 70
     1
102
RTVSPropertyOp21
 70
     1
102
RTVSPropertyOp22
 70
     1
102
RTVSPropertyOp23
 70
     1
102
RTVSPropertyOp24
 70
     1
102
RTVSPropertyOp25
 70
     1
102
RTVSPropertyOp26
 70
     1
102
RTVSPropertyOp27
 70
     1
102
RTVSPropertyOp28
 70
     1
102
RTVSPropertyOp29
 70
     1
102
RTVSPropertyOp30
 70
     1
102
RTVSPropertyOp31
 70
     1
102
RTVSPropertyOp32
 70
     1
102
RTVSPropertyOp33
 70
     1
102
RTVSPropertyOp34
 70
     1
102
RTVSPropertyOp35
 70
     1
102
RTVSPropertyOp36
 70
     1
102
RTVSPropertyOp37
 70
     1
102
RTVSPropertyOp38
 70
     1
102
RTVSPropertyOp39
 70
     1
102
RTVSPropertyOp40
 70
     1
102
RTVSPropertyOp41
 70
     1
102
RTVSPropertyOp42
 70
     1
102
RTVSPropertyOp43
 70
     1
102
RTVSPropertyOp44
 70
     1
102
RTVSPropertyOp45
 70
     1
102
RTVSPropertyOp46
 70
     1
102
RTVSPropertyOp47
 70
     1
102
RTVSPropertyOp48
 70
     1
102
RTVSPropertyOp49
 70
     1
102
RTVSPropertyOp50
 70
     1
102
RTVSPropertyOp51
 70
     0
102
RTVSPropertyOp52
 70
     0
102
RTVSPropertyOp53
 70
     1
102
RTVSPropertyOp54
 70
     1
102
RTVSPropertyOp55
 70
     1
102
RTVSPropertyOp56
 70
     1
102
RTVSPropertyOp57
 70
     1
102
RTVSPropertyOp58
 70
     1
102
RTVSPropertyOp59
 70
     1
102
RTVSPropertyOp60
 70
     1
102
RTVSPropertyOp61
 70
     1
102
RTVSPropertyOp62
 70
     1
  0
XRECORD
  5
1118A
102
{ACAD_REACTORS
330
11189
102
}
330
11189
100
AcDbXrecord
280
     1
102
RTVSPost2010Prop28
280
     0
102
RTVSPost2010PropOp28
 70
     1
102
RTVSPost2010Prop29
280
     1
102
RTVSPost2010PropOp29
 70
     1
102
RTVSPost2010Prop30
280
     1
102
RTVSPost2010PropOp30
 70
     1
102
RTVSPost2010Prop31
280
     0
102
RTVSPost2010PropOp31
 70
     1
102
RTVSPost2010Prop32
280
     0
102
RTVSPost2010PropOp32
 70
     1
102
RTVSPost2010Prop33
280
     0
102
RTVSPost2010PropOp33
 70
     1
102
RTVSPost2010Prop34
280
     0
102
RTVSPost2010PropOp34
 70
     1
102
RTVSPost2010Prop35
280
     0
102
RTVSPost2010PropOp35
 70
     1
102
RTVSPost2010Prop36
280
     0
102
RTVSPost2010PropOp36
 70
     1
102
RTVSPost2010Prop37
 90
       50
102
RTVSPost2010PropOp37
 70
     1
102
RTVSPost2010Prop38
140
0.0
102
RTVSPost2010PropOp38
 70
     1
102
RTVSPost2010Prop39
140
1.0
102
RTVSPost2010PropOp39
 70
     1
102
RTVSPost2010Prop40
 90
        0
102
RTVSPost2010PropOp40
 70
     1
102
RTVSPost2010Prop41ColorIndex
 90
       18
102
RTVSPost2010Prop41ColorRGB
 90
        0
102
RTVSPost2010PropOp41
 70
     1
102
RTVSPost2010Prop42
 90
       50
102
RTVSPost2010PropOp42
 70
     1
102
RTVSPost2010Prop43
 90
        3
102
RTVSPost2010PropOp43
 70
     1
102
RTVSPost2010Prop44ColorIndex
 90
        5
102
RTVSPost2010Prop44ColorRGB
 90
      255
102
RTVSPost2010PropOp44
 70
     1
102
RTVSPost2010Prop45
280
     0
102
RTVSPost2010PropOp45
 70
     1
102
RTVSPost2010Prop46
 90
       50
102
RTVSPost2010PropOp46
 70
     1
102
RTVSPost2010Prop47
 90
       50
102
RTVSPost2010PropOp47
 70
     1
102
RTVSPost2010Prop48
 90
       50
102
RTVSPost2010PropOp48
 70
     1
102
RTVSPost2010Prop49
280
     0
102
RTVSPost2010PropOp49
 70
     1
102
RTVSPost2010Prop50
 90
       50
102
RTVSPost2010PropOp50
 70
     1
102
RTVSPost2010Prop51ColorIndex
 90
      256
102
RTVSPost2010Prop51ColorRGB
 90
-16777216
102
RTVSPost2010PropOp51
 70
     0
102
RTVSPost2010Prop52
140
1.0
102
RTVSPost2010PropOp52
 70
     0
102
RTVSPost2010Prop53
 90
        2
102
RTVSPost2010PropOp53
 70
     1
102
RTVSPost2010Prop54
  1
strokes_ogs.tif
102
RTVSPost2010PropOp54
 70
     1
102
RTVSPost2010Prop55
280
     0
102
RTVSPost2010PropOp55
 70
     1
102
RTVSPost2010Prop56
140
1.0
102
RTVSPost2010PropOp56
 70
     1
102
RTVSPost2010Prop57
140
1.0
102
RTVSPost2010PropOp57
 70
     1
102
RTVSPropertyOp0
 70
     1
102
RTVSPropertyOp1
 70
     1
102
RTVSPropertyOp2
 70
     1
102
RTVSPropertyOp3
 70
     1
102
RTVSPropertyOp4
 70
     1
102
RTVSPropertyOp5
 70
     1
102
RTVSPropertyOp6
 70
     1
102
RTVSPropertyOp7
 70
     1
102
RTVSPropertyOp8
 70
     1
102
RTVSPropertyOp9
 70
     1
102
RTVSPropertyOp10
 70
     1
102
RTVSPropertyOp11
 70
     1
102
RTVSPropertyOp12
 70
     1
102
RTVSPropertyOp13
 70
     1
102
RTVSPropertyOp14
 70
     1
102
RTVSPropertyOp15
 70
     1
102
RTVSPropertyOp16
 70
     1
102
RTVSPropertyOp17
 70
     1
102
RTVSPropertyOp18
 70
     1
102
RTVSPropertyOp19
 70
     1
102
RTVSPropertyOp20
 70
     1
102
RTVSPropertyOp21
 70
     1
102
RTVSPropertyOp22
 70
     1
102
RTVSPropertyOp23
 70
     1
102
RTVSPropertyOp24
 70
     1
102
RTVSPropertyOp25
 70
     1
102
RTVSPropertyOp26
 70
     1
102
RTVSPropertyOp27
 70
     1
102
RTVSPropertyOp28
 70
     1
102
RTVSPropertyOp29
 70
     1
102
RTVSPropertyOp30
 70
     1
102
RTVSPropertyOp31
 70
     1
102
RTVSPropertyOp32
 70
     1
102
RTVSPropertyOp33
 70
     1
102
RTVSPropertyOp34
 70
     1
102
RTVSPropertyOp35
 70
     1
102
RTVSPropertyOp36
 70
     1
102
RTVSPropertyOp37
 70
     1
102
RTVSPropertyOp38
 70
     1
102
RTVSPropertyOp39
 70
     1
102
RTVSPropertyOp40
 70
     1
102
RTVSPropertyOp41
 70
     1
102
RTVSPropertyOp42
 70
     1
102
RTVSPropertyOp43
 70
     1
102
RTVSPropertyOp44
 70
     1
102
RTVSPropertyOp45
 70
     1
102
RTVSPropertyOp46
 70
     1
102
RTVSPropertyOp47
 70
     1
102
RTVSPropertyOp48
 70
     1
102
RTVSPropertyOp49
 70
     1
102
RTVSPropertyOp50
 70
     1
102
RTVSPropertyOp51
 70
     0
102
RTVSPropertyOp52
 70
     0
102
RTVSPropertyOp53
 70
     1
102
RTVSPropertyOp54
 70
     1
102
RTVSPropertyOp55
 70
     1
102
RTVSPropertyOp56
 70
     1
102
RTVSPropertyOp57
 70
     1
102
RTVSPropertyOp58
 70
     1
102
RTVSPropertyOp59
 70
     1
102
RTVSPropertyOp60
 70
     1
102
RTVSPropertyOp61
 70
     1
102
RTVSPropertyOp62
 70
     1
  0
ENDSEC
  0
EOF
