  0
SECTION
  2
HEADER
  9
$ACADVER
  1
AC1015
  9
$ACADMAINTVER
 70
    20
  9
$DWGCODEPAGE
  3
ANSI_932
  9
$INSBASE
 10
0.0
 20
0.0
 30
0.0
  9
$EXTMIN
 10
-1016.827772257558
 20
-636.2367238854294
 30
-0.0000000349181948
  9
$EXTMAX
 10
1772.370725842422
 20
2239.842721592564
 30
0.0000000814935747
  9
$LIMMIN
 10
-1974.196167129426
 20
-1062.178772772451
  9
$LIMMAX
 10
2192.498906419125
 20
2376.419103388499
  9
$ORTHOMODE
 70
     0
  9
$REGENMODE
 70
     1
  9
$FILLMODE
 70
     1
  9
$QTEXTMODE
 70
     0
  9
$MIRRTEXT
 70
     0
  9
$LTSCALE
 40
20.0
  9
$ATTMODE
 70
     1
  9
$TEXTSIZE
 40
64.0
  9
$TRACEWID
 40
0.05
  9
$TEXTSTYLE
  7
STANDARD
  9
$CLAYER
  8
SIZE
  9
$CELTYPE
  6
BYLAYER
  9
$CECOLOR
 62
   256
  9
$CELTSCALE
 40
1.0
  9
$DISPSILH
 70
     0
  9
$DIMSCALE
 40
0.0
  9
$DIMASZ
 40
12.0
  9
$DIMEXO
 40
20.0
  9
$DIMDLI
 40
10.0
  9
$DIMRND
 40
0.0
  9
$DIMDLE
 40
0.0
  9
$DIMEXE
 40
30.0
  9
$DIMTP
 40
0.0
  9
$DIMTM
 40
0.0
  9
$DIMTXT
 40
50.0
  9
$DIMCEN
 40
0.0
  9
$DIMTSZ
 40
0.0
  9
$DIMTOL
 70
     0
  9
$DIMLIM
 70
     0
  9
$DIMTIH
 70
     0
  9
$DIMTOH
 70
     0
  9
$DIMSE1
 70
     0
  9
$DIMSE2
 70
     0
  9
$DIMTAD
 70
     1
  9
$DIMZIN
 70
     0
  9
$DIMBLK
  1

  9
$DIMASO
 70
     1
  9
$DIMSHO
 70
     0
  9
$DIMPOST
  1

  9
$DIMAPOST
  1

  9
$DIMALT
 70
     0
  9
$DIMALTD
 70
     2
  9
$DIMALTF
 40
25.4
  9
$DIMLFAC
 40
1.0
  9
$DIMTOFL
 70
     1
  9
$DIMTVP
 40
0.0
  9
$DIMTIX
 70
     0
  9
$DIMSOXD
 70
     0
  9
$DIMSAH
 70
     1
  9
$DIMBLK1
  1
ORIGIN
  9
$DIMBLK2
  1
ORIGIN
  9
$DIMSTYLE
  2
STANDARD
  9
$DIMCLRD
 70
     0
  9
$DIMCLRE
 70
     0
  9
$DIMCLRT
 70
     0
  9
$DIMTFAC
 40
1.0
  9
$DIMGAP
 40
20.0
  9
$DIMJUST
 70
     0
  9
$DIMSD1
 70
     0
  9
$DIMSD2
 70
     0
  9
$DIMTOLJ
 70
     1
  9
$DIMTZIN
 70
     0
  9
$DIMALTZ
 70
     0
  9
$DIMALTTZ
 70
     0
  9
$DIMUPT
 70
     0
  9
$DIMDEC
 70
     0
  9
$DIMTDEC
 70
     0
  9
$DIMALTU
 70
     2
  9
$DIMALTTD
 70
     2
  9
$DIMTXSTY
  7
STANDARD
  9
$DIMAUNIT
 70
     0
  9
$DIMADEC
 70
     0
  9
$DIMALTRND
 40
0.0
  9
$DIMAZIN
 70
     0
  9
$DIMDSEP
 70
    46
  9
$DIMATFIT
 70
     3
  9
$DIMFRAC
 70
     0
  9
$DIMLDRBLK
  1
ORIGIN
  9
$DIMLUNIT
 70
     2
  9
$DIMLWD
 70
    -2
  9
$DIMLWE
 70
    -2
  9
$DIMTMOVE
 70
     0
  9
$LUNITS
 70
     2
  9
$LUPREC
 70
     4
  9
$SKETCHINC
 40
0.1
  9
$FILLETRAD
 40
50.0
  9
$AUNITS
 70
     1
  9
$AUPREC
 70
     3
  9
$MENU
  1
ACAD
  9
$ELEVATION
 40
0.0
  9
$PELEVATION
 40
0.0
  9
$THICKNESS
 40
0.0
  9
$LIMCHECK
 70
     0
  9
$CHAMFERA
 40
0.0
  9
$CHAMFERB
 40
0.0
  9
$CHAMFERC
 40
0.0
  9
$CHAMFERD
 40
0.0
  9
$SKPOLY
 70
     0
  9
$TDCREATE
 40
2449761.493622685
  9
$TDUCREATE
 40
2449761.118622685
  9
$TDUPDATE
 40
2458113.631238426
  9
$TDUUPDATE
 40
2458113.256238426
  9
$TDINDWG
 40
6.7229577662
  9
$TDUSRTIMER
 40
6.7229577662
  9
$USRTIMER
 70
     1
  9
$ANGBASE
 50
0.0
  9
$ANGDIR
 70
     0
  9
$PDMODE
 70
    35
  9
$PDSIZE
 40
20.0
  9
$PLINEWID
 40
0.0
  9
$SPLFRAME
 70
     0
  9
$SPLINETYPE
 70
     6
  9
$SPLINESEGS
 70
     8
  9
$HANDSEED
  5
5361E
  9
$SURFTAB1
 70
     6
  9
$SURFTAB2
 70
     6
  9
$SURFTYPE
 70
     6
  9
$SURFU
 70
     6
  9
$SURFV
 70
     6
  9
$UCSBASE
  2

  9
$UCSNAME
  2

  9
$UCSORG
 10
0.0
 20
0.0
 30
0.0
  9
$UCSXDIR
 10
1.0
 20
0.0
 30
0.0
  9
$UCSYDIR
 10
0.0
 20
1.0
 30
0.0
  9
$UCSORTHOREF
  2

  9
$UCSORTHOVIEW
 70
     0
  9
$UCSORGTOP
 10
0.0
 20
0.0
 30
0.0
  9
$UCSORGBOTTOM
 10
0.0
 20
0.0
 30
0.0
  9
$UCSORGLEFT
 10
0.0
 20
0.0
 30
0.0
  9
$UCSORGRIGHT
 10
0.0
 20
0.0
 30
0.0
  9
$UCSORGFRONT
 10
0.0
 20
0.0
 30
0.0
  9
$UCSORGBACK
 10
0.0
 20
0.0
 30
0.0
  9
$PUCSBASE
  2

  9
$PUCSNAME
  2

  9
$PUCSORG
 10
0.0
 20
0.0
 30
0.0
  9
$PUCSXDIR
 10
1.0
 20
0.0
 30
0.0
  9
$PUCSYDIR
 10
0.0
 20
1.0
 30
0.0
  9
$PUCSORTHOREF
  2

  9
$PUCSORTHOVIEW
 70
     0
  9
$PUCSORGTOP
 10
0.0
 20
0.0
 30
0.0
  9
$PUCSORGBOTTOM
 10
0.0
 20
0.0
 30
0.0
  9
$PUCSORGLEFT
 10
0.0
 20
0.0
 30
0.0
  9
$PUCSORGRIGHT
 10
0.0
 20
0.0
 30
0.0
  9
$PUCSORGFRONT
 10
0.0
 20
0.0
 30
0.0
  9
$PUCSORGBACK
 10
0.0
 20
0.0
 30
0.0
  9
$USERI1
 70
     0
  9
$USERI2
 70
     0
  9
$USERI3
 70
     0
  9
$USERI4
 70
     0
  9
$USERI5
 70
     0
  9
$USERR1
 40
20.0
  9
$USERR2
 40
0.0
  9
$USERR3
 40
0.0
  9
$USERR4
 40
0.0
  9
$USERR5
 40
0.0
  9
$WORLDVIEW
 70
     1
  9
$SHADEDGE
 70
     3
  9
$SHADEDIF
 70
    70
  9
$TILEMODE
 70
     1
  9
$MAXACTVP
 70
    48
  9
$PINSBASE
 10
0.0
 20
0.0
 30
0.0
  9
$PLIMCHECK
 70
     0
  9
$PEXTMIN
 10
1.000000000000000E+20
 20
1.000000000000000E+20
 30
1.000000000000000E+20
  9
$PEXTMAX
 10
-1.000000000000000E+20
 20
-1.000000000000000E+20
 30
-1.000000000000000E+20
  9
$PLIMMIN
 10
0.0
 20
0.0
  9
$PLIMMAX
 10
12.0
 20
9.0
  9
$UNITMODE
 70
     0
  9
$VISRETAIN
 70
     1
  9
$PLINEGEN
 70
     0
  9
$PSLTSCALE
 70
     1
  9
$TREEDEPTH
 70
  3020
  9
$CMLSTYLE
  2
STANDARD
  9
$CMLJUST
 70
     0
  9
$CMLSCALE
 40
1.0
  9
$PROXYGRAPHICS
 70
     1
  9
$MEASUREMENT
 70
     0
  9
$CELWEIGHT
370
    -1
  9
$ENDCAPS
280
     0
  9
$JOINSTYLE
280
     0
  9
$LWDISPLAY
290
     0
  9
$INSUNITS
 70
     0
  9
$HYPERLINKBASE
  1

  9
$STYLESHEET
  1
MONOCHROME.CTB
  9
$XEDIT
290
     1
  9
$CEPSNTYPE
380
     0
  9
$PSTYLEMODE
290
     1
  9
$FINGERPRINTGUID
  2
{A4E2D666-79C1-40CA-A6AF-C72AE7BABF3A}
  9
$VERSIONGUID
  2
{99D593A7-0DD2-0F4D-8623-3D2B1F263322}
  9
$EXTNAMES
290
     1
  9
$PSVPSCALE
 40
0.0
  9
$OLESTARTUP
290
     0
  0
ENDSEC
  0
SECTION
  2
CLASSES
  0
CLASS
  1
ACDBDICTIONARYWDFLT
  2
AcDbDictionaryWithDefault
  3
ObjectDBX Classes
 90
        0
280
     0
281
     0
  0
CLASS
  1
ACDBPLACEHOLDER
  2
AcDbPlaceHolder
  3
ObjectDBX Classes
 90
        0
280
     0
281
     0
  0
CLASS
  1
LAYOUT
  2
AcDbLayout
  3
ObjectDBX Classes
 90
        0
280
     0
281
     0
  0
CLASS
  1
DICTIONARYVAR
  2
AcDbDictionaryVar
  3
ObjectDBX Classes
 90
        0
280
     0
281
     0
  0
CLASS
  1
MATERIAL
  2
AcDbMaterial
  3
ObjectDBX Classes
 90
     1153
280
     0
281
     0
  0
CLASS
  1
VISUALSTYLE
  2
AcDbVisualStyle
  3
ObjectDBX Classes
 90
     4095
280
     0
281
     0
  0
CLASS
  1
TABLESTYLE
  2
AcDbTableStyle
  3
ObjectDBX Classes
 90
     4095
280
     0
281
     0
  0
CLASS
  1
SCALE
  2
AcDbScale
  3
ObjectDBX Classes
 90
     1153
280
     0
281
     0
  0
CLASS
  1
MLEADERSTYLE
  2
AcDbMLeaderStyle
  3
ACDB_MLEADERSTYLE_CLASS
 90
     4095
280
     0
281
     0
  0
CLASS
  1
ACDBSECTIONVIEWSTYLE
  2
AcDbSectionViewStyle
  3
ObjectDBX Classes
 90
     1025
280
     0
281
     0
  0
CLASS
  1
ACDBDETAILVIEWSTYLE
  2
AcDbDetailViewStyle
  3
ObjectDBX Classes
 90
     1025
280
     0
281
     0
  0
CLASS
  1
CELLSTYLEMAP
  2
AcDbCellStyleMap
  3
ObjectDBX Classes
 90
     1152
280
     0
281
     0
  0
ENDSEC
  0
SECTION
  2
TABLES
  0
TABLE
  2
VPORT
  5
8
330
0
100
AcDbSymbolTable
 70
     1
  0
VPORT
  5
534B7
330
8
100
AcDbSymbolTableRecord
100
AcDbViewportTableRecord
  2
*ACTIVE
 70
     0
 10
0.0
 20
0.0
 11
1.0
 21
1.0
 12
377.7714767924317
 22
801.8029988535673
 13
0.0
 23
0.0
 14
50.0
 24
50.0
 15
100.0
 25
100.0
 16
0.0
 26
0.0
 36
1.0
 17
0.0
 27
0.0
 37
0.0
 40
2899.273634554429
 41
2.060565275908479
 42
50.0
 43
0.0
 44
0.0
 50
0.0
 51
0.0
 71
     0
 72
  1000
 73
     1
 74
     0
 75
     0
 76
     0
 77
     0
 78
     0
281
     0
 65
     1
110
0.0
120
0.0
130
0.0
111
1.0
121
0.0
131
0.0
112
0.0
122
1.0
132
0.0
 79
     0
146
0.0
1001
ACAD_NAV_VCDISPLAY
1070
     3
  0
ENDTAB
  0
TABLE
  2
LTYPE
  5
5
330
0
100
AcDbSymbolTable
 70
     2
  0
LTYPE
  5
12
330
5
100
AcDbSymbolTableRecord
100
AcDbLinetypeTableRecord
  2
BYBLOCK
 70
     0
  3

 72
    65
 73
     0
 40
0.0
  0
LTYPE
  5
13
330
5
100
AcDbSymbolTableRecord
100
AcDbLinetypeTableRecord
  2
BYLAYER
 70
     0
  3

 72
    65
 73
     0
 40
0.0
  0
LTYPE
  5
14
330
5
100
AcDbSymbolTableRecord
100
AcDbLinetypeTableRecord
  2
CONTINUOUS
 70
     0
  3
実線
 72
    65
 73
     0
 40
0.0
  0
LTYPE
  5
22
330
5
100
AcDbSymbolTableRecord
100
AcDbLinetypeTableRecord
  2
DASHDOT
 70
     0
  3
____ _ ____ _ ____ _ ____ _ ____ _ ____ _ ____
 72
    65
 73
     4
 40
5.5
 49
4.0
 74
     0
 49
-0.6
 74
     0
 49
0.3
 74
     0
 49
-0.6
 74
     0
  0
ENDTAB
  0
TABLE
  2
LAYER
  5
2
330
0
100
AcDbSymbolTable
 70
    10
  0
LAYER
  5
E
102
{ACAD_XDICTIONARY
360
53533
102
}
330
2
100
AcDbSymbolTableRecord
100
AcDbLayerTableRecord
  2
0
 70
     0
 62
     7
  6
CONTINUOUS
370
    -3
390
FD8
  0
LAYER
  5
1F
102
{ACAD_XDICTIONARY
360
53535
102
}
330
2
100
AcDbSymbolTableRecord
100
AcDbLayerTableRecord
  2
SIZE
 70
     0
 62
    30
  6
CONTINUOUS
370
    -3
390
FD8
  0
LAYER
  5
23
102
{ACAD_XDICTIONARY
360
53537
102
}
330
2
100
AcDbSymbolTableRecord
100
AcDbLayerTableRecord
  2
OUTLINE
 70
     0
 62
     3
  6
CONTINUOUS
370
    -3
390
FD8
  0
LAYER
  5
24
102
{ACAD_XDICTIONARY
360
53539
102
}
330
2
100
AcDbSymbolTableRecord
100
AcDbLayerTableRecord
  2
DETAIL
 70
     0
 62
     5
  6
CONTINUOUS
370
    -3
390
FD8
  0
LAYER
  5
25
102
{ACAD_XDICTIONARY
360
5353B
102
}
330
2
100
AcDbSymbolTableRecord
100
AcDbLayerTableRecord
  2
BASIS
 70
     0
 62
     6
  6
DASHDOT
370
    -3
390
FD8
  0
LAYER
  5
26
102
{ACAD_XDICTIONARY
360
5353D
102
}
330
2
100
AcDbSymbolTableRecord
100
AcDbLayerTableRecord
  2
NOTE
 70
     0
 62
     4
  6
CONTINUOUS
370
    -3
390
FD8
  0
LAYER
  5
27
102
{ACAD_XDICTIONARY
360
5353F
102
}
330
2
100
AcDbSymbolTableRecord
100
AcDbLayerTableRecord
  2
ARRANGE
 70
     0
 62
     1
  6
CONTINUOUS
370
    -3
390
FD8
  0
LAYER
  5
28
102
{ACAD_XDICTIONARY
360
53541
102
}
330
2
100
AcDbSymbolTableRecord
100
AcDbLayerTableRecord
  2
FIX
 70
     0
 62
    11
  6
CONTINUOUS
370
    -3
390
FD8
  0
LAYER
  5
2A
102
{ACAD_XDICTIONARY
360
53543
102
}
330
2
100
AcDbSymbolTableRecord
100
AcDbLayerTableRecord
  2
ETC
 70
     0
 62
    61
  6
CONTINUOUS
370
    -3
390
FD8
  0
LAYER
  5
2C
330
2
100
AcDbSymbolTableRecord
100
AcDbLayerTableRecord
  2
DEFPOINTS
 70
     0
 62
     7
  6
CONTINUOUS
290
     0
370
    -3
390
FD8
  0
ENDTAB
  0
TABLE
  2
STYLE
  5
3
330
0
100
AcDbSymbolTable
 70
     2
  0
STYLE
  5
F
330
3
100
AcDbSymbolTableRecord
100
AcDbTextStyleTableRecord
  2
STANDARD
 70
     0
 40
0.0
 41
0.9
 50
0.0
 71
     0
 42
64.0
  3
SIMPLEX
  4
BIGFONT
  0
STYLE
  5
535D5
330
3
100
AcDbSymbolTableRecord
100
AcDbTextStyleTableRecord
  2
KAIGAI_STANDARD_1
 70
     0
 40
53.0
 41
0.51
 50
0.0
 71
     0
 42
53.0
  3
MONOTXT.shx
  4
BIGFONT.shx
  0
ENDTAB
  0
TABLE
  2
VIEW
  5
6
330
0
100
AcDbSymbolTable
 70
     1
  0
VIEW
  5
2D
330
6
100
AcDbSymbolTableRecord
100
AcDbViewTableRecord
  2
ALL
 70
     0
 40
6056.230032000001
 10
0.0
 20
58.11501599999999
 41
8400.0
 11
0.0
 21
0.0
 31
1.0
 12
0.0
 22
0.0
 32
0.0
 42
50.0
 43
0.0
 44
0.0
 50
0.0
 71
     0
281
     0
 72
     0
  0
ENDTAB
  0
TABLE
  2
UCS
  5
7
330
0
100
AcDbSymbolTable
 70
     0
  0
ENDTAB
  0
TABLE
  2
APPID
  5
9
330
0
100
AcDbSymbolTable
 70
     5
  0
APPID
  5
10
330
9
100
AcDbSymbolTableRecord
100
AcDbRegAppTableRecord
  2
ACAD
 70
     0
  0
APPID
  5
53531
330
9
100
AcDbSymbolTableRecord
100
AcDbRegAppTableRecord
  2
ACAD_EXEMPT_FROM_CAD_STANDARDS
 70
     0
  0
APPID
  5
5354D
330
9
100
AcDbSymbolTableRecord
100
AcDbRegAppTableRecord
  2
ACAD_NAV_VCDISPLAY
 70
     0
  0
APPID
  5
53586
330
9
100
AcDbSymbolTableRecord
100
AcDbRegAppTableRecord
  2
ACAD_MLEADERVER
 70
     0
  0
APPID
  5
53593
330
9
100
AcDbSymbolTableRecord
100
AcDbRegAppTableRecord
  2
ACAD_PSEXT
 70
     0
  0
ENDTAB
  0
TABLE
  2
DIMSTYLE
  5
A
330
0
100
AcDbSymbolTable
 70
     1
100
AcDbDimStyleTable
 71
     0
  0
DIMSTYLE
105
15C
330
A
100
AcDbSymbolTableRecord
100
AcDbDimStyleTableRecord
  2
STANDARD
 70
     0
340
F
  0
ENDTAB
  0
TABLE
  2
BLOCK_RECORD
  5
1
330
0
100
AcDbSymbolTable
 70
     2
  0
BLOCK_RECORD
  5
18
102
{ACAD_XDICTIONARY
360
534DB
102
}
330
1
100
AcDbSymbolTableRecord
100
AcDbBlockTableRecord
  2
*MODEL_SPACE
340
5352E
  0
BLOCK_RECORD
  5
15
102
{ACAD_XDICTIONARY
360
534D9
102
}
330
1
100
AcDbSymbolTableRecord
100
AcDbBlockTableRecord
  2
*PAPER_SPACE
340
5352F
  0
BLOCK_RECORD
  5
24C
330
1
100
AcDbSymbolTableRecord
100
AcDbBlockTableRecord
  2
_ORIGIN
340
0
  0
ENDTAB
  0
ENDSEC
  0
SECTION
  2
BLOCKS
  0
BLOCK
  5
19
330
18
100
AcDbEntity
  8
0
100
AcDbBlockBegin
  2
*MODEL_SPACE
 70
     0
 10
0.0
 20
0.0
 30
0.0
  3
*MODEL_SPACE
  1

  0
ENDBLK
  5
1A
330
18
100
AcDbEntity
  8
0
100
AcDbBlockEnd
  0
BLOCK
  5
16
330
15
100
AcDbEntity
 67
     1
  8
0
100
AcDbBlockBegin
  2
*PAPER_SPACE
 70
     0
 10
0.0
 20
0.0
 30
0.0
  3
*PAPER_SPACE
  1

  0
ENDBLK
  5
17
330
15
100
AcDbEntity
 67
     1
  8
0
100
AcDbBlockEnd
  0
BLOCK
  5
24D
330
24C
100
AcDbEntity
  8
0
100
AcDbBlockBegin
  2
_ORIGIN
 70
     0
 10
0.0
 20
0.0
 30
0.0
  3
_ORIGIN
  1

  0
CIRCLE
  5
24E
330
24C
100
AcDbEntity
  8
0
  6
ByBlock
 62
     0
100
AcDbCircle
 10
0.0
 20
0.0
 30
0.0
 40
0.5
  0
LINE
  5
24F
330
24C
100
AcDbEntity
  8
0
  6
ByBlock
 62
     0
100
AcDbLine
 10
0.0
 20
0.0
 30
0.0
 11
-1.0
 21
0.0
 31
0.0
  0
ENDBLK
  5
250
330
24C
100
AcDbEntity
  8
0
100
AcDbBlockEnd
  0
ENDSEC
  0
SECTION
  2
ENTITIES
  0
LINE
  5
4CECD
330
18
100
AcDbEntity
  8
DETAIL
  6
Continuous
 48
30.0
100
AcDbLine
 10
565.0
 20
76.20000000000072
 30
0.0
 11
565.0
 21
1723.800000000001
 31
0.0
  0
LINE
  5
4CECE
330
18
100
AcDbEntity
  8
DETAIL
  6
Continuous
 48
30.0
100
AcDbLine
 10
563.7999999999956
 20
76.20000000000072
 30
0.0
 11
563.7999999999956
 21
1711.2
 31
0.0
  0
LINE
  5
4CECF
330
18
100
AcDbEntity
  8
DETAIL
  6
Continuous
 48
30.0
100
AcDbLine
 10
562.0
 20
793.0
 30
0.0
 11
562.0
 21
96.30000000000109
 31
0.0
  0
LINE
  5
4CED0
330
18
100
AcDbEntity
  8
DETAIL
  6
Continuous
 48
30.0
100
AcDbLine
 10
560.699999999997
 20
80.0
 30
0.0
 11
560.699999999997
 21
793.0
 31
0.0
  0
LINE
  5
4CED1
330
18
100
AcDbEntity
  8
DETAIL
  6
Continuous
 48
30.0
100
AcDbLine
 10
-210.7000000000043
 20
80.0
 30
0.0
 11
-210.7000000000043
 21
793.0
 31
0.0
  0
LINE
  5
4CED2
330
18
100
AcDbEntity
  8
DETAIL
  6
Continuous
 48
30.0
100
AcDbLine
 10
-212.0
 20
96.30000000000109
 30
0.0
 11
-212.0
 21
793.0
 31
0.0
  0
LINE
  5
4CED3
330
18
100
AcDbEntity
  8
DETAIL
  6
Continuous
 48
30.0
100
AcDbLine
 10
-213.7999999999992
 20
76.20000000000072
 30
0.0
 11
-213.7999999999992
 21
1711.2
 31
0.0
  0
LINE
  5
4CED4
330
18
100
AcDbEntity
  8
DETAIL
  6
Continuous
 48
30.0
100
AcDbLine
 10
-215.0
 20
76.20000000000072
 30
0.0
 11
-215.0
 21
1723.800000000001
 31
0.0
  0
LINE
  5
4CED5
330
18
100
AcDbEntity
  8
DETAIL
  6
Continuous
 48
30.0
100
AcDbLine
 10
-215.0
 20
76.20000000000072
 30
0.0
 11
-215.0
 21
1723.800000000001
 31
0.0
  0
LINE
  5
4CED6
330
18
100
AcDbEntity
  8
DETAIL
  6
Continuous
 48
30.0
100
AcDbLine
 10
-215.0
 20
76.20000000000072
 30
0.0
 11
-215.0
 21
1723.800000000001
 31
0.0
  0
LINE
  5
4CED7
330
18
100
AcDbEntity
  8
DETAIL
  6
Continuous
 48
30.0
100
AcDbLine
 10
-215.0
 20
76.20000000000072
 30
0.0
 11
-215.0
 21
1723.800000000001
 31
0.0
  0
LINE
  5
4CED8
330
18
100
AcDbEntity
  8
DETAIL
  6
Continuous
 48
30.0
100
AcDbLine
 10
-215.0
 20
76.20000000000072
 30
0.0
 11
-215.0
 21
1723.800000000001
 31
0.0
  0
LINE
  5
4CED9
330
18
100
AcDbEntity
  8
DETAIL
  6
Continuous
 48
30.0
100
AcDbLine
 10
-215.0
 20
76.20000000000072
 30
0.0
 11
-215.0
 21
1723.800000000001
 31
0.0
  0
LINE
  5
4CEDA
330
18
100
AcDbEntity
  8
DETAIL
  6
Continuous
 48
30.0
100
AcDbLine
 10
-215.0
 20
76.20000000000072
 30
0.0
 11
-215.0
 21
1723.800000000001
 31
0.0
  0
LINE
  5
4CEDB
330
18
100
AcDbEntity
  8
DETAIL
  6
Continuous
 48
30.0
100
AcDbLine
 10
-215.0
 20
76.20000000000072
 30
0.0
 11
-215.0
 21
1723.800000000001
 31
0.0
  0
LINE
  5
4CEDC
330
18
100
AcDbEntity
  8
DETAIL
  6
Continuous
 48
30.0
100
AcDbLine
 10
-215.0
 20
76.20000000000072
 30
0.0
 11
-215.0
 21
1723.800000000001
 31
0.0
  0
LINE
  5
4CEDD
330
18
100
AcDbEntity
  8
DETAIL
  6
Continuous
 48
30.0
100
AcDbLine
 10
-215.0
 20
76.20000000000072
 30
0.0
 11
-215.0
 21
1723.800000000001
 31
0.0
  0
LINE
  5
4CEDE
330
18
100
AcDbEntity
  8
DETAIL
  6
Continuous
 48
30.0
100
AcDbLine
 10
-215.0
 20
1.200000000000725
 30
0.0
 11
-215.0
 21
1858.800000000001
 31
0.0
  0
LINE
  5
4CEDF
330
18
100
AcDbEntity
  8
DETAIL
  6
Continuous
 48
30.0
100
AcDbLine
 10
-216.2000000000043
 20
1.200000000000725
 30
0.0
 11
-216.2000000000043
 21
1779.501239913899
 31
0.0
  0
LINE
  5
4CEE0
330
18
100
AcDbEntity
  8
DETAIL
  6
Continuous
 48
30.0
100
AcDbLine
 10
-484.5000958102026
 20
0.0
 30
0.0
 11
-484.5000958102026
 21
1779.501239913899
 31
0.0
  0
LINE
  5
4CEE1
330
18
100
AcDbEntity
  8
DETAIL
  6
Continuous
 48
30.0
100
AcDbLine
 10
-485.3486239476985
 20
1.200000000000725
 30
0.0
 11
-485.3486239476985
 21
1779.501239913899
 31
0.0
  0
LINE
  5
4CEE2
330
18
100
AcDbEntity
  8
DETAIL
  6
Continuous
 48
30.0
100
AcDbLine
 10
-564.6485281374042
 20
1.200000000000725
 30
0.0
 11
-564.6485281374042
 21
1858.800000000001
 31
0.0
  0
LINE
  5
4CEE3
330
18
100
AcDbEntity
  8
DETAIL
  6
Continuous
 48
30.0
100
AcDbLine
 10
-565.0
 20
1.200000000000725
 30
0.0
 11
-565.0
 21
1858.800000000001
 31
0.0
  0
CIRCLE
  5
4CEE4
330
18
100
AcDbEntity
  8
DETAIL
  6
Continuous
 48
30.0
100
AcDbCircle
 10
112.5999999999985
 20
55.5
 30
0.0
 40
6.0
  0
CIRCLE
  5
4CEE5
330
18
100
AcDbEntity
  8
DETAIL
  6
Continuous
 48
30.0
100
AcDbCircle
 10
112.5999999999985
 20
37.5
 30
0.0
 40
6.0
  0
CIRCLE
  5
4CEE6
330
18
100
AcDbEntity
  8
DETAIL
  6
Continuous
 48
30.0
100
AcDbCircle
 10
112.5999999999985
 20
19.5
 30
0.0
 40
6.0
  0
LINE
  5
4CEE7
330
18
100
AcDbEntity
  8
DETAIL
  6
Continuous
 48
30.0
100
AcDbLine
 10
-212.0
 20
96.30000000000109
 30
0.0
 11
562.0
 21
96.30000000000109
 31
0.0
  0
LINE
  5
4CEE8
330
18
100
AcDbEntity
  8
DETAIL
  6
Continuous
 48
30.0
100
AcDbLine
 10
560.699999999997
 20
95.0
 30
0.0
 11
-210.7000000000043
 21
95.0
 31
0.0
  0
LINE
  5
4CEE9
330
18
100
AcDbEntity
  8
DETAIL
  6
Continuous
 48
30.0
100
AcDbLine
 10
-210.7000000000043
 20
94.90000000000142
 30
0.0
 11
560.699999999997
 21
94.90000000000142
 31
0.0
  0
LINE
  5
4CEEA
330
18
100
AcDbEntity
  8
DETAIL
  6
Continuous
 48
30.0
100
AcDbLine
 10
-169.7999999999992
 20
76.30000000000109
 30
0.0
 11
519.7999999999956
 21
76.30000000000109
 31
0.0
  0
LINE
  5
4CEEB
330
18
100
AcDbEntity
  8
DETAIL
  6
Continuous
 48
30.0
100
AcDbLine
 10
-215.0
 20
75.0
 30
0.0
 11
565.0
 21
75.0
 31
0.0
  0
LINE
  5
4CEEC
330
18
100
AcDbEntity
  8
DETAIL
  6
Continuous
 48
30.0
100
AcDbLine
 10
565.0
 20
71.80000000000109
 30
0.0
 11
-215.0
 21
71.80000000000109
 31
0.0
  0
LINE
  5
4CEED
330
18
100
AcDbEntity
  8
DETAIL
  6
Continuous
 48
30.0
100
AcDbLine
 10
565.0
 20
69.80000000000109
 30
0.0
 11
-215.0
 21
69.80000000000109
 31
0.0
  0
LINE
  5
4CEEE
330
18
100
AcDbEntity
  8
DETAIL
  6
Continuous
 48
30.0
100
AcDbLine
 10
565.0
 20
5.200000000000726
 30
0.0
 11
-215.0
 21
5.200000000000726
 31
0.0
  0
LINE
  5
4CEEF
330
18
100
AcDbEntity
  8
DETAIL
  6
Continuous
 48
30.0
100
AcDbLine
 10
-215.0
 20
3.200000000000727
 30
0.0
 11
565.0
 21
3.200000000000727
 31
0.0
  0
LINE
  5
4CEF0
330
18
100
AcDbEntity
  8
DETAIL
  6
Continuous
 48
30.0
100
AcDbLine
 10
565.0
 20
0.0
 30
0.0
 11
-215.0
 21
0.0
 31
0.0
  0
LINE
  5
4CEF1
330
18
100
AcDbEntity
  8
DETAIL
  6
Continuous
 48
30.0
100
AcDbLine
 10
-565.0
 20
1.200000000000725
 30
0.0
 11
-215.0
 21
1.200000000000725
 31
0.0
  0
LINE
  5
4CEF2
330
18
100
AcDbEntity
  8
DETAIL
  6
Continuous
 48
30.0
100
AcDbLine
 10
-563.7999999999992
 20
0.0
 30
0.0
 11
-278.2000000000043
 21
0.0
 31
0.0
  0
ARC
  5
4CEF4
330
18
100
AcDbEntity
  8
DETAIL
  6
Continuous
 48
30.0
100
AcDbCircle
 10
-563.7999999999992
 20
1.200000000002545
 30
0.0
 40
1.200000000001633
100
AcDbArc
 50
180.0000000001041
 51
270.0
  0
LINE
  5
4CEF6
330
18
100
AcDbEntity
  8
DETAIL
  6
Continuous
 48
30.0
100
AcDbLine
 10
-220.0
 20
0.0
 30
0.0
 11
-273.7000000000043
 21
0.0
 31
0.0
  0
ARC
  5
4CEF7
330
18
100
AcDbEntity
  8
DETAIL
  6
Continuous
 48
30.0
100
AcDbCircle
 10
-273.7000000000007
 20
1.30000000000109
 30
0.0
 40
1.300000000000586
100
AcDbArc
 50
186.9535465581561
 51
269.9999999998957
  0
LINE
  5
4CEF8
330
18
100
AcDbEntity
  8
DETAIL
  6
Continuous
 48
30.0
100
AcDbLine
 10
-278.2000000000043
 20
0.0
 30
0.0
 11
-273.7000000000043
 21
0.0
 31
0.0
  0
LINE
  5
4CEF9
330
18
100
AcDbEntity
  8
DETAIL
  6
Continuous
 48
30.0
100
AcDbLine
 10
-273.7000000000043
 20
0.0
 30
0.0
 11
-273.7000000000043
 21
1.200000000000725
 31
0.0
  0
LINE
  5
4CEFA
330
18
100
AcDbEntity
  8
DETAIL
  6
Continuous
 48
30.0
100
AcDbLine
 10
-278.2000000000043
 20
1.200000000000725
 30
0.0
 11
-278.2000000000043
 21
0.0
 31
0.0
  0
CIRCLE
  5
4CF03
330
18
100
AcDbEntity
  8
DETAIL
  6
Continuous
 48
30.0
100
AcDbCircle
 10
-194.7999999999992
 20
85.0
 30
0.0
 40
6.0
  0
ARC
  5
4CF04
330
18
100
AcDbEntity
  8
DETAIL
  6
Continuous
 48
30.0
100
AcDbCircle
 10
-213.7999999999992
 20
76.20000000000255
 30
0.0
 40
1.200000000001633
100
AcDbArc
 50
180.0000000001041
 51
270.0
  0
CIRCLE
  5
4CF05
330
18
100
AcDbEntity
  8
DETAIL
  6
Continuous
 48
30.0
100
AcDbCircle
 10
-180.0
 20
37.5
 30
0.0
 40
15.25
  0
LINE
  5
4CF06
330
18
100
AcDbEntity
  8
DETAIL
  6
Continuous
 48
30.0
100
AcDbLine
 10
-194.7999999999992
 20
80.38119784650005
 30
0.0
 11
-190.7999999999992
 21
82.69059892320001
 31
0.0
  0
LINE
  5
4CF07
330
18
100
AcDbEntity
  8
DETAIL
  6
Continuous
 48
30.0
100
AcDbLine
 10
-194.7999999999992
 20
89.61880215350175
 30
0.0
 11
-198.7999999999992
 21
87.30940107670177
 31
0.0
  0
LINE
  5
4CF08
330
18
100
AcDbEntity
  8
DETAIL
  6
Continuous
 48
30.0
100
AcDbLine
 10
-169.7999999999992
 20
76.30000000000109
 30
0.0
 11
-169.7999999999992
 21
75.0
 31
0.0
  0
LINE
  5
4CF09
330
18
100
AcDbEntity
  8
DETAIL
  6
Continuous
 48
30.0
100
AcDbLine
 10
-190.7999999999992
 20
82.69059892320001
 30
0.0
 11
-190.7999999999992
 21
87.30940107670177
 31
0.0
  0
LINE
  5
4CF0A
330
18
100
AcDbEntity
  8
DETAIL
  6
Continuous
 48
30.0
100
AcDbLine
 10
-192.4000000000014
 20
84.50000000000001
 30
0.0
 11
-192.4000000000014
 21
85.5
 31
0.0
  0
LINE
  5
4CF0B
330
18
100
AcDbEntity
  8
DETAIL
  6
Continuous
 48
30.0
100
AcDbLine
 10
-194.2999999999992
 20
82.60000000000038
 30
0.0
 11
-194.2999999999992
 21
84.50000000000001
 31
0.0
  0
LINE
  5
4CF0C
330
18
100
AcDbEntity
  8
DETAIL
  6
Continuous
 48
30.0
100
AcDbLine
 10
-194.2999999999992
 20
85.5
 30
0.0
 11
-194.2999999999992
 21
87.40000000000145
 31
0.0
  0
LINE
  5
4CF0D
330
18
100
AcDbEntity
  8
DETAIL
  6
Continuous
 48
30.0
100
AcDbLine
 10
-195.2999999999992
 20
87.40000000000145
 30
0.0
 11
-195.2999999999992
 21
85.5
 31
0.0
  0
LINE
  5
4CF0E
330
18
100
AcDbEntity
  8
DETAIL
  6
Continuous
 48
30.0
100
AcDbLine
 10
-195.2999999999992
 20
84.50000000000001
 30
0.0
 11
-195.2999999999992
 21
82.60000000000038
 31
0.0
  0
LINE
  5
4CF0F
330
18
100
AcDbEntity
  8
DETAIL
  6
Continuous
 48
30.0
100
AcDbLine
 10
-197.2000000000043
 20
85.5
 30
0.0
 11
-197.2000000000043
 21
84.50000000000001
 31
0.0
  0
LINE
  5
4CF10
330
18
100
AcDbEntity
  8
DETAIL
  6
Continuous
 48
30.0
100
AcDbLine
 10
-198.7999999999992
 20
87.30940107670177
 30
0.0
 11
-198.7999999999992
 21
82.69059892320001
 31
0.0
  0
LINE
  5
4CF11
330
18
100
AcDbEntity
  8
DETAIL
  6
Continuous
 48
30.0
100
AcDbLine
 10
-210.0
 20
71.80000000000109
 30
0.0
 11
-210.0
 21
75.0
 31
0.0
  0
LINE
  5
4CF12
330
18
100
AcDbEntity
  8
DETAIL
  6
Continuous
 48
30.0
100
AcDbLine
 10
-210.0
 20
3.200000000000727
 30
0.0
 11
-210.0
 21
0.0
 31
0.0
  0
LINE
  5
4CF13
330
18
100
AcDbEntity
  8
DETAIL
  6
Continuous
 48
30.0
100
AcDbLine
 10
-213.7999999999992
 20
76.20000000000072
 30
0.0
 11
-213.7999999999992
 21
75.0
 31
0.0
  0
LINE
  5
4CF14
330
18
100
AcDbEntity
  8
DETAIL
  6
Continuous
 48
30.0
100
AcDbLine
 10
-215.0
 20
0.0
 30
0.0
 11
-215.0
 21
75.0
 31
0.0
  0
LINE
  5
4CF15
330
18
100
AcDbEntity
  8
DETAIL
  6
Continuous
 48
30.0
100
AcDbLine
 10
-215.0
 20
0.0
 30
0.0
 11
-215.0
 21
75.0
 31
0.0
  0
LINE
  5
4CF16
330
18
100
AcDbEntity
  8
DETAIL
  6
Continuous
 48
30.0
100
AcDbLine
 10
-210.7000000000043
 20
80.0
 30
0.0
 11
-205.7000000000043
 21
75.0
 31
0.0
  0
LINE
  5
4CF17
330
18
100
AcDbEntity
  8
DETAIL
  6
Continuous
 48
30.0
100
AcDbLine
 10
-190.7999999999992
 20
87.30940107670177
 30
0.0
 11
-194.7999999999992
 21
89.61880215350175
 31
0.0
  0
LINE
  5
4CF18
330
18
100
AcDbEntity
  8
DETAIL
  6
Continuous
 48
30.0
100
AcDbLine
 10
-198.7999999999992
 20
82.69059892320001
 30
0.0
 11
-194.7999999999992
 21
80.38119784650005
 31
0.0
  0
LINE
  5
4CF19
330
18
100
AcDbEntity
  8
DETAIL
  6
Continuous
 48
30.0
100
AcDbLine
 10
-194.2999999999992
 20
87.40000000000145
 30
0.0
 11
-195.2999999999992
 21
87.40000000000145
 31
0.0
  0
LINE
  5
4CF1A
330
18
100
AcDbEntity
  8
DETAIL
  6
Continuous
 48
30.0
100
AcDbLine
 10
-192.4000000000014
 20
85.5
 30
0.0
 11
-194.2999999999992
 21
85.5
 31
0.0
  0
LINE
  5
4CF1B
330
18
100
AcDbEntity
  8
DETAIL
  6
Continuous
 48
30.0
100
AcDbLine
 10
-195.2999999999992
 20
85.5
 30
0.0
 11
-197.2000000000043
 21
85.5
 31
0.0
  0
LINE
  5
4CF1E
330
18
100
AcDbEntity
  8
DETAIL
  6
Continuous
 48
30.0
100
AcDbLine
 10
-194.2999999999992
 20
84.50000000000001
 30
0.0
 11
-192.4000000000014
 21
84.50000000000001
 31
0.0
  0
LINE
  5
4CF1F
330
18
100
AcDbEntity
  8
DETAIL
  6
Continuous
 48
30.0
100
AcDbLine
 10
-197.2000000000043
 20
84.50000000000001
 30
0.0
 11
-195.2999999999992
 21
84.50000000000001
 31
0.0
  0
LINE
  5
4CF20
330
18
100
AcDbEntity
  8
DETAIL
  6
Continuous
 48
30.0
100
AcDbLine
 10
-195.2999999999992
 20
82.60000000000038
 30
0.0
 11
-194.2999999999992
 21
82.60000000000038
 31
0.0
  0
LINE
  5
4CF21
330
18
100
AcDbEntity
  8
DETAIL
  6
Continuous
 48
30.0
100
AcDbLine
 10
-215.0
 20
76.20000000000072
 30
0.0
 11
-206.9000000000014
 21
76.20000000000072
 31
0.0
  0
LINE
  5
4CF22
330
18
100
AcDbEntity
  8
DETAIL
  6
Continuous
 48
30.0
100
AcDbLine
 10
-215.0
 20
0.0
 30
0.0
 11
-215.0
 21
75.0
 31
0.0
  0
LINE
  5
4CF23
330
18
100
AcDbEntity
  8
DETAIL
  6
Continuous
 48
30.0
100
AcDbLine
 10
-215.0
 20
0.0
 30
0.0
 11
-215.0
 21
75.0
 31
0.0
  0
LINE
  5
4CF24
330
18
100
AcDbEntity
  8
DETAIL
  6
Continuous
 48
30.0
100
AcDbLine
 10
-215.0
 20
0.0
 30
0.0
 11
-215.0
 21
75.0
 31
0.0
  0
LINE
  5
4CF25
330
18
100
AcDbEntity
  8
DETAIL
  6
Continuous
 48
30.0
100
AcDbLine
 10
-215.0
 20
0.0
 30
0.0
 11
-215.0
 21
75.0
 31
0.0
  0
LINE
  5
4CF26
330
18
100
AcDbEntity
  8
DETAIL
  6
Continuous
 48
30.0
100
AcDbLine
 10
-215.0
 20
0.0
 30
0.0
 11
-215.0
 21
75.0
 31
0.0
  0
LINE
  5
4CF27
330
18
100
AcDbEntity
  8
DETAIL
  6
Continuous
 48
30.0
100
AcDbLine
 10
-215.0
 20
0.0
 30
0.0
 11
-215.0
 21
75.0
 31
0.0
  0
LINE
  5
4CF28
330
18
100
AcDbEntity
  8
DETAIL
  6
Continuous
 48
30.0
100
AcDbLine
 10
-215.0
 20
0.0
 30
0.0
 11
-215.0
 21
75.0
 31
0.0
  0
LINE
  5
4CF29
330
18
100
AcDbEntity
  8
DETAIL
  6
Continuous
 48
30.0
100
AcDbLine
 10
-215.0
 20
0.0
 30
0.0
 11
-215.0
 21
75.0
 31
0.0
  0
CIRCLE
  5
4CF2A
330
18
100
AcDbEntity
  8
DETAIL
  6
Continuous
 48
30.0
100
AcDbCircle
 10
-245.0
 20
40.0
 30
0.0
 40
2.049999999999998
  0
CIRCLE
  5
4CF2B
330
18
100
AcDbEntity
  8
DETAIL
  6
Continuous
 48
30.0
100
AcDbCircle
 10
-245.0
 20
40.0
 30
0.0
 40
2.25
  0
CIRCLE
  5
4CF2C
330
18
100
AcDbEntity
  8
DETAIL
  6
Continuous
 48
30.0
100
AcDbCircle
 10
-245.0
 20
40.0
 30
0.0
 40
4.5
  0
ARC
  5
4CF2D
330
18
100
AcDbEntity
  8
DETAIL
  6
Continuous
 48
30.0
100
AcDbCircle
 10
-216.699999999997
 20
1.699999999997089
 30
0.0
 40
1.699999999996179
100
AcDbArc
 50
269.9999999997915
 51
342.8652723808964
  0
LINE
  5
4CF2E
330
18
100
AcDbEntity
  8
DETAIL
  6
Continuous
 48
30.0
100
AcDbLine
 10
-244.7980435034041
 20
35.50659963770158
 30
0.0
 11
-241.2501610180988
 21
37.55497054560147
 31
0.0
  0
LINE
  5
4CF2F
330
18
100
AcDbEntity
  8
DETAIL
  6
Continuous
 48
30.0
100
AcDbLine
 10
-245.0
 20
36.02205664530083
 30
0.0
 11
-241.5550000000002
 21
38.01102832260039
 31
0.0
  0
LINE
  5
4CF30
330
18
100
AcDbEntity
  8
DETAIL
  6
Continuous
 48
30.0
100
AcDbLine
 10
-245.0
 20
43.97794335469916
 30
0.0
 11
-248.4449999999997
 21
41.98897167730136
 31
0.0
  0
LINE
  5
4CF31
330
18
100
AcDbEntity
  8
DETAIL
  6
Continuous
 48
30.0
100
AcDbLine
 10
-245.2019564965012
 20
44.49340036230021
 30
0.0
 11
-248.7498389817992
 21
42.44502945440214
 31
0.0
  0
LINE
  5
4CF32
330
18
100
AcDbEntity
  8
DETAIL
  6
Continuous
 48
30.0
100
AcDbLine
 10
-220.0
 20
0.0
 30
0.0
 11
-216.7000000000043
 21
0.0
 31
0.0
  0
LINE
  5
4CF33
330
18
100
AcDbEntity
  8
DETAIL
  6
Continuous
 48
30.0
100
AcDbLine
 10
-241.2501610180988
 20
42.44502945440214
 30
0.0
 11
-244.7980435034041
 21
44.49340036230021
 31
0.0
  0
LINE
  5
4CF34
330
18
100
AcDbEntity
  8
DETAIL
  6
Continuous
 48
30.0
100
AcDbLine
 10
-241.5550000000002
 20
41.98897167730136
 30
0.0
 11
-245.0
 21
43.97794335469916
 31
0.0
  0
LINE
  5
4CF35
330
18
100
AcDbEntity
  8
DETAIL
  6
Continuous
 48
30.0
100
AcDbLine
 10
-248.4449999999997
 20
38.01102832260039
 30
0.0
 11
-245.0
 21
36.02205664530083
 31
0.0
  0
LINE
  5
4CF36
330
18
100
AcDbEntity
  8
DETAIL
  6
Continuous
 48
30.0
100
AcDbLine
 10
-248.7498389817992
 20
37.55497054560147
 30
0.0
 11
-245.2019564965012
 21
35.50659963770158
 31
0.0
  0
LINE
  5
4CF37
330
18
100
AcDbEntity
  8
DETAIL
  6
Continuous
 48
30.0
100
AcDbLine
 10
-216.7000000000043
 20
0.0
 30
0.0
 11
-216.7000000000043
 21
1.200000000000725
 31
0.0
  0
LINE
  5
4CF38
330
18
100
AcDbEntity
  8
DETAIL
  6
Continuous
 48
30.0
100
AcDbLine
 10
-220.0
 20
0.0
 30
0.0
 11
-220.0
 21
1.200000000000725
 31
0.0
  0
LINE
  5
4CF39
330
18
100
AcDbEntity
  8
DETAIL
  6
Continuous
 48
30.0
100
AcDbLine
 10
-241.0076228885009
 20
37.95807205270103
 30
0.0
 11
-241.0076228885009
 21
42.04192794720074
 31
0.0
  0
LINE
  5
4CF3A
330
18
100
AcDbEntity
  8
DETAIL
  6
Continuous
 48
30.0
100
AcDbLine
 10
-241.5550000000002
 20
38.01102832260039
 30
0.0
 11
-241.5550000000002
 21
41.98897167730136
 31
0.0
  0
LINE
  5
4CF3B
330
18
100
AcDbEntity
  8
DETAIL
  6
Continuous
 48
30.0
100
AcDbLine
 10
-248.4449999999997
 20
41.98897167730136
 30
0.0
 11
-248.4449999999997
 21
38.01102832260039
 31
0.0
  0
LINE
  5
4CF3C
330
18
100
AcDbEntity
  8
DETAIL
  6
Continuous
 48
30.0
100
AcDbLine
 10
-248.9923771114045
 20
42.04192794720074
 30
0.0
 11
-248.9923771114045
 21
37.95807205270103
 31
0.0
  0
CIRCLE
  5
4CF3D
330
18
100
AcDbEntity
  8
DETAIL
  6
Continuous
 48
30.0
100
AcDbCircle
 10
-12.20000000000436
 20
55.5
 30
0.0
 40
6.0
  0
CIRCLE
  5
4CF3E
330
18
100
AcDbEntity
  8
DETAIL
  6
Continuous
 48
30.0
100
AcDbCircle
 10
-12.20000000000436
 20
37.5
 30
0.0
 40
6.0
  0
CIRCLE
  5
4CF3F
330
18
100
AcDbEntity
  8
DETAIL
  6
Continuous
 48
30.0
100
AcDbCircle
 10
-12.20000000000436
 20
19.5
 30
0.0
 40
6.0
  0
CIRCLE
  5
4CF40
330
18
100
AcDbEntity
  8
DETAIL
  6
Continuous
 48
30.0
100
AcDbCircle
 10
-43.40000000000144
 20
55.5
 30
0.0
 40
6.0
  0
CIRCLE
  5
4CF41
330
18
100
AcDbEntity
  8
DETAIL
  6
Continuous
 48
30.0
100
AcDbCircle
 10
-43.40000000000144
 20
37.5
 30
0.0
 40
6.0
  0
CIRCLE
  5
4CF42
330
18
100
AcDbEntity
  8
DETAIL
  6
Continuous
 48
30.0
100
AcDbCircle
 10
-59.0
 20
46.5
 30
0.0
 40
6.0
  0
CIRCLE
  5
4CF43
330
18
100
AcDbEntity
  8
DETAIL
  6
Continuous
 48
30.0
100
AcDbCircle
 10
-27.79999999999927
 20
46.5
 30
0.0
 40
6.0
  0
CIRCLE
  5
4CF44
330
18
100
AcDbEntity
  8
DETAIL
  6
Continuous
 48
30.0
100
AcDbCircle
 10
-43.40000000000144
 20
19.5
 30
0.0
 40
6.0
  0
CIRCLE
  5
4CF45
330
18
100
AcDbEntity
  8
DETAIL
  6
Continuous
 48
30.0
100
AcDbCircle
 10
-59.0
 20
28.5
 30
0.0
 40
6.0
  0
CIRCLE
  5
4CF46
330
18
100
AcDbEntity
  8
DETAIL
  6
Continuous
 48
30.0
100
AcDbCircle
 10
-27.79999999999927
 20
28.5
 30
0.0
 40
6.0
  0
CIRCLE
  5
4CF47
330
18
100
AcDbEntity
  8
DETAIL
  6
Continuous
 48
30.0
100
AcDbCircle
 10
-105.7999999999992
 20
55.5
 30
0.0
 40
6.0
  0
CIRCLE
  5
4CF48
330
18
100
AcDbEntity
  8
DETAIL
  6
Continuous
 48
30.0
100
AcDbCircle
 10
-74.59999999999855
 20
55.5
 30
0.0
 40
6.0
  0
CIRCLE
  5
4CF49
330
18
100
AcDbEntity
  8
DETAIL
  6
Continuous
 48
30.0
100
AcDbCircle
 10
-105.7999999999992
 20
37.5
 30
0.0
 40
6.0
  0
CIRCLE
  5
4CF4A
330
18
100
AcDbEntity
  8
DETAIL
  6
Continuous
 48
30.0
100
AcDbCircle
 10
-74.59999999999855
 20
37.5
 30
0.0
 40
6.0
  0
CIRCLE
  5
4CF4B
330
18
100
AcDbEntity
  8
DETAIL
  6
Continuous
 48
30.0
100
AcDbCircle
 10
-90.20000000000436
 20
46.5
 30
0.0
 40
6.0
  0
CIRCLE
  5
4CF4C
330
18
100
AcDbEntity
  8
DETAIL
  6
Continuous
 48
30.0
100
AcDbCircle
 10
-105.7999999999992
 20
19.5
 30
0.0
 40
6.0
  0
CIRCLE
  5
4CF4D
330
18
100
AcDbEntity
  8
DETAIL
  6
Continuous
 48
30.0
100
AcDbCircle
 10
-74.59999999999855
 20
19.5
 30
0.0
 40
6.0
  0
CIRCLE
  5
4CF4E
330
18
100
AcDbEntity
  8
DETAIL
  6
Continuous
 48
30.0
100
AcDbCircle
 10
-90.20000000000436
 20
28.5
 30
0.0
 40
6.0
  0
CIRCLE
  5
4CF4F
330
18
100
AcDbEntity
  8
DETAIL
  6
Continuous
 48
30.0
100
AcDbCircle
 10
19.0
 20
55.5
 30
0.0
 40
6.0
  0
CIRCLE
  5
4CF50
330
18
100
AcDbEntity
  8
DETAIL
  6
Continuous
 48
30.0
100
AcDbCircle
 10
50.20000000000073
 20
55.5
 30
0.0
 40
6.0
  0
CIRCLE
  5
4CF51
330
18
100
AcDbEntity
  8
DETAIL
  6
Continuous
 48
30.0
100
AcDbCircle
 10
81.40000000000146
 20
55.5
 30
0.0
 40
6.0
  0
CIRCLE
  5
4CF52
330
18
100
AcDbEntity
  8
DETAIL
  6
Continuous
 48
30.0
100
AcDbCircle
 10
19.0
 20
37.5
 30
0.0
 40
6.0
  0
CIRCLE
  5
4CF53
330
18
100
AcDbEntity
  8
DETAIL
  6
Continuous
 48
30.0
100
AcDbCircle
 10
50.20000000000073
 20
37.5
 30
0.0
 40
6.0
  0
CIRCLE
  5
4CF54
330
18
100
AcDbEntity
  8
DETAIL
  6
Continuous
 48
30.0
100
AcDbCircle
 10
81.40000000000146
 20
37.5
 30
0.0
 40
6.0
  0
CIRCLE
  5
4CF55
330
18
100
AcDbEntity
  8
DETAIL
  6
Continuous
 48
30.0
100
AcDbCircle
 10
3.400000000001452
 20
46.5
 30
0.0
 40
6.0
  0
CIRCLE
  5
4CF56
330
18
100
AcDbEntity
  8
DETAIL
  6
Continuous
 48
30.0
100
AcDbCircle
 10
34.59999999999854
 20
46.5
 30
0.0
 40
6.0
  0
CIRCLE
  5
4CF57
330
18
100
AcDbEntity
  8
DETAIL
  6
Continuous
 48
30.0
100
AcDbCircle
 10
65.79999999999563
 20
46.5
 30
0.0
 40
6.0
  0
CIRCLE
  5
4CF58
330
18
100
AcDbEntity
  8
DETAIL
  6
Continuous
 48
30.0
100
AcDbCircle
 10
97.0
 20
46.5
 30
0.0
 40
6.0
  0
CIRCLE
  5
4CF59
330
18
100
AcDbEntity
  8
DETAIL
  6
Continuous
 48
30.0
100
AcDbCircle
 10
19.0
 20
19.5
 30
0.0
 40
6.0
  0
CIRCLE
  5
4CF5A
330
18
100
AcDbEntity
  8
DETAIL
  6
Continuous
 48
30.0
100
AcDbCircle
 10
50.20000000000073
 20
19.5
 30
0.0
 40
6.0
  0
CIRCLE
  5
4CF5B
330
18
100
AcDbEntity
  8
DETAIL
  6
Continuous
 48
30.0
100
AcDbCircle
 10
81.40000000000146
 20
19.5
 30
0.0
 40
6.0
  0
CIRCLE
  5
4CF5C
330
18
100
AcDbEntity
  8
DETAIL
  6
Continuous
 48
30.0
100
AcDbCircle
 10
3.400000000001452
 20
28.5
 30
0.0
 40
6.0
  0
CIRCLE
  5
4CF5D
330
18
100
AcDbEntity
  8
DETAIL
  6
Continuous
 48
30.0
100
AcDbCircle
 10
34.59999999999854
 20
28.5
 30
0.0
 40
6.0
  0
CIRCLE
  5
4CF5E
330
18
100
AcDbEntity
  8
DETAIL
  6
Continuous
 48
30.0
100
AcDbCircle
 10
65.79999999999563
 20
28.5
 30
0.0
 40
6.0
  0
CIRCLE
  5
4CF5F
330
18
100
AcDbEntity
  8
DETAIL
  6
Continuous
 48
30.0
100
AcDbCircle
 10
97.0
 20
28.5
 30
0.0
 40
6.0
  0
LINE
  5
4CF60
330
18
100
AcDbEntity
  8
DETAIL
  6
Continuous
 48
30.0
100
AcDbLine
 10
115.6466624103995
 20
60.6466624104014
 30
0.0
 11
115.0
 21
60.0
 31
0.0
  0
LINE
  5
4CF61
330
18
100
AcDbEntity
  8
DETAIL
  6
Continuous
 48
30.0
100
AcDbLine
 10
115.0
 20
24.99464629220165
 30
0.0
 11
115.0
 21
15.0
 31
0.0
  0
LINE
  5
4CF62
330
18
100
AcDbEntity
  8
DETAIL
  6
Continuous
 48
30.0
100
AcDbLine
 10
115.0
 20
42.99464629220165
 30
0.0
 11
115.0
 21
32.00535370780016
 31
0.0
  0
LINE
  5
4CF63
330
18
100
AcDbEntity
  8
DETAIL
  6
Continuous
 48
30.0
100
AcDbLine
 10
115.0
 20
60.0
 30
0.0
 11
115.0
 21
50.00535370780017
 31
0.0
  0
LINE
  5
4CF64
330
18
100
AcDbEntity
  8
DETAIL
  6
Continuous
 48
30.0
100
AcDbLine
 10
115.0
 20
15.0
 30
0.0
 11
115.6466624103995
 21
14.35333758960223
 31
0.0
  0
CIRCLE
  5
4CF65
330
18
100
AcDbEntity
  8
DETAIL
  6
Continuous
 48
30.0
100
AcDbCircle
 10
-245.0
 20
440.0
 30
0.0
 40
2.049999999999998
  0
CIRCLE
  5
4CF66
330
18
100
AcDbEntity
  8
DETAIL
  6
Continuous
 48
30.0
100
AcDbCircle
 10
-245.0
 20
440.0
 30
0.0
 40
2.25
  0
CIRCLE
  5
4CF67
330
18
100
AcDbEntity
  8
DETAIL
  6
Continuous
 48
30.0
100
AcDbCircle
 10
-245.0
 20
440.0
 30
0.0
 40
4.5
  0
LINE
  5
4CF68
330
18
100
AcDbEntity
  8
DETAIL
  6
Continuous
 48
30.0
100
AcDbLine
 10
-244.7980435034041
 20
435.5065996377016
 30
0.0
 11
-241.2501610180988
 21
437.5549705456013
 31
0.0
  0
LINE
  5
4CF69
330
18
100
AcDbEntity
  8
DETAIL
  6
Continuous
 48
30.0
100
AcDbLine
 10
-245.0
 20
436.0220566453008
 30
0.0
 11
-241.5550000000002
 21
438.0110283226003
 31
0.0
  0
LINE
  5
4CF6A
330
18
100
AcDbEntity
  8
DETAIL
  6
Continuous
 48
30.0
100
AcDbLine
 10
-245.0
 20
443.977943354699
 30
0.0
 11
-248.4449999999997
 21
441.9889716773012
 31
0.0
  0
LINE
  5
4CF6B
330
18
100
AcDbEntity
  8
DETAIL
  6
Continuous
 48
30.0
100
AcDbLine
 10
-245.2019564965012
 20
444.4934003623002
 30
0.0
 11
-248.7498389817992
 21
442.4450294544022
 31
0.0
  0
LINE
  5
4CF6C
330
18
100
AcDbEntity
  8
DETAIL
  6
Continuous
 48
30.0
100
AcDbLine
 10
-241.2501610180988
 20
442.4450294544022
 30
0.0
 11
-244.7980435034041
 21
444.4934003623002
 31
0.0
  0
LINE
  5
4CF6D
330
18
100
AcDbEntity
  8
DETAIL
  6
Continuous
 48
30.0
100
AcDbLine
 10
-241.5550000000002
 20
441.9889716773012
 30
0.0
 11
-245.0
 21
443.977943354699
 31
0.0
  0
LINE
  5
4CF6E
330
18
100
AcDbEntity
  8
DETAIL
  6
Continuous
 48
30.0
100
AcDbLine
 10
-248.4449999999997
 20
438.0110283226003
 30
0.0
 11
-245.0
 21
436.0220566453008
 31
0.0
  0
LINE
  5
4CF6F
330
18
100
AcDbEntity
  8
DETAIL
  6
Continuous
 48
30.0
100
AcDbLine
 10
-248.7498389817992
 20
437.5549705456013
 30
0.0
 11
-245.2019564965012
 21
435.5065996377016
 31
0.0
  0
LINE
  5
4CF70
330
18
100
AcDbEntity
  8
DETAIL
  6
Continuous
 48
30.0
100
AcDbLine
 10
-241.0076228885009
 20
437.9580720526992
 30
0.0
 11
-241.0076228885009
 21
442.0419279472007
 31
0.0
  0
LINE
  5
4CF71
330
18
100
AcDbEntity
  8
DETAIL
  6
Continuous
 48
30.0
100
AcDbLine
 10
-241.5550000000002
 20
438.0110283226003
 30
0.0
 11
-241.5550000000002
 21
441.9889716773012
 31
0.0
  0
LINE
  5
4CF72
330
18
100
AcDbEntity
  8
DETAIL
  6
Continuous
 48
30.0
100
AcDbLine
 10
-248.4449999999997
 20
441.9889716773012
 30
0.0
 11
-248.4449999999997
 21
438.0110283226003
 31
0.0
  0
LINE
  5
4CF73
330
18
100
AcDbEntity
  8
DETAIL
  6
Continuous
 48
30.0
100
AcDbLine
 10
-248.9923771114045
 20
442.0419279472007
 30
0.0
 11
-248.9923771114045
 21
437.9580720526992
 31
0.0
  0
CIRCLE
  5
4CF74
330
18
100
AcDbEntity
  8
DETAIL
  6
Continuous
 48
30.0
100
AcDbCircle
 10
362.1999999999971
 20
55.5
 30
0.0
 40
6.0
  0
CIRCLE
  5
4CF75
330
18
100
AcDbEntity
  8
DETAIL
  6
Continuous
 48
30.0
100
AcDbCircle
 10
362.1999999999971
 20
37.5
 30
0.0
 40
6.0
  0
CIRCLE
  5
4CF76
330
18
100
AcDbEntity
  8
DETAIL
  6
Continuous
 48
30.0
100
AcDbCircle
 10
362.1999999999971
 20
19.5
 30
0.0
 40
6.0
  0
CIRCLE
  5
4CF77
330
18
100
AcDbEntity
  8
DETAIL
  6
Continuous
 48
30.0
100
AcDbCircle
 10
237.4000000000014
 20
55.5
 30
0.0
 40
6.0
  0
CIRCLE
  5
4CF78
330
18
100
AcDbEntity
  8
DETAIL
  6
Continuous
 48
30.0
100
AcDbCircle
 10
237.4000000000014
 20
37.5
 30
0.0
 40
6.0
  0
CIRCLE
  5
4CF79
330
18
100
AcDbEntity
  8
DETAIL
  6
Continuous
 48
30.0
100
AcDbCircle
 10
237.4000000000014
 20
19.5
 30
0.0
 40
6.0
  0
CIRCLE
  5
4CF7A
330
18
100
AcDbEntity
  8
DETAIL
  6
Continuous
 48
30.0
100
AcDbCircle
 10
140.0
 20
52.5
 30
0.0
 40
1.399999999999999
  0
CIRCLE
  5
4CF7B
330
18
100
AcDbEntity
  8
DETAIL
  6
Continuous
 48
30.0
100
AcDbCircle
 10
210.0
 20
52.5
 30
0.0
 40
1.399999999999999
  0
CIRCLE
  5
4CF7C
330
18
100
AcDbEntity
  8
DETAIL
  6
Continuous
 48
30.0
100
AcDbCircle
 10
140.0
 20
52.5
 30
0.0
 40
1.6
  0
CIRCLE
  5
4CF7D
330
18
100
AcDbEntity
  8
DETAIL
  6
Continuous
 48
30.0
100
AcDbCircle
 10
210.0
 20
52.5
 30
0.0
 40
1.6
  0
CIRCLE
  5
4CF7E
330
18
100
AcDbEntity
  8
DETAIL
  6
Continuous
 48
30.0
100
AcDbCircle
 10
140.0
 20
52.5
 30
0.0
 40
3.95
  0
CIRCLE
  5
4CF7F
330
18
100
AcDbEntity
  8
DETAIL
  6
Continuous
 48
30.0
100
AcDbCircle
 10
210.0
 20
52.5
 30
0.0
 40
3.95
  0
CIRCLE
  5
4CF80
330
18
100
AcDbEntity
  8
DETAIL
  6
Continuous
 48
30.0
100
AcDbCircle
 10
143.7999999999956
 20
37.5
 30
0.0
 40
6.0
  0
CIRCLE
  5
4CF81
330
18
100
AcDbEntity
  8
DETAIL
  6
Continuous
 48
30.0
100
AcDbCircle
 10
175.0
 20
37.5
 30
0.0
 40
6.0
  0
CIRCLE
  5
4CF82
330
18
100
AcDbEntity
  8
DETAIL
  6
Continuous
 48
30.0
100
AcDbCircle
 10
206.2000000000007
 20
37.5
 30
0.0
 40
6.0
  0
CIRCLE
  5
4CF83
330
18
100
AcDbEntity
  8
DETAIL
  6
Continuous
 48
30.0
100
AcDbCircle
 10
143.7999999999956
 20
19.5
 30
0.0
 40
6.0
  0
CIRCLE
  5
4CF84
330
18
100
AcDbEntity
  8
DETAIL
  6
Continuous
 48
30.0
100
AcDbCircle
 10
175.0
 20
19.5
 30
0.0
 40
6.0
  0
CIRCLE
  5
4CF85
330
18
100
AcDbEntity
  8
DETAIL
  6
Continuous
 48
30.0
100
AcDbCircle
 10
206.2000000000007
 20
19.5
 30
0.0
 40
6.0
  0
CIRCLE
  5
4CF86
330
18
100
AcDbEntity
  8
DETAIL
  6
Continuous
 48
30.0
100
AcDbCircle
 10
128.2000000000007
 20
28.5
 30
0.0
 40
6.0
  0
CIRCLE
  5
4CF87
330
18
100
AcDbEntity
  8
DETAIL
  6
Continuous
 48
30.0
100
AcDbCircle
 10
159.4000000000014
 20
28.5
 30
0.0
 40
6.0
  0
CIRCLE
  5
4CF88
330
18
100
AcDbEntity
  8
DETAIL
  6
Continuous
 48
30.0
100
AcDbCircle
 10
190.5999999999985
 20
28.5
 30
0.0
 40
6.0
  0
CIRCLE
  5
4CF89
330
18
100
AcDbEntity
  8
DETAIL
  6
Continuous
 48
30.0
100
AcDbCircle
 10
221.7999999999956
 20
28.5
 30
0.0
 40
6.0
  0
LINE
  5
4CF8A
330
18
100
AcDbEntity
  8
DETAIL
  6
Continuous
 48
30.0
100
AcDbLine
 10
234.3533375896986
 20
14.35333758960223
 30
0.0
 11
235.0
 21
15.0
 31
0.0
  0
LINE
  5
4CF8B
330
18
100
AcDbEntity
  8
DETAIL
  6
Continuous
 48
30.0
100
AcDbLine
 10
235.0
 20
50.00535370780017
 30
0.0
 11
235.0
 21
60.0
 31
0.0
  0
LINE
  5
4CF8C
330
18
100
AcDbEntity
  8
DETAIL
  6
Continuous
 48
30.0
100
AcDbLine
 10
235.0
 20
32.00535370780016
 30
0.0
 11
235.0
 21
42.99464629220165
 31
0.0
  0
LINE
  5
4CF8D
330
18
100
AcDbEntity
  8
DETAIL
  6
Continuous
 48
30.0
100
AcDbLine
 10
235.0
 20
15.0
 30
0.0
 11
235.0
 21
24.99464629220165
 31
0.0
  0
LINE
  5
4CF8E
330
18
100
AcDbEntity
  8
DETAIL
  6
Continuous
 48
30.0
100
AcDbLine
 10
225.0
 20
33.56414793480144
 30
0.0
 11
225.0
 21
23.43585206520037
 31
0.0
  0
LINE
  5
4CF8F
330
18
100
AcDbEntity
  8
DETAIL
  6
Continuous
 48
30.0
100
AcDbLine
 10
223.9000000000014
 20
34.10104471660088
 30
0.0
 11
223.9000000000014
 21
22.89895528340093
 31
0.0
  0
LINE
  5
4CF90
330
18
100
AcDbEntity
  8
DETAIL
  6
Continuous
 48
30.0
100
AcDbLine
 10
126.0999999999985
 20
34.10104471660088
 30
0.0
 11
126.0999999999985
 21
22.89895528340093
 31
0.0
  0
LINE
  5
4CF91
330
18
100
AcDbEntity
  8
DETAIL
  6
Continuous
 48
30.0
100
AcDbLine
 10
125.0
 20
33.56414793480144
 30
0.0
 11
125.0
 21
23.43585206520037
 31
0.0
  0
LINE
  5
4CF92
330
18
100
AcDbEntity
  8
DETAIL
  6
Continuous
 48
30.0
100
AcDbLine
 10
235.0
 20
60.0
 30
0.0
 11
234.3533375896986
 21
60.6466624104014
 31
0.0
  0
LINE
  5
4CF93
330
18
100
AcDbEntity
  8
DETAIL
  6
Continuous
 48
30.0
100
AcDbLine
 10
201.3946809724948
 20
41.08254807990124
 30
0.0
 11
211.0053190274957
 21
41.08254807990124
 31
0.0
  0
LINE
  5
4CF94
330
18
100
AcDbEntity
  8
DETAIL
  6
Continuous
 48
30.0
100
AcDbLine
 10
170.1946809724977
 20
41.08254807990124
 30
0.0
 11
179.8053190274949
 21
41.08254807990124
 31
0.0
  0
LINE
  5
4CF95
330
18
100
AcDbEntity
  8
DETAIL
  6
Continuous
 48
30.0
100
AcDbLine
 10
138.9946809725952
 20
41.08254807990124
 30
0.0
 11
148.6053190274978
 21
41.08254807990124
 31
0.0
  0
LINE
  5
4CF96
330
18
100
AcDbEntity
  8
DETAIL
  6
Continuous
 48
30.0
100
AcDbLine
 10
200.7489197137983
 20
39.98268873440065
 30
0.0
 11
211.6510802862976
 21
39.98268873440065
 31
0.0
  0
LINE
  5
4CF97
330
18
100
AcDbEntity
  8
DETAIL
  6
Continuous
 48
30.0
100
AcDbLine
 10
169.5489197138013
 20
39.98268873440065
 30
0.0
 11
180.4510802863005
 21
39.98268873440065
 31
0.0
  0
LINE
  5
4CF98
330
18
100
AcDbEntity
  8
DETAIL
  6
Continuous
 48
30.0
100
AcDbLine
 10
138.3489197137969
 20
39.98268873440065
 30
0.0
 11
149.2510802862962
 21
39.98268873440065
 31
0.0
  0
LINE
  5
4CF99
330
18
100
AcDbEntity
  8
DETAIL
  6
Continuous
 48
30.0
100
AcDbLine
 10
200.3987612855016
 20
21.0
 30
0.0
 11
212.0012387146016
 21
21.0
 31
0.0
  0
LINE
  5
4CF9A
330
18
100
AcDbEntity
  8
DETAIL
  6
Continuous
 48
30.0
100
AcDbLine
 10
169.1987612855009
 20
21.0
 30
0.0
 11
180.8012387146009
 21
21.0
 31
0.0
  0
LINE
  5
4CF9B
330
18
100
AcDbEntity
  8
DETAIL
  6
Continuous
 48
30.0
100
AcDbLine
 10
137.9987612854965
 20
21.0
 30
0.0
 11
149.6012387145965
 21
21.0
 31
0.0
  0
CIRCLE
  5
4CF9C
330
18
100
AcDbEntity
  8
DETAIL
  6
Continuous
 48
30.0
100
AcDbCircle
 10
268.5999999999985
 20
55.5
 30
0.0
 40
6.0
  0
CIRCLE
  5
4CF9D
330
18
100
AcDbEntity
  8
DETAIL
  6
Continuous
 48
30.0
100
AcDbCircle
 10
299.7999999999956
 20
55.5
 30
0.0
 40
6.0
  0
CIRCLE
  5
4CF9E
330
18
100
AcDbEntity
  8
DETAIL
  6
Continuous
 48
30.0
100
AcDbCircle
 10
331.0
 20
55.5
 30
0.0
 40
6.0
  0
CIRCLE
  5
4CF9F
330
18
100
AcDbEntity
  8
DETAIL
  6
Continuous
 48
30.0
100
AcDbCircle
 10
268.5999999999985
 20
37.5
 30
0.0
 40
6.0
  0
CIRCLE
  5
4CFA0
330
18
100
AcDbEntity
  8
DETAIL
  6
Continuous
 48
30.0
100
AcDbCircle
 10
299.7999999999956
 20
37.5
 30
0.0
 40
6.0
  0
CIRCLE
  5
4CFA1
330
18
100
AcDbEntity
  8
DETAIL
  6
Continuous
 48
30.0
100
AcDbCircle
 10
331.0
 20
37.5
 30
0.0
 40
6.0
  0
CIRCLE
  5
4CFA2
330
18
100
AcDbEntity
  8
DETAIL
  6
Continuous
 48
30.0
100
AcDbCircle
 10
253.0
 20
46.5
 30
0.0
 40
6.0
  0
CIRCLE
  5
4CFA3
330
18
100
AcDbEntity
  8
DETAIL
  6
Continuous
 48
30.0
100
AcDbCircle
 10
284.2000000000007
 20
46.5
 30
0.0
 40
6.0
  0
CIRCLE
  5
4CFA4
330
18
100
AcDbEntity
  8
DETAIL
  6
Continuous
 48
30.0
100
AcDbCircle
 10
315.3999999999978
 20
46.5
 30
0.0
 40
6.0
  0
CIRCLE
  5
4CFA5
330
18
100
AcDbEntity
  8
DETAIL
  6
Continuous
 48
30.0
100
AcDbCircle
 10
346.5999999999985
 20
46.5
 30
0.0
 40
6.0
  0
CIRCLE
  5
4CFA6
330
18
100
AcDbEntity
  8
DETAIL
  6
Continuous
 48
30.0
100
AcDbCircle
 10
268.5999999999985
 20
19.5
 30
0.0
 40
6.0
  0
CIRCLE
  5
4CFA7
330
18
100
AcDbEntity
  8
DETAIL
  6
Continuous
 48
30.0
100
AcDbCircle
 10
299.7999999999956
 20
19.5
 30
0.0
 40
6.0
  0
CIRCLE
  5
4CFA8
330
18
100
AcDbEntity
  8
DETAIL
  6
Continuous
 48
30.0
100
AcDbCircle
 10
331.0
 20
19.5
 30
0.0
 40
6.0
  0
CIRCLE
  5
4CFA9
330
18
100
AcDbEntity
  8
DETAIL
  6
Continuous
 48
30.0
100
AcDbCircle
 10
253.0
 20
28.5
 30
0.0
 40
6.0
  0
CIRCLE
  5
4CFAA
330
18
100
AcDbEntity
  8
DETAIL
  6
Continuous
 48
30.0
100
AcDbCircle
 10
284.2000000000007
 20
28.5
 30
0.0
 40
6.0
  0
CIRCLE
  5
4CFAB
330
18
100
AcDbEntity
  8
DETAIL
  6
Continuous
 48
30.0
100
AcDbCircle
 10
315.3999999999978
 20
28.5
 30
0.0
 40
6.0
  0
CIRCLE
  5
4CFAC
330
18
100
AcDbEntity
  8
DETAIL
  6
Continuous
 48
30.0
100
AcDbCircle
 10
346.5999999999985
 20
28.5
 30
0.0
 40
6.0
  0
CIRCLE
  5
4CFAD
330
18
100
AcDbEntity
  8
DETAIL
  6
Continuous
 48
30.0
100
AcDbCircle
 10
393.3999999999977
 20
55.5
 30
0.0
 40
6.0
  0
CIRCLE
  5
4CFAE
330
18
100
AcDbEntity
  8
DETAIL
  6
Continuous
 48
30.0
100
AcDbCircle
 10
424.5999999999985
 20
55.5
 30
0.0
 40
6.0
  0
CIRCLE
  5
4CFAF
330
18
100
AcDbEntity
  8
DETAIL
  6
Continuous
 48
30.0
100
AcDbCircle
 10
455.7999999999956
 20
55.5
 30
0.0
 40
6.0
  0
CIRCLE
  5
4CFB0
330
18
100
AcDbEntity
  8
DETAIL
  6
Continuous
 48
30.0
100
AcDbCircle
 10
393.3999999999977
 20
37.5
 30
0.0
 40
6.0
  0
CIRCLE
  5
4CFB1
330
18
100
AcDbEntity
  8
DETAIL
  6
Continuous
 48
30.0
100
AcDbCircle
 10
424.5999999999985
 20
37.5
 30
0.0
 40
6.0
  0
CIRCLE
  5
4CFB2
330
18
100
AcDbEntity
  8
DETAIL
  6
Continuous
 48
30.0
100
AcDbCircle
 10
455.7999999999956
 20
37.5
 30
0.0
 40
6.0
  0
CIRCLE
  5
4CFB3
330
18
100
AcDbEntity
  8
DETAIL
  6
Continuous
 48
30.0
100
AcDbCircle
 10
377.7999999999956
 20
46.5
 30
0.0
 40
6.0
  0
CIRCLE
  5
4CFB4
330
18
100
AcDbEntity
  8
DETAIL
  6
Continuous
 48
30.0
100
AcDbCircle
 10
409.0
 20
46.5
 30
0.0
 40
6.0
  0
CIRCLE
  5
4CFB5
330
18
100
AcDbEntity
  8
DETAIL
  6
Continuous
 48
30.0
100
AcDbCircle
 10
440.199999999997
 20
46.5
 30
0.0
 40
6.0
  0
CIRCLE
  5
4CFB6
330
18
100
AcDbEntity
  8
DETAIL
  6
Continuous
 48
30.0
100
AcDbCircle
 10
393.3999999999977
 20
19.5
 30
0.0
 40
6.0
  0
CIRCLE
  5
4CFB7
330
18
100
AcDbEntity
  8
DETAIL
  6
Continuous
 48
30.0
100
AcDbCircle
 10
424.5999999999985
 20
19.5
 30
0.0
 40
6.0
  0
CIRCLE
  5
4CFB8
330
18
100
AcDbEntity
  8
DETAIL
  6
Continuous
 48
30.0
100
AcDbCircle
 10
455.7999999999956
 20
19.5
 30
0.0
 40
6.0
  0
CIRCLE
  5
4CFB9
330
18
100
AcDbEntity
  8
DETAIL
  6
Continuous
 48
30.0
100
AcDbCircle
 10
377.7999999999956
 20
28.5
 30
0.0
 40
6.0
  0
CIRCLE
  5
4CFBA
330
18
100
AcDbEntity
  8
DETAIL
  6
Continuous
 48
30.0
100
AcDbCircle
 10
409.0
 20
28.5
 30
0.0
 40
6.0
  0
CIRCLE
  5
4CFBB
330
18
100
AcDbEntity
  8
DETAIL
  6
Continuous
 48
30.0
100
AcDbCircle
 10
440.199999999997
 20
28.5
 30
0.0
 40
6.0
  0
ARC
  5
4CFBC
330
18
100
AcDbEntity
  8
DETAIL
  6
Continuous
 48
30.0
100
AcDbCircle
 10
563.7999999999956
 20
76.20000000000255
 30
0.0
 40
1.200000000001182
100
AcDbArc
 50
270.0
 51
359.9999999998958
  0
CIRCLE
  5
4CFC5
330
18
100
AcDbEntity
  8
DETAIL
  6
Continuous
 48
30.0
100
AcDbCircle
 10
544.7999999999956
 20
85.0
 30
0.0
 40
6.0
  0
CIRCLE
  5
4CFC6
330
18
100
AcDbEntity
  8
DETAIL
  6
Continuous
 48
30.0
100
AcDbCircle
 10
530.0
 20
37.5
 30
0.0
 40
15.25
  0
LINE
  5
4CFC7
330
18
100
AcDbEntity
  8
DETAIL
  6
Continuous
 48
30.0
100
AcDbLine
 10
555.6999999999971
 20
75.0
 30
0.0
 11
560.699999999997
 21
80.0
 31
0.0
  0
LINE
  5
4CFC8
330
18
100
AcDbEntity
  8
DETAIL
  6
Continuous
 48
30.0
100
AcDbLine
 10
565.0
 20
0.0
 30
0.0
 11
565.0
 21
75.0
 31
0.0
  0
LINE
  5
4CFC9
330
18
100
AcDbEntity
  8
DETAIL
  6
Continuous
 48
30.0
100
AcDbLine
 10
563.7999999999956
 20
76.20000000000072
 30
0.0
 11
563.7999999999956
 21
75.0
 31
0.0
  0
LINE
  5
4CFCA
330
18
100
AcDbEntity
  8
DETAIL
  6
Continuous
 48
30.0
100
AcDbLine
 10
560.0
 20
71.80000000000109
 30
0.0
 11
560.0
 21
75.0
 31
0.0
  0
LINE
  5
4CFCB
330
18
100
AcDbEntity
  8
DETAIL
  6
Continuous
 48
30.0
100
AcDbLine
 10
560.0
 20
3.200000000000727
 30
0.0
 11
560.0
 21
0.0
 31
0.0
  0
LINE
  5
4CFCC
330
18
100
AcDbEntity
  8
DETAIL
  6
Continuous
 48
30.0
100
AcDbLine
 10
548.7999999999956
 20
82.69059892320001
 30
0.0
 11
548.7999999999956
 21
87.30940107670177
 31
0.0
  0
LINE
  5
4CFCD
330
18
100
AcDbEntity
  8
DETAIL
  6
Continuous
 48
30.0
100
AcDbLine
 10
547.1999999999971
 20
84.50000000000001
 30
0.0
 11
547.1999999999971
 21
85.5
 31
0.0
  0
LINE
  5
4CFCE
330
18
100
AcDbEntity
  8
DETAIL
  6
Continuous
 48
30.0
100
AcDbLine
 10
545.2999999999956
 20
82.60000000000038
 30
0.0
 11
545.2999999999956
 21
84.50000000000001
 31
0.0
  0
LINE
  5
4CFCF
330
18
100
AcDbEntity
  8
DETAIL
  6
Continuous
 48
30.0
100
AcDbLine
 10
545.2999999999956
 20
85.5
 30
0.0
 11
545.2999999999956
 21
87.40000000000145
 31
0.0
  0
LINE
  5
4CFD0
330
18
100
AcDbEntity
  8
DETAIL
  6
Continuous
 48
30.0
100
AcDbLine
 10
544.2999999999956
 20
87.40000000000145
 30
0.0
 11
544.2999999999956
 21
85.5
 31
0.0
  0
LINE
  5
4CFD1
330
18
100
AcDbEntity
  8
DETAIL
  6
Continuous
 48
30.0
100
AcDbLine
 10
544.2999999999956
 20
84.50000000000001
 30
0.0
 11
544.2999999999956
 21
82.60000000000038
 31
0.0
  0
LINE
  5
4CFD2
330
18
100
AcDbEntity
  8
DETAIL
  6
Continuous
 48
30.0
100
AcDbLine
 10
542.3999999999978
 20
85.5
 30
0.0
 11
542.3999999999978
 21
84.50000000000001
 31
0.0
  0
LINE
  5
4CFD3
330
18
100
AcDbEntity
  8
DETAIL
  6
Continuous
 48
30.0
100
AcDbLine
 10
540.7999999999956
 20
87.30940107670177
 30
0.0
 11
540.7999999999956
 21
82.69059892320001
 31
0.0
  0
LINE
  5
4CFD4
330
18
100
AcDbEntity
  8
DETAIL
  6
Continuous
 48
30.0
100
AcDbLine
 10
519.7999999999956
 20
76.30000000000109
 30
0.0
 11
519.7999999999956
 21
75.0
 31
0.0
  0
LINE
  5
4CFD5
330
18
100
AcDbEntity
  8
DETAIL
  6
Continuous
 48
30.0
100
AcDbLine
 10
544.7999999999956
 20
80.38119784650005
 30
0.0
 11
548.7999999999956
 21
82.69059892320001
 31
0.0
  0
LINE
  5
4CFD6
330
18
100
AcDbEntity
  8
DETAIL
  6
Continuous
 48
30.0
100
AcDbLine
 10
544.7999999999956
 20
89.61880215350175
 30
0.0
 11
540.7999999999956
 21
87.30940107670177
 31
0.0
  0
LINE
  5
4CFD7
330
18
100
AcDbEntity
  8
DETAIL
  6
Continuous
 48
30.0
100
AcDbLine
 10
548.7999999999956
 20
87.30940107670177
 30
0.0
 11
544.7999999999956
 21
89.61880215350175
 31
0.0
  0
LINE
  5
4CFD8
330
18
100
AcDbEntity
  8
DETAIL
  6
Continuous
 48
30.0
100
AcDbLine
 10
540.7999999999956
 20
82.69059892320001
 30
0.0
 11
544.7999999999956
 21
80.38119784650005
 31
0.0
  0
LINE
  5
4CFD9
330
18
100
AcDbEntity
  8
DETAIL
  6
Continuous
 48
30.0
100
AcDbLine
 10
545.2999999999956
 20
87.40000000000145
 30
0.0
 11
544.2999999999956
 21
87.40000000000145
 31
0.0
  0
LINE
  5
4CFDA
330
18
100
AcDbEntity
  8
DETAIL
  6
Continuous
 48
30.0
100
AcDbLine
 10
547.1999999999971
 20
85.5
 30
0.0
 11
545.2999999999956
 21
85.5
 31
0.0
  0
LINE
  5
4CFDB
330
18
100
AcDbEntity
  8
DETAIL
  6
Continuous
 48
30.0
100
AcDbLine
 10
544.2999999999956
 20
85.5
 30
0.0
 11
542.3999999999978
 21
85.5
 31
0.0
  0
LINE
  5
4CFDE
330
18
100
AcDbEntity
  8
DETAIL
  6
Continuous
 48
30.0
100
AcDbLine
 10
545.2999999999956
 20
84.50000000000001
 30
0.0
 11
547.1999999999971
 21
84.50000000000001
 31
0.0
  0
LINE
  5
4CFDF
330
18
100
AcDbEntity
  8
DETAIL
  6
Continuous
 48
30.0
100
AcDbLine
 10
542.3999999999978
 20
84.50000000000001
 30
0.0
 11
544.2999999999956
 21
84.50000000000001
 31
0.0
  0
LINE
  5
4CFE0
330
18
100
AcDbEntity
  8
DETAIL
  6
Continuous
 48
30.0
100
AcDbLine
 10
544.2999999999956
 20
82.60000000000038
 30
0.0
 11
545.2999999999956
 21
82.60000000000038
 31
0.0
  0
LINE
  5
4CFE1
330
18
100
AcDbEntity
  8
DETAIL
  6
Continuous
 48
30.0
100
AcDbLine
 10
556.8999999999978
 20
76.20000000000072
 30
0.0
 11
565.0
 21
76.20000000000072
 31
0.0
  0
LINE
  5
4CFE4
330
18
100
AcDbEntity
  8
DETAIL
  6
Continuous
 48
30.0
100
AcDbLine
 10
-213.7999999999992
 20
1860.000000000002
 30
0.0
 11
563.7999999999956
 21
1860.000000000002
 31
0.0
  0
LINE
  5
4CFE5
330
18
100
AcDbEntity
  8
DETAIL
  6
Continuous
 48
30.0
100
AcDbLine
 10
-213.7999999999992
 20
1859.6485281374
 30
0.0
 11
563.7999999999956
 21
1859.6485281374
 31
0.0
  0
LINE
  5
4CFE6
330
18
100
AcDbEntity
  8
DETAIL
  6
Continuous
 48
30.0
100
AcDbLine
 10
-213.7999999999992
 20
1780.351471862601
 30
0.0
 11
563.7999999999956
 21
1780.351471862601
 31
0.0
  0
LINE
  5
4CFE7
330
18
100
AcDbEntity
  8
DETAIL
  6
Continuous
 48
30.0
100
AcDbLine
 10
-215.0
 20
1779.502943725099
 30
0.0
 11
563.7999999999956
 21
1779.502943725099
 31
0.0
  0
LINE
  5
4CFE8
330
18
100
AcDbEntity
  8
DETAIL
  6
Continuous
 48
30.0
100
AcDbLine
 10
563.7999999999956
 20
1726.2
 30
0.0
 11
-215.0
 21
1726.2
 31
0.0
  0
LINE
  5
4CFE9
330
18
100
AcDbEntity
  8
DETAIL
  6
Continuous
 48
30.0
100
AcDbLine
 10
563.7999999999956
 20
1725.000000000001
 30
0.0
 11
-213.7999999999992
 21
1725.000000000001
 31
0.0
  0
LINE
  5
4CFEA
330
18
100
AcDbEntity
  8
DETAIL
  6
Continuous
 48
30.0
100
AcDbLine
 10
519.7999999999956
 20
1723.7
 30
0.0
 11
-169.7999999999992
 21
1723.7
 31
0.0
  0
LINE
  5
4CFEB
330
18
100
AcDbEntity
  8
DETAIL
  6
Continuous
 48
30.0
100
AcDbLine
 10
544.6999999999967
 20
1705.1
 30
0.0
 11
-194.7000000000043
 21
1705.1
 31
0.0
  0
LINE
  5
4CFEC
330
18
100
AcDbEntity
  8
DETAIL
  6
Continuous
 48
30.0
100
AcDbLine
 10
-210.7000000000043
 20
1705.000000000001
 30
0.0
 11
560.699999999997
 21
1705.000000000001
 31
0.0
  0
LINE
  5
4CFED
330
18
100
AcDbEntity
  8
DETAIL
  6
Continuous
 48
30.0
100
AcDbLine
 10
560.699999999997
 20
1704.443407591201
 30
0.0
 11
-210.7000000000043
 21
1704.443407591201
 31
0.0
  0
LINE
  5
4CFEE
330
18
100
AcDbEntity
  8
DETAIL
  6
Continuous
 48
30.0
100
AcDbLine
 10
-212.0
 20
1703.143407591202
 30
0.0
 11
562.0
 21
1703.143407591202
 31
0.0
  0
LINE
  5
4CFEF
330
18
100
AcDbEntity
  8
DETAIL
  6
Continuous
 48
30.0
100
AcDbLine
 10
-212.0
 20
1618.000000000001
 30
0.0
 11
562.0
 21
1618.000000000001
 31
0.0
  0
LINE
  5
4CFF0
330
18
100
AcDbEntity
  8
DETAIL
  6
Continuous
 48
30.0
100
AcDbLine
 10
-210.7000000000043
 20
1614.673654403299
 30
0.0
 11
560.699999999997
 21
1614.673654403299
 31
0.0
  0
LINE
  5
4CFF1
330
18
100
AcDbEntity
  8
DETAIL
  6
Continuous
 48
30.0
100
AcDbLine
 10
-212.0
 20
1613.754415587702
 30
0.0
 11
562.0
 21
1613.754415587702
 31
0.0
  0
LINE
  5
4CFF2
330
18
100
AcDbEntity
  8
DETAIL
  6
Continuous
 48
30.0
100
AcDbLine
 10
-212.0
 20
921.3000000000011
 30
0.0
 11
562.0
 21
921.3000000000011
 31
0.0
  0
LINE
  5
4CFF3
330
18
100
AcDbEntity
  8
DETAIL
  6
Continuous
 48
30.0
100
AcDbLine
 10
560.699999999997
 20
920.0
 30
0.0
 11
-210.7000000000043
 21
920.0
 31
0.0
  0
LINE
  5
4CFF4
330
18
100
AcDbEntity
  8
DETAIL
  6
Continuous
 48
30.0
100
AcDbLine
 10
-210.7000000000043
 20
919.9000000000014
 30
0.0
 11
560.699999999997
 21
919.9000000000014
 31
0.0
  0
LINE
  5
4CFF5
330
18
100
AcDbEntity
  8
DETAIL
  6
Continuous
 48
30.0
100
AcDbLine
 10
-169.7999999999992
 20
901.300000000001
 30
0.0
 11
519.7999999999956
 21
901.300000000001
 31
0.0
  0
LINE
  5
4CFF6
330
18
100
AcDbEntity
  8
DETAIL
  6
Continuous
 48
30.0
100
AcDbLine
 10
-189.7000000000043
 20
900.0
 30
0.0
 11
539.699999999997
 21
900.0
 31
0.0
  0
LINE
  5
4CFF7
330
18
100
AcDbEntity
  8
DETAIL
  6
Continuous
 48
30.0
100
AcDbLine
 10
-205.7000000000043
 20
900.0
 30
0.0
 11
555.6999999999971
 21
900.0
 31
0.0
  0
LINE
  5
4CFF8
330
18
100
AcDbEntity
  8
DETAIL
  6
Continuous
 48
30.0
100
AcDbLine
 10
519.7999999999956
 20
898.7000000000007
 30
0.0
 11
-169.7999999999992
 21
898.7000000000007
 31
0.0
  0
LINE
  5
4CFF9
330
18
100
AcDbEntity
  8
DETAIL
  6
Continuous
 48
30.0
100
AcDbLine
 10
544.6999999999967
 20
880.1000000000001
 30
0.0
 11
-194.7000000000043
 21
880.1000000000001
 31
0.0
  0
LINE
  5
4CFFA
330
18
100
AcDbEntity
  8
DETAIL
  6
Continuous
 48
30.0
100
AcDbLine
 10
-210.7000000000043
 20
880.0
 30
0.0
 11
560.699999999997
 21
880.0
 31
0.0
  0
LINE
  5
4CFFB
330
18
100
AcDbEntity
  8
DETAIL
  6
Continuous
 48
30.0
100
AcDbLine
 10
560.699999999997
 20
879.4434075912013
 30
0.0
 11
-210.7000000000043
 21
879.4434075912013
 31
0.0
  0
LINE
  5
4CFFC
330
18
100
AcDbEntity
  8
DETAIL
  6
Continuous
 48
30.0
100
AcDbLine
 10
-212.0
 20
878.1434075912002
 30
0.0
 11
562.0
 21
878.1434075912002
 31
0.0
  0
LINE
  5
4CFFD
330
18
100
AcDbEntity
  8
DETAIL
  6
Continuous
 48
30.0
100
AcDbLine
 10
-212.0
 20
793.0
 30
0.0
 11
562.0
 21
793.0
 31
0.0
  0
LINE
  5
4CFFE
330
18
100
AcDbEntity
  8
DETAIL
  6
Continuous
 48
30.0
100
AcDbLine
 10
-210.7000000000043
 20
789.6736544032992
 30
0.0
 11
560.699999999997
 21
789.6736544032992
 31
0.0
  0
LINE
  5
4CFFF
330
18
100
AcDbEntity
  8
DETAIL
  6
Continuous
 48
30.0
100
AcDbLine
 10
-212.0
 20
788.7544155877021
 30
0.0
 11
562.0
 21
788.7544155877021
 31
0.0
  0
LINE
  5
4D000
330
18
100
AcDbEntity
  8
DETAIL
  6
Continuous
 48
30.0
100
AcDbLine
 10
-210.7000000000043
 20
905.0
 30
0.0
 11
-210.7000000000043
 21
1618.000000000001
 31
0.0
  0
LINE
  5
4D001
330
18
100
AcDbEntity
  8
DETAIL
  6
Continuous
 48
30.0
100
AcDbLine
 10
-212.0
 20
921.3000000000011
 30
0.0
 11
-212.0
 21
1618.000000000001
 31
0.0
  0
LINE
  5
4D002
330
18
100
AcDbEntity
  8
DETAIL
  6
Continuous
 48
30.0
100
AcDbLine
 10
-170.7999999999992
 20
862.0
 30
0.0
 11
-91.79999999999926
 21
862.0
 31
0.0
  0
LINE
  5
4D003
330
18
100
AcDbEntity
  8
DETAIL
  6
Continuous
 48
30.0
100
AcDbLine
 10
-91.79999999999926
 20
812.0
 30
0.0
 11
-170.7999999999992
 21
812.0
 31
0.0
  0
LINE
  5
4D004
330
18
100
AcDbEntity
  8
DETAIL
  6
Continuous
 48
30.0
100
AcDbLine
 10
-210.7000000000043
 20
793.0
 30
0.0
 11
-210.7000000000043
 21
879.4434075912013
 31
0.0
  0
LINE
  5
4D005
330
18
100
AcDbEntity
  8
DETAIL
  6
Continuous
 48
30.0
100
AcDbLine
 10
-212.0
 20
878.1434075912002
 30
0.0
 11
-212.0
 21
793.0
 31
0.0
  0
ARC
  5
4D006
330
18
100
AcDbEntity
  8
DETAIL
  6
Continuous
 48
30.0
100
AcDbCircle
 10
-170.7999999999992
 20
856.9999999999982
 30
0.0
 40
5.000000000002728
100
AcDbArc
 50
90.0
 51
179.9999999999479
  0
ARC
  5
4D007
330
18
100
AcDbEntity
  8
DETAIL
  6
Continuous
 48
30.0
100
AcDbCircle
 10
-170.7999999999992
 20
817.0000000000017
 30
0.0
 40
5.000000000002728
100
AcDbArc
 50
180.0
 51
270.0
  0
ARC
  5
4D008
330
18
100
AcDbEntity
  8
DETAIL
  6
Continuous
 48
30.0
100
AcDbCircle
 10
-202.8484375001826
 20
807.0
 30
0.0
 40
10.15156249981918
100
AcDbArc
 50
172.0730863574436
 51
187.9269136425563
  0
ARC
  5
4D009
330
18
100
AcDbEntity
  8
DETAIL
  6
Continuous
 48
30.0
100
AcDbCircle
 10
-202.8484374999607
 20
807.0000000000035
 30
0.0
 40
10.1515625000409
100
AcDbArc
 50
189.0682691278211
 51
202.898675976913
  0
ARC
  5
4D00A
330
18
100
AcDbEntity
  8
DETAIL
  6
Continuous
 48
30.0
100
AcDbCircle
 10
-202.8484374999607
 20
806.9999999999961
 30
0.0
 40
10.1515625000409
100
AcDbArc
 50
157.1013240230869
 51
170.9317308721788
  0
ARC
  5
4D00B
330
18
100
AcDbEntity
  8
DETAIL
  6
Continuous
 48
30.0
100
AcDbCircle
 10
-202.8484375001826
 20
817.0
 30
0.0
 40
10.15156249981918
100
AcDbArc
 50
172.0730863574436
 51
187.9269136425563
  0
ARC
  5
4D00C
330
18
100
AcDbEntity
  8
DETAIL
  6
Continuous
 48
30.0
100
AcDbCircle
 10
-202.8484374999607
 20
817.0000000000039
 30
0.0
 40
10.1515625000409
100
AcDbArc
 50
189.0682691278211
 51
202.898675976913
  0
ARC
  5
4D00D
330
18
100
AcDbEntity
  8
DETAIL
  6
Continuous
 48
30.0
100
AcDbCircle
 10
-202.8484374999607
 20
816.9999999999964
 30
0.0
 40
10.1515625000409
100
AcDbArc
 50
157.1013240230869
 51
170.9317308721788
  0
LINE
  5
4D00E
330
18
100
AcDbEntity
  8
DETAIL
  6
Continuous
 48
30.0
100
AcDbLine
 10
-212.8731181028997
 20
808.6000000000002
 30
0.0
 11
-212.2000000000043
 21
810.9500000000007
 31
0.0
  0
LINE
  5
4D00F
330
18
100
AcDbEntity
  8
DETAIL
  6
Continuous
 48
30.0
100
AcDbLine
 10
-212.8731181028997
 20
818.6000000000003
 30
0.0
 11
-212.2000000000043
 21
820.9500000000007
 31
0.0
  0
LINE
  5
4D010
330
18
100
AcDbEntity
  8
DETAIL
  6
Continuous
 48
30.0
100
AcDbLine
 10
-175.7999999999992
 20
817.0
 30
0.0
 11
-175.7999999999992
 21
857.0
 31
0.0
  0
LINE
  5
4D011
330
18
100
AcDbEntity
  8
DETAIL
  6
Continuous
 48
30.0
100
AcDbLine
 10
-210.7999999999992
 20
788.7544155877021
 30
0.0
 11
-210.7999999999992
 21
793.0
 31
0.0
  0
LINE
  5
4D012
330
18
100
AcDbEntity
  8
DETAIL
  6
Continuous
 48
30.0
100
AcDbLine
 10
-212.2000000000043
 20
810.9500000000007
 30
0.0
 11
-212.2000000000043
 21
803.050000000001
 31
0.0
  0
LINE
  5
4D013
330
18
100
AcDbEntity
  8
DETAIL
  6
Continuous
 48
30.0
100
AcDbLine
 10
-212.2000000000043
 20
820.9500000000007
 30
0.0
 11
-212.2000000000043
 21
813.050000000001
 31
0.0
  0
LINE
  5
4D014
330
18
100
AcDbEntity
  8
DETAIL
  6
Continuous
 48
30.0
100
AcDbLine
 10
-212.8731181028997
 20
808.6000000000002
 30
0.0
 11
-212.8731181028997
 21
805.4000000000012
 31
0.0
  0
LINE
  5
4D015
330
18
100
AcDbEntity
  8
DETAIL
  6
Continuous
 48
30.0
100
AcDbLine
 10
-212.8731181028997
 20
818.6000000000003
 30
0.0
 11
-212.8731181028997
 21
815.4000000000014
 31
0.0
  0
LINE
  5
4D016
330
18
100
AcDbEntity
  8
DETAIL
  6
Continuous
 48
30.0
100
AcDbLine
 10
-212.9029997078032
 20
808.4000000000012
 30
0.0
 11
-212.9029997078032
 21
805.6000000000002
 31
0.0
  0
LINE
  5
4D017
330
18
100
AcDbEntity
  8
DETAIL
  6
Continuous
 48
30.0
100
AcDbLine
 10
-212.9029997078032
 20
818.4000000000015
 30
0.0
 11
-212.9029997078032
 21
815.6000000000002
 31
0.0
  0
LINE
  5
4D018
330
18
100
AcDbEntity
  8
DETAIL
  6
Continuous
 48
30.0
100
AcDbLine
 10
-213.5
 20
775.0
 30
0.0
 11
-213.5
 21
785.0
 31
0.0
  0
LINE
  5
4D019
330
18
100
AcDbEntity
  8
DETAIL
  6
Continuous
 48
30.0
100
AcDbLine
 10
-212.8731181028997
 20
815.4000000000014
 30
0.0
 11
-212.2000000000043
 21
813.050000000001
 31
0.0
  0
LINE
  5
4D01A
330
18
100
AcDbEntity
  8
DETAIL
  6
Continuous
 48
30.0
100
AcDbLine
 10
-212.8731181028997
 20
805.4000000000012
 30
0.0
 11
-212.2000000000043
 21
803.050000000001
 31
0.0
  0
LINE
  5
4D01B
330
18
100
AcDbEntity
  8
DETAIL
  6
Continuous
 48
30.0
100
AcDbLine
 10
-212.0
 20
820.9500000000007
 30
0.0
 11
-212.2000000000043
 21
820.9500000000007
 31
0.0
  0
LINE
  5
4D01C
330
18
100
AcDbEntity
  8
DETAIL
  6
Continuous
 48
30.0
100
AcDbLine
 10
-212.8731181028997
 20
818.4000000000015
 30
0.0
 11
-212.9029997078032
 21
818.4000000000015
 31
0.0
  0
LINE
  5
4D01D
330
18
100
AcDbEntity
  8
DETAIL
  6
Continuous
 48
30.0
100
AcDbLine
 10
-212.8731181028997
 20
815.6000000000002
 30
0.0
 11
-212.9029997078032
 21
815.6000000000002
 31
0.0
  0
LINE
  5
4D01E
330
18
100
AcDbEntity
  8
DETAIL
  6
Continuous
 48
30.0
100
AcDbLine
 10
-212.0
 20
813.050000000001
 30
0.0
 11
-212.2000000000043
 21
813.050000000001
 31
0.0
  0
LINE
  5
4D01F
330
18
100
AcDbEntity
  8
DETAIL
  6
Continuous
 48
30.0
100
AcDbLine
 10
-212.0
 20
810.9500000000007
 30
0.0
 11
-212.2000000000043
 21
810.9500000000007
 31
0.0
  0
LINE
  5
4D020
330
18
100
AcDbEntity
  8
DETAIL
  6
Continuous
 48
30.0
100
AcDbLine
 10
-212.8731181028997
 20
808.4000000000012
 30
0.0
 11
-212.9029997078032
 21
808.4000000000012
 31
0.0
  0
LINE
  5
4D021
330
18
100
AcDbEntity
  8
DETAIL
  6
Continuous
 48
30.0
100
AcDbLine
 10
-212.8731181028997
 20
805.6000000000002
 30
0.0
 11
-212.9029997078032
 21
805.6000000000002
 31
0.0
  0
LINE
  5
4D022
330
18
100
AcDbEntity
  8
DETAIL
  6
Continuous
 48
30.0
100
AcDbLine
 10
-212.0
 20
803.050000000001
 30
0.0
 11
-212.2000000000043
 21
803.050000000001
 31
0.0
  0
LINE
  5
4D023
330
18
100
AcDbEntity
  8
DETAIL
  6
Continuous
 48
30.0
100
AcDbLine
 10
-212.0
 20
785.0
 30
0.0
 11
-213.5
 21
785.0
 31
0.0
  0
LINE
  5
4D024
330
18
100
AcDbEntity
  8
DETAIL
  6
Continuous
 48
30.0
100
AcDbLine
 10
-212.0
 20
775.0
 30
0.0
 11
-213.5
 21
775.0
 31
0.0
  0
CIRCLE
  5
4D025
330
18
100
AcDbEntity
  8
DETAIL
  6
Continuous
 48
30.0
100
AcDbCircle
 10
-245.0
 20
840.0
 30
0.0
 40
2.049999999999998
  0
CIRCLE
  5
4D026
330
18
100
AcDbEntity
  8
DETAIL
  6
Continuous
 48
30.0
100
AcDbCircle
 10
-245.0
 20
840.0
 30
0.0
 40
2.25
  0
CIRCLE
  5
4D027
330
18
100
AcDbEntity
  8
DETAIL
  6
Continuous
 48
30.0
100
AcDbCircle
 10
-245.0
 20
840.0
 30
0.0
 40
4.5
  0
LINE
  5
4D028
330
18
100
AcDbEntity
  8
DETAIL
  6
Continuous
 48
30.0
100
AcDbLine
 10
-244.7980435034041
 20
835.5065996377016
 30
0.0
 11
-241.2501610180988
 21
837.5549705456013
 31
0.0
  0
LINE
  5
4D029
330
18
100
AcDbEntity
  8
DETAIL
  6
Continuous
 48
30.0
100
AcDbLine
 10
-245.0
 20
836.0220566453007
 30
0.0
 11
-241.5550000000002
 21
838.0110283226004
 31
0.0
  0
LINE
  5
4D02A
330
18
100
AcDbEntity
  8
DETAIL
  6
Continuous
 48
30.0
100
AcDbLine
 10
-245.0
 20
843.977943354699
 30
0.0
 11
-248.4449999999997
 21
841.9889716773012
 31
0.0
  0
LINE
  5
4D02B
330
18
100
AcDbEntity
  8
DETAIL
  6
Continuous
 48
30.0
100
AcDbLine
 10
-245.2019564965012
 20
844.4934003623002
 30
0.0
 11
-248.7498389817992
 21
842.4450294544021
 31
0.0
  0
LINE
  5
4D02C
330
18
100
AcDbEntity
  8
DETAIL
  6
Continuous
 48
30.0
100
AcDbLine
 10
-241.2501610180988
 20
842.4450294544021
 30
0.0
 11
-244.7980435034041
 21
844.4934003623002
 31
0.0
  0
LINE
  5
4D02D
330
18
100
AcDbEntity
  8
DETAIL
  6
Continuous
 48
30.0
100
AcDbLine
 10
-241.5550000000002
 20
841.9889716773012
 30
0.0
 11
-245.0
 21
843.977943354699
 31
0.0
  0
LINE
  5
4D02E
330
18
100
AcDbEntity
  8
DETAIL
  6
Continuous
 48
30.0
100
AcDbLine
 10
-248.4449999999997
 20
838.0110283226004
 30
0.0
 11
-245.0
 21
836.0220566453007
 31
0.0
  0
LINE
  5
4D02F
330
18
100
AcDbEntity
  8
DETAIL
  6
Continuous
 48
30.0
100
AcDbLine
 10
-248.7498389817992
 20
837.5549705456013
 30
0.0
 11
-245.2019564965012
 21
835.5065996377016
 31
0.0
  0
LINE
  5
4D030
330
18
100
AcDbEntity
  8
DETAIL
  6
Continuous
 48
30.0
100
AcDbLine
 10
-241.0076228885009
 20
837.9580720526991
 30
0.0
 11
-241.0076228885009
 21
842.0419279472007
 31
0.0
  0
LINE
  5
4D031
330
18
100
AcDbEntity
  8
DETAIL
  6
Continuous
 48
30.0
100
AcDbLine
 10
-241.5550000000002
 20
838.0110283226004
 30
0.0
 11
-241.5550000000002
 21
841.9889716773012
 31
0.0
  0
LINE
  5
4D032
330
18
100
AcDbEntity
  8
DETAIL
  6
Continuous
 48
30.0
100
AcDbLine
 10
-248.4449999999997
 20
841.9889716773012
 30
0.0
 11
-248.4449999999997
 21
838.0110283226004
 31
0.0
  0
LINE
  5
4D033
330
18
100
AcDbEntity
  8
DETAIL
  6
Continuous
 48
30.0
100
AcDbLine
 10
-248.9923771114045
 20
842.0419279472007
 30
0.0
 11
-248.9923771114045
 21
837.9580720526991
 31
0.0
  0
CIRCLE
  5
4D03C
330
18
100
AcDbEntity
  8
DETAIL
  6
Continuous
 48
30.0
100
AcDbCircle
 10
-194.7999999999992
 20
910.0
 30
0.0
 40
6.0
  0
CIRCLE
  5
4D045
330
18
100
AcDbEntity
  8
DETAIL
  6
Continuous
 48
30.0
100
AcDbCircle
 10
-184.7999999999992
 20
890.0
 30
0.0
 40
6.0
  0
LINE
  5
4D046
330
18
100
AcDbEntity
  8
DETAIL
  6
Continuous
 48
30.0
100
AcDbLine
 10
-169.7999999999992
 20
898.7000000000007
 30
0.0
 11
-169.7999999999992
 21
900.0
 31
0.0
  0
LINE
  5
4D047
330
18
100
AcDbEntity
  8
DETAIL
  6
Continuous
 48
30.0
100
AcDbLine
 10
-169.7999999999992
 20
901.300000000001
 30
0.0
 11
-169.7999999999992
 21
900.0
 31
0.0
  0
LINE
  5
4D048
330
18
100
AcDbEntity
  8
DETAIL
  6
Continuous
 48
30.0
100
AcDbLine
 10
-180.7999999999992
 20
887.6905989232001
 30
0.0
 11
-180.7999999999992
 21
892.3094010767018
 31
0.0
  0
LINE
  5
4D049
330
18
100
AcDbEntity
  8
DETAIL
  6
Continuous
 48
30.0
100
AcDbLine
 10
-182.4000000000014
 20
889.4999999999999
 30
0.0
 11
-182.4000000000014
 21
890.4999999999999
 31
0.0
  0
LINE
  5
4D04A
330
18
100
AcDbEntity
  8
DETAIL
  6
Continuous
 48
30.0
100
AcDbLine
 10
-184.2999999999992
 20
887.6000000000002
 30
0.0
 11
-184.2999999999992
 21
889.4999999999999
 31
0.0
  0
LINE
  5
4D04B
330
18
100
AcDbEntity
  8
DETAIL
  6
Continuous
 48
30.0
100
AcDbLine
 10
-184.2999999999992
 20
890.4999999999999
 30
0.0
 11
-184.2999999999992
 21
892.4000000000015
 31
0.0
  0
LINE
  5
4D04C
330
18
100
AcDbEntity
  8
DETAIL
  6
Continuous
 48
30.0
100
AcDbLine
 10
-185.2999999999992
 20
892.4000000000015
 30
0.0
 11
-185.2999999999992
 21
890.4999999999999
 31
0.0
  0
LINE
  5
4D04D
330
18
100
AcDbEntity
  8
DETAIL
  6
Continuous
 48
30.0
100
AcDbLine
 10
-185.2999999999992
 20
889.4999999999999
 30
0.0
 11
-185.2999999999992
 21
887.6000000000002
 31
0.0
  0
LINE
  5
4D04E
330
18
100
AcDbEntity
  8
DETAIL
  6
Continuous
 48
30.0
100
AcDbLine
 10
-187.2000000000043
 20
890.4999999999999
 30
0.0
 11
-187.2000000000043
 21
889.4999999999999
 31
0.0
  0
LINE
  5
4D04F
330
18
100
AcDbEntity
  8
DETAIL
  6
Continuous
 48
30.0
100
AcDbLine
 10
-188.7999999999992
 20
892.3094010767018
 30
0.0
 11
-188.7999999999992
 21
887.6905989232001
 31
0.0
  0
LINE
  5
4D050
330
18
100
AcDbEntity
  8
DETAIL
  6
Continuous
 48
30.0
100
AcDbLine
 10
-190.7999999999992
 20
907.6905989232001
 30
0.0
 11
-190.7999999999992
 21
912.3094010767017
 31
0.0
  0
LINE
  5
4D051
330
18
100
AcDbEntity
  8
DETAIL
  6
Continuous
 48
30.0
100
AcDbLine
 10
-192.4000000000014
 20
909.5
 30
0.0
 11
-192.4000000000014
 21
910.5
 31
0.0
  0
LINE
  5
4D052
330
18
100
AcDbEntity
  8
DETAIL
  6
Continuous
 48
30.0
100
AcDbLine
 10
-194.2999999999992
 20
907.6000000000002
 30
0.0
 11
-194.2999999999992
 21
909.5
 31
0.0
  0
LINE
  5
4D053
330
18
100
AcDbEntity
  8
DETAIL
  6
Continuous
 48
30.0
100
AcDbLine
 10
-194.2999999999992
 20
910.5
 30
0.0
 11
-194.2999999999992
 21
912.4000000000012
 31
0.0
  0
LINE
  5
4D054
330
18
100
AcDbEntity
  8
DETAIL
  6
Continuous
 48
30.0
100
AcDbLine
 10
-194.7000000000043
 20
880.0
 30
0.0
 11
-194.7000000000043
 21
895.0
 31
0.0
  0
LINE
  5
4D055
330
18
100
AcDbEntity
  8
DETAIL
  6
Continuous
 48
30.0
100
AcDbLine
 10
-195.2999999999992
 20
912.4000000000012
 30
0.0
 11
-195.2999999999992
 21
910.5
 31
0.0
  0
LINE
  5
4D056
330
18
100
AcDbEntity
  8
DETAIL
  6
Continuous
 48
30.0
100
AcDbLine
 10
-195.2999999999992
 20
909.5
 30
0.0
 11
-195.2999999999992
 21
907.6000000000002
 31
0.0
  0
LINE
  5
4D057
330
18
100
AcDbEntity
  8
DETAIL
  6
Continuous
 48
30.0
100
AcDbLine
 10
-197.2000000000043
 20
910.5
 30
0.0
 11
-197.2000000000043
 21
909.5
 31
0.0
  0
LINE
  5
4D058
330
18
100
AcDbEntity
  8
DETAIL
  6
Continuous
 48
30.0
100
AcDbLine
 10
-198.7999999999992
 20
912.3094010767017
 30
0.0
 11
-198.7999999999992
 21
907.6905989232001
 31
0.0
  0
LINE
  5
4D059
330
18
100
AcDbEntity
  8
DETAIL
  6
Continuous
 48
30.0
100
AcDbLine
 10
-210.7000000000043
 20
880.0
 30
0.0
 11
-210.7000000000043
 21
879.4434075912013
 31
0.0
  0
LINE
  5
4D05A
330
18
100
AcDbEntity
  8
DETAIL
  6
Continuous
 48
30.0
100
AcDbLine
 10
-210.7999999999992
 20
878.1434075912002
 30
0.0
 11
-210.7999999999992
 21
878.7000000000007
 31
0.0
  0
LINE
  5
4D05B
330
18
100
AcDbEntity
  8
DETAIL
  6
Continuous
 48
30.0
100
AcDbLine
 10
-212.0
 20
878.1434075912002
 30
0.0
 11
-212.0
 21
878.7000000000007
 31
0.0
  0
LINE
  5
4D05C
330
18
100
AcDbEntity
  8
DETAIL
  6
Continuous
 48
30.0
100
AcDbLine
 10
-189.7000000000043
 20
900.0
 30
0.0
 11
-194.7000000000043
 21
895.0
 31
0.0
  0
LINE
  5
4D05D
330
18
100
AcDbEntity
  8
DETAIL
  6
Continuous
 48
30.0
100
AcDbLine
 10
-210.7000000000043
 20
905.0
 30
0.0
 11
-205.7000000000043
 21
900.0
 31
0.0
  0
LINE
  5
4D05E
330
18
100
AcDbEntity
  8
DETAIL
  6
Continuous
 48
30.0
100
AcDbLine
 10
-184.7999999999992
 20
885.3811978465001
 30
0.0
 11
-180.7999999999992
 21
887.6905989232001
 31
0.0
  0
LINE
  5
4D05F
330
18
100
AcDbEntity
  8
DETAIL
  6
Continuous
 48
30.0
100
AcDbLine
 10
-184.7999999999992
 20
894.6188021535018
 30
0.0
 11
-188.7999999999992
 21
892.3094010767018
 31
0.0
  0
LINE
  5
4D060
330
18
100
AcDbEntity
  8
DETAIL
  6
Continuous
 48
30.0
100
AcDbLine
 10
-194.7999999999992
 20
905.3811978464999
 30
0.0
 11
-190.7999999999992
 21
907.6905989232001
 31
0.0
  0
LINE
  5
4D061
330
18
100
AcDbEntity
  8
DETAIL
  6
Continuous
 48
30.0
100
AcDbLine
 10
-194.7999999999992
 20
914.6188021535015
 30
0.0
 11
-198.7999999999992
 21
912.3094010767017
 31
0.0
  0
LINE
  5
4D062
330
18
100
AcDbEntity
  8
DETAIL
  6
Continuous
 48
30.0
100
AcDbLine
 10
-190.7999999999992
 20
912.3094010767017
 30
0.0
 11
-194.7999999999992
 21
914.6188021535015
 31
0.0
  0
LINE
  5
4D063
330
18
100
AcDbEntity
  8
DETAIL
  6
Continuous
 48
30.0
100
AcDbLine
 10
-198.7999999999992
 20
907.6905989232001
 30
0.0
 11
-194.7999999999992
 21
905.3811978464999
 31
0.0
  0
LINE
  5
4D064
330
18
100
AcDbEntity
  8
DETAIL
  6
Continuous
 48
30.0
100
AcDbLine
 10
-180.7999999999992
 20
892.3094010767018
 30
0.0
 11
-184.7999999999992
 21
894.6188021535018
 31
0.0
  0
LINE
  5
4D065
330
18
100
AcDbEntity
  8
DETAIL
  6
Continuous
 48
30.0
100
AcDbLine
 10
-188.7999999999992
 20
887.6905989232001
 30
0.0
 11
-184.7999999999992
 21
885.3811978465001
 31
0.0
  0
LINE
  5
4D066
330
18
100
AcDbEntity
  8
DETAIL
  6
Continuous
 48
30.0
100
AcDbLine
 10
-194.2999999999992
 20
912.4000000000012
 30
0.0
 11
-195.2999999999992
 21
912.4000000000012
 31
0.0
  0
LINE
  5
4D067
330
18
100
AcDbEntity
  8
DETAIL
  6
Continuous
 48
30.0
100
AcDbLine
 10
-192.4000000000014
 20
910.5
 30
0.0
 11
-194.2999999999992
 21
910.5
 31
0.0
  0
LINE
  5
4D068
330
18
100
AcDbEntity
  8
DETAIL
  6
Continuous
 48
30.0
100
AcDbLine
 10
-195.2999999999992
 20
910.5
 30
0.0
 11
-197.2000000000043
 21
910.5
 31
0.0
  0
LINE
  5
4D06B
330
18
100
AcDbEntity
  8
DETAIL
  6
Continuous
 48
30.0
100
AcDbLine
 10
-194.2999999999992
 20
909.5
 30
0.0
 11
-192.4000000000014
 21
909.5
 31
0.0
  0
LINE
  5
4D06C
330
18
100
AcDbEntity
  8
DETAIL
  6
Continuous
 48
30.0
100
AcDbLine
 10
-197.2000000000043
 20
909.5
 30
0.0
 11
-195.2999999999992
 21
909.5
 31
0.0
  0
LINE
  5
4D06D
330
18
100
AcDbEntity
  8
DETAIL
  6
Continuous
 48
30.0
100
AcDbLine
 10
-195.2999999999992
 20
907.6000000000002
 30
0.0
 11
-194.2999999999992
 21
907.6000000000002
 31
0.0
  0
LINE
  5
4D06E
330
18
100
AcDbEntity
  8
DETAIL
  6
Continuous
 48
30.0
100
AcDbLine
 10
-184.2999999999992
 20
892.4000000000015
 30
0.0
 11
-185.2999999999992
 21
892.4000000000015
 31
0.0
  0
LINE
  5
4D06F
330
18
100
AcDbEntity
  8
DETAIL
  6
Continuous
 48
30.0
100
AcDbLine
 10
-185.2999999999992
 20
890.4999999999999
 30
0.0
 11
-187.2000000000043
 21
890.4999999999999
 31
0.0
  0
LINE
  5
4D070
330
18
100
AcDbEntity
  8
DETAIL
  6
Continuous
 48
30.0
100
AcDbLine
 10
-182.4000000000014
 20
890.4999999999999
 30
0.0
 11
-184.2999999999992
 21
890.4999999999999
 31
0.0
  0
LINE
  5
4D073
330
18
100
AcDbEntity
  8
DETAIL
  6
Continuous
 48
30.0
100
AcDbLine
 10
-184.2999999999992
 20
889.4999999999999
 30
0.0
 11
-182.4000000000014
 21
889.4999999999999
 31
0.0
  0
LINE
  5
4D074
330
18
100
AcDbEntity
  8
DETAIL
  6
Continuous
 48
30.0
100
AcDbLine
 10
-187.2000000000043
 20
889.4999999999999
 30
0.0
 11
-185.2999999999992
 21
889.4999999999999
 31
0.0
  0
LINE
  5
4D075
330
18
100
AcDbEntity
  8
DETAIL
  6
Continuous
 48
30.0
100
AcDbLine
 10
-185.2999999999992
 20
887.6000000000002
 30
0.0
 11
-184.2999999999992
 21
887.6000000000002
 31
0.0
  0
LINE
  5
4D076
330
18
100
AcDbEntity
  8
DETAIL
  6
Continuous
 48
30.0
100
AcDbLine
 10
-212.0
 20
878.7000000000007
 30
0.0
 11
-210.7999999999992
 21
878.7000000000007
 31
0.0
  0
ARC
  5
4D077
330
18
100
AcDbEntity
  8
DETAIL
  6
Continuous
 48
30.0
100
AcDbCircle
 10
-91.80000000000292
 20
856.9999999999982
 30
0.0
 40
5.000000000002728
100
AcDbArc
 50
0.0
 51
90.0
  0
ARC
  5
4D078
330
18
100
AcDbEntity
  8
DETAIL
  6
Continuous
 48
30.0
100
AcDbCircle
 10
-91.80000000000292
 20
817.0000000000017
 30
0.0
 40
5.000000000002728
100
AcDbArc
 50
270.0
 51
359.9999999999478
  0
LINE
  5
4D079
330
18
100
AcDbEntity
  8
DETAIL
  6
Continuous
 48
30.0
100
AcDbLine
 10
-86.79999999999926
 20
857.0
 30
0.0
 11
-86.79999999999926
 21
817.0
 31
0.0
  0
CIRCLE
  5
4D07A
330
18
100
AcDbEntity
  8
DETAIL
  6
Continuous
 48
30.0
100
AcDbCircle
 10
-245.0
 20
1240.000000000001
 30
0.0
 40
2.049999999999998
  0
CIRCLE
  5
4D07B
330
18
100
AcDbEntity
  8
DETAIL
  6
Continuous
 48
30.0
100
AcDbCircle
 10
-245.0
 20
1240.000000000001
 30
0.0
 40
2.25
  0
CIRCLE
  5
4D07C
330
18
100
AcDbEntity
  8
DETAIL
  6
Continuous
 48
30.0
100
AcDbCircle
 10
-245.0
 20
1240.000000000001
 30
0.0
 40
4.5
  0
LINE
  5
4D07D
330
18
100
AcDbEntity
  8
DETAIL
  6
Continuous
 48
30.0
100
AcDbLine
 10
-241.2501610180988
 20
1242.445029454402
 30
0.0
 11
-244.7980435034041
 21
1244.493400362302
 31
0.0
  0
LINE
  5
4D07E
330
18
100
AcDbEntity
  8
DETAIL
  6
Continuous
 48
30.0
100
AcDbLine
 10
-241.5550000000002
 20
1241.988971677301
 30
0.0
 11
-245.0
 21
1243.977943354699
 31
0.0
  0
LINE
  5
4D07F
330
18
100
AcDbEntity
  8
DETAIL
  6
Continuous
 48
30.0
100
AcDbLine
 10
-248.4449999999997
 20
1238.0110283226
 30
0.0
 11
-245.0
 21
1236.022056645301
 31
0.0
  0
LINE
  5
4D080
330
18
100
AcDbEntity
  8
DETAIL
  6
Continuous
 48
30.0
100
AcDbLine
 10
-248.7498389817992
 20
1237.554970545601
 30
0.0
 11
-245.2019564965012
 21
1235.506599637699
 31
0.0
  0
LINE
  5
4D081
330
18
100
AcDbEntity
  8
DETAIL
  6
Continuous
 48
30.0
100
AcDbLine
 10
-244.7980435034041
 20
1235.506599637699
 30
0.0
 11
-241.2501610180988
 21
1237.554970545601
 31
0.0
  0
LINE
  5
4D082
330
18
100
AcDbEntity
  8
DETAIL
  6
Continuous
 48
30.0
100
AcDbLine
 10
-245.0
 20
1236.022056645301
 30
0.0
 11
-241.5550000000002
 21
1238.0110283226
 31
0.0
  0
LINE
  5
4D083
330
18
100
AcDbEntity
  8
DETAIL
  6
Continuous
 48
30.0
100
AcDbLine
 10
-245.0
 20
1243.977943354699
 30
0.0
 11
-248.4449999999997
 21
1241.988971677301
 31
0.0
  0
LINE
  5
4D084
330
18
100
AcDbEntity
  8
DETAIL
  6
Continuous
 48
30.0
100
AcDbLine
 10
-245.2019564965012
 20
1244.493400362302
 30
0.0
 11
-248.7498389817992
 21
1242.445029454402
 31
0.0
  0
LINE
  5
4D085
330
18
100
AcDbEntity
  8
DETAIL
  6
Continuous
 48
30.0
100
AcDbLine
 10
-241.0076228885009
 20
1237.958072052699
 30
0.0
 11
-241.0076228885009
 21
1242.0419279472
 31
0.0
  0
LINE
  5
4D086
330
18
100
AcDbEntity
  8
DETAIL
  6
Continuous
 48
30.0
100
AcDbLine
 10
-241.5550000000002
 20
1238.0110283226
 30
0.0
 11
-241.5550000000002
 21
1241.988971677301
 31
0.0
  0
LINE
  5
4D087
330
18
100
AcDbEntity
  8
DETAIL
  6
Continuous
 48
30.0
100
AcDbLine
 10
-248.4449999999997
 20
1241.988971677301
 30
0.0
 11
-248.4449999999997
 21
1238.0110283226
 31
0.0
  0
LINE
  5
4D088
330
18
100
AcDbEntity
  8
DETAIL
  6
Continuous
 48
30.0
100
AcDbLine
 10
-248.9923771114045
 20
1242.0419279472
 30
0.0
 11
-248.9923771114045
 21
1237.958072052699
 31
0.0
  0
LINE
  5
4D08C
330
18
100
AcDbEntity
  8
DETAIL
  6
Continuous
 48
30.0
100
AcDbLine
 10
-370.6011365104022
 20
1863.399999999999
 30
0.0
 11
-379.3988119932984
 21
1863.399999999999
 31
0.0
  0
LINE
  5
4D08D
330
18
100
AcDbEntity
  8
DETAIL
  6
Continuous
 48
30.0
100
AcDbLine
 10
-381.0
 20
1862.399999999999
 30
0.0
 11
-369.0
 21
1862.399999999999
 31
0.0
  0
LINE
  5
4D08E
330
18
100
AcDbEntity
  8
DETAIL
  6
Continuous
 48
30.0
100
AcDbLine
 10
-379.8185895015994
 20
1861.6
 30
0.0
 11
-315.0
 21
1861.6
 31
0.0
  0
LINE
  5
4D08F
330
18
100
AcDbEntity
  8
DETAIL
  6
Continuous
 48
30.0
100
AcDbLine
 10
-563.7999999999992
 20
1860.000000000002
 30
0.0
 11
-216.2000000000043
 21
1860.000000000002
 31
0.0
  0
LINE
  5
4D090
330
18
100
AcDbEntity
  8
DETAIL
  6
Continuous
 48
30.0
100
AcDbLine
 10
-563.7999999999992
 20
1859.6485281374
 30
0.0
 11
-216.2000000000043
 21
1859.6485281374
 31
0.0
  0
LINE
  5
4D091
330
18
100
AcDbEntity
  8
DETAIL
  6
Continuous
 48
30.0
100
AcDbLine
 10
-216.2000000000043
 20
1780.349195999499
 30
0.0
 11
-484.5000958102026
 21
1780.349195999499
 31
0.0
  0
LINE
  5
4D092
330
18
100
AcDbEntity
  8
DETAIL
  6
Continuous
 48
30.0
100
AcDbLine
 10
-485.3486239476985
 20
1779.501239913899
 30
0.0
 11
-215.0
 21
1779.501239913899
 31
0.0
  0
LINE
  5
4D093
330
18
100
AcDbEntity
  8
DETAIL
  6
Continuous
 48
30.0
100
AcDbLine
 10
-484.5000958102026
 20
1780.349195999499
 30
0.0
 11
-563.7999999999992
 21
1859.6485281374
 31
0.0
  0
LINE
  5
4D094
330
18
100
AcDbEntity
  8
DETAIL
  6
Continuous
 48
30.0
100
AcDbLine
 10
-563.7999999999992
 20
1858.800000000001
 30
0.0
 11
-484.5000958102026
 21
1779.501239913899
 31
0.0
  0
LINE
  5
4D095
330
18
100
AcDbEntity
  8
DETAIL
  6
Continuous
 48
30.0
100
AcDbLine
 10
-484.5000958102026
 20
1779.500667862101
 30
0.0
 11
-563.7999999999992
 21
1858.800000000001
 31
0.0
  0
LINE
  5
4D096
330
18
100
AcDbEntity
  8
DETAIL
  6
Continuous
 48
30.0
100
AcDbLine
 10
-564.6485281374042
 20
1858.800000000001
 30
0.0
 11
-485.3486239476985
 21
1779.501239913899
 31
0.0
  0
ARC
  5
4D097
330
18
100
AcDbEntity
  8
DETAIL
  6
Continuous
 48
30.0
100
AcDbCircle
 10
-563.7999999999956
 20
1858.799999999997
 30
0.0
 40
1.200000000004366
100
AcDbArc
 50
90.00000000020843
 51
179.9999999997915
  0
LINE
  5
4D098
330
18
100
AcDbEntity
  8
DETAIL
  6
Continuous
 48
30.0
100
AcDbLine
 10
-565.0
 20
1858.800000000001
 30
0.0
 11
-564.6485281374042
 21
1858.800000000001
 31
0.0
  0
LINE
  5
4D099
330
18
100
AcDbEntity
  8
DETAIL
  6
Continuous
 48
30.0
100
AcDbLine
 10
-563.7999999999992
 20
1858.800000000001
 30
0.0
 11
-564.6485281374042
 21
1858.800000000001
 31
0.0
  0
LINE
  5
4D09A
330
18
100
AcDbEntity
  8
DETAIL
  6
Continuous
 48
30.0
100
AcDbLine
 10
-563.7999999999992
 20
1859.6485281374
 30
0.0
 11
-563.7999999999992
 21
1860.000000000002
 31
0.0
  0
LINE
  5
4D09B
330
18
100
AcDbEntity
  8
DETAIL
  6
Continuous
 48
30.0
100
AcDbLine
 10
-563.7999999999992
 20
1858.800000000001
 30
0.0
 11
-563.7999999999992
 21
1859.6485281374
 31
0.0
  0
ARC
  5
4D09C
330
18
100
AcDbEntity
  8
DETAIL
  6
Continuous
 48
30.0
100
AcDbCircle
 10
-380.1999999974977
 20
1860.85
 30
0.0
 40
0.8499999999998038
100
AcDbArc
 50
269.998692401367
 51
90.00109437960798
  0
ARC
  5
4D09D
330
18
100
AcDbEntity
  8
DETAIL
  6
Continuous
 48
30.0
100
AcDbCircle
 10
-399.8000000024003
 20
1860.85
 30
0.0
 40
0.8500000000007544
100
AcDbArc
 50
89.99826310236217
 51
270.0020683418014
  0
LINE
  5
4D09F
330
18
100
AcDbEntity
  8
DETAIL
  6
Continuous
 48
30.0
100
AcDbLine
 10
-380.1999999995023
 20
1861.7
 30
0.0
 11
-399.7999999988023
 21
1861.7
 31
0.0
  0
LINE
  5
4D0A2
330
18
100
AcDbEntity
  8
DETAIL
  6
Continuous
 48
30.0
100
AcDbLine
 10
-379.4000000000014
 20
1862.399999999999
 30
0.0
 11
-379.4000000000014
 21
1863.399999999999
 31
0.0
  0
LINE
  5
4D0A3
330
18
100
AcDbEntity
  8
DETAIL
  6
Continuous
 48
30.0
100
AcDbLine
 10
-381.0
 20
1861.7
 30
0.0
 11
-381.0
 21
1862.399999999999
 31
0.0
  0
LINE
  5
4D0A4
330
18
100
AcDbEntity
  8
DETAIL
  6
Continuous
 48
30.0
100
AcDbLine
 10
-484.5000958102026
 20
1779.500667862101
 30
0.0
 11
-484.5000958102026
 21
1780.349195999499
 31
0.0
  0
LINE
  5
4D0A5
330
18
100
AcDbEntity
  8
DETAIL
  6
Continuous
 48
30.0
100
AcDbLine
 10
-213.7999999999992
 20
1711.2
 30
0.0
 11
-213.7999999999992
 21
1860.000000000002
 31
0.0
  0
LINE
  5
4D0A6
330
18
100
AcDbEntity
  8
DETAIL
  6
Continuous
 48
30.0
100
AcDbLine
 10
-215.0
 20
1726.2
 30
0.0
 11
-215.0
 21
1858.800000000001
 31
0.0
  0
LINE
  5
4D0A7
330
18
100
AcDbEntity
  8
DETAIL
  6
Continuous
 48
30.0
100
AcDbLine
 10
-215.0
 20
1858.800000000001
 30
0.0
 11
-215.0
 21
1726.2
 31
0.0
  0
LINE
  5
4D0A8
330
18
100
AcDbEntity
  8
DETAIL
  6
Continuous
 48
30.0
100
AcDbLine
 10
-215.0
 20
1726.2
 30
0.0
 11
-215.0
 21
1858.800000000001
 31
0.0
  0
LINE
  5
4D0A9
330
18
100
AcDbEntity
  8
DETAIL
  6
Continuous
 48
30.0
100
AcDbLine
 10
-215.0
 20
1858.800000000001
 30
0.0
 11
-215.0
 21
1726.2
 31
0.0
  0
LINE
  5
4D0AA
330
18
100
AcDbEntity
  8
DETAIL
  6
Continuous
 48
30.0
100
AcDbLine
 10
-215.0
 20
1726.2
 30
0.0
 11
-215.0
 21
1858.800000000001
 31
0.0
  0
LINE
  5
4D0AB
330
18
100
AcDbEntity
  8
DETAIL
  6
Continuous
 48
30.0
100
AcDbLine
 10
-215.0
 20
1858.800000000001
 30
0.0
 11
-215.0
 21
1726.2
 31
0.0
  0
LINE
  5
4D0AC
330
18
100
AcDbEntity
  8
DETAIL
  6
Continuous
 48
30.0
100
AcDbLine
 10
-215.0
 20
1726.2
 30
0.0
 11
-215.0
 21
1858.800000000001
 31
0.0
  0
LINE
  5
4D0AD
330
18
100
AcDbEntity
  8
DETAIL
  6
Continuous
 48
30.0
100
AcDbLine
 10
-215.0
 20
1858.800000000001
 30
0.0
 11
-215.0
 21
1726.2
 31
0.0
  0
LINE
  5
4D0AE
330
18
100
AcDbEntity
  8
DETAIL
  6
Continuous
 48
30.0
100
AcDbLine
 10
-215.0
 20
1726.2
 30
0.0
 11
-215.0
 21
1858.800000000001
 31
0.0
  0
LINE
  5
4D0AF
330
18
100
AcDbEntity
  8
DETAIL
  6
Continuous
 48
30.0
100
AcDbLine
 10
-215.0
 20
1726.2
 30
0.0
 11
-215.0
 21
1858.800000000001
 31
0.0
  0
LINE
  5
4D0B0
330
18
100
AcDbEntity
  8
DETAIL
  6
Continuous
 48
30.0
100
AcDbLine
 10
-215.0
 20
1858.800000000001
 30
0.0
 11
-215.0
 21
1726.2
 31
0.0
  0
LINE
  5
4D0B1
330
18
100
AcDbEntity
  8
DETAIL
  6
Continuous
 48
30.0
100
AcDbLine
 10
-215.0
 20
1858.800000000001
 30
0.0
 11
-215.0
 21
1726.2
 31
0.0
  0
LINE
  5
4D0B2
330
18
100
AcDbEntity
  8
DETAIL
  6
Continuous
 48
30.0
100
AcDbLine
 10
-215.0
 20
1858.800000000001
 30
0.0
 11
-215.0
 21
1726.2
 31
0.0
  0
LINE
  5
4D0B3
330
18
100
AcDbEntity
  8
DETAIL
  6
Continuous
 48
30.0
100
AcDbLine
 10
-170.7999999999992
 20
1687.000000000002
 30
0.0
 11
-91.79999999999926
 21
1687.000000000002
 31
0.0
  0
LINE
  5
4D0B4
330
18
100
AcDbEntity
  8
DETAIL
  6
Continuous
 48
30.0
100
AcDbLine
 10
-91.79999999999926
 20
1637.000000000002
 30
0.0
 11
-170.7999999999992
 21
1637.000000000002
 31
0.0
  0
ARC
  5
4D0B5
330
18
100
AcDbEntity
  8
DETAIL
  6
Continuous
 48
30.0
100
AcDbCircle
 10
-213.7999999999956
 20
1723.799999999995
 30
0.0
 40
1.200000000004366
100
AcDbArc
 50
90.00000000020843
 51
179.9999999997915
  0
ARC
  5
4D0B6
330
18
100
AcDbEntity
  8
DETAIL
  6
Continuous
 48
30.0
100
AcDbCircle
 10
-213.7000000000007
 20
1726.300000000001
 30
0.0
 40
1.300000000001339
100
AcDbArc
 50
184.3572645825198
 51
265.642735417532
  0
CIRCLE
  5
4D0C7
330
18
100
AcDbEntity
  8
DETAIL
  6
Continuous
 48
30.0
100
AcDbCircle
 10
-184.7999999999992
 20
1715.000000000002
 30
0.0
 40
6.0
  0
CIRCLE
  5
4D0C8
330
18
100
AcDbEntity
  8
DETAIL
  6
Continuous
 48
30.0
100
AcDbCircle
 10
-204.7999999999992
 20
1715.000000000002
 30
0.0
 40
6.0
  0
ARC
  5
4D0C9
330
18
100
AcDbEntity
  8
DETAIL
  6
Continuous
 48
30.0
100
AcDbCircle
 10
-170.7999999999956
 20
1681.999999999998
 30
0.0
 40
5.00000000000409
100
AcDbArc
 50
90.0000000001042
 51
179.9999999999479
  0
ARC
  5
4D0CA
330
18
100
AcDbEntity
  8
DETAIL
  6
Continuous
 48
30.0
100
AcDbCircle
 10
-170.7999999999992
 20
1642.000000000002
 30
0.0
 40
5.000000000000908
100
AcDbArc
 50
180.0
 51
270.0
  0
LINE
  5
4D0D3
330
18
100
AcDbEntity
  8
DETAIL
  6
Continuous
 48
30.0
100
AcDbLine
 10
-169.7999999999992
 20
1723.7
 30
0.0
 11
-169.7999999999992
 21
1725.000000000001
 31
0.0
  0
LINE
  5
4D0D4
330
18
100
AcDbEntity
  8
DETAIL
  6
Continuous
 48
30.0
100
AcDbLine
 10
-175.7999999999992
 20
1642.000000000002
 30
0.0
 11
-175.7999999999992
 21
1682.000000000001
 31
0.0
  0
LINE
  5
4D0D5
330
18
100
AcDbEntity
  8
DETAIL
  6
Continuous
 48
30.0
100
AcDbLine
 10
-180.7999999999992
 20
1712.690598923201
 30
0.0
 11
-180.7999999999992
 21
1717.309401076701
 31
0.0
  0
LINE
  5
4D0D6
330
18
100
AcDbEntity
  8
DETAIL
  6
Continuous
 48
30.0
100
AcDbLine
 10
-182.4000000000014
 20
1714.500000000001
 30
0.0
 11
-182.4000000000014
 21
1715.500000000002
 31
0.0
  0
LINE
  5
4D0D7
330
18
100
AcDbEntity
  8
DETAIL
  6
Continuous
 48
30.0
100
AcDbLine
 10
-184.2999999999992
 20
1712.6
 30
0.0
 11
-184.2999999999992
 21
1714.500000000001
 31
0.0
  0
LINE
  5
4D0D8
330
18
100
AcDbEntity
  8
DETAIL
  6
Continuous
 48
30.0
100
AcDbLine
 10
-184.2999999999992
 20
1715.500000000002
 30
0.0
 11
-184.2999999999992
 21
1717.399999999999
 31
0.0
  0
LINE
  5
4D0D9
330
18
100
AcDbEntity
  8
DETAIL
  6
Continuous
 48
30.0
100
AcDbLine
 10
-185.2999999999992
 20
1717.399999999999
 30
0.0
 11
-185.2999999999992
 21
1715.500000000002
 31
0.0
  0
LINE
  5
4D0DA
330
18
100
AcDbEntity
  8
DETAIL
  6
Continuous
 48
30.0
100
AcDbLine
 10
-185.2999999999992
 20
1714.500000000001
 30
0.0
 11
-185.2999999999992
 21
1712.6
 31
0.0
  0
LINE
  5
4D0DB
330
18
100
AcDbEntity
  8
DETAIL
  6
Continuous
 48
30.0
100
AcDbLine
 10
-187.2000000000043
 20
1715.500000000002
 30
0.0
 11
-187.2000000000043
 21
1714.500000000001
 31
0.0
  0
LINE
  5
4D0DC
330
18
100
AcDbEntity
  8
DETAIL
  6
Continuous
 48
30.0
100
AcDbLine
 10
-188.7999999999992
 20
1717.309401076701
 30
0.0
 11
-188.7999999999992
 21
1712.690598923201
 31
0.0
  0
LINE
  5
4D0DD
330
18
100
AcDbEntity
  8
DETAIL
  6
Continuous
 48
30.0
100
AcDbLine
 10
-194.7000000000043
 20
1705.000000000001
 30
0.0
 11
-194.7000000000043
 21
1720.000000000001
 31
0.0
  0
LINE
  5
4D0DE
330
18
100
AcDbEntity
  8
DETAIL
  6
Continuous
 48
30.0
100
AcDbLine
 10
-195.7999999999992
 20
1725.000000000001
 30
0.0
 11
-195.7999999999992
 21
1711.2
 31
0.0
  0
LINE
  5
4D0DF
330
18
100
AcDbEntity
  8
DETAIL
  6
Continuous
 48
30.0
100
AcDbLine
 10
-200.7999999999992
 20
1712.690598923201
 30
0.0
 11
-200.7999999999992
 21
1717.309401076701
 31
0.0
  0
LINE
  5
4D0E0
330
18
100
AcDbEntity
  8
DETAIL
  6
Continuous
 48
30.0
100
AcDbLine
 10
-202.4000000000014
 20
1714.500000000001
 30
0.0
 11
-202.4000000000014
 21
1715.500000000002
 31
0.0
  0
LINE
  5
4D0E1
330
18
100
AcDbEntity
  8
DETAIL
  6
Continuous
 48
30.0
100
AcDbLine
 10
-204.2999999999992
 20
1712.6
 30
0.0
 11
-204.2999999999992
 21
1714.500000000001
 31
0.0
  0
LINE
  5
4D0E2
330
18
100
AcDbEntity
  8
DETAIL
  6
Continuous
 48
30.0
100
AcDbLine
 10
-204.2999999999992
 20
1715.500000000002
 30
0.0
 11
-204.2999999999992
 21
1717.399999999999
 31
0.0
  0
LINE
  5
4D0E3
330
18
100
AcDbEntity
  8
DETAIL
  6
Continuous
 48
30.0
100
AcDbLine
 10
-205.2999999999992
 20
1717.399999999999
 30
0.0
 11
-205.2999999999992
 21
1715.500000000002
 31
0.0
  0
LINE
  5
4D0E4
330
18
100
AcDbEntity
  8
DETAIL
  6
Continuous
 48
30.0
100
AcDbLine
 10
-205.2999999999992
 20
1714.500000000001
 30
0.0
 11
-205.2999999999992
 21
1712.6
 31
0.0
  0
LINE
  5
4D0E5
330
18
100
AcDbEntity
  8
DETAIL
  6
Continuous
 48
30.0
100
AcDbLine
 10
-207.2000000000043
 20
1715.500000000002
 30
0.0
 11
-207.2000000000043
 21
1714.500000000001
 31
0.0
  0
LINE
  5
4D0E6
330
18
100
AcDbEntity
  8
DETAIL
  6
Continuous
 48
30.0
100
AcDbLine
 10
-208.7999999999992
 20
1717.309401076701
 30
0.0
 11
-208.7999999999992
 21
1712.690598923201
 31
0.0
  0
LINE
  5
4D0E7
330
18
100
AcDbEntity
  8
DETAIL
  6
Continuous
 48
30.0
100
AcDbLine
 10
-210.7000000000043
 20
1618.000000000001
 30
0.0
 11
-210.7000000000043
 21
1704.443407591201
 31
0.0
  0
LINE
  5
4D0E8
330
18
100
AcDbEntity
  8
DETAIL
  6
Continuous
 48
30.0
100
AcDbLine
 10
-210.7000000000043
 20
1705.000000000001
 30
0.0
 11
-210.7000000000043
 21
1704.443407591201
 31
0.0
  0
LINE
  5
4D0E9
330
18
100
AcDbEntity
  8
DETAIL
  6
Continuous
 48
30.0
100
AcDbLine
 10
-210.7999999999992
 20
1703.143407591202
 30
0.0
 11
-210.7999999999992
 21
1703.7
 31
0.0
  0
LINE
  5
4D0EA
330
18
100
AcDbEntity
  8
DETAIL
  6
Continuous
 48
30.0
100
AcDbLine
 10
-210.7999999999992
 20
1613.754415587702
 30
0.0
 11
-210.7999999999992
 21
1618.000000000001
 31
0.0
  0
LINE
  5
4D0EB
330
18
100
AcDbEntity
  8
DETAIL
  6
Continuous
 48
30.0
100
AcDbLine
 10
-212.0
 20
1703.143407591202
 30
0.0
 11
-212.0
 21
1703.7
 31
0.0
  0
LINE
  5
4D0EC
330
18
100
AcDbEntity
  8
DETAIL
  6
Continuous
 48
30.0
100
AcDbLine
 10
-212.0
 20
1703.143407591202
 30
0.0
 11
-212.0
 21
1618.000000000001
 31
0.0
  0
LINE
  5
4D0F3
330
18
100
AcDbEntity
  8
DETAIL
  6
Continuous
 48
30.0
100
AcDbLine
 10
-213.5
 20
1600.000000000001
 30
0.0
 11
-213.5
 21
1610.000000000002
 31
0.0
  0
LINE
  5
4D0F4
330
18
100
AcDbEntity
  8
DETAIL
  6
Continuous
 48
30.0
100
AcDbLine
 10
-213.7999999999992
 20
1711.2
 30
0.0
 11
-208.7999999999992
 21
1706.2
 31
0.0
  0
LINE
  5
4D0F7
330
18
100
AcDbEntity
  8
DETAIL
  6
Continuous
 48
30.0
100
AcDbLine
 10
-180.7999999999992
 20
1717.309401076701
 30
0.0
 11
-184.7999999999992
 21
1719.618802153501
 31
0.0
  0
LINE
  5
4D0F8
330
18
100
AcDbEntity
  8
DETAIL
  6
Continuous
 48
30.0
100
AcDbLine
 10
-188.7999999999992
 20
1712.690598923201
 30
0.0
 11
-184.7999999999992
 21
1710.381197846501
 31
0.0
  0
LINE
  5
4D0F9
330
18
100
AcDbEntity
  8
DETAIL
  6
Continuous
 48
30.0
100
AcDbLine
 10
-200.7999999999992
 20
1717.309401076701
 30
0.0
 11
-204.7999999999992
 21
1719.618802153501
 31
0.0
  0
LINE
  5
4D0FA
330
18
100
AcDbEntity
  8
DETAIL
  6
Continuous
 48
30.0
100
AcDbLine
 10
-208.7999999999992
 20
1712.690598923201
 30
0.0
 11
-204.7999999999992
 21
1710.381197846501
 31
0.0
  0
LINE
  5
4D0FB
330
18
100
AcDbEntity
  8
DETAIL
  6
Continuous
 48
30.0
100
AcDbLine
 10
-200.7999999999992
 20
1706.2
 30
0.0
 11
-195.7999999999992
 21
1711.2
 31
0.0
  0
LINE
  5
4D0FC
330
18
100
AcDbEntity
  8
DETAIL
  6
Continuous
 48
30.0
100
AcDbLine
 10
-189.7000000000043
 20
1725.000000000001
 30
0.0
 11
-194.7000000000043
 21
1720.000000000001
 31
0.0
  0
LINE
  5
4D0FD
330
18
100
AcDbEntity
  8
DETAIL
  6
Continuous
 48
30.0
100
AcDbLine
 10
-195.7999999999992
 20
1723.800000000001
 30
0.0
 11
-190.9000000000014
 21
1723.800000000001
 31
0.0
  0
LINE
  5
4D0FE
330
18
100
AcDbEntity
  8
DETAIL
  6
Continuous
 48
30.0
100
AcDbLine
 10
-213.7999999999992
 20
1723.800000000001
 30
0.0
 11
-215.0
 21
1723.800000000001
 31
0.0
  0
LINE
  5
4D0FF
330
18
100
AcDbEntity
  8
DETAIL
  6
Continuous
 48
30.0
100
AcDbLine
 10
-204.2999999999992
 20
1717.399999999999
 30
0.0
 11
-205.2999999999992
 21
1717.399999999999
 31
0.0
  0
LINE
  5
4D100
330
18
100
AcDbEntity
  8
DETAIL
  6
Continuous
 48
30.0
100
AcDbLine
 10
-184.2999999999992
 20
1717.399999999999
 30
0.0
 11
-185.2999999999992
 21
1717.399999999999
 31
0.0
  0
LINE
  5
4D101
330
18
100
AcDbEntity
  8
DETAIL
  6
Continuous
 48
30.0
100
AcDbLine
 10
-202.4000000000014
 20
1715.500000000002
 30
0.0
 11
-204.2999999999992
 21
1715.500000000002
 31
0.0
  0
LINE
  5
4D102
330
18
100
AcDbEntity
  8
DETAIL
  6
Continuous
 48
30.0
100
AcDbLine
 10
-205.2999999999992
 20
1715.500000000002
 30
0.0
 11
-207.2000000000043
 21
1715.500000000002
 31
0.0
  0
LINE
  5
4D103
330
18
100
AcDbEntity
  8
DETAIL
  6
Continuous
 48
30.0
100
AcDbLine
 10
-185.2999999999992
 20
1715.500000000002
 30
0.0
 11
-187.2000000000043
 21
1715.500000000002
 31
0.0
  0
LINE
  5
4D104
330
18
100
AcDbEntity
  8
DETAIL
  6
Continuous
 48
30.0
100
AcDbLine
 10
-182.4000000000014
 20
1715.500000000002
 30
0.0
 11
-184.2999999999992
 21
1715.500000000002
 31
0.0
  0
LINE
  5
4D109
330
18
100
AcDbEntity
  8
DETAIL
  6
Continuous
 48
30.0
100
AcDbLine
 10
-184.2999999999992
 20
1714.500000000001
 30
0.0
 11
-182.4000000000014
 21
1714.500000000001
 31
0.0
  0
LINE
  5
4D10A
330
18
100
AcDbEntity
  8
DETAIL
  6
Continuous
 48
30.0
100
AcDbLine
 10
-187.2000000000043
 20
1714.500000000001
 30
0.0
 11
-185.2999999999992
 21
1714.500000000001
 31
0.0
  0
LINE
  5
4D10B
330
18
100
AcDbEntity
  8
DETAIL
  6
Continuous
 48
30.0
100
AcDbLine
 10
-204.2999999999992
 20
1714.500000000001
 30
0.0
 11
-202.4000000000014
 21
1714.500000000001
 31
0.0
  0
LINE
  5
4D10C
330
18
100
AcDbEntity
  8
DETAIL
  6
Continuous
 48
30.0
100
AcDbLine
 10
-207.2000000000043
 20
1714.500000000001
 30
0.0
 11
-205.2999999999992
 21
1714.500000000001
 31
0.0
  0
LINE
  5
4D10D
330
18
100
AcDbEntity
  8
DETAIL
  6
Continuous
 48
30.0
100
AcDbLine
 10
-185.2999999999992
 20
1712.6
 30
0.0
 11
-184.2999999999992
 21
1712.6
 31
0.0
  0
LINE
  5
4D10E
330
18
100
AcDbEntity
  8
DETAIL
  6
Continuous
 48
30.0
100
AcDbLine
 10
-205.2999999999992
 20
1712.6
 30
0.0
 11
-204.2999999999992
 21
1712.6
 31
0.0
  0
LINE
  5
4D10F
330
18
100
AcDbEntity
  8
DETAIL
  6
Continuous
 48
30.0
100
AcDbLine
 10
-200.7999999999992
 20
1706.2
 30
0.0
 11
-208.7999999999992
 21
1706.2
 31
0.0
  0
LINE
  5
4D110
330
18
100
AcDbEntity
  8
DETAIL
  6
Continuous
 48
30.0
100
AcDbLine
 10
-212.0
 20
1703.7
 30
0.0
 11
-210.7999999999992
 21
1703.7
 31
0.0
  0
LINE
  5
4D119
330
18
100
AcDbEntity
  8
DETAIL
  6
Continuous
 48
30.0
100
AcDbLine
 10
-212.0
 20
1610.000000000002
 30
0.0
 11
-213.5
 21
1610.000000000002
 31
0.0
  0
LINE
  5
4D11A
330
18
100
AcDbEntity
  8
DETAIL
  6
Continuous
 48
30.0
100
AcDbLine
 10
-212.0
 20
1600.000000000001
 30
0.0
 11
-213.5
 21
1600.000000000001
 31
0.0
  0
LINE
  5
4D11B
330
18
100
AcDbEntity
  8
DETAIL
  6
Continuous
 48
30.0
100
AcDbLine
 10
-184.7999999999992
 20
1710.381197846501
 30
0.0
 11
-180.7999999999992
 21
1712.690598923201
 31
0.0
  0
LINE
  5
4D11C
330
18
100
AcDbEntity
  8
DETAIL
  6
Continuous
 48
30.0
100
AcDbLine
 10
-184.7999999999992
 20
1719.618802153501
 30
0.0
 11
-188.7999999999992
 21
1717.309401076701
 31
0.0
  0
LINE
  5
4D11D
330
18
100
AcDbEntity
  8
DETAIL
  6
Continuous
 48
30.0
100
AcDbLine
 10
-204.7999999999992
 20
1710.381197846501
 30
0.0
 11
-200.7999999999992
 21
1712.690598923201
 31
0.0
  0
LINE
  5
4D11E
330
18
100
AcDbEntity
  8
DETAIL
  6
Continuous
 48
30.0
100
AcDbLine
 10
-204.7999999999992
 20
1719.618802153501
 30
0.0
 11
-208.7999999999992
 21
1717.309401076701
 31
0.0
  0
CIRCLE
  5
4D11F
330
18
100
AcDbEntity
  8
DETAIL
  6
Continuous
 48
30.0
100
AcDbCircle
 10
-245.0
 20
1640.000000000002
 30
0.0
 40
2.049999999999998
  0
CIRCLE
  5
4D120
330
18
100
AcDbEntity
  8
DETAIL
  6
Continuous
 48
30.0
100
AcDbCircle
 10
-245.0
 20
1640.000000000002
 30
0.0
 40
2.25
  0
CIRCLE
  5
4D121
330
18
100
AcDbEntity
  8
DETAIL
  6
Continuous
 48
30.0
100
AcDbCircle
 10
-245.0
 20
1640.000000000002
 30
0.0
 40
4.5
  0
LINE
  5
4D122
330
18
100
AcDbEntity
  8
DETAIL
  6
Continuous
 48
30.0
100
AcDbLine
 10
-241.2501610180988
 20
1642.445029454402
 30
0.0
 11
-244.7980435034041
 21
1644.493400362302
 31
0.0
  0
LINE
  5
4D123
330
18
100
AcDbEntity
  8
DETAIL
  6
Continuous
 48
30.0
100
AcDbLine
 10
-241.5550000000002
 20
1641.988971677301
 30
0.0
 11
-245.0
 21
1643.977943354699
 31
0.0
  0
LINE
  5
4D124
330
18
100
AcDbEntity
  8
DETAIL
  6
Continuous
 48
30.0
100
AcDbLine
 10
-248.4449999999997
 20
1638.0110283226
 30
0.0
 11
-245.0
 21
1636.0220566453
 31
0.0
  0
LINE
  5
4D125
330
18
100
AcDbEntity
  8
DETAIL
  6
Continuous
 48
30.0
100
AcDbLine
 10
-248.7498389817992
 20
1637.554970545601
 30
0.0
 11
-245.2019564965012
 21
1635.506599637699
 31
0.0
  0
LINE
  5
4D126
330
18
100
AcDbEntity
  8
DETAIL
  6
Continuous
 48
30.0
100
AcDbLine
 10
-244.7980435034041
 20
1635.506599637699
 30
0.0
 11
-241.2501610180988
 21
1637.554970545601
 31
0.0
  0
LINE
  5
4D127
330
18
100
AcDbEntity
  8
DETAIL
  6
Continuous
 48
30.0
100
AcDbLine
 10
-245.0
 20
1636.0220566453
 30
0.0
 11
-241.5550000000002
 21
1638.0110283226
 31
0.0
  0
LINE
  5
4D128
330
18
100
AcDbEntity
  8
DETAIL
  6
Continuous
 48
30.0
100
AcDbLine
 10
-245.0
 20
1643.977943354699
 30
0.0
 11
-248.4449999999997
 21
1641.988971677301
 31
0.0
  0
LINE
  5
4D129
330
18
100
AcDbEntity
  8
DETAIL
  6
Continuous
 48
30.0
100
AcDbLine
 10
-245.2019564965012
 20
1644.493400362302
 30
0.0
 11
-248.7498389817992
 21
1642.445029454402
 31
0.0
  0
LINE
  5
4D12A
330
18
100
AcDbEntity
  8
DETAIL
  6
Continuous
 48
30.0
100
AcDbLine
 10
-241.0076228885009
 20
1637.958072052699
 30
0.0
 11
-241.0076228885009
 21
1642.0419279472
 31
0.0
  0
LINE
  5
4D12B
330
18
100
AcDbEntity
  8
DETAIL
  6
Continuous
 48
30.0
100
AcDbLine
 10
-241.5550000000002
 20
1638.0110283226
 30
0.0
 11
-241.5550000000002
 21
1641.988971677301
 31
0.0
  0
LINE
  5
4D12C
330
18
100
AcDbEntity
  8
DETAIL
  6
Continuous
 48
30.0
100
AcDbLine
 10
-248.4449999999997
 20
1641.988971677301
 30
0.0
 11
-248.4449999999997
 21
1638.0110283226
 31
0.0
  0
LINE
  5
4D12D
330
18
100
AcDbEntity
  8
DETAIL
  6
Continuous
 48
30.0
100
AcDbLine
 10
-248.9923771114045
 20
1642.0419279472
 30
0.0
 11
-248.9923771114045
 21
1637.958072052699
 31
0.0
  0
ARC
  5
4D12E
330
18
100
AcDbEntity
  8
DETAIL
  6
Continuous
 48
30.0
100
AcDbCircle
 10
-91.80000000000656
 20
1681.999999999998
 30
0.0
 40
5.000000000004543
100
AcDbArc
 50
0.0000000000521102
 51
89.99999999989578
  0
ARC
  5
4D12F
330
18
100
AcDbEntity
  8
DETAIL
  6
Continuous
 48
30.0
100
AcDbCircle
 10
-91.80000000000292
 20
1642.000000000002
 30
0.0
 40
5.000000000000908
100
AcDbArc
 50
270.0
 51
0.0
  0
LINE
  5
4D130
330
18
100
AcDbEntity
  8
DETAIL
  6
Continuous
 48
30.0
100
AcDbLine
 10
-86.79999999999926
 20
1682.000000000001
 30
0.0
 11
-86.79999999999926
 21
1642.000000000002
 31
0.0
  0
LINE
  5
4D135
330
18
100
AcDbEntity
  8
DETAIL
  6
Continuous
 48
30.0
100
AcDbLine
 10
-250.6011365104023
 20
1863.399999999999
 30
0.0
 11
-259.3988119932983
 21
1863.399999999999
 31
0.0
  0
LINE
  5
4D136
330
18
100
AcDbEntity
  8
DETAIL
  6
Continuous
 48
30.0
100
AcDbLine
 10
-261.0
 20
1862.399999999999
 30
0.0
 11
-249.0
 21
1862.399999999999
 31
0.0
  0
LINE
  5
4D137
330
18
100
AcDbEntity
  8
DETAIL
  6
Continuous
 48
30.0
100
AcDbLine
 10
-315.0
 20
1861.6
 30
0.0
 11
-245.0
 21
1861.6
 31
0.0
  0
LINE
  5
4D14D
330
18
100
AcDbEntity
  8
DETAIL
  6
Continuous
 48
30.0
100
AcDbLine
 10
-320.6011365104022
 20
1863.399999999999
 30
0.0
 11
-329.3988119932983
 21
1863.399999999999
 31
0.0
  0
LINE
  5
4D14E
330
18
100
AcDbEntity
  8
DETAIL
  6
Continuous
 48
30.0
100
AcDbLine
 10
-300.6011365104023
 20
1863.399999999999
 30
0.0
 11
-309.3988119932983
 21
1863.399999999999
 31
0.0
  0
LINE
  5
4D14F
330
18
100
AcDbEntity
  8
DETAIL
  6
Continuous
 48
30.0
100
AcDbLine
 10
-311.0
 20
1862.399999999999
 30
0.0
 11
-299.0
 21
1862.399999999999
 31
0.0
  0
LINE
  5
4D150
330
18
100
AcDbEntity
  8
DETAIL
  6
Continuous
 48
30.0
100
AcDbLine
 10
-331.0
 20
1862.399999999999
 30
0.0
 11
-319.0
 21
1862.399999999999
 31
0.0
  0
LINE
  5
4D15A
330
18
100
AcDbEntity
  8
DETAIL
  6
Continuous
 48
30.0
100
AcDbLine
 10
-259.4000000000014
 20
1862.399999999999
 30
0.0
 11
-259.4000000000014
 21
1863.399999999999
 31
0.0
  0
LINE
  5
4D15B
330
18
100
AcDbEntity
  8
DETAIL
  6
Continuous
 48
30.0
100
AcDbLine
 10
-261.0
 20
1861.6
 30
0.0
 11
-261.0
 21
1862.399999999999
 31
0.0
  0
LINE
  5
4D15C
330
18
100
AcDbEntity
  8
DETAIL
  6
Continuous
 48
30.0
100
AcDbLine
 10
-299.0
 20
1861.6
 30
0.0
 11
-299.0
 21
1862.399999999999
 31
0.0
  0
LINE
  5
4D15D
330
18
100
AcDbEntity
  8
DETAIL
  6
Continuous
 48
30.0
100
AcDbLine
 10
-300.6011365104023
 20
1862.399999999999
 30
0.0
 11
-300.6011365104023
 21
1863.399999999999
 31
0.0
  0
LINE
  5
4D161
330
18
100
AcDbEntity
  8
DETAIL
  6
Continuous
 48
30.0
100
AcDbLine
 10
-309.4000000000014
 20
1862.399999999999
 30
0.0
 11
-309.4000000000014
 21
1863.399999999999
 31
0.0
  0
LINE
  5
4D162
330
18
100
AcDbEntity
  8
DETAIL
  6
Continuous
 48
30.0
100
AcDbLine
 10
-311.0
 20
1861.6
 30
0.0
 11
-311.0
 21
1862.399999999999
 31
0.0
  0
LINE
  5
4D163
330
18
100
AcDbEntity
  8
DETAIL
  6
Continuous
 48
30.0
100
AcDbLine
 10
-315.0
 20
1861.6
 30
0.0
 11
-315.0
 21
1860.000000000002
 31
0.0
  0
LINE
  5
4D164
330
18
100
AcDbEntity
  8
DETAIL
  6
Continuous
 48
30.0
100
AcDbLine
 10
-315.0
 20
1861.6
 30
0.0
 11
-315.0
 21
1860.000000000002
 31
0.0
  0
LINE
  5
4D165
330
18
100
AcDbEntity
  8
DETAIL
  6
Continuous
 48
30.0
100
AcDbLine
 10
-319.0
 20
1861.6
 30
0.0
 11
-319.0
 21
1862.399999999999
 31
0.0
  0
LINE
  5
4D166
330
18
100
AcDbEntity
  8
DETAIL
  6
Continuous
 48
30.0
100
AcDbLine
 10
-320.6011365104022
 20
1862.399999999999
 30
0.0
 11
-320.6011365104022
 21
1863.399999999999
 31
0.0
  0
LINE
  5
4D16A
330
18
100
AcDbEntity
  8
DETAIL
  6
Continuous
 48
30.0
100
AcDbLine
 10
-329.4000000000014
 20
1862.399999999999
 30
0.0
 11
-329.4000000000014
 21
1863.399999999999
 31
0.0
  0
LINE
  5
4D16B
330
18
100
AcDbEntity
  8
DETAIL
  6
Continuous
 48
30.0
100
AcDbLine
 10
-331.0
 20
1861.6
 30
0.0
 11
-331.0
 21
1862.399999999999
 31
0.0
  0
LINE
  5
4D16C
330
18
100
AcDbEntity
  8
DETAIL
  6
Continuous
 48
30.0
100
AcDbLine
 10
-369.0
 20
1861.6
 30
0.0
 11
-369.0
 21
1862.399999999999
 31
0.0
  0
LINE
  5
4D16D
330
18
100
AcDbEntity
  8
DETAIL
  6
Continuous
 48
30.0
100
AcDbLine
 10
-370.6011365104022
 20
1862.399999999999
 30
0.0
 11
-370.6011365104022
 21
1863.399999999999
 31
0.0
  0
ARC
  5
4D172
330
18
100
AcDbEntity
  8
DETAIL
  6
Continuous
 48
30.0
100
AcDbCircle
 10
-213.7999999999956
 20
1858.799999999997
 30
0.0
 40
1.200000000004366
100
AcDbArc
 50
90.00000000020843
 51
179.9999999997915
  0
ARC
  5
4D175
330
18
100
AcDbEntity
  8
DETAIL
  6
Continuous
 48
30.0
100
AcDbCircle
 10
-216.2000000000043
 20
1858.799999999997
 30
0.0
 40
1.200000000004366
100
AcDbArc
 50
0.0000000002084408
 51
89.99999999979158
  0
LINE
  5
4D176
330
18
100
AcDbEntity
  8
DETAIL
  6
Continuous
 48
30.0
100
AcDbLine
 10
-216.2000000000043
 20
1780.349195999499
 30
0.0
 11
-216.2000000000043
 21
1860.000000000002
 31
0.0
  0
LINE
  5
4D177
330
18
100
AcDbEntity
  8
DETAIL
  6
Continuous
 48
30.0
100
AcDbLine
 10
-216.2000000000043
 20
1779.500667862101
 30
0.0
 11
-216.2000000000043
 21
1780.349195999499
 31
0.0
  0
LINE
  5
4D178
330
18
100
AcDbEntity
  8
DETAIL
  6
Continuous
 48
30.0
100
AcDbLine
 10
-245.0
 20
1861.6
 30
0.0
 11
-245.0
 21
1860.000000000002
 31
0.0
  0
LINE
  5
4D179
330
18
100
AcDbEntity
  8
DETAIL
  6
Continuous
 48
30.0
100
AcDbLine
 10
-249.0
 20
1861.6
 30
0.0
 11
-249.0
 21
1862.399999999999
 31
0.0
  0
LINE
  5
4D17A
330
18
100
AcDbEntity
  8
DETAIL
  6
Continuous
 48
30.0
100
AcDbLine
 10
-250.6011365104023
 20
1862.399999999999
 30
0.0
 11
-250.6011365104023
 21
1863.399999999999
 31
0.0
  0
LINE
  5
4D17C
330
18
100
AcDbEntity
  8
DETAIL
  6
Continuous
 48
30.0
100
AcDbLine
 10
562.0
 20
1618.000000000001
 30
0.0
 11
562.0
 21
921.3000000000011
 31
0.0
  0
LINE
  5
4D17D
330
18
100
AcDbEntity
  8
DETAIL
  6
Continuous
 48
30.0
100
AcDbLine
 10
560.699999999997
 20
905.0
 30
0.0
 11
560.699999999997
 21
1618.000000000001
 31
0.0
  0
LINE
  5
4D17E
330
18
100
AcDbEntity
  8
DETAIL
  6
Continuous
 48
30.0
100
AcDbLine
 10
562.0
 20
878.1434075912002
 30
0.0
 11
562.0
 21
793.0
 31
0.0
  0
LINE
  5
4D17F
330
18
100
AcDbEntity
  8
DETAIL
  6
Continuous
 48
30.0
100
AcDbLine
 10
560.699999999997
 20
793.0
 30
0.0
 11
560.699999999997
 21
879.4434075912013
 31
0.0
  0
LINE
  5
4D18F
330
18
100
AcDbEntity
  8
DETAIL
  6
Continuous
 48
30.0
100
AcDbLine
 10
560.7999999999956
 20
793.0
 30
0.0
 11
560.7999999999956
 21
788.7544155877021
 31
0.0
  0
CIRCLE
  5
4D1A4
330
18
100
AcDbEntity
  8
DETAIL
  6
Continuous
 48
30.0
100
AcDbCircle
 10
544.7999999999956
 20
910.0
 30
0.0
 40
6.0
  0
CIRCLE
  5
4D1AD
330
18
100
AcDbEntity
  8
DETAIL
  6
Continuous
 48
30.0
100
AcDbCircle
 10
534.7999999999956
 20
890.0
 30
0.0
 40
6.0
  0
LINE
  5
4D1AE
330
18
100
AcDbEntity
  8
DETAIL
  6
Continuous
 48
30.0
100
AcDbLine
 10
562.0
 20
878.7000000000007
 30
0.0
 11
562.0
 21
878.1434075912002
 31
0.0
  0
LINE
  5
4D1AF
330
18
100
AcDbEntity
  8
DETAIL
  6
Continuous
 48
30.0
100
AcDbLine
 10
560.7999999999956
 20
878.7000000000007
 30
0.0
 11
560.7999999999956
 21
878.1434075912002
 31
0.0
  0
LINE
  5
4D1B0
330
18
100
AcDbEntity
  8
DETAIL
  6
Continuous
 48
30.0
100
AcDbLine
 10
560.699999999997
 20
880.0
 30
0.0
 11
560.699999999997
 21
879.4434075912013
 31
0.0
  0
LINE
  5
4D1B1
330
18
100
AcDbEntity
  8
DETAIL
  6
Continuous
 48
30.0
100
AcDbLine
 10
548.7999999999956
 20
907.6905989232001
 30
0.0
 11
548.7999999999956
 21
912.3094010767017
 31
0.0
  0
LINE
  5
4D1B2
330
18
100
AcDbEntity
  8
DETAIL
  6
Continuous
 48
30.0
100
AcDbLine
 10
547.1999999999971
 20
909.5
 30
0.0
 11
547.1999999999971
 21
910.5
 31
0.0
  0
LINE
  5
4D1B3
330
18
100
AcDbEntity
  8
DETAIL
  6
Continuous
 48
30.0
100
AcDbLine
 10
545.2999999999956
 20
907.6000000000002
 30
0.0
 11
545.2999999999956
 21
909.5
 31
0.0
  0
LINE
  5
4D1B4
330
18
100
AcDbEntity
  8
DETAIL
  6
Continuous
 48
30.0
100
AcDbLine
 10
545.2999999999956
 20
910.5
 30
0.0
 11
545.2999999999956
 21
912.4000000000012
 31
0.0
  0
LINE
  5
4D1B5
330
18
100
AcDbEntity
  8
DETAIL
  6
Continuous
 48
30.0
100
AcDbLine
 10
544.6999999999967
 20
895.0
 30
0.0
 11
544.6999999999967
 21
880.0
 31
0.0
  0
LINE
  5
4D1B6
330
18
100
AcDbEntity
  8
DETAIL
  6
Continuous
 48
30.0
100
AcDbLine
 10
544.2999999999956
 20
912.4000000000012
 30
0.0
 11
544.2999999999956
 21
910.5
 31
0.0
  0
LINE
  5
4D1B7
330
18
100
AcDbEntity
  8
DETAIL
  6
Continuous
 48
30.0
100
AcDbLine
 10
544.2999999999956
 20
909.5
 30
0.0
 11
544.2999999999956
 21
907.6000000000002
 31
0.0
  0
LINE
  5
4D1B8
330
18
100
AcDbEntity
  8
DETAIL
  6
Continuous
 48
30.0
100
AcDbLine
 10
542.3999999999978
 20
910.5
 30
0.0
 11
542.3999999999978
 21
909.5
 31
0.0
  0
LINE
  5
4D1B9
330
18
100
AcDbEntity
  8
DETAIL
  6
Continuous
 48
30.0
100
AcDbLine
 10
540.7999999999956
 20
912.3094010767017
 30
0.0
 11
540.7999999999956
 21
907.6905989232001
 31
0.0
  0
LINE
  5
4D1BA
330
18
100
AcDbEntity
  8
DETAIL
  6
Continuous
 48
30.0
100
AcDbLine
 10
538.7999999999956
 20
887.6905989232001
 30
0.0
 11
538.7999999999956
 21
892.3094010767018
 31
0.0
  0
LINE
  5
4D1BB
330
18
100
AcDbEntity
  8
DETAIL
  6
Continuous
 48
30.0
100
AcDbLine
 10
537.1999999999967
 20
889.4999999999999
 30
0.0
 11
537.1999999999967
 21
890.4999999999999
 31
0.0
  0
LINE
  5
4D1BC
330
18
100
AcDbEntity
  8
DETAIL
  6
Continuous
 48
30.0
100
AcDbLine
 10
535.2999999999956
 20
887.6000000000002
 30
0.0
 11
535.2999999999956
 21
889.4999999999999
 31
0.0
  0
LINE
  5
4D1BD
330
18
100
AcDbEntity
  8
DETAIL
  6
Continuous
 48
30.0
100
AcDbLine
 10
535.2999999999956
 20
890.4999999999999
 30
0.0
 11
535.2999999999956
 21
892.4000000000015
 31
0.0
  0
LINE
  5
4D1BE
330
18
100
AcDbEntity
  8
DETAIL
  6
Continuous
 48
30.0
100
AcDbLine
 10
534.2999999999956
 20
892.4000000000015
 30
0.0
 11
534.2999999999956
 21
890.4999999999999
 31
0.0
  0
LINE
  5
4D1BF
330
18
100
AcDbEntity
  8
DETAIL
  6
Continuous
 48
30.0
100
AcDbLine
 10
534.2999999999956
 20
889.4999999999999
 30
0.0
 11
534.2999999999956
 21
887.6000000000002
 31
0.0
  0
LINE
  5
4D1C0
330
18
100
AcDbEntity
  8
DETAIL
  6
Continuous
 48
30.0
100
AcDbLine
 10
532.3999999999978
 20
890.4999999999999
 30
0.0
 11
532.3999999999978
 21
889.4999999999999
 31
0.0
  0
LINE
  5
4D1C1
330
18
100
AcDbEntity
  8
DETAIL
  6
Continuous
 48
30.0
100
AcDbLine
 10
530.7999999999956
 20
892.3094010767018
 30
0.0
 11
530.7999999999956
 21
887.6905989232001
 31
0.0
  0
LINE
  5
4D1C2
330
18
100
AcDbEntity
  8
DETAIL
  6
Continuous
 48
30.0
100
AcDbLine
 10
519.7999999999956
 20
898.7000000000007
 30
0.0
 11
519.7999999999956
 21
900.0
 31
0.0
  0
LINE
  5
4D1C3
330
18
100
AcDbEntity
  8
DETAIL
  6
Continuous
 48
30.0
100
AcDbLine
 10
519.7999999999956
 20
901.300000000001
 30
0.0
 11
519.7999999999956
 21
900.0
 31
0.0
  0
LINE
  5
4D1C4
330
18
100
AcDbEntity
  8
DETAIL
  6
Continuous
 48
30.0
100
AcDbLine
 10
555.6999999999971
 20
900.0
 30
0.0
 11
560.699999999997
 21
905.0
 31
0.0
  0
LINE
  5
4D1C5
330
18
100
AcDbEntity
  8
DETAIL
  6
Continuous
 48
30.0
100
AcDbLine
 10
544.6999999999967
 20
895.0
 30
0.0
 11
539.699999999997
 21
900.0
 31
0.0
  0
LINE
  5
4D1C6
330
18
100
AcDbEntity
  8
DETAIL
  6
Continuous
 48
30.0
100
AcDbLine
 10
534.7999999999956
 20
885.3811978465001
 30
0.0
 11
538.7999999999956
 21
887.6905989232001
 31
0.0
  0
LINE
  5
4D1C7
330
18
100
AcDbEntity
  8
DETAIL
  6
Continuous
 48
30.0
100
AcDbLine
 10
534.7999999999956
 20
894.6188021535018
 30
0.0
 11
530.7999999999956
 21
892.3094010767018
 31
0.0
  0
LINE
  5
4D1C8
330
18
100
AcDbEntity
  8
DETAIL
  6
Continuous
 48
30.0
100
AcDbLine
 10
544.7999999999956
 20
905.3811978464999
 30
0.0
 11
548.7999999999956
 21
907.6905989232001
 31
0.0
  0
LINE
  5
4D1C9
330
18
100
AcDbEntity
  8
DETAIL
  6
Continuous
 48
30.0
100
AcDbLine
 10
544.7999999999956
 20
914.6188021535015
 30
0.0
 11
540.7999999999956
 21
912.3094010767017
 31
0.0
  0
LINE
  5
4D1CA
330
18
100
AcDbEntity
  8
DETAIL
  6
Continuous
 48
30.0
100
AcDbLine
 10
548.7999999999956
 20
912.3094010767017
 30
0.0
 11
544.7999999999956
 21
914.6188021535015
 31
0.0
  0
LINE
  5
4D1CB
330
18
100
AcDbEntity
  8
DETAIL
  6
Continuous
 48
30.0
100
AcDbLine
 10
540.7999999999956
 20
907.6905989232001
 30
0.0
 11
544.7999999999956
 21
905.3811978464999
 31
0.0
  0
LINE
  5
4D1CC
330
18
100
AcDbEntity
  8
DETAIL
  6
Continuous
 48
30.0
100
AcDbLine
 10
538.7999999999956
 20
892.3094010767018
 30
0.0
 11
534.7999999999956
 21
894.6188021535018
 31
0.0
  0
LINE
  5
4D1CD
330
18
100
AcDbEntity
  8
DETAIL
  6
Continuous
 48
30.0
100
AcDbLine
 10
530.7999999999956
 20
887.6905989232001
 30
0.0
 11
534.7999999999956
 21
885.3811978465001
 31
0.0
  0
LINE
  5
4D1CE
330
18
100
AcDbEntity
  8
DETAIL
  6
Continuous
 48
30.0
100
AcDbLine
 10
545.2999999999956
 20
912.4000000000012
 30
0.0
 11
544.2999999999956
 21
912.4000000000012
 31
0.0
  0
LINE
  5
4D1CF
330
18
100
AcDbEntity
  8
DETAIL
  6
Continuous
 48
30.0
100
AcDbLine
 10
547.1999999999971
 20
910.5
 30
0.0
 11
545.2999999999956
 21
910.5
 31
0.0
  0
LINE
  5
4D1D0
330
18
100
AcDbEntity
  8
DETAIL
  6
Continuous
 48
30.0
100
AcDbLine
 10
544.2999999999956
 20
910.5
 30
0.0
 11
542.3999999999978
 21
910.5
 31
0.0
  0
LINE
  5
4D1D3
330
18
100
AcDbEntity
  8
DETAIL
  6
Continuous
 48
30.0
100
AcDbLine
 10
545.2999999999956
 20
909.5
 30
0.0
 11
547.1999999999971
 21
909.5
 31
0.0
  0
LINE
  5
4D1D4
330
18
100
AcDbEntity
  8
DETAIL
  6
Continuous
 48
30.0
100
AcDbLine
 10
542.3999999999978
 20
909.5
 30
0.0
 11
544.2999999999956
 21
909.5
 31
0.0
  0
LINE
  5
4D1D5
330
18
100
AcDbEntity
  8
DETAIL
  6
Continuous
 48
30.0
100
AcDbLine
 10
544.2999999999956
 20
907.6000000000002
 30
0.0
 11
545.2999999999956
 21
907.6000000000002
 31
0.0
  0
LINE
  5
4D1D6
330
18
100
AcDbEntity
  8
DETAIL
  6
Continuous
 48
30.0
100
AcDbLine
 10
535.2999999999956
 20
892.4000000000015
 30
0.0
 11
534.2999999999956
 21
892.4000000000015
 31
0.0
  0
LINE
  5
4D1D7
330
18
100
AcDbEntity
  8
DETAIL
  6
Continuous
 48
30.0
100
AcDbLine
 10
537.1999999999967
 20
890.4999999999999
 30
0.0
 11
535.2999999999956
 21
890.4999999999999
 31
0.0
  0
LINE
  5
4D1D8
330
18
100
AcDbEntity
  8
DETAIL
  6
Continuous
 48
30.0
100
AcDbLine
 10
534.2999999999956
 20
890.4999999999999
 30
0.0
 11
532.3999999999978
 21
890.4999999999999
 31
0.0
  0
LINE
  5
4D1DB
330
18
100
AcDbEntity
  8
DETAIL
  6
Continuous
 48
30.0
100
AcDbLine
 10
535.2999999999956
 20
889.4999999999999
 30
0.0
 11
537.1999999999967
 21
889.4999999999999
 31
0.0
  0
LINE
  5
4D1DC
330
18
100
AcDbEntity
  8
DETAIL
  6
Continuous
 48
30.0
100
AcDbLine
 10
532.3999999999978
 20
889.4999999999999
 30
0.0
 11
534.2999999999956
 21
889.4999999999999
 31
0.0
  0
LINE
  5
4D1DD
330
18
100
AcDbEntity
  8
DETAIL
  6
Continuous
 48
30.0
100
AcDbLine
 10
534.2999999999956
 20
887.6000000000002
 30
0.0
 11
535.2999999999956
 21
887.6000000000002
 31
0.0
  0
LINE
  5
4D1DE
330
18
100
AcDbEntity
  8
DETAIL
  6
Continuous
 48
30.0
100
AcDbLine
 10
562.0
 20
878.7000000000007
 30
0.0
 11
560.7999999999956
 21
878.7000000000007
 31
0.0
  0
LINE
  5
4D1DF
330
18
100
AcDbEntity
  8
DETAIL
  6
Continuous
 48
30.0
100
AcDbLine
 10
565.0
 20
1726.2
 30
0.0
 11
565.0
 21
1858.800000000001
 31
0.0
  0
LINE
  5
4D1E0
330
18
100
AcDbEntity
  8
DETAIL
  6
Continuous
 48
30.0
100
AcDbLine
 10
563.7999999999956
 20
1711.2
 30
0.0
 11
563.7999999999956
 21
1860.000000000002
 31
0.0
  0
ARC
  5
4D2B8
330
18
100
AcDbEntity
  8
DETAIL
  6
Continuous
 48
30.0
100
AcDbCircle
 10
563.7999999999956
 20
1726.200000000002
 30
0.0
 40
1.200000000001182
100
AcDbArc
 50
270.0
 51
359.9999999998958
  0
ARC
  5
4D2B9
330
18
100
AcDbEntity
  8
DETAIL
  6
Continuous
 48
30.0
100
AcDbCircle
 10
563.7999999999956
 20
1723.799999999995
 30
0.0
 40
1.200000000004366
100
AcDbArc
 50
0.0000000002084408
 51
89.99999999979158
  0
CIRCLE
  5
4D2C2
330
18
100
AcDbEntity
  8
DETAIL
  6
Continuous
 48
30.0
100
AcDbCircle
 10
554.7999999999956
 20
1715.000000000002
 30
0.0
 40
6.0
  0
CIRCLE
  5
4D2CB
330
18
100
AcDbEntity
  8
DETAIL
  6
Continuous
 48
30.0
100
AcDbCircle
 10
534.7999999999956
 20
1715.000000000002
 30
0.0
 40
6.0
  0
ARC
  5
4D2CC
330
18
100
AcDbEntity
  8
DETAIL
  6
Continuous
 48
30.0
100
AcDbCircle
 10
552.8484374998006
 20
1632.0
 30
0.0
 40
10.15156250019663
100
AcDbArc
 50
352.0730863577533
 51
7.926913642246705
  0
ARC
  5
4D2CD
330
18
100
AcDbEntity
  8
DETAIL
  6
Continuous
 48
30.0
100
AcDbCircle
 10
552.8484374999568
 20
1631.999999999996
 30
0.0
 40
10.1515625000409
100
AcDbArc
 50
9.068269127821107
 51
22.89867597691303
  0
ARC
  5
4D2CE
330
18
100
AcDbEntity
  8
DETAIL
  6
Continuous
 48
30.0
100
AcDbCircle
 10
552.8484374999568
 20
1632.000000000003
 30
0.0
 40
10.1515625000409
100
AcDbArc
 50
337.1013240230869
 51
350.9317308721788
  0
ARC
  5
4D2CF
330
18
100
AcDbEntity
  8
DETAIL
  6
Continuous
 48
30.0
100
AcDbCircle
 10
552.8484374998006
 20
1642.0
 30
0.0
 40
10.15156250019663
100
AcDbArc
 50
352.0730863577533
 51
7.926913642246705
  0
ARC
  5
4D2D0
330
18
100
AcDbEntity
  8
DETAIL
  6
Continuous
 48
30.0
100
AcDbCircle
 10
552.8484374999568
 20
1641.999999999996
 30
0.0
 40
10.1515625000409
100
AcDbArc
 50
9.068269127821107
 51
22.89867597691303
  0
ARC
  5
4D2D1
330
18
100
AcDbEntity
  8
DETAIL
  6
Continuous
 48
30.0
100
AcDbCircle
 10
552.8484374999568
 20
1642.000000000003
 30
0.0
 40
10.1515625000409
100
AcDbArc
 50
337.1013240230869
 51
350.9317308721788
  0
LINE
  5
4D2D2
330
18
100
AcDbEntity
  8
DETAIL
  6
Continuous
 48
30.0
100
AcDbLine
 10
562.8731181030016
 20
1643.6
 30
0.0
 11
562.1999999999967
 21
1645.95
 31
0.0
  0
LINE
  5
4D2D3
330
18
100
AcDbEntity
  8
DETAIL
  6
Continuous
 48
30.0
100
AcDbLine
 10
562.8731181030016
 20
1633.6
 30
0.0
 11
562.1999999999967
 21
1635.95
 31
0.0
  0
LINE
  5
4D2D4
330
18
100
AcDbEntity
  8
DETAIL
  6
Continuous
 48
30.0
100
AcDbLine
 10
563.4999999999998
 20
1610.000000000002
 30
0.0
 11
563.4999999999998
 21
1600.000000000001
 31
0.0
  0
LINE
  5
4D2D5
330
18
100
AcDbEntity
  8
DETAIL
  6
Continuous
 48
30.0
100
AcDbLine
 10
562.9029997078978
 20
1640.6
 30
0.0
 11
562.9029997078978
 21
1643.399999999999
 31
0.0
  0
LINE
  5
4D2D6
330
18
100
AcDbEntity
  8
DETAIL
  6
Continuous
 48
30.0
100
AcDbLine
 10
562.9029997078978
 20
1630.6
 30
0.0
 11
562.9029997078978
 21
1633.399999999999
 31
0.0
  0
LINE
  5
4D2D7
330
18
100
AcDbEntity
  8
DETAIL
  6
Continuous
 48
30.0
100
AcDbLine
 10
562.8731181030016
 20
1640.399999999999
 30
0.0
 11
562.8731181030016
 21
1643.6
 31
0.0
  0
LINE
  5
4D2D8
330
18
100
AcDbEntity
  8
DETAIL
  6
Continuous
 48
30.0
100
AcDbLine
 10
562.8731181030016
 20
1630.399999999999
 30
0.0
 11
562.8731181030016
 21
1633.6
 31
0.0
  0
LINE
  5
4D2D9
330
18
100
AcDbEntity
  8
DETAIL
  6
Continuous
 48
30.0
100
AcDbLine
 10
562.1999999999967
 20
1638.050000000001
 30
0.0
 11
562.1999999999967
 21
1645.95
 31
0.0
  0
LINE
  5
4D2DA
330
18
100
AcDbEntity
  8
DETAIL
  6
Continuous
 48
30.0
100
AcDbLine
 10
562.1999999999967
 20
1628.050000000001
 30
0.0
 11
562.1999999999967
 21
1635.95
 31
0.0
  0
LINE
  5
4D2DB
330
18
100
AcDbEntity
  8
DETAIL
  6
Continuous
 48
30.0
100
AcDbLine
 10
562.0
 20
1703.143407591202
 30
0.0
 11
562.0
 21
1618.000000000001
 31
0.0
  0
LINE
  5
4D2DC
330
18
100
AcDbEntity
  8
DETAIL
  6
Continuous
 48
30.0
100
AcDbLine
 10
562.0
 20
1703.7
 30
0.0
 11
562.0
 21
1703.143407591202
 31
0.0
  0
LINE
  5
4D2DD
330
18
100
AcDbEntity
  8
DETAIL
  6
Continuous
 48
30.0
100
AcDbLine
 10
560.7999999999956
 20
1618.000000000001
 30
0.0
 11
560.7999999999956
 21
1613.754415587702
 31
0.0
  0
LINE
  5
4D2DE
330
18
100
AcDbEntity
  8
DETAIL
  6
Continuous
 48
30.0
100
AcDbLine
 10
560.7999999999956
 20
1703.7
 30
0.0
 11
560.7999999999956
 21
1703.143407591202
 31
0.0
  0
LINE
  5
4D2DF
330
18
100
AcDbEntity
  8
DETAIL
  6
Continuous
 48
30.0
100
AcDbLine
 10
560.699999999997
 20
1618.000000000001
 30
0.0
 11
560.699999999997
 21
1704.443407591201
 31
0.0
  0
LINE
  5
4D2E0
330
18
100
AcDbEntity
  8
DETAIL
  6
Continuous
 48
30.0
100
AcDbLine
 10
560.699999999997
 20
1705.000000000001
 30
0.0
 11
560.699999999997
 21
1704.443407591201
 31
0.0
  0
LINE
  5
4D2E1
330
18
100
AcDbEntity
  8
DETAIL
  6
Continuous
 48
30.0
100
AcDbLine
 10
558.7999999999956
 20
1712.690598923201
 30
0.0
 11
558.7999999999956
 21
1717.309401076701
 31
0.0
  0
LINE
  5
4D2E2
330
18
100
AcDbEntity
  8
DETAIL
  6
Continuous
 48
30.0
100
AcDbLine
 10
557.1999999999967
 20
1714.500000000001
 30
0.0
 11
557.1999999999967
 21
1715.500000000002
 31
0.0
  0
LINE
  5
4D2E3
330
18
100
AcDbEntity
  8
DETAIL
  6
Continuous
 48
30.0
100
AcDbLine
 10
555.2999999999956
 20
1712.6
 30
0.0
 11
555.2999999999956
 21
1714.500000000001
 31
0.0
  0
LINE
  5
4D2E4
330
18
100
AcDbEntity
  8
DETAIL
  6
Continuous
 48
30.0
100
AcDbLine
 10
555.2999999999956
 20
1715.500000000002
 30
0.0
 11
555.2999999999956
 21
1717.399999999999
 31
0.0
  0
LINE
  5
4D2E5
330
18
100
AcDbEntity
  8
DETAIL
  6
Continuous
 48
30.0
100
AcDbLine
 10
554.2999999999956
 20
1717.399999999999
 30
0.0
 11
554.2999999999956
 21
1715.500000000002
 31
0.0
  0
LINE
  5
4D2E6
330
18
100
AcDbEntity
  8
DETAIL
  6
Continuous
 48
30.0
100
AcDbLine
 10
554.2999999999956
 20
1714.500000000001
 30
0.0
 11
554.2999999999956
 21
1712.6
 31
0.0
  0
LINE
  5
4D2E7
330
18
100
AcDbEntity
  8
DETAIL
  6
Continuous
 48
30.0
100
AcDbLine
 10
552.3999999999978
 20
1715.500000000002
 30
0.0
 11
552.3999999999978
 21
1714.500000000001
 31
0.0
  0
LINE
  5
4D2E8
330
18
100
AcDbEntity
  8
DETAIL
  6
Continuous
 48
30.0
100
AcDbLine
 10
550.7999999999956
 20
1717.309401076701
 30
0.0
 11
550.7999999999956
 21
1712.690598923201
 31
0.0
  0
LINE
  5
4D2E9
330
18
100
AcDbEntity
  8
DETAIL
  6
Continuous
 48
30.0
100
AcDbLine
 10
545.7999999999956
 20
1711.2
 30
0.0
 11
545.7999999999956
 21
1725.000000000001
 31
0.0
  0
LINE
  5
4D2EA
330
18
100
AcDbEntity
  8
DETAIL
  6
Continuous
 48
30.0
100
AcDbLine
 10
544.6999999999967
 20
1720.000000000001
 30
0.0
 11
544.6999999999967
 21
1705.000000000001
 31
0.0
  0
LINE
  5
4D2EB
330
18
100
AcDbEntity
  8
DETAIL
  6
Continuous
 48
30.0
100
AcDbLine
 10
538.7999999999956
 20
1712.690598923201
 30
0.0
 11
538.7999999999956
 21
1717.309401076701
 31
0.0
  0
LINE
  5
4D2EC
330
18
100
AcDbEntity
  8
DETAIL
  6
Continuous
 48
30.0
100
AcDbLine
 10
537.1999999999967
 20
1714.500000000001
 30
0.0
 11
537.1999999999967
 21
1715.500000000002
 31
0.0
  0
LINE
  5
4D2ED
330
18
100
AcDbEntity
  8
DETAIL
  6
Continuous
 48
30.0
100
AcDbLine
 10
535.2999999999956
 20
1712.6
 30
0.0
 11
535.2999999999956
 21
1714.500000000001
 31
0.0
  0
LINE
  5
4D2EE
330
18
100
AcDbEntity
  8
DETAIL
  6
Continuous
 48
30.0
100
AcDbLine
 10
535.2999999999956
 20
1715.500000000002
 30
0.0
 11
535.2999999999956
 21
1717.399999999999
 31
0.0
  0
LINE
  5
4D2EF
330
18
100
AcDbEntity
  8
DETAIL
  6
Continuous
 48
30.0
100
AcDbLine
 10
534.2999999999956
 20
1717.399999999999
 30
0.0
 11
534.2999999999956
 21
1715.500000000002
 31
0.0
  0
LINE
  5
4D2F0
330
18
100
AcDbEntity
  8
DETAIL
  6
Continuous
 48
30.0
100
AcDbLine
 10
534.2999999999956
 20
1714.500000000001
 30
0.0
 11
534.2999999999956
 21
1712.6
 31
0.0
  0
LINE
  5
4D2F1
330
18
100
AcDbEntity
  8
DETAIL
  6
Continuous
 48
30.0
100
AcDbLine
 10
532.3999999999978
 20
1715.500000000002
 30
0.0
 11
532.3999999999978
 21
1714.500000000001
 31
0.0
  0
LINE
  5
4D2F2
330
18
100
AcDbEntity
  8
DETAIL
  6
Continuous
 48
30.0
100
AcDbLine
 10
530.7999999999956
 20
1717.309401076701
 30
0.0
 11
530.7999999999956
 21
1712.690598923201
 31
0.0
  0
LINE
  5
4D2F3
330
18
100
AcDbEntity
  8
DETAIL
  6
Continuous
 48
30.0
100
AcDbLine
 10
519.7999999999956
 20
1723.7
 30
0.0
 11
519.7999999999956
 21
1725.000000000001
 31
0.0
  0
LINE
  5
4D2F4
330
18
100
AcDbEntity
  8
DETAIL
  6
Continuous
 48
30.0
100
AcDbLine
 10
562.8731181030016
 20
1630.399999999999
 30
0.0
 11
562.1999999999967
 21
1628.050000000001
 31
0.0
  0
LINE
  5
4D2F5
330
18
100
AcDbEntity
  8
DETAIL
  6
Continuous
 48
30.0
100
AcDbLine
 10
562.8731181030016
 20
1640.399999999999
 30
0.0
 11
562.1999999999967
 21
1638.050000000001
 31
0.0
  0
LINE
  5
4D2F6
330
18
100
AcDbEntity
  8
DETAIL
  6
Continuous
 48
30.0
100
AcDbLine
 10
544.6999999999967
 20
1720.000000000001
 30
0.0
 11
539.699999999997
 21
1725.000000000001
 31
0.0
  0
LINE
  5
4D2F7
330
18
100
AcDbEntity
  8
DETAIL
  6
Continuous
 48
30.0
100
AcDbLine
 10
545.7999999999956
 20
1711.2
 30
0.0
 11
550.7999999999956
 21
1706.2
 31
0.0
  0
LINE
  5
4D2F8
330
18
100
AcDbEntity
  8
DETAIL
  6
Continuous
 48
30.0
100
AcDbLine
 10
558.7999999999956
 20
1717.309401076701
 30
0.0
 11
554.7999999999956
 21
1719.618802153501
 31
0.0
  0
LINE
  5
4D2F9
330
18
100
AcDbEntity
  8
DETAIL
  6
Continuous
 48
30.0
100
AcDbLine
 10
550.7999999999956
 20
1712.690598923201
 30
0.0
 11
554.7999999999956
 21
1710.381197846501
 31
0.0
  0
LINE
  5
4D2FA
330
18
100
AcDbEntity
  8
DETAIL
  6
Continuous
 48
30.0
100
AcDbLine
 10
538.7999999999956
 20
1717.309401076701
 30
0.0
 11
534.7999999999956
 21
1719.618802153501
 31
0.0
  0
LINE
  5
4D2FB
330
18
100
AcDbEntity
  8
DETAIL
  6
Continuous
 48
30.0
100
AcDbLine
 10
530.7999999999956
 20
1712.690598923201
 30
0.0
 11
534.7999999999956
 21
1710.381197846501
 31
0.0
  0
LINE
  5
4D2FC
330
18
100
AcDbEntity
  8
DETAIL
  6
Continuous
 48
30.0
100
AcDbLine
 10
558.7999999999956
 20
1706.2
 30
0.0
 11
563.7999999999956
 21
1711.2
 31
0.0
  0
LINE
  5
4D2FD
330
18
100
AcDbEntity
  8
DETAIL
  6
Continuous
 48
30.0
100
AcDbLine
 10
554.7999999999956
 20
1710.381197846501
 30
0.0
 11
558.7999999999956
 21
1712.690598923201
 31
0.0
  0
LINE
  5
4D2FE
330
18
100
AcDbEntity
  8
DETAIL
  6
Continuous
 48
30.0
100
AcDbLine
 10
554.7999999999956
 20
1719.618802153501
 30
0.0
 11
550.7999999999956
 21
1717.309401076701
 31
0.0
  0
LINE
  5
4D2FF
330
18
100
AcDbEntity
  8
DETAIL
  6
Continuous
 48
30.0
100
AcDbLine
 10
534.7999999999956
 20
1710.381197846501
 30
0.0
 11
538.7999999999956
 21
1712.690598923201
 31
0.0
  0
LINE
  5
4D300
330
18
100
AcDbEntity
  8
DETAIL
  6
Continuous
 48
30.0
100
AcDbLine
 10
534.7999999999956
 20
1719.618802153501
 30
0.0
 11
530.7999999999956
 21
1717.309401076701
 31
0.0
  0
LINE
  5
4D301
330
18
100
AcDbEntity
  8
DETAIL
  6
Continuous
 48
30.0
100
AcDbLine
 10
563.7999999999956
 20
1726.2
 30
0.0
 11
565.0
 21
1726.2
 31
0.0
  0
LINE
  5
4D302
330
18
100
AcDbEntity
  8
DETAIL
  6
Continuous
 48
30.0
100
AcDbLine
 10
563.7999999999956
 20
1723.800000000001
 30
0.0
 11
565.0
 21
1723.800000000001
 31
0.0
  0
LINE
  5
4D303
330
18
100
AcDbEntity
  8
DETAIL
  6
Continuous
 48
30.0
100
AcDbLine
 10
545.7999999999956
 20
1723.800000000001
 30
0.0
 11
540.8999999999978
 21
1723.800000000001
 31
0.0
  0
LINE
  5
4D304
330
18
100
AcDbEntity
  8
DETAIL
  6
Continuous
 48
30.0
100
AcDbLine
 10
535.2999999999956
 20
1717.399999999999
 30
0.0
 11
534.2999999999956
 21
1717.399999999999
 31
0.0
  0
LINE
  5
4D305
330
18
100
AcDbEntity
  8
DETAIL
  6
Continuous
 48
30.0
100
AcDbLine
 10
555.2999999999956
 20
1717.399999999999
 30
0.0
 11
554.2999999999956
 21
1717.399999999999
 31
0.0
  0
LINE
  5
4D306
330
18
100
AcDbEntity
  8
DETAIL
  6
Continuous
 48
30.0
100
AcDbLine
 10
537.1999999999967
 20
1715.500000000002
 30
0.0
 11
535.2999999999956
 21
1715.500000000002
 31
0.0
  0
LINE
  5
4D307
330
18
100
AcDbEntity
  8
DETAIL
  6
Continuous
 48
30.0
100
AcDbLine
 10
534.2999999999956
 20
1715.500000000002
 30
0.0
 11
532.3999999999978
 21
1715.500000000002
 31
0.0
  0
LINE
  5
4D308
330
18
100
AcDbEntity
  8
DETAIL
  6
Continuous
 48
30.0
100
AcDbLine
 10
557.1999999999967
 20
1715.500000000002
 30
0.0
 11
555.2999999999956
 21
1715.500000000002
 31
0.0
  0
LINE
  5
4D309
330
18
100
AcDbEntity
  8
DETAIL
  6
Continuous
 48
30.0
100
AcDbLine
 10
554.2999999999956
 20
1715.500000000002
 30
0.0
 11
552.3999999999978
 21
1715.500000000002
 31
0.0
  0
LINE
  5
4D30E
330
18
100
AcDbEntity
  8
DETAIL
  6
Continuous
 48
30.0
100
AcDbLine
 10
555.2999999999956
 20
1714.500000000001
 30
0.0
 11
557.1999999999967
 21
1714.500000000001
 31
0.0
  0
LINE
  5
4D30F
330
18
100
AcDbEntity
  8
DETAIL
  6
Continuous
 48
30.0
100
AcDbLine
 10
552.3999999999978
 20
1714.500000000001
 30
0.0
 11
554.2999999999956
 21
1714.500000000001
 31
0.0
  0
LINE
  5
4D310
330
18
100
AcDbEntity
  8
DETAIL
  6
Continuous
 48
30.0
100
AcDbLine
 10
535.2999999999956
 20
1714.500000000001
 30
0.0
 11
537.1999999999967
 21
1714.500000000001
 31
0.0
  0
LINE
  5
4D311
330
18
100
AcDbEntity
  8
DETAIL
  6
Continuous
 48
30.0
100
AcDbLine
 10
532.3999999999978
 20
1714.500000000001
 30
0.0
 11
534.2999999999956
 21
1714.500000000001
 31
0.0
  0
LINE
  5
4D312
330
18
100
AcDbEntity
  8
DETAIL
  6
Continuous
 48
30.0
100
AcDbLine
 10
554.2999999999956
 20
1712.6
 30
0.0
 11
555.2999999999956
 21
1712.6
 31
0.0
  0
LINE
  5
4D313
330
18
100
AcDbEntity
  8
DETAIL
  6
Continuous
 48
30.0
100
AcDbLine
 10
534.2999999999956
 20
1712.6
 30
0.0
 11
535.2999999999956
 21
1712.6
 31
0.0
  0
LINE
  5
4D314
330
18
100
AcDbEntity
  8
DETAIL
  6
Continuous
 48
30.0
100
AcDbLine
 10
558.7999999999956
 20
1706.2
 30
0.0
 11
550.7999999999956
 21
1706.2
 31
0.0
  0
LINE
  5
4D315
330
18
100
AcDbEntity
  8
DETAIL
  6
Continuous
 48
30.0
100
AcDbLine
 10
562.0
 20
1703.7
 30
0.0
 11
560.7999999999956
 21
1703.7
 31
0.0
  0
LINE
  5
4D316
330
18
100
AcDbEntity
  8
DETAIL
  6
Continuous
 48
30.0
100
AcDbLine
 10
562.1999999999967
 20
1645.95
 30
0.0
 11
562.0
 21
1645.95
 31
0.0
  0
LINE
  5
4D317
330
18
100
AcDbEntity
  8
DETAIL
  6
Continuous
 48
30.0
100
AcDbLine
 10
562.9029997078978
 20
1643.399999999999
 30
0.0
 11
562.8731181030016
 21
1643.399999999999
 31
0.0
  0
LINE
  5
4D318
330
18
100
AcDbEntity
  8
DETAIL
  6
Continuous
 48
30.0
100
AcDbLine
 10
562.9029997078978
 20
1640.6
 30
0.0
 11
562.8731181030016
 21
1640.6
 31
0.0
  0
LINE
  5
4D319
330
18
100
AcDbEntity
  8
DETAIL
  6
Continuous
 48
30.0
100
AcDbLine
 10
562.1999999999967
 20
1638.050000000001
 30
0.0
 11
562.0
 21
1638.050000000001
 31
0.0
  0
LINE
  5
4D31A
330
18
100
AcDbEntity
  8
DETAIL
  6
Continuous
 48
30.0
100
AcDbLine
 10
562.1999999999967
 20
1635.95
 30
0.0
 11
562.0
 21
1635.95
 31
0.0
  0
LINE
  5
4D31B
330
18
100
AcDbEntity
  8
DETAIL
  6
Continuous
 48
30.0
100
AcDbLine
 10
562.9029997078978
 20
1633.399999999999
 30
0.0
 11
562.8731181030016
 21
1633.399999999999
 31
0.0
  0
LINE
  5
4D31C
330
18
100
AcDbEntity
  8
DETAIL
  6
Continuous
 48
30.0
100
AcDbLine
 10
562.9029997078978
 20
1630.6
 30
0.0
 11
562.8731181030016
 21
1630.6
 31
0.0
  0
LINE
  5
4D31D
330
18
100
AcDbEntity
  8
DETAIL
  6
Continuous
 48
30.0
100
AcDbLine
 10
562.1999999999967
 20
1628.050000000001
 30
0.0
 11
562.0
 21
1628.050000000001
 31
0.0
  0
LINE
  5
4D31E
330
18
100
AcDbEntity
  8
DETAIL
  6
Continuous
 48
30.0
100
AcDbLine
 10
562.0
 20
1610.000000000002
 30
0.0
 11
563.4999999999998
 21
1610.000000000002
 31
0.0
  0
LINE
  5
4D31F
330
18
100
AcDbEntity
  8
DETAIL
  6
Continuous
 48
30.0
100
AcDbLine
 10
562.0
 20
1600.000000000001
 30
0.0
 11
563.4999999999998
 21
1600.000000000001
 31
0.0
  0
ARC
  5
4D320
330
18
100
AcDbEntity
  8
DETAIL
  6
Continuous
 48
30.0
100
AcDbCircle
 10
563.7999999999956
 20
1858.799999999997
 30
0.0
 40
1.200000000004366
100
AcDbArc
 50
0.0000000002084408
 51
89.99999999979158
  0
LINE
  5
4D321
330
18
100
AcDbEntity
  8
DETAIL
  6
Continuous
 48
30.0
100
AcDbLine
 10
563.7999999999956
 20
1858.800000000001
 30
0.0
 11
565.0
 21
1858.800000000001
 31
0.0
  0
LINE
  5
4D322
330
18
100
AcDbEntity
  8
DETAIL
  6
Continuous
 48
30.0
100
AcDbLine
 10
563.7999999999956
 20
1779.502943725099
 30
0.0
 11
565.0
 21
1779.502943725099
 31
0.0
  0
CIRCLE
  5
4EDEC
330
18
100
AcDbEntity
  8
FIX
  6
Continuous
100
AcDbCircle
 10
500.0
 20
0.0
 30
0.0
 40
8.0
  0
LINE
  5
4EDED
330
18
100
AcDbEntity
  8
NOTE
  6
Continuous
100
AcDbLine
 10
464.0
 20
0.0
 30
0.0
 11
536.0
 21
0.0
 31
0.0
  0
LINE
  5
4EDEE
330
18
100
AcDbEntity
  8
BASIS
100
AcDbLine
 10
546.6370747625769
 20
0.0
 30
0.0
 11
453.362925237423
 21
0.0
 31
0.0
  0
LINE
  5
4EDEF
330
18
100
AcDbEntity
  8
NOTE
  6
Continuous
100
AcDbLine
 10
464.0
 20
0.0
 30
0.0
 11
536.0
 21
0.0
 31
0.0
  0
LINE
  5
4EDF0
330
18
100
AcDbEntity
  8
NOTE
  6
Continuous
100
AcDbLine
 10
500.0
 20
36.0
 30
0.0
 11
500.0
 21
-36.0
 31
0.0
  0
LINE
  5
4EDF1
330
18
100
AcDbEntity
  8
NOTE
  6
Continuous
100
AcDbLine
 10
500.0
 20
36.0
 30
0.0
 11
500.0
 21
-36.0
 31
0.0
  0
LINE
  5
4EDF2
330
18
100
AcDbEntity
  8
BASIS
100
AcDbLine
 10
500.0
 20
-43.32477016030314
 30
0.0
 11
500.0
 21
43.32477016030314
 31
0.0
  0
CIRCLE
  5
4EDF3
330
18
100
AcDbEntity
  8
FIX
  6
Continuous
100
AcDbCircle
 10
-150.0
 20
0.0
 30
0.0
 40
8.0
  0
LINE
  5
4EDF4
330
18
100
AcDbEntity
  8
NOTE
  6
Continuous
100
AcDbLine
 10
-186.0
 20
0.0
 30
0.0
 11
-114.0
 21
0.0
 31
0.0
  0
LINE
  5
4EDF5
330
18
100
AcDbEntity
  8
BASIS
100
AcDbLine
 10
-103.362925237423
 20
0.0
 30
0.0
 11
-196.6370747625769
 21
0.0
 31
0.0
  0
LINE
  5
4EDF6
330
18
100
AcDbEntity
  8
NOTE
  6
Continuous
100
AcDbLine
 10
-186.0
 20
0.0
 30
0.0
 11
-114.0
 21
0.0
 31
0.0
  0
LINE
  5
4EDF7
330
18
100
AcDbEntity
  8
NOTE
  6
Continuous
100
AcDbLine
 10
-150.0
 20
36.0
 30
0.0
 11
-150.0
 21
-36.0
 31
0.0
  0
LINE
  5
4EDF8
330
18
100
AcDbEntity
  8
NOTE
  6
Continuous
100
AcDbLine
 10
-150.0
 20
36.0
 30
0.0
 11
-150.0
 21
-36.0
 31
0.0
  0
LINE
  5
4EDF9
330
18
100
AcDbEntity
  8
BASIS
100
AcDbLine
 10
-150.0
 20
-43.32477016030314
 30
0.0
 11
-150.0
 21
43.32477016030314
 31
0.0
  0
CIRCLE
  5
4EDFA
330
18
100
AcDbEntity
  8
FIX
  6
Continuous
100
AcDbCircle
 10
-465.0
 20
0.0
 30
0.0
 40
8.0
  0
LINE
  5
4EDFB
330
18
100
AcDbEntity
  8
NOTE
  6
Continuous
100
AcDbLine
 10
-501.0
 20
0.0
 30
0.0
 11
-429.0
 21
0.0
 31
0.0
  0
LINE
  5
4EDFC
330
18
100
AcDbEntity
  8
BASIS
100
AcDbLine
 10
-418.362925237423
 20
0.0
 30
0.0
 11
-511.637074762577
 21
0.0
 31
0.0
  0
LINE
  5
4EDFD
330
18
100
AcDbEntity
  8
NOTE
  6
Continuous
100
AcDbLine
 10
-501.0
 20
0.0
 30
0.0
 11
-429.0
 21
0.0
 31
0.0
  0
LINE
  5
4EDFE
330
18
100
AcDbEntity
  8
NOTE
  6
Continuous
100
AcDbLine
 10
-465.0
 20
36.0
 30
0.0
 11
-465.0
 21
-36.0
 31
0.0
  0
LINE
  5
4EDFF
330
18
100
AcDbEntity
  8
NOTE
  6
Continuous
100
AcDbLine
 10
-465.0
 20
36.0
 30
0.0
 11
-465.0
 21
-36.0
 31
0.0
  0
LINE
  5
4EE00
330
18
100
AcDbEntity
  8
BASIS
100
AcDbLine
 10
-465.0
 20
-43.32477016030314
 30
0.0
 11
-465.0
 21
43.32477016030314
 31
0.0
  0
LINE
  5
4EE12
330
18
100
AcDbEntity
  8
BASIS
100
AcDbLine
 10
0.0
 20
1882.202963011988
 30
0.0
 11
0.0
 21
-30.79244184004164
 31
0.0
  0
TEXT
  5
5035E
330
18
100
AcDbEntity
  8
ETC
  6
Continuous
100
AcDbText
 10
801.1060194887031
 20
2149.520114302149
 30
0.0
 40
64.0
  1
MCRV-P1750NA1-D_2
 41
0.9
100
AcDbText
  0
LINE
  5
50363
330
18
100
AcDbEntity
  8
NOTE
  6
Continuous
100
AcDbLine
 10
763.1171805498616
 20
203.3832132362513
 30
0.0
 11
941.2140969138237
 21
203.3832132362476
 31
0.0
  0
TEXT
  5
50364
330
18
100
AcDbEntity
  8
NOTE
  6
Continuous
100
AcDbText
 10
776.4320789158082
 20
215.8307382649109
 30
0.0
 40
50.0
  1
吊位置
 41
0.9
100
AcDbText
  0
LINE
  5
50365
330
18
100
AcDbEntity
  8
NOTE
  6
Continuous
100
AcDbLine
 10
500.0000002944598
 20
-0.0000000284198904
 30
0.0
 11
842.6448564805831
 21
-123.5403210484728
 31
0.0
  0
LINE
  5
50367
330
18
100
AcDbEntity
  8
NOTE
  6
Continuous
100
AcDbLine
 10
530.0000007448707
 20
37.49999991438381
 30
0.0
 11
763.1171805498616
 21
203.3832132362513
 31
0.0
  0
TEXT
  5
50368
330
18
100
AcDbEntity
  8
NOTE
  6
Continuous
100
AcDbText
 10
884.5672935710172
 20
-104.3827571047841
 30
0.0
 40
50.0
  1
AH 4-%%c16
 41
0.9
100
AcDbText
  0
LINE
  5
50369
330
18
100
AcDbEntity
  8
NOTE
  6
Continuous
100
AcDbLine
 10
842.6448564805831
 20
-123.5403210484728
 30
0.0
 11
1235.538921812665
 21
-123.5403210484764
 31
0.0
  0
LINE
  5
50371
330
18
100
AcDbEntity
  8
NOTE
  6
Continuous
100
AcDbLine
 10
-511.3823653050475
 20
190.1382688195444
 30
0.0
 11
-305.8639799898465
 21
190.1382688195408
 31
0.0
  0
TEXT
  5
50372
330
18
100
AcDbEntity
  8
NOTE
  6
Continuous
100
AcDbText
 10
-482.4892297994302
 20
206.3816048251573
 30
0.0
 40
50.0
  1
吊位置
 41
0.9
100
AcDbText
  0
LINE
  5
50373
330
18
100
AcDbEntity
  8
NOTE
  6
Continuous
100
AcDbLine
 10
-179.9999992140037
 20
37.49999996405313
 30
0.0
 11
-305.8639799898465
 21
190.1382688195408
 31
0.0
  0
LINE
  5
50374
330
18
100
AcDbEntity
  8
NOTE
  6
Continuous
100
AcDbLine
 10
-179.9999992408046
 20
37.49999998365093
 30
0.0
 11
-205.3873374862742
 21
93.88184135648044
 31
0.0
  0
LINE
  5
50375
330
18
100
AcDbEntity
  8
NOTE
  6
Continuous
100
AcDbLine
 10
-179.9999992408046
 20
37.49999998365093
 30
0.0
 11
-229.910983273905
 21
73.99852083377119
 31
0.0
  0
LINE
  5
50376
330
18
100
AcDbEntity
  8
BASIS
100
AcDbLine
 10
-133.3629246832533
 20
37.5
 30
0.0
 11
-226.6370742084073
 21
37.5
 31
0.0
  0
LINE
  5
50377
330
18
100
AcDbEntity
  8
BASIS
100
AcDbLine
 10
-179.9999994458303
 20
-5.82477016030316
 30
0.0
 11
-179.9999994458303
 21
80.82477016030315
 31
0.0
  0
LINE
  5
50378
330
18
100
AcDbEntity
  8
BASIS
100
AcDbLine
 10
530.0000004425437
 20
-5.82477016030316
 30
0.0
 11
530.0000004425437
 21
80.82477016030315
 31
0.0
  0
LINE
  5
50379
330
18
100
AcDbEntity
  8
BASIS
100
AcDbLine
 10
576.6370752051208
 20
37.5
 30
0.0
 11
483.3629256799667
 21
37.5
 31
0.0
  0
LINE
  5
5037A
330
18
100
AcDbEntity
  8
NOTE
  6
Continuous
100
AcDbLine
 10
530.0000007663255
 20
37.49999993972596
 30
0.0
 11
569.9517816580737
 21
84.69219797050755
 31
0.0
  0
LINE
  5
5037B
330
18
100
AcDbEntity
  8
NOTE
  6
Continuous
100
AcDbLine
 10
530.0000007663255
 20
37.49999993972596
 30
0.0
 11
588.0428170417998
 21
58.81807815029606
 31
0.0
  0
LINE
  5
5037C
330
18
100
AcDbEntity
  8
NOTE
  6
Continuous
100
AcDbLine
 10
500.0000003275088
 20
-0.0000000316067599
 30
0.0
 11
561.5464791336361
 21
-5.939637896481142
 31
0.0
  0
LINE
  5
5037D
330
18
100
AcDbEntity
  8
NOTE
  6
Continuous
100
AcDbLine
 10
500.0000003275088
 20
-0.0000000316067599
 30
0.0
 11
550.5927709398947
 21
-35.54997248649306
 31
0.0
  0
TEXT
  5
50461
330
18
100
AcDbEntity
  8
NOTE
  6
Continuous
100
AcDbText
 10
-983.1583821184983
 20
-115.9386988227897
 30
0.0
 40
50.0
  1
AH 2-%%c16
 41
0.9
100
AcDbText
  0
LINE
  5
50462
330
18
100
AcDbEntity
  8
NOTE
  6
Continuous
100
AcDbLine
 10
-1016.598494278536
 20
-133.6644185268496
 30
0.0
 11
-596.7126204707475
 21
-133.6644185268532
 31
0.0
  0
LINE
  5
50463
330
18
100
AcDbEntity
  8
NOTE
  6
Continuous
100
AcDbLine
 10
-465.0000000000003
 20
-0.0000000000009095
 30
0.0
 11
-596.7126204707475
 21
-133.6644185268532
 31
0.0
  0
LINE
  5
50464
330
18
100
AcDbEntity
  8
NOTE
  6
Continuous
100
AcDbLine
 10
-465.0000000167334
 20
-0.0000000286772774
 30
0.0
 11
-496.1628275526823
 21
-53.40530436601421
 31
0.0
  0
LINE
  5
50465
330
18
100
AcDbEntity
  8
NOTE
  6
Continuous
100
AcDbLine
 10
-465.0000000167334
 20
-0.0000000286772774
 30
0.0
 11
-518.4666406253641
 21
-31.06038189703304
 31
0.0
  0
LINE
  5
504C3
330
18
100
AcDbEntity
  8
NOTE
  6
Continuous
100
AcDbLine
 10
-501.0
 20
1860.000000109369
 30
0.0
 11
-429.0
 21
1860.000000109369
 31
0.0
  0
LINE
  5
504C4
330
18
100
AcDbEntity
  8
NOTE
  6
Continuous
100
AcDbLine
 10
-465.0
 20
1895.648528246768
 30
0.0
 11
-465.0
 21
1823.648528246768
 31
0.0
  0
LINE
  5
504C5
330
18
100
AcDbEntity
  8
NOTE
  6
Continuous
100
AcDbLine
 10
-465.0
 20
1896.000000109369
 30
0.0
 11
-465.0
 21
1824.000000109369
 31
0.0
  0
LINE
  5
504C6
330
18
100
AcDbEntity
  8
NOTE
  6
Continuous
100
AcDbLine
 10
-315.0
 20
1897.6
 30
0.0
 11
-315.0
 21
1825.6
 31
0.0
  0
LINE
  5
504C7
330
18
100
AcDbEntity
  8
NOTE
  6
Continuous
100
AcDbLine
 10
-351.0
 20
1861.6
 30
0.0
 11
-279.0
 21
1861.6
 31
0.0
  0
LINE
  5
504C8
330
18
100
AcDbEntity
  8
NOTE
  6
Continuous
100
AcDbLine
 10
-314.99999976007
 20
1861.599999850483
 30
0.0
 11
-215.919273153303
 21
2164.669511971486
 31
0.0
  0
LINE
  5
504C9
330
18
100
AcDbEntity
  8
NOTE
  6
Continuous
100
AcDbLine
 10
-215.919273153303
 20
2164.669511971486
 30
0.0
 11
-60.76397103629119
 21
2164.669511971483
 31
0.0
  0
TEXT
  5
504CA
330
18
100
AcDbEntity
  8
NOTE
  6
Continuous
100
AcDbText
 10
-176.894314419107
 20
2183.827075915176
 30
0.0
 40
50.0
  1
EL
 41
0.9
100
AcDbText
  0
LINE
  5
504CB
330
18
100
AcDbEntity
  8
NOTE
  6
Continuous
100
AcDbLine
 10
-314.9999997578743
 20
1861.59999988361
 30
0.0
 11
-310.9134998397635
 21
1923.29723539557
 31
0.0
  0
LINE
  5
504CC
330
18
100
AcDbEntity
  8
NOTE
  6
Continuous
100
AcDbLine
 10
-314.9999997578743
 20
1861.59999988361
 30
0.0
 11
-280.9872180322145
 21
1913.238741725984
 31
0.0
  0
LINE
  5
504CF
330
18
100
AcDbEntity
  8
NOTE
  6
Continuous
100
AcDbLine
 10
-1005.584239117762
 20
2169.274617055875
 30
0.0
 11
-624.6397553276352
 21
2169.274617055872
 31
0.0
  0
TEXT
  5
504D0
330
18
100
AcDbEntity
  8
NOTE
  6
Continuous
100
AcDbText
 10
-995.3654467690586
 20
2189.723457548262
 30
0.0
 40
50.0
  1
CL（%%c40×2）
 41
0.9
100
AcDbText
  0
LINE
  5
504D1
330
18
100
AcDbEntity
  8
NOTE
  6
Continuous
100
AcDbLine
 10
-464.9406124771249
 20
1859.994946659234
 30
0.0
 11
-624.6397553276352
 21
2169.274617055872
 31
0.0
  0
LINE
  5
504D2
330
18
100
AcDbEntity
  8
NOTE
  6
Continuous
100
AcDbLine
 10
-464.9406124991783
 20
1859.994946684053
 30
0.0
 11
-477.8410893135414
 21
1920.468136427465
 31
0.0
  0
LINE
  5
504D3
330
18
100
AcDbEntity
  8
NOTE
  6
Continuous
100
AcDbLine
 10
-464.9406124991783
 20
1859.994946684053
 30
0.0
 11
-506.0124062657211
 21
1906.215679133869
 31
0.0
  0
ARC
  5
51AFA
330
18
100
AcDbEntity
  8
DETAIL
100
AcDbCircle
 10
-256.9988076016993
 20
1869.096385419032
 30
0.0
 40
5.701002752011445
100
AcDbArc
 50
272.9567513624492
 51
290.524404901412
  0
ARC
  5
51AFB
330
18
100
AcDbEntity
  8
DETAIL
100
AcDbCircle
 10
-253.0090798761989
 20
1869.140527474321
 30
0.0
 40
5.745947307903493
100
AcDbArc
 50
273.3367468602529
 51
290.466009098098
  0
ARC
  5
51AFC
330
18
100
AcDbEntity
  8
DETAIL
100
AcDbCircle
 10
-257.0101160642701
 20
1861.15773643365
 30
0.0
 40
5.747936133795898
100
AcDbArc
 50
69.53036495740768
 51
86.49839241495373
  0
ARC
  5
51AFD
330
18
100
AcDbEntity
  8
DETAIL
100
AcDbCircle
 10
-252.9962790064528
 20
1861.209964831972
 30
0.0
 40
5.694169056587147
100
AcDbArc
 50
69.47702039995637
 51
87.61396926510412
  0
LINE
  5
51AFE
330
18
100
AcDbEntity
  8
DETAIL
  6
Continuous
 48
30.0
100
AcDbLine
 10
-255.0
 20
1866.542734410099
 30
0.0
 11
-253.0000000002983
 21
1866.900000000097
 31
0.0
  0
LINE
  5
51AFF
330
18
100
AcDbEntity
  8
DETAIL
  6
Continuous
 48
30.0
100
AcDbLine
 10
-259.0
 20
1866.542734410099
 30
0.0
 11
-257.0000000002983
 21
1866.900000000097
 31
0.0
  0
LINE
  5
51B00
330
18
100
AcDbEntity
  8
DETAIL
  6
Continuous
 48
30.0
100
AcDbLine
 10
-259.0
 20
1866.899999999999
 30
0.0
 11
-250.9999999998981
 21
1866.899999999999
 31
0.0
  0
LINE
  5
51B01
330
18
100
AcDbEntity
  8
DETAIL
  6
Continuous
 48
30.0
100
AcDbLine
 10
-259.0
 20
1863.7572655899
 30
0.0
 11
-257.0000000002983
 21
1863.399999999999
 31
0.0
  0
LINE
  5
51B02
330
18
100
AcDbEntity
  8
DETAIL
  6
Continuous
 48
30.0
100
AcDbLine
 10
-255.0
 20
1863.7572655899
 30
0.0
 11
-253.0000000002983
 21
1863.399999999999
 31
0.0
  0
LINE
  5
51B03
330
18
100
AcDbEntity
  8
DETAIL
  6
Continuous
 48
30.0
100
AcDbLine
 10
-259.0
 20
1863.399999999999
 30
0.0
 11
-259.0
 21
1866.900000000097
 31
0.0
  0
LINE
  5
51B04
330
18
100
AcDbEntity
  8
DETAIL
  6
Continuous
 48
30.0
100
AcDbLine
 10
-255.0
 20
1863.7572655899
 30
0.0
 11
-255.0
 21
1866.542734410099
 31
0.0
  0
LINE
  5
51B05
330
18
100
AcDbEntity
  8
DETAIL
  6
Continuous
 48
30.0
100
AcDbLine
 10
-251.0
 20
1863.399999999999
 30
0.0
 11
-251.0
 21
1866.900000000097
 31
0.0
  0
ARC
  5
51B06
330
18
100
AcDbEntity
  8
DETAIL
100
AcDbCircle
 10
-306.9988076016993
 20
1869.096385419032
 30
0.0
 40
5.701002752011445
100
AcDbArc
 50
272.9567513624492
 51
290.524404901412
  0
ARC
  5
51B07
330
18
100
AcDbEntity
  8
DETAIL
100
AcDbCircle
 10
-303.0090798761989
 20
1869.140527474321
 30
0.0
 40
5.745947307903493
100
AcDbArc
 50
273.3367468602529
 51
290.466009098098
  0
ARC
  5
51B08
330
18
100
AcDbEntity
  8
DETAIL
100
AcDbCircle
 10
-307.0101160642701
 20
1861.15773643365
 30
0.0
 40
5.747936133795898
100
AcDbArc
 50
69.53036495740768
 51
86.49839241495373
  0
ARC
  5
51B09
330
18
100
AcDbEntity
  8
DETAIL
100
AcDbCircle
 10
-302.9962790064528
 20
1861.209964831972
 30
0.0
 40
5.694169056587147
100
AcDbArc
 50
69.47702039995637
 51
87.61396926510412
  0
LINE
  5
51B0A
330
18
100
AcDbEntity
  8
DETAIL
  6
Continuous
 48
30.0
100
AcDbLine
 10
-305.0
 20
1866.542734410099
 30
0.0
 11
-303.0000000002983
 21
1866.900000000097
 31
0.0
  0
LINE
  5
51B0B
330
18
100
AcDbEntity
  8
DETAIL
  6
Continuous
 48
30.0
100
AcDbLine
 10
-309.0
 20
1866.542734410099
 30
0.0
 11
-307.0000000002983
 21
1866.900000000097
 31
0.0
  0
LINE
  5
51B0C
330
18
100
AcDbEntity
  8
DETAIL
  6
Continuous
 48
30.0
100
AcDbLine
 10
-309.0
 20
1866.899999999999
 30
0.0
 11
-300.9999999998981
 21
1866.899999999999
 31
0.0
  0
LINE
  5
51B0D
330
18
100
AcDbEntity
  8
DETAIL
  6
Continuous
 48
30.0
100
AcDbLine
 10
-309.0
 20
1863.7572655899
 30
0.0
 11
-307.0000000002983
 21
1863.399999999999
 31
0.0
  0
LINE
  5
51B0E
330
18
100
AcDbEntity
  8
DETAIL
  6
Continuous
 48
30.0
100
AcDbLine
 10
-305.0
 20
1863.7572655899
 30
0.0
 11
-303.0000000002983
 21
1863.399999999999
 31
0.0
  0
LINE
  5
51B0F
330
18
100
AcDbEntity
  8
DETAIL
  6
Continuous
 48
30.0
100
AcDbLine
 10
-309.0
 20
1863.399999999999
 30
0.0
 11
-309.0
 21
1866.900000000097
 31
0.0
  0
LINE
  5
51B10
330
18
100
AcDbEntity
  8
DETAIL
  6
Continuous
 48
30.0
100
AcDbLine
 10
-305.0
 20
1863.7572655899
 30
0.0
 11
-305.0
 21
1866.542734410099
 31
0.0
  0
LINE
  5
51B11
330
18
100
AcDbEntity
  8
DETAIL
  6
Continuous
 48
30.0
100
AcDbLine
 10
-301.0
 20
1863.399999999999
 30
0.0
 11
-301.0
 21
1866.900000000097
 31
0.0
  0
LINE
  5
51B12
330
18
100
AcDbEntity
  8
DETAIL
  6
Continuous
 48
30.0
100
AcDbLine
 10
-320.9988119932968
 20
1863.399999999999
 30
0.0
 11
-320.9988119932968
 21
1866.900000000097
 31
0.0
  0
LINE
  5
51B13
330
18
100
AcDbEntity
  8
DETAIL
  6
Continuous
 48
30.0
100
AcDbLine
 10
-324.9988119932968
 20
1863.7572655899
 30
0.0
 11
-324.9988119932968
 21
1866.542734410099
 31
0.0
  0
LINE
  5
51B14
330
18
100
AcDbEntity
  8
DETAIL
  6
Continuous
 48
30.0
100
AcDbLine
 10
-328.9988119932969
 20
1863.399999999999
 30
0.0
 11
-328.9988119932969
 21
1866.900000000097
 31
0.0
  0
LINE
  5
51B15
330
18
100
AcDbEntity
  8
DETAIL
  6
Continuous
 48
30.0
100
AcDbLine
 10
-324.9988119932968
 20
1863.7572655899
 30
0.0
 11
-322.9988119935951
 21
1863.399999999999
 31
0.0
  0
LINE
  5
51B16
330
18
100
AcDbEntity
  8
DETAIL
  6
Continuous
 48
30.0
100
AcDbLine
 10
-328.9988119932969
 20
1863.7572655899
 30
0.0
 11
-326.9988119935951
 21
1863.399999999999
 31
0.0
  0
LINE
  5
51B17
330
18
100
AcDbEntity
  8
DETAIL
  6
Continuous
 48
30.0
100
AcDbLine
 10
-328.9988119932969
 20
1866.899999999999
 30
0.0
 11
-320.9988119931949
 21
1866.899999999999
 31
0.0
  0
LINE
  5
51B18
330
18
100
AcDbEntity
  8
DETAIL
  6
Continuous
 48
30.0
100
AcDbLine
 10
-328.9988119932969
 20
1866.542734410099
 30
0.0
 11
-326.9988119935951
 21
1866.900000000097
 31
0.0
  0
LINE
  5
51B19
330
18
100
AcDbEntity
  8
DETAIL
  6
Continuous
 48
30.0
100
AcDbLine
 10
-324.9988119932968
 20
1866.542734410099
 30
0.0
 11
-322.9988119935951
 21
1866.900000000097
 31
0.0
  0
ARC
  5
51B1A
330
18
100
AcDbEntity
  8
DETAIL
100
AcDbCircle
 10
-322.9950909997497
 20
1861.209964831972
 30
0.0
 40
5.694169056587147
100
AcDbArc
 50
69.47702039995637
 51
87.61396926510412
  0
ARC
  5
51B1B
330
18
100
AcDbEntity
  8
DETAIL
100
AcDbCircle
 10
-327.0089280575671
 20
1861.15773643365
 30
0.0
 40
5.747936133795898
100
AcDbArc
 50
69.53036495740768
 51
86.49839241495373
  0
ARC
  5
51B1C
330
18
100
AcDbEntity
  8
DETAIL
100
AcDbCircle
 10
-323.0078918694957
 20
1869.140527474321
 30
0.0
 40
5.745947307903493
100
AcDbArc
 50
273.3367468602529
 51
290.466009098098
  0
ARC
  5
51B1D
330
18
100
AcDbEntity
  8
DETAIL
100
AcDbCircle
 10
-326.9976195949961
 20
1869.096385419032
 30
0.0
 40
5.701002752011445
100
AcDbArc
 50
272.9567513624492
 51
290.524404901412
  0
ARC
  5
51B1E
330
18
100
AcDbEntity
  8
DETAIL
100
AcDbCircle
 10
-376.996431588293
 20
1869.096385419032
 30
0.0
 40
5.701002752011445
100
AcDbArc
 50
272.9567513624492
 51
290.524404901412
  0
ARC
  5
51B1F
330
18
100
AcDbEntity
  8
DETAIL
100
AcDbCircle
 10
-373.0067038627926
 20
1869.140527474321
 30
0.0
 40
5.745947307903493
100
AcDbArc
 50
273.3367468602529
 51
290.466009098098
  0
ARC
  5
51B20
330
18
100
AcDbEntity
  8
DETAIL
100
AcDbCircle
 10
-377.0077400508639
 20
1861.15773643365
 30
0.0
 40
5.747936133795898
100
AcDbArc
 50
69.53036495740768
 51
86.49839241495373
  0
ARC
  5
51B21
330
18
100
AcDbEntity
  8
DETAIL
100
AcDbCircle
 10
-372.9939029930465
 20
1861.209964831972
 30
0.0
 40
5.694169056587147
100
AcDbArc
 50
69.47702039995637
 51
87.61396926510412
  0
LINE
  5
51B22
330
18
100
AcDbEntity
  8
DETAIL
  6
Continuous
 48
30.0
100
AcDbLine
 10
-374.9976239865937
 20
1866.542734410099
 30
0.0
 11
-372.997623986892
 21
1866.900000000097
 31
0.0
  0
LINE
  5
51B23
330
18
100
AcDbEntity
  8
DETAIL
  6
Continuous
 48
30.0
100
AcDbLine
 10
-378.9976239865936
 20
1866.542734410099
 30
0.0
 11
-376.997623986892
 21
1866.900000000097
 31
0.0
  0
LINE
  5
51B24
330
18
100
AcDbEntity
  8
DETAIL
  6
Continuous
 48
30.0
100
AcDbLine
 10
-378.9976239865936
 20
1866.899999999999
 30
0.0
 11
-370.9976239864918
 21
1866.899999999999
 31
0.0
  0
LINE
  5
51B25
330
18
100
AcDbEntity
  8
DETAIL
  6
Continuous
 48
30.0
100
AcDbLine
 10
-378.9976239865936
 20
1863.7572655899
 30
0.0
 11
-376.997623986892
 21
1863.399999999999
 31
0.0
  0
LINE
  5
51B26
330
18
100
AcDbEntity
  8
DETAIL
  6
Continuous
 48
30.0
100
AcDbLine
 10
-374.9976239865937
 20
1863.7572655899
 30
0.0
 11
-372.997623986892
 21
1863.399999999999
 31
0.0
  0
LINE
  5
51B27
330
18
100
AcDbEntity
  8
DETAIL
  6
Continuous
 48
30.0
100
AcDbLine
 10
-378.9976239865936
 20
1863.399999999999
 30
0.0
 11
-378.9976239865936
 21
1866.900000000097
 31
0.0
  0
LINE
  5
51B28
330
18
100
AcDbEntity
  8
DETAIL
  6
Continuous
 48
30.0
100
AcDbLine
 10
-374.9976239865937
 20
1863.7572655899
 30
0.0
 11
-374.9976239865937
 21
1866.542734410099
 31
0.0
  0
LINE
  5
51B29
330
18
100
AcDbEntity
  8
DETAIL
  6
Continuous
 48
30.0
100
AcDbLine
 10
-370.9976239865937
 20
1863.399999999999
 30
0.0
 11
-370.9976239865937
 21
1866.900000000097
 31
0.0
  0
LINE
  5
5312E
330
18
100
AcDbEntity
  8
SIZE
100
AcDbLine
 10
585.0000005541693
 20
-0.0000000000000057
 30
0.0
 11
1018.096077191723
 21
-0.0000000000001284
 31
0.0
  0
LINE
  5
5312F
330
18
100
AcDbEntity
  8
SIZE
100
AcDbLine
 10
583.8000005541688
 20
1860.000000000002
 30
0.0
 11
1018.096077191724
 21
1860.000000000002
 31
0.0
  0
LINE
  5
53130
330
18
100
AcDbEntity
  8
SIZE
100
AcDbLine
 10
988.0960771917234
 20
11.99999999999987
 30
0.0
 11
988.0960771917239
 21
1848.000000000001
 31
0.0
  0
LINE
  5
53134
330
18
100
AcDbEntity
  8
SIZE
100
AcDbLine
 10
-179.9999994458303
 20
-20.0
 30
0.0
 11
-179.9999994458303
 21
-381.225591749906
 31
0.0
  0
LINE
  5
53135
330
18
100
AcDbEntity
  8
SIZE
100
AcDbLine
 10
530.0000004425437
 20
-18.5
 30
0.0
 11
530.0000004425437
 21
-381.225591749906
 31
0.0
  0
LINE
  5
53136
330
18
100
AcDbEntity
  8
SIZE
100
AcDbLine
 10
-167.9999994458303
 20
-351.225591749906
 30
0.0
 11
518.0000004425437
 21
-351.225591749906
 31
0.0
  0
LINE
  5
5313A
330
18
100
AcDbEntity
  8
SIZE
100
AcDbLine
 10
-149.9999994458303
 20
-56.0
 30
0.0
 11
-149.9999994458303
 21
-208.1709611048354
 31
0.0
  0
LINE
  5
5313B
330
18
100
AcDbEntity
  8
SIZE
100
AcDbLine
 10
500.0000005541694
 20
-56.0
 30
0.0
 11
500.0000005541694
 21
-208.1709611048354
 31
0.0
  0
LINE
  5
5313C
330
18
100
AcDbEntity
  8
SIZE
100
AcDbLine
 10
-137.9999994458303
 20
-178.1709611048354
 30
0.0
 11
488.0000005541694
 21
-178.1709611048354
 31
0.0
  0
LINE
  5
53140
330
18
100
AcDbEntity
  8
SIZE
100
AcDbLine
 10
-214.9999994458303
 20
-20.0
 30
0.0
 11
-214.9999994458303
 21
-514.9026899610671
 31
0.0
  0
LINE
  5
53141
330
18
100
AcDbEntity
  8
SIZE
100
AcDbLine
 10
565.0000005541698
 20
-20.0
 30
0.0
 11
565.0000005541698
 21
-514.9026899610671
 31
0.0
  0
LINE
  5
53142
330
18
100
AcDbEntity
  8
SIZE
100
AcDbLine
 10
-202.9999994458303
 20
-484.9026899610668
 30
0.0
 11
553.0000005541697
 21
-484.9026899610668
 31
0.0
  0
LINE
  5
53146
330
18
100
AcDbEntity
  8
SIZE
100
AcDbLine
 10
565.0
 20
-20.0
 30
0.0
 11
565.0
 21
-636.120673695279
 31
0.0
  0
LINE
  5
53147
330
18
100
AcDbEntity
  8
SIZE
100
AcDbLine
 10
-565.0000000000008
 20
-18.79999999999927
 30
0.0
 11
-565.0000000000008
 21
-636.120673695279
 31
0.0
  0
LINE
  5
53148
330
18
100
AcDbEntity
  8
SIZE
100
AcDbLine
 10
553.0
 20
-606.120673695279
 30
0.0
 11
-553.0000000000008
 21
-606.120673695279
 31
0.0
  0
LINE
  5
5314C
330
18
100
AcDbEntity
  8
SIZE
100
AcDbLine
 10
-565.0
 20
-18.79999999999745
 30
0.0
 11
-565.0
 21
-514.9026899610671
 31
0.0
  0
LINE
  5
5314D
330
18
100
AcDbEntity
  8
SIZE
100
AcDbLine
 10
-215.0
 20
-20.0
 30
0.0
 11
-215.0
 21
-514.9026899610671
 31
0.0
  0
LINE
  5
5314E
330
18
100
AcDbEntity
  8
SIZE
100
AcDbLine
 10
-553.0
 20
-484.9026899610668
 30
0.0
 11
-227.0
 21
-484.9026899610668
 31
0.0
  0
LINE
  5
53152
330
18
100
AcDbEntity
  8
SIZE
100
AcDbLine
 10
-465.0
 20
-63.32477016030314
 30
0.0
 11
-465.0
 21
-282.1024263333729
 31
0.0
  0
LINE
  5
53153
330
18
100
AcDbEntity
  8
SIZE
100
AcDbLine
 10
-565.0000000000008
 20
-18.79999999999927
 30
0.0
 11
-565.0000000000008
 21
-282.1024263333729
 31
0.0
  0
LINE
  5
53154
330
18
100
AcDbEntity
  8
SIZE
100
AcDbLine
 10
-477.0
 20
-252.1024263333729
 30
0.0
 11
-553.0000000000008
 21
-252.1024263333729
 31
0.0
  0
LINE
  5
53155
330
18
100
AcDbEntity
  8
SIZE
100
AcDbLine
 10
-565.0000000000008
 20
-252.1024263333729
 30
0.0
 11
-724.1428571428578
 21
-252.1024263333729
 31
0.0
  0
LINE
  5
53159
330
18
100
AcDbEntity
  8
SIZE
100
AcDbLine
 10
-179.9999994458303
 20
-25.82477016030316
 30
0.0
 11
-179.9999994458303
 21
-381.225591749906
 31
0.0
  0
LINE
  5
5315A
330
18
100
AcDbEntity
  8
SIZE
100
AcDbLine
 10
-214.9999994458303
 20
-20.0
 30
0.0
 11
-214.9999994458303
 21
-381.225591749906
 31
0.0
  0
LINE
  5
5315B
330
18
100
AcDbEntity
  8
SIZE
100
AcDbLine
 10
-167.9999994458303
 20
-351.225591749906
 30
0.0
 11
-155.9999994458303
 21
-351.225591749906
 31
0.0
  0
LINE
  5
5315C
330
18
100
AcDbEntity
  8
SIZE
100
AcDbLine
 10
-226.9999994458303
 20
-351.225591749906
 30
0.0
 11
-351.8571423029732
 21
-351.225591749906
 31
0.0
  0
LINE
  5
5315D
330
18
100
AcDbEntity
  8
SIZE
100
AcDbLine
 10
-179.9999994458303
 20
-351.225591749906
 30
0.0
 11
-214.9999994458303
 21
-351.225591749906
 31
0.0
  0
LINE
  5
53161
330
18
100
AcDbEntity
  8
SIZE
100
AcDbLine
 10
-149.9999994458303
 20
-56.0
 30
0.0
 11
-149.9999994458303
 21
-208.1709611048354
 31
0.0
  0
LINE
  5
53162
330
18
100
AcDbEntity
  8
SIZE
100
AcDbLine
 10
-214.9999994458303
 20
-20.0
 30
0.0
 11
-214.9999994458303
 21
-208.1709611048354
 31
0.0
  0
LINE
  5
53163
330
18
100
AcDbEntity
  8
SIZE
100
AcDbLine
 10
-161.9999994458303
 20
-178.1709611048354
 30
0.0
 11
-202.9999994458303
 21
-178.1709611048354
 31
0.0
  0
LINE
  5
53164
330
18
100
AcDbEntity
  8
SIZE
100
AcDbLine
 10
-214.9999994458303
 20
-178.1709611048354
 30
0.0
 11
-339.8571423029732
 21
-178.1709611048354
 31
0.0
  0
LINE
  5
53168
330
18
100
AcDbEntity
  8
SIZE
100
AcDbLine
 10
-246.6370742084072
 20
37.5
 30
0.0
 11
-389.8757544325272
 21
37.50000000000003
 31
0.0
  0
LINE
  5
53169
330
18
100
AcDbEntity
  8
SIZE
100
AcDbLine
 10
-234.9999994458303
 20
0.0000000000000057
 30
0.0
 11
-389.8757544325272
 21
0.0000000000000495
 31
0.0
  0
LINE
  5
5316A
330
18
100
AcDbEntity
  8
SIZE
100
AcDbLine
 10
-359.8757544325272
 20
49.50000000000002
 30
0.0
 11
-359.8757544325272
 21
61.50000000000003
 31
0.0
  0
LINE
  5
5316B
330
18
100
AcDbEntity
  8
SIZE
100
AcDbLine
 10
-359.8757544325272
 20
-11.99999999999995
 30
0.0
 11
-359.8757544325272
 21
-201.1428571428571
 31
0.0
  0
LINE
  5
5316C
330
18
100
AcDbEntity
  8
SIZE
100
AcDbLine
 10
-359.8757544325272
 20
37.50000000000003
 30
0.0
 11
-359.8757544325272
 21
0.000000000000041
 31
0.0
  0
LINE
  5
53170
330
18
100
AcDbEntity
  8
SIZE
100
AcDbLine
 10
500.0000005541694
 20
-56.0
 30
0.0
 11
500.0000005541694
 21
-208.1709611048354
 31
0.0
  0
LINE
  5
53171
330
18
100
AcDbEntity
  8
SIZE
100
AcDbLine
 10
565.0000005541698
 20
-20.0
 30
0.0
 11
565.0000005541698
 21
-208.1709611048354
 31
0.0
  0
LINE
  5
53172
330
18
100
AcDbEntity
  8
SIZE
100
AcDbLine
 10
512.0000005541696
 20
-178.1709611048354
 30
0.0
 11
553.0000005541697
 21
-178.1709611048354
 31
0.0
  0
LINE
  5
53173
330
18
100
AcDbEntity
  8
SIZE
100
AcDbLine
 10
565.0000005541698
 20
-178.1709611048354
 30
0.0
 11
689.8571434113125
 21
-178.1709611048354
 31
0.0
  0
LINE
  5
53177
330
18
100
AcDbEntity
  8
SIZE
100
AcDbLine
 10
530.0000004425437
 20
-25.82477016030316
 30
0.0
 11
530.0000004425437
 21
-381.225591749906
 31
0.0
  0
LINE
  5
53178
330
18
100
AcDbEntity
  8
SIZE
100
AcDbLine
 10
565.0000005541698
 20
-20.0
 30
0.0
 11
565.0000005541698
 21
-381.225591749906
 31
0.0
  0
LINE
  5
53179
330
18
100
AcDbEntity
  8
SIZE
100
AcDbLine
 10
518.0000004425437
 20
-351.225591749906
 30
0.0
 11
506.0000004425437
 21
-351.225591749906
 31
0.0
  0
LINE
  5
5317A
330
18
100
AcDbEntity
  8
SIZE
100
AcDbLine
 10
577.0000005541693
 20
-351.225591749906
 30
0.0
 11
701.8571434113125
 21
-351.225591749906
 31
0.0
  0
LINE
  5
5317B
330
18
100
AcDbEntity
  8
SIZE
100
AcDbLine
 10
530.0000004425437
 20
-351.225591749906
 30
0.0
 11
565.0000005541698
 21
-351.225591749906
 31
0.0
  0
LINE
  5
5317F
330
18
100
AcDbEntity
  8
SIZE
100
AcDbLine
 10
-565.0
 20
1878.800000000002
 30
0.0
 11
-565.0
 21
2139.256667425443
 31
0.0
  0
LINE
  5
53180
330
18
100
AcDbEntity
  8
SIZE
100
AcDbLine
 10
-315.0
 20
1917.6
 30
0.0
 11
-315.0
 21
2139.256667425443
 31
0.0
  0
LINE
  5
53181
330
18
100
AcDbEntity
  8
SIZE
100
AcDbLine
 10
-553.0
 20
2109.256667425443
 30
0.0
 11
-327.0
 21
2109.256667425443
 31
0.0
  0
LINE
  5
53185
330
18
100
AcDbEntity
  8
SIZE
100
AcDbLine
 10
-465.0
 20
1915.648528246768
 30
0.0
 11
-465.0
 21
2018.541238749932
 31
0.0
  0
LINE
  5
53186
330
18
100
AcDbEntity
  8
SIZE
100
AcDbLine
 10
-565.0
 20
1878.800000000001
 30
0.0
 11
-565.0
 21
2018.541238749932
 31
0.0
  0
LINE
  5
53187
330
18
100
AcDbEntity
  8
SIZE
100
AcDbLine
 10
-477.0
 20
1988.541238749933
 30
0.0
 11
-553.0
 21
1988.541238749933
 31
0.0
  0
LINE
  5
53188
330
18
100
AcDbEntity
  8
SIZE
100
AcDbLine
 10
-565.0
 20
1988.541238749933
 30
0.0
 11
-725.508364795228
 21
1988.541238749933
 31
0.0
  0
TEXT
  5
5318C
330
18
100
AcDbEntity
  8
SIZE
100
AcDbText
 10
115.9267978912487
 20
-464.9026899610671
 30
0.0
 40
50.0
  1
780
 41
0.9
100
AcDbText
  0
TEXT
  5
5318D
330
18
100
AcDbEntity
  8
SIZE
100
AcDbText
 10
117.1428576970268
 20
-158.1709611048354
 30
0.0
 40
50.0
  1
650
 41
0.9
100
AcDbText
  0
TEXT
  5
5318E
330
18
100
AcDbEntity
  8
SIZE
100
AcDbText
 10
121.4285719269281
 20
-331.225591749906
 30
0.0
 40
50.0
  1
710
 41
0.9
100
AcDbText
  0
TEXT
  5
5318F
330
18
100
AcDbEntity
  8
SIZE
100
AcDbText
 10
-70.9588885906591
 20
-586.120673695279
 30
0.0
 40
50.0
  1
1130
 41
0.9
100
AcDbText
  0
CIRCLE
  5
53190
330
18
100
AcDbEntity
  8
SIZE
  6
ByBlock
100
AcDbCircle
 10
-565.0000000000008
 20
-606.120673695279
 30
0.0
 40
6.0
  0
LINE
  5
53191
330
18
100
AcDbEntity
  8
SIZE
  6
ByBlock
100
AcDbLine
 10
-565.0000000000008
 20
-606.120673695279
 30
0.0
 11
-553.0000000000008
 21
-606.120673695279
 31
0.0
  0
CIRCLE
  5
53192
330
18
100
AcDbEntity
  8
SIZE
  6
ByBlock
100
AcDbCircle
 10
-465.0
 20
-252.1024263333729
 30
0.0
 40
6.0
  0
LINE
  5
53193
330
18
100
AcDbEntity
  8
SIZE
  6
ByBlock
100
AcDbLine
 10
-465.0
 20
-252.1024263333729
 30
0.0
 11
-477.0
 21
-252.1024263333729
 31
0.0
  0
CIRCLE
  5
53194
330
18
100
AcDbEntity
  8
SIZE
  6
ByBlock
100
AcDbCircle
 10
-565.0
 20
-484.9026899610668
 30
0.0
 40
6.0
  0
LINE
  5
53195
330
18
100
AcDbEntity
  8
SIZE
  6
ByBlock
100
AcDbLine
 10
-565.0
 20
-484.9026899610668
 30
0.0
 11
-553.0
 21
-484.9026899610668
 31
0.0
  0
TEXT
  5
53196
330
18
100
AcDbEntity
  8
SIZE
100
AcDbText
 10
-704.142857142858
 20
-232.1024263333729
 30
0.0
 40
50.0
  1
100
 41
0.9
100
AcDbText
  0
CIRCLE
  5
53197
330
18
100
AcDbEntity
  8
SIZE
  6
ByBlock
100
AcDbCircle
 10
-565.0000000000008
 20
-252.1024263333729
 30
0.0
 40
6.0
  0
LINE
  5
53198
330
18
100
AcDbEntity
  8
SIZE
  6
ByBlock
100
AcDbLine
 10
-565.0000000000008
 20
-252.1024263333729
 30
0.0
 11
-553.0000000000008
 21
-252.1024263333729
 31
0.0
  0
TEXT
  5
53199
330
18
100
AcDbEntity
  8
SIZE
100
AcDbText
 10
-379.8757544325272
 20
-181.1428571428571
 30
0.0
 40
50.0
  1
37.5
 50
90.0
 41
0.9
100
AcDbText
  0
CIRCLE
  5
5319A
330
18
100
AcDbEntity
  8
SIZE
  6
ByBlock
100
AcDbCircle
 10
-149.9999994458303
 20
-178.1709611048354
 30
0.0
 40
6.0
  0
LINE
  5
5319B
330
18
100
AcDbEntity
  8
SIZE
  6
ByBlock
100
AcDbLine
 10
-149.9999994458303
 20
-178.1709611048354
 30
0.0
 11
-161.9999994458303
 21
-178.1709611048354
 31
0.0
  0
TEXT
  5
5319C
330
18
100
AcDbEntity
  8
SIZE
100
AcDbText
 10
-331.8571423029732
 20
-331.225591749906
 30
0.0
 40
50.0
  1
35
 41
0.9
100
AcDbText
  0
TEXT
  5
5319D
330
18
100
AcDbEntity
  8
SIZE
100
AcDbText
 10
-447.8571428571426
 20
-464.9026899610671
 30
0.0
 40
50.0
  1
350
 41
0.9
100
AcDbText
  0
CIRCLE
  5
5319E
330
18
100
AcDbEntity
  8
SIZE
  6
ByBlock
100
AcDbCircle
 10
-214.9999994458303
 20
-351.225591749906
 30
0.0
 40
6.0
  0
LINE
  5
5319F
330
18
100
AcDbEntity
  8
SIZE
  6
ByBlock
100
AcDbLine
 10
-214.9999994458303
 20
-351.225591749906
 30
0.0
 11
-226.9999994458303
 21
-351.225591749906
 31
0.0
  0
CIRCLE
  5
531A0
330
18
100
AcDbEntity
  8
SIZE
  6
ByBlock
100
AcDbCircle
 10
-179.9999994458303
 20
-351.225591749906
 30
0.0
 40
6.0
  0
LINE
  5
531A1
330
18
100
AcDbEntity
  8
SIZE
  6
ByBlock
100
AcDbLine
 10
-179.9999994458303
 20
-351.225591749906
 30
0.0
 11
-167.9999994458303
 21
-351.225591749906
 31
0.0
  0
CIRCLE
  5
531A2
330
18
100
AcDbEntity
  8
SIZE
  6
ByBlock
100
AcDbCircle
 10
-215.0
 20
-484.9026899610668
 30
0.0
 40
6.0
  0
LINE
  5
531A3
330
18
100
AcDbEntity
  8
SIZE
  6
ByBlock
100
AcDbLine
 10
-215.0
 20
-484.9026899610668
 30
0.0
 11
-227.0
 21
-484.9026899610668
 31
0.0
  0
CIRCLE
  5
531A4
330
18
100
AcDbEntity
  8
SIZE
  6
ByBlock
100
AcDbCircle
 10
-214.9999994458303
 20
-484.9026899610668
 30
0.0
 40
6.0
  0
LINE
  5
531A5
330
18
100
AcDbEntity
  8
SIZE
  6
ByBlock
100
AcDbLine
 10
-214.9999994458303
 20
-484.9026899610668
 30
0.0
 11
-202.9999994458303
 21
-484.9026899610668
 31
0.0
  0
CIRCLE
  5
531A6
330
18
100
AcDbEntity
  8
SIZE
  6
ByBlock
100
AcDbCircle
 10
-179.9999994458303
 20
-351.225591749906
 30
0.0
 40
6.0
  0
LINE
  5
531A7
330
18
100
AcDbEntity
  8
SIZE
  6
ByBlock
100
AcDbLine
 10
-179.9999994458303
 20
-351.225591749906
 30
0.0
 11
-167.9999994458303
 21
-351.225591749906
 31
0.0
  0
TEXT
  5
531A8
330
18
100
AcDbEntity
  8
SIZE
100
AcDbText
 10
-319.8571423029731
 20
-158.1709611048354
 30
0.0
 40
50.0
  1
65
 41
0.9
100
AcDbText
  0
CIRCLE
  5
531A9
330
18
100
AcDbEntity
  8
SIZE
  6
ByBlock
100
AcDbCircle
 10
-214.9999994458303
 20
-178.1709611048354
 30
0.0
 40
6.0
  0
LINE
  5
531AA
330
18
100
AcDbEntity
  8
SIZE
  6
ByBlock
100
AcDbLine
 10
-214.9999994458303
 20
-178.1709611048354
 30
0.0
 11
-202.9999994458303
 21
-178.1709611048354
 31
0.0
  0
CIRCLE
  5
531AB
330
18
100
AcDbEntity
  8
SIZE
  6
ByBlock
100
AcDbCircle
 10
-149.9999994458303
 20
-178.1709611048354
 30
0.0
 40
6.0
  0
LINE
  5
531AC
330
18
100
AcDbEntity
  8
SIZE
  6
ByBlock
100
AcDbLine
 10
-149.9999994458303
 20
-178.1709611048354
 30
0.0
 11
-137.9999994458303
 21
-178.1709611048354
 31
0.0
  0
CIRCLE
  5
531AD
330
18
100
AcDbEntity
  8
SIZE
  6
ByBlock
100
AcDbCircle
 10
-359.8757544325272
 20
0.000000000000041
 30
0.0
 40
6.0
  0
LINE
  5
531AE
330
18
100
AcDbEntity
  8
SIZE
  6
ByBlock
100
AcDbLine
 10
-359.8757544325272
 20
0.000000000000041
 30
0.0
 11
-359.8757544325272
 21
-11.99999999999995
 31
0.0
  0
CIRCLE
  5
531AF
330
18
100
AcDbEntity
  8
SIZE
  6
ByBlock
100
AcDbCircle
 10
-359.8757544325272
 20
37.50000000000003
 30
0.0
 40
6.0
  0
LINE
  5
531B0
330
18
100
AcDbEntity
  8
SIZE
  6
ByBlock
100
AcDbLine
 10
-359.8757544325272
 20
37.50000000000003
 30
0.0
 11
-359.8757544325272
 21
49.50000000000002
 31
0.0
  0
CIRCLE
  5
531B1
330
18
100
AcDbEntity
  8
SIZE
  6
ByBlock
100
AcDbCircle
 10
565.0
 20
-606.120673695279
 30
0.0
 40
6.0
  0
LINE
  5
531B2
330
18
100
AcDbEntity
  8
SIZE
  6
ByBlock
100
AcDbLine
 10
565.0
 20
-606.120673695279
 30
0.0
 11
553.0
 21
-606.120673695279
 31
0.0
  0
TEXT
  5
531B3
330
18
100
AcDbEntity
  8
SIZE
100
AcDbText
 10
609.0000005541693
 20
-331.225591749906
 30
0.0
 40
50.0
  1
35
 41
0.9
100
AcDbText
  0
CIRCLE
  5
531B4
330
18
100
AcDbEntity
  8
SIZE
  6
ByBlock
100
AcDbCircle
 10
565.0000005541698
 20
-351.225591749906
 30
0.0
 40
6.0
  0
LINE
  5
531B5
330
18
100
AcDbEntity
  8
SIZE
  6
ByBlock
100
AcDbLine
 10
565.0000005541698
 20
-351.225591749906
 30
0.0
 11
577.0000005541693
 21
-351.225591749906
 31
0.0
  0
CIRCLE
  5
531B6
330
18
100
AcDbEntity
  8
SIZE
  6
ByBlock
100
AcDbCircle
 10
530.0000004425437
 20
-351.225591749906
 30
0.0
 40
6.0
  0
LINE
  5
531B7
330
18
100
AcDbEntity
  8
SIZE
  6
ByBlock
100
AcDbLine
 10
530.0000004425437
 20
-351.225591749906
 30
0.0
 11
518.0000004425437
 21
-351.225591749906
 31
0.0
  0
CIRCLE
  5
531B8
330
18
100
AcDbEntity
  8
SIZE
  6
ByBlock
100
AcDbCircle
 10
565.0000005541698
 20
-484.9026899610668
 30
0.0
 40
6.0
  0
LINE
  5
531B9
330
18
100
AcDbEntity
  8
SIZE
  6
ByBlock
100
AcDbLine
 10
565.0000005541698
 20
-484.9026899610668
 30
0.0
 11
553.0000005541697
 21
-484.9026899610668
 31
0.0
  0
CIRCLE
  5
531BA
330
18
100
AcDbEntity
  8
SIZE
  6
ByBlock
100
AcDbCircle
 10
530.0000004425437
 20
-351.225591749906
 30
0.0
 40
6.0
  0
LINE
  5
531BB
330
18
100
AcDbEntity
  8
SIZE
  6
ByBlock
100
AcDbLine
 10
530.0000004425437
 20
-351.225591749906
 30
0.0
 11
518.0000004425437
 21
-351.225591749906
 31
0.0
  0
TEXT
  5
531BC
330
18
100
AcDbEntity
  8
SIZE
100
AcDbText
 10
597.0000005541693
 20
-158.1709611048354
 30
0.0
 40
50.0
  1
65
 41
0.9
100
AcDbText
  0
CIRCLE
  5
531BD
330
18
100
AcDbEntity
  8
SIZE
  6
ByBlock
100
AcDbCircle
 10
565.0000005541698
 20
-178.1709611048354
 30
0.0
 40
6.0
  0
LINE
  5
531BE
330
18
100
AcDbEntity
  8
SIZE
  6
ByBlock
100
AcDbLine
 10
565.0000005541698
 20
-178.1709611048354
 30
0.0
 11
553.0000005541697
 21
-178.1709611048354
 31
0.0
  0
CIRCLE
  5
531BF
330
18
100
AcDbEntity
  8
SIZE
  6
ByBlock
100
AcDbCircle
 10
500.0000005541694
 20
-178.1709611048354
 30
0.0
 40
6.0
  0
LINE
  5
531C0
330
18
100
AcDbEntity
  8
SIZE
  6
ByBlock
100
AcDbLine
 10
500.0000005541694
 20
-178.1709611048354
 30
0.0
 11
512.0000005541696
 21
-178.1709611048354
 31
0.0
  0
CIRCLE
  5
531C1
330
18
100
AcDbEntity
  8
SIZE
  6
ByBlock
100
AcDbCircle
 10
500.0000005541694
 20
-178.1709611048354
 30
0.0
 40
6.0
  0
LINE
  5
531C2
330
18
100
AcDbEntity
  8
SIZE
  6
ByBlock
100
AcDbLine
 10
500.0000005541694
 20
-178.1709611048354
 30
0.0
 11
488.0000005541694
 21
-178.1709611048354
 31
0.0
  0
CIRCLE
  5
531C3
330
18
100
AcDbEntity
  8
SIZE
  6
ByBlock
100
AcDbCircle
 10
988.0960771917234
 20
-0.0000000000001199
 30
0.0
 40
6.0
  0
LINE
  5
531C4
330
18
100
AcDbEntity
  8
SIZE
  6
ByBlock
100
AcDbLine
 10
988.0960771917234
 20
-0.0000000000001199
 30
0.0
 11
988.0960771917234
 21
11.99999999999988
 31
0.0
  0
CIRCLE
  5
531C5
330
18
100
AcDbEntity
  8
SIZE
  6
ByBlock
100
AcDbCircle
 10
-465.0
 20
1988.541238749933
 30
0.0
 40
6.0
  0
LINE
  5
531C6
330
18
100
AcDbEntity
  8
SIZE
  6
ByBlock
100
AcDbLine
 10
-465.0
 20
1988.541238749933
 30
0.0
 11
-477.0
 21
1988.541238749933
 31
0.0
  0
TEXT
  5
531C7
330
18
100
AcDbEntity
  8
SIZE
100
AcDbText
 10
-497.3409858263236
 20
2129.256667425443
 30
0.0
 40
50.0
  1
250
 41
0.9
100
AcDbText
  0
TEXT
  5
531C8
330
18
100
AcDbEntity
  8
SIZE
100
AcDbText
 10
-705.508364795228
 20
2008.541238749932
 30
0.0
 40
50.0
  1
100
 41
0.9
100
AcDbText
  0
CIRCLE
  5
531C9
330
18
100
AcDbEntity
  8
SIZE
  6
ByBlock
100
AcDbCircle
 10
-565.0
 20
1988.541238749933
 30
0.0
 40
6.0
  0
LINE
  5
531CA
330
18
100
AcDbEntity
  8
SIZE
  6
ByBlock
100
AcDbLine
 10
-565.0
 20
1988.541238749933
 30
0.0
 11
-553.0
 21
1988.541238749933
 31
0.0
  0
CIRCLE
  5
531CB
330
18
100
AcDbEntity
  8
SIZE
  6
ByBlock
100
AcDbCircle
 10
-565.0
 20
2109.256667425443
 30
0.0
 40
6.0
  0
LINE
  5
531CC
330
18
100
AcDbEntity
  8
SIZE
  6
ByBlock
100
AcDbLine
 10
-565.0
 20
2109.256667425443
 30
0.0
 11
-553.0
 21
2109.256667425443
 31
0.0
  0
CIRCLE
  5
531CD
330
18
100
AcDbEntity
  8
SIZE
  6
ByBlock
100
AcDbCircle
 10
-315.0
 20
2109.256667425443
 30
0.0
 40
6.0
  0
LINE
  5
531CE
330
18
100
AcDbEntity
  8
SIZE
  6
ByBlock
100
AcDbLine
 10
-315.0
 20
2109.256667425443
 30
0.0
 11
-327.0
 21
2109.256667425443
 31
0.0
  0
TEXT
  5
531CF
330
18
100
AcDbEntity
  8
SIZE
100
AcDbText
 10
968.0960771917233
 20
851.9535175268337
 30
0.0
 40
50.0
  1
1860
 50
90.0
 41
0.9
100
AcDbText
  0
CIRCLE
  5
531D0
330
18
100
AcDbEntity
  8
SIZE
  6
ByBlock
100
AcDbCircle
 10
988.0960771917239
 20
1860.000000000002
 30
0.0
 40
6.0
  0
LINE
  5
531D1
330
18
100
AcDbEntity
  8
SIZE
  6
ByBlock
100
AcDbLine
 10
988.0960771917239
 20
1860.000000000002
 30
0.0
 11
988.0960771917239
 21
1848.000000000001
 31
0.0
  0
LINE
  5
531D6
330
18
100
AcDbEntity
  8
OUTLINE
  6
Continuous
 48
30.0
100
AcDbLine
 10
565.0
 20
76.1999999999998
 30
0.0
 11
565.0
 21
1723.8
 31
0.0
  0
LINE
  5
531E8
330
18
100
AcDbEntity
  8
OUTLINE
  6
Continuous
 48
30.0
100
AcDbLine
 10
-565.0
 20
1.199999999999817
 30
0.0
 11
-565.0
 21
1858.8
 31
0.0
  0
LINE
  5
531F7
330
18
100
AcDbEntity
  8
OUTLINE
  6
Continuous
 48
30.0
100
AcDbLine
 10
565.0
 20
-0.0000000000009095
 30
0.0
 11
-278.2000000000043
 21
-0.0000000000009095
 31
0.0
  0
LINE
  5
531F9
330
18
100
AcDbEntity
  8
OUTLINE
  6
Continuous
 48
30.0
100
AcDbLine
 10
-563.7999999999992
 20
-0.0000000000009095
 30
0.0
 11
-278.2000000000043
 21
-0.0000000000009095
 31
0.0
  0
ARC
  5
531FA
330
18
100
AcDbEntity
  8
OUTLINE
  6
Continuous
 48
30.0
100
AcDbCircle
 10
-563.7999999999992
 20
1.200000000001634
 30
0.0
 40
1.200000000001633
100
AcDbArc
 50
180.0000000001041
 51
270.0
  0
ARC
  5
532B8
330
18
100
AcDbEntity
  8
OUTLINE
  6
Continuous
 48
30.0
100
AcDbCircle
 10
563.7999999999956
 20
76.20000000000164
 30
0.0
 40
1.200000000001182
100
AcDbArc
 50
270.0
 51
359.9999999998958
  0
LINE
  5
532BA
330
18
100
AcDbEntity
  8
OUTLINE
  6
Continuous
 48
30.0
100
AcDbLine
 10
565.0
 20
-0.0000000000009095
 30
0.0
 11
565.0
 21
74.99999999999909
 31
0.0
  0
LINE
  5
532BF
330
18
100
AcDbEntity
  8
OUTLINE
  6
Continuous
 48
30.0
100
AcDbLine
 10
563.7999999999956
 20
74.99999999999909
 30
0.0
 11
565.0
 21
74.99999999999909
 31
0.0
  0
LINE
  5
532C2
330
18
100
AcDbEntity
  8
OUTLINE
  6
Continuous
 48
30.0
100
AcDbLine
 10
-213.7999999999992
 20
1860.000000000001
 30
0.0
 11
563.7999999999956
 21
1860.000000000001
 31
0.0
  0
LINE
  5
53362
330
18
100
AcDbEntity
  8
OUTLINE
  6
Continuous
 48
30.0
100
AcDbLine
 10
-563.7999999999992
 20
1860.000000000001
 30
0.0
 11
-216.2000000000043
 21
1860.000000000001
 31
0.0
  0
ARC
  5
5336B
330
18
100
AcDbEntity
  8
OUTLINE
  6
Continuous
 48
30.0
100
AcDbCircle
 10
-563.7999999999956
 20
1858.799999999996
 30
0.0
 40
1.200000000004366
100
AcDbArc
 50
90.00000000020843
 51
179.9999999997915
  0
LINE
  5
533D2
330
18
100
AcDbEntity
  8
OUTLINE
  6
Continuous
 48
30.0
100
AcDbLine
 10
-315.0
 20
1861.599999999999
 30
0.0
 11
-245.0
 21
1861.599999999999
 31
0.0
  0
LINE
  5
533D3
330
18
100
AcDbEntity
  8
OUTLINE
  6
Continuous
 48
30.0
100
AcDbLine
 10
-311.0
 20
1862.399999999998
 30
0.0
 11
-299.0
 21
1862.399999999998
 31
0.0
  0
LINE
  5
533D4
330
18
100
AcDbEntity
  8
OUTLINE
  6
Continuous
 48
30.0
100
AcDbLine
 10
-320.6011365104022
 20
1863.399999999998
 30
0.0
 11
-329.3988119932983
 21
1863.399999999998
 31
0.0
  0
LINE
  5
533D5
330
18
100
AcDbEntity
  8
OUTLINE
  6
Continuous
 48
30.0
100
AcDbLine
 10
-331.0
 20
1862.399999999998
 30
0.0
 11
-319.0
 21
1862.399999999998
 31
0.0
  0
LINE
  5
533D6
330
18
100
AcDbEntity
  8
OUTLINE
  6
Continuous
 48
30.0
100
AcDbLine
 10
-311.0
 20
1861.599999999999
 30
0.0
 11
-311.0
 21
1862.399999999998
 31
0.0
  0
LINE
  5
533D7
330
18
100
AcDbEntity
  8
OUTLINE
  6
Continuous
 48
30.0
100
AcDbLine
 10
-315.0
 20
1861.599999999999
 30
0.0
 11
-315.0
 21
1860.000000000001
 31
0.0
  0
LINE
  5
533D8
330
18
100
AcDbEntity
  8
OUTLINE
  6
Continuous
 48
30.0
100
AcDbLine
 10
-315.0
 20
1861.599999999999
 30
0.0
 11
-315.0
 21
1860.000000000001
 31
0.0
  0
LINE
  5
533D9
330
18
100
AcDbEntity
  8
OUTLINE
  6
Continuous
 48
30.0
100
AcDbLine
 10
-319.0
 20
1861.599999999999
 30
0.0
 11
-319.0
 21
1862.399999999998
 31
0.0
  0
LINE
  5
533DA
330
18
100
AcDbEntity
  8
OUTLINE
  6
Continuous
 48
30.0
100
AcDbLine
 10
-320.6011365104022
 20
1862.399999999998
 30
0.0
 11
-320.6011365104022
 21
1863.399999999998
 31
0.0
  0
LINE
  5
533DB
330
18
100
AcDbEntity
  8
OUTLINE
  6
Continuous
 48
30.0
100
AcDbLine
 10
-329.4000000000014
 20
1862.399999999998
 30
0.0
 11
-329.4000000000014
 21
1863.399999999998
 31
0.0
  0
LINE
  5
533DC
330
18
100
AcDbEntity
  8
OUTLINE
  6
Continuous
 48
30.0
100
AcDbLine
 10
-331.0
 20
1861.599999999999
 30
0.0
 11
-331.0
 21
1862.399999999998
 31
0.0
  0
LINE
  5
533DD
330
18
100
AcDbEntity
  8
OUTLINE
  6
Continuous
 48
30.0
100
AcDbLine
 10
-320.9988119932968
 20
1863.399999999998
 30
0.0
 11
-320.9988119932968
 21
1866.900000000097
 31
0.0
  0
LINE
  5
533DE
330
18
100
AcDbEntity
  8
OUTLINE
  6
Continuous
 48
30.0
100
AcDbLine
 10
-324.9988119932968
 20
1863.757265589899
 30
0.0
 11
-324.9988119932968
 21
1866.542734410097
 31
0.0
  0
LINE
  5
533DF
330
18
100
AcDbEntity
  8
OUTLINE
  6
Continuous
 48
30.0
100
AcDbLine
 10
-328.9988119932969
 20
1863.399999999998
 30
0.0
 11
-328.9988119932969
 21
1866.900000000097
 31
0.0
  0
LINE
  5
533E0
330
18
100
AcDbEntity
  8
OUTLINE
  6
Continuous
 48
30.0
100
AcDbLine
 10
-324.9988119932968
 20
1863.757265589899
 30
0.0
 11
-322.9988119935951
 21
1863.399999999998
 31
0.0
  0
LINE
  5
533E1
330
18
100
AcDbEntity
  8
OUTLINE
  6
Continuous
 48
30.0
100
AcDbLine
 10
-328.9988119932969
 20
1863.757265589899
 30
0.0
 11
-326.9988119935951
 21
1863.399999999998
 31
0.0
  0
LINE
  5
533E2
330
18
100
AcDbEntity
  8
OUTLINE
  6
Continuous
 48
30.0
100
AcDbLine
 10
-328.9988119932969
 20
1866.899999999998
 30
0.0
 11
-320.9988119931949
 21
1866.899999999998
 31
0.0
  0
LINE
  5
533E3
330
18
100
AcDbEntity
  8
OUTLINE
  6
Continuous
 48
30.0
100
AcDbLine
 10
-328.9988119932969
 20
1866.542734410097
 30
0.0
 11
-326.9988119935951
 21
1866.900000000097
 31
0.0
  0
LINE
  5
533E4
330
18
100
AcDbEntity
  8
OUTLINE
  6
Continuous
 48
30.0
100
AcDbLine
 10
-324.9988119932968
 20
1866.542734410097
 30
0.0
 11
-322.9988119935951
 21
1866.900000000097
 31
0.0
  0
ARC
  5
533E5
330
18
100
AcDbEntity
  8
OUTLINE
100
AcDbCircle
 10
-322.9950909997497
 20
1861.209964831971
 30
0.0
 40
5.694169056587147
100
AcDbArc
 50
69.47702039995637
 51
87.61396926510412
  0
ARC
  5
533E6
330
18
100
AcDbEntity
  8
OUTLINE
100
AcDbCircle
 10
-327.0089280575671
 20
1861.157736433649
 30
0.0
 40
5.747936133795898
100
AcDbArc
 50
69.53036495740768
 51
86.49839241495373
  0
ARC
  5
533E7
330
18
100
AcDbEntity
  8
OUTLINE
100
AcDbCircle
 10
-323.0078918694957
 20
1869.14052747432
 30
0.0
 40
5.745947307903493
100
AcDbArc
 50
273.3367468602529
 51
290.466009098098
  0
ARC
  5
533E8
330
18
100
AcDbEntity
  8
OUTLINE
100
AcDbCircle
 10
-326.9976195949961
 20
1869.096385419031
 30
0.0
 40
5.701002752011445
100
AcDbArc
 50
272.9567513624492
 51
290.524404901412
  0
LINE
  5
533E9
330
18
100
AcDbEntity
  8
OUTLINE
  6
Continuous
 48
30.0
100
AcDbLine
 10
-370.6011365104022
 20
1863.399999999998
 30
0.0
 11
-379.3988119932984
 21
1863.399999999998
 31
0.0
  0
LINE
  5
533EA
330
18
100
AcDbEntity
  8
OUTLINE
  6
Continuous
 48
30.0
100
AcDbLine
 10
-381.0
 20
1862.399999999998
 30
0.0
 11
-369.0
 21
1862.399999999998
 31
0.0
  0
ARC
  5
533EB
330
18
100
AcDbEntity
  8
OUTLINE
  6
Continuous
 48
30.0
100
AcDbCircle
 10
-380.1999999974977
 20
1860.849999999999
 30
0.0
 40
0.8499999999998038
100
AcDbArc
 50
269.998692401367
 51
90.00109437960798
  0
ARC
  5
533EC
330
18
100
AcDbEntity
  8
OUTLINE
  6
Continuous
 48
30.0
100
AcDbCircle
 10
-399.8000000024003
 20
1860.849999999999
 30
0.0
 40
0.8500000000007544
100
AcDbArc
 50
89.99826310236217
 51
270.0020683418014
  0
LINE
  5
533ED
330
18
100
AcDbEntity
  8
OUTLINE
  6
Continuous
 48
30.0
100
AcDbLine
 10
-380.1999999995023
 20
1861.699999999999
 30
0.0
 11
-399.7999999988023
 21
1861.699999999999
 31
0.0
  0
LINE
  5
533EE
330
18
100
AcDbEntity
  8
OUTLINE
  6
Continuous
 48
30.0
100
AcDbLine
 10
-379.4000000000014
 20
1862.399999999998
 30
0.0
 11
-379.4000000000014
 21
1863.399999999998
 31
0.0
  0
LINE
  5
533EF
330
18
100
AcDbEntity
  8
OUTLINE
  6
Continuous
 48
30.0
100
AcDbLine
 10
-381.0
 20
1861.699999999999
 30
0.0
 11
-381.0
 21
1862.399999999998
 31
0.0
  0
LINE
  5
533F0
330
18
100
AcDbEntity
  8
OUTLINE
  6
Continuous
 48
30.0
100
AcDbLine
 10
-369.0
 20
1861.599999999999
 30
0.0
 11
-369.0
 21
1862.399999999998
 31
0.0
  0
LINE
  5
533F1
330
18
100
AcDbEntity
  8
OUTLINE
  6
Continuous
 48
30.0
100
AcDbLine
 10
-370.6011365104022
 20
1862.399999999998
 30
0.0
 11
-370.6011365104022
 21
1863.399999999998
 31
0.0
  0
ARC
  5
533F2
330
18
100
AcDbEntity
  8
OUTLINE
100
AcDbCircle
 10
-376.996431588293
 20
1869.096385419031
 30
0.0
 40
5.701002752011445
100
AcDbArc
 50
272.9567513624492
 51
290.524404901412
  0
ARC
  5
533F3
330
18
100
AcDbEntity
  8
OUTLINE
100
AcDbCircle
 10
-373.0067038627926
 20
1869.14052747432
 30
0.0
 40
5.745947307903493
100
AcDbArc
 50
273.3367468602529
 51
290.466009098098
  0
ARC
  5
533F4
330
18
100
AcDbEntity
  8
OUTLINE
100
AcDbCircle
 10
-377.0077400508639
 20
1861.157736433649
 30
0.0
 40
5.747936133795898
100
AcDbArc
 50
69.53036495740768
 51
86.49839241495373
  0
ARC
  5
533F5
330
18
100
AcDbEntity
  8
OUTLINE
100
AcDbCircle
 10
-372.9939029930465
 20
1861.209964831971
 30
0.0
 40
5.694169056587147
100
AcDbArc
 50
69.47702039995637
 51
87.61396926510412
  0
LINE
  5
533F6
330
18
100
AcDbEntity
  8
OUTLINE
  6
Continuous
 48
30.0
100
AcDbLine
 10
-374.9976239865937
 20
1866.542734410097
 30
0.0
 11
-372.997623986892
 21
1866.900000000097
 31
0.0
  0
LINE
  5
533F7
330
18
100
AcDbEntity
  8
OUTLINE
  6
Continuous
 48
30.0
100
AcDbLine
 10
-378.9976239865936
 20
1866.542734410097
 30
0.0
 11
-376.997623986892
 21
1866.900000000097
 31
0.0
  0
LINE
  5
533F8
330
18
100
AcDbEntity
  8
OUTLINE
  6
Continuous
 48
30.0
100
AcDbLine
 10
-378.9976239865936
 20
1866.899999999998
 30
0.0
 11
-370.9976239864918
 21
1866.899999999998
 31
0.0
  0
LINE
  5
533F9
330
18
100
AcDbEntity
  8
OUTLINE
  6
Continuous
 48
30.0
100
AcDbLine
 10
-378.9976239865936
 20
1863.757265589899
 30
0.0
 11
-376.997623986892
 21
1863.399999999998
 31
0.0
  0
LINE
  5
533FA
330
18
100
AcDbEntity
  8
OUTLINE
  6
Continuous
 48
30.0
100
AcDbLine
 10
-374.9976239865937
 20
1863.757265589899
 30
0.0
 11
-372.997623986892
 21
1863.399999999998
 31
0.0
  0
LINE
  5
533FB
330
18
100
AcDbEntity
  8
OUTLINE
  6
Continuous
 48
30.0
100
AcDbLine
 10
-378.9976239865936
 20
1863.399999999998
 30
0.0
 11
-378.9976239865936
 21
1866.900000000097
 31
0.0
  0
LINE
  5
533FC
330
18
100
AcDbEntity
  8
OUTLINE
  6
Continuous
 48
30.0
100
AcDbLine
 10
-374.9976239865937
 20
1863.757265589899
 30
0.0
 11
-374.9976239865937
 21
1866.542734410097
 31
0.0
  0
LINE
  5
533FD
330
18
100
AcDbEntity
  8
OUTLINE
  6
Continuous
 48
30.0
100
AcDbLine
 10
-370.9976239865937
 20
1863.399999999998
 30
0.0
 11
-370.9976239865937
 21
1866.900000000097
 31
0.0
  0
LINE
  5
533FE
330
18
100
AcDbEntity
  8
OUTLINE
  6
Continuous
 48
30.0
100
AcDbLine
 10
-379.8185895015994
 20
1861.599999999999
 30
0.0
 11
-315.0
 21
1861.599999999999
 31
0.0
  0
LINE
  5
533FF
330
18
100
AcDbEntity
  8
OUTLINE
  6
Continuous
 48
30.0
100
AcDbLine
 10
-250.6011365104023
 20
1863.399999999998
 30
0.0
 11
-259.3988119932983
 21
1863.399999999998
 31
0.0
  0
LINE
  5
53400
330
18
100
AcDbEntity
  8
OUTLINE
  6
Continuous
 48
30.0
100
AcDbLine
 10
-261.0
 20
1862.399999999998
 30
0.0
 11
-249.0
 21
1862.399999999998
 31
0.0
  0
LINE
  5
53401
330
18
100
AcDbEntity
  8
OUTLINE
  6
Continuous
 48
30.0
100
AcDbLine
 10
-300.6011365104023
 20
1863.399999999998
 30
0.0
 11
-309.3988119932983
 21
1863.399999999998
 31
0.0
  0
LINE
  5
53402
330
18
100
AcDbEntity
  8
OUTLINE
  6
Continuous
 48
30.0
100
AcDbLine
 10
-259.4000000000014
 20
1862.399999999998
 30
0.0
 11
-259.4000000000014
 21
1863.399999999998
 31
0.0
  0
LINE
  5
53403
330
18
100
AcDbEntity
  8
OUTLINE
  6
Continuous
 48
30.0
100
AcDbLine
 10
-261.0
 20
1861.599999999999
 30
0.0
 11
-261.0
 21
1862.399999999998
 31
0.0
  0
LINE
  5
53404
330
18
100
AcDbEntity
  8
OUTLINE
  6
Continuous
 48
30.0
100
AcDbLine
 10
-299.0
 20
1861.599999999999
 30
0.0
 11
-299.0
 21
1862.399999999998
 31
0.0
  0
LINE
  5
53405
330
18
100
AcDbEntity
  8
OUTLINE
  6
Continuous
 48
30.0
100
AcDbLine
 10
-300.6011365104023
 20
1862.399999999998
 30
0.0
 11
-300.6011365104023
 21
1863.399999999998
 31
0.0
  0
LINE
  5
53406
330
18
100
AcDbEntity
  8
OUTLINE
  6
Continuous
 48
30.0
100
AcDbLine
 10
-309.4000000000014
 20
1862.399999999998
 30
0.0
 11
-309.4000000000014
 21
1863.399999999998
 31
0.0
  0
ARC
  5
53407
330
18
100
AcDbEntity
  8
OUTLINE
  6
Continuous
 48
30.0
100
AcDbCircle
 10
-213.7999999999956
 20
1858.799999999996
 30
0.0
 40
1.200000000004366
100
AcDbArc
 50
90.00000000020843
 51
179.9999999997915
  0
ARC
  5
53408
330
18
100
AcDbEntity
  8
OUTLINE
  6
Continuous
 48
30.0
100
AcDbCircle
 10
-216.2000000000043
 20
1858.799999999996
 30
0.0
 40
1.200000000004366
100
AcDbArc
 50
0.0000000002084408
 51
89.99999999979158
  0
LINE
  5
53409
330
18
100
AcDbEntity
  8
OUTLINE
  6
Continuous
 48
30.0
100
AcDbLine
 10
-245.0
 20
1861.599999999999
 30
0.0
 11
-245.0
 21
1860.000000000001
 31
0.0
  0
LINE
  5
5340A
330
18
100
AcDbEntity
  8
OUTLINE
  6
Continuous
 48
30.0
100
AcDbLine
 10
-249.0
 20
1861.599999999999
 30
0.0
 11
-249.0
 21
1862.399999999998
 31
0.0
  0
LINE
  5
5340B
330
18
100
AcDbEntity
  8
OUTLINE
  6
Continuous
 48
30.0
100
AcDbLine
 10
-250.6011365104023
 20
1862.399999999998
 30
0.0
 11
-250.6011365104023
 21
1863.399999999998
 31
0.0
  0
ARC
  5
5340C
330
18
100
AcDbEntity
  8
OUTLINE
100
AcDbCircle
 10
-256.9988076016993
 20
1869.096385419031
 30
0.0
 40
5.701002752011445
100
AcDbArc
 50
272.9567513624492
 51
290.524404901412
  0
ARC
  5
5340D
330
18
100
AcDbEntity
  8
OUTLINE
100
AcDbCircle
 10
-253.0090798761989
 20
1869.14052747432
 30
0.0
 40
5.745947307903493
100
AcDbArc
 50
273.3367468602529
 51
290.466009098098
  0
ARC
  5
5340E
330
18
100
AcDbEntity
  8
OUTLINE
100
AcDbCircle
 10
-257.0101160642701
 20
1861.157736433649
 30
0.0
 40
5.747936133795898
100
AcDbArc
 50
69.53036495740768
 51
86.49839241495373
  0
ARC
  5
5340F
330
18
100
AcDbEntity
  8
OUTLINE
100
AcDbCircle
 10
-252.9962790064528
 20
1861.209964831971
 30
0.0
 40
5.694169056587147
100
AcDbArc
 50
69.47702039995637
 51
87.61396926510412
  0
LINE
  5
53410
330
18
100
AcDbEntity
  8
OUTLINE
  6
Continuous
 48
30.0
100
AcDbLine
 10
-255.0
 20
1866.542734410097
 30
0.0
 11
-253.0000000002983
 21
1866.900000000097
 31
0.0
  0
LINE
  5
53411
330
18
100
AcDbEntity
  8
OUTLINE
  6
Continuous
 48
30.0
100
AcDbLine
 10
-259.0
 20
1866.542734410097
 30
0.0
 11
-257.0000000002983
 21
1866.900000000097
 31
0.0
  0
LINE
  5
53412
330
18
100
AcDbEntity
  8
OUTLINE
  6
Continuous
 48
30.0
100
AcDbLine
 10
-259.0
 20
1866.899999999998
 30
0.0
 11
-250.9999999998981
 21
1866.899999999998
 31
0.0
  0
LINE
  5
53413
330
18
100
AcDbEntity
  8
OUTLINE
  6
Continuous
 48
30.0
100
AcDbLine
 10
-259.0
 20
1863.757265589899
 30
0.0
 11
-257.0000000002983
 21
1863.399999999998
 31
0.0
  0
LINE
  5
53414
330
18
100
AcDbEntity
  8
OUTLINE
  6
Continuous
 48
30.0
100
AcDbLine
 10
-255.0
 20
1863.757265589899
 30
0.0
 11
-253.0000000002983
 21
1863.399999999998
 31
0.0
  0
LINE
  5
53415
330
18
100
AcDbEntity
  8
OUTLINE
  6
Continuous
 48
30.0
100
AcDbLine
 10
-259.0
 20
1863.399999999998
 30
0.0
 11
-259.0
 21
1866.900000000097
 31
0.0
  0
LINE
  5
53416
330
18
100
AcDbEntity
  8
OUTLINE
  6
Continuous
 48
30.0
100
AcDbLine
 10
-255.0
 20
1863.757265589899
 30
0.0
 11
-255.0
 21
1866.542734410097
 31
0.0
  0
LINE
  5
53417
330
18
100
AcDbEntity
  8
OUTLINE
  6
Continuous
 48
30.0
100
AcDbLine
 10
-251.0
 20
1863.399999999998
 30
0.0
 11
-251.0
 21
1866.900000000097
 31
0.0
  0
ARC
  5
53418
330
18
100
AcDbEntity
  8
OUTLINE
100
AcDbCircle
 10
-306.9988076016993
 20
1869.096385419031
 30
0.0
 40
5.701002752011445
100
AcDbArc
 50
272.9567513624492
 51
290.524404901412
  0
ARC
  5
53419
330
18
100
AcDbEntity
  8
OUTLINE
100
AcDbCircle
 10
-303.0090798761989
 20
1869.14052747432
 30
0.0
 40
5.745947307903493
100
AcDbArc
 50
273.3367468602529
 51
290.466009098098
  0
ARC
  5
5341A
330
18
100
AcDbEntity
  8
OUTLINE
100
AcDbCircle
 10
-307.0101160642701
 20
1861.157736433649
 30
0.0
 40
5.747936133795898
100
AcDbArc
 50
69.53036495740768
 51
86.49839241495373
  0
ARC
  5
5341B
330
18
100
AcDbEntity
  8
OUTLINE
100
AcDbCircle
 10
-302.9962790064528
 20
1861.209964831971
 30
0.0
 40
5.694169056587147
100
AcDbArc
 50
69.47702039995637
 51
87.61396926510412
  0
LINE
  5
5341C
330
18
100
AcDbEntity
  8
OUTLINE
  6
Continuous
 48
30.0
100
AcDbLine
 10
-305.0
 20
1866.542734410097
 30
0.0
 11
-303.0000000002983
 21
1866.900000000097
 31
0.0
  0
LINE
  5
5341D
330
18
100
AcDbEntity
  8
OUTLINE
  6
Continuous
 48
30.0
100
AcDbLine
 10
-309.0
 20
1866.542734410097
 30
0.0
 11
-307.0000000002983
 21
1866.900000000097
 31
0.0
  0
LINE
  5
5341E
330
18
100
AcDbEntity
  8
OUTLINE
  6
Continuous
 48
30.0
100
AcDbLine
 10
-309.0
 20
1866.899999999998
 30
0.0
 11
-300.9999999998981
 21
1866.899999999998
 31
0.0
  0
LINE
  5
5341F
330
18
100
AcDbEntity
  8
OUTLINE
  6
Continuous
 48
30.0
100
AcDbLine
 10
-309.0
 20
1863.757265589899
 30
0.0
 11
-307.0000000002983
 21
1863.399999999998
 31
0.0
  0
LINE
  5
53420
330
18
100
AcDbEntity
  8
OUTLINE
  6
Continuous
 48
30.0
100
AcDbLine
 10
-305.0
 20
1863.757265589899
 30
0.0
 11
-303.0000000002983
 21
1863.399999999998
 31
0.0
  0
LINE
  5
53421
330
18
100
AcDbEntity
  8
OUTLINE
  6
Continuous
 48
30.0
100
AcDbLine
 10
-309.0
 20
1863.399999999998
 30
0.0
 11
-309.0
 21
1866.900000000097
 31
0.0
  0
LINE
  5
53422
330
18
100
AcDbEntity
  8
OUTLINE
  6
Continuous
 48
30.0
100
AcDbLine
 10
-305.0
 20
1863.757265589899
 30
0.0
 11
-305.0
 21
1866.542734410097
 31
0.0
  0
LINE
  5
53423
330
18
100
AcDbEntity
  8
OUTLINE
  6
Continuous
 48
30.0
100
AcDbLine
 10
-301.0
 20
1863.399999999998
 30
0.0
 11
-301.0
 21
1866.900000000097
 31
0.0
  0
LINE
  5
53458
330
18
100
AcDbEntity
  8
OUTLINE
  6
Continuous
 48
30.0
100
AcDbLine
 10
565.0
 20
1726.199999999999
 30
0.0
 11
565.0
 21
1858.8
 31
0.0
  0
ARC
  5
5345D
330
18
100
AcDbEntity
  8
OUTLINE
  6
Continuous
 48
30.0
100
AcDbCircle
 10
563.7999999999956
 20
1726.200000000001
 30
0.0
 40
1.200000000001182
100
AcDbArc
 50
270.0
 51
359.9999999998958
  0
ARC
  5
5345E
330
18
100
AcDbEntity
  8
OUTLINE
  6
Continuous
 48
30.0
100
AcDbCircle
 10
563.7999999999956
 20
1723.799999999994
 30
0.0
 40
1.200000000004366
100
AcDbArc
 50
0.0000000002084408
 51
89.99999999979158
  0
ARC
  5
534AF
330
18
100
AcDbEntity
  8
OUTLINE
  6
Continuous
 48
30.0
100
AcDbCircle
 10
563.7999999999956
 20
1858.799999999996
 30
0.0
 40
1.200000000004366
100
AcDbArc
 50
0.0000000002084408
 51
89.99999999979158
  0
CIRCLE
  5
535DE
330
18
100
AcDbEntity
  8
ARRANGE
  6
Continuous
 62
     1
100
AcDbCircle
 10
0.0
 20
0.0
 30
0.0
 40
40.0
  0
LINE
  5
535DF
330
18
100
AcDbEntity
  8
ARRANGE
  6
Continuous
 62
     1
100
AcDbLine
 10
-39.59797974644789
 20
39.59797974644607
 30
0.0
 11
39.59797974644789
 21
-39.59797974644789
 31
0.0
  0
LINE
  5
535E0
330
18
100
AcDbEntity
  8
ARRANGE
  6
Continuous
 62
     1
100
AcDbLine
 10
39.59797974644789
 20
39.59797974644607
 30
0.0
 11
-39.59797974644789
 21
-39.59797974644789
 31
0.0
  0
ENDSEC
  0
SECTION
  2
OBJECTS
  0
DICTIONARY
  5
C
330
0
100
AcDbDictionary
281
     1
  3
ACAD_CIP_PREVIOUS_PRODUCT_INFO
350
53530
  3
ACAD_COLOR
350
53513
  3
ACAD_DETAILVIEWSTYLE
350
5352C
  3
ACAD_GROUP
350
D
  3
ACAD_LAYOUT
350
FD9
  3
ACAD_MATERIAL
350
534E1
  3
ACAD_MLEADERSTYLE
350
53528
  3
ACAD_MLINESTYLE
350
1B
  3
ACAD_PLOTSETTINGS
350
FDA
  3
ACAD_PLOTSTYLENAME
350
FD7
  3
ACAD_SCALELIST
350
53516
  3
ACAD_SECTIONVIEWSTYLE
350
5352A
  3
ACAD_TABLESTYLE
350
53514
  3
ACAD_VISUALSTYLE
350
534FA
  3
ACDB_RECOMPOSE_DATA
350
535E3
  3
ACDBVARIABLEDICTIONARY
350
50B28
  3
DWGPROPS
350
535E4
  0
DICTIONARY
  5
53533
330
E
100
AcDbDictionary
280
     1
281
     1
  3
ADSK_XREC_LAYER_RECONCILED
360
53534
  0
DICTIONARY
  5
53535
330
1F
100
AcDbDictionary
280
     1
281
     1
  3
ADSK_XREC_LAYER_RECONCILED
360
53536
  0
DICTIONARY
  5
53537
330
23
100
AcDbDictionary
280
     1
281
     1
  3
ADSK_XREC_LAYER_RECONCILED
360
53538
  0
DICTIONARY
  5
53539
330
24
100
AcDbDictionary
280
     1
281
     1
  3
ADSK_XREC_LAYER_RECONCILED
360
5353A
  0
DICTIONARY
  5
5353B
330
25
100
AcDbDictionary
280
     1
281
     1
  3
ADSK_XREC_LAYER_RECONCILED
360
5353C
  0
DICTIONARY
  5
5353D
330
26
100
AcDbDictionary
280
     1
281
     1
  3
ADSK_XREC_LAYER_RECONCILED
360
5353E
  0
DICTIONARY
  5
5353F
330
27
100
AcDbDictionary
280
     1
281
     1
  3
ADSK_XREC_LAYER_RECONCILED
360
53540
  0
DICTIONARY
  5
53541
330
28
100
AcDbDictionary
280
     1
281
     1
  3
ADSK_XREC_LAYER_RECONCILED
360
53542
  0
DICTIONARY
  5
53543
330
2A
100
AcDbDictionary
280
     1
281
     1
  3
ADSK_XREC_LAYER_RECONCILED
360
53544
  0
DICTIONARY
  5
534DB
330
18
100
AcDbDictionary
280
     1
281
     1
  3
ACAD_LAYOUTSELFREF
360
534DC
  0
DICTIONARY
  5
534D9
330
15
100
AcDbDictionary
280
     1
281
     1
  3
ACAD_LAYOUTSELFREF
360
534DA
  0
XRECORD
  5
53530
102
{ACAD_REACTORS
330
C
102
}
330
C
100
AcDbXrecord
280
     1
300
ACD
300
2018
300
ACD_F_S
  0
DICTIONARY
  5
53513
102
{ACAD_REACTORS
330
C
102
}
330
C
100
AcDbDictionary
281
     1
  0
DICTIONARY
  5
5352C
102
{ACAD_REACTORS
330
C
102
}
330
C
100
AcDbDictionary
281
     1
  3
Imperial24
350
5352D
  0
DICTIONARY
  5
D
102
{ACAD_REACTORS
330
C
102
}
330
C
100
AcDbDictionary
281
     1
  0
DICTIONARY
  5
FD9
102
{ACAD_REACTORS
330
C
102
}
330
C
100
AcDbDictionary
281
     1
  3
Model
350
5352E
  3
レイアウト1
350
5352F
  0
DICTIONARY
  5
534E1
102
{ACAD_REACTORS
330
C
102
}
330
C
100
AcDbDictionary
281
     1
  3
ByBlock
350
534EA
  3
ByLayer
350
534E2
  3
Global
350
534F2
  0
DICTIONARY
  5
53528
102
{ACAD_REACTORS
330
C
102
}
330
C
100
AcDbDictionary
281
     1
  3
Standard
350
53529
  0
DICTIONARY
  5
1B
102
{ACAD_REACTORS
330
C
102
}
330
C
100
AcDbDictionary
281
     1
  3
STANDARD
350
1C
  0
DICTIONARY
  5
FDA
102
{ACAD_REACTORS
330
C
102
}
330
C
100
AcDbDictionary
281
     1
  0
ACDBDICTIONARYWDFLT
  5
FD7
102
{ACAD_REACTORS
330
C
102
}
330
C
100
AcDbDictionary
281
     1
  3
Normal
350
FD8
100
AcDbDictionaryWithDefault
340
FD8
  0
DICTIONARY
  5
53516
102
{ACAD_REACTORS
330
C
102
}
330
C
100
AcDbDictionary
281
     1
  3
A0
350
53517
  3
A1
350
53518
  3
A2
350
53519
  3
A3
350
5351A
  3
A4
350
5351B
  3
A5
350
5351C
  3
A6
350
5351D
  3
A7
350
5351E
  3
A8
350
5351F
  3
A9
350
53520
  3
B0
350
53521
  3
B1
350
53522
  3
B2
350
53523
  3
B3
350
53524
  3
B4
350
53525
  3
B5
350
53526
  3
B6
350
53527
  0
DICTIONARY
  5
5352A
102
{ACAD_REACTORS
330
C
102
}
330
C
100
AcDbDictionary
281
     1
  3
Imperial24
350
5352B
  0
DICTIONARY
  5
53514
102
{ACAD_REACTORS
330
C
102
}
330
C
100
AcDbDictionary
281
     1
  3
Standard
350
53515
  0
DICTIONARY
  5
534FA
102
{ACAD_REACTORS
330
C
102
}
330
C
100
AcDbDictionary
281
     1
  3
2dWireframe
350
53500
  3
Basic
350
534FF
  3
Brighten
350
53506
  3
ColorChange
350
5350A
  3
Conceptual
350
53503
  3
Dim
350
53505
  3
EdgeColorOff
350
53512
  3
Facepattern
350
53509
  3
Flat
350
534FB
  3
FlatWithEdges
350
534FC
  3
Gouraud
350
534FD
  3
GouraudWithEdges
350
534FE
  3
Hidden
350
53502
  3
JitterOff
350
53510
  3
Linepattern
350
53508
  3
OverhangOff
350
53511
  3
Realistic
350
53504
  3
Shaded
350
5350F
  3
Shaded with edges
350
5350E
  3
Shades of Gray
350
5350B
  3
Sketchy
350
5350C
  3
Thicken
350
53507
  3
Wireframe
350
53501
  3
X-Ray
350
5350D
  0
XRECORD
  5
535E3
102
{ACAD_REACTORS
330
C
102
}
330
C
100
AcDbXrecord
280
     1
 90
        1
330
53515
  0
DICTIONARY
  5
50B28
102
{ACAD_REACTORS
330
C
102
}
330
C
100
AcDbDictionary
281
     1
  3
CANNOSCALE
350
53549
  3
CMLEADERSTYLE
350
53546
  3
CTABLESTYLE
350
53545
  3
CVIEWDETAILSTYLE
350
53547
  3
CVIEWSECTIONSTYLE
350
53548
  3
DIMASSOC
350
5354B
  3
INDEXCTL
350
5354A
  3
SORTENTS
350
50B29
  3
XCLIPFRAME
350
535E1
  0
XRECORD
  5
535E4
102
{ACAD_REACTORS
330
C
102
}
330
C
100
AcDbXrecord
280
     1
  1
DWGPROPS COOKIE
  2

  3

  4

  6

  7

  8
proy_uebo
  9

300
=
301
=
302
=
303
=
304
=
305
=
306
=
307
=
308
=
309
=
 40
6.722946192129629
 41
2449761.493622685
 42
2458113.631238426
  1

 90
        0
  0
XRECORD
  5
53534
102
{ACAD_REACTORS
330
53533
102
}
330
53533
100
AcDbXrecord
280
     1
290
     1
  0
XRECORD
  5
53536
102
{ACAD_REACTORS
330
53535
102
}
330
53535
100
AcDbXrecord
280
     1
290
     1
  0
XRECORD
  5
53538
102
{ACAD_REACTORS
330
53537
102
}
330
53537
100
AcDbXrecord
280
     1
290
     1
  0
XRECORD
  5
5353A
102
{ACAD_REACTORS
330
53539
102
}
330
53539
100
AcDbXrecord
280
     1
290
     1
  0
XRECORD
  5
5353C
102
{ACAD_REACTORS
330
5353B
102
}
330
5353B
100
AcDbXrecord
280
     1
290
     1
  0
XRECORD
  5
5353E
102
{ACAD_REACTORS
330
5353D
102
}
330
5353D
100
AcDbXrecord
280
     1
290
     1
  0
XRECORD
  5
53540
102
{ACAD_REACTORS
330
5353F
102
}
330
5353F
100
AcDbXrecord
280
     1
290
     1
  0
XRECORD
  5
53542
102
{ACAD_REACTORS
330
53541
102
}
330
53541
100
AcDbXrecord
280
     1
290
     1
  0
XRECORD
  5
53544
102
{ACAD_REACTORS
330
53543
102
}
330
53543
100
AcDbXrecord
280
     1
290
     1
  0
XRECORD
  5
534DC
102
{ACAD_REACTORS
330
534DB
102
}
330
534DB
100
AcDbXrecord
280
     1
340
18
  0
XRECORD
  5
534DA
102
{ACAD_REACTORS
330
534D9
102
}
330
534D9
100
AcDbXrecord
280
     1
340
15
  0
ACDBDETAILVIEWSTYLE
  5
5352D
102
{ACAD_XDICTIONARY
360
53618
102
}
102
{ACAD_REACTORS
330
5352C
102
}
330
5352C
100
AcDbModelDocViewStyle
 70
     0
  3
Imperial24
290
     0
100
AcDbDetailViewStyle
 70
     0
 71
     0
 90
        3
 71
     1
340
F
 40
0.24
340
0
 40
0.24
300

 40
0.36
280
     3
 71
     2
340
14
 90
       25
 71
     3
340
F
 40
0.24
 90
        1
 40
0.75
 90
        1
300
%<\AcVar ViewType \f "%tc1">% %<\AcVar ViewDetailId>%\PSCALE %<\AcVar ViewScale \f "%sn">%
 71
     4
340
14
 90
       25
340
14
 90
       25
280
     0
  0
LAYOUT
  5
5352E
102
{ACAD_XDICTIONARY
360
5361A
102
}
102
{ACAD_REACTORS
330
FD9
102
}
330
FD9
100
AcDbPlotSettings
  1

  2
Microsoft XPS Document Writer
  4
A4
  6

 40
3.174999952316283
 41
3.174999952316283
 42
3.175003051757812
 43
3.17498779296875
 44
210.0156707763672
 45
297.0106506347656
 46
0.0
 47
0.0
 48
0.0
 49
0.0
140
0.0
141
0.0
142
1.0
143
1070.349721301006
 70
 11952
 72
     0
 73
     1
 74
     0
  7

 75
     0
147
0.0009342740789286
148
79515.19599512713
149
46859.67597334005
100
AcDbLayout
  1
Model
 70
     1
 71
     0
 10
0.0
 20
0.0
 11
12.0
 21
9.0
 12
0.0
 22
0.0
 32
0.0
 14
0.0
 24
0.0
 34
0.0
 15
0.0
 25
0.0
 35
0.0
146
0.0
 13
0.0
 23
0.0
 33
0.0
 16
1.0
 26
0.0
 36
0.0
 17
0.0
 27
1.0
 37
0.0
 76
     0
330
18
331
534B7
1001
ACAD_PSEXT
1000
Microsoft XPS Document Writer
1000
Microsoft XPS Document Writer
1000
XPSPort:
1000

1070
     0
  0
LAYOUT
  5
5352F
102
{ACAD_XDICTIONARY
360
5361C
102
}
102
{ACAD_REACTORS
330
FD9
102
}
330
FD9
100
AcDbPlotSettings
  1

  2
Microsoft XPS Document Writer
  4

  6

 40
0.0
 41
0.0
 42
0.0
 43
0.0
 44
0.0
 45
0.0
 46
0.0
 47
0.0
 48
0.0
 49
0.0
140
0.0
141
0.0
142
1.0
143
1.0
 70
   688
 72
     0
 73
     0
 74
     5
  7

 75
    16
147
1.0
148
0.0
149
0.0
100
AcDbLayout
  1
レイアウト1
 70
     1
 71
     1
 10
0.0
 20
0.0
 11
12.0
 21
9.0
 12
0.0
 22
0.0
 32
0.0
 14
1.000000000000000E+20
 24
1.000000000000000E+20
 34
1.000000000000000E+20
 15
-1.000000000000000E+20
 25
-1.000000000000000E+20
 35
-1.000000000000000E+20
146
0.0
 13
0.0
 23
0.0
 33
0.0
 16
1.0
 26
0.0
 36
0.0
 17
0.0
 27
1.0
 37
0.0
 76
     0
330
15
  0
MATERIAL
  5
534EA
102
{ACAD_XDICTIONARY
360
534EB
102
}
102
{ACAD_REACTORS
330
534E1
102
}
330
534E1
100
AcDbMaterial
  1
ByBlock
 72
     0
 43
0.0208333333333333
 43
0.0
 43
0.0
 43
0.0
 43
0.0
 43
0.0208333333333333
 43
0.0
 43
0.0
 43
0.0
 43
0.0
 43
1.0
 43
0.0
 43
0.0
 43
0.0
 43
0.0
 43
1.0
 77
     0
 47
0.0208333333333333
 47
0.0
 47
0.0
 47
0.0
 47
0.0
 47
0.0208333333333333
 47
0.0
 47
0.0
 47
0.0
 47
0.0
 47
1.0
 47
0.0
 47
0.0
 47
0.0
 47
0.0
 47
1.0
171
     0
 49
0.0208333333333333
 49
0.0
 49
0.0
 49
0.0
 49
0.0
 49
0.0208333333333333
 49
0.0
 49
0.0
 49
0.0
 49
0.0
 49
1.0
 49
0.0
 49
0.0
 49
0.0
 49
0.0
 49
1.0
175
     0
142
0.0208333333333333
142
0.0
142
0.0
142
0.0
142
0.0
142
0.0208333333333333
142
0.0
142
0.0
142
0.0
142
0.0
142
1.0
142
0.0
142
0.0
142
0.0
142
0.0
142
1.0
179
     0
144
0.0208333333333333
144
0.0
144
0.0
144
0.0
144
0.0
144
0.0208333333333333
144
0.0
144
0.0
144
0.0
144
0.0
144
1.0
144
0.0
144
0.0
144
0.0
144
0.0
144
1.0
147
0.0208333333333333
147
0.0
147
0.0
147
0.0
147
0.0
147
0.0208333333333333
147
0.0
147
0.0
147
0.0
147
0.0
147
1.0
147
0.0
147
0.0
147
0.0
147
0.0
147
1.0
  0
MATERIAL
  5
534E2
102
{ACAD_XDICTIONARY
360
534E3
102
}
102
{ACAD_REACTORS
330
534E1
102
}
330
534E1
100
AcDbMaterial
  1
ByLayer
 72
     0
 43
0.0208333333333333
 43
0.0
 43
0.0
 43
0.0
 43
0.0
 43
0.0208333333333333
 43
0.0
 43
0.0
 43
0.0
 43
0.0
 43
1.0
 43
0.0
 43
0.0
 43
0.0
 43
0.0
 43
1.0
 77
     0
 47
0.0208333333333333
 47
0.0
 47
0.0
 47
0.0
 47
0.0
 47
0.0208333333333333
 47
0.0
 47
0.0
 47
0.0
 47
0.0
 47
1.0
 47
0.0
 47
0.0
 47
0.0
 47
0.0
 47
1.0
171
     0
 49
0.0208333333333333
 49
0.0
 49
0.0
 49
0.0
 49
0.0
 49
0.0208333333333333
 49
0.0
 49
0.0
 49
0.0
 49
0.0
 49
1.0
 49
0.0
 49
0.0
 49
0.0
 49
0.0
 49
1.0
175
     0
142
0.0208333333333333
142
0.0
142
0.0
142
0.0
142
0.0
142
0.0208333333333333
142
0.0
142
0.0
142
0.0
142
0.0
142
1.0
142
0.0
142
0.0
142
0.0
142
0.0
142
1.0
179
     0
144
0.0208333333333333
144
0.0
144
0.0
144
0.0
144
0.0
144
0.0208333333333333
144
0.0
144
0.0
144
0.0
144
0.0
144
1.0
144
0.0
144
0.0
144
0.0
144
0.0
144
1.0
147
0.0208333333333333
147
0.0
147
0.0
147
0.0
147
0.0
147
0.0208333333333333
147
0.0
147
0.0
147
0.0
147
0.0
147
1.0
147
0.0
147
0.0
147
0.0
147
0.0
147
1.0
  0
MATERIAL
  5
534F2
102
{ACAD_XDICTIONARY
360
534F3
102
}
102
{ACAD_REACTORS
330
534E1
102
}
330
534E1
100
AcDbMaterial
  1
Global
 72
     0
 43
0.0208333333333333
 43
0.0
 43
0.0
 43
0.0
 43
0.0
 43
0.0208333333333333
 43
0.0
 43
0.0
 43
0.0
 43
0.0
 43
1.0
 43
0.0
 43
0.0
 43
0.0
 43
0.0
 43
1.0
 77
     0
 47
0.0208333333333333
 47
0.0
 47
0.0
 47
0.0
 47
0.0
 47
0.0208333333333333
 47
0.0
 47
0.0
 47
0.0
 47
0.0
 47
1.0
 47
0.0
 47
0.0
 47
0.0
 47
0.0
 47
1.0
171
     0
 49
0.0208333333333333
 49
0.0
 49
0.0
 49
0.0
 49
0.0
 49
0.0208333333333333
 49
0.0
 49
0.0
 49
0.0
 49
0.0
 49
1.0
 49
0.0
 49
0.0
 49
0.0
 49
0.0
 49
1.0
175
     0
142
0.0208333333333333
142
0.0
142
0.0
142
0.0
142
0.0
142
0.0208333333333333
142
0.0
142
0.0
142
0.0
142
0.0
142
1.0
142
0.0
142
0.0
142
0.0
142
0.0
142
1.0
179
     0
144
0.0208333333333333
144
0.0
144
0.0
144
0.0
144
0.0
144
0.0208333333333333
144
0.0
144
0.0
144
0.0
144
0.0
144
1.0
144
0.0
144
0.0
144
0.0
144
0.0
144
1.0
147
0.0208333333333333
147
0.0
147
0.0
147
0.0
147
0.0
147
0.0208333333333333
147
0.0
147
0.0
147
0.0
147
0.0
147
1.0
147
0.0
147
0.0
147
0.0
147
0.0
147
1.0
  0
MLEADERSTYLE
  5
53529
102
{ACAD_REACTORS
330
53528
102
}
330
53528
100
AcDbMLeaderStyle
170
     2
171
     1
172
     0
 90
        2
 40
0.0
 41
0.0
173
     1
 91
-1056964608
340
12
 92
       -2
290
     1
 42
0.09
291
     1
 43
0.36
  3
Standard
 44
0.18
300

342
F
174
     1
178
     6
175
     1
176
     0
 93
-1056964608
 45
0.18
292
     0
297
     0
 46
0.18
 94
-1056964608
 47
1.0
 49
1.0
140
1.0
293
     1
141
0.0
294
     1
177
     0
142
1.0
295
     0
296
     0
143
0.125
1001
ACAD_MLEADERVER
1070
     2
  0
MLINESTYLE
  5
1C
102
{ACAD_REACTORS
330
1B
102
}
330
1B
100
AcDbMlineStyle
  2
STANDARD
 70
     0
  3

 62
   256
 51
90.0
 52
90.0
 71
     2
 49
0.5
 62
   256
  6
BYLAYER
 49
-0.5
 62
   256
  6
BYLAYER
  0
ACDBPLACEHOLDER
  5
FD8
102
{ACAD_REACTORS
330
FD7
102
}
330
FD7
  0
SCALE
  5
53517
102
{ACAD_REACTORS
330
53516
102
}
330
53516
100
AcDbScale
 70
     0
300
1:1
140
1.0
141
1.0
290
     1
  0
SCALE
  5
53518
102
{ACAD_REACTORS
330
53516
102
}
330
53516
100
AcDbScale
 70
     0
300
1/128" = 1'-0"
140
0.0078125
141
12.0
290
     0
  0
SCALE
  5
53519
102
{ACAD_REACTORS
330
53516
102
}
330
53516
100
AcDbScale
 70
     0
300
1/64" = 1'-0"
140
0.015625
141
12.0
290
     0
  0
SCALE
  5
5351A
102
{ACAD_REACTORS
330
53516
102
}
330
53516
100
AcDbScale
 70
     0
300
1/32" = 1'-0"
140
0.03125
141
12.0
290
     0
  0
SCALE
  5
5351B
102
{ACAD_REACTORS
330
53516
102
}
330
53516
100
AcDbScale
 70
     0
300
1/16" = 1'-0"
140
0.0625
141
12.0
290
     0
  0
SCALE
  5
5351C
102
{ACAD_REACTORS
330
53516
102
}
330
53516
100
AcDbScale
 70
     0
300
3/32" = 1'-0"
140
0.09375
141
12.0
290
     0
  0
SCALE
  5
5351D
102
{ACAD_REACTORS
330
53516
102
}
330
53516
100
AcDbScale
 70
     0
300
1/8" = 1'-0"
140
0.125
141
12.0
290
     0
  0
SCALE
  5
5351E
102
{ACAD_REACTORS
330
53516
102
}
330
53516
100
AcDbScale
 70
     0
300
3/16" = 1'-0"
140
0.1875
141
12.0
290
     0
  0
SCALE
  5
5351F
102
{ACAD_REACTORS
330
53516
102
}
330
53516
100
AcDbScale
 70
     0
300
1/4" = 1'-0"
140
0.25
141
12.0
290
     0
  0
SCALE
  5
53520
102
{ACAD_REACTORS
330
53516
102
}
330
53516
100
AcDbScale
 70
     0
300
3/8" = 1'-0"
140
0.375
141
12.0
290
     0
  0
SCALE
  5
53521
102
{ACAD_REACTORS
330
53516
102
}
330
53516
100
AcDbScale
 70
     0
300
1/2" = 1'-0"
140
0.5
141
12.0
290
     0
  0
SCALE
  5
53522
102
{ACAD_REACTORS
330
53516
102
}
330
53516
100
AcDbScale
 70
     0
300
3/4" = 1'-0"
140
0.75
141
12.0
290
     0
  0
SCALE
  5
53523
102
{ACAD_REACTORS
330
53516
102
}
330
53516
100
AcDbScale
 70
     0
300
1" = 1'-0"
140
1.0
141
12.0
290
     0
  0
SCALE
  5
53524
102
{ACAD_REACTORS
330
53516
102
}
330
53516
100
AcDbScale
 70
     0
300
1-1/2" = 1'-0"
140
1.5
141
12.0
290
     0
  0
SCALE
  5
53525
102
{ACAD_REACTORS
330
53516
102
}
330
53516
100
AcDbScale
 70
     0
300
3" = 1'-0"
140
3.0
141
12.0
290
     0
  0
SCALE
  5
53526
102
{ACAD_REACTORS
330
53516
102
}
330
53516
100
AcDbScale
 70
     0
300
6" = 1'-0"
140
6.0
141
12.0
290
     0
  0
SCALE
  5
53527
102
{ACAD_REACTORS
330
53516
102
}
330
53516
100
AcDbScale
 70
     0
300
1'-0" = 1'-0"
140
12.0
141
12.0
290
     0
  0
ACDBSECTIONVIEWSTYLE
  5
5352B
102
{ACAD_XDICTIONARY
360
53616
102
}
102
{ACAD_REACTORS
330
5352A
102
}
330
5352A
100
AcDbModelDocViewStyle
 70
     0
  3
Imperial24
290
     0
100
AcDbSectionViewStyle
 70
     0
 71
     0
 90
       78
 71
     1
340
F
 40
0.24
340
0
340
0
 40
0.24
300
I, O, Q, S, X, Z
 40
0.48
 90
        3
 40
0.18
 90
        1
 71
     2
340
14
 90
       25
340
14
 90
       50
 40
0.24
 40
0.0
 40
0.24
 71
     3
340
F
 40
0.24
 90
        1
 40
0.75
 90
        1
300
%<\AcVar ViewType \f "%tc1">% %<\AcVar ViewSectionStartId>%-%<\AcVar ViewSectionEndId>%\PSCALE %<\AcVar ViewScale \f "%sn">%
 71
     4
300
ANSI31
 40
1.0
 90
        0
290
     0
290
     0
 90
        6
 40
0.0
 40
1.570796326794896
 40
0.2617993877991494
 40
1.308996938995747
 40
-0.2617993877991494
 40
1.832595714594044
  0
TABLESTYLE
  5
53515
102
{ACAD_XDICTIONARY
360
5354E
102
}
102
{ACAD_REACTORS
330
53514
102
}
330
53514
100
AcDbTableStyle
  3
Standard
 70
     0
 71
     0
 40
0.06
 41
0.06
280
     0
281
     0
  7
STANDARD
140
0.18
170
     2
 62
     0
 63
     7
283
     0
274
    -2
284
     1
 64
     0
275
    -2
285
     1
 65
     0
276
    -2
286
     1
 66
     0
277
    -2
287
     1
 67
     0
278
    -2
288
     1
 68
     0
279
    -2
289
     1
 69
     0
  7
STANDARD
140
0.25
170
     5
 62
     0
 63
     7
283
     0
274
    -2
284
     1
 64
     0
275
    -2
285
     1
 65
     0
276
    -2
286
     1
 66
     0
277
    -2
287
     1
 67
     0
278
    -2
288
     1
 68
     0
279
    -2
289
     1
 69
     0
  7
STANDARD
140
0.18
170
     5
 62
     0
 63
     7
283
     0
274
    -2
284
     1
 64
     0
275
    -2
285
     1
 65
     0
276
    -2
286
     1
 66
     0
277
    -2
287
     1
 67
     0
278
    -2
288
     1
 68
     0
279
    -2
289
     1
 69
     0
  0
VISUALSTYLE
  5
53500
102
{ACAD_XDICTIONARY
360
535EF
102
}
102
{ACAD_REACTORS
330
534FA
102
}
330
534FA
100
AcDbVisualStyle
  2

 70
     4
 71
     0
 72
     2
 73
     0
 90
        0
 40
-0.6
 41
-30.0
 62
     5
 63
     7
 74
     1
 91
        4
 64
     7
 65
   257
 75
     1
175
     1
 42
1.0
 92
        0
 66
   257
 43
1.0
 76
     1
 77
     6
 78
     2
 67
     7
 79
     5
170
     0
171
     0
290
     0
174
     0
 93
        1
 44
0.0
173
     0
291
     0
 45
0.0
1001
ACAD
1000
AcDbSavedByObjectVersion
1070
     0
  0
VISUALSTYLE
  5
534FF
102
{ACAD_XDICTIONARY
360
535ED
102
}
102
{ACAD_REACTORS
330
534FA
102
}
330
534FA
100
AcDbVisualStyle
  2

 70
     7
 71
     1
 72
     0
 73
     1
 90
        0
 40
-0.6
 41
-30.0
 62
     5
 63
     7
 74
     0
 91
        4
 64
     7
 65
   257
 75
     1
175
     1
 42
1.0
 92
        8
 66
     7
 43
1.0
 76
     1
 77
     6
 78
     2
 67
     7
 79
     5
170
     0
171
     0
290
     0
174
     0
 93
        1
 44
0.0
173
     0
291
     1
 45
0.0
1001
ACAD
1000
AcDbSavedByObjectVersion
1070
     0
  0
VISUALSTYLE
  5
53506
102
{ACAD_XDICTIONARY
360
535FB
102
}
102
{ACAD_REACTORS
330
534FA
102
}
330
534FA
100
AcDbVisualStyle
  2

 70
    12
 71
     2
 72
     2
 73
     0
 90
        0
 40
-0.6
 41
-30.0
 62
     5
 63
     7
 74
     1
 91
        4
 64
     7
 65
   257
 75
     1
175
     1
 42
1.0
 92
        8
 66
     7
 43
1.0
 76
     1
 77
     6
 78
     2
 67
     7
 79
     5
170
     0
171
     0
290
     0
174
     0
 93
        1
 44
50.0
173
     0
291
     1
 45
0.0
1001
ACAD
1000
AcDbSavedByObjectVersion
1070
     0
  0
VISUALSTYLE
  5
5350A
102
{ACAD_XDICTIONARY
360
53603
102
}
102
{ACAD_REACTORS
330
534FA
102
}
330
534FA
100
AcDbVisualStyle
  2

 70
    16
 71
     2
 72
     2
 73
     3
 90
        0
 40
-0.6
 41
-30.0
 62
     5
 63
     8
 74
     1
 91
        4
 64
     7
 65
   257
 75
     1
175
     1
 42
1.0
 92
        8
 66
     8
 43
1.0
 76
     1
 77
     6
 78
     2
 67
     7
 79
     5
170
     0
171
     0
290
     0
174
     0
 93
        1
 44
0.0
173
     0
291
     1
 45
0.0
1001
ACAD
1000
AcDbSavedByObjectVersion
1070
     0
  0
VISUALSTYLE
  5
53503
102
{ACAD_XDICTIONARY
360
535F5
102
}
102
{ACAD_REACTORS
330
534FA
102
}
330
534FA
100
AcDbVisualStyle
  2

 70
     9
 71
     3
 72
     2
 73
     0
 90
        0
 40
-0.6
 41
-30.0
 62
     5
 63
     7
 74
     2
 91
        2
 64
     7
 65
   257
 75
     1
175
     1
 42
179.0
 92
        8
 66
     7
 43
1.0
 76
     1
 77
     6
 78
     2
 67
     7
 79
     3
170
     0
171
     0
290
     0
174
     0
 93
        1
 44
0.0
173
     0
291
     0
 45
0.0
1001
ACAD
1000
AcDbSavedByObjectVersion
1070
     0
  0
VISUALSTYLE
  5
53505
102
{ACAD_XDICTIONARY
360
535F9
102
}
102
{ACAD_REACTORS
330
534FA
102
}
330
534FA
100
AcDbVisualStyle
  2

 70
    11
 71
     2
 72
     2
 73
     0
 90
        0
 40
-0.6
 41
-30.0
 62
     5
 63
     7
 74
     1
 91
        4
 64
     7
 65
   257
 75
     1
175
     1
 42
1.0
 92
        8
 66
     7
 43
1.0
 76
     1
 77
     6
 78
     2
 67
     7
 79
     5
170
     0
171
     0
290
     0
174
     0
 93
        1
 44
-50.0
173
     0
291
     1
 45
0.0
1001
ACAD
1000
AcDbSavedByObjectVersion
1070
     0
  0
VISUALSTYLE
  5
53512
102
{ACAD_XDICTIONARY
360
53613
102
}
102
{ACAD_REACTORS
330
534FA
102
}
330
534FA
100
AcDbVisualStyle
  2

 70
    22
 71
     2
 72
     2
 73
     0
 90
        0
 40
-0.6
 41
-30.0
 62
     5
 63
     7
 74
     1
 91
        4
 64
     7
 65
   257
 75
     1
175
     1
 42
1.0
 92
        8
 66
     7
 43
1.0
 76
     1
 77
     6
 78
     2
 67
     7
 79
     5
170
     0
171
     0
290
     0
174
     0
 93
        1
 44
0.0
173
     0
291
     1
 45
0.0
1001
ACAD
1000
AcDbSavedByObjectVersion
1070
     0
  0
VISUALSTYLE
  5
53509
102
{ACAD_XDICTIONARY
360
53601
102
}
102
{ACAD_REACTORS
330
534FA
102
}
330
534FA
100
AcDbVisualStyle
  2

 70
    15
 71
     2
 72
     2
 73
     0
 90
        0
 40
-0.6
 41
-30.0
 62
     5
 63
     7
 74
     1
 91
        4
 64
     7
 65
   257
 75
     1
175
     1
 42
1.0
 92
        8
 66
     7
 43
1.0
 76
     1
 77
     6
 78
     2
 67
     7
 79
     5
170
     0
171
     0
290
     0
174
     0
 93
        1
 44
0.0
173
     0
291
     1
 45
0.0
1001
ACAD
1000
AcDbSavedByObjectVersion
1070
     0
  0
VISUALSTYLE
  5
534FB
102
{ACAD_XDICTIONARY
360
535E5
102
}
102
{ACAD_REACTORS
330
534FA
102
}
330
534FA
100
AcDbVisualStyle
  2

 70
     0
 71
     2
 72
     1
 73
     1
 90
        2
 40
-0.6
 41
30.0
 62
     5
 63
     7
 74
     0
 91
        0
 64
     7
 65
   257
 75
     1
175
     1
 42
1.0
 92
        8
 66
     7
 43
1.0
 76
     1
 77
     6
 78
     2
 67
     7
 79
     5
170
     0
171
     0
290
     0
174
     0
 93
       13
 44
0.0
173
     0
291
     1
 45
0.0
1001
ACAD
1000
AcDbSavedByObjectVersion
1070
     0
  0
VISUALSTYLE
  5
534FC
102
{ACAD_XDICTIONARY
360
535E7
102
}
102
{ACAD_REACTORS
330
534FA
102
}
330
534FA
100
AcDbVisualStyle
  2

 70
     1
 71
     2
 72
     1
 73
     1
 90
        2
 40
-0.6
 41
30.0
 62
     5
 63
     7
 74
     1
 91
        0
 64
     7
 65
   257
 75
     1
175
     1
 42
1.0
 92
        0
 66
   257
 43
1.0
 76
     1
 77
     6
 78
     2
 67
     7
 79
     5
170
     0
171
     0
290
     0
174
     0
 93
       13
 44
0.0
173
     0
291
     1
 45
0.0
1001
ACAD
1000
AcDbSavedByObjectVersion
1070
     0
  0
VISUALSTYLE
  5
534FD
102
{ACAD_XDICTIONARY
360
535E9
102
}
102
{ACAD_REACTORS
330
534FA
102
}
330
534FA
100
AcDbVisualStyle
  2

 70
     2
 71
     2
 72
     2
 73
     1
 90
        2
 40
-0.6
 41
30.0
 62
     5
 63
     7
 74
     0
 91
        0
 64
     7
 65
   257
 75
     1
175
     1
 42
1.0
 92
        0
 66
     7
 43
1.0
 76
     1
 77
     6
 78
     2
 67
     7
 79
     5
170
     0
171
     0
290
     0
174
     0
 93
       13
 44
0.0
173
     0
291
     1
 45
0.0
1001
ACAD
1000
AcDbSavedByObjectVersion
1070
     0
  0
VISUALSTYLE
  5
534FE
102
{ACAD_XDICTIONARY
360
535EB
102
}
102
{ACAD_REACTORS
330
534FA
102
}
330
534FA
100
AcDbVisualStyle
  2

 70
     3
 71
     2
 72
     2
 73
     1
 90
        2
 40
-0.6
 41
30.0
 62
     5
 63
     7
 74
     1
 91
        0
 64
     7
 65
   257
 75
     1
175
     1
 42
1.0
 92
        0
 66
   257
 43
1.0
 76
     1
 77
     6
 78
     2
 67
     7
 79
     5
170
     0
171
     0
290
     0
174
     0
 93
       13
 44
0.0
173
     0
291
     1
 45
0.0
1001
ACAD
1000
AcDbSavedByObjectVersion
1070
     0
  0
VISUALSTYLE
  5
53502
102
{ACAD_XDICTIONARY
360
535F3
102
}
102
{ACAD_REACTORS
330
534FA
102
}
330
534FA
100
AcDbVisualStyle
  2

 70
     6
 71
     1
 72
     2
 73
     2
 90
        0
 40
-0.6
 41
-30.0
 62
     5
 63
     7
 74
     2
 91
        2
 64
     7
 65
   257
 75
     2
175
     1
 42
40.0
 92
        0
 66
   257
 43
1.0
 76
     1
 77
     6
 78
     2
 67
     7
 79
     3
170
     0
171
     0
290
     0
174
     0
 93
        1
 44
0.0
173
     0
291
     0
 45
0.0
1001
ACAD
1000
AcDbSavedByObjectVersion
1070
     0
  0
VISUALSTYLE
  5
53510
102
{ACAD_XDICTIONARY
360
5360F
102
}
102
{ACAD_REACTORS
330
534FA
102
}
330
534FA
100
AcDbVisualStyle
  2

 70
    20
 71
     2
 72
     2
 73
     0
 90
        0
 40
-0.6
 41
-30.0
 62
     5
 63
     7
 74
     1
 91
        4
 64
     7
 65
   257
 75
     1
175
     1
 42
1.0
 92
       10
 66
     7
 43
1.0
 76
     1
 77
     6
 78
     2
 67
     7
 79
     5
170
     0
171
     0
290
     0
174
     0
 93
        1
 44
0.0
173
     0
291
     1
 45
0.0
1001
ACAD
1000
AcDbSavedByObjectVersion
1070
     0
  0
VISUALSTYLE
  5
53508
102
{ACAD_XDICTIONARY
360
535FF
102
}
102
{ACAD_REACTORS
330
534FA
102
}
330
534FA
100
AcDbVisualStyle
  2

 70
    14
 71
     2
 72
     2
 73
     0
 90
        0
 40
-0.6
 41
-30.0
 62
     5
 63
     7
 74
     1
 91
        4
 64
     7
 65
   257
 75
     7
175
     7
 42
1.0
 92
        8
 66
     7
 43
1.0
 76
     1
 77
     6
 78
     2
 67
     7
 79
     5
170
     0
171
     0
290
     0
174
     0
 93
        1
 44
0.0
173
     0
291
     1
 45
0.0
1001
ACAD
1000
AcDbSavedByObjectVersion
1070
     0
  0
VISUALSTYLE
  5
53511
102
{ACAD_XDICTIONARY
360
53611
102
}
102
{ACAD_REACTORS
330
534FA
102
}
330
534FA
100
AcDbVisualStyle
  2

 70
    21
 71
     2
 72
     2
 73
     0
 90
        0
 40
-0.6
 41
-30.0
 62
     5
 63
     7
 74
     1
 91
        4
 64
     7
 65
   257
 75
     1
175
     1
 42
1.0
 92
        9
 66
     7
 43
1.0
 76
     1
 77
     6
 78
     2
 67
     7
 79
     5
170
     0
171
     0
290
     0
174
     0
 93
        1
 44
0.0
173
     0
291
     1
 45
0.0
1001
ACAD
1000
AcDbSavedByObjectVersion
1070
     0
  0
VISUALSTYLE
  5
53504
102
{ACAD_XDICTIONARY
360
535F7
102
}
102
{ACAD_REACTORS
330
534FA
102
}
330
534FA
100
AcDbVisualStyle
  2

 70
     8
 71
     2
 72
     3
 73
     0
 90
        2
 40
-0.6
 41
30.0
 62
     5
 63
     7
 74
     0
 91
        0
 64
     7
 65
   257
 75
     1
175
     1
 42
1.0
 92
        8
 66
   257
 43
1.0
 76
     1
 77
     6
 78
     2
 67
     7
 79
     3
170
     0
171
     0
290
     0
174
     0
 93
       13
 44
0.0
173
     0
291
     0
 45
0.0
1001
ACAD
1000
AcDbSavedByObjectVersion
1070
     0
  0
VISUALSTYLE
  5
5350F
102
{ACAD_XDICTIONARY
360
5360D
102
}
102
{ACAD_REACTORS
330
534FA
102
}
330
534FA
100
AcDbVisualStyle
  2

 70
    27
 71
     2
 72
     2
 73
     1
 90
        2
 40
-0.6
 41
30.0
 62
     5
 63
     7
 74
     0
 91
        4
 64
     7
 65
   257
 75
     1
175
     1
 42
1.0
 92
        8
 66
   257
 43
1.0
 76
     1
 77
     6
 78
     2
 67
     8
 79
     3
170
     0
171
     0
290
     0
174
     0
 93
        5
 44
0.0
173
     0
291
     0
 45
0.0
1001
ACAD
1000
AcDbSavedByObjectVersion
1070
     0
  0
VISUALSTYLE
  5
5350E
102
{ACAD_XDICTIONARY
360
5360B
102
}
102
{ACAD_REACTORS
330
534FA
102
}
330
534FA
100
AcDbVisualStyle
  2

 70
    26
 71
     2
 72
     2
 73
     1
 90
        2
 40
-0.6
 41
30.0
 62
     5
 63
     7
 74
     1
 91
        2
 64
     7
 65
   257
 75
     2
175
     1
 42
1.0
 92
        8
 66
   257
 43
1.0
 76
     1
 77
     6
 78
     2
 67
     7
 79
     3
170
     0
171
     0
290
     0
174
     0
 93
        5
 44
0.0
173
     0
291
     0
 45
0.0
1001
ACAD
1000
AcDbSavedByObjectVersion
1070
     0
  0
VISUALSTYLE
  5
5350B
102
{ACAD_XDICTIONARY
360
53605
102
}
102
{ACAD_REACTORS
330
534FA
102
}
330
534FA
100
AcDbVisualStyle
  2

 70
    23
 71
     2
 72
     2
 73
     3
 90
        0
 40
-0.6
 41
-30.0
 62
     5
 63
     7
 74
     2
 91
        2
 64
     7
 65
     7
 75
     1
175
     1
 42
40.0
 92
        8
 66
     7
 43
1.0
 76
     1
 77
     6
 78
     2
 67
     7
 79
     3
170
     0
171
     0
290
     0
174
     0
 93
        1
 44
0.0
173
     0
291
     0
 45
0.0
1001
ACAD
1000
AcDbSavedByObjectVersion
1070
     0
  0
VISUALSTYLE
  5
5350C
102
{ACAD_XDICTIONARY
360
53607
102
}
102
{ACAD_REACTORS
330
534FA
102
}
330
534FA
100
AcDbVisualStyle
  2

 70
    24
 71
     1
 72
     2
 73
     2
 90
        0
 40
-0.6
 41
-30.0
 62
     5
 63
     7
 74
     2
 91
        2
 64
     7
 65
     7
 75
     1
175
     1
 42
40.0
 92
       11
 66
     7
 43
1.0
 76
     1
 77
     6
 78
     2
 67
     7
 79
     6
170
     0
171
     0
290
     0
174
     0
 93
        1
 44
0.0
173
     0
291
     0
 45
0.0
1001
ACAD
1000
AcDbSavedByObjectVersion
1070
     0
  0
VISUALSTYLE
  5
53507
102
{ACAD_XDICTIONARY
360
535FD
102
}
102
{ACAD_REACTORS
330
534FA
102
}
330
534FA
100
AcDbVisualStyle
  2

 70
    13
 71
     2
 72
     2
 73
     0
 90
        0
 40
-0.6
 41
-30.0
 62
     5
 63
     7
 74
     1
 91
        4
 64
     7
 65
   257
 75
     1
175
     1
 42
1.0
 92
       12
 66
     7
 43
1.0
 76
     1
 77
     6
 78
     2
 67
     7
 79
     5
170
     0
171
     0
290
     0
174
     0
 93
        1
 44
0.0
173
     0
291
     1
 45
0.0
1001
ACAD
1000
AcDbSavedByObjectVersion
1070
     0
  0
VISUALSTYLE
  5
53501
102
{ACAD_XDICTIONARY
360
535F1
102
}
102
{ACAD_REACTORS
330
534FA
102
}
330
534FA
100
AcDbVisualStyle
  2

 70
     5
 71
     0
 72
     2
 73
     0
 90
        0
 40
-0.6
 41
-30.0
 62
     5
 63
     7
 74
     1
 91
        4
 64
     7
 65
   257
 75
     1
175
     1
 42
1.0
 92
        0
 66
   257
 43
1.0
 76
     1
 77
     6
 78
     2
 67
     7
 79
     3
170
     0
171
     0
290
     0
174
     0
 93
        1
 44
0.0
173
     0
291
     0
 45
0.0
1001
ACAD
1000
AcDbSavedByObjectVersion
1070
     0
  0
VISUALSTYLE
  5
5350D
102
{ACAD_XDICTIONARY
360
53609
102
}
102
{ACAD_REACTORS
330
534FA
102
}
330
534FA
100
AcDbVisualStyle
  2

 70
    25
 71
     2
 72
     2
 73
     1
 90
        1
 40
0.5
 41
-30.0
 62
     5
 63
     7
 74
     1
 91
        0
 64
     7
 65
   257
 75
     1
175
     1
 42
1.0
 92
        8
 66
     7
 43
1.0
 76
     1
 77
     6
 78
     2
 67
     7
 79
     3
170
     0
171
     0
290
     0
174
     0
 93
       13
 44
0.0
173
     0
291
     0
 45
0.0
1001
ACAD
1000
AcDbSavedByObjectVersion
1070
     0
  0
DICTIONARYVAR
  5
53549
102
{ACAD_REACTORS
330
50B28
102
}
330
50B28
100
DictionaryVariables
280
     0
  1
1:1
  0
DICTIONARYVAR
  5
53546
102
{ACAD_REACTORS
330
50B28
102
}
330
50B28
100
DictionaryVariables
280
     0
  1
STANDARD
  0
DICTIONARYVAR
  5
53545
102
{ACAD_REACTORS
330
50B28
102
}
330
50B28
100
DictionaryVariables
280
     0
  1
STANDARD
  0
DICTIONARYVAR
  5
53547
102
{ACAD_REACTORS
330
50B28
102
}
330
50B28
100
DictionaryVariables
280
     0
  1
Imperial24
  0
DICTIONARYVAR
  5
53548
102
{ACAD_REACTORS
330
50B28
102
}
330
50B28
100
DictionaryVariables
280
     0
  1
Imperial24
  0
DICTIONARYVAR
  5
5354B
102
{ACAD_REACTORS
330
50B28
102
}
330
50B28
100
DictionaryVariables
280
     0
  1
1
  0
DICTIONARYVAR
  5
5354A
102
{ACAD_REACTORS
330
50B28
102
}
330
50B28
100
DictionaryVariables
280
     0
  1
0
  0
DICTIONARYVAR
  5
50B29
102
{ACAD_REACTORS
330
50B28
102
}
330
50B28
100
DictionaryVariables
280
     0
  1
96
  0
DICTIONARYVAR
  5
535E1
102
{ACAD_REACTORS
330
50B28
102
}
330
50B28
100
DictionaryVariables
280
     0
  1
2
  0
DICTIONARY
  5
53618
330
5352D
100
AcDbDictionary
280
     1
281
     1
  3
ACAD_XREC_ROUNDTRIP
360
53619
  0
DICTIONARY
  5
5361A
330
5352E
100
AcDbDictionary
280
     1
281
     1
  3
ACAD_XREC_ROUNDTRIP
360
5361B
  0
DICTIONARY
  5
5361C
330
5352F
100
AcDbDictionary
280
     1
281
     1
  3
ACAD_XREC_ROUNDTRIP
360
5361D
  0
DICTIONARY
  5
534EB
330
534EA
100
AcDbDictionary
280
     1
281
     1
  3
ACAD_XREC_ROUNDTRIP
360
53553
  3
BUMPTILE
360
534ED
  3
DIFFUSETILE
360
534EC
  3
OPACITYTILE
360
534F0
  3
REFLECTIONTILE
360
534EF
  3
REFRACTIONTILE
360
534F1
  3
SPECULARTILE
360
534EE
  0
DICTIONARY
  5
534E3
330
534E2
100
AcDbDictionary
280
     1
281
     1
  3
ACAD_XREC_ROUNDTRIP
360
53552
  3
BUMPTILE
360
534E5
  3
DIFFUSETILE
360
534E4
  3
OPACITYTILE
360
534E8
  3
REFLECTIONTILE
360
534E7
  3
REFRACTIONTILE
360
534E9
  3
SPECULARTILE
360
534E6
  0
DICTIONARY
  5
534F3
330
534F2
100
AcDbDictionary
280
     1
281
     1
  3
ACAD_XREC_ROUNDTRIP
360
53554
  3
BUMPTILE
360
534F5
  3
DIFFUSETILE
360
534F4
  3
OPACITYTILE
360
534F8
  3
REFLECTIONTILE
360
534F7
  3
REFRACTIONTILE
360
534F9
  3
SPECULARTILE
360
534F6
  0
DICTIONARY
  5
53616
330
5352B
100
AcDbDictionary
280
     1
281
     1
  3
ACAD_XREC_ROUNDTRIP
360
53617
  0
DICTIONARY
  5
5354E
330
53515
100
AcDbDictionary
280
     1
281
     1
  3
ACAD_ROUNDTRIP_2008_TABLESTYLE_CELLSTYLEMAP
360
535E2
  3
ACAD_XREC_ROUNDTRIP
360
53615
  0
DICTIONARY
  5
535EF
330
53500
100
AcDbDictionary
280
     1
281
     1
  3
ACAD_XREC_ROUNDTRIP
360
535F0
  0
DICTIONARY
  5
535ED
330
534FF
100
AcDbDictionary
280
     1
281
     1
  3
ACAD_XREC_ROUNDTRIP
360
535EE
  0
DICTIONARY
  5
535FB
330
53506
100
AcDbDictionary
280
     1
281
     1
  3
ACAD_XREC_ROUNDTRIP
360
535FC
  0
DICTIONARY
  5
53603
330
5350A
100
AcDbDictionary
280
     1
281
     1
  3
ACAD_XREC_ROUNDTRIP
360
53604
  0
DICTIONARY
  5
535F5
330
53503
100
AcDbDictionary
280
     1
281
     1
  3
ACAD_XREC_ROUNDTRIP
360
535F6
  0
DICTIONARY
  5
535F9
330
53505
100
AcDbDictionary
280
     1
281
     1
  3
ACAD_XREC_ROUNDTRIP
360
535FA
  0
DICTIONARY
  5
53613
330
53512
100
AcDbDictionary
280
     1
281
     1
  3
ACAD_XREC_ROUNDTRIP
360
53614
  0
DICTIONARY
  5
53601
330
53509
100
AcDbDictionary
280
     1
281
     1
  3
ACAD_XREC_ROUNDTRIP
360
53602
  0
DICTIONARY
  5
535E5
330
534FB
100
AcDbDictionary
280
     1
281
     1
  3
ACAD_XREC_ROUNDTRIP
360
535E6
  0
DICTIONARY
  5
535E7
330
534FC
100
AcDbDictionary
280
     1
281
     1
  3
ACAD_XREC_ROUNDTRIP
360
535E8
  0
DICTIONARY
  5
535E9
330
534FD
100
AcDbDictionary
280
     1
281
     1
  3
ACAD_XREC_ROUNDTRIP
360
535EA
  0
DICTIONARY
  5
535EB
330
534FE
100
AcDbDictionary
280
     1
281
     1
  3
ACAD_XREC_ROUNDTRIP
360
535EC
  0
DICTIONARY
  5
535F3
330
53502
100
AcDbDictionary
280
     1
281
     1
  3
ACAD_XREC_ROUNDTRIP
360
535F4
  0
DICTIONARY
  5
5360F
330
53510
100
AcDbDictionary
280
     1
281
     1
  3
ACAD_XREC_ROUNDTRIP
360
53610
  0
DICTIONARY
  5
535FF
330
53508
100
AcDbDictionary
280
     1
281
     1
  3
ACAD_XREC_ROUNDTRIP
360
53600
  0
DICTIONARY
  5
53611
330
53511
100
AcDbDictionary
280
     1
281
     1
  3
ACAD_XREC_ROUNDTRIP
360
53612
  0
DICTIONARY
  5
535F7
330
53504
100
AcDbDictionary
280
     1
281
     1
  3
ACAD_XREC_ROUNDTRIP
360
535F8
  0
DICTIONARY
  5
5360D
330
5350F
100
AcDbDictionary
280
     1
281
     1
  3
ACAD_XREC_ROUNDTRIP
360
5360E
  0
DICTIONARY
  5
5360B
330
5350E
100
AcDbDictionary
280
     1
281
     1
  3
ACAD_XREC_ROUNDTRIP
360
5360C
  0
DICTIONARY
  5
53605
330
5350B
100
AcDbDictionary
280
     1
281
     1
  3
ACAD_XREC_ROUNDTRIP
360
53606
  0
DICTIONARY
  5
53607
330
5350C
100
AcDbDictionary
280
     1
281
     1
  3
ACAD_XREC_ROUNDTRIP
360
53608
  0
DICTIONARY
  5
535FD
330
53507
100
AcDbDictionary
280
     1
281
     1
  3
ACAD_XREC_ROUNDTRIP
360
535FE
  0
DICTIONARY
  5
535F1
330
53501
100
AcDbDictionary
280
     1
281
     1
  3
ACAD_XREC_ROUNDTRIP
360
535F2
  0
DICTIONARY
  5
53609
330
5350D
100
AcDbDictionary
280
     1
281
     1
  3
ACAD_XREC_ROUNDTRIP
360
5360A
  0
XRECORD
  5
53619
102
{ACAD_REACTORS
330
53618
102
}
330
53618
100
AcDbXrecord
280
     1
102
DISPLAYNAME
  1
Imperial24
102
FLAGS
 90
        0
  0
XRECORD
  5
5361B
102
{ACAD_REACTORS
330
5361A
102
}
330
5361A
100
AcDbXrecord
280
     1
102
SHADEPLOT
 70
     0
102
SHADEPLOTRESLEVEL
 70
     2
102
SHADEPLOTCUSTOMDPI
 70
   300
  0
XRECORD
  5
5361D
102
{ACAD_REACTORS
330
5361C
102
}
330
5361C
100
AcDbXrecord
280
     1
102
SHADEPLOT
 70
     0
102
SHADEPLOTRESLEVEL
 70
     2
102
SHADEPLOTCUSTOMDPI
 70
   300
  0
XRECORD
  5
53553
102
{ACAD_REACTORS
330
534EB
102
}
330
534EB
100
AcDbXrecord
280
     1
102
MATERIAL
148
0.0
149
0.0
149
0.0
 93
        0
 94
      127
282
     0
 72
     0
 77
     0
171
     0
175
     0
179
     0
273
     0
  0
XRECORD
  5
534ED
102
{ACAD_REACTORS
330
534EB
102
}
330
534EB
100
AcDbXrecord
280
     1
270
     1
271
     1
  0
XRECORD
  5
534EC
102
{ACAD_REACTORS
330
534EB
102
}
330
534EB
100
AcDbXrecord
280
     1
270
     1
271
     1
  0
XRECORD
  5
534F0
102
{ACAD_REACTORS
330
534EB
102
}
330
534EB
100
AcDbXrecord
280
     1
270
     1
271
     1
  0
XRECORD
  5
534EF
102
{ACAD_REACTORS
330
534EB
102
}
330
534EB
100
AcDbXrecord
280
     1
270
     1
271
     1
  0
XRECORD
  5
534F1
102
{ACAD_REACTORS
330
534EB
102
}
330
534EB
100
AcDbXrecord
280
     1
270
     1
271
     1
  0
XRECORD
  5
534EE
102
{ACAD_REACTORS
330
534EB
102
}
330
534EB
100
AcDbXrecord
280
     1
270
     1
271
     1
  0
XRECORD
  5
53552
102
{ACAD_REACTORS
330
534E3
102
}
330
534E3
100
AcDbXrecord
280
     1
102
MATERIAL
148
0.0
149
0.0
149
0.0
 93
        0
 94
      127
282
     0
 72
     0
 77
     0
171
     0
175
     0
179
     0
273
     0
  0
XRECORD
  5
534E5
102
{ACAD_REACTORS
330
534E3
102
}
330
534E3
100
AcDbXrecord
280
     1
270
     1
271
     1
  0
XRECORD
  5
534E4
102
{ACAD_REACTORS
330
534E3
102
}
330
534E3
100
AcDbXrecord
280
     1
270
     1
271
     1
  0
XRECORD
  5
534E8
102
{ACAD_REACTORS
330
534E3
102
}
330
534E3
100
AcDbXrecord
280
     1
270
     1
271
     1
  0
XRECORD
  5
534E7
102
{ACAD_REACTORS
330
534E3
102
}
330
534E3
100
AcDbXrecord
280
     1
270
     1
271
     1
  0
XRECORD
  5
534E9
102
{ACAD_REACTORS
330
534E3
102
}
330
534E3
100
AcDbXrecord
280
     1
270
     1
271
     1
  0
XRECORD
  5
534E6
102
{ACAD_REACTORS
330
534E3
102
}
330
534E3
100
AcDbXrecord
280
     1
270
     1
271
     1
  0
XRECORD
  5
53554
102
{ACAD_REACTORS
330
534F3
102
}
330
534F3
100
AcDbXrecord
280
     1
102
MATERIAL
148
0.0
149
0.0
149
0.0
 93
        0
 94
      127
282
     0
 72
     0
 77
     0
171
     0
175
     0
179
     0
273
     0
  0
XRECORD
  5
534F5
102
{ACAD_REACTORS
330
534F3
102
}
330
534F3
100
AcDbXrecord
280
     1
270
     1
271
     1
  0
XRECORD
  5
534F4
102
{ACAD_REACTORS
330
534F3
102
}
330
534F3
100
AcDbXrecord
280
     1
270
     1
271
     1
  0
XRECORD
  5
534F8
102
{ACAD_REACTORS
330
534F3
102
}
330
534F3
100
AcDbXrecord
280
     1
270
     1
271
     1
  0
XRECORD
  5
534F7
102
{ACAD_REACTORS
330
534F3
102
}
330
534F3
100
AcDbXrecord
280
     1
270
     1
271
     1
  0
XRECORD
  5
534F9
102
{ACAD_REACTORS
330
534F3
102
}
330
534F3
100
AcDbXrecord
280
     1
270
     1
271
     1
  0
XRECORD
  5
534F6
102
{ACAD_REACTORS
330
534F3
102
}
330
534F3
100
AcDbXrecord
280
     1
270
     1
271
     1
  0
XRECORD
  5
53617
102
{ACAD_REACTORS
330
53616
102
}
330
53616
100
AcDbXrecord
280
     1
102
DISPLAYNAME
  1
Imperial24
102
FLAGS
 90
        0
  0
CELLSTYLEMAP
  5
535E2
102
{ACAD_REACTORS
330
5354E
102
}
330
5354E
100
AcDbCellStyleMap
 90
        3
300
CELLSTYLE
  1
TABLEFORMAT_BEGIN
 90
        5
170
     1
 91
        0
 92
    32768
 62
   257
 93
        1
300
CONTENTFORMAT
  1
CONTENTFORMAT_BEGIN
 90
        0
 91
        0
 92
      512
 93
        0
300

 40
0.0
140
1.0
 94
        5
 62
     0
340
F
144
0.25
309
CONTENTFORMAT_END
171
     1
301
MARGIN
  1
CELLMARGIN_BEGIN
 40
0.06
 40
0.06
 40
0.06
 40
0.06
 40
0.18
 40
0.18
309
CELLMARGIN_END
 94
        6
 95
        1
302
GRIDFORMAT
  1
GRIDFORMAT_BEGIN
 90
        0
 91
        1
 62
     0
 92
       -2
340
0
 93
        0
 40
0.045
309
GRIDFORMAT_END
 95
        2
302
GRIDFORMAT
  1
GRIDFORMAT_BEGIN
 90
        0
 91
        1
 62
     0
 92
       -2
340
0
 93
        0
 40
0.045
309
GRIDFORMAT_END
 95
        4
302
GRIDFORMAT
  1
GRIDFORMAT_BEGIN
 90
        0
 91
        1
 62
     0
 92
       -2
340
0
 93
        0
 40
0.045
309
GRIDFORMAT_END
 95
        8
302
GRIDFORMAT
  1
GRIDFORMAT_BEGIN
 90
        0
 91
        1
 62
     0
 92
       -2
340
0
 93
        0
 40
0.045
309
GRIDFORMAT_END
 95
       16
302
GRIDFORMAT
  1
GRIDFORMAT_BEGIN
 90
        0
 91
        1
 62
     0
 92
       -2
340
0
 93
        0
 40
0.045
309
GRIDFORMAT_END
 95
       32
302
GRIDFORMAT
  1
GRIDFORMAT_BEGIN
 90
        0
 91
        1
 62
     0
 92
       -2
340
0
 93
        0
 40
0.045
309
GRIDFORMAT_END
309
TABLEFORMAT_END
  1
CELLSTYLE_BEGIN
 90
        1
 91
        1
300
_TITLE
309
CELLSTYLE_END
300
CELLSTYLE
  1
TABLEFORMAT_BEGIN
 90
        5
170
     1
 91
        0
 92
        0
 62
   257
 93
        1
300
CONTENTFORMAT
  1
CONTENTFORMAT_BEGIN
 90
        0
 91
        0
 92
      512
 93
        0
300

 40
0.0
140
1.0
 94
        5
 62
     0
340
F
144
0.18
309
CONTENTFORMAT_END
171
     1
301
MARGIN
  1
CELLMARGIN_BEGIN
 40
0.06
 40
0.06
 40
0.06
 40
0.06
 40
0.18
 40
0.18
309
CELLMARGIN_END
 94
        6
 95
        1
302
GRIDFORMAT
  1
GRIDFORMAT_BEGIN
 90
        0
 91
        1
 62
     0
 92
       -2
340
0
 93
        0
 40
0.045
309
GRIDFORMAT_END
 95
        2
302
GRIDFORMAT
  1
GRIDFORMAT_BEGIN
 90
        0
 91
        1
 62
     0
 92
       -2
340
0
 93
        0
 40
0.045
309
GRIDFORMAT_END
 95
        4
302
GRIDFORMAT
  1
GRIDFORMAT_BEGIN
 90
        0
 91
        1
 62
     0
 92
       -2
340
0
 93
        0
 40
0.045
309
GRIDFORMAT_END
 95
        8
302
GRIDFORMAT
  1
GRIDFORMAT_BEGIN
 90
        0
 91
        1
 62
     0
 92
       -2
340
0
 93
        0
 40
0.045
309
GRIDFORMAT_END
 95
       16
302
GRIDFORMAT
  1
GRIDFORMAT_BEGIN
 90
        0
 91
        1
 62
     0
 92
       -2
340
0
 93
        0
 40
0.045
309
GRIDFORMAT_END
 95
       32
302
GRIDFORMAT
  1
GRIDFORMAT_BEGIN
 90
        0
 91
        1
 62
     0
 92
       -2
340
0
 93
        0
 40
0.045
309
GRIDFORMAT_END
309
TABLEFORMAT_END
  1
CELLSTYLE_BEGIN
 90
        2
 91
        1
300
_HEADER
309
CELLSTYLE_END
300
CELLSTYLE
  1
TABLEFORMAT_BEGIN
 90
        5
170
     1
 91
        0
 92
        0
 62
   257
 93
        1
300
CONTENTFORMAT
  1
CONTENTFORMAT_BEGIN
 90
        0
 91
        0
 92
      512
 93
        0
300

 40
0.0
140
1.0
 94
        2
 62
     0
340
F
144
0.18
309
CONTENTFORMAT_END
171
     1
301
MARGIN
  1
CELLMARGIN_BEGIN
 40
0.06
 40
0.06
 40
0.06
 40
0.06
 40
0.18
 40
0.18
309
CELLMARGIN_END
 94
        6
 95
        1
302
GRIDFORMAT
  1
GRIDFORMAT_BEGIN
 90
        0
 91
        1
 62
     0
 92
       -2
340
0
 93
        0
 40
0.045
309
GRIDFORMAT_END
 95
        2
302
GRIDFORMAT
  1
GRIDFORMAT_BEGIN
 90
        0
 91
        1
 62
     0
 92
       -2
340
0
 93
        0
 40
0.045
309
GRIDFORMAT_END
 95
        4
302
GRIDFORMAT
  1
GRIDFORMAT_BEGIN
 90
        0
 91
        1
 62
     0
 92
       -2
340
0
 93
        0
 40
0.045
309
GRIDFORMAT_END
 95
        8
302
GRIDFORMAT
  1
GRIDFORMAT_BEGIN
 90
        0
 91
        1
 62
     0
 92
       -2
340
0
 93
        0
 40
0.045
309
GRIDFORMAT_END
 95
       16
302
GRIDFORMAT
  1
GRIDFORMAT_BEGIN
 90
        0
 91
        1
 62
     0
 92
       -2
340
0
 93
        0
 40
0.045
309
GRIDFORMAT_END
 95
       32
302
GRIDFORMAT
  1
GRIDFORMAT_BEGIN
 90
        0
 91
        1
 62
     0
 92
       -2
340
0
 93
        0
 40
0.045
309
GRIDFORMAT_END
309
TABLEFORMAT_END
  1
CELLSTYLE_BEGIN
 90
        3
 91
        2
300
_DATA
309
CELLSTYLE_END
  0
XRECORD
  5
53615
102
{ACAD_REACTORS
330
5354E
102
}
330
5354E
100
AcDbXrecord
280
     1
102
ACAD_ROUNDTRIP_PRE2007_TABLESTYLE
 90
      512
 91
        0
  1

 92
      512
 93
        0
  2

 94
      512
 95
        0
  3

  0
XRECORD
  5
535F0
102
{ACAD_REACTORS
330
535EF
102
}
330
535EF
100
AcDbXrecord
280
     1
102
RTVSPost2010Prop28
280
     1
102
RTVSPost2010PropOp28
 70
     1
102
RTVSPost2010Prop29
280
     1
102
RTVSPost2010PropOp29
 70
     1
102
RTVSPost2010Prop30
280
     0
102
RTVSPost2010PropOp30
 70
     1
102
RTVSPost2010Prop31
280
     0
102
RTVSPost2010PropOp31
 70
     1
102
RTVSPost2010Prop32
280
     0
102
RTVSPost2010PropOp32
 70
     1
102
RTVSPost2010Prop33
280
     0
102
RTVSPost2010PropOp33
 70
     1
102
RTVSPost2010Prop34
280
     0
102
RTVSPost2010PropOp34
 70
     1
102
RTVSPost2010Prop35
280
     0
102
RTVSPost2010PropOp35
 70
     1
102
RTVSPost2010Prop36
280
     0
102
RTVSPost2010PropOp36
 70
     1
102
RTVSPost2010Prop37
 90
       50
102
RTVSPost2010PropOp37
 70
     1
102
RTVSPost2010Prop38
140
0.0
102
RTVSPost2010PropOp38
 70
     1
102
RTVSPost2010Prop39
140
1.0
102
RTVSPost2010PropOp39
 70
     1
102
RTVSPost2010Prop40
 90
        0
102
RTVSPost2010PropOp40
 70
     1
102
RTVSPost2010Prop41ColorIndex
 90
       18
102
RTVSPost2010Prop41ColorRGB
 90
        0
102
RTVSPost2010PropOp41
 70
     1
102
RTVSPost2010Prop42
 90
       50
102
RTVSPost2010PropOp42
 70
     1
102
RTVSPost2010Prop43
 90
        3
102
RTVSPost2010PropOp43
 70
     1
102
RTVSPost2010Prop44ColorIndex
 90
        5
102
RTVSPost2010Prop44ColorRGB
 90
      255
102
RTVSPost2010PropOp44
 70
     1
102
RTVSPost2010Prop45
280
     0
102
RTVSPost2010PropOp45
 70
     1
102
RTVSPost2010Prop46
 90
       50
102
RTVSPost2010PropOp46
 70
     1
102
RTVSPost2010Prop47
 90
       50
102
RTVSPost2010PropOp47
 70
     1
102
RTVSPost2010Prop48
 90
       50
102
RTVSPost2010PropOp48
 70
     1
102
RTVSPost2010Prop49
280
     0
102
RTVSPost2010PropOp49
 70
     1
102
RTVSPost2010Prop50
 90
       50
102
RTVSPost2010PropOp50
 70
     1
102
RTVSPost2010Prop51ColorIndex
 90
      256
102
RTVSPost2010Prop51ColorRGB
 90
-16777216
102
RTVSPost2010PropOp51
 70
     0
102
RTVSPost2010Prop52
140
1.0
102
RTVSPost2010PropOp52
 70
     0
102
RTVSPost2010Prop53
 90
        2
102
RTVSPost2010PropOp53
 70
     1
102
RTVSPost2010Prop54
  1
strokes_ogs.tif
102
RTVSPost2010PropOp54
 70
     1
102
RTVSPost2010Prop55
280
     0
102
RTVSPost2010PropOp55
 70
     1
102
RTVSPost2010Prop56
140
1.0
102
RTVSPost2010PropOp56
 70
     1
102
RTVSPost2010Prop57
140
1.0
102
RTVSPost2010PropOp57
 70
     1
102
RTVSPropertyOp0
 70
     1
102
RTVSPropertyOp1
 70
     1
102
RTVSPropertyOp2
 70
     1
102
RTVSPropertyOp3
 70
     1
102
RTVSPropertyOp4
 70
     1
102
RTVSPropertyOp5
 70
     1
102
RTVSPropertyOp6
 70
     1
102
RTVSPropertyOp7
 70
     1
102
RTVSPropertyOp8
 70
     1
102
RTVSPropertyOp9
 70
     1
102
RTVSPropertyOp10
 70
     1
102
RTVSPropertyOp11
 70
     1
102
RTVSPropertyOp12
 70
     1
102
RTVSPropertyOp13
 70
     1
102
RTVSPropertyOp14
 70
     1
102
RTVSPropertyOp15
 70
     1
102
RTVSPropertyOp16
 70
     1
102
RTVSPropertyOp17
 70
     1
102
RTVSPropertyOp18
 70
     1
102
RTVSPropertyOp19
 70
     1
102
RTVSPropertyOp20
 70
     1
102
RTVSPropertyOp21
 70
     1
102
RTVSPropertyOp22
 70
     1
102
RTVSPropertyOp23
 70
     1
102
RTVSPropertyOp24
 70
     1
102
RTVSPropertyOp25
 70
     1
102
RTVSPropertyOp26
 70
     1
102
RTVSPropertyOp27
 70
     1
102
RTVSPropertyOp28
 70
     1
102
RTVSPropertyOp29
 70
     1
102
RTVSPropertyOp30
 70
     1
102
RTVSPropertyOp31
 70
     1
102
RTVSPropertyOp32
 70
     1
102
RTVSPropertyOp33
 70
     1
102
RTVSPropertyOp34
 70
     1
102
RTVSPropertyOp35
 70
     1
102
RTVSPropertyOp36
 70
     1
102
RTVSPropertyOp37
 70
     1
102
RTVSPropertyOp38
 70
     1
102
RTVSPropertyOp39
 70
     1
102
RTVSPropertyOp40
 70
     1
102
RTVSPropertyOp41
 70
     1
102
RTVSPropertyOp42
 70
     1
102
RTVSPropertyOp43
 70
     1
102
RTVSPropertyOp44
 70
     1
102
RTVSPropertyOp45
 70
     1
102
RTVSPropertyOp46
 70
     1
102
RTVSPropertyOp47
 70
     1
102
RTVSPropertyOp48
 70
     1
102
RTVSPropertyOp49
 70
     1
102
RTVSPropertyOp50
 70
     1
102
RTVSPropertyOp51
 70
     0
102
RTVSPropertyOp52
 70
     0
102
RTVSPropertyOp53
 70
     1
102
RTVSPropertyOp54
 70
     1
102
RTVSPropertyOp55
 70
     1
102
RTVSPropertyOp56
 70
     1
102
RTVSPropertyOp57
 70
     1
102
RTVSPropertyOp58
 70
     1
102
RTVSPropertyOp59
 70
     1
102
RTVSPropertyOp60
 70
     1
102
RTVSPropertyOp61
 70
     1
102
RTVSPropertyOp62
 70
     1
  0
XRECORD
  5
535EE
102
{ACAD_REACTORS
330
535ED
102
}
330
535ED
100
AcDbXrecord
280
     1
102
RTVSPost2010Prop28
280
     0
102
RTVSPost2010PropOp28
 70
     1
102
RTVSPost2010Prop29
280
     1
102
RTVSPost2010PropOp29
 70
     1
102
RTVSPost2010Prop30
280
     1
102
RTVSPost2010PropOp30
 70
     1
102
RTVSPost2010Prop31
280
     0
102
RTVSPost2010PropOp31
 70
     1
102
RTVSPost2010Prop32
280
     0
102
RTVSPost2010PropOp32
 70
     1
102
RTVSPost2010Prop33
280
     0
102
RTVSPost2010PropOp33
 70
     1
102
RTVSPost2010Prop34
280
     0
102
RTVSPost2010PropOp34
 70
     1
102
RTVSPost2010Prop35
280
     0
102
RTVSPost2010PropOp35
 70
     1
102
RTVSPost2010Prop36
280
     0
102
RTVSPost2010PropOp36
 70
     1
102
RTVSPost2010Prop37
 90
       50
102
RTVSPost2010PropOp37
 70
     1
102
RTVSPost2010Prop38
140
0.0
102
RTVSPost2010PropOp38
 70
     1
102
RTVSPost2010Prop39
140
1.0
102
RTVSPost2010PropOp39
 70
     1
102
RTVSPost2010Prop40
 90
        0
102
RTVSPost2010PropOp40
 70
     1
102
RTVSPost2010Prop41ColorIndex
 90
       18
102
RTVSPost2010Prop41ColorRGB
 90
        0
102
RTVSPost2010PropOp41
 70
     1
102
RTVSPost2010Prop42
 90
       50
102
RTVSPost2010PropOp42
 70
     1
102
RTVSPost2010Prop43
 90
        3
102
RTVSPost2010PropOp43
 70
     1
102
RTVSPost2010Prop44ColorIndex
 90
        5
102
RTVSPost2010Prop44ColorRGB
 90
      255
102
RTVSPost2010PropOp44
 70
     1
102
RTVSPost2010Prop45
280
     0
102
RTVSPost2010PropOp45
 70
     1
102
RTVSPost2010Prop46
 90
       50
102
RTVSPost2010PropOp46
 70
     1
102
RTVSPost2010Prop47
 90
       50
102
RTVSPost2010PropOp47
 70
     1
102
RTVSPost2010Prop48
 90
       50
102
RTVSPost2010PropOp48
 70
     1
102
RTVSPost2010Prop49
280
     0
102
RTVSPost2010PropOp49
 70
     1
102
RTVSPost2010Prop50
 90
       50
102
RTVSPost2010PropOp50
 70
     1
102
RTVSPost2010Prop51ColorIndex
 90
      256
102
RTVSPost2010Prop51ColorRGB
 90
-16777216
102
RTVSPost2010PropOp51
 70
     0
102
RTVSPost2010Prop52
140
1.0
102
RTVSPost2010PropOp52
 70
     0
102
RTVSPost2010Prop53
 90
        2
102
RTVSPost2010PropOp53
 70
     1
102
RTVSPost2010Prop54
  1
strokes_ogs.tif
102
RTVSPost2010PropOp54
 70
     1
102
RTVSPost2010Prop55
280
     0
102
RTVSPost2010PropOp55
 70
     1
102
RTVSPost2010Prop56
140
1.0
102
RTVSPost2010PropOp56
 70
     1
102
RTVSPost2010Prop57
140
1.0
102
RTVSPost2010PropOp57
 70
     1
102
RTVSPropertyOp0
 70
     1
102
RTVSPropertyOp1
 70
     1
102
RTVSPropertyOp2
 70
     1
102
RTVSPropertyOp3
 70
     1
102
RTVSPropertyOp4
 70
     1
102
RTVSPropertyOp5
 70
     1
102
RTVSPropertyOp6
 70
     1
102
RTVSPropertyOp7
 70
     1
102
RTVSPropertyOp8
 70
     1
102
RTVSPropertyOp9
 70
     1
102
RTVSPropertyOp10
 70
     1
102
RTVSPropertyOp11
 70
     1
102
RTVSPropertyOp12
 70
     1
102
RTVSPropertyOp13
 70
     1
102
RTVSPropertyOp14
 70
     1
102
RTVSPropertyOp15
 70
     1
102
RTVSPropertyOp16
 70
     1
102
RTVSPropertyOp17
 70
     1
102
RTVSPropertyOp18
 70
     1
102
RTVSPropertyOp19
 70
     1
102
RTVSPropertyOp20
 70
     1
102
RTVSPropertyOp21
 70
     1
102
RTVSPropertyOp22
 70
     1
102
RTVSPropertyOp23
 70
     1
102
RTVSPropertyOp24
 70
     1
102
RTVSPropertyOp25
 70
     1
102
RTVSPropertyOp26
 70
     1
102
RTVSPropertyOp27
 70
     1
102
RTVSPropertyOp28
 70
     1
102
RTVSPropertyOp29
 70
     1
102
RTVSPropertyOp30
 70
     1
102
RTVSPropertyOp31
 70
     1
102
RTVSPropertyOp32
 70
     1
102
RTVSPropertyOp33
 70
     1
102
RTVSPropertyOp34
 70
     1
102
RTVSPropertyOp35
 70
     1
102
RTVSPropertyOp36
 70
     1
102
RTVSPropertyOp37
 70
     1
102
RTVSPropertyOp38
 70
     1
102
RTVSPropertyOp39
 70
     1
102
RTVSPropertyOp40
 70
     1
102
RTVSPropertyOp41
 70
     1
102
RTVSPropertyOp42
 70
     1
102
RTVSPropertyOp43
 70
     1
102
RTVSPropertyOp44
 70
     1
102
RTVSPropertyOp45
 70
     1
102
RTVSPropertyOp46
 70
     1
102
RTVSPropertyOp47
 70
     1
102
RTVSPropertyOp48
 70
     1
102
RTVSPropertyOp49
 70
     1
102
RTVSPropertyOp50
 70
     1
102
RTVSPropertyOp51
 70
     0
102
RTVSPropertyOp52
 70
     0
102
RTVSPropertyOp53
 70
     1
102
RTVSPropertyOp54
 70
     1
102
RTVSPropertyOp55
 70
     1
102
RTVSPropertyOp56
 70
     1
102
RTVSPropertyOp57
 70
     1
102
RTVSPropertyOp58
 70
     1
102
RTVSPropertyOp59
 70
     1
102
RTVSPropertyOp60
 70
     1
102
RTVSPropertyOp61
 70
     1
102
RTVSPropertyOp62
 70
     1
  0
XRECORD
  5
535FC
102
{ACAD_REACTORS
330
535FB
102
}
330
535FB
100
AcDbXrecord
280
     1
102
RTVSPost2010Prop28
280
     0
102
RTVSPost2010PropOp28
 70
     1
102
RTVSPost2010Prop29
280
     1
102
RTVSPost2010PropOp29
 70
     1
102
RTVSPost2010Prop30
280
     1
102
RTVSPost2010PropOp30
 70
     1
102
RTVSPost2010Prop31
280
     0
102
RTVSPost2010PropOp31
 70
     1
102
RTVSPost2010Prop32
280
     0
102
RTVSPost2010PropOp32
 70
     1
102
RTVSPost2010Prop33
280
     0
102
RTVSPost2010PropOp33
 70
     1
102
RTVSPost2010Prop34
280
     0
102
RTVSPost2010PropOp34
 70
     1
102
RTVSPost2010Prop35
280
     0
102
RTVSPost2010PropOp35
 70
     1
102
RTVSPost2010Prop36
280
     0
102
RTVSPost2010PropOp36
 70
     1
102
RTVSPost2010Prop37
 90
       50
102
RTVSPost2010PropOp37
 70
     1
102
RTVSPost2010Prop38
140
0.0
102
RTVSPost2010PropOp38
 70
     1
102
RTVSPost2010Prop39
140
1.0
102
RTVSPost2010PropOp39
 70
     1
102
RTVSPost2010Prop40
 90
        0
102
RTVSPost2010PropOp40
 70
     1
102
RTVSPost2010Prop41ColorIndex
 90
       18
102
RTVSPost2010Prop41ColorRGB
 90
        0
102
RTVSPost2010PropOp41
 70
     1
102
RTVSPost2010Prop42
 90
       50
102
RTVSPost2010PropOp42
 70
     1
102
RTVSPost2010Prop43
 90
        3
102
RTVSPost2010PropOp43
 70
     1
102
RTVSPost2010Prop44ColorIndex
 90
        5
102
RTVSPost2010Prop44ColorRGB
 90
      255
102
RTVSPost2010PropOp44
 70
     1
102
RTVSPost2010Prop45
280
     0
102
RTVSPost2010PropOp45
 70
     1
102
RTVSPost2010Prop46
 90
       50
102
RTVSPost2010PropOp46
 70
     1
102
RTVSPost2010Prop47
 90
       50
102
RTVSPost2010PropOp47
 70
     1
102
RTVSPost2010Prop48
 90
       50
102
RTVSPost2010PropOp48
 70
     1
102
RTVSPost2010Prop49
280
     0
102
RTVSPost2010PropOp49
 70
     1
102
RTVSPost2010Prop50
 90
       50
102
RTVSPost2010PropOp50
 70
     1
102
RTVSPost2010Prop51ColorIndex
 90
      256
102
RTVSPost2010Prop51ColorRGB
 90
-16777216
102
RTVSPost2010PropOp51
 70
     0
102
RTVSPost2010Prop52
140
1.0
102
RTVSPost2010PropOp52
 70
     0
102
RTVSPost2010Prop53
 90
        2
102
RTVSPost2010PropOp53
 70
     1
102
RTVSPost2010Prop54
  1
strokes_ogs.tif
102
RTVSPost2010PropOp54
 70
     1
102
RTVSPost2010Prop55
280
     0
102
RTVSPost2010PropOp55
 70
     1
102
RTVSPost2010Prop56
140
1.0
102
RTVSPost2010PropOp56
 70
     1
102
RTVSPost2010Prop57
140
1.0
102
RTVSPost2010PropOp57
 70
     1
102
RTVSPropertyOp0
 70
     1
102
RTVSPropertyOp1
 70
     1
102
RTVSPropertyOp2
 70
     1
102
RTVSPropertyOp3
 70
     1
102
RTVSPropertyOp4
 70
     1
102
RTVSPropertyOp5
 70
     1
102
RTVSPropertyOp6
 70
     1
102
RTVSPropertyOp7
 70
     1
102
RTVSPropertyOp8
 70
     1
102
RTVSPropertyOp9
 70
     1
102
RTVSPropertyOp10
 70
     1
102
RTVSPropertyOp11
 70
     1
102
RTVSPropertyOp12
 70
     1
102
RTVSPropertyOp13
 70
     1
102
RTVSPropertyOp14
 70
     1
102
RTVSPropertyOp15
 70
     1
102
RTVSPropertyOp16
 70
     1
102
RTVSPropertyOp17
 70
     1
102
RTVSPropertyOp18
 70
     1
102
RTVSPropertyOp19
 70
     1
102
RTVSPropertyOp20
 70
     1
102
RTVSPropertyOp21
 70
     1
102
RTVSPropertyOp22
 70
     1
102
RTVSPropertyOp23
 70
     1
102
RTVSPropertyOp24
 70
     1
102
RTVSPropertyOp25
 70
     1
102
RTVSPropertyOp26
 70
     1
102
RTVSPropertyOp27
 70
     1
102
RTVSPropertyOp28
 70
     1
102
RTVSPropertyOp29
 70
     1
102
RTVSPropertyOp30
 70
     1
102
RTVSPropertyOp31
 70
     1
102
RTVSPropertyOp32
 70
     1
102
RTVSPropertyOp33
 70
     1
102
RTVSPropertyOp34
 70
     1
102
RTVSPropertyOp35
 70
     1
102
RTVSPropertyOp36
 70
     1
102
RTVSPropertyOp37
 70
     1
102
RTVSPropertyOp38
 70
     1
102
RTVSPropertyOp39
 70
     1
102
RTVSPropertyOp40
 70
     1
102
RTVSPropertyOp41
 70
     1
102
RTVSPropertyOp42
 70
     1
102
RTVSPropertyOp43
 70
     1
102
RTVSPropertyOp44
 70
     1
102
RTVSPropertyOp45
 70
     1
102
RTVSPropertyOp46
 70
     1
102
RTVSPropertyOp47
 70
     1
102
RTVSPropertyOp48
 70
     1
102
RTVSPropertyOp49
 70
     1
102
RTVSPropertyOp50
 70
     1
102
RTVSPropertyOp51
 70
     0
102
RTVSPropertyOp52
 70
     0
102
RTVSPropertyOp53
 70
     1
102
RTVSPropertyOp54
 70
     1
102
RTVSPropertyOp55
 70
     1
102
RTVSPropertyOp56
 70
     1
102
RTVSPropertyOp57
 70
     1
102
RTVSPropertyOp58
 70
     1
102
RTVSPropertyOp59
 70
     1
102
RTVSPropertyOp60
 70
     1
102
RTVSPropertyOp61
 70
     1
102
RTVSPropertyOp62
 70
     1
  0
XRECORD
  5
53604
102
{ACAD_REACTORS
330
53603
102
}
330
53603
100
AcDbXrecord
280
     1
102
RTVSPost2010Prop28
280
     0
102
RTVSPost2010PropOp28
 70
     1
102
RTVSPost2010Prop29
280
     1
102
RTVSPost2010PropOp29
 70
     1
102
RTVSPost2010Prop30
280
     1
102
RTVSPost2010PropOp30
 70
     1
102
RTVSPost2010Prop31
280
     0
102
RTVSPost2010PropOp31
 70
     1
102
RTVSPost2010Prop32
280
     0
102
RTVSPost2010PropOp32
 70
     1
102
RTVSPost2010Prop33
280
     0
102
RTVSPost2010PropOp33
 70
     1
102
RTVSPost2010Prop34
280
     0
102
RTVSPost2010PropOp34
 70
     1
102
RTVSPost2010Prop35
280
     0
102
RTVSPost2010PropOp35
 70
     1
102
RTVSPost2010Prop36
280
     0
102
RTVSPost2010PropOp36
 70
     1
102
RTVSPost2010Prop37
 90
       50
102
RTVSPost2010PropOp37
 70
     1
102
RTVSPost2010Prop38
140
0.0
102
RTVSPost2010PropOp38
 70
     1
102
RTVSPost2010Prop39
140
1.0
102
RTVSPost2010PropOp39
 70
     1
102
RTVSPost2010Prop40
 90
        0
102
RTVSPost2010PropOp40
 70
     1
102
RTVSPost2010Prop41ColorIndex
 90
       18
102
RTVSPost2010Prop41ColorRGB
 90
        0
102
RTVSPost2010PropOp41
 70
     1
102
RTVSPost2010Prop42
 90
       50
102
RTVSPost2010PropOp42
 70
     1
102
RTVSPost2010Prop43
 90
        3
102
RTVSPost2010PropOp43
 70
     1
102
RTVSPost2010Prop44ColorIndex
 90
        5
102
RTVSPost2010Prop44ColorRGB
 90
      255
102
RTVSPost2010PropOp44
 70
     1
102
RTVSPost2010Prop45
280
     0
102
RTVSPost2010PropOp45
 70
     1
102
RTVSPost2010Prop46
 90
       50
102
RTVSPost2010PropOp46
 70
     1
102
RTVSPost2010Prop47
 90
       50
102
RTVSPost2010PropOp47
 70
     1
102
RTVSPost2010Prop48
 90
       50
102
RTVSPost2010PropOp48
 70
     1
102
RTVSPost2010Prop49
280
     0
102
RTVSPost2010PropOp49
 70
     1
102
RTVSPost2010Prop50
 90
       50
102
RTVSPost2010PropOp50
 70
     1
102
RTVSPost2010Prop51ColorIndex
 90
      256
102
RTVSPost2010Prop51ColorRGB
 90
-16777216
102
RTVSPost2010PropOp51
 70
     0
102
RTVSPost2010Prop52
140
1.0
102
RTVSPost2010PropOp52
 70
     0
102
RTVSPost2010Prop53
 90
        2
102
RTVSPost2010PropOp53
 70
     1
102
RTVSPost2010Prop54
  1
strokes_ogs.tif
102
RTVSPost2010PropOp54
 70
     1
102
RTVSPost2010Prop55
280
     0
102
RTVSPost2010PropOp55
 70
     1
102
RTVSPost2010Prop56
140
1.0
102
RTVSPost2010PropOp56
 70
     1
102
RTVSPost2010Prop57
140
1.0
102
RTVSPost2010PropOp57
 70
     1
102
RTVSPropertyOp0
 70
     1
102
RTVSPropertyOp1
 70
     1
102
RTVSPropertyOp2
 70
     1
102
RTVSPropertyOp3
 70
     1
102
RTVSPropertyOp4
 70
     1
102
RTVSPropertyOp5
 70
     1
102
RTVSPropertyOp6
 70
     1
102
RTVSPropertyOp7
 70
     1
102
RTVSPropertyOp8
 70
     1
102
RTVSPropertyOp9
 70
     1
102
RTVSPropertyOp10
 70
     1
102
RTVSPropertyOp11
 70
     1
102
RTVSPropertyOp12
 70
     1
102
RTVSPropertyOp13
 70
     1
102
RTVSPropertyOp14
 70
     1
102
RTVSPropertyOp15
 70
     1
102
RTVSPropertyOp16
 70
     1
102
RTVSPropertyOp17
 70
     1
102
RTVSPropertyOp18
 70
     1
102
RTVSPropertyOp19
 70
     1
102
RTVSPropertyOp20
 70
     1
102
RTVSPropertyOp21
 70
     1
102
RTVSPropertyOp22
 70
     1
102
RTVSPropertyOp23
 70
     1
102
RTVSPropertyOp24
 70
     1
102
RTVSPropertyOp25
 70
     1
102
RTVSPropertyOp26
 70
     1
102
RTVSPropertyOp27
 70
     1
102
RTVSPropertyOp28
 70
     1
102
RTVSPropertyOp29
 70
     1
102
RTVSPropertyOp30
 70
     1
102
RTVSPropertyOp31
 70
     1
102
RTVSPropertyOp32
 70
     1
102
RTVSPropertyOp33
 70
     1
102
RTVSPropertyOp34
 70
     1
102
RTVSPropertyOp35
 70
     1
102
RTVSPropertyOp36
 70
     1
102
RTVSPropertyOp37
 70
     1
102
RTVSPropertyOp38
 70
     1
102
RTVSPropertyOp39
 70
     1
102
RTVSPropertyOp40
 70
     1
102
RTVSPropertyOp41
 70
     1
102
RTVSPropertyOp42
 70
     1
102
RTVSPropertyOp43
 70
     1
102
RTVSPropertyOp44
 70
     1
102
RTVSPropertyOp45
 70
     1
102
RTVSPropertyOp46
 70
     1
102
RTVSPropertyOp47
 70
     1
102
RTVSPropertyOp48
 70
     1
102
RTVSPropertyOp49
 70
     1
102
RTVSPropertyOp50
 70
     1
102
RTVSPropertyOp51
 70
     0
102
RTVSPropertyOp52
 70
     0
102
RTVSPropertyOp53
 70
     1
102
RTVSPropertyOp54
 70
     1
102
RTVSPropertyOp55
 70
     1
102
RTVSPropertyOp56
 70
     1
102
RTVSPropertyOp57
 70
     1
102
RTVSPropertyOp58
 70
     1
102
RTVSPropertyOp59
 70
     1
102
RTVSPropertyOp60
 70
     1
102
RTVSPropertyOp61
 70
     1
102
RTVSPropertyOp62
 70
     1
  0
XRECORD
  5
535F6
102
{ACAD_REACTORS
330
535F5
102
}
330
535F5
100
AcDbXrecord
280
     1
102
RTVSPost2010Prop28
280
     0
102
RTVSPost2010PropOp28
 70
     1
102
RTVSPost2010Prop29
280
     1
102
RTVSPost2010PropOp29
 70
     1
102
RTVSPost2010Prop30
280
     1
102
RTVSPost2010PropOp30
 70
     1
102
RTVSPost2010Prop31
280
     0
102
RTVSPost2010PropOp31
 70
     1
102
RTVSPost2010Prop32
280
     0
102
RTVSPost2010PropOp32
 70
     1
102
RTVSPost2010Prop33
280
     0
102
RTVSPost2010PropOp33
 70
     1
102
RTVSPost2010Prop34
280
     0
102
RTVSPost2010PropOp34
 70
     1
102
RTVSPost2010Prop35
280
     0
102
RTVSPost2010PropOp35
 70
     1
102
RTVSPost2010Prop36
280
     0
102
RTVSPost2010PropOp36
 70
     1
102
RTVSPost2010Prop37
 90
       50
102
RTVSPost2010PropOp37
 70
     1
102
RTVSPost2010Prop38
140
0.0
102
RTVSPost2010PropOp38
 70
     1
102
RTVSPost2010Prop39
140
1.0
102
RTVSPost2010PropOp39
 70
     1
102
RTVSPost2010Prop40
 90
        0
102
RTVSPost2010PropOp40
 70
     1
102
RTVSPost2010Prop41ColorIndex
 90
       18
102
RTVSPost2010Prop41ColorRGB
 90
        0
102
RTVSPost2010PropOp41
 70
     1
102
RTVSPost2010Prop42
 90
       50
102
RTVSPost2010PropOp42
 70
     1
102
RTVSPost2010Prop43
 90
        3
102
RTVSPost2010PropOp43
 70
     1
102
RTVSPost2010Prop44ColorIndex
 90
        5
102
RTVSPost2010Prop44ColorRGB
 90
      255
102
RTVSPost2010PropOp44
 70
     1
102
RTVSPost2010Prop45
280
     0
102
RTVSPost2010PropOp45
 70
     1
102
RTVSPost2010Prop46
 90
       50
102
RTVSPost2010PropOp46
 70
     1
102
RTVSPost2010Prop47
 90
       50
102
RTVSPost2010PropOp47
 70
     1
102
RTVSPost2010Prop48
 90
       50
102
RTVSPost2010PropOp48
 70
     1
102
RTVSPost2010Prop49
280
     0
102
RTVSPost2010PropOp49
 70
     1
102
RTVSPost2010Prop50
 90
       50
102
RTVSPost2010PropOp50
 70
     1
102
RTVSPost2010Prop51ColorIndex
 90
      256
102
RTVSPost2010Prop51ColorRGB
 90
-16777216
102
RTVSPost2010PropOp51
 70
     0
102
RTVSPost2010Prop52
140
1.0
102
RTVSPost2010PropOp52
 70
     0
102
RTVSPost2010Prop53
 90
        2
102
RTVSPost2010PropOp53
 70
     1
102
RTVSPost2010Prop54
  1
strokes_ogs.tif
102
RTVSPost2010PropOp54
 70
     1
102
RTVSPost2010Prop55
280
     0
102
RTVSPost2010PropOp55
 70
     1
102
RTVSPost2010Prop56
140
1.0
102
RTVSPost2010PropOp56
 70
     1
102
RTVSPost2010Prop57
140
1.0
102
RTVSPost2010PropOp57
 70
     1
102
RTVSPropertyOp0
 70
     1
102
RTVSPropertyOp1
 70
     1
102
RTVSPropertyOp2
 70
     1
102
RTVSPropertyOp3
 70
     1
102
RTVSPropertyOp4
 70
     1
102
RTVSPropertyOp5
 70
     1
102
RTVSPropertyOp6
 70
     1
102
RTVSPropertyOp7
 70
     1
102
RTVSPropertyOp8
 70
     1
102
RTVSPropertyOp9
 70
     1
102
RTVSPropertyOp10
 70
     1
102
RTVSPropertyOp11
 70
     1
102
RTVSPropertyOp12
 70
     1
102
RTVSPropertyOp13
 70
     1
102
RTVSPropertyOp14
 70
     1
102
RTVSPropertyOp15
 70
     1
102
RTVSPropertyOp16
 70
     1
102
RTVSPropertyOp17
 70
     1
102
RTVSPropertyOp18
 70
     1
102
RTVSPropertyOp19
 70
     1
102
RTVSPropertyOp20
 70
     1
102
RTVSPropertyOp21
 70
     1
102
RTVSPropertyOp22
 70
     1
102
RTVSPropertyOp23
 70
     1
102
RTVSPropertyOp24
 70
     1
102
RTVSPropertyOp25
 70
     1
102
RTVSPropertyOp26
 70
     1
102
RTVSPropertyOp27
 70
     1
102
RTVSPropertyOp28
 70
     1
102
RTVSPropertyOp29
 70
     1
102
RTVSPropertyOp30
 70
     1
102
RTVSPropertyOp31
 70
     1
102
RTVSPropertyOp32
 70
     1
102
RTVSPropertyOp33
 70
     1
102
RTVSPropertyOp34
 70
     1
102
RTVSPropertyOp35
 70
     1
102
RTVSPropertyOp36
 70
     1
102
RTVSPropertyOp37
 70
     1
102
RTVSPropertyOp38
 70
     1
102
RTVSPropertyOp39
 70
     1
102
RTVSPropertyOp40
 70
     1
102
RTVSPropertyOp41
 70
     1
102
RTVSPropertyOp42
 70
     1
102
RTVSPropertyOp43
 70
     1
102
RTVSPropertyOp44
 70
     1
102
RTVSPropertyOp45
 70
     1
102
RTVSPropertyOp46
 70
     1
102
RTVSPropertyOp47
 70
     1
102
RTVSPropertyOp48
 70
     1
102
RTVSPropertyOp49
 70
     1
102
RTVSPropertyOp50
 70
     1
102
RTVSPropertyOp51
 70
     0
102
RTVSPropertyOp52
 70
     0
102
RTVSPropertyOp53
 70
     1
102
RTVSPropertyOp54
 70
     1
102
RTVSPropertyOp55
 70
     1
102
RTVSPropertyOp56
 70
     1
102
RTVSPropertyOp57
 70
     1
102
RTVSPropertyOp58
 70
     1
102
RTVSPropertyOp59
 70
     1
102
RTVSPropertyOp60
 70
     1
102
RTVSPropertyOp61
 70
     1
102
RTVSPropertyOp62
 70
     1
  0
XRECORD
  5
535FA
102
{ACAD_REACTORS
330
535F9
102
}
330
535F9
100
AcDbXrecord
280
     1
102
RTVSPost2010Prop28
280
     0
102
RTVSPost2010PropOp28
 70
     1
102
RTVSPost2010Prop29
280
     1
102
RTVSPost2010PropOp29
 70
     1
102
RTVSPost2010Prop30
280
     1
102
RTVSPost2010PropOp30
 70
     1
102
RTVSPost2010Prop31
280
     0
102
RTVSPost2010PropOp31
 70
     1
102
RTVSPost2010Prop32
280
     0
102
RTVSPost2010PropOp32
 70
     1
102
RTVSPost2010Prop33
280
     0
102
RTVSPost2010PropOp33
 70
     1
102
RTVSPost2010Prop34
280
     0
102
RTVSPost2010PropOp34
 70
     1
102
RTVSPost2010Prop35
280
     0
102
RTVSPost2010PropOp35
 70
     1
102
RTVSPost2010Prop36
280
     0
102
RTVSPost2010PropOp36
 70
     1
102
RTVSPost2010Prop37
 90
       50
102
RTVSPost2010PropOp37
 70
     1
102
RTVSPost2010Prop38
140
0.0
102
RTVSPost2010PropOp38
 70
     1
102
RTVSPost2010Prop39
140
1.0
102
RTVSPost2010PropOp39
 70
     1
102
RTVSPost2010Prop40
 90
        0
102
RTVSPost2010PropOp40
 70
     1
102
RTVSPost2010Prop41ColorIndex
 90
       18
102
RTVSPost2010Prop41ColorRGB
 90
        0
102
RTVSPost2010PropOp41
 70
     1
102
RTVSPost2010Prop42
 90
       50
102
RTVSPost2010PropOp42
 70
     1
102
RTVSPost2010Prop43
 90
        3
102
RTVSPost2010PropOp43
 70
     1
102
RTVSPost2010Prop44ColorIndex
 90
        5
102
RTVSPost2010Prop44ColorRGB
 90
      255
102
RTVSPost2010PropOp44
 70
     1
102
RTVSPost2010Prop45
280
     0
102
RTVSPost2010PropOp45
 70
     1
102
RTVSPost2010Prop46
 90
       50
102
RTVSPost2010PropOp46
 70
     1
102
RTVSPost2010Prop47
 90
       50
102
RTVSPost2010PropOp47
 70
     1
102
RTVSPost2010Prop48
 90
       50
102
RTVSPost2010PropOp48
 70
     1
102
RTVSPost2010Prop49
280
     0
102
RTVSPost2010PropOp49
 70
     1
102
RTVSPost2010Prop50
 90
       50
102
RTVSPost2010PropOp50
 70
     1
102
RTVSPost2010Prop51ColorIndex
 90
      256
102
RTVSPost2010Prop51ColorRGB
 90
-16777216
102
RTVSPost2010PropOp51
 70
     0
102
RTVSPost2010Prop52
140
1.0
102
RTVSPost2010PropOp52
 70
     0
102
RTVSPost2010Prop53
 90
        2
102
RTVSPost2010PropOp53
 70
     1
102
RTVSPost2010Prop54
  1
strokes_ogs.tif
102
RTVSPost2010PropOp54
 70
     1
102
RTVSPost2010Prop55
280
     0
102
RTVSPost2010PropOp55
 70
     1
102
RTVSPost2010Prop56
140
1.0
102
RTVSPost2010PropOp56
 70
     1
102
RTVSPost2010Prop57
140
1.0
102
RTVSPost2010PropOp57
 70
     1
102
RTVSPropertyOp0
 70
     1
102
RTVSPropertyOp1
 70
     1
102
RTVSPropertyOp2
 70
     1
102
RTVSPropertyOp3
 70
     1
102
RTVSPropertyOp4
 70
     1
102
RTVSPropertyOp5
 70
     1
102
RTVSPropertyOp6
 70
     1
102
RTVSPropertyOp7
 70
     1
102
RTVSPropertyOp8
 70
     1
102
RTVSPropertyOp9
 70
     1
102
RTVSPropertyOp10
 70
     1
102
RTVSPropertyOp11
 70
     1
102
RTVSPropertyOp12
 70
     1
102
RTVSPropertyOp13
 70
     1
102
RTVSPropertyOp14
 70
     1
102
RTVSPropertyOp15
 70
     1
102
RTVSPropertyOp16
 70
     1
102
RTVSPropertyOp17
 70
     1
102
RTVSPropertyOp18
 70
     1
102
RTVSPropertyOp19
 70
     1
102
RTVSPropertyOp20
 70
     1
102
RTVSPropertyOp21
 70
     1
102
RTVSPropertyOp22
 70
     1
102
RTVSPropertyOp23
 70
     1
102
RTVSPropertyOp24
 70
     1
102
RTVSPropertyOp25
 70
     1
102
RTVSPropertyOp26
 70
     1
102
RTVSPropertyOp27
 70
     1
102
RTVSPropertyOp28
 70
     1
102
RTVSPropertyOp29
 70
     1
102
RTVSPropertyOp30
 70
     1
102
RTVSPropertyOp31
 70
     1
102
RTVSPropertyOp32
 70
     1
102
RTVSPropertyOp33
 70
     1
102
RTVSPropertyOp34
 70
     1
102
RTVSPropertyOp35
 70
     1
102
RTVSPropertyOp36
 70
     1
102
RTVSPropertyOp37
 70
     1
102
RTVSPropertyOp38
 70
     1
102
RTVSPropertyOp39
 70
     1
102
RTVSPropertyOp40
 70
     1
102
RTVSPropertyOp41
 70
     1
102
RTVSPropertyOp42
 70
     1
102
RTVSPropertyOp43
 70
     1
102
RTVSPropertyOp44
 70
     1
102
RTVSPropertyOp45
 70
     1
102
RTVSPropertyOp46
 70
     1
102
RTVSPropertyOp47
 70
     1
102
RTVSPropertyOp48
 70
     1
102
RTVSPropertyOp49
 70
     1
102
RTVSPropertyOp50
 70
     1
102
RTVSPropertyOp51
 70
     0
102
RTVSPropertyOp52
 70
     0
102
RTVSPropertyOp53
 70
     1
102
RTVSPropertyOp54
 70
     1
102
RTVSPropertyOp55
 70
     1
102
RTVSPropertyOp56
 70
     1
102
RTVSPropertyOp57
 70
     1
102
RTVSPropertyOp58
 70
     1
102
RTVSPropertyOp59
 70
     1
102
RTVSPropertyOp60
 70
     1
102
RTVSPropertyOp61
 70
     1
102
RTVSPropertyOp62
 70
     1
  0
XRECORD
  5
53614
102
{ACAD_REACTORS
330
53613
102
}
330
53613
100
AcDbXrecord
280
     1
102
RTVSPost2010Prop28
280
     0
102
RTVSPost2010PropOp28
 70
     1
102
RTVSPost2010Prop29
280
     1
102
RTVSPost2010PropOp29
 70
     1
102
RTVSPost2010Prop30
280
     1
102
RTVSPost2010PropOp30
 70
     1
102
RTVSPost2010Prop31
280
     0
102
RTVSPost2010PropOp31
 70
     1
102
RTVSPost2010Prop32
280
     0
102
RTVSPost2010PropOp32
 70
     1
102
RTVSPost2010Prop33
280
     0
102
RTVSPost2010PropOp33
 70
     1
102
RTVSPost2010Prop34
280
     0
102
RTVSPost2010PropOp34
 70
     1
102
RTVSPost2010Prop35
280
     0
102
RTVSPost2010PropOp35
 70
     1
102
RTVSPost2010Prop36
280
     0
102
RTVSPost2010PropOp36
 70
     1
102
RTVSPost2010Prop37
 90
       50
102
RTVSPost2010PropOp37
 70
     0
102
RTVSPost2010Prop38
140
0.0
102
RTVSPost2010PropOp38
 70
     0
102
RTVSPost2010Prop39
140
1.0
102
RTVSPost2010PropOp39
 70
     0
102
RTVSPost2010Prop40
 90
        0
102
RTVSPost2010PropOp40
 70
     0
102
RTVSPost2010Prop41ColorIndex
 90
       18
102
RTVSPost2010Prop41ColorRGB
 90
        0
102
RTVSPost2010PropOp41
 70
     0
102
RTVSPost2010Prop42
 90
       50
102
RTVSPost2010PropOp42
 70
     0
102
RTVSPost2010Prop43
 90
        3
102
RTVSPost2010PropOp43
 70
     0
102
RTVSPost2010Prop44ColorIndex
 90
        5
102
RTVSPost2010Prop44ColorRGB
 90
      255
102
RTVSPost2010PropOp44
 70
     0
102
RTVSPost2010Prop45
280
     0
102
RTVSPost2010PropOp45
 70
     1
102
RTVSPost2010Prop46
 90
       50
102
RTVSPost2010PropOp46
 70
     0
102
RTVSPost2010Prop47
 90
       50
102
RTVSPost2010PropOp47
 70
     0
102
RTVSPost2010Prop48
 90
       50
102
RTVSPost2010PropOp48
 70
     0
102
RTVSPost2010Prop49
280
     0
102
RTVSPost2010PropOp49
 70
     1
102
RTVSPost2010Prop50
 90
       50
102
RTVSPost2010PropOp50
 70
     0
102
RTVSPost2010Prop51ColorIndex
 90
      256
102
RTVSPost2010Prop51ColorRGB
 90
-16777216
102
RTVSPost2010PropOp51
 70
     0
102
RTVSPost2010Prop52
140
1.0
102
RTVSPost2010PropOp52
 70
     0
102
RTVSPost2010Prop53
 90
        2
102
RTVSPost2010PropOp53
 70
     0
102
RTVSPost2010Prop54
  1
strokes_ogs.tif
102
RTVSPost2010PropOp54
 70
     0
102
RTVSPost2010Prop55
280
     0
102
RTVSPost2010PropOp55
 70
     1
102
RTVSPost2010Prop56
140
1.0
102
RTVSPost2010PropOp56
 70
     0
102
RTVSPost2010Prop57
140
1.0
102
RTVSPost2010PropOp57
 70
     0
102
RTVSPropertyOp0
 70
     0
102
RTVSPropertyOp1
 70
     0
102
RTVSPropertyOp2
 70
     0
102
RTVSPropertyOp3
 70
     0
102
RTVSPropertyOp4
 70
     0
102
RTVSPropertyOp5
 70
     0
102
RTVSPropertyOp6
 70
     0
102
RTVSPropertyOp7
 70
     0
102
RTVSPropertyOp8
 70
     0
102
RTVSPropertyOp9
 70
     0
102
RTVSPropertyOp10
 70
     0
102
RTVSPropertyOp11
 70
     0
102
RTVSPropertyOp12
 70
     0
102
RTVSPropertyOp13
 70
     0
102
RTVSPropertyOp14
 70
     2
102
RTVSPropertyOp15
 70
     0
102
RTVSPropertyOp16
 70
     0
102
RTVSPropertyOp17
 70
     0
102
RTVSPropertyOp18
 70
     0
102
RTVSPropertyOp19
 70
     0
102
RTVSPropertyOp20
 70
     0
102
RTVSPropertyOp21
 70
     0
102
RTVSPropertyOp22
 70
     0
102
RTVSPropertyOp23
 70
     0
102
RTVSPropertyOp24
 70
     0
102
RTVSPropertyOp25
 70
     0
102
RTVSPropertyOp26
 70
     0
102
RTVSPropertyOp27
 70
     0
102
RTVSPropertyOp28
 70
     1
102
RTVSPropertyOp29
 70
     1
102
RTVSPropertyOp30
 70
     1
102
RTVSPropertyOp31
 70
     1
102
RTVSPropertyOp32
 70
     1
102
RTVSPropertyOp33
 70
     1
102
RTVSPropertyOp34
 70
     1
102
RTVSPropertyOp35
 70
     1
102
RTVSPropertyOp36
 70
     1
102
RTVSPropertyOp37
 70
     0
102
RTVSPropertyOp38
 70
     0
102
RTVSPropertyOp39
 70
     0
102
RTVSPropertyOp40
 70
     0
102
RTVSPropertyOp41
 70
     0
102
RTVSPropertyOp42
 70
     0
102
RTVSPropertyOp43
 70
     0
102
RTVSPropertyOp44
 70
     0
102
RTVSPropertyOp45
 70
     1
102
RTVSPropertyOp46
 70
     0
102
RTVSPropertyOp47
 70
     0
102
RTVSPropertyOp48
 70
     0
102
RTVSPropertyOp49
 70
     1
102
RTVSPropertyOp50
 70
     0
102
RTVSPropertyOp51
 70
     0
102
RTVSPropertyOp52
 70
     0
102
RTVSPropertyOp53
 70
     0
102
RTVSPropertyOp54
 70
     0
102
RTVSPropertyOp55
 70
     1
102
RTVSPropertyOp56
 70
     0
102
RTVSPropertyOp57
 70
     0
102
RTVSPropertyOp58
 70
     0
102
RTVSPropertyOp59
 70
     0
102
RTVSPropertyOp60
 70
     0
102
RTVSPropertyOp61
 70
     0
102
RTVSPropertyOp62
 70
     0
  0
XRECORD
  5
53602
102
{ACAD_REACTORS
330
53601
102
}
330
53601
100
AcDbXrecord
280
     1
102
RTVSPost2010Prop28
280
     0
102
RTVSPost2010PropOp28
 70
     1
102
RTVSPost2010Prop29
280
     1
102
RTVSPost2010PropOp29
 70
     1
102
RTVSPost2010Prop30
280
     1
102
RTVSPost2010PropOp30
 70
     1
102
RTVSPost2010Prop31
280
     0
102
RTVSPost2010PropOp31
 70
     1
102
RTVSPost2010Prop32
280
     0
102
RTVSPost2010PropOp32
 70
     1
102
RTVSPost2010Prop33
280
     0
102
RTVSPost2010PropOp33
 70
     1
102
RTVSPost2010Prop34
280
     0
102
RTVSPost2010PropOp34
 70
     1
102
RTVSPost2010Prop35
280
     0
102
RTVSPost2010PropOp35
 70
     1
102
RTVSPost2010Prop36
280
     0
102
RTVSPost2010PropOp36
 70
     1
102
RTVSPost2010Prop37
 90
       50
102
RTVSPost2010PropOp37
 70
     1
102
RTVSPost2010Prop38
140
0.0
102
RTVSPost2010PropOp38
 70
     1
102
RTVSPost2010Prop39
140
1.0
102
RTVSPost2010PropOp39
 70
     1
102
RTVSPost2010Prop40
 90
        0
102
RTVSPost2010PropOp40
 70
     1
102
RTVSPost2010Prop41ColorIndex
 90
       18
102
RTVSPost2010Prop41ColorRGB
 90
        0
102
RTVSPost2010PropOp41
 70
     1
102
RTVSPost2010Prop42
 90
       50
102
RTVSPost2010PropOp42
 70
     1
102
RTVSPost2010Prop43
 90
        3
102
RTVSPost2010PropOp43
 70
     1
102
RTVSPost2010Prop44ColorIndex
 90
        5
102
RTVSPost2010Prop44ColorRGB
 90
      255
102
RTVSPost2010PropOp44
 70
     1
102
RTVSPost2010Prop45
280
     0
102
RTVSPost2010PropOp45
 70
     1
102
RTVSPost2010Prop46
 90
       50
102
RTVSPost2010PropOp46
 70
     1
102
RTVSPost2010Prop47
 90
       50
102
RTVSPost2010PropOp47
 70
     1
102
RTVSPost2010Prop48
 90
       50
102
RTVSPost2010PropOp48
 70
     1
102
RTVSPost2010Prop49
280
     0
102
RTVSPost2010PropOp49
 70
     1
102
RTVSPost2010Prop50
 90
       50
102
RTVSPost2010PropOp50
 70
     1
102
RTVSPost2010Prop51ColorIndex
 90
      256
102
RTVSPost2010Prop51ColorRGB
 90
-16777216
102
RTVSPost2010PropOp51
 70
     0
102
RTVSPost2010Prop52
140
1.0
102
RTVSPost2010PropOp52
 70
     0
102
RTVSPost2010Prop53
 90
        2
102
RTVSPost2010PropOp53
 70
     1
102
RTVSPost2010Prop54
  1
strokes_ogs.tif
102
RTVSPost2010PropOp54
 70
     1
102
RTVSPost2010Prop55
280
     0
102
RTVSPost2010PropOp55
 70
     1
102
RTVSPost2010Prop56
140
1.0
102
RTVSPost2010PropOp56
 70
     1
102
RTVSPost2010Prop57
140
1.0
102
RTVSPost2010PropOp57
 70
     1
102
RTVSPropertyOp0
 70
     1
102
RTVSPropertyOp1
 70
     1
102
RTVSPropertyOp2
 70
     1
102
RTVSPropertyOp3
 70
     1
102
RTVSPropertyOp4
 70
     1
102
RTVSPropertyOp5
 70
     1
102
RTVSPropertyOp6
 70
     1
102
RTVSPropertyOp7
 70
     1
102
RTVSPropertyOp8
 70
     1
102
RTVSPropertyOp9
 70
     1
102
RTVSPropertyOp10
 70
     1
102
RTVSPropertyOp11
 70
     1
102
RTVSPropertyOp12
 70
     1
102
RTVSPropertyOp13
 70
     1
102
RTVSPropertyOp14
 70
     1
102
RTVSPropertyOp15
 70
     1
102
RTVSPropertyOp16
 70
     1
102
RTVSPropertyOp17
 70
     1
102
RTVSPropertyOp18
 70
     1
102
RTVSPropertyOp19
 70
     1
102
RTVSPropertyOp20
 70
     1
102
RTVSPropertyOp21
 70
     1
102
RTVSPropertyOp22
 70
     1
102
RTVSPropertyOp23
 70
     1
102
RTVSPropertyOp24
 70
     1
102
RTVSPropertyOp25
 70
     1
102
RTVSPropertyOp26
 70
     1
102
RTVSPropertyOp27
 70
     1
102
RTVSPropertyOp28
 70
     1
102
RTVSPropertyOp29
 70
     1
102
RTVSPropertyOp30
 70
     1
102
RTVSPropertyOp31
 70
     1
102
RTVSPropertyOp32
 70
     1
102
RTVSPropertyOp33
 70
     1
102
RTVSPropertyOp34
 70
     1
102
RTVSPropertyOp35
 70
     1
102
RTVSPropertyOp36
 70
     1
102
RTVSPropertyOp37
 70
     1
102
RTVSPropertyOp38
 70
     1
102
RTVSPropertyOp39
 70
     1
102
RTVSPropertyOp40
 70
     1
102
RTVSPropertyOp41
 70
     1
102
RTVSPropertyOp42
 70
     1
102
RTVSPropertyOp43
 70
     1
102
RTVSPropertyOp44
 70
     1
102
RTVSPropertyOp45
 70
     1
102
RTVSPropertyOp46
 70
     1
102
RTVSPropertyOp47
 70
     1
102
RTVSPropertyOp48
 70
     1
102
RTVSPropertyOp49
 70
     1
102
RTVSPropertyOp50
 70
     1
102
RTVSPropertyOp51
 70
     0
102
RTVSPropertyOp52
 70
     0
102
RTVSPropertyOp53
 70
     1
102
RTVSPropertyOp54
 70
     1
102
RTVSPropertyOp55
 70
     1
102
RTVSPropertyOp56
 70
     1
102
RTVSPropertyOp57
 70
     1
102
RTVSPropertyOp58
 70
     1
102
RTVSPropertyOp59
 70
     1
102
RTVSPropertyOp60
 70
     1
102
RTVSPropertyOp61
 70
     1
102
RTVSPropertyOp62
 70
     1
  0
XRECORD
  5
535E6
102
{ACAD_REACTORS
330
535E5
102
}
330
535E5
100
AcDbXrecord
280
     1
102
RTVSPost2010Prop28
280
     0
102
RTVSPost2010PropOp28
 70
     1
102
RTVSPost2010Prop29
280
     1
102
RTVSPost2010PropOp29
 70
     1
102
RTVSPost2010Prop30
280
     1
102
RTVSPost2010PropOp30
 70
     1
102
RTVSPost2010Prop31
280
     0
102
RTVSPost2010PropOp31
 70
     1
102
RTVSPost2010Prop32
280
     0
102
RTVSPost2010PropOp32
 70
     1
102
RTVSPost2010Prop33
280
     0
102
RTVSPost2010PropOp33
 70
     1
102
RTVSPost2010Prop34
280
     0
102
RTVSPost2010PropOp34
 70
     1
102
RTVSPost2010Prop35
280
     0
102
RTVSPost2010PropOp35
 70
     1
102
RTVSPost2010Prop36
280
     0
102
RTVSPost2010PropOp36
 70
     1
102
RTVSPost2010Prop37
 90
       50
102
RTVSPost2010PropOp37
 70
     1
102
RTVSPost2010Prop38
140
0.0
102
RTVSPost2010PropOp38
 70
     1
102
RTVSPost2010Prop39
140
1.0
102
RTVSPost2010PropOp39
 70
     1
102
RTVSPost2010Prop40
 90
        0
102
RTVSPost2010PropOp40
 70
     1
102
RTVSPost2010Prop41ColorIndex
 90
       18
102
RTVSPost2010Prop41ColorRGB
 90
        0
102
RTVSPost2010PropOp41
 70
     1
102
RTVSPost2010Prop42
 90
       50
102
RTVSPost2010PropOp42
 70
     1
102
RTVSPost2010Prop43
 90
        3
102
RTVSPost2010PropOp43
 70
     1
102
RTVSPost2010Prop44ColorIndex
 90
        5
102
RTVSPost2010Prop44ColorRGB
 90
      255
102
RTVSPost2010PropOp44
 70
     1
102
RTVSPost2010Prop45
280
     0
102
RTVSPost2010PropOp45
 70
     1
102
RTVSPost2010Prop46
 90
       50
102
RTVSPost2010PropOp46
 70
     1
102
RTVSPost2010Prop47
 90
       50
102
RTVSPost2010PropOp47
 70
     1
102
RTVSPost2010Prop48
 90
       50
102
RTVSPost2010PropOp48
 70
     1
102
RTVSPost2010Prop49
280
     0
102
RTVSPost2010PropOp49
 70
     1
102
RTVSPost2010Prop50
 90
       50
102
RTVSPost2010PropOp50
 70
     1
102
RTVSPost2010Prop51ColorIndex
 90
      256
102
RTVSPost2010Prop51ColorRGB
 90
-16777216
102
RTVSPost2010PropOp51
 70
     0
102
RTVSPost2010Prop52
140
1.0
102
RTVSPost2010PropOp52
 70
     0
102
RTVSPost2010Prop53
 90
        2
102
RTVSPost2010PropOp53
 70
     1
102
RTVSPost2010Prop54
  1
strokes_ogs.tif
102
RTVSPost2010PropOp54
 70
     1
102
RTVSPost2010Prop55
280
     0
102
RTVSPost2010PropOp55
 70
     1
102
RTVSPost2010Prop56
140
1.0
102
RTVSPost2010PropOp56
 70
     1
102
RTVSPost2010Prop57
140
1.0
102
RTVSPost2010PropOp57
 70
     1
102
RTVSPropertyOp0
 70
     1
102
RTVSPropertyOp1
 70
     1
102
RTVSPropertyOp2
 70
     1
102
RTVSPropertyOp3
 70
     1
102
RTVSPropertyOp4
 70
     1
102
RTVSPropertyOp5
 70
     1
102
RTVSPropertyOp6
 70
     1
102
RTVSPropertyOp7
 70
     1
102
RTVSPropertyOp8
 70
     1
102
RTVSPropertyOp9
 70
     1
102
RTVSPropertyOp10
 70
     1
102
RTVSPropertyOp11
 70
     1
102
RTVSPropertyOp12
 70
     1
102
RTVSPropertyOp13
 70
     1
102
RTVSPropertyOp14
 70
     1
102
RTVSPropertyOp15
 70
     1
102
RTVSPropertyOp16
 70
     1
102
RTVSPropertyOp17
 70
     1
102
RTVSPropertyOp18
 70
     1
102
RTVSPropertyOp19
 70
     1
102
RTVSPropertyOp20
 70
     1
102
RTVSPropertyOp21
 70
     1
102
RTVSPropertyOp22
 70
     1
102
RTVSPropertyOp23
 70
     1
102
RTVSPropertyOp24
 70
     1
102
RTVSPropertyOp25
 70
     1
102
RTVSPropertyOp26
 70
     1
102
RTVSPropertyOp27
 70
     1
102
RTVSPropertyOp28
 70
     1
102
RTVSPropertyOp29
 70
     1
102
RTVSPropertyOp30
 70
     1
102
RTVSPropertyOp31
 70
     1
102
RTVSPropertyOp32
 70
     1
102
RTVSPropertyOp33
 70
     1
102
RTVSPropertyOp34
 70
     1
102
RTVSPropertyOp35
 70
     1
102
RTVSPropertyOp36
 70
     1
102
RTVSPropertyOp37
 70
     1
102
RTVSPropertyOp38
 70
     1
102
RTVSPropertyOp39
 70
     1
102
RTVSPropertyOp40
 70
     1
102
RTVSPropertyOp41
 70
     1
102
RTVSPropertyOp42
 70
     1
102
RTVSPropertyOp43
 70
     1
102
RTVSPropertyOp44
 70
     1
102
RTVSPropertyOp45
 70
     1
102
RTVSPropertyOp46
 70
     1
102
RTVSPropertyOp47
 70
     1
102
RTVSPropertyOp48
 70
     1
102
RTVSPropertyOp49
 70
     1
102
RTVSPropertyOp50
 70
     1
102
RTVSPropertyOp51
 70
     0
102
RTVSPropertyOp52
 70
     0
102
RTVSPropertyOp53
 70
     1
102
RTVSPropertyOp54
 70
     1
102
RTVSPropertyOp55
 70
     1
102
RTVSPropertyOp56
 70
     1
102
RTVSPropertyOp57
 70
     1
102
RTVSPropertyOp58
 70
     1
102
RTVSPropertyOp59
 70
     1
102
RTVSPropertyOp60
 70
     1
102
RTVSPropertyOp61
 70
     1
102
RTVSPropertyOp62
 70
     1
  0
XRECORD
  5
535E8
102
{ACAD_REACTORS
330
535E7
102
}
330
535E7
100
AcDbXrecord
280
     1
102
RTVSPost2010Prop28
280
     0
102
RTVSPost2010PropOp28
 70
     1
102
RTVSPost2010Prop29
280
     1
102
RTVSPost2010PropOp29
 70
     1
102
RTVSPost2010Prop30
280
     1
102
RTVSPost2010PropOp30
 70
     1
102
RTVSPost2010Prop31
280
     0
102
RTVSPost2010PropOp31
 70
     1
102
RTVSPost2010Prop32
280
     0
102
RTVSPost2010PropOp32
 70
     1
102
RTVSPost2010Prop33
280
     0
102
RTVSPost2010PropOp33
 70
     1
102
RTVSPost2010Prop34
280
     0
102
RTVSPost2010PropOp34
 70
     1
102
RTVSPost2010Prop35
280
     0
102
RTVSPost2010PropOp35
 70
     1
102
RTVSPost2010Prop36
280
     0
102
RTVSPost2010PropOp36
 70
     1
102
RTVSPost2010Prop37
 90
       50
102
RTVSPost2010PropOp37
 70
     1
102
RTVSPost2010Prop38
140
0.0
102
RTVSPost2010PropOp38
 70
     1
102
RTVSPost2010Prop39
140
1.0
102
RTVSPost2010PropOp39
 70
     1
102
RTVSPost2010Prop40
 90
        0
102
RTVSPost2010PropOp40
 70
     1
102
RTVSPost2010Prop41ColorIndex
 90
       18
102
RTVSPost2010Prop41ColorRGB
 90
        0
102
RTVSPost2010PropOp41
 70
     1
102
RTVSPost2010Prop42
 90
       50
102
RTVSPost2010PropOp42
 70
     1
102
RTVSPost2010Prop43
 90
        3
102
RTVSPost2010PropOp43
 70
     1
102
RTVSPost2010Prop44ColorIndex
 90
        5
102
RTVSPost2010Prop44ColorRGB
 90
      255
102
RTVSPost2010PropOp44
 70
     1
102
RTVSPost2010Prop45
280
     0
102
RTVSPost2010PropOp45
 70
     1
102
RTVSPost2010Prop46
 90
       50
102
RTVSPost2010PropOp46
 70
     1
102
RTVSPost2010Prop47
 90
       50
102
RTVSPost2010PropOp47
 70
     1
102
RTVSPost2010Prop48
 90
       50
102
RTVSPost2010PropOp48
 70
     1
102
RTVSPost2010Prop49
280
     0
102
RTVSPost2010PropOp49
 70
     1
102
RTVSPost2010Prop50
 90
       50
102
RTVSPost2010PropOp50
 70
     1
102
RTVSPost2010Prop51ColorIndex
 90
      256
102
RTVSPost2010Prop51ColorRGB
 90
-16777216
102
RTVSPost2010PropOp51
 70
     0
102
RTVSPost2010Prop52
140
1.0
102
RTVSPost2010PropOp52
 70
     0
102
RTVSPost2010Prop53
 90
        2
102
RTVSPost2010PropOp53
 70
     1
102
RTVSPost2010Prop54
  1
strokes_ogs.tif
102
RTVSPost2010PropOp54
 70
     1
102
RTVSPost2010Prop55
280
     0
102
RTVSPost2010PropOp55
 70
     1
102
RTVSPost2010Prop56
140
1.0
102
RTVSPost2010PropOp56
 70
     1
102
RTVSPost2010Prop57
140
1.0
102
RTVSPost2010PropOp57
 70
     1
102
RTVSPropertyOp0
 70
     1
102
RTVSPropertyOp1
 70
     1
102
RTVSPropertyOp2
 70
     1
102
RTVSPropertyOp3
 70
     1
102
RTVSPropertyOp4
 70
     1
102
RTVSPropertyOp5
 70
     1
102
RTVSPropertyOp6
 70
     1
102
RTVSPropertyOp7
 70
     1
102
RTVSPropertyOp8
 70
     1
102
RTVSPropertyOp9
 70
     1
102
RTVSPropertyOp10
 70
     1
102
RTVSPropertyOp11
 70
     1
102
RTVSPropertyOp12
 70
     1
102
RTVSPropertyOp13
 70
     1
102
RTVSPropertyOp14
 70
     1
102
RTVSPropertyOp15
 70
     1
102
RTVSPropertyOp16
 70
     1
102
RTVSPropertyOp17
 70
     1
102
RTVSPropertyOp18
 70
     1
102
RTVSPropertyOp19
 70
     1
102
RTVSPropertyOp20
 70
     1
102
RTVSPropertyOp21
 70
     1
102
RTVSPropertyOp22
 70
     1
102
RTVSPropertyOp23
 70
     1
102
RTVSPropertyOp24
 70
     1
102
RTVSPropertyOp25
 70
     1
102
RTVSPropertyOp26
 70
     1
102
RTVSPropertyOp27
 70
     1
102
RTVSPropertyOp28
 70
     1
102
RTVSPropertyOp29
 70
     1
102
RTVSPropertyOp30
 70
     1
102
RTVSPropertyOp31
 70
     1
102
RTVSPropertyOp32
 70
     1
102
RTVSPropertyOp33
 70
     1
102
RTVSPropertyOp34
 70
     1
102
RTVSPropertyOp35
 70
     1
102
RTVSPropertyOp36
 70
     1
102
RTVSPropertyOp37
 70
     1
102
RTVSPropertyOp38
 70
     1
102
RTVSPropertyOp39
 70
     1
102
RTVSPropertyOp40
 70
     1
102
RTVSPropertyOp41
 70
     1
102
RTVSPropertyOp42
 70
     1
102
RTVSPropertyOp43
 70
     1
102
RTVSPropertyOp44
 70
     1
102
RTVSPropertyOp45
 70
     1
102
RTVSPropertyOp46
 70
     1
102
RTVSPropertyOp47
 70
     1
102
RTVSPropertyOp48
 70
     1
102
RTVSPropertyOp49
 70
     1
102
RTVSPropertyOp50
 70
     1
102
RTVSPropertyOp51
 70
     0
102
RTVSPropertyOp52
 70
     0
102
RTVSPropertyOp53
 70
     1
102
RTVSPropertyOp54
 70
     1
102
RTVSPropertyOp55
 70
     1
102
RTVSPropertyOp56
 70
     1
102
RTVSPropertyOp57
 70
     1
102
RTVSPropertyOp58
 70
     1
102
RTVSPropertyOp59
 70
     1
102
RTVSPropertyOp60
 70
     1
102
RTVSPropertyOp61
 70
     1
102
RTVSPropertyOp62
 70
     1
  0
XRECORD
  5
535EA
102
{ACAD_REACTORS
330
535E9
102
}
330
535E9
100
AcDbXrecord
280
     1
102
RTVSPost2010Prop28
280
     0
102
RTVSPost2010PropOp28
 70
     1
102
RTVSPost2010Prop29
280
     1
102
RTVSPost2010PropOp29
 70
     1
102
RTVSPost2010Prop30
280
     1
102
RTVSPost2010PropOp30
 70
     1
102
RTVSPost2010Prop31
280
     0
102
RTVSPost2010PropOp31
 70
     1
102
RTVSPost2010Prop32
280
     0
102
RTVSPost2010PropOp32
 70
     1
102
RTVSPost2010Prop33
280
     0
102
RTVSPost2010PropOp33
 70
     1
102
RTVSPost2010Prop34
280
     0
102
RTVSPost2010PropOp34
 70
     1
102
RTVSPost2010Prop35
280
     0
102
RTVSPost2010PropOp35
 70
     1
102
RTVSPost2010Prop36
280
     0
102
RTVSPost2010PropOp36
 70
     1
102
RTVSPost2010Prop37
 90
       50
102
RTVSPost2010PropOp37
 70
     1
102
RTVSPost2010Prop38
140
0.0
102
RTVSPost2010PropOp38
 70
     1
102
RTVSPost2010Prop39
140
1.0
102
RTVSPost2010PropOp39
 70
     1
102
RTVSPost2010Prop40
 90
        0
102
RTVSPost2010PropOp40
 70
     1
102
RTVSPost2010Prop41ColorIndex
 90
       18
102
RTVSPost2010Prop41ColorRGB
 90
        0
102
RTVSPost2010PropOp41
 70
     1
102
RTVSPost2010Prop42
 90
       50
102
RTVSPost2010PropOp42
 70
     1
102
RTVSPost2010Prop43
 90
        3
102
RTVSPost2010PropOp43
 70
     1
102
RTVSPost2010Prop44ColorIndex
 90
        5
102
RTVSPost2010Prop44ColorRGB
 90
      255
102
RTVSPost2010PropOp44
 70
     1
102
RTVSPost2010Prop45
280
     0
102
RTVSPost2010PropOp45
 70
     1
102
RTVSPost2010Prop46
 90
       50
102
RTVSPost2010PropOp46
 70
     1
102
RTVSPost2010Prop47
 90
       50
102
RTVSPost2010PropOp47
 70
     1
102
RTVSPost2010Prop48
 90
       50
102
RTVSPost2010PropOp48
 70
     1
102
RTVSPost2010Prop49
280
     0
102
RTVSPost2010PropOp49
 70
     1
102
RTVSPost2010Prop50
 90
       50
102
RTVSPost2010PropOp50
 70
     1
102
RTVSPost2010Prop51ColorIndex
 90
      256
102
RTVSPost2010Prop51ColorRGB
 90
-16777216
102
RTVSPost2010PropOp51
 70
     0
102
RTVSPost2010Prop52
140
1.0
102
RTVSPost2010PropOp52
 70
     0
102
RTVSPost2010Prop53
 90
        2
102
RTVSPost2010PropOp53
 70
     1
102
RTVSPost2010Prop54
  1
strokes_ogs.tif
102
RTVSPost2010PropOp54
 70
     1
102
RTVSPost2010Prop55
280
     0
102
RTVSPost2010PropOp55
 70
     1
102
RTVSPost2010Prop56
140
1.0
102
RTVSPost2010PropOp56
 70
     1
102
RTVSPost2010Prop57
140
1.0
102
RTVSPost2010PropOp57
 70
     1
102
RTVSPropertyOp0
 70
     1
102
RTVSPropertyOp1
 70
     1
102
RTVSPropertyOp2
 70
     1
102
RTVSPropertyOp3
 70
     1
102
RTVSPropertyOp4
 70
     1
102
RTVSPropertyOp5
 70
     1
102
RTVSPropertyOp6
 70
     1
102
RTVSPropertyOp7
 70
     1
102
RTVSPropertyOp8
 70
     1
102
RTVSPropertyOp9
 70
     1
102
RTVSPropertyOp10
 70
     1
102
RTVSPropertyOp11
 70
     1
102
RTVSPropertyOp12
 70
     1
102
RTVSPropertyOp13
 70
     1
102
RTVSPropertyOp14
 70
     1
102
RTVSPropertyOp15
 70
     1
102
RTVSPropertyOp16
 70
     1
102
RTVSPropertyOp17
 70
     1
102
RTVSPropertyOp18
 70
     1
102
RTVSPropertyOp19
 70
     1
102
RTVSPropertyOp20
 70
     1
102
RTVSPropertyOp21
 70
     1
102
RTVSPropertyOp22
 70
     1
102
RTVSPropertyOp23
 70
     1
102
RTVSPropertyOp24
 70
     1
102
RTVSPropertyOp25
 70
     1
102
RTVSPropertyOp26
 70
     1
102
RTVSPropertyOp27
 70
     1
102
RTVSPropertyOp28
 70
     1
102
RTVSPropertyOp29
 70
     1
102
RTVSPropertyOp30
 70
     1
102
RTVSPropertyOp31
 70
     1
102
RTVSPropertyOp32
 70
     1
102
RTVSPropertyOp33
 70
     1
102
RTVSPropertyOp34
 70
     1
102
RTVSPropertyOp35
 70
     1
102
RTVSPropertyOp36
 70
     1
102
RTVSPropertyOp37
 70
     1
102
RTVSPropertyOp38
 70
     1
102
RTVSPropertyOp39
 70
     1
102
RTVSPropertyOp40
 70
     1
102
RTVSPropertyOp41
 70
     1
102
RTVSPropertyOp42
 70
     1
102
RTVSPropertyOp43
 70
     1
102
RTVSPropertyOp44
 70
     1
102
RTVSPropertyOp45
 70
     1
102
RTVSPropertyOp46
 70
     1
102
RTVSPropertyOp47
 70
     1
102
RTVSPropertyOp48
 70
     1
102
RTVSPropertyOp49
 70
     1
102
RTVSPropertyOp50
 70
     1
102
RTVSPropertyOp51
 70
     0
102
RTVSPropertyOp52
 70
     0
102
RTVSPropertyOp53
 70
     1
102
RTVSPropertyOp54
 70
     1
102
RTVSPropertyOp55
 70
     1
102
RTVSPropertyOp56
 70
     1
102
RTVSPropertyOp57
 70
     1
102
RTVSPropertyOp58
 70
     1
102
RTVSPropertyOp59
 70
     1
102
RTVSPropertyOp60
 70
     1
102
RTVSPropertyOp61
 70
     1
102
RTVSPropertyOp62
 70
     1
  0
XRECORD
  5
535EC
102
{ACAD_REACTORS
330
535EB
102
}
330
535EB
100
AcDbXrecord
280
     1
102
RTVSPost2010Prop28
280
     0
102
RTVSPost2010PropOp28
 70
     1
102
RTVSPost2010Prop29
280
     1
102
RTVSPost2010PropOp29
 70
     1
102
RTVSPost2010Prop30
280
     1
102
RTVSPost2010PropOp30
 70
     1
102
RTVSPost2010Prop31
280
     0
102
RTVSPost2010PropOp31
 70
     1
102
RTVSPost2010Prop32
280
     0
102
RTVSPost2010PropOp32
 70
     1
102
RTVSPost2010Prop33
280
     0
102
RTVSPost2010PropOp33
 70
     1
102
RTVSPost2010Prop34
280
     0
102
RTVSPost2010PropOp34
 70
     1
102
RTVSPost2010Prop35
280
     0
102
RTVSPost2010PropOp35
 70
     1
102
RTVSPost2010Prop36
280
     0
102
RTVSPost2010PropOp36
 70
     1
102
RTVSPost2010Prop37
 90
       50
102
RTVSPost2010PropOp37
 70
     1
102
RTVSPost2010Prop38
140
0.0
102
RTVSPost2010PropOp38
 70
     1
102
RTVSPost2010Prop39
140
1.0
102
RTVSPost2010PropOp39
 70
     1
102
RTVSPost2010Prop40
 90
        0
102
RTVSPost2010PropOp40
 70
     1
102
RTVSPost2010Prop41ColorIndex
 90
       18
102
RTVSPost2010Prop41ColorRGB
 90
        0
102
RTVSPost2010PropOp41
 70
     1
102
RTVSPost2010Prop42
 90
       50
102
RTVSPost2010PropOp42
 70
     1
102
RTVSPost2010Prop43
 90
        3
102
RTVSPost2010PropOp43
 70
     1
102
RTVSPost2010Prop44ColorIndex
 90
        5
102
RTVSPost2010Prop44ColorRGB
 90
      255
102
RTVSPost2010PropOp44
 70
     1
102
RTVSPost2010Prop45
280
     0
102
RTVSPost2010PropOp45
 70
     1
102
RTVSPost2010Prop46
 90
       50
102
RTVSPost2010PropOp46
 70
     1
102
RTVSPost2010Prop47
 90
       50
102
RTVSPost2010PropOp47
 70
     1
102
RTVSPost2010Prop48
 90
       50
102
RTVSPost2010PropOp48
 70
     1
102
RTVSPost2010Prop49
280
     0
102
RTVSPost2010PropOp49
 70
     1
102
RTVSPost2010Prop50
 90
       50
102
RTVSPost2010PropOp50
 70
     1
102
RTVSPost2010Prop51ColorIndex
 90
      256
102
RTVSPost2010Prop51ColorRGB
 90
-16777216
102
RTVSPost2010PropOp51
 70
     0
102
RTVSPost2010Prop52
140
1.0
102
RTVSPost2010PropOp52
 70
     0
102
RTVSPost2010Prop53
 90
        2
102
RTVSPost2010PropOp53
 70
     1
102
RTVSPost2010Prop54
  1
strokes_ogs.tif
102
RTVSPost2010PropOp54
 70
     1
102
RTVSPost2010Prop55
280
     0
102
RTVSPost2010PropOp55
 70
     1
102
RTVSPost2010Prop56
140
1.0
102
RTVSPost2010PropOp56
 70
     1
102
RTVSPost2010Prop57
140
1.0
102
RTVSPost2010PropOp57
 70
     1
102
RTVSPropertyOp0
 70
     1
102
RTVSPropertyOp1
 70
     1
102
RTVSPropertyOp2
 70
     1
102
RTVSPropertyOp3
 70
     1
102
RTVSPropertyOp4
 70
     1
102
RTVSPropertyOp5
 70
     1
102
RTVSPropertyOp6
 70
     1
102
RTVSPropertyOp7
 70
     1
102
RTVSPropertyOp8
 70
     1
102
RTVSPropertyOp9
 70
     1
102
RTVSPropertyOp10
 70
     1
102
RTVSPropertyOp11
 70
     1
102
RTVSPropertyOp12
 70
     1
102
RTVSPropertyOp13
 70
     1
102
RTVSPropertyOp14
 70
     1
102
RTVSPropertyOp15
 70
     1
102
RTVSPropertyOp16
 70
     1
102
RTVSPropertyOp17
 70
     1
102
RTVSPropertyOp18
 70
     1
102
RTVSPropertyOp19
 70
     1
102
RTVSPropertyOp20
 70
     1
102
RTVSPropertyOp21
 70
     1
102
RTVSPropertyOp22
 70
     1
102
RTVSPropertyOp23
 70
     1
102
RTVSPropertyOp24
 70
     1
102
RTVSPropertyOp25
 70
     1
102
RTVSPropertyOp26
 70
     1
102
RTVSPropertyOp27
 70
     1
102
RTVSPropertyOp28
 70
     1
102
RTVSPropertyOp29
 70
     1
102
RTVSPropertyOp30
 70
     1
102
RTVSPropertyOp31
 70
     1
102
RTVSPropertyOp32
 70
     1
102
RTVSPropertyOp33
 70
     1
102
RTVSPropertyOp34
 70
     1
102
RTVSPropertyOp35
 70
     1
102
RTVSPropertyOp36
 70
     1
102
RTVSPropertyOp37
 70
     1
102
RTVSPropertyOp38
 70
     1
102
RTVSPropertyOp39
 70
     1
102
RTVSPropertyOp40
 70
     1
102
RTVSPropertyOp41
 70
     1
102
RTVSPropertyOp42
 70
     1
102
RTVSPropertyOp43
 70
     1
102
RTVSPropertyOp44
 70
     1
102
RTVSPropertyOp45
 70
     1
102
RTVSPropertyOp46
 70
     1
102
RTVSPropertyOp47
 70
     1
102
RTVSPropertyOp48
 70
     1
102
RTVSPropertyOp49
 70
     1
102
RTVSPropertyOp50
 70
     1
102
RTVSPropertyOp51
 70
     0
102
RTVSPropertyOp52
 70
     0
102
RTVSPropertyOp53
 70
     1
102
RTVSPropertyOp54
 70
     1
102
RTVSPropertyOp55
 70
     1
102
RTVSPropertyOp56
 70
     1
102
RTVSPropertyOp57
 70
     1
102
RTVSPropertyOp58
 70
     1
102
RTVSPropertyOp59
 70
     1
102
RTVSPropertyOp60
 70
     1
102
RTVSPropertyOp61
 70
     1
102
RTVSPropertyOp62
 70
     1
  0
XRECORD
  5
535F4
102
{ACAD_REACTORS
330
535F3
102
}
330
535F3
100
AcDbXrecord
280
     1
102
RTVSPost2010Prop28
280
     0
102
RTVSPost2010PropOp28
 70
     1
102
RTVSPost2010Prop29
280
     1
102
RTVSPost2010PropOp29
 70
     1
102
RTVSPost2010Prop30
280
     1
102
RTVSPost2010PropOp30
 70
     1
102
RTVSPost2010Prop31
280
     0
102
RTVSPost2010PropOp31
 70
     1
102
RTVSPost2010Prop32
280
     0
102
RTVSPost2010PropOp32
 70
     1
102
RTVSPost2010Prop33
280
     0
102
RTVSPost2010PropOp33
 70
     1
102
RTVSPost2010Prop34
280
     0
102
RTVSPost2010PropOp34
 70
     1
102
RTVSPost2010Prop35
280
     0
102
RTVSPost2010PropOp35
 70
     1
102
RTVSPost2010Prop36
280
     0
102
RTVSPost2010PropOp36
 70
     1
102
RTVSPost2010Prop37
 90
       50
102
RTVSPost2010PropOp37
 70
     1
102
RTVSPost2010Prop38
140
0.0
102
RTVSPost2010PropOp38
 70
     1
102
RTVSPost2010Prop39
140
1.0
102
RTVSPost2010PropOp39
 70
     1
102
RTVSPost2010Prop40
 90
        0
102
RTVSPost2010PropOp40
 70
     1
102
RTVSPost2010Prop41ColorIndex
 90
       18
102
RTVSPost2010Prop41ColorRGB
 90
        0
102
RTVSPost2010PropOp41
 70
     1
102
RTVSPost2010Prop42
 90
       50
102
RTVSPost2010PropOp42
 70
     1
102
RTVSPost2010Prop43
 90
        3
102
RTVSPost2010PropOp43
 70
     1
102
RTVSPost2010Prop44ColorIndex
 90
        5
102
RTVSPost2010Prop44ColorRGB
 90
      255
102
RTVSPost2010PropOp44
 70
     1
102
RTVSPost2010Prop45
280
     0
102
RTVSPost2010PropOp45
 70
     1
102
RTVSPost2010Prop46
 90
       50
102
RTVSPost2010PropOp46
 70
     1
102
RTVSPost2010Prop47
 90
       50
102
RTVSPost2010PropOp47
 70
     1
102
RTVSPost2010Prop48
 90
       50
102
RTVSPost2010PropOp48
 70
     1
102
RTVSPost2010Prop49
280
     0
102
RTVSPost2010PropOp49
 70
     1
102
RTVSPost2010Prop50
 90
       50
102
RTVSPost2010PropOp50
 70
     1
102
RTVSPost2010Prop51ColorIndex
 90
      256
102
RTVSPost2010Prop51ColorRGB
 90
-16777216
102
RTVSPost2010PropOp51
 70
     0
102
RTVSPost2010Prop52
140
1.0
102
RTVSPost2010PropOp52
 70
     0
102
RTVSPost2010Prop53
 90
        2
102
RTVSPost2010PropOp53
 70
     1
102
RTVSPost2010Prop54
  1
strokes_ogs.tif
102
RTVSPost2010PropOp54
 70
     1
102
RTVSPost2010Prop55
280
     0
102
RTVSPost2010PropOp55
 70
     1
102
RTVSPost2010Prop56
140
1.0
102
RTVSPost2010PropOp56
 70
     1
102
RTVSPost2010Prop57
140
1.0
102
RTVSPost2010PropOp57
 70
     1
102
RTVSPropertyOp0
 70
     1
102
RTVSPropertyOp1
 70
     1
102
RTVSPropertyOp2
 70
     1
102
RTVSPropertyOp3
 70
     1
102
RTVSPropertyOp4
 70
     1
102
RTVSPropertyOp5
 70
     1
102
RTVSPropertyOp6
 70
     1
102
RTVSPropertyOp7
 70
     1
102
RTVSPropertyOp8
 70
     1
102
RTVSPropertyOp9
 70
     1
102
RTVSPropertyOp10
 70
     1
102
RTVSPropertyOp11
 70
     1
102
RTVSPropertyOp12
 70
     1
102
RTVSPropertyOp13
 70
     1
102
RTVSPropertyOp14
 70
     1
102
RTVSPropertyOp15
 70
     1
102
RTVSPropertyOp16
 70
     1
102
RTVSPropertyOp17
 70
     1
102
RTVSPropertyOp18
 70
     1
102
RTVSPropertyOp19
 70
     1
102
RTVSPropertyOp20
 70
     1
102
RTVSPropertyOp21
 70
     1
102
RTVSPropertyOp22
 70
     1
102
RTVSPropertyOp23
 70
     1
102
RTVSPropertyOp24
 70
     1
102
RTVSPropertyOp25
 70
     1
102
RTVSPropertyOp26
 70
     1
102
RTVSPropertyOp27
 70
     1
102
RTVSPropertyOp28
 70
     1
102
RTVSPropertyOp29
 70
     1
102
RTVSPropertyOp30
 70
     1
102
RTVSPropertyOp31
 70
     1
102
RTVSPropertyOp32
 70
     1
102
RTVSPropertyOp33
 70
     1
102
RTVSPropertyOp34
 70
     1
102
RTVSPropertyOp35
 70
     1
102
RTVSPropertyOp36
 70
     1
102
RTVSPropertyOp37
 70
     1
102
RTVSPropertyOp38
 70
     1
102
RTVSPropertyOp39
 70
     1
102
RTVSPropertyOp40
 70
     1
102
RTVSPropertyOp41
 70
     1
102
RTVSPropertyOp42
 70
     1
102
RTVSPropertyOp43
 70
     1
102
RTVSPropertyOp44
 70
     1
102
RTVSPropertyOp45
 70
     1
102
RTVSPropertyOp46
 70
     1
102
RTVSPropertyOp47
 70
     1
102
RTVSPropertyOp48
 70
     1
102
RTVSPropertyOp49
 70
     1
102
RTVSPropertyOp50
 70
     1
102
RTVSPropertyOp51
 70
     0
102
RTVSPropertyOp52
 70
     0
102
RTVSPropertyOp53
 70
     1
102
RTVSPropertyOp54
 70
     1
102
RTVSPropertyOp55
 70
     1
102
RTVSPropertyOp56
 70
     1
102
RTVSPropertyOp57
 70
     1
102
RTVSPropertyOp58
 70
     1
102
RTVSPropertyOp59
 70
     1
102
RTVSPropertyOp60
 70
     1
102
RTVSPropertyOp61
 70
     1
102
RTVSPropertyOp62
 70
     1
  0
XRECORD
  5
53610
102
{ACAD_REACTORS
330
5360F
102
}
330
5360F
100
AcDbXrecord
280
     1
102
RTVSPost2010Prop28
280
     0
102
RTVSPost2010PropOp28
 70
     1
102
RTVSPost2010Prop29
280
     1
102
RTVSPost2010PropOp29
 70
     1
102
RTVSPost2010Prop30
280
     1
102
RTVSPost2010PropOp30
 70
     1
102
RTVSPost2010Prop31
280
     0
102
RTVSPost2010PropOp31
 70
     1
102
RTVSPost2010Prop32
280
     0
102
RTVSPost2010PropOp32
 70
     1
102
RTVSPost2010Prop33
280
     0
102
RTVSPost2010PropOp33
 70
     1
102
RTVSPost2010Prop34
280
     0
102
RTVSPost2010PropOp34
 70
     1
102
RTVSPost2010Prop35
280
     0
102
RTVSPost2010PropOp35
 70
     1
102
RTVSPost2010Prop36
280
     0
102
RTVSPost2010PropOp36
 70
     1
102
RTVSPost2010Prop37
 90
       50
102
RTVSPost2010PropOp37
 70
     0
102
RTVSPost2010Prop38
140
0.0
102
RTVSPost2010PropOp38
 70
     0
102
RTVSPost2010Prop39
140
1.0
102
RTVSPost2010PropOp39
 70
     0
102
RTVSPost2010Prop40
 90
        0
102
RTVSPost2010PropOp40
 70
     0
102
RTVSPost2010Prop41ColorIndex
 90
       18
102
RTVSPost2010Prop41ColorRGB
 90
        0
102
RTVSPost2010PropOp41
 70
     0
102
RTVSPost2010Prop42
 90
       50
102
RTVSPost2010PropOp42
 70
     0
102
RTVSPost2010Prop43
 90
        3
102
RTVSPost2010PropOp43
 70
     0
102
RTVSPost2010Prop44ColorIndex
 90
        5
102
RTVSPost2010Prop44ColorRGB
 90
      255
102
RTVSPost2010PropOp44
 70
     0
102
RTVSPost2010Prop45
280
     0
102
RTVSPost2010PropOp45
 70
     1
102
RTVSPost2010Prop46
 90
       50
102
RTVSPost2010PropOp46
 70
     0
102
RTVSPost2010Prop47
 90
       50
102
RTVSPost2010PropOp47
 70
     0
102
RTVSPost2010Prop48
 90
       50
102
RTVSPost2010PropOp48
 70
     0
102
RTVSPost2010Prop49
280
     0
102
RTVSPost2010PropOp49
 70
     1
102
RTVSPost2010Prop50
 90
       50
102
RTVSPost2010PropOp50
 70
     0
102
RTVSPost2010Prop51ColorIndex
 90
      256
102
RTVSPost2010Prop51ColorRGB
 90
-16777216
102
RTVSPost2010PropOp51
 70
     0
102
RTVSPost2010Prop52
140
1.0
102
RTVSPost2010PropOp52
 70
     0
102
RTVSPost2010Prop53
 90
        2
102
RTVSPost2010PropOp53
 70
     0
102
RTVSPost2010Prop54
  1
strokes_ogs.tif
102
RTVSPost2010PropOp54
 70
     0
102
RTVSPost2010Prop55
280
     0
102
RTVSPost2010PropOp55
 70
     1
102
RTVSPost2010Prop56
140
1.0
102
RTVSPost2010PropOp56
 70
     0
102
RTVSPost2010Prop57
140
1.0
102
RTVSPost2010PropOp57
 70
     0
102
RTVSPropertyOp0
 70
     0
102
RTVSPropertyOp1
 70
     0
102
RTVSPropertyOp2
 70
     0
102
RTVSPropertyOp3
 70
     0
102
RTVSPropertyOp4
 70
     0
102
RTVSPropertyOp5
 70
     0
102
RTVSPropertyOp6
 70
     0
102
RTVSPropertyOp7
 70
     0
102
RTVSPropertyOp8
 70
     0
102
RTVSPropertyOp9
 70
     0
102
RTVSPropertyOp10
 70
     0
102
RTVSPropertyOp11
 70
     0
102
RTVSPropertyOp12
 70
     0
102
RTVSPropertyOp13
 70
     0
102
RTVSPropertyOp14
 70
     2
102
RTVSPropertyOp15
 70
     0
102
RTVSPropertyOp16
 70
     0
102
RTVSPropertyOp17
 70
     0
102
RTVSPropertyOp18
 70
     0
102
RTVSPropertyOp19
 70
     0
102
RTVSPropertyOp20
 70
     0
102
RTVSPropertyOp21
 70
     0
102
RTVSPropertyOp22
 70
     0
102
RTVSPropertyOp23
 70
     0
102
RTVSPropertyOp24
 70
     0
102
RTVSPropertyOp25
 70
     0
102
RTVSPropertyOp26
 70
     0
102
RTVSPropertyOp27
 70
     0
102
RTVSPropertyOp28
 70
     1
102
RTVSPropertyOp29
 70
     1
102
RTVSPropertyOp30
 70
     1
102
RTVSPropertyOp31
 70
     1
102
RTVSPropertyOp32
 70
     1
102
RTVSPropertyOp33
 70
     1
102
RTVSPropertyOp34
 70
     1
102
RTVSPropertyOp35
 70
     1
102
RTVSPropertyOp36
 70
     1
102
RTVSPropertyOp37
 70
     0
102
RTVSPropertyOp38
 70
     0
102
RTVSPropertyOp39
 70
     0
102
RTVSPropertyOp40
 70
     0
102
RTVSPropertyOp41
 70
     0
102
RTVSPropertyOp42
 70
     0
102
RTVSPropertyOp43
 70
     0
102
RTVSPropertyOp44
 70
     0
102
RTVSPropertyOp45
 70
     1
102
RTVSPropertyOp46
 70
     0
102
RTVSPropertyOp47
 70
     0
102
RTVSPropertyOp48
 70
     0
102
RTVSPropertyOp49
 70
     1
102
RTVSPropertyOp50
 70
     0
102
RTVSPropertyOp51
 70
     0
102
RTVSPropertyOp52
 70
     0
102
RTVSPropertyOp53
 70
     0
102
RTVSPropertyOp54
 70
     0
102
RTVSPropertyOp55
 70
     1
102
RTVSPropertyOp56
 70
     0
102
RTVSPropertyOp57
 70
     0
102
RTVSPropertyOp58
 70
     0
102
RTVSPropertyOp59
 70
     0
102
RTVSPropertyOp60
 70
     0
102
RTVSPropertyOp61
 70
     0
102
RTVSPropertyOp62
 70
     0
  0
XRECORD
  5
53600
102
{ACAD_REACTORS
330
535FF
102
}
330
535FF
100
AcDbXrecord
280
     1
102
RTVSPost2010Prop28
280
     0
102
RTVSPost2010PropOp28
 70
     1
102
RTVSPost2010Prop29
280
     1
102
RTVSPost2010PropOp29
 70
     1
102
RTVSPost2010Prop30
280
     1
102
RTVSPost2010PropOp30
 70
     1
102
RTVSPost2010Prop31
280
     0
102
RTVSPost2010PropOp31
 70
     1
102
RTVSPost2010Prop32
280
     0
102
RTVSPost2010PropOp32
 70
     1
102
RTVSPost2010Prop33
280
     0
102
RTVSPost2010PropOp33
 70
     1
102
RTVSPost2010Prop34
280
     0
102
RTVSPost2010PropOp34
 70
     1
102
RTVSPost2010Prop35
280
     0
102
RTVSPost2010PropOp35
 70
     1
102
RTVSPost2010Prop36
280
     0
102
RTVSPost2010PropOp36
 70
     1
102
RTVSPost2010Prop37
 90
       50
102
RTVSPost2010PropOp37
 70
     1
102
RTVSPost2010Prop38
140
0.0
102
RTVSPost2010PropOp38
 70
     1
102
RTVSPost2010Prop39
140
1.0
102
RTVSPost2010PropOp39
 70
     1
102
RTVSPost2010Prop40
 90
        0
102
RTVSPost2010PropOp40
 70
     1
102
RTVSPost2010Prop41ColorIndex
 90
       18
102
RTVSPost2010Prop41ColorRGB
 90
        0
102
RTVSPost2010PropOp41
 70
     1
102
RTVSPost2010Prop42
 90
       50
102
RTVSPost2010PropOp42
 70
     1
102
RTVSPost2010Prop43
 90
        3
102
RTVSPost2010PropOp43
 70
     1
102
RTVSPost2010Prop44ColorIndex
 90
        5
102
RTVSPost2010Prop44ColorRGB
 90
      255
102
RTVSPost2010PropOp44
 70
     1
102
RTVSPost2010Prop45
280
     0
102
RTVSPost2010PropOp45
 70
     1
102
RTVSPost2010Prop46
 90
       50
102
RTVSPost2010PropOp46
 70
     1
102
RTVSPost2010Prop47
 90
       50
102
RTVSPost2010PropOp47
 70
     1
102
RTVSPost2010Prop48
 90
       50
102
RTVSPost2010PropOp48
 70
     1
102
RTVSPost2010Prop49
280
     0
102
RTVSPost2010PropOp49
 70
     1
102
RTVSPost2010Prop50
 90
       50
102
RTVSPost2010PropOp50
 70
     1
102
RTVSPost2010Prop51ColorIndex
 90
      256
102
RTVSPost2010Prop51ColorRGB
 90
-16777216
102
RTVSPost2010PropOp51
 70
     0
102
RTVSPost2010Prop52
140
1.0
102
RTVSPost2010PropOp52
 70
     0
102
RTVSPost2010Prop53
 90
        2
102
RTVSPost2010PropOp53
 70
     1
102
RTVSPost2010Prop54
  1
strokes_ogs.tif
102
RTVSPost2010PropOp54
 70
     1
102
RTVSPost2010Prop55
280
     0
102
RTVSPost2010PropOp55
 70
     1
102
RTVSPost2010Prop56
140
1.0
102
RTVSPost2010PropOp56
 70
     1
102
RTVSPost2010Prop57
140
1.0
102
RTVSPost2010PropOp57
 70
     1
102
RTVSPropertyOp0
 70
     1
102
RTVSPropertyOp1
 70
     1
102
RTVSPropertyOp2
 70
     1
102
RTVSPropertyOp3
 70
     1
102
RTVSPropertyOp4
 70
     1
102
RTVSPropertyOp5
 70
     1
102
RTVSPropertyOp6
 70
     1
102
RTVSPropertyOp7
 70
     1
102
RTVSPropertyOp8
 70
     1
102
RTVSPropertyOp9
 70
     1
102
RTVSPropertyOp10
 70
     1
102
RTVSPropertyOp11
 70
     1
102
RTVSPropertyOp12
 70
     1
102
RTVSPropertyOp13
 70
     1
102
RTVSPropertyOp14
 70
     1
102
RTVSPropertyOp15
 70
     1
102
RTVSPropertyOp16
 70
     1
102
RTVSPropertyOp17
 70
     1
102
RTVSPropertyOp18
 70
     1
102
RTVSPropertyOp19
 70
     1
102
RTVSPropertyOp20
 70
     1
102
RTVSPropertyOp21
 70
     1
102
RTVSPropertyOp22
 70
     1
102
RTVSPropertyOp23
 70
     1
102
RTVSPropertyOp24
 70
     1
102
RTVSPropertyOp25
 70
     1
102
RTVSPropertyOp26
 70
     1
102
RTVSPropertyOp27
 70
     1
102
RTVSPropertyOp28
 70
     1
102
RTVSPropertyOp29
 70
     1
102
RTVSPropertyOp30
 70
     1
102
RTVSPropertyOp31
 70
     1
102
RTVSPropertyOp32
 70
     1
102
RTVSPropertyOp33
 70
     1
102
RTVSPropertyOp34
 70
     1
102
RTVSPropertyOp35
 70
     1
102
RTVSPropertyOp36
 70
     1
102
RTVSPropertyOp37
 70
     1
102
RTVSPropertyOp38
 70
     1
102
RTVSPropertyOp39
 70
     1
102
RTVSPropertyOp40
 70
     1
102
RTVSPropertyOp41
 70
     1
102
RTVSPropertyOp42
 70
     1
102
RTVSPropertyOp43
 70
     1
102
RTVSPropertyOp44
 70
     1
102
RTVSPropertyOp45
 70
     1
102
RTVSPropertyOp46
 70
     1
102
RTVSPropertyOp47
 70
     1
102
RTVSPropertyOp48
 70
     1
102
RTVSPropertyOp49
 70
     1
102
RTVSPropertyOp50
 70
     1
102
RTVSPropertyOp51
 70
     0
102
RTVSPropertyOp52
 70
     0
102
RTVSPropertyOp53
 70
     1
102
RTVSPropertyOp54
 70
     1
102
RTVSPropertyOp55
 70
     1
102
RTVSPropertyOp56
 70
     1
102
RTVSPropertyOp57
 70
     1
102
RTVSPropertyOp58
 70
     1
102
RTVSPropertyOp59
 70
     1
102
RTVSPropertyOp60
 70
     1
102
RTVSPropertyOp61
 70
     1
102
RTVSPropertyOp62
 70
     1
  0
XRECORD
  5
53612
102
{ACAD_REACTORS
330
53611
102
}
330
53611
100
AcDbXrecord
280
     1
102
RTVSPost2010Prop28
280
     0
102
RTVSPost2010PropOp28
 70
     1
102
RTVSPost2010Prop29
280
     1
102
RTVSPost2010PropOp29
 70
     1
102
RTVSPost2010Prop30
280
     1
102
RTVSPost2010PropOp30
 70
     1
102
RTVSPost2010Prop31
280
     0
102
RTVSPost2010PropOp31
 70
     1
102
RTVSPost2010Prop32
280
     0
102
RTVSPost2010PropOp32
 70
     1
102
RTVSPost2010Prop33
280
     0
102
RTVSPost2010PropOp33
 70
     1
102
RTVSPost2010Prop34
280
     0
102
RTVSPost2010PropOp34
 70
     1
102
RTVSPost2010Prop35
280
     0
102
RTVSPost2010PropOp35
 70
     1
102
RTVSPost2010Prop36
280
     0
102
RTVSPost2010PropOp36
 70
     1
102
RTVSPost2010Prop37
 90
       50
102
RTVSPost2010PropOp37
 70
     0
102
RTVSPost2010Prop38
140
0.0
102
RTVSPost2010PropOp38
 70
     0
102
RTVSPost2010Prop39
140
1.0
102
RTVSPost2010PropOp39
 70
     0
102
RTVSPost2010Prop40
 90
        0
102
RTVSPost2010PropOp40
 70
     0
102
RTVSPost2010Prop41ColorIndex
 90
       18
102
RTVSPost2010Prop41ColorRGB
 90
        0
102
RTVSPost2010PropOp41
 70
     0
102
RTVSPost2010Prop42
 90
       50
102
RTVSPost2010PropOp42
 70
     0
102
RTVSPost2010Prop43
 90
        3
102
RTVSPost2010PropOp43
 70
     0
102
RTVSPost2010Prop44ColorIndex
 90
        5
102
RTVSPost2010Prop44ColorRGB
 90
      255
102
RTVSPost2010PropOp44
 70
     0
102
RTVSPost2010Prop45
280
     0
102
RTVSPost2010PropOp45
 70
     1
102
RTVSPost2010Prop46
 90
       50
102
RTVSPost2010PropOp46
 70
     0
102
RTVSPost2010Prop47
 90
       50
102
RTVSPost2010PropOp47
 70
     0
102
RTVSPost2010Prop48
 90
       50
102
RTVSPost2010PropOp48
 70
     0
102
RTVSPost2010Prop49
280
     0
102
RTVSPost2010PropOp49
 70
     1
102
RTVSPost2010Prop50
 90
       50
102
RTVSPost2010PropOp50
 70
     0
102
RTVSPost2010Prop51ColorIndex
 90
      256
102
RTVSPost2010Prop51ColorRGB
 90
-16777216
102
RTVSPost2010PropOp51
 70
     0
102
RTVSPost2010Prop52
140
1.0
102
RTVSPost2010PropOp52
 70
     0
102
RTVSPost2010Prop53
 90
        2
102
RTVSPost2010PropOp53
 70
     0
102
RTVSPost2010Prop54
  1
strokes_ogs.tif
102
RTVSPost2010PropOp54
 70
     0
102
RTVSPost2010Prop55
280
     0
102
RTVSPost2010PropOp55
 70
     1
102
RTVSPost2010Prop56
140
1.0
102
RTVSPost2010PropOp56
 70
     0
102
RTVSPost2010Prop57
140
1.0
102
RTVSPost2010PropOp57
 70
     0
102
RTVSPropertyOp0
 70
     0
102
RTVSPropertyOp1
 70
     0
102
RTVSPropertyOp2
 70
     0
102
RTVSPropertyOp3
 70
     0
102
RTVSPropertyOp4
 70
     0
102
RTVSPropertyOp5
 70
     0
102
RTVSPropertyOp6
 70
     0
102
RTVSPropertyOp7
 70
     0
102
RTVSPropertyOp8
 70
     0
102
RTVSPropertyOp9
 70
     0
102
RTVSPropertyOp10
 70
     0
102
RTVSPropertyOp11
 70
     0
102
RTVSPropertyOp12
 70
     0
102
RTVSPropertyOp13
 70
     0
102
RTVSPropertyOp14
 70
     2
102
RTVSPropertyOp15
 70
     0
102
RTVSPropertyOp16
 70
     0
102
RTVSPropertyOp17
 70
     0
102
RTVSPropertyOp18
 70
     0
102
RTVSPropertyOp19
 70
     0
102
RTVSPropertyOp20
 70
     0
102
RTVSPropertyOp21
 70
     0
102
RTVSPropertyOp22
 70
     0
102
RTVSPropertyOp23
 70
     0
102
RTVSPropertyOp24
 70
     0
102
RTVSPropertyOp25
 70
     0
102
RTVSPropertyOp26
 70
     0
102
RTVSPropertyOp27
 70
     0
102
RTVSPropertyOp28
 70
     1
102
RTVSPropertyOp29
 70
     1
102
RTVSPropertyOp30
 70
     1
102
RTVSPropertyOp31
 70
     1
102
RTVSPropertyOp32
 70
     1
102
RTVSPropertyOp33
 70
     1
102
RTVSPropertyOp34
 70
     1
102
RTVSPropertyOp35
 70
     1
102
RTVSPropertyOp36
 70
     1
102
RTVSPropertyOp37
 70
     0
102
RTVSPropertyOp38
 70
     0
102
RTVSPropertyOp39
 70
     0
102
RTVSPropertyOp40
 70
     0
102
RTVSPropertyOp41
 70
     0
102
RTVSPropertyOp42
 70
     0
102
RTVSPropertyOp43
 70
     0
102
RTVSPropertyOp44
 70
     0
102
RTVSPropertyOp45
 70
     1
102
RTVSPropertyOp46
 70
     0
102
RTVSPropertyOp47
 70
     0
102
RTVSPropertyOp48
 70
     0
102
RTVSPropertyOp49
 70
     1
102
RTVSPropertyOp50
 70
     0
102
RTVSPropertyOp51
 70
     0
102
RTVSPropertyOp52
 70
     0
102
RTVSPropertyOp53
 70
     0
102
RTVSPropertyOp54
 70
     0
102
RTVSPropertyOp55
 70
     1
102
RTVSPropertyOp56
 70
     0
102
RTVSPropertyOp57
 70
     0
102
RTVSPropertyOp58
 70
     0
102
RTVSPropertyOp59
 70
     0
102
RTVSPropertyOp60
 70
     0
102
RTVSPropertyOp61
 70
     0
102
RTVSPropertyOp62
 70
     0
  0
XRECORD
  5
535F8
102
{ACAD_REACTORS
330
535F7
102
}
330
535F7
100
AcDbXrecord
280
     1
102
RTVSPost2010Prop28
280
     0
102
RTVSPost2010PropOp28
 70
     1
102
RTVSPost2010Prop29
280
     1
102
RTVSPost2010PropOp29
 70
     1
102
RTVSPost2010Prop30
280
     1
102
RTVSPost2010PropOp30
 70
     1
102
RTVSPost2010Prop31
280
     0
102
RTVSPost2010PropOp31
 70
     1
102
RTVSPost2010Prop32
280
     0
102
RTVSPost2010PropOp32
 70
     1
102
RTVSPost2010Prop33
280
     0
102
RTVSPost2010PropOp33
 70
     1
102
RTVSPost2010Prop34
280
     0
102
RTVSPost2010PropOp34
 70
     1
102
RTVSPost2010Prop35
280
     0
102
RTVSPost2010PropOp35
 70
     1
102
RTVSPost2010Prop36
280
     0
102
RTVSPost2010PropOp36
 70
     1
102
RTVSPost2010Prop37
 90
       50
102
RTVSPost2010PropOp37
 70
     1
102
RTVSPost2010Prop38
140
0.0
102
RTVSPost2010PropOp38
 70
     1
102
RTVSPost2010Prop39
140
1.0
102
RTVSPost2010PropOp39
 70
     1
102
RTVSPost2010Prop40
 90
        0
102
RTVSPost2010PropOp40
 70
     1
102
RTVSPost2010Prop41ColorIndex
 90
       18
102
RTVSPost2010Prop41ColorRGB
 90
        0
102
RTVSPost2010PropOp41
 70
     1
102
RTVSPost2010Prop42
 90
       50
102
RTVSPost2010PropOp42
 70
     1
102
RTVSPost2010Prop43
 90
        3
102
RTVSPost2010PropOp43
 70
     1
102
RTVSPost2010Prop44ColorIndex
 90
        5
102
RTVSPost2010Prop44ColorRGB
 90
      255
102
RTVSPost2010PropOp44
 70
     1
102
RTVSPost2010Prop45
280
     0
102
RTVSPost2010PropOp45
 70
     1
102
RTVSPost2010Prop46
 90
       50
102
RTVSPost2010PropOp46
 70
     1
102
RTVSPost2010Prop47
 90
       50
102
RTVSPost2010PropOp47
 70
     1
102
RTVSPost2010Prop48
 90
       50
102
RTVSPost2010PropOp48
 70
     1
102
RTVSPost2010Prop49
280
     0
102
RTVSPost2010PropOp49
 70
     1
102
RTVSPost2010Prop50
 90
       50
102
RTVSPost2010PropOp50
 70
     1
102
RTVSPost2010Prop51ColorIndex
 90
      256
102
RTVSPost2010Prop51ColorRGB
 90
-16777216
102
RTVSPost2010PropOp51
 70
     0
102
RTVSPost2010Prop52
140
1.0
102
RTVSPost2010PropOp52
 70
     0
102
RTVSPost2010Prop53
 90
        2
102
RTVSPost2010PropOp53
 70
     1
102
RTVSPost2010Prop54
  1
strokes_ogs.tif
102
RTVSPost2010PropOp54
 70
     1
102
RTVSPost2010Prop55
280
     0
102
RTVSPost2010PropOp55
 70
     1
102
RTVSPost2010Prop56
140
1.0
102
RTVSPost2010PropOp56
 70
     1
102
RTVSPost2010Prop57
140
1.0
102
RTVSPost2010PropOp57
 70
     1
102
RTVSPropertyOp0
 70
     1
102
RTVSPropertyOp1
 70
     1
102
RTVSPropertyOp2
 70
     1
102
RTVSPropertyOp3
 70
     1
102
RTVSPropertyOp4
 70
     1
102
RTVSPropertyOp5
 70
     1
102
RTVSPropertyOp6
 70
     1
102
RTVSPropertyOp7
 70
     1
102
RTVSPropertyOp8
 70
     1
102
RTVSPropertyOp9
 70
     1
102
RTVSPropertyOp10
 70
     1
102
RTVSPropertyOp11
 70
     1
102
RTVSPropertyOp12
 70
     1
102
RTVSPropertyOp13
 70
     1
102
RTVSPropertyOp14
 70
     1
102
RTVSPropertyOp15
 70
     1
102
RTVSPropertyOp16
 70
     1
102
RTVSPropertyOp17
 70
     1
102
RTVSPropertyOp18
 70
     1
102
RTVSPropertyOp19
 70
     1
102
RTVSPropertyOp20
 70
     1
102
RTVSPropertyOp21
 70
     1
102
RTVSPropertyOp22
 70
     1
102
RTVSPropertyOp23
 70
     1
102
RTVSPropertyOp24
 70
     1
102
RTVSPropertyOp25
 70
     1
102
RTVSPropertyOp26
 70
     1
102
RTVSPropertyOp27
 70
     1
102
RTVSPropertyOp28
 70
     1
102
RTVSPropertyOp29
 70
     1
102
RTVSPropertyOp30
 70
     1
102
RTVSPropertyOp31
 70
     1
102
RTVSPropertyOp32
 70
     1
102
RTVSPropertyOp33
 70
     1
102
RTVSPropertyOp34
 70
     1
102
RTVSPropertyOp35
 70
     1
102
RTVSPropertyOp36
 70
     1
102
RTVSPropertyOp37
 70
     1
102
RTVSPropertyOp38
 70
     1
102
RTVSPropertyOp39
 70
     1
102
RTVSPropertyOp40
 70
     1
102
RTVSPropertyOp41
 70
     1
102
RTVSPropertyOp42
 70
     1
102
RTVSPropertyOp43
 70
     1
102
RTVSPropertyOp44
 70
     1
102
RTVSPropertyOp45
 70
     1
102
RTVSPropertyOp46
 70
     1
102
RTVSPropertyOp47
 70
     1
102
RTVSPropertyOp48
 70
     1
102
RTVSPropertyOp49
 70
     1
102
RTVSPropertyOp50
 70
     1
102
RTVSPropertyOp51
 70
     0
102
RTVSPropertyOp52
 70
     0
102
RTVSPropertyOp53
 70
     1
102
RTVSPropertyOp54
 70
     1
102
RTVSPropertyOp55
 70
     1
102
RTVSPropertyOp56
 70
     1
102
RTVSPropertyOp57
 70
     1
102
RTVSPropertyOp58
 70
     1
102
RTVSPropertyOp59
 70
     1
102
RTVSPropertyOp60
 70
     1
102
RTVSPropertyOp61
 70
     1
102
RTVSPropertyOp62
 70
     1
  0
XRECORD
  5
5360E
102
{ACAD_REACTORS
330
5360D
102
}
330
5360D
100
AcDbXrecord
280
     1
102
RTVSPost2010Prop28
280
     0
102
RTVSPost2010PropOp28
 70
     1
102
RTVSPost2010Prop29
280
     1
102
RTVSPost2010PropOp29
 70
     1
102
RTVSPost2010Prop30
280
     1
102
RTVSPost2010PropOp30
 70
     1
102
RTVSPost2010Prop31
280
     0
102
RTVSPost2010PropOp31
 70
     1
102
RTVSPost2010Prop32
280
     0
102
RTVSPost2010PropOp32
 70
     1
102
RTVSPost2010Prop33
280
     0
102
RTVSPost2010PropOp33
 70
     1
102
RTVSPost2010Prop34
280
     0
102
RTVSPost2010PropOp34
 70
     1
102
RTVSPost2010Prop35
280
     0
102
RTVSPost2010PropOp35
 70
     1
102
RTVSPost2010Prop36
280
     0
102
RTVSPost2010PropOp36
 70
     1
102
RTVSPost2010Prop37
 90
       50
102
RTVSPost2010PropOp37
 70
     1
102
RTVSPost2010Prop38
140
0.0
102
RTVSPost2010PropOp38
 70
     1
102
RTVSPost2010Prop39
140
1.0
102
RTVSPost2010PropOp39
 70
     1
102
RTVSPost2010Prop40
 90
        0
102
RTVSPost2010PropOp40
 70
     1
102
RTVSPost2010Prop41ColorIndex
 90
       18
102
RTVSPost2010Prop41ColorRGB
 90
        0
102
RTVSPost2010PropOp41
 70
     1
102
RTVSPost2010Prop42
 90
       50
102
RTVSPost2010PropOp42
 70
     1
102
RTVSPost2010Prop43
 90
        3
102
RTVSPost2010PropOp43
 70
     1
102
RTVSPost2010Prop44ColorIndex
 90
        5
102
RTVSPost2010Prop44ColorRGB
 90
      255
102
RTVSPost2010PropOp44
 70
     1
102
RTVSPost2010Prop45
280
     0
102
RTVSPost2010PropOp45
 70
     1
102
RTVSPost2010Prop46
 90
       50
102
RTVSPost2010PropOp46
 70
     1
102
RTVSPost2010Prop47
 90
       50
102
RTVSPost2010PropOp47
 70
     1
102
RTVSPost2010Prop48
 90
       50
102
RTVSPost2010PropOp48
 70
     1
102
RTVSPost2010Prop49
280
     0
102
RTVSPost2010PropOp49
 70
     1
102
RTVSPost2010Prop50
 90
       50
102
RTVSPost2010PropOp50
 70
     1
102
RTVSPost2010Prop51ColorIndex
 90
      256
102
RTVSPost2010Prop51ColorRGB
 90
-16777216
102
RTVSPost2010PropOp51
 70
     0
102
RTVSPost2010Prop52
140
1.0
102
RTVSPost2010PropOp52
 70
     0
102
RTVSPost2010Prop53
 90
        2
102
RTVSPost2010PropOp53
 70
     1
102
RTVSPost2010Prop54
  1
strokes_ogs.tif
102
RTVSPost2010PropOp54
 70
     1
102
RTVSPost2010Prop55
280
     0
102
RTVSPost2010PropOp55
 70
     1
102
RTVSPost2010Prop56
140
1.0
102
RTVSPost2010PropOp56
 70
     1
102
RTVSPost2010Prop57
140
1.0
102
RTVSPost2010PropOp57
 70
     1
102
RTVSPropertyOp0
 70
     1
102
RTVSPropertyOp1
 70
     1
102
RTVSPropertyOp2
 70
     1
102
RTVSPropertyOp3
 70
     1
102
RTVSPropertyOp4
 70
     1
102
RTVSPropertyOp5
 70
     1
102
RTVSPropertyOp6
 70
     1
102
RTVSPropertyOp7
 70
     1
102
RTVSPropertyOp8
 70
     1
102
RTVSPropertyOp9
 70
     1
102
RTVSPropertyOp10
 70
     1
102
RTVSPropertyOp11
 70
     1
102
RTVSPropertyOp12
 70
     1
102
RTVSPropertyOp13
 70
     1
102
RTVSPropertyOp14
 70
     1
102
RTVSPropertyOp15
 70
     1
102
RTVSPropertyOp16
 70
     1
102
RTVSPropertyOp17
 70
     1
102
RTVSPropertyOp18
 70
     1
102
RTVSPropertyOp19
 70
     1
102
RTVSPropertyOp20
 70
     1
102
RTVSPropertyOp21
 70
     1
102
RTVSPropertyOp22
 70
     1
102
RTVSPropertyOp23
 70
     1
102
RTVSPropertyOp24
 70
     1
102
RTVSPropertyOp25
 70
     1
102
RTVSPropertyOp26
 70
     1
102
RTVSPropertyOp27
 70
     1
102
RTVSPropertyOp28
 70
     1
102
RTVSPropertyOp29
 70
     1
102
RTVSPropertyOp30
 70
     1
102
RTVSPropertyOp31
 70
     1
102
RTVSPropertyOp32
 70
     1
102
RTVSPropertyOp33
 70
     1
102
RTVSPropertyOp34
 70
     1
102
RTVSPropertyOp35
 70
     1
102
RTVSPropertyOp36
 70
     1
102
RTVSPropertyOp37
 70
     1
102
RTVSPropertyOp38
 70
     1
102
RTVSPropertyOp39
 70
     1
102
RTVSPropertyOp40
 70
     1
102
RTVSPropertyOp41
 70
     1
102
RTVSPropertyOp42
 70
     1
102
RTVSPropertyOp43
 70
     1
102
RTVSPropertyOp44
 70
     1
102
RTVSPropertyOp45
 70
     1
102
RTVSPropertyOp46
 70
     1
102
RTVSPropertyOp47
 70
     1
102
RTVSPropertyOp48
 70
     1
102
RTVSPropertyOp49
 70
     1
102
RTVSPropertyOp50
 70
     1
102
RTVSPropertyOp51
 70
     0
102
RTVSPropertyOp52
 70
     0
102
RTVSPropertyOp53
 70
     1
102
RTVSPropertyOp54
 70
     1
102
RTVSPropertyOp55
 70
     1
102
RTVSPropertyOp56
 70
     1
102
RTVSPropertyOp57
 70
     1
102
RTVSPropertyOp58
 70
     1
102
RTVSPropertyOp59
 70
     1
102
RTVSPropertyOp60
 70
     1
102
RTVSPropertyOp61
 70
     1
102
RTVSPropertyOp62
 70
     1
  0
XRECORD
  5
5360C
102
{ACAD_REACTORS
330
5360B
102
}
330
5360B
100
AcDbXrecord
280
     1
102
RTVSPost2010Prop28
280
     0
102
RTVSPost2010PropOp28
 70
     1
102
RTVSPost2010Prop29
280
     1
102
RTVSPost2010PropOp29
 70
     1
102
RTVSPost2010Prop30
280
     1
102
RTVSPost2010PropOp30
 70
     1
102
RTVSPost2010Prop31
280
     0
102
RTVSPost2010PropOp31
 70
     1
102
RTVSPost2010Prop32
280
     0
102
RTVSPost2010PropOp32
 70
     1
102
RTVSPost2010Prop33
280
     0
102
RTVSPost2010PropOp33
 70
     1
102
RTVSPost2010Prop34
280
     0
102
RTVSPost2010PropOp34
 70
     1
102
RTVSPost2010Prop35
280
     0
102
RTVSPost2010PropOp35
 70
     1
102
RTVSPost2010Prop36
280
     0
102
RTVSPost2010PropOp36
 70
     1
102
RTVSPost2010Prop37
 90
       50
102
RTVSPost2010PropOp37
 70
     1
102
RTVSPost2010Prop38
140
0.0
102
RTVSPost2010PropOp38
 70
     1
102
RTVSPost2010Prop39
140
1.0
102
RTVSPost2010PropOp39
 70
     1
102
RTVSPost2010Prop40
 90
        0
102
RTVSPost2010PropOp40
 70
     1
102
RTVSPost2010Prop41ColorIndex
 90
       18
102
RTVSPost2010Prop41ColorRGB
 90
        0
102
RTVSPost2010PropOp41
 70
     1
102
RTVSPost2010Prop42
 90
       50
102
RTVSPost2010PropOp42
 70
     1
102
RTVSPost2010Prop43
 90
        3
102
RTVSPost2010PropOp43
 70
     1
102
RTVSPost2010Prop44ColorIndex
 90
        5
102
RTVSPost2010Prop44ColorRGB
 90
      255
102
RTVSPost2010PropOp44
 70
     1
102
RTVSPost2010Prop45
280
     0
102
RTVSPost2010PropOp45
 70
     1
102
RTVSPost2010Prop46
 90
       50
102
RTVSPost2010PropOp46
 70
     1
102
RTVSPost2010Prop47
 90
       50
102
RTVSPost2010PropOp47
 70
     1
102
RTVSPost2010Prop48
 90
       50
102
RTVSPost2010PropOp48
 70
     1
102
RTVSPost2010Prop49
280
     0
102
RTVSPost2010PropOp49
 70
     1
102
RTVSPost2010Prop50
 90
       50
102
RTVSPost2010PropOp50
 70
     1
102
RTVSPost2010Prop51ColorIndex
 90
      256
102
RTVSPost2010Prop51ColorRGB
 90
-16777216
102
RTVSPost2010PropOp51
 70
     0
102
RTVSPost2010Prop52
140
1.0
102
RTVSPost2010PropOp52
 70
     0
102
RTVSPost2010Prop53
 90
        2
102
RTVSPost2010PropOp53
 70
     1
102
RTVSPost2010Prop54
  1
strokes_ogs.tif
102
RTVSPost2010PropOp54
 70
     1
102
RTVSPost2010Prop55
280
     0
102
RTVSPost2010PropOp55
 70
     1
102
RTVSPost2010Prop56
140
1.0
102
RTVSPost2010PropOp56
 70
     1
102
RTVSPost2010Prop57
140
1.0
102
RTVSPost2010PropOp57
 70
     1
102
RTVSPropertyOp0
 70
     1
102
RTVSPropertyOp1
 70
     1
102
RTVSPropertyOp2
 70
     1
102
RTVSPropertyOp3
 70
     1
102
RTVSPropertyOp4
 70
     1
102
RTVSPropertyOp5
 70
     1
102
RTVSPropertyOp6
 70
     1
102
RTVSPropertyOp7
 70
     1
102
RTVSPropertyOp8
 70
     1
102
RTVSPropertyOp9
 70
     1
102
RTVSPropertyOp10
 70
     1
102
RTVSPropertyOp11
 70
     1
102
RTVSPropertyOp12
 70
     1
102
RTVSPropertyOp13
 70
     1
102
RTVSPropertyOp14
 70
     1
102
RTVSPropertyOp15
 70
     1
102
RTVSPropertyOp16
 70
     1
102
RTVSPropertyOp17
 70
     1
102
RTVSPropertyOp18
 70
     1
102
RTVSPropertyOp19
 70
     1
102
RTVSPropertyOp20
 70
     1
102
RTVSPropertyOp21
 70
     1
102
RTVSPropertyOp22
 70
     1
102
RTVSPropertyOp23
 70
     1
102
RTVSPropertyOp24
 70
     1
102
RTVSPropertyOp25
 70
     1
102
RTVSPropertyOp26
 70
     1
102
RTVSPropertyOp27
 70
     1
102
RTVSPropertyOp28
 70
     1
102
RTVSPropertyOp29
 70
     1
102
RTVSPropertyOp30
 70
     1
102
RTVSPropertyOp31
 70
     1
102
RTVSPropertyOp32
 70
     1
102
RTVSPropertyOp33
 70
     1
102
RTVSPropertyOp34
 70
     1
102
RTVSPropertyOp35
 70
     1
102
RTVSPropertyOp36
 70
     1
102
RTVSPropertyOp37
 70
     1
102
RTVSPropertyOp38
 70
     1
102
RTVSPropertyOp39
 70
     1
102
RTVSPropertyOp40
 70
     1
102
RTVSPropertyOp41
 70
     1
102
RTVSPropertyOp42
 70
     1
102
RTVSPropertyOp43
 70
     1
102
RTVSPropertyOp44
 70
     1
102
RTVSPropertyOp45
 70
     1
102
RTVSPropertyOp46
 70
     1
102
RTVSPropertyOp47
 70
     1
102
RTVSPropertyOp48
 70
     1
102
RTVSPropertyOp49
 70
     1
102
RTVSPropertyOp50
 70
     1
102
RTVSPropertyOp51
 70
     0
102
RTVSPropertyOp52
 70
     0
102
RTVSPropertyOp53
 70
     1
102
RTVSPropertyOp54
 70
     1
102
RTVSPropertyOp55
 70
     1
102
RTVSPropertyOp56
 70
     1
102
RTVSPropertyOp57
 70
     1
102
RTVSPropertyOp58
 70
     1
102
RTVSPropertyOp59
 70
     1
102
RTVSPropertyOp60
 70
     1
102
RTVSPropertyOp61
 70
     1
102
RTVSPropertyOp62
 70
     1
  0
XRECORD
  5
53606
102
{ACAD_REACTORS
330
53605
102
}
330
53605
100
AcDbXrecord
280
     1
102
RTVSPost2010Prop28
280
     0
102
RTVSPost2010PropOp28
 70
     1
102
RTVSPost2010Prop29
280
     1
102
RTVSPost2010PropOp29
 70
     1
102
RTVSPost2010Prop30
280
     1
102
RTVSPost2010PropOp30
 70
     1
102
RTVSPost2010Prop31
280
     0
102
RTVSPost2010PropOp31
 70
     1
102
RTVSPost2010Prop32
280
     0
102
RTVSPost2010PropOp32
 70
     1
102
RTVSPost2010Prop33
280
     0
102
RTVSPost2010PropOp33
 70
     1
102
RTVSPost2010Prop34
280
     0
102
RTVSPost2010PropOp34
 70
     1
102
RTVSPost2010Prop35
280
     0
102
RTVSPost2010PropOp35
 70
     1
102
RTVSPost2010Prop36
280
     0
102
RTVSPost2010PropOp36
 70
     1
102
RTVSPost2010Prop37
 90
       50
102
RTVSPost2010PropOp37
 70
     1
102
RTVSPost2010Prop38
140
0.0
102
RTVSPost2010PropOp38
 70
     1
102
RTVSPost2010Prop39
140
1.0
102
RTVSPost2010PropOp39
 70
     1
102
RTVSPost2010Prop40
 90
        0
102
RTVSPost2010PropOp40
 70
     1
102
RTVSPost2010Prop41ColorIndex
 90
       18
102
RTVSPost2010Prop41ColorRGB
 90
        0
102
RTVSPost2010PropOp41
 70
     1
102
RTVSPost2010Prop42
 90
       50
102
RTVSPost2010PropOp42
 70
     1
102
RTVSPost2010Prop43
 90
        3
102
RTVSPost2010PropOp43
 70
     1
102
RTVSPost2010Prop44ColorIndex
 90
        5
102
RTVSPost2010Prop44ColorRGB
 90
      255
102
RTVSPost2010PropOp44
 70
     1
102
RTVSPost2010Prop45
280
     0
102
RTVSPost2010PropOp45
 70
     1
102
RTVSPost2010Prop46
 90
       50
102
RTVSPost2010PropOp46
 70
     1
102
RTVSPost2010Prop47
 90
       50
102
RTVSPost2010PropOp47
 70
     1
102
RTVSPost2010Prop48
 90
       50
102
RTVSPost2010PropOp48
 70
     1
102
RTVSPost2010Prop49
280
     0
102
RTVSPost2010PropOp49
 70
     1
102
RTVSPost2010Prop50
 90
       50
102
RTVSPost2010PropOp50
 70
     1
102
RTVSPost2010Prop51ColorIndex
 90
      256
102
RTVSPost2010Prop51ColorRGB
 90
-16777216
102
RTVSPost2010PropOp51
 70
     0
102
RTVSPost2010Prop52
140
1.0
102
RTVSPost2010PropOp52
 70
     0
102
RTVSPost2010Prop53
 90
        2
102
RTVSPost2010PropOp53
 70
     1
102
RTVSPost2010Prop54
  1
strokes_ogs.tif
102
RTVSPost2010PropOp54
 70
     1
102
RTVSPost2010Prop55
280
     0
102
RTVSPost2010PropOp55
 70
     1
102
RTVSPost2010Prop56
140
1.0
102
RTVSPost2010PropOp56
 70
     1
102
RTVSPost2010Prop57
140
1.0
102
RTVSPost2010PropOp57
 70
     1
102
RTVSPropertyOp0
 70
     1
102
RTVSPropertyOp1
 70
     1
102
RTVSPropertyOp2
 70
     1
102
RTVSPropertyOp3
 70
     1
102
RTVSPropertyOp4
 70
     1
102
RTVSPropertyOp5
 70
     1
102
RTVSPropertyOp6
 70
     1
102
RTVSPropertyOp7
 70
     1
102
RTVSPropertyOp8
 70
     1
102
RTVSPropertyOp9
 70
     1
102
RTVSPropertyOp10
 70
     1
102
RTVSPropertyOp11
 70
     1
102
RTVSPropertyOp12
 70
     1
102
RTVSPropertyOp13
 70
     1
102
RTVSPropertyOp14
 70
     1
102
RTVSPropertyOp15
 70
     1
102
RTVSPropertyOp16
 70
     1
102
RTVSPropertyOp17
 70
     1
102
RTVSPropertyOp18
 70
     1
102
RTVSPropertyOp19
 70
     1
102
RTVSPropertyOp20
 70
     1
102
RTVSPropertyOp21
 70
     1
102
RTVSPropertyOp22
 70
     1
102
RTVSPropertyOp23
 70
     1
102
RTVSPropertyOp24
 70
     1
102
RTVSPropertyOp25
 70
     1
102
RTVSPropertyOp26
 70
     1
102
RTVSPropertyOp27
 70
     1
102
RTVSPropertyOp28
 70
     1
102
RTVSPropertyOp29
 70
     1
102
RTVSPropertyOp30
 70
     1
102
RTVSPropertyOp31
 70
     1
102
RTVSPropertyOp32
 70
     1
102
RTVSPropertyOp33
 70
     1
102
RTVSPropertyOp34
 70
     1
102
RTVSPropertyOp35
 70
     1
102
RTVSPropertyOp36
 70
     1
102
RTVSPropertyOp37
 70
     1
102
RTVSPropertyOp38
 70
     1
102
RTVSPropertyOp39
 70
     1
102
RTVSPropertyOp40
 70
     1
102
RTVSPropertyOp41
 70
     1
102
RTVSPropertyOp42
 70
     1
102
RTVSPropertyOp43
 70
     1
102
RTVSPropertyOp44
 70
     1
102
RTVSPropertyOp45
 70
     1
102
RTVSPropertyOp46
 70
     1
102
RTVSPropertyOp47
 70
     1
102
RTVSPropertyOp48
 70
     1
102
RTVSPropertyOp49
 70
     1
102
RTVSPropertyOp50
 70
     1
102
RTVSPropertyOp51
 70
     0
102
RTVSPropertyOp52
 70
     0
102
RTVSPropertyOp53
 70
     1
102
RTVSPropertyOp54
 70
     1
102
RTVSPropertyOp55
 70
     1
102
RTVSPropertyOp56
 70
     1
102
RTVSPropertyOp57
 70
     1
102
RTVSPropertyOp58
 70
     1
102
RTVSPropertyOp59
 70
     1
102
RTVSPropertyOp60
 70
     1
102
RTVSPropertyOp61
 70
     1
102
RTVSPropertyOp62
 70
     1
  0
XRECORD
  5
53608
102
{ACAD_REACTORS
330
53607
102
}
330
53607
100
AcDbXrecord
280
     1
102
RTVSPost2010Prop28
280
     0
102
RTVSPost2010PropOp28
 70
     1
102
RTVSPost2010Prop29
280
     1
102
RTVSPost2010PropOp29
 70
     1
102
RTVSPost2010Prop30
280
     1
102
RTVSPost2010PropOp30
 70
     1
102
RTVSPost2010Prop31
280
     0
102
RTVSPost2010PropOp31
 70
     1
102
RTVSPost2010Prop32
280
     0
102
RTVSPost2010PropOp32
 70
     1
102
RTVSPost2010Prop33
280
     0
102
RTVSPost2010PropOp33
 70
     1
102
RTVSPost2010Prop34
280
     0
102
RTVSPost2010PropOp34
 70
     1
102
RTVSPost2010Prop35
280
     0
102
RTVSPost2010PropOp35
 70
     1
102
RTVSPost2010Prop36
280
     0
102
RTVSPost2010PropOp36
 70
     1
102
RTVSPost2010Prop37
 90
       50
102
RTVSPost2010PropOp37
 70
     1
102
RTVSPost2010Prop38
140
0.0
102
RTVSPost2010PropOp38
 70
     1
102
RTVSPost2010Prop39
140
1.0
102
RTVSPost2010PropOp39
 70
     1
102
RTVSPost2010Prop40
 90
        0
102
RTVSPost2010PropOp40
 70
     1
102
RTVSPost2010Prop41ColorIndex
 90
       18
102
RTVSPost2010Prop41ColorRGB
 90
        0
102
RTVSPost2010PropOp41
 70
     1
102
RTVSPost2010Prop42
 90
       50
102
RTVSPost2010PropOp42
 70
     1
102
RTVSPost2010Prop43
 90
        3
102
RTVSPost2010PropOp43
 70
     1
102
RTVSPost2010Prop44ColorIndex
 90
        5
102
RTVSPost2010Prop44ColorRGB
 90
      255
102
RTVSPost2010PropOp44
 70
     1
102
RTVSPost2010Prop45
280
     0
102
RTVSPost2010PropOp45
 70
     1
102
RTVSPost2010Prop46
 90
       50
102
RTVSPost2010PropOp46
 70
     1
102
RTVSPost2010Prop47
 90
       50
102
RTVSPost2010PropOp47
 70
     1
102
RTVSPost2010Prop48
 90
       50
102
RTVSPost2010PropOp48
 70
     1
102
RTVSPost2010Prop49
280
     0
102
RTVSPost2010PropOp49
 70
     1
102
RTVSPost2010Prop50
 90
       50
102
RTVSPost2010PropOp50
 70
     1
102
RTVSPost2010Prop51ColorIndex
 90
      256
102
RTVSPost2010Prop51ColorRGB
 90
-16777216
102
RTVSPost2010PropOp51
 70
     0
102
RTVSPost2010Prop52
140
1.0
102
RTVSPost2010PropOp52
 70
     0
102
RTVSPost2010Prop53
 90
        2
102
RTVSPost2010PropOp53
 70
     1
102
RTVSPost2010Prop54
  1
strokes_ogs.tif
102
RTVSPost2010PropOp54
 70
     1
102
RTVSPost2010Prop55
280
     0
102
RTVSPost2010PropOp55
 70
     1
102
RTVSPost2010Prop56
140
1.0
102
RTVSPost2010PropOp56
 70
     1
102
RTVSPost2010Prop57
140
1.0
102
RTVSPost2010PropOp57
 70
     1
102
RTVSPropertyOp0
 70
     1
102
RTVSPropertyOp1
 70
     1
102
RTVSPropertyOp2
 70
     1
102
RTVSPropertyOp3
 70
     1
102
RTVSPropertyOp4
 70
     1
102
RTVSPropertyOp5
 70
     1
102
RTVSPropertyOp6
 70
     1
102
RTVSPropertyOp7
 70
     1
102
RTVSPropertyOp8
 70
     1
102
RTVSPropertyOp9
 70
     1
102
RTVSPropertyOp10
 70
     1
102
RTVSPropertyOp11
 70
     1
102
RTVSPropertyOp12
 70
     1
102
RTVSPropertyOp13
 70
     1
102
RTVSPropertyOp14
 70
     1
102
RTVSPropertyOp15
 70
     1
102
RTVSPropertyOp16
 70
     1
102
RTVSPropertyOp17
 70
     1
102
RTVSPropertyOp18
 70
     1
102
RTVSPropertyOp19
 70
     1
102
RTVSPropertyOp20
 70
     1
102
RTVSPropertyOp21
 70
     1
102
RTVSPropertyOp22
 70
     1
102
RTVSPropertyOp23
 70
     1
102
RTVSPropertyOp24
 70
     1
102
RTVSPropertyOp25
 70
     1
102
RTVSPropertyOp26
 70
     1
102
RTVSPropertyOp27
 70
     1
102
RTVSPropertyOp28
 70
     1
102
RTVSPropertyOp29
 70
     1
102
RTVSPropertyOp30
 70
     1
102
RTVSPropertyOp31
 70
     1
102
RTVSPropertyOp32
 70
     1
102
RTVSPropertyOp33
 70
     1
102
RTVSPropertyOp34
 70
     1
102
RTVSPropertyOp35
 70
     1
102
RTVSPropertyOp36
 70
     1
102
RTVSPropertyOp37
 70
     1
102
RTVSPropertyOp38
 70
     1
102
RTVSPropertyOp39
 70
     1
102
RTVSPropertyOp40
 70
     1
102
RTVSPropertyOp41
 70
     1
102
RTVSPropertyOp42
 70
     1
102
RTVSPropertyOp43
 70
     1
102
RTVSPropertyOp44
 70
     1
102
RTVSPropertyOp45
 70
     1
102
RTVSPropertyOp46
 70
     1
102
RTVSPropertyOp47
 70
     1
102
RTVSPropertyOp48
 70
     1
102
RTVSPropertyOp49
 70
     1
102
RTVSPropertyOp50
 70
     1
102
RTVSPropertyOp51
 70
     0
102
RTVSPropertyOp52
 70
     0
102
RTVSPropertyOp53
 70
     1
102
RTVSPropertyOp54
 70
     1
102
RTVSPropertyOp55
 70
     1
102
RTVSPropertyOp56
 70
     1
102
RTVSPropertyOp57
 70
     1
102
RTVSPropertyOp58
 70
     1
102
RTVSPropertyOp59
 70
     1
102
RTVSPropertyOp60
 70
     1
102
RTVSPropertyOp61
 70
     1
102
RTVSPropertyOp62
 70
     1
  0
XRECORD
  5
535FE
102
{ACAD_REACTORS
330
535FD
102
}
330
535FD
100
AcDbXrecord
280
     1
102
RTVSPost2010Prop28
280
     0
102
RTVSPost2010PropOp28
 70
     1
102
RTVSPost2010Prop29
280
     1
102
RTVSPost2010PropOp29
 70
     1
102
RTVSPost2010Prop30
280
     1
102
RTVSPost2010PropOp30
 70
     1
102
RTVSPost2010Prop31
280
     0
102
RTVSPost2010PropOp31
 70
     1
102
RTVSPost2010Prop32
280
     0
102
RTVSPost2010PropOp32
 70
     1
102
RTVSPost2010Prop33
280
     0
102
RTVSPost2010PropOp33
 70
     1
102
RTVSPost2010Prop34
280
     0
102
RTVSPost2010PropOp34
 70
     1
102
RTVSPost2010Prop35
280
     0
102
RTVSPost2010PropOp35
 70
     1
102
RTVSPost2010Prop36
280
     0
102
RTVSPost2010PropOp36
 70
     1
102
RTVSPost2010Prop37
 90
       50
102
RTVSPost2010PropOp37
 70
     1
102
RTVSPost2010Prop38
140
0.0
102
RTVSPost2010PropOp38
 70
     1
102
RTVSPost2010Prop39
140
1.0
102
RTVSPost2010PropOp39
 70
     1
102
RTVSPost2010Prop40
 90
        0
102
RTVSPost2010PropOp40
 70
     1
102
RTVSPost2010Prop41ColorIndex
 90
       18
102
RTVSPost2010Prop41ColorRGB
 90
        0
102
RTVSPost2010PropOp41
 70
     1
102
RTVSPost2010Prop42
 90
       50
102
RTVSPost2010PropOp42
 70
     1
102
RTVSPost2010Prop43
 90
        3
102
RTVSPost2010PropOp43
 70
     1
102
RTVSPost2010Prop44ColorIndex
 90
        5
102
RTVSPost2010Prop44ColorRGB
 90
      255
102
RTVSPost2010PropOp44
 70
     1
102
RTVSPost2010Prop45
280
     0
102
RTVSPost2010PropOp45
 70
     1
102
RTVSPost2010Prop46
 90
       50
102
RTVSPost2010PropOp46
 70
     1
102
RTVSPost2010Prop47
 90
       50
102
RTVSPost2010PropOp47
 70
     1
102
RTVSPost2010Prop48
 90
       50
102
RTVSPost2010PropOp48
 70
     1
102
RTVSPost2010Prop49
280
     0
102
RTVSPost2010PropOp49
 70
     1
102
RTVSPost2010Prop50
 90
       50
102
RTVSPost2010PropOp50
 70
     1
102
RTVSPost2010Prop51ColorIndex
 90
      256
102
RTVSPost2010Prop51ColorRGB
 90
-16777216
102
RTVSPost2010PropOp51
 70
     0
102
RTVSPost2010Prop52
140
1.0
102
RTVSPost2010PropOp52
 70
     0
102
RTVSPost2010Prop53
 90
        2
102
RTVSPost2010PropOp53
 70
     1
102
RTVSPost2010Prop54
  1
strokes_ogs.tif
102
RTVSPost2010PropOp54
 70
     1
102
RTVSPost2010Prop55
280
     0
102
RTVSPost2010PropOp55
 70
     1
102
RTVSPost2010Prop56
140
1.0
102
RTVSPost2010PropOp56
 70
     1
102
RTVSPost2010Prop57
140
1.0
102
RTVSPost2010PropOp57
 70
     1
102
RTVSPropertyOp0
 70
     1
102
RTVSPropertyOp1
 70
     1
102
RTVSPropertyOp2
 70
     1
102
RTVSPropertyOp3
 70
     1
102
RTVSPropertyOp4
 70
     1
102
RTVSPropertyOp5
 70
     1
102
RTVSPropertyOp6
 70
     1
102
RTVSPropertyOp7
 70
     1
102
RTVSPropertyOp8
 70
     1
102
RTVSPropertyOp9
 70
     1
102
RTVSPropertyOp10
 70
     1
102
RTVSPropertyOp11
 70
     1
102
RTVSPropertyOp12
 70
     1
102
RTVSPropertyOp13
 70
     1
102
RTVSPropertyOp14
 70
     1
102
RTVSPropertyOp15
 70
     1
102
RTVSPropertyOp16
 70
     1
102
RTVSPropertyOp17
 70
     1
102
RTVSPropertyOp18
 70
     1
102
RTVSPropertyOp19
 70
     1
102
RTVSPropertyOp20
 70
     1
102
RTVSPropertyOp21
 70
     1
102
RTVSPropertyOp22
 70
     1
102
RTVSPropertyOp23
 70
     1
102
RTVSPropertyOp24
 70
     1
102
RTVSPropertyOp25
 70
     1
102
RTVSPropertyOp26
 70
     1
102
RTVSPropertyOp27
 70
     1
102
RTVSPropertyOp28
 70
     1
102
RTVSPropertyOp29
 70
     1
102
RTVSPropertyOp30
 70
     1
102
RTVSPropertyOp31
 70
     1
102
RTVSPropertyOp32
 70
     1
102
RTVSPropertyOp33
 70
     1
102
RTVSPropertyOp34
 70
     1
102
RTVSPropertyOp35
 70
     1
102
RTVSPropertyOp36
 70
     1
102
RTVSPropertyOp37
 70
     1
102
RTVSPropertyOp38
 70
     1
102
RTVSPropertyOp39
 70
     1
102
RTVSPropertyOp40
 70
     1
102
RTVSPropertyOp41
 70
     1
102
RTVSPropertyOp42
 70
     1
102
RTVSPropertyOp43
 70
     1
102
RTVSPropertyOp44
 70
     1
102
RTVSPropertyOp45
 70
     1
102
RTVSPropertyOp46
 70
     1
102
RTVSPropertyOp47
 70
     1
102
RTVSPropertyOp48
 70
     1
102
RTVSPropertyOp49
 70
     1
102
RTVSPropertyOp50
 70
     1
102
RTVSPropertyOp51
 70
     0
102
RTVSPropertyOp52
 70
     0
102
RTVSPropertyOp53
 70
     1
102
RTVSPropertyOp54
 70
     1
102
RTVSPropertyOp55
 70
     1
102
RTVSPropertyOp56
 70
     1
102
RTVSPropertyOp57
 70
     1
102
RTVSPropertyOp58
 70
     1
102
RTVSPropertyOp59
 70
     1
102
RTVSPropertyOp60
 70
     1
102
RTVSPropertyOp61
 70
     1
102
RTVSPropertyOp62
 70
     1
  0
XRECORD
  5
535F2
102
{ACAD_REACTORS
330
535F1
102
}
330
535F1
100
AcDbXrecord
280
     1
102
RTVSPost2010Prop28
280
     0
102
RTVSPost2010PropOp28
 70
     1
102
RTVSPost2010Prop29
280
     1
102
RTVSPost2010PropOp29
 70
     1
102
RTVSPost2010Prop30
280
     1
102
RTVSPost2010PropOp30
 70
     1
102
RTVSPost2010Prop31
280
     0
102
RTVSPost2010PropOp31
 70
     1
102
RTVSPost2010Prop32
280
     0
102
RTVSPost2010PropOp32
 70
     1
102
RTVSPost2010Prop33
280
     0
102
RTVSPost2010PropOp33
 70
     1
102
RTVSPost2010Prop34
280
     0
102
RTVSPost2010PropOp34
 70
     1
102
RTVSPost2010Prop35
280
     0
102
RTVSPost2010PropOp35
 70
     1
102
RTVSPost2010Prop36
280
     0
102
RTVSPost2010PropOp36
 70
     1
102
RTVSPost2010Prop37
 90
       50
102
RTVSPost2010PropOp37
 70
     1
102
RTVSPost2010Prop38
140
0.0
102
RTVSPost2010PropOp38
 70
     1
102
RTVSPost2010Prop39
140
1.0
102
RTVSPost2010PropOp39
 70
     1
102
RTVSPost2010Prop40
 90
        0
102
RTVSPost2010PropOp40
 70
     1
102
RTVSPost2010Prop41ColorIndex
 90
       18
102
RTVSPost2010Prop41ColorRGB
 90
        0
102
RTVSPost2010PropOp41
 70
     1
102
RTVSPost2010Prop42
 90
       50
102
RTVSPost2010PropOp42
 70
     1
102
RTVSPost2010Prop43
 90
        3
102
RTVSPost2010PropOp43
 70
     1
102
RTVSPost2010Prop44ColorIndex
 90
        5
102
RTVSPost2010Prop44ColorRGB
 90
      255
102
RTVSPost2010PropOp44
 70
     1
102
RTVSPost2010Prop45
280
     0
102
RTVSPost2010PropOp45
 70
     1
102
RTVSPost2010Prop46
 90
       50
102
RTVSPost2010PropOp46
 70
     1
102
RTVSPost2010Prop47
 90
       50
102
RTVSPost2010PropOp47
 70
     1
102
RTVSPost2010Prop48
 90
       50
102
RTVSPost2010PropOp48
 70
     1
102
RTVSPost2010Prop49
280
     0
102
RTVSPost2010PropOp49
 70
     1
102
RTVSPost2010Prop50
 90
       50
102
RTVSPost2010PropOp50
 70
     1
102
RTVSPost2010Prop51ColorIndex
 90
      256
102
RTVSPost2010Prop51ColorRGB
 90
-16777216
102
RTVSPost2010PropOp51
 70
     0
102
RTVSPost2010Prop52
140
1.0
102
RTVSPost2010PropOp52
 70
     0
102
RTVSPost2010Prop53
 90
        2
102
RTVSPost2010PropOp53
 70
     1
102
RTVSPost2010Prop54
  1
strokes_ogs.tif
102
RTVSPost2010PropOp54
 70
     1
102
RTVSPost2010Prop55
280
     0
102
RTVSPost2010PropOp55
 70
     1
102
RTVSPost2010Prop56
140
1.0
102
RTVSPost2010PropOp56
 70
     1
102
RTVSPost2010Prop57
140
1.0
102
RTVSPost2010PropOp57
 70
     1
102
RTVSPropertyOp0
 70
     1
102
RTVSPropertyOp1
 70
     1
102
RTVSPropertyOp2
 70
     1
102
RTVSPropertyOp3
 70
     1
102
RTVSPropertyOp4
 70
     1
102
RTVSPropertyOp5
 70
     1
102
RTVSPropertyOp6
 70
     1
102
RTVSPropertyOp7
 70
     1
102
RTVSPropertyOp8
 70
     1
102
RTVSPropertyOp9
 70
     1
102
RTVSPropertyOp10
 70
     1
102
RTVSPropertyOp11
 70
     1
102
RTVSPropertyOp12
 70
     1
102
RTVSPropertyOp13
 70
     1
102
RTVSPropertyOp14
 70
     1
102
RTVSPropertyOp15
 70
     1
102
RTVSPropertyOp16
 70
     1
102
RTVSPropertyOp17
 70
     1
102
RTVSPropertyOp18
 70
     1
102
RTVSPropertyOp19
 70
     1
102
RTVSPropertyOp20
 70
     1
102
RTVSPropertyOp21
 70
     1
102
RTVSPropertyOp22
 70
     1
102
RTVSPropertyOp23
 70
     1
102
RTVSPropertyOp24
 70
     1
102
RTVSPropertyOp25
 70
     1
102
RTVSPropertyOp26
 70
     1
102
RTVSPropertyOp27
 70
     1
102
RTVSPropertyOp28
 70
     1
102
RTVSPropertyOp29
 70
     1
102
RTVSPropertyOp30
 70
     1
102
RTVSPropertyOp31
 70
     1
102
RTVSPropertyOp32
 70
     1
102
RTVSPropertyOp33
 70
     1
102
RTVSPropertyOp34
 70
     1
102
RTVSPropertyOp35
 70
     1
102
RTVSPropertyOp36
 70
     1
102
RTVSPropertyOp37
 70
     1
102
RTVSPropertyOp38
 70
     1
102
RTVSPropertyOp39
 70
     1
102
RTVSPropertyOp40
 70
     1
102
RTVSPropertyOp41
 70
     1
102
RTVSPropertyOp42
 70
     1
102
RTVSPropertyOp43
 70
     1
102
RTVSPropertyOp44
 70
     1
102
RTVSPropertyOp45
 70
     1
102
RTVSPropertyOp46
 70
     1
102
RTVSPropertyOp47
 70
     1
102
RTVSPropertyOp48
 70
     1
102
RTVSPropertyOp49
 70
     1
102
RTVSPropertyOp50
 70
     1
102
RTVSPropertyOp51
 70
     0
102
RTVSPropertyOp52
 70
     0
102
RTVSPropertyOp53
 70
     1
102
RTVSPropertyOp54
 70
     1
102
RTVSPropertyOp55
 70
     1
102
RTVSPropertyOp56
 70
     1
102
RTVSPropertyOp57
 70
     1
102
RTVSPropertyOp58
 70
     1
102
RTVSPropertyOp59
 70
     1
102
RTVSPropertyOp60
 70
     1
102
RTVSPropertyOp61
 70
     1
102
RTVSPropertyOp62
 70
     1
  0
XRECORD
  5
5360A
102
{ACAD_REACTORS
330
53609
102
}
330
53609
100
AcDbXrecord
280
     1
102
RTVSPost2010Prop28
280
     0
102
RTVSPost2010PropOp28
 70
     1
102
RTVSPost2010Prop29
280
     1
102
RTVSPost2010PropOp29
 70
     1
102
RTVSPost2010Prop30
280
     1
102
RTVSPost2010PropOp30
 70
     1
102
RTVSPost2010Prop31
280
     0
102
RTVSPost2010PropOp31
 70
     1
102
RTVSPost2010Prop32
280
     0
102
RTVSPost2010PropOp32
 70
     1
102
RTVSPost2010Prop33
280
     0
102
RTVSPost2010PropOp33
 70
     1
102
RTVSPost2010Prop34
280
     0
102
RTVSPost2010PropOp34
 70
     1
102
RTVSPost2010Prop35
280
     0
102
RTVSPost2010PropOp35
 70
     1
102
RTVSPost2010Prop36
280
     0
102
RTVSPost2010PropOp36
 70
     1
102
RTVSPost2010Prop37
 90
       50
102
RTVSPost2010PropOp37
 70
     1
102
RTVSPost2010Prop38
140
0.0
102
RTVSPost2010PropOp38
 70
     1
102
RTVSPost2010Prop39
140
1.0
102
RTVSPost2010PropOp39
 70
     1
102
RTVSPost2010Prop40
 90
        0
102
RTVSPost2010PropOp40
 70
     1
102
RTVSPost2010Prop41ColorIndex
 90
       18
102
RTVSPost2010Prop41ColorRGB
 90
        0
102
RTVSPost2010PropOp41
 70
     1
102
RTVSPost2010Prop42
 90
       50
102
RTVSPost2010PropOp42
 70
     1
102
RTVSPost2010Prop43
 90
        3
102
RTVSPost2010PropOp43
 70
     1
102
RTVSPost2010Prop44ColorIndex
 90
        5
102
RTVSPost2010Prop44ColorRGB
 90
      255
102
RTVSPost2010PropOp44
 70
     1
102
RTVSPost2010Prop45
280
     0
102
RTVSPost2010PropOp45
 70
     1
102
RTVSPost2010Prop46
 90
       50
102
RTVSPost2010PropOp46
 70
     1
102
RTVSPost2010Prop47
 90
       50
102
RTVSPost2010PropOp47
 70
     1
102
RTVSPost2010Prop48
 90
       50
102
RTVSPost2010PropOp48
 70
     1
102
RTVSPost2010Prop49
280
     0
102
RTVSPost2010PropOp49
 70
     1
102
RTVSPost2010Prop50
 90
       50
102
RTVSPost2010PropOp50
 70
     1
102
RTVSPost2010Prop51ColorIndex
 90
      256
102
RTVSPost2010Prop51ColorRGB
 90
-16777216
102
RTVSPost2010PropOp51
 70
     0
102
RTVSPost2010Prop52
140
1.0
102
RTVSPost2010PropOp52
 70
     0
102
RTVSPost2010Prop53
 90
        2
102
RTVSPost2010PropOp53
 70
     1
102
RTVSPost2010Prop54
  1
strokes_ogs.tif
102
RTVSPost2010PropOp54
 70
     1
102
RTVSPost2010Prop55
280
     0
102
RTVSPost2010PropOp55
 70
     1
102
RTVSPost2010Prop56
140
1.0
102
RTVSPost2010PropOp56
 70
     1
102
RTVSPost2010Prop57
140
1.0
102
RTVSPost2010PropOp57
 70
     1
102
RTVSPropertyOp0
 70
     1
102
RTVSPropertyOp1
 70
     1
102
RTVSPropertyOp2
 70
     1
102
RTVSPropertyOp3
 70
     1
102
RTVSPropertyOp4
 70
     1
102
RTVSPropertyOp5
 70
     1
102
RTVSPropertyOp6
 70
     1
102
RTVSPropertyOp7
 70
     1
102
RTVSPropertyOp8
 70
     1
102
RTVSPropertyOp9
 70
     1
102
RTVSPropertyOp10
 70
     1
102
RTVSPropertyOp11
 70
     1
102
RTVSPropertyOp12
 70
     1
102
RTVSPropertyOp13
 70
     1
102
RTVSPropertyOp14
 70
     1
102
RTVSPropertyOp15
 70
     1
102
RTVSPropertyOp16
 70
     1
102
RTVSPropertyOp17
 70
     1
102
RTVSPropertyOp18
 70
     1
102
RTVSPropertyOp19
 70
     1
102
RTVSPropertyOp20
 70
     1
102
RTVSPropertyOp21
 70
     1
102
RTVSPropertyOp22
 70
     1
102
RTVSPropertyOp23
 70
     1
102
RTVSPropertyOp24
 70
     1
102
RTVSPropertyOp25
 70
     1
102
RTVSPropertyOp26
 70
     1
102
RTVSPropertyOp27
 70
     1
102
RTVSPropertyOp28
 70
     1
102
RTVSPropertyOp29
 70
     1
102
RTVSPropertyOp30
 70
     1
102
RTVSPropertyOp31
 70
     1
102
RTVSPropertyOp32
 70
     1
102
RTVSPropertyOp33
 70
     1
102
RTVSPropertyOp34
 70
     1
102
RTVSPropertyOp35
 70
     1
102
RTVSPropertyOp36
 70
     1
102
RTVSPropertyOp37
 70
     1
102
RTVSPropertyOp38
 70
     1
102
RTVSPropertyOp39
 70
     1
102
RTVSPropertyOp40
 70
     1
102
RTVSPropertyOp41
 70
     1
102
RTVSPropertyOp42
 70
     1
102
RTVSPropertyOp43
 70
     1
102
RTVSPropertyOp44
 70
     1
102
RTVSPropertyOp45
 70
     1
102
RTVSPropertyOp46
 70
     1
102
RTVSPropertyOp47
 70
     1
102
RTVSPropertyOp48
 70
     1
102
RTVSPropertyOp49
 70
     1
102
RTVSPropertyOp50
 70
     1
102
RTVSPropertyOp51
 70
     0
102
RTVSPropertyOp52
 70
     0
102
RTVSPropertyOp53
 70
     1
102
RTVSPropertyOp54
 70
     1
102
RTVSPropertyOp55
 70
     1
102
RTVSPropertyOp56
 70
     1
102
RTVSPropertyOp57
 70
     1
102
RTVSPropertyOp58
 70
     1
102
RTVSPropertyOp59
 70
     1
102
RTVSPropertyOp60
 70
     1
102
RTVSPropertyOp61
 70
     1
102
RTVSPropertyOp62
 70
     1
  0
ENDSEC
  0
EOF
