  0
SECTION
  2
HEADER
  9
$ACADVER
  1
AC1015
  9
$ACADMAINTVER
 70
    20
  9
$DWGCODEPAGE
  3
ANSI_932
  9
$INSBASE
 10
0.0
 20
0.0
 30
0.0
  9
$EXTMIN
 10
-1245.689076545684
 20
-862.059767
 30
0.0
  9
$EXTMAX
 10
1518.211437714286
 20
2287.217615283968
 30
0.0
  9
$LIMMIN
 10
-4267.152221
 20
-2696.083210000001
  9
$LIMMAX
 10
7190.717422999999
 20
5141.155364
  9
$ORTHOMODE
 70
     0
  9
$REGENMODE
 70
     1
  9
$FILLMODE
 70
     1
  9
$QTEXTMODE
 70
     0
  9
$MIRRTEXT
 70
     0
  9
$LTSCALE
 40
20.0
  9
$ATTMODE
 70
     1
  9
$TEXTSIZE
 40
64.0
  9
$TRACEWID
 40
0.05
  9
$TEXTSTYLE
  7
STANDARD
  9
$CLAYER
  8
OUTLINE
  9
$CELTYPE
  6
CONTINUOUS
  9
$CECOLOR
 62
     7
  9
$CELTSCALE
 40
1.0
  9
$DISPSILH
 70
     0
  9
$DIMSCALE
 40
1.0
  9
$DIMASZ
 40
10.0
  9
$DIMEXO
 40
20.0
  9
$DIMDLI
 40
200.0
  9
$DIMRND
 40
0.0
  9
$DIMDLE
 40
0.0
  9
$DIMEXE
 40
30.0
  9
$DIMTP
 40
0.0
  9
$DIMTM
 40
0.0
  9
$DIMTXT
 40
55.0
  9
$DIMCEN
 40
0.0
  9
$DIMTSZ
 40
0.0
  9
$DIMTOL
 70
     0
  9
$DIMLIM
 70
     0
  9
$DIMTIH
 70
     0
  9
$DIMTOH
 70
     0
  9
$DIMSE1
 70
     0
  9
$DIMSE2
 70
     0
  9
$DIMTAD
 70
     1
  9
$DIMZIN
 70
     8
  9
$DIMBLK
  1

  9
$DIMASO
 70
     1
  9
$DIMSHO
 70
     0
  9
$DIMPOST
  1

  9
$DIMAPOST
  1

  9
$DIMALT
 70
     0
  9
$DIMALTD
 70
     2
  9
$DIMALTF
 40
25.4
  9
$DIMLFAC
 40
1.0
  9
$DIMTOFL
 70
     1
  9
$DIMTVP
 40
0.0
  9
$DIMTIX
 70
     1
  9
$DIMSOXD
 70
     0
  9
$DIMSAH
 70
     1
  9
$DIMBLK1
  1
DOTBLANK
  9
$DIMBLK2
  1
DOTBLANK
  9
$DIMSTYLE
  2
STANDARD
  9
$DIMCLRD
 70
     0
  9
$DIMCLRE
 70
     0
  9
$DIMCLRT
 70
     0
  9
$DIMTFAC
 40
1.0
  9
$DIMGAP
 40
0.09
  9
$DIMJUST
 70
     0
  9
$DIMSD1
 70
     0
  9
$DIMSD2
 70
     0
  9
$DIMTOLJ
 70
     1
  9
$DIMTZIN
 70
     0
  9
$DIMALTZ
 70
     0
  9
$DIMALTTZ
 70
     0
  9
$DIMUPT
 70
     0
  9
$DIMDEC
 70
     4
  9
$DIMTDEC
 70
     4
  9
$DIMALTU
 70
     2
  9
$DIMALTTD
 70
     2
  9
$DIMTXSTY
  7
STANDARD
  9
$DIMAUNIT
 70
     0
  9
$DIMADEC
 70
     0
  9
$DIMALTRND
 40
0.0
  9
$DIMAZIN
 70
     0
  9
$DIMDSEP
 70
    46
  9
$DIMATFIT
 70
     3
  9
$DIMFRAC
 70
     0
  9
$DIMLDRBLK
  1
DOTBLANK
  9
$DIMLUNIT
 70
     2
  9
$DIMLWD
 70
    -2
  9
$DIMLWE
 70
    -2
  9
$DIMTMOVE
 70
     0
  9
$LUNITS
 70
     2
  9
$LUPREC
 70
     4
  9
$SKETCHINC
 40
0.1
  9
$FILLETRAD
 40
30.0
  9
$AUNITS
 70
     1
  9
$AUPREC
 70
     3
  9
$MENU
  1
ACAD
  9
$ELEVATION
 40
0.0
  9
$PELEVATION
 40
0.0
  9
$THICKNESS
 40
0.0
  9
$LIMCHECK
 70
     0
  9
$CHAMFERA
 40
0.0
  9
$CHAMFERB
 40
0.0
  9
$CHAMFERC
 40
0.0
  9
$CHAMFERD
 40
0.0
  9
$SKPOLY
 70
     0
  9
$TDCREATE
 40
2450330.481597662
  9
$TDUCREATE
 40
2450330.106597662
  9
$TDUPDATE
 40
2458150.680759421
  9
$TDUUPDATE
 40
2458150.305759421
  9
$TDINDWG
 40
3.6667649537
  9
$TDUSRTIMER
 40
3.6667648380
  9
$USRTIMER
 70
     1
  9
$ANGBASE
 50
0.0
  9
$ANGDIR
 70
     0
  9
$PDMODE
 70
     3
  9
$PDSIZE
 40
-2.0
  9
$PLINEWID
 40
0.0
  9
$SPLFRAME
 70
     0
  9
$SPLINETYPE
 70
     6
  9
$SPLINESEGS
 70
     8
  9
$HANDSEED
  5
99F
  9
$SURFTAB1
 70
     6
  9
$SURFTAB2
 70
     6
  9
$SURFTYPE
 70
     6
  9
$SURFU
 70
     6
  9
$SURFV
 70
     6
  9
$UCSBASE
  2

  9
$UCSNAME
  2

  9
$UCSORG
 10
0.0
 20
0.0
 30
0.0
  9
$UCSXDIR
 10
1.0
 20
0.0
 30
0.0
  9
$UCSYDIR
 10
0.0
 20
1.0
 30
0.0
  9
$UCSORTHOREF
  2

  9
$UCSORTHOVIEW
 70
     0
  9
$UCSORGTOP
 10
0.0
 20
0.0
 30
0.0
  9
$UCSORGBOTTOM
 10
0.0
 20
0.0
 30
0.0
  9
$UCSORGLEFT
 10
0.0
 20
0.0
 30
0.0
  9
$UCSORGRIGHT
 10
0.0
 20
0.0
 30
0.0
  9
$UCSORGFRONT
 10
0.0
 20
0.0
 30
0.0
  9
$UCSORGBACK
 10
0.0
 20
0.0
 30
0.0
  9
$PUCSBASE
  2

  9
$PUCSNAME
  2

  9
$PUCSORG
 10
0.0
 20
0.0
 30
0.0
  9
$PUCSXDIR
 10
1.0
 20
0.0
 30
0.0
  9
$PUCSYDIR
 10
0.0
 20
1.0
 30
0.0
  9
$PUCSORTHOREF
  2

  9
$PUCSORTHOVIEW
 70
     0
  9
$PUCSORGTOP
 10
0.0
 20
0.0
 30
0.0
  9
$PUCSORGBOTTOM
 10
0.0
 20
0.0
 30
0.0
  9
$PUCSORGLEFT
 10
0.0
 20
0.0
 30
0.0
  9
$PUCSORGRIGHT
 10
0.0
 20
0.0
 30
0.0
  9
$PUCSORGFRONT
 10
0.0
 20
0.0
 30
0.0
  9
$PUCSORGBACK
 10
0.0
 20
0.0
 30
0.0
  9
$USERI1
 70
     0
  9
$USERI2
 70
     0
  9
$USERI3
 70
     0
  9
$USERI4
 70
     0
  9
$USERI5
 70
     0
  9
$USERR1
 40
20.0
  9
$USERR2
 40
0.0
  9
$USERR3
 40
0.0
  9
$USERR4
 40
0.0
  9
$USERR5
 40
0.0
  9
$WORLDVIEW
 70
     1
  9
$SHADEDGE
 70
     3
  9
$SHADEDIF
 70
    70
  9
$TILEMODE
 70
     1
  9
$MAXACTVP
 70
    48
  9
$PINSBASE
 10
0.0
 20
0.0
 30
0.0
  9
$PLIMCHECK
 70
     0
  9
$PEXTMIN
 10
1.000000000000000E+20
 20
1.000000000000000E+20
 30
1.000000000000000E+20
  9
$PEXTMAX
 10
-1.000000000000000E+20
 20
-1.000000000000000E+20
 30
-1.000000000000000E+20
  9
$PLIMMIN
 10
0.0
 20
0.0
  9
$PLIMMAX
 10
12.0
 20
9.0
  9
$UNITMODE
 70
     0
  9
$VISRETAIN
 70
     1
  9
$PLINEGEN
 70
     0
  9
$PSLTSCALE
 70
     1
  9
$TREEDEPTH
 70
  3020
  9
$CMLSTYLE
  2
Standard
  9
$CMLJUST
 70
     0
  9
$CMLSCALE
 40
1.0
  9
$PROXYGRAPHICS
 70
     1
  9
$MEASUREMENT
 70
     0
  9
$CELWEIGHT
370
    -1
  9
$ENDCAPS
280
     0
  9
$JOINSTYLE
280
     0
  9
$LWDISPLAY
290
     0
  9
$INSUNITS
 70
     0
  9
$HYPERLINKBASE
  1

  9
$STYLESHEET
  1

  9
$XEDIT
290
     1
  9
$CEPSNTYPE
380
     0
  9
$PSTYLEMODE
290
     1
  9
$FINGERPRINTGUID
  2
{40E6099B-86FD-4657-8F2F-0082F5D0729C}
  9
$VERSIONGUID
  2
{769F7B02-FA3A-4D7B-9935-8087C388AB50}
  9
$EXTNAMES
290
     1
  9
$PSVPSCALE
 40
0.0
  9
$OLESTARTUP
290
     0
  0
ENDSEC
  0
SECTION
  2
CLASSES
  0
CLASS
  1
ACDBDICTIONARYWDFLT
  2
AcDbDictionaryWithDefault
  3
ObjectDBX Classes
 90
        0
280
     0
281
     0
  0
CLASS
  1
MATERIAL
  2
AcDbMaterial
  3
ObjectDBX Classes
 90
     1153
280
     0
281
     0
  0
CLASS
  1
VISUALSTYLE
  2
AcDbVisualStyle
  3
ObjectDBX Classes
 90
     4095
280
     0
281
     0
  0
CLASS
  1
SCALE
  2
AcDbScale
  3
ObjectDBX Classes
 90
     1153
280
     0
281
     0
  0
CLASS
  1
TABLESTYLE
  2
AcDbTableStyle
  3
ObjectDBX Classes
 90
     4095
280
     0
281
     0
  0
CLASS
  1
MLEADERSTYLE
  2
AcDbMLeaderStyle
  3
ACDB_MLEADERSTYLE_CLASS
 90
     4095
280
     0
281
     0
  0
CLASS
  1
DICTIONARYVAR
  2
AcDbDictionaryVar
  3
ObjectDBX Classes
 90
        0
280
     0
281
     0
  0
CLASS
  1
CELLSTYLEMAP
  2
AcDbCellStyleMap
  3
ObjectDBX Classes
 90
     1152
280
     0
281
     0
  0
CLASS
  1
ACDBPLACEHOLDER
  2
AcDbPlaceHolder
  3
ObjectDBX Classes
 90
        0
280
     0
281
     0
  0
CLASS
  1
LAYOUT
  2
AcDbLayout
  3
ObjectDBX Classes
 90
        0
280
     0
281
     0
  0
ENDSEC
  0
SECTION
  2
TABLES
  0
TABLE
  2
VPORT
  5
897
330
0
100
AcDbSymbolTable
 70
     1
  0
VPORT
  5
908
330
897
100
AcDbSymbolTableRecord
100
AcDbViewportTableRecord
  2
*ACTIVE
 70
     0
 10
0.0
 20
0.0
 11
1.0
 21
1.0
 12
1571.822065418597
 22
215.0590514794158
 13
0.0
 23
0.0
 14
50.0
 24
50.0
 15
100.0
 25
100.0
 16
0.0
 26
0.0
 36
1.0
 17
0.0
 27
0.0
 37
0.0
 40
5022.719752954944
 41
2.211652794292509
 42
50.0
 43
0.0
 44
0.0
 50
0.0
 51
0.0
 71
     0
 72
  1000
 73
     1
 74
     0
 75
     0
 76
     0
 77
     0
 78
     0
281
     0
 65
     1
110
0.0
120
0.0
130
0.0
111
1.0
121
0.0
131
0.0
112
0.0
122
1.0
132
0.0
 79
     0
146
0.0
1001
ACAD_NAV_VCDISPLAY
1070
     3
  0
ENDTAB
  0
TABLE
  2
LTYPE
  5
894
330
0
100
AcDbSymbolTable
 70
     3
  0
LTYPE
  5
8F1
330
894
100
AcDbSymbolTableRecord
100
AcDbLinetypeTableRecord
  2
ByBlock
 70
     0
  3

 72
    65
 73
     0
 40
0.0
  0
LTYPE
  5
8F2
330
894
100
AcDbSymbolTableRecord
100
AcDbLinetypeTableRecord
  2
ByLayer
 70
     0
  3

 72
    65
 73
     0
 40
0.0
  0
LTYPE
  5
8F3
330
894
100
AcDbSymbolTableRecord
100
AcDbLinetypeTableRecord
  2
CONTINUOUS
 70
     0
  3
実線
 72
    65
 73
     0
 40
0.0
  0
LTYPE
  5
909
330
894
100
AcDbSymbolTableRecord
100
AcDbLinetypeTableRecord
  2
DASHDOT
 70
     0
  3
____ _ ____ _ ____ _ ____ _ ____ _ ____ _ ____
 72
    65
 73
     4
 40
5.5
 49
4.0
 74
     0
 49
-0.6
 74
     0
 49
0.3
 74
     0
 49
-0.6
 74
     0
  0
ENDTAB
  0
TABLE
  2
LAYER
  5
891
330
0
100
AcDbSymbolTable
 70
    12
  0
LAYER
  5
8EB
102
{ACAD_XDICTIONARY
360
926
102
}
330
891
100
AcDbSymbolTableRecord
100
AcDbLayerTableRecord
  2
0
 70
     0
 62
     7
  6
CONTINUOUS
370
    -3
390
89E
  0
LAYER
  5
907
102
{ACAD_XDICTIONARY
360
928
102
}
330
891
100
AcDbSymbolTableRecord
100
AcDbLayerTableRecord
  2
OUTLINE
 70
     0
 62
     3
  6
CONTINUOUS
370
    -3
390
89E
  0
LAYER
  5
90A
102
{ACAD_XDICTIONARY
360
92A
102
}
330
891
100
AcDbSymbolTableRecord
100
AcDbLayerTableRecord
  2
DETAIL
 70
     0
 62
     5
  6
CONTINUOUS
370
    -3
390
89E
  0
LAYER
  5
90B
102
{ACAD_XDICTIONARY
360
92C
102
}
330
891
100
AcDbSymbolTableRecord
100
AcDbLayerTableRecord
  2
BASIS
 70
     0
 62
     6
  6
DASHDOT
370
    -3
390
89E
  0
LAYER
  5
90C
102
{ACAD_XDICTIONARY
360
92E
102
}
330
891
100
AcDbSymbolTableRecord
100
AcDbLayerTableRecord
  2
SIZE
 70
     0
 62
    30
  6
CONTINUOUS
370
    -3
390
89E
  0
LAYER
  5
90D
102
{ACAD_XDICTIONARY
360
930
102
}
330
891
100
AcDbSymbolTableRecord
100
AcDbLayerTableRecord
  2
NOTE
 70
     0
 62
     4
  6
CONTINUOUS
370
    -3
390
89E
  0
LAYER
  5
90E
102
{ACAD_XDICTIONARY
360
932
102
}
330
891
100
AcDbSymbolTableRecord
100
AcDbLayerTableRecord
  2
ARRANGE
 70
     0
 62
     1
  6
CONTINUOUS
370
    -3
390
89E
  0
LAYER
  5
90F
102
{ACAD_XDICTIONARY
360
934
102
}
330
891
100
AcDbSymbolTableRecord
100
AcDbLayerTableRecord
  2
FIX
 70
     0
 62
    11
  6
CONTINUOUS
370
    -3
390
89E
  0
LAYER
  5
910
102
{ACAD_XDICTIONARY
360
936
102
}
330
891
100
AcDbSymbolTableRecord
100
AcDbLayerTableRecord
  2
SERVICESPACE
 70
     0
 62
     2
  6
DASHDOT
370
    -3
390
89E
  0
LAYER
  5
911
102
{ACAD_XDICTIONARY
360
938
102
}
330
891
100
AcDbSymbolTableRecord
100
AcDbLayerTableRecord
  2
ETC
 70
     0
 62
    61
  6
CONTINUOUS
370
    -3
390
89E
  0
LAYER
  5
912
102
{ACAD_XDICTIONARY
360
93A
102
}
330
891
100
AcDbSymbolTableRecord
100
AcDbLayerTableRecord
  2
SYMBOLLINE
 70
     0
 62
    15
  6
CONTINUOUS
370
    -3
390
89E
  0
LAYER
  5
913
330
891
100
AcDbSymbolTableRecord
100
AcDbLayerTableRecord
  2
DEFPOINTS
 70
     0
 62
     7
  6
CONTINUOUS
290
     0
370
    -3
390
89E
  0
ENDTAB
  0
TABLE
  2
STYLE
  5
892
330
0
100
AcDbSymbolTable
 70
     3
  0
STYLE
  5
8EC
330
892
100
AcDbSymbolTableRecord
100
AcDbTextStyleTableRecord
  2
STANDARD
 70
     0
 40
0.0
 41
0.9
 50
0.0
 71
     0
 42
64.0
  3
SIMPLEX
  4
BIGFONT
  0
STYLE
  5
8F0
330
892
100
AcDbSymbolTableRecord
100
AcDbTextStyleTableRecord
  2
Annotative
 70
     0
 40
0.0
 41
1.0
 50
0.0
 71
     0
 42
0.2
  3
txt
  4

1001
AcadAnnotative
1000
AnnotativeData
1002
{
1070
     1
1070
     1
1002
}
  0
STYLE
  5
914
330
892
100
AcDbSymbolTableRecord
100
AcDbTextStyleTableRecord
  2
STANDARD1
 70
     0
 40
0.0
 41
1.0
 50
0.0
 71
     0
 42
64.0
  3
MONOTXT
  4
BIGFONT
  0
ENDTAB
  0
TABLE
  2
VIEW
  5
895
330
0
100
AcDbSymbolTable
 70
     1
  0
VIEW
  5
915
330
895
100
AcDbSymbolTableRecord
100
AcDbViewTableRecord
  2
ALL
 70
     0
 40
9000.0
 10
241.506647
 20
0.0
 41
12483.01
 11
0.0
 21
0.0
 31
1.0
 12
0.0
 22
0.0
 32
0.0
 42
50.0
 43
0.0
 44
0.0
 50
0.0
 71
     0
281
     0
 72
     1
110
0.0
120
0.0
130
0.0
111
1.0
121
0.0
131
0.0
112
0.0
122
1.0
132
0.0
 79
     0
146
0.0
  0
ENDTAB
  0
TABLE
  2
UCS
  5
896
330
0
100
AcDbSymbolTable
 70
     0
  0
ENDTAB
  0
TABLE
  2
APPID
  5
898
330
0
100
AcDbSymbolTable
 70
     5
  0
APPID
  5
8ED
330
898
100
AcDbSymbolTableRecord
100
AcDbRegAppTableRecord
  2
ACAD
 70
     0
  0
APPID
  5
8F4
330
898
100
AcDbSymbolTableRecord
100
AcDbRegAppTableRecord
  2
AcadAnnotative
 70
     0
  0
APPID
  5
8FE
330
898
100
AcDbSymbolTableRecord
100
AcDbRegAppTableRecord
  2
ACAD_MLEADERVER
 70
     0
  0
APPID
  5
924
330
898
100
AcDbSymbolTableRecord
100
AcDbRegAppTableRecord
  2
ACAD_EXEMPT_FROM_CAD_STANDARDS
 70
     0
  0
APPID
  5
961
330
898
100
AcDbSymbolTableRecord
100
AcDbRegAppTableRecord
  2
ACAD_NAV_VCDISPLAY
 70
     0
  0
ENDTAB
  0
TABLE
  2
DIMSTYLE
  5
899
330
0
100
AcDbSymbolTable
 70
     2
100
AcDbDimStyleTable
 71
     0
  0
DIMSTYLE
105
8EE
330
899
100
AcDbSymbolTableRecord
100
AcDbDimStyleTableRecord
  2
STANDARD
 70
     0
275
     1
279
     2
284
     8
285
     8
286
     8
340
8EC
  0
DIMSTYLE
105
8EF
330
899
100
AcDbSymbolTableRecord
100
AcDbDimStyleTableRecord
  2
Annotative
 70
     0
340
8EC
1001
AcadAnnotative
1000
AnnotativeData
1002
{
1070
     1
1070
     1
1002
}
  0
ENDTAB
  0
TABLE
  2
BLOCK_RECORD
  5
890
330
0
100
AcDbSymbolTable
 70
     5
  0
BLOCK_RECORD
  5
903
330
890
100
AcDbSymbolTableRecord
100
AcDbBlockTableRecord
  2
*Model_Space
340
906
  0
BLOCK_RECORD
  5
8FF
330
890
100
AcDbSymbolTableRecord
100
AcDbBlockTableRecord
  2
*Paper_Space
340
902
  0
BLOCK_RECORD
  5
91A
330
890
100
AcDbSymbolTableRecord
100
AcDbBlockTableRecord
  2
$MODEL_SPACE
340
0
  0
BLOCK_RECORD
  5
91C
330
890
100
AcDbSymbolTableRecord
100
AcDbBlockTableRecord
  2
$PAPER_SPACE
340
0
  0
BLOCK_RECORD
  5
91E
330
890
100
AcDbSymbolTableRecord
100
AcDbBlockTableRecord
  2
_DOTBLANK
340
0
  0
BLOCK_RECORD
  5
920
330
890
100
AcDbSymbolTableRecord
100
AcDbBlockTableRecord
  2
A$C7E2E6095
340
0
  0
BLOCK_RECORD
  5
922
330
890
100
AcDbSymbolTableRecord
100
AcDbBlockTableRecord
  2
A$C1A6D79EA
340
0
  0
ENDTAB
  0
ENDSEC
  0
SECTION
  2
BLOCKS
  0
BLOCK
  5
904
330
903
100
AcDbEntity
  8
0
100
AcDbBlockBegin
  2
*Model_Space
 70
     0
 10
0.0
 20
0.0
 30
0.0
  3
*Model_Space
  1

  0
ENDBLK
  5
905
330
903
100
AcDbEntity
  8
0
100
AcDbBlockEnd
  0
BLOCK
  5
900
330
8FF
100
AcDbEntity
 67
     1
  8
0
100
AcDbBlockBegin
  2
*Paper_Space
 70
     0
 10
0.0
 20
0.0
 30
0.0
  3
*Paper_Space
  1

  0
ENDBLK
  5
901
330
8FF
100
AcDbEntity
 67
     1
  8
0
100
AcDbBlockEnd
  0
BLOCK
  5
91B
330
91A
100
AcDbEntity
  8
0
100
AcDbBlockBegin
  2
$MODEL_SPACE
 70
     0
 10
0.0
 20
0.0
 30
0.0
  3
$MODEL_SPACE
  1

  0
ENDBLK
  5
395
330
91A
100
AcDbEntity
  8
0
100
AcDbBlockEnd
  0
BLOCK
  5
91D
330
91C
100
AcDbEntity
  8
0
100
AcDbBlockBegin
  2
$PAPER_SPACE
 70
     0
 10
0.0
 20
0.0
 30
0.0
  3
$PAPER_SPACE
  1

  0
ENDBLK
  5
392
330
91C
100
AcDbEntity
  8
0
100
AcDbBlockEnd
  0
BLOCK
  5
91F
330
91E
100
AcDbEntity
  8
0
100
AcDbBlockBegin
  2
_DOTBLANK
 70
     0
 10
0.0
 20
0.0
 30
0.0
  3
_DOTBLANK
  1

  0
CIRCLE
  5
32
330
91E
100
AcDbEntity
  8
0
  6
Continuous
 62
     7
100
AcDbCircle
 10
0.0
 20
0.0
 30
0.0
 40
0.5
  0
LINE
  5
33
330
91E
100
AcDbEntity
  8
0
  6
Continuous
 62
     7
100
AcDbLine
 10
-0.5
 20
0.0
 30
0.0
 11
-1.0
 21
0.0
 31
0.0
  0
ENDBLK
  5
34
330
91E
100
AcDbEntity
  8
0
100
AcDbBlockEnd
  0
BLOCK
  5
921
330
920
100
AcDbEntity
  8
0
 62
     7
100
AcDbBlockBegin
  2
A$C7E2E6095
 70
     0
 10
0.0
 20
0.0
 30
0.0
  3
A$C7E2E6095
  1

  0
CIRCLE
  5
3B4
330
920
100
AcDbEntity
  8
FIX
  6
Continuous
 62
    11
100
AcDbCircle
 10
4.999994
 20
4.999996
 30
0.0
 40
5.0
  0
ENDBLK
  5
3B6
330
920
100
AcDbEntity
  8
0
 62
     7
100
AcDbBlockEnd
  0
BLOCK
  5
923
330
922
100
AcDbEntity
  8
0
 62
     7
100
AcDbBlockBegin
  2
A$C1A6D79EA
 70
     0
 10
0.0
 20
0.0
 30
0.0
  3
A$C1A6D79EA
  1

  0
TEXT
  5
3BB
330
922
100
AcDbEntity
  8
NOTE
  6
Continuous
 62
     4
100
AcDbText
 10
247.897707
 20
2058.339577
 30
0.0
 40
64.0
  1
外気取入穴
 41
0.9
100
AcDbText
  0
LINE
  5
3BC
330
922
100
AcDbEntity
  8
NOTE
  6
Continuous
 62
     4
100
AcDbLine
 10
1235.36977
 20
2184.075257
 30
0.0
 11
948.8126130000001
 21
1866.059731
 31
0.0
  0
LWPOLYLINE
  5
3BD
330
922
100
AcDbEntity
  8
OUTLINE
  6
Continuous
 62
     3
100
AcDbPolyline
 90
        4
 70
     1
 43
0.0
 10
678.812621
 20
2862.059701
 10
1163.812607
 20
2862.059701
 10
1163.812607
 20
992.0597619999997
 10
678.812621
 20
992.0597619999997
  0
LINE
  5
3C3
330
922
100
AcDbEntity
  8
BASIS
  6
DASHDOT
 62
     6
100
AcDbLine
 10
921.3126139999999
 20
2965.670703000001
 30
0.0
 11
921.3126139999999
 21
781.476854
 31
0.0
  0
LINE
  5
3C4
330
922
100
AcDbEntity
  8
SIZE
  6
Continuous
 62
    30
100
AcDbLine
 10
2008.433543
 20
2852.059701
 30
0.0
 11
2008.433543
 21
872.0597619999999
 31
0.0
  0
LINE
  5
3C5
330
922
100
AcDbEntity
  8
SIZE
  6
Continuous
 62
    30
100
AcDbLine
 10
1837.40832
 20
872.0597619999999
 30
0.0
 11
1837.40832
 21
2652.059707
 31
0.0
  0
LINE
  5
3C6
330
922
100
AcDbEntity
  8
DETAIL
  6
Continuous
 62
     5
100
AcDbLine
 10
1163.812607
 20
2862.059701
 30
0.0
 11
1163.812607
 21
992.0597619999997
 31
0.0
  0
LINE
  5
3C7
330
922
100
AcDbEntity
  8
DETAIL
  6
Continuous
 62
     5
100
AcDbLine
 10
678.812621
 20
2662.059707
 30
0.0
 11
678.812621
 21
992.0597619999997
 31
0.0
  0
LINE
  5
3C8
330
922
100
AcDbEntity
  8
NOTE
  6
Continuous
 62
     4
100
AcDbLine
 10
588.959812
 20
2037.622328
 30
0.0
 11
770.711096
 21
1816.354291
 31
0.0
  0
CIRCLE
  5
3C9
330
922
100
AcDbEntity
  8
SIZE
  6
Continuous
 62
    30
100
AcDbCircle
 10
596.007044
 20
1696.059737
 30
0.0
 40
5.0
  0
CIRCLE
  5
3CA
330
922
100
AcDbEntity
  8
SIZE
  6
Continuous
 62
    30
100
AcDbCircle
 10
596.007044
 20
1781.059734
 30
0.0
 40
5.0
  0
LINE
  5
3CB
330
922
100
AcDbEntity
  8
SIZE
  6
Continuous
 62
    30
100
AcDbLine
 10
772.6074419999998
 20
1696.059737
 30
0.0
 11
566.0070440000001
 21
1696.059737
 31
0.0
  0
LINE
  5
3CC
330
922
100
AcDbEntity
  8
SIZE
  6
Continuous
 62
    30
100
AcDbLine
 10
702.607444
 20
1781.059734
 30
0.0
 11
566.0070440000001
 21
1781.059734
 31
0.0
  0
CIRCLE
  5
3CD
330
922
100
AcDbEntity
  8
SIZE
  6
Continuous
 62
    30
100
AcDbCircle
 10
596.007044
 20
1781.059734
 30
0.0
 40
5.0
  0
CIRCLE
  5
3CE
330
922
100
AcDbEntity
  8
SIZE
  6
Continuous
 62
    30
100
AcDbCircle
 10
596.007044
 20
1866.059731
 30
0.0
 40
5.0
  0
LINE
  5
3CF
330
922
100
AcDbEntity
  8
SIZE
  6
Continuous
 62
    30
100
AcDbLine
 10
702.607444
 20
1781.059734
 30
0.0
 11
566.0070440000001
 21
1781.059734
 31
0.0
  0
LINE
  5
3D0
330
922
100
AcDbEntity
  8
SIZE
  6
Continuous
 62
    30
100
AcDbLine
 10
772.6074419999998
 20
1866.059731
 30
0.0
 11
566.0070440000001
 21
1866.059731
 31
0.0
  0
TEXT
  5
3D1
330
922
100
AcDbEntity
  8
SIZE
  6
Continuous
 62
    30
100
AcDbText
 10
566.0269068571428
 20
44.999995
 30
0.0
 40
55.0
  1
26
 41
0.9
 72
     1
 11
604.919764
 21
44.999995
 31
0.0
100
AcDbText
  0
LINE
  5
3D2
330
922
100
AcDbEntity
  8
SIZE
  6
Continuous
 62
    30
100
AcDbLine
 10
668.812621
 20
29.999995
 30
0.0
 11
551.026907
 21
29.999995
 31
0.0
  0
TEXT
  5
3D3
330
922
100
AcDbEntity
  8
SIZE
  6
Continuous
 62
    30
100
AcDbText
 10
535.9554785714285
 20
194.062105
 30
0.0
 40
55.0
  1
100
 41
0.9
 72
     1
 11
594.88405
 21
194.062105
 31
0.0
100
AcDbText
  0
LINE
  5
3D4
330
922
100
AcDbEntity
  8
SIZE
  6
Continuous
 62
    30
100
AcDbLine
 10
678.812621
 20
179.062105
 30
0.0
 11
520.9554789999998
 21
179.062105
 31
0.0
  0
LINE
  5
3D5
330
922
100
AcDbEntity
  8
NOTE
  6
Continuous
 62
     4
100
AcDbLine
 10
425.5266879999998
 20
1738.697917
 30
0.0
 11
774.8126139999998
 21
1187.059762
 31
0.0
  0
LINE
  5
3D6
330
922
100
AcDbEntity
  8
NOTE
  6
Continuous
 62
     4
100
AcDbLine
 10
340.389628
 20
1574.100103
 30
0.0
 11
774.8126139999998
 21
1137.059762
 31
0.0
  0
LINE
  5
3D7
330
922
100
AcDbEntity
  8
NOTE
  6
Continuous
 62
     4
100
AcDbLine
 10
364.661006
 20
1421.748632
 30
0.0
 11
774.8126139999998
 21
1072.059762
 31
0.0
  0
LINE
  5
3D8
330
922
100
AcDbEntity
  8
NOTE
  6
Continuous
 62
     4
100
AcDbLine
 10
566.971199
 20
719.806022
 30
0.0
 11
778.812629
 21
861.9332149999998
 31
0.0
  0
TEXT
  5
3D9
330
922
100
AcDbEntity
  8
SIZE
  6
Continuous
 62
    30
100
AcDbText
 10
588.8584834285714
 20
489.3416559999998
 30
0.0
 40
55.0
  1
60
 41
0.9
 72
     1
 11
628.929912
 21
489.3416559999998
 31
0.0
100
AcDbText
  0
LINE
  5
3DA
330
922
100
AcDbEntity
  8
SIZE
  6
Continuous
 62
    30
100
AcDbLine
 10
748.812619
 20
474.3416559999998
 30
0.0
 11
573.8584829999998
 21
474.3416559999998
 31
0.0
  0
LINE
  5
3DB
330
922
100
AcDbEntity
  8
SIZE
  6
Continuous
 62
    30
100
AcDbLine
 10
734.814144
 20
1187.059762
 30
0.0
 11
379.024374
 21
1187.059762
 31
0.0
  0
LINE
  5
3DC
330
922
100
AcDbEntity
  8
SIZE
  6
Continuous
 62
    30
100
AcDbLine
 10
734.814144
 20
1137.059762
 30
0.0
 11
379.024374
 21
1137.059762
 31
0.0
  0
LINE
  5
3DD
330
922
100
AcDbEntity
  8
SIZE
  6
Continuous
 62
    30
100
AcDbLine
 10
734.814144
 20
1137.059762
 30
0.0
 11
379.024374
 21
1137.059762
 31
0.0
  0
LINE
  5
3DE
330
922
100
AcDbEntity
  8
SIZE
  6
Continuous
 62
    30
100
AcDbLine
 10
717.1459409999998
 20
1072.059762
 30
0.0
 11
379.024374
 21
1072.059762
 31
0.0
  0
LINE
  5
3DF
330
922
100
AcDbEntity
  8
SIZE
  6
Continuous
 62
    30
100
AcDbLine
 10
717.1459409999998
 20
1072.059762
 30
0.0
 11
379.024374
 21
1072.059762
 31
0.0
  0
LINE
  5
3E0
330
922
100
AcDbEntity
  8
SIZE
  6
Continuous
 62
    30
100
AcDbLine
 10
684.812621
 20
862.0597619999998
 30
0.0
 11
379.024374
 21
862.0597619999998
 31
0.0
  0
LINE
  5
3E1
330
922
100
AcDbEntity
  8
SIZE
  6
Continuous
 62
    30
100
AcDbLine
 10
658.812621
 20
992.0597619999997
 30
0.0
 11
504.7825809999998
 21
992.0597619999997
 31
0.0
  0
LINE
  5
3E2
330
922
100
AcDbEntity
  8
SIZE
  6
Continuous
 62
    30
100
AcDbLine
 10
684.812621
 20
862.0597619999998
 30
0.0
 11
504.7825809999998
 21
862.0597619999998
 31
0.0
  0
TEXT
  5
3E3
330
922
100
AcDbEntity
  8
SIZE
  6
Continuous
 62
    30
100
AcDbText
 10
584.0575404285715
 20
1588.774081
 30
0.0
 40
55.0
  1
70
 41
0.9
 72
     1
 11
624.1289690000001
 21
1588.774081
 31
0.0
100
AcDbText
  0
LINE
  5
3E4
330
922
100
AcDbEntity
  8
SIZE
  6
Continuous
 62
    30
100
AcDbLine
 10
728.81262
 20
1573.774081
 30
0.0
 11
569.057541
 21
1573.774081
 31
0.0
  0
LINE
  5
3E5
330
922
100
AcDbEntity
  8
NOTE
  6
Continuous
 62
     4
100
AcDbLine
 10
547.8490789999998
 20
558.9299379999999
 30
0.0
 11
928.812624
 21
964.0597689999999
 31
0.0
  0
CIRCLE
  5
3E6
330
922
100
AcDbEntity
  8
SIZE
  6
Continuous
 62
    30
100
AcDbCircle
 10
409.024374
 20
862.0597619999998
 30
0.0
 40
5.0
  0
CIRCLE
  5
3E7
330
922
100
AcDbEntity
  8
SIZE
  6
Continuous
 62
    30
100
AcDbCircle
 10
534.7825809999998
 20
862.0597619999998
 30
0.0
 40
5.0
  0
TEXT
  5
3E8
330
922
100
AcDbEntity
  8
NOTE
  6
Continuous
 62
     4
100
AcDbText
 10
140.349899
 20
740.5232709999998
 30
0.0
 40
64.0
  1
AH 4-%%C12
 41
0.9
100
AcDbText
  0
LINE
  5
3E9
330
922
100
AcDbEntity
  8
NOTE
  6
Continuous
 62
     4
100
AcDbLine
 10
139.715082
 20
719.806022
 30
0.0
 11
566.971199
 21
719.806022
 31
0.0
  0
TEXT
  5
3EA
330
922
100
AcDbEntity
  8
NOTE
  6
Continuous
 62
     4
100
AcDbText
 10
267.27985
 20
579.647187
 30
0.0
 40
64.0
  1
D2 Rc1
 41
0.9
100
AcDbText
  0
LINE
  5
3EB
330
922
100
AcDbEntity
  8
NOTE
  6
Continuous
 62
     4
100
AcDbLine
 10
266.645034
 20
558.9299379999999
 30
0.0
 11
547.8490789999998
 21
558.9299379999999
 31
0.0
  0
TEXT
  5
3EC
330
922
100
AcDbEntity
  8
NOTE
  6
Continuous
 62
     4
100
AcDbText
 10
0.6348080000000002
 20
1442.465881
 30
0.0
 40
64.0
  1
EL2 %%C43
 41
0.9
100
AcDbText
  0
LINE
  5
3ED
330
922
100
AcDbEntity
  8
NOTE
  6
Continuous
 62
     4
100
AcDbLine
 10
-0.000009
 20
1421.748632
 30
0.0
 11
368.660999
 21
1421.748632
 31
0.0
  0
LINE
  5
3EE
330
922
100
AcDbEntity
  8
SIZE
  6
Continuous
 62
    30
100
AcDbLine
 10
409.024374
 20
1147.059762
 30
0.0
 11
409.024374
 21
1177.059762
 31
0.0
  0
TEXT
  5
3EF
330
922
100
AcDbEntity
  8
SIZE
  6
Continuous
 62
    30
100
AcDbText
 10
394.024374
 20
1064.488333428571
 30
0.0
 40
55.0
  1
65
 50
90.0
 41
0.9
 72
     1
 11
394.024374
 21
1104.559762
 31
0.0
100
AcDbText
  0
TEXT
  5
3F0
330
922
100
AcDbEntity
  8
SIZE
  6
Continuous
 62
    30
100
AcDbText
 10
394.024374
 20
908.1311905714283
 30
0.0
 40
55.0
  1
210
 50
90.0
 41
0.9
 72
     1
 11
394.024374
 21
967.0597619999997
 31
0.0
100
AcDbText
  0
LINE
  5
3F1
330
922
100
AcDbEntity
  8
SIZE
  6
Continuous
 62
    30
100
AcDbLine
 10
409.024374
 20
872.0597619999999
 30
0.0
 11
409.024374
 21
1062.059762
 31
0.0
  0
TEXT
  5
3F2
330
922
100
AcDbEntity
  8
SIZE
  6
Continuous
 62
    30
100
AcDbText
 10
519.7825809999998
 20
868.1311905714283
 30
0.0
 40
55.0
  1
130
 50
90.0
 41
0.9
 72
     1
 11
519.7825809999998
 21
927.0597619999998
 31
0.0
100
AcDbText
  0
LINE
  5
3F3
330
922
100
AcDbEntity
  8
SIZE
  6
Continuous
 62
    30
100
AcDbLine
 10
409.024374
 20
867.0597619999997
 30
0.0
 11
409.024374
 21
872.0597619999999
 31
0.0
  0
POINT
  5
3F4
330
922
100
AcDbEntity
  8
DEFPOINTS
  6
Continuous
 62
     7
100
AcDbPoint
 10
534.7825809999998
 20
992.0597619999997
 30
0.0
  0
LINE
  5
3F5
330
922
100
AcDbEntity
  8
SIZE
  6
Continuous
 62
    30
100
AcDbLine
 10
534.7825809999998
 20
987.0597619999998
 30
0.0
 11
534.7825809999998
 21
982.0597619999999
 31
0.0
  0
CIRCLE
  5
3F6
330
922
100
AcDbEntity
  8
SIZE
  6
Continuous
 62
    30
100
AcDbCircle
 10
534.7825809999998
 20
992.0597619999997
 30
0.0
 40
5.0
  0
LINE
  5
3F7
330
922
100
AcDbEntity
  8
SIZE
  6
Continuous
 62
    30
100
AcDbLine
 10
534.7825809999998
 20
867.0597619999997
 30
0.0
 11
534.7825809999998
 21
872.0597619999999
 31
0.0
  0
LINE
  5
3F8
330
922
100
AcDbEntity
  8
SIZE
  6
Continuous
 62
    30
100
AcDbLine
 10
534.7825809999998
 20
872.0597619999999
 30
0.0
 11
534.7825809999998
 21
982.0597619999999
 31
0.0
  0
LINE
  5
3F9
330
922
100
AcDbEntity
  8
SIZE
  6
Continuous
 62
    30
100
AcDbLine
 10
409.024374
 20
1142.059762
 30
0.0
 11
409.024374
 21
1147.059762
 31
0.0
  0
CIRCLE
  5
3FA
330
922
100
AcDbEntity
  8
SIZE
  6
Continuous
 62
    30
100
AcDbCircle
 10
409.024374
 20
1137.059762
 30
0.0
 40
5.0
  0
POINT
  5
3FB
330
922
100
AcDbEntity
  8
DEFPOINTS
  6
Continuous
 62
     7
100
AcDbPoint
 10
409.024374
 20
1137.059762
 30
0.0
  0
LINE
  5
3FC
330
922
100
AcDbEntity
  8
SIZE
  6
Continuous
 62
    30
100
AcDbLine
 10
409.024374
 20
1142.059762
 30
0.0
 11
409.024374
 21
1147.059762
 31
0.0
  0
CIRCLE
  5
3FD
330
922
100
AcDbEntity
  8
SIZE
  6
Continuous
 62
    30
100
AcDbCircle
 10
409.024374
 20
1137.059762
 30
0.0
 40
5.0
  0
LINE
  5
3FE
330
922
100
AcDbEntity
  8
SIZE
  6
Continuous
 62
    30
100
AcDbLine
 10
409.024374
 20
1067.059762
 30
0.0
 11
409.024374
 21
1062.059762
 31
0.0
  0
CIRCLE
  5
3FF
330
922
100
AcDbEntity
  8
SIZE
  6
Continuous
 62
    30
100
AcDbCircle
 10
409.024374
 20
1072.059762
 30
0.0
 40
5.0
  0
LINE
  5
400
330
922
100
AcDbEntity
  8
SIZE
  6
Continuous
 62
    30
100
AcDbLine
 10
409.024374
 20
1072.059762
 30
0.0
 11
409.024374
 21
1137.059762
 31
0.0
  0
LINE
  5
401
330
922
100
AcDbEntity
  8
SIZE
  6
Continuous
 62
    30
100
AcDbLine
 10
409.024374
 20
1147.059762
 30
0.0
 11
409.024374
 21
1157.059762
 31
0.0
  0
LINE
  5
402
330
922
100
AcDbEntity
  8
SIZE
  6
Continuous
 62
    30
100
AcDbLine
 10
409.024374
 20
1062.059762
 30
0.0
 11
409.024374
 21
1052.059762
 31
0.0
  0
POINT
  5
403
330
922
100
AcDbEntity
  8
DEFPOINTS
  6
Continuous
 62
     7
100
AcDbPoint
 10
409.024374
 20
1072.059762
 30
0.0
  0
LINE
  5
404
330
922
100
AcDbEntity
  8
SIZE
  6
Continuous
 62
    30
100
AcDbLine
 10
409.024374
 20
1067.059762
 30
0.0
 11
409.024374
 21
1062.059762
 31
0.0
  0
CIRCLE
  5
405
330
922
100
AcDbEntity
  8
SIZE
  6
Continuous
 62
    30
100
AcDbCircle
 10
409.024374
 20
1072.059762
 30
0.0
 40
5.0
  0
TEXT
  5
406
330
922
100
AcDbEntity
  8
SIZE
  6
Continuous
 62
    30
100
AcDbText
 10
394.024374
 20
1232.838971428571
 30
0.0
 40
55.0
  1
50
 50
90.0
 41
0.9
 72
     1
 11
394.024374
 21
1272.9104
 31
0.0
100
AcDbText
  0
LINE
  5
407
330
922
100
AcDbEntity
  8
SIZE
  6
Continuous
 62
    30
100
AcDbLine
 10
409.024374
 20
1327.981828
 30
0.0
 11
409.024374
 21
1187.059762
 31
0.0
  0
POINT
  5
408
330
922
100
AcDbEntity
  8
DEFPOINTS
  6
Continuous
 62
     7
100
AcDbPoint
 10
409.024374
 20
1187.059762
 30
0.0
  0
LINE
  5
409
330
922
100
AcDbEntity
  8
SIZE
  6
Continuous
 62
    30
100
AcDbLine
 10
409.024374
 20
1182.059762
 30
0.0
 11
409.024374
 21
1177.059762
 31
0.0
  0
CIRCLE
  5
40A
330
922
100
AcDbEntity
  8
SIZE
  6
Continuous
 62
    30
100
AcDbCircle
 10
409.024374
 20
1187.059762
 30
0.0
 40
5.0
  0
TEXT
  5
40B
330
922
100
AcDbEntity
  8
NOTE
  6
Continuous
 62
     4
100
AcDbText
 10
5.521802
 20
1594.817352
 30
0.0
 40
64.0
  1
CL1 %%C27
 41
0.9
100
AcDbText
  0
LINE
  5
40C
330
922
100
AcDbEntity
  8
NOTE
  6
Continuous
 62
     4
100
AcDbLine
 10
4.886986
 20
1574.100103
 30
0.0
 11
344.389621
 21
1574.100103
 31
0.0
  0
TEXT
  5
40D
330
922
100
AcDbEntity
  8
NOTE
  6
Continuous
 62
     4
100
AcDbText
 10
87.90434599999997
 20
1759.415166
 30
0.0
 40
64.0
  1
EL1 %%C27
 41
0.9
100
AcDbText
  0
LINE
  5
40E
330
922
100
AcDbEntity
  8
NOTE
  6
Continuous
 62
     4
100
AcDbLine
 10
87.26952999999998
 20
1738.697917
 30
0.0
 11
429.5266809999998
 21
1738.697917
 31
0.0
  0
TEXT
  5
40F
330
922
100
AcDbEntity
  8
SIZE
  6
Continuous
 62
    30
100
AcDbText
 10
581.007044
 20
1698.488306428571
 30
0.0
 40
55.0
  1
85
 50
90.0
 41
0.9
 72
     1
 11
581.007044
 21
1738.559735
 31
0.0
100
AcDbText
  0
LINE
  5
410
330
922
100
AcDbEntity
  8
NOTE
  6
Continuous
 62
     4
100
AcDbLine
 10
588.959812
 20
2037.622328
 30
0.0
 11
233.533773
 21
2037.622328
 31
0.0
  0
TEXT
  5
411
330
922
100
AcDbEntity
  8
SIZE
  6
Continuous
 62
    30
100
AcDbText
 10
581.007044
 20
1783.48830442857
 30
0.0
 40
55.0
  1
85
 50
90.0
 41
0.9
 72
     1
 11
581.007044
 21
1823.559732999999
 31
0.0
100
AcDbText
  0
CIRCLE
  5
412
330
922
100
AcDbEntity
  8
ARRANGE
  6
Continuous
 62
     1
100
AcDbCircle
 10
921.3126139999999
 20
862.0597619999998
 30
0.0
 40
42.5
  0
CIRCLE
  5
413
330
922
100
AcDbEntity
  8
FIX
  6
Continuous
 62
    11
100
AcDbCircle
 10
921.3126139999999
 20
862.0597619999998
 30
0.0
 40
20.0
  0
CIRCLE
  5
414
330
922
100
AcDbEntity
  8
FIX
  6
Continuous
 62
    11
100
AcDbCircle
 10
1078.812609
 20
862.0597619999998
 30
0.0
 40
5.0
  0
LINE
  5
415
330
922
100
AcDbEntity
  8
SIZE
  6
Continuous
 62
    30
100
AcDbLine
 10
1163.812607
 20
972.0597619999999
 30
0.0
 11
1163.812607
 21
-0.000005
 31
0.0
  0
LINE
  5
416
330
922
100
AcDbEntity
  8
SIZE
  6
Continuous
 62
    30
100
AcDbLine
 10
678.812621
 20
972.0597619999999
 30
0.0
 11
678.812621
 21
-0.000005
 31
0.0
  0
LINE
  5
417
330
922
100
AcDbEntity
  8
SIZE
  6
Continuous
 62
    30
100
AcDbLine
 10
1163.812607
 20
972.0597619999999
 30
0.0
 11
1163.812607
 21
149.062105
 31
0.0
  0
LINE
  5
418
330
922
100
AcDbEntity
  8
SIZE
  6
Continuous
 62
    30
100
AcDbLine
 10
678.812621
 20
972.0597619999999
 30
0.0
 11
678.812621
 21
149.062105
 31
0.0
  0
LINE
  5
419
330
922
100
AcDbEntity
  8
SIZE
  6
Continuous
 62
    30
100
AcDbLine
 10
1163.812607
 20
972.0597619999999
 30
0.0
 11
1163.812607
 21
309.614792
 31
0.0
  0
LINE
  5
41A
330
922
100
AcDbEntity
  8
SIZE
  6
Continuous
 62
    30
100
AcDbLine
 10
774.8126139999998
 20
1010.393097
 30
0.0
 11
774.8126139999998
 21
309.614792
 31
0.0
  0
LINE
  5
41B
330
922
100
AcDbEntity
  8
NOTE
  6
Continuous
 62
     4
100
AcDbLine
 10
778.812625
 20
861.9332199999997
 30
0.0
 11
756.881788
 21
836.8304419999997
 31
0.0
  0
LINE
  5
41C
330
922
100
AcDbEntity
  8
NOTE
  6
Continuous
 62
     4
100
AcDbLine
 10
778.812625
 20
861.9332199999997
 30
0.0
 11
747.2685740000001
 21
851.1589949999999
 31
0.0
  0
LINE
  5
41D
330
922
100
AcDbEntity
  8
ARRANGE
  6
Continuous
 62
     1
100
AcDbLine
 10
963.7818130000001
 20
904.2168679999999
 30
0.0
 11
878.843415
 21
819.902656
 31
0.0
  0
LINE
  5
41E
330
922
100
AcDbEntity
  8
ARRANGE
  6
Continuous
 62
     1
100
AcDbLine
 10
963.844362
 20
819.9657619999998
 30
0.0
 11
878.7808660000001
 21
904.1537619999999
 31
0.0
  0
LINE
  5
41F
330
922
100
AcDbEntity
  8
NOTE
  6
Continuous
 62
     4
100
AcDbLine
 10
1078.812609
 20
842.0597619999997
 30
0.0
 11
1078.812609
 21
882.0597619999999
 31
0.0
  0
CIRCLE
  5
420
330
922
100
AcDbEntity
  8
FIX
  6
Continuous
 62
    11
100
AcDbCircle
 10
778.8126179999998
 20
862.0597619999998
 30
0.0
 40
5.0
  0
LINE
  5
421
330
922
100
AcDbEntity
  8
NOTE
  6
Continuous
 62
     4
100
AcDbLine
 10
778.8126179999998
 20
842.0597619999997
 30
0.0
 11
778.8126179999998
 21
882.0597619999999
 31
0.0
  0
CIRCLE
  5
422
330
922
100
AcDbEntity
  8
SIZE
  6
Continuous
 62
    30
100
AcDbCircle
 10
2008.433543
 20
862.0597619999998
 30
0.0
 40
5.0
  0
CIRCLE
  5
423
330
922
100
AcDbEntity
  8
SIZE
  6
Continuous
 62
    30
100
AcDbCircle
 10
1837.40832
 20
862.0597619999998
 30
0.0
 40
5.0
  0
LINE
  5
424
330
922
100
AcDbEntity
  8
SIZE
  6
Continuous
 62
    30
100
AcDbLine
 10
1163.812607
 20
972.0597619999999
 30
0.0
 11
1163.812607
 21
445.638571
 31
0.0
  0
LINE
  5
425
330
922
100
AcDbEntity
  8
SIZE
  6
Continuous
 62
    30
100
AcDbLine
 10
928.812607
 20
912.3930969999999
 30
0.0
 11
928.812607
 21
445.638571
 31
0.0
  0
LINE
  5
426
330
922
100
AcDbEntity
  8
SIZE
  6
Continuous
 62
    30
100
AcDbLine
 10
962.812607
 20
1050.453096
 30
0.0
 11
962.812607
 21
585.102085
 31
0.0
  0
LINE
  5
427
330
922
100
AcDbEntity
  8
SIZE
  6
Continuous
 62
    30
100
AcDbLine
 10
1047.812607
 20
1050.868096
 30
0.0
 11
1047.812607
 21
585.102085
 31
0.0
  0
LINE
  5
428
330
922
100
AcDbEntity
  8
SIZE
  6
Continuous
 62
    30
100
AcDbLine
 10
1047.812607
 20
1050.880759
 30
0.0
 11
1047.812607
 21
585.102085
 31
0.0
  0
LINE
  5
429
330
922
100
AcDbEntity
  8
SIZE
  6
Continuous
 62
    30
100
AcDbLine
 10
1163.812607
 20
972.0724249999999
 30
0.0
 11
1163.812607
 21
585.102085
 31
0.0
  0
CIRCLE
  5
42A
330
922
100
AcDbEntity
  8
SIZE
  6
Continuous
 62
    30
100
AcDbCircle
 10
1309.547197
 20
862.0597619999998
 30
0.0
 40
5.0
  0
CIRCLE
  5
42B
330
922
100
AcDbEntity
  8
SIZE
  6
Continuous
 62
    30
100
AcDbCircle
 10
1677.19145
 20
862.0597619999998
 30
0.0
 40
5.0
  0
CIRCLE
  5
42C
330
922
100
AcDbEntity
  8
SIZE
  6
Continuous
 62
    30
100
AcDbCircle
 10
1536.493507
 20
862.0597619999998
 30
0.0
 40
5.0
  0
CIRCLE
  5
42D
330
922
100
AcDbEntity
  8
SIZE
  6
Continuous
 62
    30
100
AcDbCircle
 10
1414.831071
 20
862.0597619999998
 30
0.0
 40
5.0
  0
LINE
  5
42E
330
922
100
AcDbEntity
  8
NOTE
  6
Continuous
 62
     4
100
AcDbLine
 10
1417.541992
 20
584.8578849999999
 30
0.0
 11
962.812607
 21
1086.059762
 31
0.0
  0
LINE
  5
42F
330
922
100
AcDbEntity
  8
NOTE
  6
Continuous
 62
     4
100
AcDbLine
 10
1366.779164
 20
729.0287599999998
 30
0.0
 11
1047.812607
 21
1088.059762
 31
0.0
  0
TEXT
  5
430
330
922
100
AcDbEntity
  8
NOTE
  6
Continuous
 62
     4
100
AcDbText
 10
1369.325421
 20
751.867288
 30
0.0
 40
64.0
  1
RG \U+03C619.05
 41
0.9
100
AcDbText
  0
LINE
  5
431
330
922
100
AcDbEntity
  8
NOTE
  6
Continuous
 62
     4
100
AcDbLine
 10
1366.779164
 20
729.0287599999998
 30
0.0
 11
1821.807417
 21
729.0287599999998
 31
0.0
  0
TEXT
  5
432
330
922
100
AcDbEntity
  8
NOTE
  6
Continuous
 62
     4
100
AcDbText
 10
1418.742071
 20
604.4767059999998
 30
0.0
 40
64.0
  1
RL \U+03C615.88
 41
0.9
100
AcDbText
  0
LINE
  5
433
330
922
100
AcDbEntity
  8
NOTE
  6
Continuous
 62
     4
100
AcDbLine
 10
1417.541992
 20
584.8578849999999
 30
0.0
 11
1852.32803
 21
584.8578849999999
 31
0.0
  0
LINE
  5
434
330
922
100
AcDbEntity
  8
SIZE
  6
Continuous
 62
    30
100
AcDbLine
 10
1151.812607
 20
842.0597619999997
 30
0.0
 11
1151.812607
 21
-0.000005
 31
0.0
  0
LINE
  5
435
330
922
100
AcDbEntity
  8
SIZE
  6
Continuous
 62
    30
100
AcDbLine
 10
1151.812607
 20
842.0597619999997
 30
0.0
 11
1151.812607
 21
-0.000005
 31
0.0
  0
LINE
  5
436
330
922
100
AcDbEntity
  8
SIZE
  6
Continuous
 62
    30
100
AcDbLine
 10
704.812621
 20
842.0597619999997
 30
0.0
 11
704.812621
 21
-0.000005
 31
0.0
  0
LINE
  5
437
330
922
100
AcDbEntity
  8
SIZE
  6
Continuous
 62
    30
100
AcDbLine
 10
704.812621
 20
842.0597619999997
 30
0.0
 11
704.812621
 21
-0.000005
 31
0.0
  0
TEXT
  5
438
330
922
100
AcDbEntity
  8
SIZE
  6
Continuous
 62
    30
100
AcDbText
 10
1189.172486428571
 20
194.062105
 30
0.0
 40
55.0
  1
85
 41
0.9
 72
     1
 11
1229.243915
 21
194.062105
 31
0.0
100
AcDbText
  0
LINE
  5
439
330
922
100
AcDbEntity
  8
SIZE
  6
Continuous
 62
    30
100
AcDbLine
 10
1078.812609
 20
822.0597619999999
 30
0.0
 11
1078.812609
 21
149.062105
 31
0.0
  0
TEXT
  5
43A
330
922
100
AcDbEntity
  8
SIZE
  6
Continuous
 62
    30
100
AcDbText
 10
865.1697508571428
 20
194.062105
 30
0.0
 40
55.0
  1
300
 41
0.9
 72
     1
 11
928.8126079999999
 21
194.062105
 31
0.0
100
AcDbText
  0
LINE
  5
43B
330
922
100
AcDbEntity
  8
SIZE
  6
Continuous
 62
    30
100
AcDbLine
 10
1078.812609
 20
822.0597619999999
 30
0.0
 11
1078.812609
 21
149.062105
 31
0.0
  0
LINE
  5
43C
330
922
100
AcDbEntity
  8
SIZE
  6
Continuous
 62
    30
100
AcDbLine
 10
778.812607
 20
841.9331989999998
 30
0.0
 11
778.812607
 21
149.062105
 31
0.0
  0
LINE
  5
43D
330
922
100
AcDbEntity
  8
SIZE
  6
Continuous
 62
    30
100
AcDbLine
 10
778.812607
 20
841.9331989999998
 30
0.0
 11
778.812607
 21
149.062105
 31
0.0
  0
LINE
  5
43E
330
922
100
AcDbEntity
  8
SIZE
  6
Continuous
 62
    30
100
AcDbLine
 10
714.812621
 20
29.999995
 30
0.0
 11
1141.812607
 21
29.999995
 31
0.0
  0
LINE
  5
43F
330
922
100
AcDbEntity
  8
SIZE
  6
Continuous
 62
    30
100
AcDbLine
 10
788.8126070000001
 20
179.062105
 30
0.0
 11
1068.812609
 21
179.062105
 31
0.0
  0
CIRCLE
  5
440
330
922
100
AcDbEntity
  8
SIZE
  6
Continuous
 62
    30
100
AcDbCircle
 10
704.812621
 20
29.999995
 30
0.0
 40
5.0
  0
CIRCLE
  5
441
330
922
100
AcDbEntity
  8
SIZE
  6
Continuous
 62
    30
100
AcDbCircle
 10
704.812621
 20
29.999995
 30
0.0
 40
5.0
  0
LINE
  5
442
330
922
100
AcDbEntity
  8
SIZE
  6
Continuous
 62
    30
100
AcDbLine
 10
704.812621
 20
29.999995
 30
0.0
 11
678.812621
 21
29.999995
 31
0.0
  0
LINE
  5
443
330
922
100
AcDbEntity
  8
SIZE
  6
Continuous
 62
    30
100
AcDbLine
 10
673.812621
 20
29.999995
 30
0.0
 11
668.812621
 21
29.999995
 31
0.0
  0
CIRCLE
  5
444
330
922
100
AcDbEntity
  8
SIZE
  6
Continuous
 62
    30
100
AcDbCircle
 10
678.812621
 20
29.999995
 30
0.0
 40
5.0
  0
LINE
  5
445
330
922
100
AcDbEntity
  8
SIZE
  6
Continuous
 62
    30
100
AcDbLine
 10
709.812621
 20
29.999995
 30
0.0
 11
714.812621
 21
29.999995
 31
0.0
  0
POINT
  5
446
330
922
100
AcDbEntity
  8
DEFPOINTS
  6
Continuous
 62
     7
100
AcDbPoint
 10
704.812621
 20
29.999995
 30
0.0
  0
LINE
  5
447
330
922
100
AcDbEntity
  8
SIZE
  6
Continuous
 62
    30
100
AcDbLine
 10
709.812621
 20
29.999995
 30
0.0
 11
714.812621
 21
29.999995
 31
0.0
  0
LINE
  5
448
330
922
100
AcDbEntity
  8
SIZE
  6
Continuous
 62
    30
100
AcDbLine
 10
714.812621
 20
29.999995
 30
0.0
 11
724.812621
 21
29.999995
 31
0.0
  0
LINE
  5
449
330
922
100
AcDbEntity
  8
SIZE
  6
Continuous
 62
    30
100
AcDbLine
 10
768.812607
 20
179.062105
 30
0.0
 11
688.812621
 21
179.062105
 31
0.0
  0
LINE
  5
44A
330
922
100
AcDbEntity
  8
SIZE
  6
Continuous
 62
    30
100
AcDbLine
 10
683.812621
 20
179.062105
 30
0.0
 11
688.812621
 21
179.062105
 31
0.0
  0
CIRCLE
  5
44B
330
922
100
AcDbEntity
  8
SIZE
  6
Continuous
 62
    30
100
AcDbCircle
 10
678.812621
 20
179.062105
 30
0.0
 40
5.0
  0
LINE
  5
44C
330
922
100
AcDbEntity
  8
SIZE
  6
Continuous
 62
    30
100
AcDbLine
 10
783.8126070000002
 20
179.062105
 30
0.0
 11
788.8126070000001
 21
179.062105
 31
0.0
  0
CIRCLE
  5
44D
330
922
100
AcDbEntity
  8
SIZE
  6
Continuous
 62
    30
100
AcDbCircle
 10
778.812607
 20
179.062105
 30
0.0
 40
5.0
  0
POINT
  5
44E
330
922
100
AcDbEntity
  8
DEFPOINTS
  6
Continuous
 62
     7
100
AcDbPoint
 10
778.812607
 20
179.062105
 30
0.0
  0
LINE
  5
44F
330
922
100
AcDbEntity
  8
SIZE
  6
Continuous
 62
    30
100
AcDbLine
 10
773.812607
 20
179.062105
 30
0.0
 11
768.812607
 21
179.062105
 31
0.0
  0
CIRCLE
  5
450
330
922
100
AcDbEntity
  8
SIZE
  6
Continuous
 62
    30
100
AcDbCircle
 10
778.812607
 20
179.062105
 30
0.0
 40
5.0
  0
TEXT
  5
451
330
922
100
AcDbEntity
  8
SIZE
  6
Continuous
 62
    30
100
AcDbText
 10
864.6697568571429
 20
44.999995
 30
0.0
 40
55.0
  1
447
 41
0.9
 72
     1
 11
928.312614
 21
44.999995
 31
0.0
100
AcDbText
  0
TEXT
  5
452
330
922
100
AcDbEntity
  8
SIZE
  6
Continuous
 62
    30
100
AcDbText
 10
1206.454171142857
 20
44.999995
 30
0.0
 40
55.0
  1
12
 41
0.9
 72
     1
 11
1241.811314
 21
44.999995
 31
0.0
100
AcDbText
  0
LINE
  5
453
330
922
100
AcDbEntity
  8
SIZE
  6
Continuous
 62
    30
100
AcDbLine
 10
1292.168457
 20
29.999995
 30
0.0
 11
1163.812607
 21
29.999995
 31
0.0
  0
LINE
  5
454
330
922
100
AcDbEntity
  8
SIZE
  6
Continuous
 62
    30
100
AcDbLine
 10
1284.315344
 20
179.062105
 30
0.0
 11
1163.812607
 21
179.062105
 31
0.0
  0
CIRCLE
  5
455
330
922
100
AcDbEntity
  8
SIZE
  6
Continuous
 62
    30
100
AcDbCircle
 10
1151.812607
 20
29.999995
 30
0.0
 40
5.0
  0
LINE
  5
456
330
922
100
AcDbEntity
  8
SIZE
  6
Continuous
 62
    30
100
AcDbLine
 10
1151.812607
 20
29.999995
 30
0.0
 11
1163.812607
 21
29.999995
 31
0.0
  0
LINE
  5
457
330
922
100
AcDbEntity
  8
SIZE
  6
Continuous
 62
    30
100
AcDbLine
 10
1151.812607
 20
29.999995
 30
0.0
 11
1163.812607
 21
29.999995
 31
0.0
  0
CIRCLE
  5
458
330
922
100
AcDbEntity
  8
SIZE
  6
Continuous
 62
    30
100
AcDbCircle
 10
1151.812607
 20
29.999995
 30
0.0
 40
5.0
  0
LINE
  5
459
330
922
100
AcDbEntity
  8
SIZE
  6
Continuous
 62
    30
100
AcDbLine
 10
1146.812607
 20
29.999995
 30
0.0
 11
1141.812607
 21
29.999995
 31
0.0
  0
LINE
  5
45A
330
922
100
AcDbEntity
  8
SIZE
  6
Continuous
 62
    30
100
AcDbLine
 10
1141.812607
 20
29.999995
 30
0.0
 11
1131.812607
 21
29.999995
 31
0.0
  0
POINT
  5
45B
330
922
100
AcDbEntity
  8
DEFPOINTS
  6
Continuous
 62
     7
100
AcDbPoint
 10
1151.812607
 20
29.999995
 30
0.0
  0
LINE
  5
45C
330
922
100
AcDbEntity
  8
SIZE
  6
Continuous
 62
    30
100
AcDbLine
 10
1146.812607
 20
29.999995
 30
0.0
 11
1141.812607
 21
29.999995
 31
0.0
  0
POINT
  5
45D
330
922
100
AcDbEntity
  8
DEFPOINTS
  6
Continuous
 62
     7
100
AcDbPoint
 10
1163.812607
 20
29.999995
 30
0.0
  0
LINE
  5
45E
330
922
100
AcDbEntity
  8
SIZE
  6
Continuous
 62
    30
100
AcDbLine
 10
1168.812607
 20
29.999995
 30
0.0
 11
1173.812607
 21
29.999995
 31
0.0
  0
CIRCLE
  5
45F
330
922
100
AcDbEntity
  8
SIZE
  6
Continuous
 62
    30
100
AcDbCircle
 10
1163.812607
 20
29.999995
 30
0.0
 40
5.0
  0
LINE
  5
460
330
922
100
AcDbEntity
  8
SIZE
  6
Continuous
 62
    30
100
AcDbLine
 10
1173.812607
 20
29.999995
 30
0.0
 11
1183.812607
 21
29.999995
 31
0.0
  0
LINE
  5
461
330
922
100
AcDbEntity
  8
SIZE
  6
Continuous
 62
    30
100
AcDbLine
 10
1088.812609
 20
179.062105
 30
0.0
 11
1153.812607
 21
179.062105
 31
0.0
  0
LINE
  5
462
330
922
100
AcDbEntity
  8
SIZE
  6
Continuous
 62
    30
100
AcDbLine
 10
1083.812609
 20
179.062105
 30
0.0
 11
1088.812609
 21
179.062105
 31
0.0
  0
CIRCLE
  5
463
330
922
100
AcDbEntity
  8
SIZE
  6
Continuous
 62
    30
100
AcDbCircle
 10
1078.812609
 20
179.062105
 30
0.0
 40
5.0
  0
POINT
  5
464
330
922
100
AcDbEntity
  8
DEFPOINTS
  6
Continuous
 62
     7
100
AcDbPoint
 10
1078.812609
 20
179.062105
 30
0.0
  0
LINE
  5
465
330
922
100
AcDbEntity
  8
SIZE
  6
Continuous
 62
    30
100
AcDbLine
 10
1073.812609
 20
179.062105
 30
0.0
 11
1068.812609
 21
179.062105
 31
0.0
  0
CIRCLE
  5
466
330
922
100
AcDbEntity
  8
SIZE
  6
Continuous
 62
    30
100
AcDbCircle
 10
1078.812609
 20
179.062105
 30
0.0
 40
5.0
  0
POINT
  5
467
330
922
100
AcDbEntity
  8
DEFPOINTS
  6
Continuous
 62
     7
100
AcDbPoint
 10
1163.812607
 20
179.062105
 30
0.0
  0
LINE
  5
468
330
922
100
AcDbEntity
  8
SIZE
  6
Continuous
 62
    30
100
AcDbLine
 10
1158.812607
 20
179.062105
 30
0.0
 11
1153.812607
 21
179.062105
 31
0.0
  0
CIRCLE
  5
469
330
922
100
AcDbEntity
  8
SIZE
  6
Continuous
 62
    30
100
AcDbCircle
 10
1163.812607
 20
179.062105
 30
0.0
 40
5.0
  0
LINE
  5
46A
330
922
100
AcDbEntity
  8
SIZE
  6
Continuous
 62
    30
100
AcDbLine
 10
784.8126139999998
 20
339.614792
 30
0.0
 11
1153.812607
 21
339.614792
 31
0.0
  0
TEXT
  5
46B
330
922
100
AcDbEntity
  8
SIZE
  6
Continuous
 62
    30
100
AcDbText
 10
993.891080857143
 20
490.638571
 30
0.0
 40
55.0
  1
235
 41
0.9
 72
     1
 11
1057.533938
 21
490.638571
 31
0.0
100
AcDbText
  0
LINE
  5
46C
330
922
100
AcDbEntity
  8
SIZE
  6
Continuous
 62
    30
100
AcDbLine
 10
938.812607
 20
475.6385709999998
 30
0.0
 11
1153.812607
 21
475.6385709999998
 31
0.0
  0
TEXT
  5
46D
330
922
100
AcDbEntity
  8
SIZE
  6
Continuous
 62
    30
100
AcDbText
 10
965.2411784285716
 20
630.102085
 30
0.0
 40
55.0
  1
85
 41
0.9
 72
     1
 11
1005.312607
 21
630.102085
 31
0.0
100
AcDbText
  0
LINE
  5
46E
330
922
100
AcDbEntity
  8
SIZE
  6
Continuous
 62
    30
100
AcDbLine
 10
1047.812607
 20
615.102085
 30
0.0
 11
962.812607
 21
615.102085
 31
0.0
  0
LINE
  5
46F
330
922
100
AcDbEntity
  8
SIZE
  6
Continuous
 62
    30
100
AcDbLine
 10
808.812617
 20
842.0597619999997
 30
0.0
 11
808.812617
 21
444.3416559999998
 31
0.0
  0
LINE
  5
470
330
922
100
AcDbEntity
  8
SIZE
  6
Continuous
 62
    30
100
AcDbLine
 10
748.812619
 20
842.0597619999997
 30
0.0
 11
748.812619
 21
444.3416559999998
 31
0.0
  0
LINE
  5
471
330
922
100
AcDbEntity
  8
SIZE
  6
Continuous
 62
    30
100
AcDbLine
 10
779.8126139999998
 20
339.614792
 30
0.0
 11
784.8126139999998
 21
339.614792
 31
0.0
  0
CIRCLE
  5
472
330
922
100
AcDbEntity
  8
SIZE
  6
Continuous
 62
    30
100
AcDbCircle
 10
774.8126139999998
 20
339.614792
 30
0.0
 40
5.0
  0
POINT
  5
473
330
922
100
AcDbEntity
  8
DEFPOINTS
  6
Continuous
 62
     7
100
AcDbPoint
 10
808.812617
 20
474.3416559999998
 30
0.0
  0
LINE
  5
474
330
922
100
AcDbEntity
  8
SIZE
  6
Continuous
 62
    30
100
AcDbLine
 10
753.812619
 20
474.3416559999998
 30
0.0
 11
758.812619
 21
474.3416559999998
 31
0.0
  0
CIRCLE
  5
475
330
922
100
AcDbEntity
  8
SIZE
  6
Continuous
 62
    30
100
AcDbCircle
 10
748.812619
 20
474.3416559999998
 30
0.0
 40
5.0
  0
LINE
  5
476
330
922
100
AcDbEntity
  8
SIZE
  6
Continuous
 62
    30
100
AcDbLine
 10
803.8126169999998
 20
474.3416559999998
 30
0.0
 11
798.8126170000001
 21
474.3416559999998
 31
0.0
  0
CIRCLE
  5
477
330
922
100
AcDbEntity
  8
SIZE
  6
Continuous
 62
    30
100
AcDbCircle
 10
808.812617
 20
474.3416559999998
 30
0.0
 40
5.0
  0
LINE
  5
478
330
922
100
AcDbEntity
  8
SIZE
  6
Continuous
 62
    30
100
AcDbLine
 10
798.8126170000001
 20
474.3416559999998
 30
0.0
 11
758.812619
 21
474.3416559999998
 31
0.0
  0
TEXT
  5
479
330
922
100
AcDbEntity
  8
SIZE
  6
Continuous
 62
    30
100
AcDbText
 10
884.3118692857146
 20
354.521765
 30
0.0
 40
55.0
  1
389
 41
0.9
 72
     1
 11
946.7761550000004
 21
354.521765
 31
0.0
100
AcDbText
  0
CIRCLE
  5
47A
330
922
100
AcDbEntity
  8
SIZE
  6
Continuous
 62
    30
100
AcDbCircle
 10
928.812607
 20
475.6385709999998
 30
0.0
 40
5.0
  0
LINE
  5
47B
330
922
100
AcDbEntity
  8
SIZE
  6
Continuous
 62
    30
100
AcDbLine
 10
933.8126069999999
 20
475.6385709999998
 30
0.0
 11
938.812607
 21
475.6385709999998
 31
0.0
  0
POINT
  5
47C
330
922
100
AcDbEntity
  8
DEFPOINTS
  6
Continuous
 62
     7
100
AcDbPoint
 10
962.812607
 20
615.102085
 30
0.0
  0
LINE
  5
47D
330
922
100
AcDbEntity
  8
SIZE
  6
Continuous
 62
    30
100
AcDbLine
 10
957.8126069999999
 20
615.102085
 30
0.0
 11
952.812607
 21
615.102085
 31
0.0
  0
CIRCLE
  5
47E
330
922
100
AcDbEntity
  8
SIZE
  6
Continuous
 62
    30
100
AcDbCircle
 10
962.812607
 20
615.102085
 30
0.0
 40
5.0
  0
LINE
  5
47F
330
922
100
AcDbEntity
  8
SIZE
  6
Continuous
 62
    30
100
AcDbLine
 10
952.812607
 20
615.102085
 30
0.0
 11
942.8126069999999
 21
615.102085
 31
0.0
  0
POINT
  5
480
330
922
100
AcDbEntity
  8
DEFPOINTS
  6
Continuous
 62
     7
100
AcDbPoint
 10
1163.812607
 20
339.614792
 30
0.0
  0
LINE
  5
481
330
922
100
AcDbEntity
  8
SIZE
  6
Continuous
 62
    30
100
AcDbLine
 10
1158.812607
 20
339.614792
 30
0.0
 11
1153.812607
 21
339.614792
 31
0.0
  0
CIRCLE
  5
482
330
922
100
AcDbEntity
  8
SIZE
  6
Continuous
 62
    30
100
AcDbCircle
 10
1163.812607
 20
339.614792
 30
0.0
 40
5.0
  0
POINT
  5
483
330
922
100
AcDbEntity
  8
DEFPOINTS
  6
Continuous
 62
     7
100
AcDbPoint
 10
1163.812607
 20
475.6385709999998
 30
0.0
  0
LINE
  5
484
330
922
100
AcDbEntity
  8
SIZE
  6
Continuous
 62
    30
100
AcDbLine
 10
1158.812607
 20
475.6385709999998
 30
0.0
 11
1153.812607
 21
475.6385709999998
 31
0.0
  0
CIRCLE
  5
485
330
922
100
AcDbEntity
  8
SIZE
  6
Continuous
 62
    30
100
AcDbCircle
 10
1163.812607
 20
475.6385709999998
 30
0.0
 40
5.0
  0
TEXT
  5
486
330
922
100
AcDbEntity
  8
SIZE
  6
Continuous
 62
    30
100
AcDbText
 10
1188.812606714286
 20
630.102085
 30
0.0
 40
55.0
  1
116
 41
0.9
 72
     1
 11
1241.848321
 21
630.102085
 31
0.0
100
AcDbText
  0
LINE
  5
487
330
922
100
AcDbEntity
  8
SIZE
  6
Continuous
 62
    30
100
AcDbLine
 10
1163.812607
 20
615.102085
 30
0.0
 11
1309.884035
 21
615.102085
 31
0.0
  0
LINE
  5
488
330
922
100
AcDbEntity
  8
SIZE
  6
Continuous
 62
    30
100
AcDbLine
 10
1057.812607
 20
615.102085
 30
0.0
 11
1153.812607
 21
615.102085
 31
0.0
  0
LINE
  5
489
330
922
100
AcDbEntity
  8
SIZE
  6
Continuous
 62
    30
100
AcDbLine
 10
1052.812607
 20
615.102085
 30
0.0
 11
1057.812607
 21
615.102085
 31
0.0
  0
CIRCLE
  5
48A
330
922
100
AcDbEntity
  8
SIZE
  6
Continuous
 62
    30
100
AcDbCircle
 10
1047.812607
 20
615.102085
 30
0.0
 40
5.0
  0
LINE
  5
48B
330
922
100
AcDbEntity
  8
SIZE
  6
Continuous
 62
    30
100
AcDbLine
 10
1057.812607
 20
615.102085
 30
0.0
 11
1067.812607
 21
615.102085
 31
0.0
  0
POINT
  5
48C
330
922
100
AcDbEntity
  8
DEFPOINTS
  6
Continuous
 62
     7
100
AcDbPoint
 10
1047.812607
 20
615.102085
 30
0.0
  0
LINE
  5
48D
330
922
100
AcDbEntity
  8
SIZE
  6
Continuous
 62
    30
100
AcDbLine
 10
1052.812607
 20
615.102085
 30
0.0
 11
1057.812607
 21
615.102085
 31
0.0
  0
CIRCLE
  5
48E
330
922
100
AcDbEntity
  8
SIZE
  6
Continuous
 62
    30
100
AcDbCircle
 10
1047.812607
 20
615.102085
 30
0.0
 40
5.0
  0
LINE
  5
48F
330
922
100
AcDbEntity
  8
SIZE
  6
Continuous
 62
    30
100
AcDbLine
 10
1158.812607
 20
615.102085
 30
0.0
 11
1153.812607
 21
615.102085
 31
0.0
  0
CIRCLE
  5
490
330
922
100
AcDbEntity
  8
SIZE
  6
Continuous
 62
    30
100
AcDbCircle
 10
1163.812607
 20
615.102085
 30
0.0
 40
5.0
  0
POINT
  5
491
330
922
100
AcDbEntity
  8
DEFPOINTS
  6
Continuous
 62
     7
100
AcDbPoint
 10
1078.812609
 20
842.0597619999997
 30
0.0
  0
POINT
  5
492
330
922
100
AcDbEntity
  8
DEFPOINTS
  6
Continuous
 62
     7
100
AcDbPoint
 10
1078.812609
 20
842.0597619999997
 30
0.0
  0
TEXT
  5
493
330
922
100
AcDbEntity
  8
NOTE
  6
Continuous
 62
     4
100
AcDbText
 10
1300.839529
 20
1874.721468
 30
0.0
 40
64.0
  1
D1 Rc1-1/4
 41
0.9
100
AcDbText
  0
LINE
  5
494
330
922
100
AcDbEntity
  8
NOTE
  6
Continuous
 62
     4
100
AcDbLine
 10
1302.995485
 20
1850.958762
 30
0.0
 11
1783.76947
 21
1850.958762
 31
0.0
  0
LINE
  5
495
330
922
100
AcDbEntity
  8
SIZE
  6
Continuous
 62
    30
100
AcDbLine
 10
1171.812607
 20
862.0597619999998
 30
0.0
 11
2038.433543
 21
862.0597619999998
 31
0.0
  0
LINE
  5
496
330
922
100
AcDbEntity
  8
SIZE
  6
Continuous
 62
    30
100
AcDbLine
 10
1171.812607
 20
862.0597619999998
 30
0.0
 11
1867.40832
 21
862.0597619999998
 31
0.0
  0
LINE
  5
497
330
922
100
AcDbEntity
  8
SIZE
  6
Continuous
 62
    30
100
AcDbLine
 10
1171.812607
 20
862.0597619999998
 30
0.0
 11
1707.19145
 21
862.0597619999998
 31
0.0
  0
LINE
  5
498
330
922
100
AcDbEntity
  8
SIZE
  6
Continuous
 62
    30
100
AcDbLine
 10
1118.479272
 20
1492.059762
 30
0.0
 11
1707.19145
 21
1492.059762
 31
0.0
  0
TEXT
  5
499
330
922
100
AcDbEntity
  8
SIZE
  6
Continuous
 62
    30
100
AcDbText
 10
1521.493507
 20
912.5954762857141
 30
0.0
 40
55.0
  1
226
 50
90.0
 41
0.9
 72
     1
 11
1521.493507
 21
975.0597619999997
 31
0.0
100
AcDbText
  0
LINE
  5
49A
330
922
100
AcDbEntity
  8
SIZE
  6
Continuous
 62
    30
100
AcDbLine
 10
1171.812607
 20
862.0597619999998
 30
0.0
 11
1566.493507
 21
862.0597619999998
 31
0.0
  0
LINE
  5
49B
330
922
100
AcDbEntity
  8
SIZE
  6
Continuous
 62
    30
100
AcDbLine
 10
1085.004272
 20
1088.059762
 30
0.0
 11
1566.493507
 21
1088.059762
 31
0.0
  0
LINE
  5
49C
330
922
100
AcDbEntity
  8
NOTE
  6
Continuous
 62
     4
100
AcDbLine
 10
1056.812607
 20
1533.726427
 30
0.0
 11
1056.812607
 21
1450.393097
 31
0.0
  0
LWPOLYLINE
  5
49D
330
922
100
AcDbEntity
  8
OUTLINE
  6
Continuous
 62
     3
100
AcDbPolyline
 90
        4
 70
     1
 43
0.0
 10
704.812621
 20
992.0597619999997
 10
1151.812607
 20
992.0597619999997
 10
1151.812607
 20
862.0597619999998
 10
704.812621
 20
862.0597619999998
  0
LINE
  5
4A3
330
922
100
AcDbEntity
  8
SIZE
  6
Continuous
 62
    30
100
AcDbLine
 10
980.479272
 20
964.0597619999999
 30
0.0
 11
1339.547197
 21
964.0597619999999
 31
0.0
  0
LINE
  5
4A4
330
922
100
AcDbEntity
  8
SIZE
  6
Continuous
 62
    30
100
AcDbLine
 10
998.4192719999999
 20
1086.059762
 30
0.0
 11
1444.831071
 21
1086.059762
 31
0.0
  0
LINE
  5
4A5
330
922
100
AcDbEntity
  8
DETAIL
  6
Continuous
 62
     5
100
AcDbLine
 10
678.812621
 20
992.0597619999997
 30
0.0
 11
1163.812607
 21
992.0597619999997
 31
0.0
  0
LINE
  5
4A6
330
922
100
AcDbEntity
  8
DETAIL
  6
Continuous
 62
     5
100
AcDbLine
 10
908.10688
 20
1293.059749
 30
0.0
 11
1108.106874
 21
1293.059749
 31
0.0
  0
ARC
  5
4A7
330
922
100
AcDbEntity
  8
DETAIL
  6
Continuous
 62
     5
100
AcDbCircle
 10
1048.106875
 20
1123.059754
 30
0.0
 40
26.999999
100
AcDbArc
 50
0.0
 51
180.0
  0
LINE
  5
4A8
330
922
100
AcDbEntity
  8
NOTE
  6
Continuous
 62
     4
100
AcDbLine
 10
1065.004272
 20
1088.059762
 30
0.0
 11
1030.620941
 21
1088.059762
 31
0.0
  0
CIRCLE
  5
4A9
330
922
100
AcDbEntity
  8
DETAIL
  6
Continuous
 62
     5
100
AcDbCircle
 10
1047.812607
 20
1088.059762
 30
0.0
 40
10.525
  0
CIRCLE
  5
4AA
330
922
100
AcDbEntity
  8
DETAIL
  6
Continuous
 62
     5
100
AcDbCircle
 10
1047.812607
 20
1088.059762
 30
0.0
 40
9.525
  0
LINE
  5
4AB
330
922
100
AcDbEntity
  8
DETAIL
  6
Continuous
 62
     5
100
AcDbLine
 10
918.1068790000001
 20
1073.059756
 30
0.0
 11
1098.106874
 21
1073.059756
 31
0.0
  0
LINE
  5
4AC
330
922
100
AcDbEntity
  8
DETAIL
  6
Continuous
 62
     5
100
AcDbLine
 10
1123.106873
 20
1313.059748
 30
0.0
 11
893.10688
 21
1313.059748
 31
0.0
  0
LINE
  5
4AD
330
922
100
AcDbEntity
  8
DETAIL
  6
Continuous
 62
     5
100
AcDbLine
 10
704.812621
 20
862.0597619999998
 30
0.0
 11
1151.812607
 21
862.0597619999998
 31
0.0
  0
LINE
  5
4AE
330
922
100
AcDbEntity
  8
NOTE
  6
Continuous
 62
     4
100
AcDbLine
 10
774.8126139999998
 20
1211.058225
 30
0.0
 11
774.8126139999998
 21
1163.061299
 31
0.0
  0
LINE
  5
4AF
330
922
100
AcDbEntity
  8
DETAIL
  6
Continuous
 62
     5
100
AcDbLine
 10
888.1068800000001
 20
1058.059756
 30
0.0
 11
888.1068800000001
 21
1308.059748
 31
0.0
  0
LINE
  5
4B0
330
922
100
AcDbEntity
  8
DETAIL
  6
Continuous
 62
     5
100
AcDbLine
 10
898.10688
 20
1283.059749
 30
0.0
 11
898.10688
 21
1083.059755
 31
0.0
  0
POINT
  5
4B1
330
922
100
AcDbEntity
  8
DEFPOINTS
  6
Continuous
 62
     7
100
AcDbPoint
 10
678.812621
 20
992.0597619999997
 30
0.0
  0
POINT
  5
4B2
330
922
100
AcDbEntity
  8
DEFPOINTS
  6
Continuous
 62
     7
100
AcDbPoint
 10
678.812621
 20
992.0597619999997
 30
0.0
  0
POINT
  5
4B3
330
922
100
AcDbEntity
  8
DEFPOINTS
  6
Continuous
 62
     7
100
AcDbPoint
 10
678.812621
 20
992.0597619999997
 30
0.0
  0
POINT
  5
4B4
330
922
100
AcDbEntity
  8
DEFPOINTS
  6
Continuous
 62
     7
100
AcDbPoint
 10
704.812621
 20
862.0597619999998
 30
0.0
  0
POINT
  5
4B5
330
922
100
AcDbEntity
  8
DEFPOINTS
  6
Continuous
 62
     7
100
AcDbPoint
 10
704.812621
 20
862.0597619999998
 30
0.0
  0
POINT
  5
4B6
330
922
100
AcDbEntity
  8
DEFPOINTS
  6
Continuous
 62
     7
100
AcDbPoint
 10
778.812607
 20
861.933199
 30
0.0
  0
POINT
  5
4B7
330
922
100
AcDbEntity
  8
DEFPOINTS
  6
Continuous
 62
     7
100
AcDbPoint
 10
778.812607
 20
861.933199
 30
0.0
  0
LINE
  5
4B8
330
922
100
AcDbEntity
  8
NOTE
  6
Continuous
 62
     4
100
AcDbLine
 10
798.8126179999998
 20
862.0597619999998
 30
0.0
 11
758.8126179999997
 21
862.0597619999998
 31
0.0
  0
POINT
  5
4B9
330
922
100
AcDbEntity
  8
DEFPOINTS
  6
Continuous
 62
     7
100
AcDbPoint
 10
808.812617
 20
862.0597619999998
 30
0.0
  0
POINT
  5
4BA
330
922
100
AcDbEntity
  8
DEFPOINTS
  6
Continuous
 62
     7
100
AcDbPoint
 10
748.812619
 20
862.0597619999998
 30
0.0
  0
POINT
  5
4BB
330
922
100
AcDbEntity
  8
DEFPOINTS
  6
Continuous
 62
     7
100
AcDbPoint
 10
704.812621
 20
862.0597619999998
 30
0.0
  0
POINT
  5
4BC
330
922
100
AcDbEntity
  8
DEFPOINTS
  6
Continuous
 62
     7
100
AcDbPoint
 10
704.812621
 20
862.0597619999998
 30
0.0
  0
LINE
  5
4BD
330
922
100
AcDbEntity
  8
DETAIL
  6
Continuous
 62
     5
100
AcDbLine
 10
704.812621
 20
862.0597619999998
 30
0.0
 11
704.812621
 21
992.0597619999997
 31
0.0
  0
CIRCLE
  5
4BE
330
922
100
AcDbEntity
  8
DETAIL
  6
Continuous
 62
     5
100
AcDbCircle
 10
734.41262
 20
1007.059758
 30
0.0
 40
2.25
  0
LINE
  5
4BF
330
922
100
AcDbEntity
  8
DETAIL
  6
Continuous
 62
     5
100
AcDbLine
 10
803.8126179999999
 20
864.3597619999997
 30
0.0
 11
803.8126179999999
 21
862.0597619999998
 31
0.0
  0
LINE
  5
4C0
330
922
100
AcDbEntity
  8
DETAIL
  6
Continuous
 62
     5
100
AcDbLine
 10
808.812617
 20
897.059761
 30
0.0
 11
808.812617
 21
862.0597619999998
 31
0.0
  0
LINE
  5
4C1
330
922
100
AcDbEntity
  8
DETAIL
  6
Continuous
 62
     5
100
AcDbLine
 10
753.812619
 20
864.3597619999997
 30
0.0
 11
753.812619
 21
862.0597619999998
 31
0.0
  0
LINE
  5
4C2
330
922
100
AcDbEntity
  8
DETAIL
  6
Continuous
 62
     5
100
AcDbLine
 10
748.812619
 20
897.059761
 30
0.0
 11
748.812619
 21
862.0597619999998
 31
0.0
  0
LINE
  5
4C3
330
922
100
AcDbEntity
  8
DETAIL
  6
Continuous
 62
     5
100
AcDbLine
 10
808.812617
 20
862.0597619999998
 30
0.0
 11
748.812619
 21
862.0597619999998
 31
0.0
  0
LINE
  5
4C4
330
922
100
AcDbEntity
  8
DETAIL
  6
Continuous
 62
     5
100
AcDbLine
 10
808.812617
 20
864.3597619999997
 30
0.0
 11
748.812619
 21
864.3597619999997
 31
0.0
  0
LINE
  5
4C5
330
922
100
AcDbEntity
  8
DETAIL
  6
Continuous
 62
     5
100
AcDbLine
 10
808.812617
 20
897.059761
 30
0.0
 11
748.812619
 21
897.059761
 31
0.0
  0
POINT
  5
4C6
330
922
100
AcDbEntity
  8
DEFPOINTS
  6
Continuous
 62
     7
100
AcDbPoint
 10
774.8126139999998
 20
1030.393097
 30
0.0
  0
LINE
  5
4C7
330
922
100
AcDbEntity
  8
NOTE
  6
Continuous
 62
     4
100
AcDbLine
 10
774.8126139999998
 20
1137.059762
 30
0.0
 11
758.232723
 21
1165.977201
 31
0.0
  0
LINE
  5
4C8
330
922
100
AcDbEntity
  8
NOTE
  6
Continuous
 62
     4
100
AcDbLine
 10
774.8126139999998
 20
1137.059762
 30
0.0
 11
745.9952879999998
 21
1153.813053
 31
0.0
  0
LINE
  5
4C9
330
922
100
AcDbEntity
  8
NOTE
  6
Continuous
 62
     4
100
AcDbLine
 10
774.8126139999998
 20
1072.059762
 30
0.0
 11
755.908629
 21
1099.514277
 31
0.0
  0
LINE
  5
4CA
330
922
100
AcDbEntity
  8
NOTE
  6
Continuous
 62
     4
100
AcDbLine
 10
774.8126139999998
 20
1072.059762
 30
0.0
 11
744.714025
 21
1086.384077
 31
0.0
  0
POINT
  5
4CB
330
922
100
AcDbEntity
  8
DEFPOINTS
  6
Continuous
 62
     7
100
AcDbPoint
 10
750.814114
 20
1137.059762
 30
0.0
  0
POINT
  5
4CC
330
922
100
AcDbEntity
  8
DEFPOINTS
  6
Continuous
 62
     7
100
AcDbPoint
 10
750.814114
 20
1137.059762
 30
0.0
  0
POINT
  5
4CD
330
922
100
AcDbEntity
  8
DEFPOINTS
  6
Continuous
 62
     7
100
AcDbPoint
 10
733.1459139999998
 20
1072.059762
 30
0.0
  0
POINT
  5
4CE
330
922
100
AcDbEntity
  8
DEFPOINTS
  6
Continuous
 62
     7
100
AcDbPoint
 10
733.1459139999998
 20
1072.059762
 30
0.0
  0
LINE
  5
4CF
330
922
100
AcDbEntity
  8
NOTE
  6
Continuous
 62
     4
100
AcDbLine
 10
816.4793139999996
 20
1072.059762
 30
0.0
 11
733.1459139999998
 21
1072.059762
 31
0.0
  0
LINE
  5
4D0
330
922
100
AcDbEntity
  8
NOTE
  6
Continuous
 62
     4
100
AcDbLine
 10
774.8126139999998
 20
1113.726427
 30
0.0
 11
774.8126139999998
 21
1030.393097
 31
0.0
  0
CIRCLE
  5
4D1
330
922
100
AcDbEntity
  8
DETAIL
  6
Continuous
 62
     5
100
AcDbCircle
 10
774.8126139999998
 20
1072.059762
 30
0.0
 40
21.5
  0
CIRCLE
  5
4D2
330
922
100
AcDbEntity
  8
DETAIL
  6
Continuous
 62
     5
100
AcDbCircle
 10
774.8126139999998
 20
1137.059762
 30
0.0
 40
13.5
  0
LINE
  5
4D3
330
922
100
AcDbEntity
  8
NOTE
  6
Continuous
 62
     4
100
AcDbLine
 10
798.8111139999999
 20
1137.059762
 30
0.0
 11
750.814114
 21
1137.059762
 31
0.0
  0
LINE
  5
4D4
330
922
100
AcDbEntity
  8
NOTE
  6
Continuous
 62
     4
100
AcDbLine
 10
774.8126139999998
 20
1161.058225
 30
0.0
 11
774.8126139999998
 21
1113.061299
 31
0.0
  0
CIRCLE
  5
4D5
330
922
100
AcDbEntity
  8
DETAIL
  6
Continuous
 62
     5
100
AcDbCircle
 10
928.812607
 20
964.0597619999999
 30
0.0
 40
18.999999
  0
LINE
  5
4D6
330
922
100
AcDbEntity
  8
NOTE
  6
Continuous
 62
     4
100
AcDbLine
 10
960.479272
 20
964.0597619999999
 30
0.0
 11
897.1459409999999
 21
964.0597619999999
 31
0.0
  0
CIRCLE
  5
4D7
330
922
100
AcDbEntity
  8
DETAIL
  6
Continuous
 62
     5
100
AcDbCircle
 10
928.812607
 20
964.186328
 30
0.0
 40
14.0
  0
LINE
  5
4D8
330
922
100
AcDbEntity
  8
NOTE
  6
Continuous
 62
     4
100
AcDbLine
 10
928.812618
 20
964.0597729999999
 30
0.0
 11
913.040855
 21
934.6937629999999
 31
0.0
  0
LINE
  5
4D9
330
922
100
AcDbEntity
  8
NOTE
  6
Continuous
 62
     4
100
AcDbLine
 10
928.812618
 20
964.0597729999999
 30
0.0
 11
900.4708649999999
 21
946.5139439999999
 31
0.0
  0
POINT
  5
4DA
330
922
100
AcDbEntity
  8
DEFPOINTS
  6
Continuous
 62
     7
100
AcDbPoint
 10
928.812607
 20
932.3930970000001
 30
0.0
  0
POINT
  5
4DB
330
922
100
AcDbEntity
  8
DEFPOINTS
  6
Continuous
 62
     7
100
AcDbPoint
 10
960.479272
 20
964.0597619999999
 30
0.0
  0
LINE
  5
4DC
330
922
100
AcDbEntity
  8
NOTE
  6
Continuous
 62
     4
100
AcDbLine
 10
928.812607
 20
995.7264269999999
 30
0.0
 11
928.812607
 21
932.3930970000001
 31
0.0
  0
LINE
  5
4DD
330
922
100
AcDbEntity
  8
DETAIL
  6
Continuous
 62
     5
100
AcDbLine
 10
918.1068790000001
 20
1076.059755
 30
0.0
 11
941.1068789999999
 21
1076.059755
 31
0.0
  0
LINE
  5
4DE
330
922
100
AcDbEntity
  8
DETAIL
  6
Continuous
 62
     5
100
AcDbLine
 10
918.1068790000001
 20
1053.059756
 30
0.0
 11
918.1068790000001
 21
1076.059755
 31
0.0
  0
LINE
  5
4DF
330
922
100
AcDbEntity
  8
DETAIL
  6
Continuous
 62
     5
100
AcDbLine
 10
888.1068800000001
 20
1058.059756
 30
0.0
 11
893.10688
 21
1053.059756
 31
0.0
  0
ARC
  5
4E0
330
922
100
AcDbEntity
  8
DETAIL
  6
Continuous
 62
     5
100
AcDbCircle
 10
908.10688
 20
1083.059755
 30
0.0
 40
10.0
100
AcDbArc
 50
180.0
 51
270.0
  0
LINE
  5
4E1
330
922
100
AcDbEntity
  8
DETAIL
  6
Continuous
 62
     5
100
AcDbLine
 10
893.10688
 20
1053.059756
 30
0.0
 11
918.1068790000001
 21
1053.059756
 31
0.0
  0
LINE
  5
4E2
330
922
100
AcDbEntity
  8
DETAIL
  6
Continuous
 62
     5
100
AcDbLine
 10
908.10688
 20
1073.059756
 30
0.0
 11
918.1068790000001
 21
1073.059756
 31
0.0
  0
POINT
  5
4E3
330
922
100
AcDbEntity
  8
DEFPOINTS
  6
Continuous
 62
     7
100
AcDbPoint
 10
962.812607
 20
1070.453096
 30
0.0
  0
POINT
  5
4E4
330
922
100
AcDbEntity
  8
DEFPOINTS
  6
Continuous
 62
     7
100
AcDbPoint
 10
978.419272
 20
1086.059762
 30
0.0
  0
LINE
  5
4E5
330
922
100
AcDbEntity
  8
DETAIL
  6
Continuous
 62
     5
100
AcDbLine
 10
995.106877
 20
1076.059755
 30
0.0
 11
1021.106876
 21
1076.059755
 31
0.0
  0
LINE
  5
4E6
330
922
100
AcDbEntity
  8
DETAIL
  6
Continuous
 62
     5
100
AcDbLine
 10
995.106877
 20
1073.059756
 30
0.0
 11
995.106877
 21
1123.059754
 31
0.0
  0
LINE
  5
4E7
330
922
100
AcDbEntity
  8
DETAIL
  6
Continuous
 62
     5
100
AcDbLine
 10
1021.106876
 20
1073.059756
 30
0.0
 11
1021.106876
 21
1123.059754
 31
0.0
  0
LINE
  5
4E8
330
922
100
AcDbEntity
  8
NOTE
  6
Continuous
 62
     4
100
AcDbLine
 10
962.812607
 20
1086.059762
 30
0.0
 11
978.0578769999999
 21
1056.417009
 31
0.0
  0
CIRCLE
  5
4E9
330
922
100
AcDbEntity
  8
DETAIL
  6
Continuous
 62
     5
100
AcDbCircle
 10
962.812607
 20
1086.059762
 30
0.0
 40
8.939999999999997
  0
CIRCLE
  5
4EA
330
922
100
AcDbEntity
  8
DETAIL
  6
Continuous
 62
     5
100
AcDbCircle
 10
962.812607
 20
1086.059762
 30
0.0
 40
7.94
  0
LINE
  5
4EB
330
922
100
AcDbEntity
  8
NOTE
  6
Continuous
 62
     4
100
AcDbLine
 10
962.812607
 20
1101.666428
 30
0.0
 11
962.812607
 21
1070.453096
 31
0.0
  0
LINE
  5
4EC
330
922
100
AcDbEntity
  8
DETAIL
  6
Continuous
 62
     5
100
AcDbLine
 10
941.1068789999999
 20
1073.059756
 30
0.0
 11
941.1068789999999
 21
1123.059754
 31
0.0
  0
LINE
  5
4ED
330
922
100
AcDbEntity
  8
NOTE
  6
Continuous
 62
     4
100
AcDbLine
 10
962.812607
 20
1086.059762
 30
0.0
 11
990.836774
 21
1068.011021
 31
0.0
  0
LINE
  5
4EE
330
922
100
AcDbEntity
  8
NOTE
  6
Continuous
 62
     4
100
AcDbLine
 10
978.419272
 20
1086.059762
 30
0.0
 11
947.2059409999999
 21
1086.059762
 31
0.0
  0
ARC
  5
4EF
330
922
100
AcDbEntity
  8
DETAIL
  6
Continuous
 62
     5
100
AcDbCircle
 10
968.106878
 20
1123.059754
 30
0.0
 40
26.999999
100
AcDbArc
 50
0.0
 51
180.0
  0
LINE
  5
4F0
330
922
100
AcDbEntity
  8
NOTE
  6
Continuous
 62
     4
100
AcDbLine
 10
774.8126139999998
 20
1187.059762
 30
0.0
 11
764.8772639999998
 21
1218.877994
 31
0.0
  0
LINE
  5
4F1
330
922
100
AcDbEntity
  8
NOTE
  6
Continuous
 62
     4
100
AcDbLine
 10
774.8126139999998
 20
1187.059762
 30
0.0
 11
750.2992329999998
 21
1209.647484
 31
0.0
  0
POINT
  5
4F2
330
922
100
AcDbEntity
  8
DEFPOINTS
  6
Continuous
 62
     7
100
AcDbPoint
 10
750.814114
 20
1187.059762
 30
0.0
  0
LINE
  5
4F3
330
922
100
AcDbEntity
  8
NOTE
  6
Continuous
 62
     4
100
AcDbLine
 10
798.8111139999999
 20
1187.059762
 30
0.0
 11
750.814114
 21
1187.059762
 31
0.0
  0
CIRCLE
  5
4F4
330
922
100
AcDbEntity
  8
DETAIL
  6
Continuous
 62
     5
100
AcDbCircle
 10
774.8126139999998
 20
1187.059762
 30
0.0
 40
13.5
  0
LINE
  5
4F5
330
922
100
AcDbEntity
  8
DETAIL
  6
Continuous
 62
     5
100
AcDbLine
 10
888.1068800000001
 20
1308.059748
 30
0.0
 11
893.10688
 21
1313.059748
 31
0.0
  0
ARC
  5
4F6
330
922
100
AcDbEntity
  8
DETAIL
  6
Continuous
 62
     5
100
AcDbCircle
 10
908.10688
 20
1283.059749
 30
0.0
 40
10.0
100
AcDbArc
 50
90.0
 51
180.0
  0
CIRCLE
  5
4F7
330
922
100
AcDbEntity
  8
DETAIL
  6
Continuous
 62
     5
100
AcDbCircle
 10
923.106879
 20
1303.059749
 30
0.0
 40
3.0
  0
LINE
  5
4F8
330
922
100
AcDbEntity
  8
DETAIL
  6
Continuous
 62
     5
100
AcDbLine
 10
1128.106873
 20
1058.059756
 30
0.0
 11
1128.106873
 21
1308.059748
 31
0.0
  0
LINE
  5
4F9
330
922
100
AcDbEntity
  8
DETAIL
  6
Continuous
 62
     5
100
AcDbLine
 10
1118.106873
 20
1283.059749
 30
0.0
 11
1118.106873
 21
1083.059755
 31
0.0
  0
TEXT
  5
4FA
330
922
100
AcDbEntity
  8
SIZE
  6
Continuous
 62
    30
100
AcDbText
 10
1294.547197
 20
878.9259415714287
 30
0.0
 40
55.0
  1
102
 50
90.0
 41
0.9
 72
     1
 11
1294.547197
 21
937.854513
 31
0.0
100
AcDbText
  0
LINE
  5
4FB
330
922
100
AcDbEntity
  8
SIZE
  6
Continuous
 62
    30
100
AcDbLine
 10
1171.812607
 20
862.0597619999998
 30
0.0
 11
1339.547197
 21
862.0597619999998
 31
0.0
  0
LINE
  5
4FC
330
922
100
AcDbEntity
  8
SIZE
  6
Continuous
 62
    30
100
AcDbLine
 10
1171.812607
 20
862.0597619999998
 30
0.0
 11
1444.831071
 21
862.0597619999998
 31
0.0
  0
POINT
  5
4FD
330
922
100
AcDbEntity
  8
DEFPOINTS
  6
Continuous
 62
     7
100
AcDbPoint
 10
1151.812607
 20
862.0597619999998
 30
0.0
  0
POINT
  5
4FE
330
922
100
AcDbEntity
  8
DEFPOINTS
  6
Continuous
 62
     7
100
AcDbPoint
 10
1151.812607
 20
862.0597619999998
 30
0.0
  0
LINE
  5
4FF
330
922
100
AcDbEntity
  8
NOTE
  6
Continuous
 62
     4
100
AcDbLine
 10
1098.812609
 20
862.0597619999998
 30
0.0
 11
1058.812609
 21
862.0597619999998
 31
0.0
  0
POINT
  5
500
330
922
100
AcDbEntity
  8
DEFPOINTS
  6
Continuous
 62
     7
100
AcDbPoint
 10
1151.812607
 20
862.0597619999998
 30
0.0
  0
POINT
  5
501
330
922
100
AcDbEntity
  8
DEFPOINTS
  6
Continuous
 62
     7
100
AcDbPoint
 10
1151.812607
 20
862.0597619999998
 30
0.0
  0
POINT
  5
502
330
922
100
AcDbEntity
  8
DEFPOINTS
  6
Continuous
 62
     7
100
AcDbPoint
 10
1151.812607
 20
862.0597619999998
 30
0.0
  0
POINT
  5
503
330
922
100
AcDbEntity
  8
DEFPOINTS
  6
Continuous
 62
     7
100
AcDbPoint
 10
1151.812607
 20
862.0597619999998
 30
0.0
  0
POINT
  5
504
330
922
100
AcDbEntity
  8
DEFPOINTS
  6
Continuous
 62
     7
100
AcDbPoint
 10
1151.812607
 20
862.0597619999998
 30
0.0
  0
POINT
  5
505
330
922
100
AcDbEntity
  8
DEFPOINTS
  6
Continuous
 62
     7
100
AcDbPoint
 10
1151.812607
 20
862.0597619999998
 30
0.0
  0
LINE
  5
506
330
922
100
AcDbEntity
  8
DETAIL
  6
Continuous
 62
     5
100
AcDbLine
 10
1151.812607
 20
862.0597619999998
 30
0.0
 11
1151.812607
 21
992.0597619999997
 31
0.0
  0
CIRCLE
  5
507
330
922
100
AcDbEntity
  8
DETAIL
  6
Continuous
 62
     5
100
AcDbCircle
 10
1123.212608
 20
1007.059758
 30
0.0
 40
2.25
  0
LINE
  5
508
330
922
100
AcDbEntity
  8
DETAIL
  6
Continuous
 62
     5
100
AcDbLine
 10
1108.812608
 20
897.059761
 30
0.0
 11
1108.812608
 21
862.0597619999998
 31
0.0
  0
LINE
  5
509
330
922
100
AcDbEntity
  8
DETAIL
  6
Continuous
 62
     5
100
AcDbLine
 10
1053.81261
 20
864.3597619999997
 30
0.0
 11
1053.81261
 21
862.0597619999998
 31
0.0
  0
LINE
  5
50A
330
922
100
AcDbEntity
  8
DETAIL
  6
Continuous
 62
     5
100
AcDbLine
 10
1103.812608
 20
864.3597619999997
 30
0.0
 11
1103.812608
 21
862.0597619999998
 31
0.0
  0
LINE
  5
50B
330
922
100
AcDbEntity
  8
DETAIL
  6
Continuous
 62
     5
100
AcDbLine
 10
1048.81261
 20
897.059761
 30
0.0
 11
1048.81261
 21
862.0597619999998
 31
0.0
  0
LINE
  5
50C
330
922
100
AcDbEntity
  8
DETAIL
  6
Continuous
 62
     5
100
AcDbLine
 10
1048.81261
 20
897.059761
 30
0.0
 11
1108.812608
 21
897.059761
 31
0.0
  0
LINE
  5
50D
330
922
100
AcDbEntity
  8
DETAIL
  6
Continuous
 62
     5
100
AcDbLine
 10
1048.81261
 20
864.3597619999997
 30
0.0
 11
1108.812608
 21
864.3597619999997
 31
0.0
  0
LINE
  5
50E
330
922
100
AcDbEntity
  8
DETAIL
  6
Continuous
 62
     5
100
AcDbLine
 10
1048.81261
 20
862.0597619999998
 30
0.0
 11
1108.812608
 21
862.0597619999998
 31
0.0
  0
POINT
  5
50F
330
922
100
AcDbEntity
  8
DEFPOINTS
  6
Continuous
 62
     7
100
AcDbPoint
 10
1163.812607
 20
992.0597619999997
 30
0.0
  0
POINT
  5
510
330
922
100
AcDbEntity
  8
DEFPOINTS
  6
Continuous
 62
     7
100
AcDbPoint
 10
1163.812607
 20
992.0597619999997
 30
0.0
  0
POINT
  5
511
330
922
100
AcDbEntity
  8
DEFPOINTS
  6
Continuous
 62
     7
100
AcDbPoint
 10
1163.812607
 20
992.0597619999997
 30
0.0
  0
POINT
  5
512
330
922
100
AcDbEntity
  8
DEFPOINTS
  6
Continuous
 62
     7
100
AcDbPoint
 10
1163.812607
 20
992.0597619999997
 30
0.0
  0
POINT
  5
513
330
922
100
AcDbEntity
  8
DEFPOINTS
  6
Continuous
 62
     7
100
AcDbPoint
 10
1163.812607
 20
992.0724249999999
 30
0.0
  0
POINT
  5
514
330
922
100
AcDbEntity
  8
DEFPOINTS
  6
Continuous
 62
     7
100
AcDbPoint
 10
1047.812607
 20
1070.868096
 30
0.0
  0
POINT
  5
515
330
922
100
AcDbEntity
  8
DEFPOINTS
  6
Continuous
 62
     7
100
AcDbPoint
 10
1047.812607
 20
1070.880759
 30
0.0
  0
POINT
  5
516
330
922
100
AcDbEntity
  8
DEFPOINTS
  6
Continuous
 62
     7
100
AcDbPoint
 10
1065.004272
 20
1088.059762
 30
0.0
  0
LINE
  5
517
330
922
100
AcDbEntity
  8
DETAIL
  6
Continuous
 62
     5
100
AcDbLine
 10
1128.106873
 20
1058.059756
 30
0.0
 11
1123.106873
 21
1053.059756
 31
0.0
  0
LINE
  5
518
330
922
100
AcDbEntity
  8
NOTE
  6
Continuous
 62
     4
100
AcDbLine
 10
1047.812607
 20
1088.059762
 30
0.0
 11
1075.646693
 21
1069.719242
 31
0.0
  0
LINE
  5
519
330
922
100
AcDbEntity
  8
NOTE
  6
Continuous
 62
     4
100
AcDbLine
 10
1047.812607
 20
1088.059762
 30
0.0
 11
1062.747372
 21
1058.259362
 31
0.0
  0
LINE
  5
51A
330
922
100
AcDbEntity
  8
DETAIL
  6
Continuous
 62
     5
100
AcDbLine
 10
1075.106875
 20
1076.059755
 30
0.0
 11
1098.106874
 21
1076.059755
 31
0.0
  0
LINE
  5
51B
330
922
100
AcDbEntity
  8
DETAIL
  6
Continuous
 62
     5
100
AcDbLine
 10
1098.106874
 20
1053.059756
 30
0.0
 11
1098.106874
 21
1076.059755
 31
0.0
  0
LINE
  5
51C
330
922
100
AcDbEntity
  8
DETAIL
  6
Continuous
 62
     5
100
AcDbLine
 10
1098.106874
 20
1073.059756
 30
0.0
 11
1108.106874
 21
1073.059756
 31
0.0
  0
LINE
  5
51D
330
922
100
AcDbEntity
  8
NOTE
  6
Continuous
 62
     4
100
AcDbLine
 10
1047.812607
 20
1105.251428
 30
0.0
 11
1047.812607
 21
1070.868096
 31
0.0
  0
LINE
  5
51E
330
922
100
AcDbEntity
  8
DETAIL
  6
Continuous
 62
     5
100
AcDbLine
 10
1075.106875
 20
1073.059756
 30
0.0
 11
1075.106875
 21
1123.059754
 31
0.0
  0
LINE
  5
51F
330
922
100
AcDbEntity
  8
DETAIL
  6
Continuous
 62
     5
100
AcDbLine
 10
1123.106873
 20
1053.059756
 30
0.0
 11
1098.106874
 21
1053.059756
 31
0.0
  0
ARC
  5
520
330
922
100
AcDbEntity
  8
DETAIL
  6
Continuous
 62
     5
100
AcDbCircle
 10
1108.106874
 20
1083.059755
 30
0.0
 40
10.0
100
AcDbArc
 50
270.0
 51
0.0
  0
TEXT
  5
521
330
922
100
AcDbEntity
  8
SIZE
  6
Continuous
 62
    30
100
AcDbText
 10
1399.831071
 20
897.7927404285711
 30
0.0
 40
55.0
  1
224
 50
90.0
 41
0.9
 72
     1
 11
1399.831071
 21
962.6141689999997
 31
0.0
100
AcDbText
  0
LINE
  5
522
330
922
100
AcDbEntity
  8
SIZE
  6
Continuous
 62
    30
100
AcDbLine
 10
1414.831071
 20
872.0597619999999
 30
0.0
 11
1414.831071
 21
1076.059762
 31
0.0
  0
POINT
  5
523
330
922
100
AcDbEntity
  8
DEFPOINTS
  6
Continuous
 62
     7
100
AcDbPoint
 10
1309.547197
 20
862.0597619999998
 30
0.0
  0
LINE
  5
524
330
922
100
AcDbEntity
  8
SIZE
  6
Continuous
 62
    30
100
AcDbLine
 10
1309.547197
 20
867.0597619999997
 30
0.0
 11
1309.547197
 21
872.0597619999999
 31
0.0
  0
LINE
  5
525
330
922
100
AcDbEntity
  8
SIZE
  6
Continuous
 62
    30
100
AcDbLine
 10
1309.547197
 20
959.0597619999996
 30
0.0
 11
1309.547197
 21
954.0597619999998
 31
0.0
  0
CIRCLE
  5
526
330
922
100
AcDbEntity
  8
SIZE
  6
Continuous
 62
    30
100
AcDbCircle
 10
1309.547197
 20
964.0597619999999
 30
0.0
 40
5.0
  0
LINE
  5
527
330
922
100
AcDbEntity
  8
SIZE
  6
Continuous
 62
    30
100
AcDbLine
 10
1309.547197
 20
954.0597619999998
 30
0.0
 11
1309.547197
 21
872.0597619999999
 31
0.0
  0
LINE
  5
528
330
922
100
AcDbEntity
  8
SIZE
  6
Continuous
 62
    30
100
AcDbLine
 10
1414.831071
 20
867.0597619999997
 30
0.0
 11
1414.831071
 21
872.0597619999999
 31
0.0
  0
POINT
  5
529
330
922
100
AcDbEntity
  8
DEFPOINTS
  6
Continuous
 62
     7
100
AcDbPoint
 10
1414.831071
 20
1086.059762
 30
0.0
  0
LINE
  5
52A
330
922
100
AcDbEntity
  8
SIZE
  6
Continuous
 62
    30
100
AcDbLine
 10
1414.831071
 20
1081.059762
 30
0.0
 11
1414.831071
 21
1076.059762
 31
0.0
  0
CIRCLE
  5
52B
330
922
100
AcDbEntity
  8
SIZE
  6
Continuous
 62
    30
100
AcDbCircle
 10
1414.831071
 20
1086.059762
 30
0.0
 40
5.0
  0
TEXT
  5
52C
330
922
100
AcDbEntity
  8
SIZE
  6
Continuous
 62
    30
100
AcDbText
 10
1188.812606571429
 20
1380.236453
 30
0.0
 40
55.0
  1
107
 41
0.9
 72
     1
 11
1247.741178
 21
1380.236453
 31
0.0
100
AcDbText
  0
LINE
  5
52D
330
922
100
AcDbEntity
  8
SIZE
  6
Continuous
 62
    30
100
AcDbLine
 10
1163.812607
 20
1365.236453
 30
0.0
 11
1321.669749
 21
1365.236453
 31
0.0
  0
LINE
  5
52E
330
922
100
AcDbEntity
  8
DETAIL
  6
Continuous
 62
     5
100
AcDbLine
 10
1123.106873
 20
1313.059748
 30
0.0
 11
1128.106873
 21
1308.059748
 31
0.0
  0
CIRCLE
  5
52F
330
922
100
AcDbEntity
  8
DETAIL
  6
Continuous
 62
     5
100
AcDbCircle
 10
1093.106874
 20
1303.059749
 30
0.0
 40
3.0
  0
ARC
  5
530
330
922
100
AcDbEntity
  8
DETAIL
  6
Continuous
 62
     5
100
AcDbCircle
 10
1108.106874
 20
1283.059749
 30
0.0
 40
10.0
100
AcDbArc
 50
0.0
 51
90.0
  0
LINE
  5
531
330
922
100
AcDbEntity
  8
SIZE
  6
Continuous
 62
    30
100
AcDbLine
 10
1066.812607
 20
1365.236453
 30
0.0
 11
1153.812607
 21
1365.236453
 31
0.0
  0
POINT
  5
532
330
922
100
AcDbEntity
  8
DEFPOINTS
  6
Continuous
 62
     7
100
AcDbPoint
 10
1056.812607
 20
1365.236453
 30
0.0
  0
POINT
  5
533
330
922
100
AcDbEntity
  8
DEFPOINTS
  6
Continuous
 62
     7
100
AcDbPoint
 10
1056.812607
 20
1450.393097
 30
0.0
  0
LINE
  5
534
330
922
100
AcDbEntity
  8
SIZE
  6
Continuous
 62
    30
100
AcDbLine
 10
1061.812607
 20
1365.236453
 30
0.0
 11
1066.812607
 21
1365.236453
 31
0.0
  0
CIRCLE
  5
535
330
922
100
AcDbEntity
  8
SIZE
  6
Continuous
 62
    30
100
AcDbCircle
 10
1056.812607
 20
1365.236453
 30
0.0
 40
5.0
  0
LINE
  5
536
330
922
100
AcDbEntity
  8
SIZE
  6
Continuous
 62
    30
100
AcDbLine
 10
1056.812607
 20
1430.393097
 30
0.0
 11
1056.812607
 21
1335.236453
 31
0.0
  0
LINE
  5
537
330
922
100
AcDbEntity
  8
SIZE
  6
Continuous
 62
    30
100
AcDbLine
 10
1158.812607
 20
1365.236453
 30
0.0
 11
1153.812607
 21
1365.236453
 31
0.0
  0
CIRCLE
  5
538
330
922
100
AcDbEntity
  8
SIZE
  6
Continuous
 62
    30
100
AcDbCircle
 10
1163.812607
 20
1365.236453
 30
0.0
 40
5.0
  0
LINE
  5
539
330
922
100
AcDbEntity
  8
SIZE
  6
Continuous
 62
    30
100
AcDbLine
 10
1163.812607
 20
1472.059762
 30
0.0
 11
1163.812607
 21
1335.236453
 31
0.0
  0
CIRCLE
  5
53A
330
922
100
AcDbEntity
  8
DETAIL
  6
Continuous
 62
     5
100
AcDbCircle
 10
1056.812609
 20
1492.059775
 30
0.0
 40
18.999999
  0
LINE
  5
53B
330
922
100
AcDbEntity
  8
SIZE
  6
Continuous
 62
    30
100
AcDbLine
 10
1141.473903
 20
1573.774081
 30
0.0
 11
1018.812611
 21
1573.774081
 31
0.0
  0
LINE
  5
53C
330
922
100
AcDbEntity
  8
NOTE
  6
Continuous
 62
     4
100
AcDbLine
 10
1098.479272
 20
1492.059762
 30
0.0
 11
1015.145941
 21
1492.059762
 31
0.0
  0
LINE
  5
53D
330
922
100
AcDbEntity
  8
SIZE
  6
Continuous
 62
    30
100
AcDbLine
 10
596.007044
 20
1781.059734
 30
0.0
 11
596.007044
 21
1696.059737
 31
0.0
  0
LINE
  5
53E
330
922
100
AcDbEntity
  8
NOTE
  6
Continuous
 62
     4
100
AcDbLine
 10
728.81262
 20
1787.264909
 30
0.0
 11
728.81262
 21
1774.854558
 31
0.0
  0
LINE
  5
53F
330
922
100
AcDbEntity
  8
NOTE
  6
Continuous
 62
     4
100
AcDbLine
 10
1018.812611
 20
1787.264909
 30
0.0
 11
1018.812611
 21
1774.854558
 31
0.0
  0
LINE
  5
540
330
922
100
AcDbEntity
  8
DETAIL
  6
Continuous
 62
     5
100
AcDbLine
 10
1008.812611
 20
1711.059736
 30
0.0
 11
1008.812611
 21
1851.059732
 31
0.0
  0
LINE
  5
541
330
922
100
AcDbEntity
  8
DETAIL
  6
Continuous
 62
     5
100
AcDbLine
 10
738.81262
 20
1711.059736
 30
0.0
 11
738.81262
 21
1851.059732
 31
0.0
  0
TEXT
  5
542
330
922
100
AcDbEntity
  8
SIZE
  6
Continuous
 62
    30
100
AcDbText
 10
801.5856735714285
 20
1589.775338
 30
0.0
 40
55.0
  1
150
 41
0.9
 72
     1
 11
860.514245
 21
1589.775338
 31
0.0
100
AcDbText
  0
LINE
  5
543
330
922
100
AcDbEntity
  8
SIZE
  6
Continuous
 62
    30
100
AcDbLine
 10
808.8126179999997
 20
1573.774081
 30
0.0
 11
938.8126130000001
 21
1573.774081
 31
0.0
  0
LINE
  5
544
330
922
100
AcDbEntity
  8
DETAIL
  6
Continuous
 62
     5
100
AcDbLine
 10
743.812619
 20
1706.059736
 30
0.0
 11
1003.812611
 21
1706.059736
 31
0.0
  0
LINE
  5
545
330
922
100
AcDbEntity
  8
SIZE
  6
Continuous
 62
    30
100
AcDbLine
 10
798.8126179999998
 20
1669.854561
 30
0.0
 11
798.8126179999998
 21
1543.774081
 31
0.0
  0
LINE
  5
546
330
922
100
AcDbEntity
  8
SIZE
  6
Continuous
 62
    30
100
AcDbLine
 10
798.8126179999998
 20
1669.854561
 30
0.0
 11
798.8126179999998
 21
1543.774081
 31
0.0
  0
LINE
  5
547
330
922
100
AcDbEntity
  8
SIZE
  6
Continuous
 62
    30
100
AcDbLine
 10
728.81262
 20
1754.854558
 30
0.0
 11
728.81262
 21
1543.774081
 31
0.0
  0
LINE
  5
548
330
922
100
AcDbEntity
  8
SIZE
  6
Continuous
 62
    30
100
AcDbLine
 10
803.8126179999999
 20
1573.774081
 30
0.0
 11
808.8126179999997
 21
1573.774081
 31
0.0
  0
CIRCLE
  5
549
330
922
100
AcDbEntity
  8
SIZE
  6
Continuous
 62
    30
100
AcDbCircle
 10
798.8126179999998
 20
1573.774081
 30
0.0
 40
5.0
  0
POINT
  5
54A
330
922
100
AcDbEntity
  8
DEFPOINTS
  6
Continuous
 62
     7
100
AcDbPoint
 10
798.8126179999998
 20
1573.774081
 30
0.0
  0
LINE
  5
54B
330
922
100
AcDbEntity
  8
SIZE
  6
Continuous
 62
    30
100
AcDbLine
 10
733.81262
 20
1573.774081
 30
0.0
 11
738.81262
 21
1573.774081
 31
0.0
  0
CIRCLE
  5
54C
330
922
100
AcDbEntity
  8
SIZE
  6
Continuous
 62
    30
100
AcDbCircle
 10
728.81262
 20
1573.774081
 30
0.0
 40
5.0
  0
LINE
  5
54D
330
922
100
AcDbEntity
  8
SIZE
  6
Continuous
 62
    30
100
AcDbLine
 10
793.8126179999998
 20
1573.774081
 30
0.0
 11
788.8126179999998
 21
1573.774081
 31
0.0
  0
CIRCLE
  5
54E
330
922
100
AcDbEntity
  8
SIZE
  6
Continuous
 62
    30
100
AcDbCircle
 10
798.8126179999998
 20
1573.774081
 30
0.0
 40
5.0
  0
LINE
  5
54F
330
922
100
AcDbEntity
  8
SIZE
  6
Continuous
 62
    30
100
AcDbLine
 10
788.8126179999998
 20
1573.774081
 30
0.0
 11
738.81262
 21
1573.774081
 31
0.0
  0
POINT
  5
550
330
922
100
AcDbEntity
  8
DEFPOINTS
  6
Continuous
 62
     7
100
AcDbPoint
 10
596.007044
 20
1696.059737
 30
0.0
  0
LINE
  5
551
330
922
100
AcDbEntity
  8
SIZE
  6
Continuous
 62
    30
100
AcDbLine
 10
596.007044
 20
1691.059737
 30
0.0
 11
596.007044
 21
1686.059737
 31
0.0
  0
LINE
  5
552
330
922
100
AcDbEntity
  8
SIZE
  6
Continuous
 62
    30
100
AcDbLine
 10
596.007044
 20
1686.059737
 30
0.0
 11
596.007044
 21
1676.059737
 31
0.0
  0
LINE
  5
553
330
922
100
AcDbEntity
  8
SIZE
  6
Continuous
 62
    30
100
AcDbLine
 10
596.007044
 20
1776.059734
 30
0.0
 11
596.007044
 21
1771.059734
 31
0.0
  0
LINE
  5
554
330
922
100
AcDbEntity
  8
SIZE
  6
Continuous
 62
    30
100
AcDbLine
 10
596.007044
 20
1771.059734
 30
0.0
 11
596.007044
 21
1761.059733999999
 31
0.0
  0
POINT
  5
555
330
922
100
AcDbEntity
  8
DEFPOINTS
  6
Continuous
 62
     7
100
AcDbPoint
 10
792.6074419999999
 20
1696.059737
 30
0.0
  0
POINT
  5
556
330
922
100
AcDbEntity
  8
DEFPOINTS
  6
Continuous
 62
     7
100
AcDbPoint
 10
798.8126179999998
 20
1689.854561
 30
0.0
  0
POINT
  5
557
330
922
100
AcDbEntity
  8
DEFPOINTS
  6
Continuous
 62
     7
100
AcDbPoint
 10
798.8126179999998
 20
1689.854561
 30
0.0
  0
POINT
  5
558
330
922
100
AcDbEntity
  8
DEFPOINTS
  6
Continuous
 62
     7
100
AcDbPoint
 10
728.81262
 20
1774.854558
 30
0.0
  0
LINE
  5
559
330
922
100
AcDbEntity
  8
NOTE
  6
Continuous
 62
     4
100
AcDbLine
 10
805.017793
 20
1696.059737
 30
0.0
 11
792.6074419999999
 21
1696.059737
 31
0.0
  0
LINE
  5
55A
330
922
100
AcDbEntity
  8
NOTE
  6
Continuous
 62
     4
100
AcDbLine
 10
798.8126179999998
 20
1702.264912
 30
0.0
 11
798.8126179999998
 21
1689.854561
 31
0.0
  0
CIRCLE
  5
55B
330
922
100
AcDbEntity
  8
DETAIL
  6
Continuous
 62
     5
100
AcDbCircle
 10
798.8126179999998
 20
1696.059737
 30
0.0
 40
1.45
  0
ARC
  5
55C
330
922
100
AcDbEntity
  8
DETAIL
  6
Continuous
 62
     5
100
AcDbCircle
 10
743.812619
 20
1711.059736
 30
0.0
 40
5.0
100
AcDbArc
 50
180.0
 51
270.0
  0
LINE
  5
55D
330
922
100
AcDbEntity
  8
SIZE
  6
Continuous
 62
    30
100
AcDbLine
 10
1018.812611
 20
1754.854558
 30
0.0
 11
1018.812611
 21
1543.774081
 31
0.0
  0
LINE
  5
55E
330
922
100
AcDbEntity
  8
SIZE
  6
Continuous
 62
    30
100
AcDbLine
 10
948.8126130000001
 20
1669.854561
 30
0.0
 11
948.8126130000001
 21
1543.774081
 31
0.0
  0
LINE
  5
55F
330
922
100
AcDbEntity
  8
SIZE
  6
Continuous
 62
    30
100
AcDbLine
 10
948.8126130000001
 20
1669.854561
 30
0.0
 11
948.8126130000001
 21
1543.774081
 31
0.0
  0
POINT
  5
560
330
922
100
AcDbEntity
  8
DEFPOINTS
  6
Continuous
 62
     7
100
AcDbPoint
 10
1018.812611
 20
1573.774081
 30
0.0
  0
LINE
  5
561
330
922
100
AcDbEntity
  8
SIZE
  6
Continuous
 62
    30
100
AcDbLine
 10
1013.812611
 20
1573.774081
 30
0.0
 11
1008.812611
 21
1573.774081
 31
0.0
  0
CIRCLE
  5
562
330
922
100
AcDbEntity
  8
SIZE
  6
Continuous
 62
    30
100
AcDbCircle
 10
1018.812611
 20
1573.774081
 30
0.0
 40
5.0
  0
LINE
  5
563
330
922
100
AcDbEntity
  8
SIZE
  6
Continuous
 62
    30
100
AcDbLine
 10
953.812613
 20
1573.774081
 30
0.0
 11
958.812613
 21
1573.774081
 31
0.0
  0
CIRCLE
  5
564
330
922
100
AcDbEntity
  8
SIZE
  6
Continuous
 62
    30
100
AcDbCircle
 10
948.8126130000001
 20
1573.774081
 30
0.0
 40
5.0
  0
LINE
  5
565
330
922
100
AcDbEntity
  8
SIZE
  6
Continuous
 62
    30
100
AcDbLine
 10
958.812613
 20
1573.774081
 30
0.0
 11
1008.812611
 21
1573.774081
 31
0.0
  0
POINT
  5
566
330
922
100
AcDbEntity
  8
DEFPOINTS
  6
Continuous
 62
     7
100
AcDbPoint
 10
948.8126130000001
 20
1573.774081
 30
0.0
  0
LINE
  5
567
330
922
100
AcDbEntity
  8
SIZE
  6
Continuous
 62
    30
100
AcDbLine
 10
943.812613
 20
1573.774081
 30
0.0
 11
938.8126130000001
 21
1573.774081
 31
0.0
  0
CIRCLE
  5
568
330
922
100
AcDbEntity
  8
SIZE
  6
Continuous
 62
    30
100
AcDbCircle
 10
948.8126130000001
 20
1573.774081
 30
0.0
 40
5.0
  0
POINT
  5
569
330
922
100
AcDbEntity
  8
DEFPOINTS
  6
Continuous
 62
     7
100
AcDbPoint
 10
1018.812611
 20
1774.854558
 30
0.0
  0
POINT
  5
56A
330
922
100
AcDbEntity
  8
DEFPOINTS
  6
Continuous
 62
     7
100
AcDbPoint
 10
948.8126130000001
 20
1689.854561
 30
0.0
  0
POINT
  5
56B
330
922
100
AcDbEntity
  8
DEFPOINTS
  6
Continuous
 62
     7
100
AcDbPoint
 10
948.8126130000001
 20
1689.854561
 30
0.0
  0
LINE
  5
56C
330
922
100
AcDbEntity
  8
NOTE
  6
Continuous
 62
     4
100
AcDbLine
 10
955.017789
 20
1696.059737
 30
0.0
 11
942.6074380000001
 21
1696.059737
 31
0.0
  0
LINE
  5
56D
330
922
100
AcDbEntity
  8
NOTE
  6
Continuous
 62
     4
100
AcDbLine
 10
948.8126130000001
 20
1702.264912
 30
0.0
 11
948.8126130000001
 21
1689.854561
 31
0.0
  0
ARC
  5
56E
330
922
100
AcDbEntity
  8
DETAIL
  6
Continuous
 62
     5
100
AcDbCircle
 10
1003.812611
 20
1711.059736
 30
0.0
 40
5.0
100
AcDbArc
 50
270.0
 51
0.0
  0
CIRCLE
  5
56F
330
922
100
AcDbEntity
  8
DETAIL
  6
Continuous
 62
     5
100
AcDbCircle
 10
948.8126130000001
 20
1696.059737
 30
0.0
 40
1.45
  0
TEXT
  5
570
330
922
100
AcDbEntity
  8
SIZE
  6
Continuous
 62
    30
100
AcDbText
 10
782.4578768571428
 20
1927.461736
 30
0.0
 40
55.0
  1
270
 41
0.9
 72
     1
 11
846.100734
 21
1927.461736
 31
0.0
100
AcDbText
  0
LINE
  5
571
330
922
100
AcDbEntity
  8
SIZE
  6
Continuous
 62
    30
100
AcDbLine
 10
748.81262
 20
1912.461736
 30
0.0
 11
998.8126109999999
 21
1912.461736
 31
0.0
  0
LINE
  5
572
330
922
100
AcDbEntity
  8
DETAIL
  6
Continuous
 62
     5
100
AcDbLine
 10
743.812619
 20
1856.059732
 30
0.0
 11
1003.812611
 21
1856.059732
 31
0.0
  0
LINE
  5
573
330
922
100
AcDbEntity
  8
SIZE
  6
Continuous
 62
    30
100
AcDbLine
 10
738.81262
 20
1871.059732
 30
0.0
 11
738.81262
 21
1942.461736
 31
0.0
  0
LINE
  5
574
330
922
100
AcDbEntity
  8
SIZE
  6
Continuous
 62
    30
100
AcDbLine
 10
596.007044
 20
1786.059734
 30
0.0
 11
596.007044
 21
1791.059734
 31
0.0
  0
LINE
  5
575
330
922
100
AcDbEntity
  8
SIZE
  6
Continuous
 62
    30
100
AcDbLine
 10
596.007044
 20
1791.059734
 30
0.0
 11
596.007044
 21
1801.059734
 31
0.0
  0
POINT
  5
576
330
922
100
AcDbEntity
  8
DEFPOINTS
  6
Continuous
 62
     7
100
AcDbPoint
 10
596.007044
 20
1781.059734
 30
0.0
  0
LINE
  5
577
330
922
100
AcDbEntity
  8
SIZE
  6
Continuous
 62
    30
100
AcDbLine
 10
596.007044
 20
1871.059731
 30
0.0
 11
596.007044
 21
1876.059730999999
 31
0.0
  0
LINE
  5
578
330
922
100
AcDbEntity
  8
SIZE
  6
Continuous
 62
    30
100
AcDbLine
 10
596.007044
 20
1866.059731
 30
0.0
 11
596.007044
 21
1781.059734
 31
0.0
  0
LINE
  5
579
330
922
100
AcDbEntity
  8
SIZE
  6
Continuous
 62
    30
100
AcDbLine
 10
596.007044
 20
1876.059730999999
 30
0.0
 11
596.007044
 21
1886.059731
 31
0.0
  0
SOLID
  5
57A
330
922
100
AcDbEntity
  8
NOTE
  6
Continuous
 62
     4
100
AcDbTrace
 10
774.0572860000002
 20
1816.354291
 30
0.0
 11
773.077209
 21
1813.988178
 31
0.0
 12
773.077209
 22
1818.720405
 32
0.0
 13
773.077209
 23
1818.720405
 33
0.0
  0
SOLID
  5
57B
330
922
100
AcDbEntity
  8
NOTE
  6
Continuous
 62
     4
100
AcDbTrace
 10
770.711096
 20
1813.008101
 30
0.0
 11
773.077209
 21
1818.720405
 31
0.0
 12
773.077209
 22
1813.988178
 32
0.0
 13
773.077209
 23
1813.988178
 33
0.0
  0
SOLID
  5
57C
330
922
100
AcDbEntity
  8
NOTE
  6
Continuous
 62
     4
100
AcDbTrace
 10
773.077209
 20
1818.720405
 30
0.0
 11
770.711096
 21
1813.008101
 31
0.0
 12
770.711096
 22
1819.700481
 32
0.0
 13
770.711096
 23
1819.700481
 33
0.0
  0
SOLID
  5
57D
330
922
100
AcDbEntity
  8
NOTE
  6
Continuous
 62
     4
100
AcDbTrace
 10
768.344982
 20
1813.988178
 30
0.0
 11
770.711096
 21
1819.700481
 31
0.0
 12
770.711096
 22
1813.008101
 32
0.0
 13
770.711096
 23
1813.008101
 33
0.0
  0
SOLID
  5
57E
330
922
100
AcDbEntity
  8
NOTE
  6
Continuous
 62
     4
100
AcDbTrace
 10
770.711096
 20
1819.700481
 30
0.0
 11
768.344982
 21
1813.988178
 31
0.0
 12
768.344982
 22
1818.720405
 32
0.0
 13
768.344982
 23
1818.720405
 33
0.0
  0
SOLID
  5
57F
330
922
100
AcDbEntity
  8
NOTE
  6
Continuous
 62
     4
100
AcDbTrace
 10
767.3649059999997
 20
1816.354291
 30
0.0
 11
768.344982
 21
1818.720405
 31
0.0
 12
768.344982
 22
1813.988178
 32
0.0
 13
768.344982
 23
1813.988178
 33
0.0
  0
CIRCLE
  5
580
330
922
100
AcDbEntity
  8
NOTE
  6
Continuous
 62
     4
100
AcDbCircle
 10
770.711096
 20
1816.354291
 30
0.0
 40
3.346189999999998
  0
POINT
  5
581
330
922
100
AcDbEntity
  8
DEFPOINTS
  6
Continuous
 62
     7
100
AcDbPoint
 10
722.6074439999998
 20
1781.059734
 30
0.0
  0
POINT
  5
582
330
922
100
AcDbEntity
  8
DEFPOINTS
  6
Continuous
 62
     7
100
AcDbPoint
 10
722.6074439999998
 20
1781.059734
 30
0.0
  0
POINT
  5
583
330
922
100
AcDbEntity
  8
DEFPOINTS
  6
Continuous
 62
     7
100
AcDbPoint
 10
792.6074419999999
 20
1866.059731
 30
0.0
  0
POINT
  5
584
330
922
100
AcDbEntity
  8
DEFPOINTS
  6
Continuous
 62
     7
100
AcDbPoint
 10
738.81262
 20
1851.059732
 30
0.0
  0
LINE
  5
585
330
922
100
AcDbEntity
  8
SIZE
  6
Continuous
 62
    30
100
AcDbLine
 10
743.81262
 20
1912.461736
 30
0.0
 11
748.81262
 21
1912.461736
 31
0.0
  0
CIRCLE
  5
586
330
922
100
AcDbEntity
  8
SIZE
  6
Continuous
 62
    30
100
AcDbCircle
 10
738.81262
 20
1912.461736
 30
0.0
 40
5.0
  0
LINE
  5
587
330
922
100
AcDbEntity
  8
NOTE
  6
Continuous
 62
     4
100
AcDbLine
 10
735.0177949999999
 20
1781.059734
 30
0.0
 11
722.6074439999998
 21
1781.059734
 31
0.0
  0
LINE
  5
588
330
922
100
AcDbEntity
  8
NOTE
  6
Continuous
 62
     4
100
AcDbLine
 10
805.017793
 20
1866.059731
 30
0.0
 11
792.6074419999999
 21
1866.059731
 31
0.0
  0
LINE
  5
589
330
922
100
AcDbEntity
  8
NOTE
  6
Continuous
 62
     4
100
AcDbLine
 10
798.8126179999998
 20
1872.264907
 30
0.0
 11
798.8126179999998
 21
1859.854556
 31
0.0
  0
CIRCLE
  5
58A
330
922
100
AcDbEntity
  8
DETAIL
  6
Continuous
 62
     5
100
AcDbCircle
 10
798.8126179999998
 20
1866.059731
 30
0.0
 40
1.45
  0
ARC
  5
58B
330
922
100
AcDbEntity
  8
DETAIL
  6
Continuous
 62
     5
100
AcDbCircle
 10
743.812619
 20
1851.059732
 30
0.0
 40
5.0
100
AcDbArc
 50
90.0
 51
180.0
  0
CIRCLE
  5
58C
330
922
100
AcDbEntity
  8
DETAIL
  6
Continuous
 62
     5
100
AcDbCircle
 10
728.81262
 20
1781.059734
 30
0.0
 40
1.45
  0
LINE
  5
58D
330
922
100
AcDbEntity
  8
SIZE
  6
Continuous
 62
    30
100
AcDbLine
 10
1008.812611
 20
1871.059732
 30
0.0
 11
1008.812611
 21
1942.461736
 31
0.0
  0
LINE
  5
58E
330
922
100
AcDbEntity
  8
NOTE
  6
Continuous
 62
     4
100
AcDbLine
 10
948.8126130000001
 20
1866.059731
 30
0.0
 11
963.9566979999999
 21
1895.754306
 31
0.0
  0
LINE
  5
58F
330
922
100
AcDbEntity
  8
NOTE
  6
Continuous
 62
     4
100
AcDbLine
 10
948.8126130000001
 20
1866.059731
 30
0.0
 11
976.7750620000001
 21
1884.203945
 31
0.0
  0
POINT
  5
590
330
922
100
AcDbEntity
  8
DEFPOINTS
  6
Continuous
 62
     7
100
AcDbPoint
 10
1008.812611
 20
1912.461736
 30
0.0
  0
POINT
  5
591
330
922
100
AcDbEntity
  8
DEFPOINTS
  6
Continuous
 62
     7
100
AcDbPoint
 10
1008.812611
 20
1851.059732
 30
0.0
  0
LINE
  5
592
330
922
100
AcDbEntity
  8
SIZE
  6
Continuous
 62
    30
100
AcDbLine
 10
1003.812611
 20
1912.461736
 30
0.0
 11
998.8126109999999
 21
1912.461736
 31
0.0
  0
CIRCLE
  5
593
330
922
100
AcDbEntity
  8
SIZE
  6
Continuous
 62
    30
100
AcDbCircle
 10
1008.812611
 20
1912.461736
 30
0.0
 40
5.0
  0
LINE
  5
594
330
922
100
AcDbEntity
  8
NOTE
  6
Continuous
 62
     4
100
AcDbLine
 10
955.017789
 20
1866.059731
 30
0.0
 11
942.6074380000001
 21
1866.059731
 31
0.0
  0
LINE
  5
595
330
922
100
AcDbEntity
  8
NOTE
  6
Continuous
 62
     4
100
AcDbLine
 10
948.8126130000001
 20
1872.264907
 30
0.0
 11
948.8126130000001
 21
1859.854556
 31
0.0
  0
LINE
  5
596
330
922
100
AcDbEntity
  8
NOTE
  6
Continuous
 62
     4
100
AcDbLine
 10
1025.017787
 20
1781.059734
 30
0.0
 11
1012.607436
 21
1781.059734
 31
0.0
  0
ARC
  5
597
330
922
100
AcDbEntity
  8
DETAIL
  6
Continuous
 62
     5
100
AcDbCircle
 10
1003.812611
 20
1851.059732
 30
0.0
 40
5.0
100
AcDbArc
 50
0.0
 51
90.0
  0
CIRCLE
  5
598
330
922
100
AcDbEntity
  8
DETAIL
  6
Continuous
 62
     5
100
AcDbCircle
 10
948.8126130000001
 20
1866.059731
 30
0.0
 40
1.45
  0
CIRCLE
  5
599
330
922
100
AcDbEntity
  8
DETAIL
  6
Continuous
 62
     5
100
AcDbCircle
 10
1018.812611
 20
1781.059734
 30
0.0
 40
1.45
  0
LINE
  5
59A
330
922
100
AcDbEntity
  8
NOTE
  6
Continuous
 62
     4
100
AcDbLine
 10
1302.995485
 20
1850.958762
 30
0.0
 11
1056.812607
 21
1492.059762
 31
0.0
  0
TEXT
  5
59B
330
922
100
AcDbEntity
  8
NOTE
  6
Continuous
 62
     4
100
AcDbText
 10
1245.95279
 20
1567.279226
 30
0.0
 40
46.666665
  1
後吸込口
 50
0.000003
 41
0.8404759999999999
  7
STANDARD1
100
AcDbText
  0
TEXT
  5
59C
330
922
100
AcDbEntity
  8
SIZE
  6
Continuous
 62
    30
100
AcDbText
 10
1046.331046428571
 20
1588.774081
 30
0.0
 40
55.0
  1
70
 41
0.9
 72
     1
 11
1086.402475
 21
1588.774081
 31
0.0
100
AcDbText
  0
CIRCLE
  5
59D
330
922
100
AcDbEntity
  8
DETAIL
  6
Continuous
 62
     5
100
AcDbCircle
 10
1056.812609
 20
1492.186341
 30
0.0
 40
14.0
  0
LINE
  5
59E
330
922
100
AcDbEntity
  8
NOTE
  6
Continuous
 62
     4
100
AcDbLine
 10
1056.812607
 20
1492.059762
 30
0.0
 11
1071.956691
 21
1521.754336
 31
0.0
  0
LINE
  5
59F
330
922
100
AcDbEntity
  8
NOTE
  6
Continuous
 62
     4
100
AcDbLine
 10
1056.812607
 20
1492.059762
 30
0.0
 11
1084.775056
 21
1510.203975
 31
0.0
  0
POINT
  5
5A0
330
922
100
AcDbEntity
  8
DEFPOINTS
  6
Continuous
 62
     7
100
AcDbPoint
 10
1098.479272
 20
1492.059762
 30
0.0
  0
POINT
  5
5A1
330
922
100
AcDbEntity
  8
DEFPOINTS
  6
Continuous
 62
     7
100
AcDbPoint
 10
1163.812607
 20
1492.059762
 30
0.0
  0
LINE
  5
5A2
330
922
100
AcDbEntity
  8
NOTE
  6
Continuous
 62
     4
100
AcDbLine
 10
1322.935293
 20
1691.747522
 30
0.0
 11
1386.935291
 21
1691.747522
 31
0.0
  0
LINE
  5
5A3
330
922
100
AcDbEntity
  8
NOTE
  6
Continuous
 62
     4
100
AcDbLine
 10
1322.935293
 20
1651.747523
 30
0.0
 11
1386.935291
 21
1651.747523
 31
0.0
  0
LINE
  5
5A4
330
922
100
AcDbEntity
  8
NOTE
  6
Continuous
 62
     4
100
AcDbLine
 10
1322.935293
 20
1715.747521
 30
0.0
 11
1322.935293
 21
1691.747522
 31
0.0
  0
LINE
  5
5A5
330
922
100
AcDbEntity
  8
NOTE
  6
Continuous
 62
     4
100
AcDbLine
 10
1274.935295
 20
1671.747523
 30
0.0
 11
1322.935293
 21
1627.747524
 31
0.0
  0
LINE
  5
5A6
330
922
100
AcDbEntity
  8
NOTE
  6
Continuous
 62
     4
100
AcDbLine
 10
1322.935293
 20
1651.747523
 30
0.0
 11
1322.935293
 21
1627.747524
 31
0.0
  0
LINE
  5
5A7
330
922
100
AcDbEntity
  8
NOTE
  6
Continuous
 62
     4
100
AcDbLine
 10
1274.935295
 20
1671.747523
 30
0.0
 11
1322.935293
 21
1715.747521
 31
0.0
  0
LINE
  5
5A8
330
922
100
AcDbEntity
  8
NOTE
  6
Continuous
 62
     4
100
AcDbLine
 10
1386.935291
 20
1691.747522
 30
0.0
 11
1386.935291
 21
1651.747523
 31
0.0
  0
LINE
  5
5A9
330
922
100
AcDbEntity
  8
DETAIL
  6
Continuous
 62
     5
100
AcDbLine
 10
1163.812607
 20
1994.759727
 30
0.0
 11
1170.312607
 21
1994.759727
 31
0.0
  0
LINE
  5
5AA
330
922
100
AcDbEntity
  8
DETAIL
  6
Continuous
 62
     5
100
AcDbLine
 10
1163.812607
 20
1989.359728
 30
0.0
 11
1170.312607
 21
1989.359728
 31
0.0
  0
LINE
  5
5AB
330
922
100
AcDbEntity
  8
DETAIL
  6
Continuous
 62
     5
100
AcDbLine
 10
1163.812607
 20
1988.559728
 30
0.0
 11
1170.312607
 21
1988.559728
 31
0.0
  0
ARC
  5
5AC
330
922
100
AcDbEntity
  8
DETAIL
  6
Continuous
 62
     5
100
AcDbCircle
 10
1170.312607
 20
1992.059728
 30
0.0
 40
3.5
100
AcDbArc
 50
270.0
 51
90.0
  0
ARC
  5
5AD
330
922
100
AcDbEntity
  8
DETAIL
  6
Continuous
 62
     5
100
AcDbCircle
 10
1170.312607
 20
1992.059728
 30
0.0
 40
2.7
100
AcDbArc
 50
270.0
 51
90.0
  0
LINE
  5
5AE
330
922
100
AcDbEntity
  8
DETAIL
  6
Continuous
 62
     5
100
AcDbLine
 10
1170.312607
 20
1995.559727
 30
0.0
 11
1163.812607
 21
1995.559727
 31
0.0
  0
LINE
  5
5AF
330
922
100
AcDbEntity
  8
SIZE
  6
Continuous
 62
    30
100
AcDbLine
 10
1677.19145
 20
1482.059762
 30
0.0
 11
1677.19145
 21
872.0597619999999
 31
0.0
  0
TEXT
  5
5B0
330
922
100
AcDbEntity
  8
SIZE
  6
Continuous
 62
    30
100
AcDbText
 10
1662.19145
 20
1113.416904857142
 30
0.0
 40
55.0
  1
630
 50
90.0
 41
0.9
 72
     1
 11
1662.19145
 21
1177.059762
 31
0.0
100
AcDbText
  0
LINE
  5
5B1
330
922
100
AcDbEntity
  8
SIZE
  6
Continuous
 62
    30
100
AcDbLine
 10
1536.493507
 20
1078.059762
 30
0.0
 11
1536.493507
 21
872.0597619999999
 31
0.0
  0
POINT
  5
5B2
330
922
100
AcDbEntity
  8
DEFPOINTS
  6
Continuous
 62
     7
100
AcDbPoint
 10
1536.493507
 20
862.0597619999998
 30
0.0
  0
LINE
  5
5B3
330
922
100
AcDbEntity
  8
SIZE
  6
Continuous
 62
    30
100
AcDbLine
 10
1536.493507
 20
867.0597619999997
 30
0.0
 11
1536.493507
 21
872.0597619999999
 31
0.0
  0
POINT
  5
5B4
330
922
100
AcDbEntity
  8
DEFPOINTS
  6
Continuous
 62
     7
100
AcDbPoint
 10
1677.19145
 20
862.0597619999998
 30
0.0
  0
LINE
  5
5B5
330
922
100
AcDbEntity
  8
SIZE
  6
Continuous
 62
    30
100
AcDbLine
 10
1677.19145
 20
867.0597619999997
 30
0.0
 11
1677.19145
 21
872.0597619999999
 31
0.0
  0
LINE
  5
5B6
330
922
100
AcDbEntity
  8
SIZE
  6
Continuous
 62
    30
100
AcDbLine
 10
1536.493507
 20
1083.059762
 30
0.0
 11
1536.493507
 21
1078.059762
 31
0.0
  0
CIRCLE
  5
5B7
330
922
100
AcDbEntity
  8
SIZE
  6
Continuous
 62
    30
100
AcDbCircle
 10
1536.493507
 20
1088.059762
 30
0.0
 40
5.0
  0
LINE
  5
5B8
330
922
100
AcDbEntity
  8
SIZE
  6
Continuous
 62
    30
100
AcDbLine
 10
1837.40832
 20
867.0597619999997
 30
0.0
 11
1837.40832
 21
872.0597619999999
 31
0.0
  0
POINT
  5
5B9
330
922
100
AcDbEntity
  8
DEFPOINTS
  6
Continuous
 62
     7
100
AcDbPoint
 10
2008.433543
 20
862.0597619999998
 30
0.0
  0
LINE
  5
5BA
330
922
100
AcDbEntity
  8
SIZE
  6
Continuous
 62
    30
100
AcDbLine
 10
2008.433543
 20
867.0597619999997
 30
0.0
 11
2008.433543
 21
872.0597619999999
 31
0.0
  0
TEXT
  5
5BB
330
922
100
AcDbEntity
  8
SIZE
  6
Continuous
 62
    30
100
AcDbText
 10
1822.40832
 20
1679.559735
 30
0.0
 40
55.0
  1
1800
 50
90.0
 41
0.9
 72
     1
 11
1822.40832
 21
1762.059735
 31
0.0
100
AcDbText
  0
LINE
  5
5BC
330
922
100
AcDbEntity
  8
SIZE
  6
Continuous
 62
    30
100
AcDbLine
 10
1677.19145
 20
1487.059762
 30
0.0
 11
1677.19145
 21
1482.059762
 31
0.0
  0
CIRCLE
  5
5BD
330
922
100
AcDbEntity
  8
SIZE
  6
Continuous
 62
    30
100
AcDbCircle
 10
1677.19145
 20
1492.059762
 30
0.0
 40
5.0
  0
TEXT
  5
5BE
330
922
100
AcDbEntity
  8
SIZE
  6
Continuous
 62
    30
100
AcDbText
 10
1993.433543
 20
1774.845445285714
 30
0.0
 40
55.0
  1
2000
 50
90.0
 41
0.9
 72
     1
 11
1993.433543
 21
1862.059731
 31
0.0
100
AcDbText
  0
LINE
  5
5BF
330
922
100
AcDbEntity
  8
NOTE
  6
Continuous
 62
     4
100
AcDbLine
 10
586.0458269999997
 20
2906.122357
 30
0.0
 11
678.8126219999997
 21
2762.059707
 31
0.0
  0
LINE
  5
5C0
330
922
100
AcDbEntity
  8
NOTE
  6
Continuous
 62
     4
100
AcDbLine
 10
548.789363
 20
2767.465711
 30
0.0
 11
612.789361
 21
2767.465711
 31
0.0
  0
LINE
  5
5C1
330
922
100
AcDbEntity
  8
NOTE
  6
Continuous
 62
     4
100
AcDbLine
 10
548.789363
 20
2727.465712
 30
0.0
 11
612.789361
 21
2727.465712
 31
0.0
  0
TEXT
  5
5C2
330
922
100
AcDbEntity
  8
NOTE
  6
Continuous
 62
     4
100
AcDbText
 10
457.746149
 20
2615.702472
 30
0.0
 40
46.666665
  1
空気吹出
 50
0.000003
 41
0.8404759999999999
  7
STANDARD1
100
AcDbText
  0
TEXT
  5
5C3
330
922
100
AcDbEntity
  8
NOTE
  6
Continuous
 62
     4
100
AcDbText
 10
249.148558
 20
2919.470058
 30
0.0
 40
64.0
  1
プレナム室
 50
359.999997
 41
0.85
  7
STANDARD1
100
AcDbText
  0
TEXT
  5
5C4
330
922
100
AcDbEntity
  8
NOTE
  6
Continuous
 62
     4
100
AcDbText
 10
228.745259
 20
2830.110259
 30
0.0
 40
64.0
  1
(別売部品)
 50
359.999997
 41
0.85
  7
STANDARD1
100
AcDbText
  0
LINE
  5
5C5
330
922
100
AcDbEntity
  8
NOTE
  6
Continuous
 62
     4
100
AcDbLine
 10
218.62828
 20
2906.122357
 30
0.0
 11
586.0458269999997
 21
2906.122357
 31
0.0
  0
LINE
  5
5C6
330
922
100
AcDbEntity
  8
NOTE
  6
Continuous
 62
     4
100
AcDbLine
 10
548.789363
 20
2791.46571
 30
0.0
 11
548.789363
 21
2767.465711
 31
0.0
  0
LINE
  5
5C7
330
922
100
AcDbEntity
  8
NOTE
  6
Continuous
 62
     4
100
AcDbLine
 10
548.789363
 20
2727.465712
 30
0.0
 11
548.789363
 21
2703.465713
 31
0.0
  0
LINE
  5
5C8
330
922
100
AcDbEntity
  8
NOTE
  6
Continuous
 62
     4
100
AcDbLine
 10
500.7893639999998
 20
2747.465712
 30
0.0
 11
548.789363
 21
2703.465713
 31
0.0
  0
LINE
  5
5C9
330
922
100
AcDbEntity
  8
NOTE
  6
Continuous
 62
     4
100
AcDbLine
 10
500.7893639999998
 20
2747.465712
 30
0.0
 11
548.789363
 21
2791.46571
 31
0.0
  0
TEXT
  5
5CA
330
922
100
AcDbEntity
  8
NOTE
  6
Continuous
 62
     4
100
AcDbText
 10
1232.031194
 20
2198.589172
 30
0.0
 40
64.0
  1
6-%%C2.9
 41
0.9
100
AcDbText
  0
LINE
  5
5CB
330
922
100
AcDbEntity
  8
NOTE
  6
Continuous
 62
     4
100
AcDbLine
 10
1235.36977
 20
2184.075257
 30
0.0
 11
1531.884338
 21
2184.075257
 31
0.0
  0
TEXT
  5
5CC
330
922
100
AcDbEntity
  8
ETC
  6
Continuous
 62
    61
100
AcDbText
 10
1485.009766
 20
2984.614201000001
 30
0.0
 40
64.0
  1
RF-P10A_4
 41
0.9
100
AcDbText
  0
LINE
  5
5CD
330
922
100
AcDbEntity
  8
SIZE
  6
Continuous
 62
    30
100
AcDbLine
 10
1183.812607
 20
2862.059701
 30
0.0
 11
2038.433543
 21
2862.059701
 31
0.0
  0
LINE
  5
5CE
330
922
100
AcDbEntity
  8
SIZE
  6
Continuous
 62
    30
100
AcDbLine
 10
1183.812607
 20
2862.059701
 30
0.0
 11
1867.40832
 21
2862.059701
 31
0.0
  0
LINE
  5
5CF
330
922
100
AcDbEntity
  8
SIZE
  6
Continuous
 62
    30
100
AcDbLine
 10
1183.812607
 20
2662.059707
 30
0.0
 11
1867.40832
 21
2662.059707
 31
0.0
  0
LINE
  5
5D0
330
922
100
AcDbEntity
  8
SIZE
  6
Continuous
 62
    30
100
AcDbLine
 10
1183.812607
 20
2662.059707
 30
0.0
 11
1867.40832
 21
2662.059707
 31
0.0
  0
LINE
  5
5D1
330
922
100
AcDbEntity
  8
SIZE
  6
Continuous
 62
    30
100
AcDbLine
 10
1173.812607
 20
2462.059714
 30
0.0
 11
1173.812607
 21
3061.542667
 31
0.0
  0
LINE
  5
5D2
330
922
100
AcDbEntity
  8
DETAIL
  6
Continuous
 62
     5
100
AcDbLine
 10
683.812621
 20
2667.059707
 30
0.0
 11
683.812621
 21
2704.059706
 31
0.0
  0
LINE
  5
5D3
330
922
100
AcDbEntity
  8
DETAIL
  6
Continuous
 62
     5
100
AcDbLine
 10
678.812621
 20
2662.059707
 30
0.0
 11
678.812621
 21
2862.059701
 31
0.0
  0
LINE
  5
5D4
330
922
100
AcDbEntity
  8
DETAIL
  6
Continuous
 62
     5
100
AcDbLine
 10
752.34539
 20
2672.059707
 30
0.0
 11
752.34539
 21
2820.059702
 31
0.0
  0
LINE
  5
5D5
330
922
100
AcDbEntity
  8
DETAIL
  6
Continuous
 62
     5
100
AcDbLine
 10
762.3453900000002
 20
2672.059707
 30
0.0
 11
762.3453900000002
 21
2820.059702
 31
0.0
  0
LINE
  5
5D6
330
922
100
AcDbEntity
  8
OUTLINE
  6
Continuous
 62
     3
100
AcDbLine
 10
678.812621
 20
2662.059707
 30
0.0
 11
1162.812607
 21
2662.059707
 31
0.0
  0
LINE
  5
5D7
330
922
100
AcDbEntity
  8
DETAIL
  6
Continuous
 62
     5
100
AcDbLine
 10
678.812621
 20
2662.059707
 30
0.0
 11
1163.812607
 21
2662.059707
 31
0.0
  0
LINE
  5
5D8
330
922
100
AcDbEntity
  8
DETAIL
  6
Continuous
 62
     5
100
AcDbLine
 10
679.812621
 20
2662.059707
 30
0.0
 11
1162.812607
 21
2662.059707
 31
0.0
  0
LINE
  5
5D9
330
922
100
AcDbEntity
  8
DETAIL
  6
Continuous
 62
     5
100
AcDbLine
 10
678.812621
 20
2667.059707
 30
0.0
 11
747.34539
 21
2667.059707
 31
0.0
  0
LINE
  5
5DA
330
922
100
AcDbEntity
  8
DETAIL
  6
Continuous
 62
     5
100
AcDbLine
 10
678.812621
 20
2662.059707
 30
0.0
 11
752.34539
 21
2662.059707
 31
0.0
  0
ARC
  5
5DB
330
922
100
AcDbEntity
  8
DETAIL
  6
Continuous
 62
     5
100
AcDbCircle
 10
747.34539
 20
2672.059707
 30
0.0
 40
5.0
100
AcDbArc
 50
270.0
 51
0.0
  0
ARC
  5
5DC
330
922
100
AcDbEntity
  8
DETAIL
  6
Continuous
 62
     5
100
AcDbCircle
 10
752.34539
 20
2672.059707
 30
0.0
 40
10.0
100
AcDbArc
 50
270.0
 51
0.0
  0
LINE
  5
5DD
330
922
100
AcDbEntity
  8
DETAIL
  6
Continuous
 62
     5
100
AcDbLine
 10
1163.812607
 20
2219.759721
 30
0.0
 11
1170.312607
 21
2219.759721
 31
0.0
  0
LINE
  5
5DE
330
922
100
AcDbEntity
  8
DETAIL
  6
Continuous
 62
     5
100
AcDbLine
 10
1163.812607
 20
2214.359721000001
 30
0.0
 11
1170.312607
 21
2214.359721000001
 31
0.0
  0
LINE
  5
5DF
330
922
100
AcDbEntity
  8
DETAIL
  6
Continuous
 62
     5
100
AcDbLine
 10
1163.812607
 20
2213.559721
 30
0.0
 11
1170.312607
 21
2213.559721
 31
0.0
  0
ARC
  5
5E0
330
922
100
AcDbEntity
  8
DETAIL
  6
Continuous
 62
     5
100
AcDbCircle
 10
1170.312607
 20
2217.059721
 30
0.0
 40
3.5
100
AcDbArc
 50
270.0
 51
90.0
  0
ARC
  5
5E1
330
922
100
AcDbEntity
  8
DETAIL
  6
Continuous
 62
     5
100
AcDbCircle
 10
1170.312607
 20
2217.059721
 30
0.0
 40
2.7
100
AcDbArc
 50
270.0
 51
90.0
  0
LINE
  5
5E2
330
922
100
AcDbEntity
  8
DETAIL
  6
Continuous
 62
     5
100
AcDbLine
 10
1170.312607
 20
2220.559721
 30
0.0
 11
1163.812607
 21
2220.559721
 31
0.0
  0
POINT
  5
5E3
330
922
100
AcDbEntity
  8
DEFPOINTS
  6
Continuous
 62
     7
100
AcDbPoint
 10
1173.812607
 20
2442.059714
 30
0.0
  0
ARC
  5
5E4
330
922
100
AcDbEntity
  8
DETAIL
  6
Continuous
 62
     5
100
AcDbCircle
 10
1170.312607
 20
2442.059714
 30
0.0
 40
3.5
100
AcDbArc
 50
270.0
 51
90.0
  0
LINE
  5
5E5
330
922
100
AcDbEntity
  8
DETAIL
  6
Continuous
 62
     5
100
AcDbLine
 10
1170.312607
 20
2445.559714
 30
0.0
 11
1163.812607
 21
2445.559714
 31
0.0
  0
LINE
  5
5E6
330
922
100
AcDbEntity
  8
DETAIL
  6
Continuous
 62
     5
100
AcDbLine
 10
1163.812607
 20
2438.559714
 30
0.0
 11
1170.312607
 21
2438.559714
 31
0.0
  0
ARC
  5
5E7
330
922
100
AcDbEntity
  8
DETAIL
  6
Continuous
 62
     5
100
AcDbCircle
 10
1170.312607
 20
2442.059714
 30
0.0
 40
2.7
100
AcDbArc
 50
270.0
 51
90.0
  0
LINE
  5
5E8
330
922
100
AcDbEntity
  8
DETAIL
  6
Continuous
 62
     5
100
AcDbLine
 10
1163.812607
 20
2444.759714
 30
0.0
 11
1170.312607
 21
2444.759714
 31
0.0
  0
LINE
  5
5E9
330
922
100
AcDbEntity
  8
DETAIL
  6
Continuous
 62
     5
100
AcDbLine
 10
1163.812607
 20
2439.359714
 30
0.0
 11
1170.312607
 21
2439.359714
 31
0.0
  0
POINT
  5
5EA
330
922
100
AcDbEntity
  8
DEFPOINTS
  6
Continuous
 62
     7
100
AcDbPoint
 10
1163.812607
 20
2662.059707
 30
0.0
  0
POINT
  5
5EB
330
922
100
AcDbEntity
  8
DEFPOINTS
  6
Continuous
 62
     7
100
AcDbPoint
 10
1163.812607
 20
2662.059707
 30
0.0
  0
LINE
  5
5EC
330
922
100
AcDbEntity
  8
SIZE
  6
Continuous
 62
    30
100
AcDbLine
 10
688.812621
 20
3031.542667
 30
0.0
 11
1153.812607
 21
3031.542667
 31
0.0
  0
LINE
  5
5ED
330
922
100
AcDbEntity
  8
DETAIL
  6
Continuous
 62
     5
100
AcDbLine
 10
678.812621
 20
2862.059701
 30
0.0
 11
1163.812607
 21
2862.059701
 31
0.0
  0
LINE
  5
5EE
330
922
100
AcDbEntity
  8
SIZE
  6
Continuous
 62
    30
100
AcDbLine
 10
678.812621
 20
2882.059701
 30
0.0
 11
678.812621
 21
3061.542667
 31
0.0
  0
LINE
  5
5EF
330
922
100
AcDbEntity
  8
DETAIL
  6
Continuous
 62
     5
100
AcDbLine
 10
678.812621
 20
2825.059702
 30
0.0
 11
747.34539
 21
2825.059702
 31
0.0
  0
LINE
  5
5F0
330
922
100
AcDbEntity
  8
DETAIL
  6
Continuous
 62
     5
100
AcDbLine
 10
678.812621
 20
2830.059702
 30
0.0
 11
752.34539
 21
2830.059702
 31
0.0
  0
LINE
  5
5F1
330
922
100
AcDbEntity
  8
DETAIL
  6
Continuous
 62
     5
100
AcDbLine
 10
678.812621
 20
2795.059703
 30
0.0
 11
752.34539
 21
2795.059703
 31
0.0
  0
LINE
  5
5F2
330
922
100
AcDbEntity
  8
DETAIL
  6
Continuous
 62
     5
100
AcDbLine
 10
678.812621
 20
2788.059703
 30
0.0
 11
752.34539
 21
2788.059703
 31
0.0
  0
LINE
  5
5F3
330
922
100
AcDbEntity
  8
DETAIL
  6
Continuous
 62
     5
100
AcDbLine
 10
678.812621
 20
2753.059704
 30
0.0
 11
752.34539
 21
2753.059704
 31
0.0
  0
LINE
  5
5F4
330
922
100
AcDbEntity
  8
DETAIL
  6
Continuous
 62
     5
100
AcDbLine
 10
678.812621
 20
2746.059705
 30
0.0
 11
752.34539
 21
2746.059705
 31
0.0
  0
LINE
  5
5F5
330
922
100
AcDbEntity
  8
DETAIL
  6
Continuous
 62
     5
100
AcDbLine
 10
678.812621
 20
2711.059706
 30
0.0
 11
752.34539
 21
2711.059706
 31
0.0
  0
LINE
  5
5F6
330
922
100
AcDbEntity
  8
DETAIL
  6
Continuous
 62
     5
100
AcDbLine
 10
678.812621
 20
2704.059706
 30
0.0
 11
752.34539
 21
2704.059706
 31
0.0
  0
LINE
  5
5F7
330
922
100
AcDbEntity
  8
NOTE
  6
Continuous
 62
     4
100
AcDbLine
 10
678.8126219999997
 20
2762.059707
 30
0.0
 11
668.634495
 21
2793.801112000001
 31
0.0
  0
LINE
  5
5F8
330
922
100
AcDbEntity
  8
NOTE
  6
Continuous
 62
     4
100
AcDbLine
 10
678.8126219999997
 20
2762.059707
 30
0.0
 11
654.1274030000002
 21
2784.459506
 31
0.0
  0
LINE
  5
5F9
330
922
100
AcDbEntity
  8
DETAIL
  6
Continuous
 62
     5
100
AcDbLine
 10
683.812621
 20
2795.059703
 30
0.0
 11
683.812621
 21
2825.059702
 31
0.0
  0
LINE
  5
5FA
330
922
100
AcDbEntity
  8
DETAIL
  6
Continuous
 62
     5
100
AcDbLine
 10
683.812621
 20
2753.059704
 30
0.0
 11
683.812621
 21
2788.059703
 31
0.0
  0
LINE
  5
5FB
330
922
100
AcDbEntity
  8
DETAIL
  6
Continuous
 62
     5
100
AcDbLine
 10
683.812621
 20
2711.059706
 30
0.0
 11
683.812621
 21
2746.059705
 31
0.0
  0
LINE
  5
5FC
330
922
100
AcDbEntity
  8
NOTE
  6
Continuous
 62
     4
100
AcDbLine
 10
612.789361
 20
2767.465711
 30
0.0
 11
612.789361
 21
2727.465712
 31
0.0
  0
ARC
  5
5FD
330
922
100
AcDbEntity
  8
DETAIL
  6
Continuous
 62
     5
100
AcDbCircle
 10
747.34539
 20
2820.059702
 30
0.0
 40
5.0
100
AcDbArc
 50
0.0
 51
90.0
  0
ARC
  5
5FE
330
922
100
AcDbEntity
  8
DETAIL
  6
Continuous
 62
     5
100
AcDbCircle
 10
752.34539
 20
2820.059702
 30
0.0
 40
10.0
100
AcDbArc
 50
0.0
 51
90.0
  0
POINT
  5
5FF
330
922
100
AcDbEntity
  8
DEFPOINTS
  6
Continuous
 62
     7
100
AcDbPoint
 10
678.812621
 20
2862.059701
 30
0.0
  0
LINE
  5
600
330
922
100
AcDbEntity
  8
SIZE
  6
Continuous
 62
    30
100
AcDbLine
 10
683.812621
 20
3031.542667
 30
0.0
 11
688.812621
 21
3031.542667
 31
0.0
  0
CIRCLE
  5
601
330
922
100
AcDbEntity
  8
SIZE
  6
Continuous
 62
    30
100
AcDbCircle
 10
678.812621
 20
3031.542667
 30
0.0
 40
5.0
  0
TEXT
  5
602
330
922
100
AcDbEntity
  8
SIZE
  6
Continuous
 62
    30
100
AcDbText
 10
857.6697568571429
 20
3046.542667000001
 30
0.0
 40
55.0
  1
485
 41
0.9
 72
     1
 11
921.3126139999999
 21
3046.542667000001
 31
0.0
100
AcDbText
  0
LINE
  5
603
330
922
100
AcDbEntity
  8
SIZE
  6
Continuous
 62
    30
100
AcDbLine
 10
1163.812607
 20
2882.059701
 30
0.0
 11
1163.812607
 21
3061.542667
 31
0.0
  0
LINE
  5
604
330
922
100
AcDbEntity
  8
SIZE
  6
Continuous
 62
    30
100
AcDbLine
 10
1163.812607
 20
2882.059701
 30
0.0
 11
1163.812607
 21
3061.542667
 31
0.0
  0
POINT
  5
605
330
922
100
AcDbEntity
  8
DEFPOINTS
  6
Continuous
 62
     7
100
AcDbPoint
 10
1163.812607
 20
2862.059701
 30
0.0
  0
POINT
  5
606
330
922
100
AcDbEntity
  8
DEFPOINTS
  6
Continuous
 62
     7
100
AcDbPoint
 10
1163.812607
 20
2862.059701
 30
0.0
  0
POINT
  5
607
330
922
100
AcDbEntity
  8
DEFPOINTS
  6
Continuous
 62
     7
100
AcDbPoint
 10
1163.812607
 20
2862.059701
 30
0.0
  0
POINT
  5
608
330
922
100
AcDbEntity
  8
DEFPOINTS
  6
Continuous
 62
     7
100
AcDbPoint
 10
1163.812607
 20
2862.059701
 30
0.0
  0
TEXT
  5
609
330
922
100
AcDbEntity
  8
SIZE
  6
Continuous
 62
    30
100
AcDbText
 10
1210.818129571429
 20
3049.947429
 30
0.0
 40
55.0
  1
(10)
 41
0.9
 72
     1
 11
1277.996701
 21
3049.947429
 31
0.0
100
AcDbText
  0
LINE
  5
60A
330
922
100
AcDbEntity
  8
SIZE
  6
Continuous
 62
    30
100
AcDbLine
 10
1349.175273
 20
3031.542667
 30
0.0
 11
1173.812607
 21
3031.542667
 31
0.0
  0
LINE
  5
60B
330
922
100
AcDbEntity
  8
SIZE
  6
Continuous
 62
    30
100
AcDbLine
 10
1153.812607
 20
3031.542667
 30
0.0
 11
1143.812607
 21
3031.542667
 31
0.0
  0
POINT
  5
60C
330
922
100
AcDbEntity
  8
DEFPOINTS
  6
Continuous
 62
     7
100
AcDbPoint
 10
1173.812607
 20
3031.542667
 30
0.0
  0
LINE
  5
60D
330
922
100
AcDbEntity
  8
SIZE
  6
Continuous
 62
    30
100
AcDbLine
 10
1178.812607
 20
3031.542667
 30
0.0
 11
1183.812607
 21
3031.542667
 31
0.0
  0
CIRCLE
  5
60E
330
922
100
AcDbEntity
  8
SIZE
  6
Continuous
 62
    30
100
AcDbCircle
 10
1173.812607
 20
3031.542667
 30
0.0
 40
5.0
  0
LINE
  5
60F
330
922
100
AcDbEntity
  8
SIZE
  6
Continuous
 62
    30
100
AcDbLine
 10
1158.812607
 20
3031.542667
 30
0.0
 11
1153.812607
 21
3031.542667
 31
0.0
  0
CIRCLE
  5
610
330
922
100
AcDbEntity
  8
SIZE
  6
Continuous
 62
    30
100
AcDbCircle
 10
1163.812607
 20
3031.542667
 30
0.0
 40
5.0
  0
LINE
  5
611
330
922
100
AcDbEntity
  8
SIZE
  6
Continuous
 62
    30
100
AcDbLine
 10
1163.812607
 20
3031.542667
 30
0.0
 11
1173.812607
 21
3031.542667
 31
0.0
  0
LINE
  5
612
330
922
100
AcDbEntity
  8
SIZE
  6
Continuous
 62
    30
100
AcDbLine
 10
1163.812607
 20
3031.542667
 30
0.0
 11
1173.812607
 21
3031.542667
 31
0.0
  0
LINE
  5
613
330
922
100
AcDbEntity
  8
SIZE
  6
Continuous
 62
    30
100
AcDbLine
 10
1183.812607
 20
3031.542667
 30
0.0
 11
1193.812607
 21
3031.542667
 31
0.0
  0
POINT
  5
614
330
922
100
AcDbEntity
  8
DEFPOINTS
  6
Continuous
 62
     7
100
AcDbPoint
 10
1163.812607
 20
3031.542667
 30
0.0
  0
LINE
  5
615
330
922
100
AcDbEntity
  8
SIZE
  6
Continuous
 62
    30
100
AcDbLine
 10
1158.812607
 20
3031.542667
 30
0.0
 11
1153.812607
 21
3031.542667
 31
0.0
  0
CIRCLE
  5
616
330
922
100
AcDbEntity
  8
SIZE
  6
Continuous
 62
    30
100
AcDbCircle
 10
1163.812607
 20
3031.542667
 30
0.0
 40
5.0
  0
TEXT
  5
617
330
922
100
AcDbEntity
  8
SIZE
  6
Continuous
 62
    30
100
AcDbText
 10
1819.003558
 20
2666.595418285715
 30
0.0
 40
55.0
  1
(200)
 50
90.0
 41
0.9
 72
     1
 11
1819.003558
 21
2762.059704
 31
0.0
100
AcDbText
  0
LINE
  5
618
330
922
100
AcDbEntity
  8
SIZE
  6
Continuous
 62
    30
100
AcDbLine
 10
1837.40832
 20
2672.059707
 30
0.0
 11
1837.40832
 21
2852.059701
 31
0.0
  0
LINE
  5
619
330
922
100
AcDbEntity
  8
SIZE
  6
Continuous
 62
    30
100
AcDbLine
 10
1837.40832
 20
2667.059707
 30
0.0
 11
1837.40832
 21
2672.059707
 31
0.0
  0
CIRCLE
  5
61A
330
922
100
AcDbEntity
  8
SIZE
  6
Continuous
 62
    30
100
AcDbCircle
 10
1837.40832
 20
2662.059707
 30
0.0
 40
5.0
  0
POINT
  5
61B
330
922
100
AcDbEntity
  8
DEFPOINTS
  6
Continuous
 62
     7
100
AcDbPoint
 10
1837.40832
 20
2662.059707
 30
0.0
  0
LINE
  5
61C
330
922
100
AcDbEntity
  8
SIZE
  6
Continuous
 62
    30
100
AcDbLine
 10
1837.40832
 20
2657.059707
 30
0.0
 11
1837.40832
 21
2652.059707
 31
0.0
  0
CIRCLE
  5
61D
330
922
100
AcDbEntity
  8
SIZE
  6
Continuous
 62
    30
100
AcDbCircle
 10
1837.40832
 20
2662.059707
 30
0.0
 40
5.0
  0
POINT
  5
61E
330
922
100
AcDbEntity
  8
DEFPOINTS
  6
Continuous
 62
     7
100
AcDbPoint
 10
1837.40832
 20
2862.059701
 30
0.0
  0
LINE
  5
61F
330
922
100
AcDbEntity
  8
SIZE
  6
Continuous
 62
    30
100
AcDbLine
 10
1837.40832
 20
2857.059701
 30
0.0
 11
1837.40832
 21
2852.059701
 31
0.0
  0
CIRCLE
  5
620
330
922
100
AcDbEntity
  8
SIZE
  6
Continuous
 62
    30
100
AcDbCircle
 10
1837.40832
 20
2862.059701
 30
0.0
 40
5.0
  0
LINE
  5
621
330
922
100
AcDbEntity
  8
SIZE
  6
Continuous
 62
    30
100
AcDbLine
 10
2008.433543
 20
2857.059701
 30
0.0
 11
2008.433543
 21
2852.059701
 31
0.0
  0
CIRCLE
  5
622
330
922
100
AcDbEntity
  8
SIZE
  6
Continuous
 62
    30
100
AcDbCircle
 10
2008.433543
 20
2862.059701
 30
0.0
 40
5.0
  0
ENDBLK
  5
624
330
922
100
AcDbEntity
  8
0
 62
     7
100
AcDbBlockEnd
  0
ENDSEC
  0
SECTION
  2
ENTITIES
  0
TEXT
  5
626
330
903
100
AcDbEntity
  8
NOTE
100
AcDbText
 10
-673.414907
 20
1196.279815
 30
0.0
 40
64.0
  1
外気取入穴
 41
0.9
100
AcDbText
  0
LINE
  5
627
330
903
100
AcDbEntity
  8
NOTE
100
AcDbLine
 10
314.057156
 20
1322.015495
 30
0.0
 11
27.499999
 21
1003.999969
 31
0.0
  0
LWPOLYLINE
  5
628
330
903
100
AcDbEntity
  8
OUTLINE
100
AcDbPolyline
 90
        4
 70
     1
 43
0.0
 10
-242.499993
 20
1999.999939
 10
242.499993
 20
1999.999939
 10
242.499993
 20
130.0
 10
-242.499993
 20
130.0
  0
LINE
  5
62E
330
903
100
AcDbEntity
  8
BASIS
100
AcDbLine
 10
0.0
 20
2103.610941
 30
0.0
 11
0.0
 21
-80.58290799999998
 31
0.0
  0
LINE
  5
62F
330
903
100
AcDbEntity
  8
SIZE
100
AcDbLine
 10
1087.120929
 20
1989.999939
 30
0.0
 11
1087.120929
 21
10.0
 31
0.0
  0
LINE
  5
630
330
903
100
AcDbEntity
  8
SIZE
100
AcDbLine
 10
916.0957059999999
 20
10.0
 30
0.0
 11
916.0957059999999
 21
1789.999945
 31
0.0
  0
LINE
  5
631
330
903
100
AcDbEntity
  8
DETAIL
100
AcDbLine
 10
242.499993
 20
1999.999939
 30
0.0
 11
242.499993
 21
130.0
 31
0.0
  0
LINE
  5
632
330
903
100
AcDbEntity
  8
DETAIL
100
AcDbLine
 10
-242.499993
 20
1799.999945
 30
0.0
 11
-242.499993
 21
130.0
 31
0.0
  0
LINE
  5
633
330
903
100
AcDbEntity
  8
NOTE
100
AcDbLine
 10
-332.352802
 20
1175.562566
 30
0.0
 11
-150.601518
 21
954.2945289999996
 31
0.0
  0
CIRCLE
  5
634
330
903
100
AcDbEntity
  8
SIZE
100
AcDbCircle
 10
-325.30557
 20
833.999975
 30
0.0
 40
5.0
  0
CIRCLE
  5
635
330
903
100
AcDbEntity
  8
SIZE
100
AcDbCircle
 10
-325.30557
 20
918.9999719999999
 30
0.0
 40
5.0
  0
LINE
  5
636
330
903
100
AcDbEntity
  8
SIZE
100
AcDbLine
 10
-148.705172
 20
833.999975
 30
0.0
 11
-355.3055700000002
 21
833.999975
 31
0.0
  0
LINE
  5
637
330
903
100
AcDbEntity
  8
SIZE
100
AcDbLine
 10
-218.70517
 20
918.9999719999999
 30
0.0
 11
-355.3055700000002
 21
918.9999719999999
 31
0.0
  0
CIRCLE
  5
638
330
903
100
AcDbEntity
  8
SIZE
100
AcDbCircle
 10
-325.30557
 20
918.9999719999999
 30
0.0
 40
5.0
  0
CIRCLE
  5
639
330
903
100
AcDbEntity
  8
SIZE
100
AcDbCircle
 10
-325.30557
 20
1003.999969
 30
0.0
 40
5.0
  0
LINE
  5
63A
330
903
100
AcDbEntity
  8
SIZE
100
AcDbLine
 10
-218.70517
 20
918.9999719999999
 30
0.0
 11
-355.3055700000002
 21
918.9999719999999
 31
0.0
  0
LINE
  5
63B
330
903
100
AcDbEntity
  8
SIZE
100
AcDbLine
 10
-148.705172
 20
1003.999969
 30
0.0
 11
-355.3055700000002
 21
1003.999969
 31
0.0
  0
TEXT
  5
63C
330
903
100
AcDbEntity
  8
SIZE
100
AcDbText
 10
-355.2857071428571
 20
-817.0597669999999
 30
0.0
 40
55.0
  1
26
 41
0.9
 72
     1
 11
-316.39285
 21
-817.0597669999999
 31
0.0
100
AcDbText
  0
LINE
  5
63D
330
903
100
AcDbEntity
  8
SIZE
100
AcDbLine
 10
-252.499993
 20
-832.0597669999997
 30
0.0
 11
-370.285707
 21
-832.0597669999997
 31
0.0
  0
TEXT
  5
63E
330
903
100
AcDbEntity
  8
SIZE
100
AcDbText
 10
-385.3571354285714
 20
-667.997657
 30
0.0
 40
55.0
  1
100
 41
0.9
 72
     1
 11
-326.428564
 21
-667.997657
 31
0.0
100
AcDbText
  0
LINE
  5
63F
330
903
100
AcDbEntity
  8
SIZE
100
AcDbLine
 10
-242.499993
 20
-682.997657
 30
0.0
 11
-400.357135
 21
-682.997657
 31
0.0
  0
LINE
  5
640
330
903
100
AcDbEntity
  8
NOTE
100
AcDbLine
 10
-495.7859259999998
 20
876.6381550000001
 30
0.0
 11
-146.5
 21
325.0
 31
0.0
  0
LINE
  5
641
330
903
100
AcDbEntity
  8
NOTE
100
AcDbLine
 10
-580.922986
 20
712.040341
 30
0.0
 11
-146.5
 21
275.0
 31
0.0
  0
LINE
  5
642
330
903
100
AcDbEntity
  8
NOTE
100
AcDbLine
 10
-556.651608
 20
559.68887
 30
0.0
 11
-146.5
 21
210.0
 31
0.0
  0
LINE
  5
643
330
903
100
AcDbEntity
  8
NOTE
100
AcDbLine
 10
-354.341415
 20
-142.25374
 30
0.0
 11
-142.499985
 21
-0.126547
 31
0.0
  0
TEXT
  5
644
330
903
100
AcDbEntity
  8
SIZE
100
AcDbText
 10
-332.4541305714285
 20
-372.718106
 30
0.0
 40
55.0
  1
60
 41
0.9
 72
     1
 11
-292.382702
 21
-372.718106
 31
0.0
100
AcDbText
  0
LINE
  5
645
330
903
100
AcDbEntity
  8
SIZE
100
AcDbLine
 10
-172.499995
 20
-387.718106
 30
0.0
 11
-347.454131
 21
-387.718106
 31
0.0
  0
LINE
  5
646
330
903
100
AcDbEntity
  8
SIZE
100
AcDbLine
 10
-186.49847
 20
325.0
 30
0.0
 11
-542.28824
 21
325.0
 31
0.0
  0
LINE
  5
647
330
903
100
AcDbEntity
  8
SIZE
100
AcDbLine
 10
-186.49847
 20
275.0
 30
0.0
 11
-542.28824
 21
275.0
 31
0.0
  0
LINE
  5
648
330
903
100
AcDbEntity
  8
SIZE
100
AcDbLine
 10
-186.49847
 20
275.0
 30
0.0
 11
-542.28824
 21
275.0
 31
0.0
  0
LINE
  5
649
330
903
100
AcDbEntity
  8
SIZE
100
AcDbLine
 10
-204.166673
 20
210.0
 30
0.0
 11
-542.28824
 21
210.0
 31
0.0
  0
LINE
  5
64A
330
903
100
AcDbEntity
  8
SIZE
100
AcDbLine
 10
-204.166673
 20
210.0
 30
0.0
 11
-542.28824
 21
210.0
 31
0.0
  0
LINE
  5
64B
330
903
100
AcDbEntity
  8
SIZE
100
AcDbLine
 10
-236.499993
 20
0.0
 30
0.0
 11
-542.28824
 21
0.0
 31
0.0
  0
LINE
  5
64C
330
903
100
AcDbEntity
  8
SIZE
100
AcDbLine
 10
-262.499993
 20
130.0
 30
0.0
 11
-416.5300329999998
 21
130.0
 31
0.0
  0
LINE
  5
64D
330
903
100
AcDbEntity
  8
SIZE
100
AcDbLine
 10
-236.499993
 20
0.0
 30
0.0
 11
-416.5300329999998
 21
0.0
 31
0.0
  0
TEXT
  5
64E
330
903
100
AcDbEntity
  8
SIZE
100
AcDbText
 10
-337.2550735714286
 20
726.714319
 30
0.0
 40
55.0
  1
70
 41
0.9
 72
     1
 11
-297.183645
 21
726.714319
 31
0.0
100
AcDbText
  0
LINE
  5
64F
330
903
100
AcDbEntity
  8
SIZE
100
AcDbLine
 10
-192.499994
 20
711.714319
 30
0.0
 11
-352.255073
 21
711.714319
 31
0.0
  0
LINE
  5
650
330
903
100
AcDbEntity
  8
NOTE
100
AcDbLine
 10
-373.463535
 20
-303.129824
 30
0.0
 11
7.50001
 21
102.000007
 31
0.0
  0
CIRCLE
  5
651
330
903
100
AcDbEntity
  8
SIZE
100
AcDbCircle
 10
-512.28824
 20
0.0
 30
0.0
 40
5.0
  0
CIRCLE
  5
652
330
903
100
AcDbEntity
  8
SIZE
100
AcDbCircle
 10
-386.530033
 20
0.0
 30
0.0
 40
5.0
  0
TEXT
  5
653
330
903
100
AcDbEntity
  8
NOTE
100
AcDbText
 10
-780.9627149999998
 20
-121.536491
 30
0.0
 40
64.0
  1
AH 4-%%C12
 41
0.9
100
AcDbText
  0
LINE
  5
654
330
903
100
AcDbEntity
  8
NOTE
100
AcDbLine
 10
-781.597532
 20
-142.25374
 30
0.0
 11
-354.341415
 21
-142.25374
 31
0.0
  0
TEXT
  5
655
330
903
100
AcDbEntity
  8
NOTE
100
AcDbText
 10
-654.0327639999998
 20
-282.412575
 30
0.0
 40
64.0
  1
D2 Rc1
 41
0.9
100
AcDbText
  0
LINE
  5
656
330
903
100
AcDbEntity
  8
NOTE
100
AcDbLine
 10
-654.6675799999998
 20
-303.129824
 30
0.0
 11
-373.463535
 21
-303.129824
 31
0.0
  0
TEXT
  5
657
330
903
100
AcDbEntity
  8
NOTE
100
AcDbText
 10
-920.6778060000001
 20
580.4061189999998
 30
0.0
 40
64.0
  1
EL2 %%C43
 41
0.9
100
AcDbText
  0
LINE
  5
658
330
903
100
AcDbEntity
  8
NOTE
100
AcDbLine
 10
-921.312623
 20
559.68887
 30
0.0
 11
-552.6516149999999
 21
559.68887
 31
0.0
  0
LINE
  5
659
330
903
100
AcDbEntity
  8
SIZE
100
AcDbLine
 10
-512.28824
 20
285.0
 30
0.0
 11
-512.28824
 21
315.0
 31
0.0
  0
TEXT
  5
65A
330
903
100
AcDbEntity
  8
SIZE
100
AcDbText
 10
-527.2882400000002
 20
202.4285714285714
 30
0.0
 40
55.0
  1
65
 50
90.0
 41
0.9
 72
     1
 11
-527.2882400000002
 21
242.5
 31
0.0
100
AcDbText
  0
TEXT
  5
65B
330
903
100
AcDbEntity
  8
SIZE
100
AcDbText
 10
-527.2882400000002
 20
46.07142857142858
 30
0.0
 40
55.0
  1
210
 50
90.0
 41
0.9
 72
     1
 11
-527.2882400000002
 21
105.0
 31
0.0
100
AcDbText
  0
LINE
  5
65C
330
903
100
AcDbEntity
  8
SIZE
100
AcDbLine
 10
-512.28824
 20
10.0
 30
0.0
 11
-512.28824
 21
200.0
 31
0.0
  0
TEXT
  5
65D
330
903
100
AcDbEntity
  8
SIZE
100
AcDbText
 10
-401.530033
 20
6.071428571428576
 30
0.0
 40
55.0
  1
130
 50
90.0
 41
0.9
 72
     1
 11
-401.530033
 21
65.0
 31
0.0
100
AcDbText
  0
LINE
  5
65E
330
903
100
AcDbEntity
  8
SIZE
100
AcDbLine
 10
-512.28824
 20
5.0
 30
0.0
 11
-512.28824
 21
10.0
 31
0.0
  0
LINE
  5
660
330
903
100
AcDbEntity
  8
SIZE
100
AcDbLine
 10
-386.530033
 20
125.0
 30
0.0
 11
-386.530033
 21
120.0
 31
0.0
  0
CIRCLE
  5
661
330
903
100
AcDbEntity
  8
SIZE
100
AcDbCircle
 10
-386.530033
 20
130.0
 30
0.0
 40
5.0
  0
LINE
  5
662
330
903
100
AcDbEntity
  8
SIZE
100
AcDbLine
 10
-386.530033
 20
5.0
 30
0.0
 11
-386.530033
 21
10.0
 31
0.0
  0
LINE
  5
663
330
903
100
AcDbEntity
  8
SIZE
100
AcDbLine
 10
-386.530033
 20
10.0
 30
0.0
 11
-386.530033
 21
120.0
 31
0.0
  0
LINE
  5
664
330
903
100
AcDbEntity
  8
SIZE
100
AcDbLine
 10
-512.28824
 20
280.0
 30
0.0
 11
-512.28824
 21
285.0
 31
0.0
  0
CIRCLE
  5
665
330
903
100
AcDbEntity
  8
SIZE
100
AcDbCircle
 10
-512.28824
 20
275.0
 30
0.0
 40
5.0
  0
LINE
  5
667
330
903
100
AcDbEntity
  8
SIZE
100
AcDbLine
 10
-512.28824
 20
280.0
 30
0.0
 11
-512.28824
 21
285.0
 31
0.0
  0
CIRCLE
  5
668
330
903
100
AcDbEntity
  8
SIZE
100
AcDbCircle
 10
-512.28824
 20
275.0
 30
0.0
 40
5.0
  0
LINE
  5
669
330
903
100
AcDbEntity
  8
SIZE
100
AcDbLine
 10
-512.28824
 20
205.0
 30
0.0
 11
-512.28824
 21
200.0
 31
0.0
  0
CIRCLE
  5
66A
330
903
100
AcDbEntity
  8
SIZE
100
AcDbCircle
 10
-512.28824
 20
210.0
 30
0.0
 40
5.0
  0
LINE
  5
66B
330
903
100
AcDbEntity
  8
SIZE
100
AcDbLine
 10
-512.28824
 20
210.0
 30
0.0
 11
-512.28824
 21
275.0
 31
0.0
  0
LINE
  5
66C
330
903
100
AcDbEntity
  8
SIZE
100
AcDbLine
 10
-512.28824
 20
285.0
 30
0.0
 11
-512.28824
 21
295.0
 31
0.0
  0
LINE
  5
66D
330
903
100
AcDbEntity
  8
SIZE
100
AcDbLine
 10
-512.28824
 20
200.0
 30
0.0
 11
-512.28824
 21
190.0
 31
0.0
  0
LINE
  5
66F
330
903
100
AcDbEntity
  8
SIZE
100
AcDbLine
 10
-512.28824
 20
205.0
 30
0.0
 11
-512.28824
 21
200.0
 31
0.0
  0
CIRCLE
  5
670
330
903
100
AcDbEntity
  8
SIZE
100
AcDbCircle
 10
-512.28824
 20
210.0
 30
0.0
 40
5.0
  0
TEXT
  5
671
330
903
100
AcDbEntity
  8
SIZE
100
AcDbText
 10
-527.2882400000002
 20
370.7792094285713
 30
0.0
 40
55.0
  1
50
 50
90.0
 41
0.9
 72
     1
 11
-527.2882400000002
 21
410.8506379999998
 31
0.0
100
AcDbText
  0
LINE
  5
672
330
903
100
AcDbEntity
  8
SIZE
100
AcDbLine
 10
-512.28824
 20
465.922066
 30
0.0
 11
-512.28824
 21
325.0
 31
0.0
  0
LINE
  5
674
330
903
100
AcDbEntity
  8
SIZE
100
AcDbLine
 10
-512.28824
 20
320.0
 30
0.0
 11
-512.28824
 21
315.0
 31
0.0
  0
CIRCLE
  5
675
330
903
100
AcDbEntity
  8
SIZE
100
AcDbCircle
 10
-512.28824
 20
325.0
 30
0.0
 40
5.0
  0
TEXT
  5
676
330
903
100
AcDbEntity
  8
NOTE
100
AcDbText
 10
-915.790812
 20
732.75759
 30
0.0
 40
64.0
  1
CL1 %%C27
 41
0.9
100
AcDbText
  0
LINE
  5
677
330
903
100
AcDbEntity
  8
NOTE
100
AcDbLine
 10
-916.425628
 20
712.040341
 30
0.0
 11
-576.922993
 21
712.040341
 31
0.0
  0
TEXT
  5
678
330
903
100
AcDbEntity
  8
NOTE
100
AcDbText
 10
-833.4082679999998
 20
897.3554039999998
 30
0.0
 40
64.0
  1
EL1 %%C27
 41
0.9
100
AcDbText
  0
LINE
  5
679
330
903
100
AcDbEntity
  8
NOTE
100
AcDbLine
 10
-834.0430839999998
 20
876.6381550000001
 30
0.0
 11
-491.7859329999997
 21
876.6381550000001
 31
0.0
  0
TEXT
  5
67A
330
903
100
AcDbEntity
  8
SIZE
100
AcDbText
 10
-340.30557
 20
836.4285444285716
 30
0.0
 40
55.0
  1
85
 50
90.0
 41
0.9
 72
     1
 11
-340.30557
 21
876.4999730000001
 31
0.0
100
AcDbText
  0
LINE
  5
67B
330
903
100
AcDbEntity
  8
NOTE
100
AcDbLine
 10
-332.352802
 20
1175.562566
 30
0.0
 11
-687.778841
 21
1175.562566
 31
0.0
  0
TEXT
  5
67C
330
903
100
AcDbEntity
  8
SIZE
100
AcDbText
 10
-340.30557
 20
921.4285424285714
 30
0.0
 40
55.0
  1
85
 50
90.0
 41
0.9
 72
     1
 11
-340.30557
 21
961.4999709999999
 31
0.0
100
AcDbText
  0
CIRCLE
  5
67D
330
903
100
AcDbEntity
  8
ARRANGE
100
AcDbCircle
 10
0.0
 20
0.0
 30
0.0
 40
42.5
  0
CIRCLE
  5
67F
330
903
100
AcDbEntity
  8
FIX
100
AcDbCircle
 10
157.499995
 20
0.0
 30
0.0
 40
5.0
  0
LINE
  5
680
330
903
100
AcDbEntity
  8
SIZE
100
AcDbLine
 10
242.499993
 20
110.0
 30
0.0
 11
242.499993
 21
-862.059767
 31
0.0
  0
LINE
  5
681
330
903
100
AcDbEntity
  8
SIZE
100
AcDbLine
 10
-242.499993
 20
110.0
 30
0.0
 11
-242.499993
 21
-862.059767
 31
0.0
  0
LINE
  5
682
330
903
100
AcDbEntity
  8
SIZE
100
AcDbLine
 10
242.499993
 20
110.0
 30
0.0
 11
242.499993
 21
-712.997657
 31
0.0
  0
LINE
  5
683
330
903
100
AcDbEntity
  8
SIZE
100
AcDbLine
 10
-242.499993
 20
110.0
 30
0.0
 11
-242.499993
 21
-712.997657
 31
0.0
  0
LINE
  5
684
330
903
100
AcDbEntity
  8
SIZE
100
AcDbLine
 10
242.499993
 20
110.0
 30
0.0
 11
242.499993
 21
-552.4449699999999
 31
0.0
  0
LINE
  5
685
330
903
100
AcDbEntity
  8
SIZE
100
AcDbLine
 10
-146.5
 20
148.333335
 30
0.0
 11
-146.5
 21
-552.4449699999999
 31
0.0
  0
LINE
  5
686
330
903
100
AcDbEntity
  8
NOTE
100
AcDbLine
 10
-142.499989
 20
-0.126542
 30
0.0
 11
-164.430826
 21
-25.22932
 31
0.0
  0
LINE
  5
687
330
903
100
AcDbEntity
  8
NOTE
100
AcDbLine
 10
-142.499989
 20
-0.126542
 30
0.0
 11
-174.04404
 21
-10.900767
 31
0.0
  0
LINE
  5
688
330
903
100
AcDbEntity
  8
ARRANGE
100
AcDbLine
 10
42.46919899999999
 20
42.157106
 30
0.0
 11
-42.46919899999999
 21
-42.157106
 31
0.0
  0
LINE
  5
689
330
903
100
AcDbEntity
  8
ARRANGE
100
AcDbLine
 10
42.531748
 20
-42.09399999999998
 30
0.0
 11
-42.531748
 21
42.09399999999998
 31
0.0
  0
LINE
  5
68A
330
903
100
AcDbEntity
  8
NOTE
100
AcDbLine
 10
157.499995
 20
-20.0
 30
0.0
 11
157.499995
 21
20.0
 31
0.0
  0
CIRCLE
  5
68B
330
903
100
AcDbEntity
  8
FIX
100
AcDbCircle
 10
-142.499996
 20
0.0
 30
0.0
 40
5.0
  0
LINE
  5
68C
330
903
100
AcDbEntity
  8
NOTE
100
AcDbLine
 10
-142.499996
 20
-20.0
 30
0.0
 11
-142.499996
 21
20.0
 31
0.0
  0
CIRCLE
  5
68D
330
903
100
AcDbEntity
  8
SIZE
100
AcDbCircle
 10
1087.120929
 20
0.0
 30
0.0
 40
5.0
  0
CIRCLE
  5
68E
330
903
100
AcDbEntity
  8
SIZE
100
AcDbCircle
 10
916.0957059999999
 20
0.0
 30
0.0
 40
5.0
  0
LINE
  5
68F
330
903
100
AcDbEntity
  8
SIZE
100
AcDbLine
 10
242.499993
 20
110.0
 30
0.0
 11
242.499993
 21
-416.421191
 31
0.0
  0
LINE
  5
690
330
903
100
AcDbEntity
  8
SIZE
100
AcDbLine
 10
7.499992999999999
 20
50.333335
 30
0.0
 11
7.499992999999999
 21
-416.421191
 31
0.0
  0
LINE
  5
691
330
903
100
AcDbEntity
  8
SIZE
100
AcDbLine
 10
41.499993
 20
188.393334
 30
0.0
 11
41.499993
 21
-276.957677
 31
0.0
  0
LINE
  5
692
330
903
100
AcDbEntity
  8
SIZE
100
AcDbLine
 10
126.499993
 20
188.808334
 30
0.0
 11
126.499993
 21
-276.957677
 31
0.0
  0
LINE
  5
693
330
903
100
AcDbEntity
  8
SIZE
100
AcDbLine
 10
126.499993
 20
188.820997
 30
0.0
 11
126.499993
 21
-276.957677
 31
0.0
  0
LINE
  5
694
330
903
100
AcDbEntity
  8
SIZE
100
AcDbLine
 10
242.499993
 20
110.012663
 30
0.0
 11
242.499993
 21
-276.957677
 31
0.0
  0
CIRCLE
  5
695
330
903
100
AcDbEntity
  8
SIZE
100
AcDbCircle
 10
388.234583
 20
0.0
 30
0.0
 40
5.0
  0
CIRCLE
  5
696
330
903
100
AcDbEntity
  8
SIZE
100
AcDbCircle
 10
755.878836
 20
0.0
 30
0.0
 40
5.0
  0
CIRCLE
  5
697
330
903
100
AcDbEntity
  8
SIZE
100
AcDbCircle
 10
615.1808929999998
 20
0.0
 30
0.0
 40
5.0
  0
CIRCLE
  5
698
330
903
100
AcDbEntity
  8
SIZE
100
AcDbCircle
 10
493.518457
 20
0.0
 30
0.0
 40
5.0
  0
LINE
  5
699
330
903
100
AcDbEntity
  8
NOTE
100
AcDbLine
 10
496.229378
 20
-277.201877
 30
0.0
 11
41.499993
 21
224.0
 31
0.0
  0
LINE
  5
69A
330
903
100
AcDbEntity
  8
NOTE
100
AcDbLine
 10
445.4665499999999
 20
-133.031002
 30
0.0
 11
126.499993
 21
226.0
 31
0.0
  0
TEXT
  5
69B
330
903
100
AcDbEntity
  8
NOTE
100
AcDbText
 10
448.012807
 20
-110.192474
 30
0.0
 40
64.0
  1
RG \U+03C619.05
 41
0.9
100
AcDbText
  0
LINE
  5
69C
330
903
100
AcDbEntity
  8
NOTE
100
AcDbLine
 10
445.4665499999999
 20
-133.031002
 30
0.0
 11
900.4948029999997
 21
-133.031002
 31
0.0
  0
TEXT
  5
69D
330
903
100
AcDbEntity
  8
NOTE
100
AcDbText
 10
497.429457
 20
-257.583056
 30
0.0
 40
64.0
  1
RL \U+03C615.88
 41
0.9
100
AcDbText
  0
LINE
  5
69E
330
903
100
AcDbEntity
  8
NOTE
100
AcDbLine
 10
496.229378
 20
-277.201877
 30
0.0
 11
931.0154159999999
 21
-277.201877
 31
0.0
  0
LINE
  5
69F
330
903
100
AcDbEntity
  8
SIZE
100
AcDbLine
 10
230.499993
 20
-20.0
 30
0.0
 11
230.499993
 21
-862.059767
 31
0.0
  0
LINE
  5
6A0
330
903
100
AcDbEntity
  8
SIZE
100
AcDbLine
 10
230.499993
 20
-20.0
 30
0.0
 11
230.499993
 21
-862.059767
 31
0.0
  0
LINE
  5
6A1
330
903
100
AcDbEntity
  8
SIZE
100
AcDbLine
 10
-216.499993
 20
-20.0
 30
0.0
 11
-216.499993
 21
-862.059767
 31
0.0
  0
LINE
  5
6A2
330
903
100
AcDbEntity
  8
SIZE
100
AcDbLine
 10
-216.499993
 20
-20.0
 30
0.0
 11
-216.499993
 21
-862.059767
 31
0.0
  0
TEXT
  5
6A3
330
903
100
AcDbEntity
  8
SIZE
100
AcDbText
 10
267.8598724285714
 20
-667.997657
 30
0.0
 40
55.0
  1
85
 41
0.9
 72
     1
 11
307.931301
 21
-667.997657
 31
0.0
100
AcDbText
  0
LINE
  5
6A4
330
903
100
AcDbEntity
  8
SIZE
100
AcDbLine
 10
157.499995
 20
-40.0
 30
0.0
 11
157.499995
 21
-712.997657
 31
0.0
  0
TEXT
  5
6A5
330
903
100
AcDbEntity
  8
SIZE
100
AcDbText
 10
-56.14286314285713
 20
-667.997657
 30
0.0
 40
55.0
  1
300
 41
0.9
 72
     1
 11
7.499994
 21
-667.997657
 31
0.0
100
AcDbText
  0
LINE
  5
6A6
330
903
100
AcDbEntity
  8
SIZE
100
AcDbLine
 10
157.499995
 20
-40.0
 30
0.0
 11
157.499995
 21
-712.997657
 31
0.0
  0
LINE
  5
6A7
330
903
100
AcDbEntity
  8
SIZE
100
AcDbLine
 10
-142.500007
 20
-20.126563
 30
0.0
 11
-142.500007
 21
-712.997657
 31
0.0
  0
LINE
  5
6A8
330
903
100
AcDbEntity
  8
SIZE
100
AcDbLine
 10
-142.500007
 20
-20.126563
 30
0.0
 11
-142.500007
 21
-712.997657
 31
0.0
  0
LINE
  5
6A9
330
903
100
AcDbEntity
  8
SIZE
100
AcDbLine
 10
-206.499993
 20
-832.0597669999997
 30
0.0
 11
220.499993
 21
-832.0597669999997
 31
0.0
  0
LINE
  5
6AA
330
903
100
AcDbEntity
  8
SIZE
100
AcDbLine
 10
-132.500007
 20
-682.997657
 30
0.0
 11
147.499995
 21
-682.997657
 31
0.0
  0
CIRCLE
  5
6AB
330
903
100
AcDbEntity
  8
SIZE
100
AcDbCircle
 10
-216.499993
 20
-832.0597669999997
 30
0.0
 40
5.0
  0
CIRCLE
  5
6AC
330
903
100
AcDbEntity
  8
SIZE
100
AcDbCircle
 10
-216.499993
 20
-832.0597669999997
 30
0.0
 40
5.0
  0
LINE
  5
6AD
330
903
100
AcDbEntity
  8
SIZE
100
AcDbLine
 10
-216.499993
 20
-832.0597669999997
 30
0.0
 11
-242.499993
 21
-832.0597669999997
 31
0.0
  0
LINE
  5
6AE
330
903
100
AcDbEntity
  8
SIZE
100
AcDbLine
 10
-247.499993
 20
-832.0597669999997
 30
0.0
 11
-252.499993
 21
-832.0597669999997
 31
0.0
  0
CIRCLE
  5
6AF
330
903
100
AcDbEntity
  8
SIZE
100
AcDbCircle
 10
-242.499993
 20
-832.0597669999997
 30
0.0
 40
5.0
  0
LINE
  5
6B0
330
903
100
AcDbEntity
  8
SIZE
100
AcDbLine
 10
-211.499993
 20
-832.0597669999997
 30
0.0
 11
-206.499993
 21
-832.0597669999997
 31
0.0
  0
LINE
  5
6B2
330
903
100
AcDbEntity
  8
SIZE
100
AcDbLine
 10
-211.499993
 20
-832.0597669999997
 30
0.0
 11
-206.499993
 21
-832.0597669999997
 31
0.0
  0
LINE
  5
6B3
330
903
100
AcDbEntity
  8
SIZE
100
AcDbLine
 10
-206.499993
 20
-832.0597669999997
 30
0.0
 11
-196.499993
 21
-832.0597669999997
 31
0.0
  0
LINE
  5
6B4
330
903
100
AcDbEntity
  8
SIZE
100
AcDbLine
 10
-152.500007
 20
-682.997657
 30
0.0
 11
-232.499993
 21
-682.997657
 31
0.0
  0
LINE
  5
6B5
330
903
100
AcDbEntity
  8
SIZE
100
AcDbLine
 10
-237.499993
 20
-682.997657
 30
0.0
 11
-232.499993
 21
-682.997657
 31
0.0
  0
CIRCLE
  5
6B6
330
903
100
AcDbEntity
  8
SIZE
100
AcDbCircle
 10
-242.499993
 20
-682.997657
 30
0.0
 40
5.0
  0
LINE
  5
6B7
330
903
100
AcDbEntity
  8
SIZE
100
AcDbLine
 10
-137.500007
 20
-682.997657
 30
0.0
 11
-132.500007
 21
-682.997657
 31
0.0
  0
CIRCLE
  5
6B8
330
903
100
AcDbEntity
  8
SIZE
100
AcDbCircle
 10
-142.500007
 20
-682.997657
 30
0.0
 40
5.0
  0
LINE
  5
6BA
330
903
100
AcDbEntity
  8
SIZE
100
AcDbLine
 10
-147.500007
 20
-682.997657
 30
0.0
 11
-152.500007
 21
-682.997657
 31
0.0
  0
CIRCLE
  5
6BB
330
903
100
AcDbEntity
  8
SIZE
100
AcDbCircle
 10
-142.500007
 20
-682.997657
 30
0.0
 40
5.0
  0
TEXT
  5
6BC
330
903
100
AcDbEntity
  8
SIZE
100
AcDbText
 10
-56.64285714285714
 20
-817.0597669999999
 30
0.0
 40
55.0
  1
447
 41
0.9
 72
     1
 11
7.0
 21
-817.0597669999999
 31
0.0
100
AcDbText
  0
TEXT
  5
6BD
330
903
100
AcDbEntity
  8
SIZE
100
AcDbText
 10
285.1415571428571
 20
-817.0597669999999
 30
0.0
 40
55.0
  1
12
 41
0.9
 72
     1
 11
320.4987
 21
-817.0597669999999
 31
0.0
100
AcDbText
  0
LINE
  5
6BE
330
903
100
AcDbEntity
  8
SIZE
100
AcDbLine
 10
370.855843
 20
-832.0597669999997
 30
0.0
 11
242.499993
 21
-832.0597669999997
 31
0.0
  0
LINE
  5
6BF
330
903
100
AcDbEntity
  8
SIZE
100
AcDbLine
 10
363.00273
 20
-682.997657
 30
0.0
 11
242.499993
 21
-682.997657
 31
0.0
  0
CIRCLE
  5
6C0
330
903
100
AcDbEntity
  8
SIZE
100
AcDbCircle
 10
230.499993
 20
-832.0597669999997
 30
0.0
 40
5.0
  0
LINE
  5
6C1
330
903
100
AcDbEntity
  8
SIZE
100
AcDbLine
 10
230.499993
 20
-832.0597669999997
 30
0.0
 11
242.499993
 21
-832.0597669999997
 31
0.0
  0
LINE
  5
6C2
330
903
100
AcDbEntity
  8
SIZE
100
AcDbLine
 10
230.499993
 20
-832.0597669999997
 30
0.0
 11
242.499993
 21
-832.0597669999997
 31
0.0
  0
CIRCLE
  5
6C3
330
903
100
AcDbEntity
  8
SIZE
100
AcDbCircle
 10
230.499993
 20
-832.0597669999997
 30
0.0
 40
5.0
  0
LINE
  5
6C4
330
903
100
AcDbEntity
  8
SIZE
100
AcDbLine
 10
225.499993
 20
-832.0597669999997
 30
0.0
 11
220.499993
 21
-832.0597669999997
 31
0.0
  0
LINE
  5
6C5
330
903
100
AcDbEntity
  8
SIZE
100
AcDbLine
 10
220.499993
 20
-832.0597669999997
 30
0.0
 11
210.499993
 21
-832.0597669999997
 31
0.0
  0
LINE
  5
6C7
330
903
100
AcDbEntity
  8
SIZE
100
AcDbLine
 10
225.499993
 20
-832.0597669999997
 30
0.0
 11
220.499993
 21
-832.0597669999997
 31
0.0
  0
LINE
  5
6C9
330
903
100
AcDbEntity
  8
SIZE
100
AcDbLine
 10
247.499993
 20
-832.0597669999997
 30
0.0
 11
252.499993
 21
-832.0597669999997
 31
0.0
  0
CIRCLE
  5
6CA
330
903
100
AcDbEntity
  8
SIZE
100
AcDbCircle
 10
242.499993
 20
-832.0597669999997
 30
0.0
 40
5.0
  0
LINE
  5
6CB
330
903
100
AcDbEntity
  8
SIZE
100
AcDbLine
 10
252.499993
 20
-832.0597669999997
 30
0.0
 11
262.499993
 21
-832.0597669999997
 31
0.0
  0
LINE
  5
6CC
330
903
100
AcDbEntity
  8
SIZE
100
AcDbLine
 10
167.499995
 20
-682.997657
 30
0.0
 11
232.499993
 21
-682.997657
 31
0.0
  0
LINE
  5
6CD
330
903
100
AcDbEntity
  8
SIZE
100
AcDbLine
 10
162.499995
 20
-682.997657
 30
0.0
 11
167.499995
 21
-682.997657
 31
0.0
  0
CIRCLE
  5
6CE
330
903
100
AcDbEntity
  8
SIZE
100
AcDbCircle
 10
157.499995
 20
-682.997657
 30
0.0
 40
5.0
  0
LINE
  5
6D0
330
903
100
AcDbEntity
  8
SIZE
100
AcDbLine
 10
152.4999949999999
 20
-682.997657
 30
0.0
 11
147.499995
 21
-682.997657
 31
0.0
  0
CIRCLE
  5
6D1
330
903
100
AcDbEntity
  8
SIZE
100
AcDbCircle
 10
157.499995
 20
-682.997657
 30
0.0
 40
5.0
  0
LINE
  5
6D3
330
903
100
AcDbEntity
  8
SIZE
100
AcDbLine
 10
237.499993
 20
-682.997657
 30
0.0
 11
232.499993
 21
-682.997657
 31
0.0
  0
CIRCLE
  5
6D4
330
903
100
AcDbEntity
  8
SIZE
100
AcDbCircle
 10
242.499993
 20
-682.997657
 30
0.0
 40
5.0
  0
LINE
  5
6D5
330
903
100
AcDbEntity
  8
SIZE
100
AcDbLine
 10
-136.5
 20
-522.44497
 30
0.0
 11
232.499993
 21
-522.44497
 31
0.0
  0
TEXT
  5
6D6
330
903
100
AcDbEntity
  8
SIZE
100
AcDbText
 10
72.57846685714287
 20
-371.421191
 30
0.0
 40
55.0
  1
235
 41
0.9
 72
     1
 11
136.221324
 21
-371.421191
 31
0.0
100
AcDbText
  0
LINE
  5
6D7
330
903
100
AcDbEntity
  8
SIZE
100
AcDbLine
 10
17.499993
 20
-386.421191
 30
0.0
 11
232.499993
 21
-386.421191
 31
0.0
  0
TEXT
  5
6D8
330
903
100
AcDbEntity
  8
SIZE
100
AcDbText
 10
43.92856442857145
 20
-231.957677
 30
0.0
 40
55.0
  1
85
 41
0.9
 72
     1
 11
83.99999300000002
 21
-231.957677
 31
0.0
100
AcDbText
  0
LINE
  5
6D9
330
903
100
AcDbEntity
  8
SIZE
100
AcDbLine
 10
126.499993
 20
-246.957677
 30
0.0
 11
41.499993
 21
-246.957677
 31
0.0
  0
LINE
  5
6DA
330
903
100
AcDbEntity
  8
SIZE
100
AcDbLine
 10
-112.499997
 20
-20.0
 30
0.0
 11
-112.499997
 21
-417.7181059999998
 31
0.0
  0
LINE
  5
6DB
330
903
100
AcDbEntity
  8
SIZE
100
AcDbLine
 10
-172.499995
 20
-20.0
 30
0.0
 11
-172.499995
 21
-417.7181059999998
 31
0.0
  0
LINE
  5
6DC
330
903
100
AcDbEntity
  8
SIZE
100
AcDbLine
 10
-141.5
 20
-522.44497
 30
0.0
 11
-136.5
 21
-522.44497
 31
0.0
  0
CIRCLE
  5
6DD
330
903
100
AcDbEntity
  8
SIZE
100
AcDbCircle
 10
-146.5
 20
-522.44497
 30
0.0
 40
5.0
  0
LINE
  5
6DF
330
903
100
AcDbEntity
  8
SIZE
100
AcDbLine
 10
-167.499995
 20
-387.718106
 30
0.0
 11
-162.499995
 21
-387.718106
 31
0.0
  0
CIRCLE
  5
6E0
330
903
100
AcDbEntity
  8
SIZE
100
AcDbCircle
 10
-172.499995
 20
-387.718106
 30
0.0
 40
5.0
  0
LINE
  5
6E1
330
903
100
AcDbEntity
  8
SIZE
100
AcDbLine
 10
-117.499997
 20
-387.718106
 30
0.0
 11
-122.499997
 21
-387.718106
 31
0.0
  0
CIRCLE
  5
6E2
330
903
100
AcDbEntity
  8
SIZE
100
AcDbCircle
 10
-112.499997
 20
-387.718106
 30
0.0
 40
5.0
  0
LINE
  5
6E3
330
903
100
AcDbEntity
  8
SIZE
100
AcDbLine
 10
-122.499997
 20
-387.718106
 30
0.0
 11
-162.499995
 21
-387.718106
 31
0.0
  0
TEXT
  5
6E4
330
903
100
AcDbEntity
  8
SIZE
100
AcDbText
 10
-37.00074471428571
 20
-507.5379969999998
 30
0.0
 40
55.0
  1
389
 41
0.9
 72
     1
 11
25.463541
 21
-507.5379969999998
 31
0.0
100
AcDbText
  0
CIRCLE
  5
6E5
330
903
100
AcDbEntity
  8
SIZE
100
AcDbCircle
 10
7.499992999999999
 20
-386.421191
 30
0.0
 40
5.0
  0
LINE
  5
6E6
330
903
100
AcDbEntity
  8
SIZE
100
AcDbLine
 10
12.499993
 20
-386.421191
 30
0.0
 11
17.499993
 21
-386.421191
 31
0.0
  0
LINE
  5
6E8
330
903
100
AcDbEntity
  8
SIZE
100
AcDbLine
 10
36.499993
 20
-246.957677
 30
0.0
 11
31.499993
 21
-246.957677
 31
0.0
  0
CIRCLE
  5
6E9
330
903
100
AcDbEntity
  8
SIZE
100
AcDbCircle
 10
41.499993
 20
-246.957677
 30
0.0
 40
5.0
  0
LINE
  5
6EA
330
903
100
AcDbEntity
  8
SIZE
100
AcDbLine
 10
31.499993
 20
-246.957677
 30
0.0
 11
21.499993
 21
-246.957677
 31
0.0
  0
LINE
  5
6EC
330
903
100
AcDbEntity
  8
SIZE
100
AcDbLine
 10
237.499993
 20
-522.44497
 30
0.0
 11
232.499993
 21
-522.44497
 31
0.0
  0
CIRCLE
  5
6ED
330
903
100
AcDbEntity
  8
SIZE
100
AcDbCircle
 10
242.499993
 20
-522.44497
 30
0.0
 40
5.0
  0
LINE
  5
6EF
330
903
100
AcDbEntity
  8
SIZE
100
AcDbLine
 10
237.499993
 20
-386.421191
 30
0.0
 11
232.499993
 21
-386.421191
 31
0.0
  0
CIRCLE
  5
6F0
330
903
100
AcDbEntity
  8
SIZE
100
AcDbCircle
 10
242.499993
 20
-386.421191
 30
0.0
 40
5.0
  0
TEXT
  5
6F1
330
903
100
AcDbEntity
  8
SIZE
100
AcDbText
 10
267.4999927142857
 20
-231.957677
 30
0.0
 40
55.0
  1
116
 41
0.9
 72
     1
 11
320.535707
 21
-231.957677
 31
0.0
100
AcDbText
  0
LINE
  5
6F2
330
903
100
AcDbEntity
  8
SIZE
100
AcDbLine
 10
242.499993
 20
-246.957677
 30
0.0
 11
388.571421
 21
-246.957677
 31
0.0
  0
LINE
  5
6F3
330
903
100
AcDbEntity
  8
SIZE
100
AcDbLine
 10
136.499993
 20
-246.957677
 30
0.0
 11
232.499993
 21
-246.957677
 31
0.0
  0
LINE
  5
6F4
330
903
100
AcDbEntity
  8
SIZE
100
AcDbLine
 10
131.499993
 20
-246.957677
 30
0.0
 11
136.499993
 21
-246.957677
 31
0.0
  0
CIRCLE
  5
6F5
330
903
100
AcDbEntity
  8
SIZE
100
AcDbCircle
 10
126.499993
 20
-246.957677
 30
0.0
 40
5.0
  0
LINE
  5
6F6
330
903
100
AcDbEntity
  8
SIZE
100
AcDbLine
 10
136.499993
 20
-246.957677
 30
0.0
 11
146.499993
 21
-246.957677
 31
0.0
  0
LINE
  5
6F8
330
903
100
AcDbEntity
  8
SIZE
100
AcDbLine
 10
131.499993
 20
-246.957677
 30
0.0
 11
136.499993
 21
-246.957677
 31
0.0
  0
CIRCLE
  5
6F9
330
903
100
AcDbEntity
  8
SIZE
100
AcDbCircle
 10
126.499993
 20
-246.957677
 30
0.0
 40
5.0
  0
LINE
  5
6FA
330
903
100
AcDbEntity
  8
SIZE
100
AcDbLine
 10
237.499993
 20
-246.957677
 30
0.0
 11
232.499993
 21
-246.957677
 31
0.0
  0
CIRCLE
  5
6FB
330
903
100
AcDbEntity
  8
SIZE
100
AcDbCircle
 10
242.499993
 20
-246.957677
 30
0.0
 40
5.0
  0
TEXT
  5
6FE
330
903
100
AcDbEntity
  8
NOTE
100
AcDbText
 10
379.526915
 20
1012.661706
 30
0.0
 40
64.0
  1
D1 Rc1-1/4
 41
0.9
100
AcDbText
  0
LINE
  5
6FF
330
903
100
AcDbEntity
  8
NOTE
100
AcDbLine
 10
381.682871
 20
988.8989999999999
 30
0.0
 11
862.456856
 21
988.8989999999999
 31
0.0
  0
LINE
  5
700
330
903
100
AcDbEntity
  8
SIZE
100
AcDbLine
 10
250.499993
 20
0.0
 30
0.0
 11
1117.120929
 21
0.0
 31
0.0
  0
LINE
  5
701
330
903
100
AcDbEntity
  8
SIZE
100
AcDbLine
 10
250.499993
 20
0.0
 30
0.0
 11
946.095706
 21
0.0
 31
0.0
  0
LINE
  5
702
330
903
100
AcDbEntity
  8
SIZE
100
AcDbLine
 10
250.499993
 20
0.0
 30
0.0
 11
785.878836
 21
0.0
 31
0.0
  0
LINE
  5
703
330
903
100
AcDbEntity
  8
SIZE
100
AcDbLine
 10
197.166658
 20
630.0
 30
0.0
 11
785.878836
 21
630.0
 31
0.0
  0
TEXT
  5
704
330
903
100
AcDbEntity
  8
SIZE
100
AcDbText
 10
600.180893
 20
50.53571428571429
 30
0.0
 40
55.0
  1
226
 50
90.0
 41
0.9
 72
     1
 11
600.180893
 21
113.0
 31
0.0
100
AcDbText
  0
LINE
  5
705
330
903
100
AcDbEntity
  8
SIZE
100
AcDbLine
 10
250.499993
 20
0.0
 30
0.0
 11
645.1808929999998
 21
0.0
 31
0.0
  0
LINE
  5
706
330
903
100
AcDbEntity
  8
SIZE
100
AcDbLine
 10
163.691658
 20
226.0
 30
0.0
 11
645.1808929999998
 21
226.0
 31
0.0
  0
LINE
  5
707
330
903
100
AcDbEntity
  8
NOTE
100
AcDbLine
 10
135.499993
 20
671.666665
 30
0.0
 11
135.499993
 21
588.3333349999998
 31
0.0
  0
LWPOLYLINE
  5
708
330
903
100
AcDbEntity
  8
OUTLINE
100
AcDbPolyline
 90
        4
 70
     1
 43
0.0
 10
-216.499993
 20
130.0
 10
230.499993
 20
130.0
 10
230.499993
 20
0.0
 10
-216.499993
 20
0.0
  0
LINE
  5
70E
330
903
100
AcDbEntity
  8
SIZE
100
AcDbLine
 10
59.166658
 20
102.0
 30
0.0
 11
418.234583
 21
102.0
 31
0.0
  0
LINE
  5
70F
330
903
100
AcDbEntity
  8
SIZE
100
AcDbLine
 10
77.106658
 20
224.0
 30
0.0
 11
523.518457
 21
224.0
 31
0.0
  0
LINE
  5
710
330
903
100
AcDbEntity
  8
DETAIL
100
AcDbLine
 10
-242.499993
 20
130.0
 30
0.0
 11
242.499993
 21
130.0
 31
0.0
  0
LINE
  5
711
330
903
100
AcDbEntity
  8
DETAIL
100
AcDbLine
 10
-13.205734
 20
430.999987
 30
0.0
 11
186.79426
 21
430.999987
 31
0.0
  0
ARC
  5
712
330
903
100
AcDbEntity
  8
DETAIL
100
AcDbCircle
 10
126.794261
 20
260.999992
 30
0.0
 40
26.999999
100
AcDbArc
 50
0.0
 51
180.0
  0
LINE
  5
713
330
903
100
AcDbEntity
  8
NOTE
100
AcDbLine
 10
143.691658
 20
226.0
 30
0.0
 11
109.308327
 21
226.0
 31
0.0
  0
CIRCLE
  5
714
330
903
100
AcDbEntity
  8
DETAIL
100
AcDbCircle
 10
126.499993
 20
226.0
 30
0.0
 40
10.525
  0
CIRCLE
  5
715
330
903
100
AcDbEntity
  8
DETAIL
100
AcDbCircle
 10
126.499993
 20
226.0
 30
0.0
 40
9.525
  0
LINE
  5
716
330
903
100
AcDbEntity
  8
DETAIL
100
AcDbLine
 10
-3.205734999999998
 20
210.999994
 30
0.0
 11
176.79426
 21
210.999994
 31
0.0
  0
LINE
  5
717
330
903
100
AcDbEntity
  8
DETAIL
100
AcDbLine
 10
201.794259
 20
450.999986
 30
0.0
 11
-28.20573400000001
 21
450.999986
 31
0.0
  0
LINE
  5
718
330
903
100
AcDbEntity
  8
DETAIL
100
AcDbLine
 10
-216.499993
 20
0.0
 30
0.0
 11
230.499993
 21
0.0
 31
0.0
  0
LINE
  5
719
330
903
100
AcDbEntity
  8
NOTE
100
AcDbLine
 10
-146.5
 20
348.998463
 30
0.0
 11
-146.5
 21
301.001537
 31
0.0
  0
LINE
  5
71A
330
903
100
AcDbEntity
  8
DETAIL
100
AcDbLine
 10
-33.205734
 20
195.999994
 30
0.0
 11
-33.205734
 21
445.999986
 31
0.0
  0
LINE
  5
71B
330
903
100
AcDbEntity
  8
DETAIL
100
AcDbLine
 10
-23.205734
 20
420.999987
 30
0.0
 11
-23.205734
 21
220.999993
 31
0.0
  0
LINE
  5
723
330
903
100
AcDbEntity
  8
NOTE
100
AcDbLine
 10
-122.499996
 20
0.0
 30
0.0
 11
-162.499996
 21
0.0
 31
0.0
  0
LINE
  5
728
330
903
100
AcDbEntity
  8
DETAIL
100
AcDbLine
 10
-216.499993
 20
0.0
 30
0.0
 11
-216.499993
 21
130.0
 31
0.0
  0
CIRCLE
  5
729
330
903
100
AcDbEntity
  8
DETAIL
100
AcDbCircle
 10
-186.899994
 20
144.999996
 30
0.0
 40
2.25
  0
LINE
  5
72A
330
903
100
AcDbEntity
  8
DETAIL
100
AcDbLine
 10
-117.499996
 20
2.299999999999998
 30
0.0
 11
-117.499996
 21
0.0
 31
0.0
  0
LINE
  5
72B
330
903
100
AcDbEntity
  8
DETAIL
100
AcDbLine
 10
-112.499997
 20
34.99999900000001
 30
0.0
 11
-112.499997
 21
0.0
 31
0.0
  0
LINE
  5
72C
330
903
100
AcDbEntity
  8
DETAIL
100
AcDbLine
 10
-167.499995
 20
2.299999999999998
 30
0.0
 11
-167.499995
 21
0.0
 31
0.0
  0
LINE
  5
72D
330
903
100
AcDbEntity
  8
DETAIL
100
AcDbLine
 10
-172.499995
 20
34.99999900000001
 30
0.0
 11
-172.499995
 21
0.0
 31
0.0
  0
LINE
  5
72E
330
903
100
AcDbEntity
  8
DETAIL
100
AcDbLine
 10
-112.499997
 20
0.0
 30
0.0
 11
-172.499995
 21
0.0
 31
0.0
  0
LINE
  5
72F
330
903
100
AcDbEntity
  8
DETAIL
100
AcDbLine
 10
-112.499997
 20
2.299999999999998
 30
0.0
 11
-172.499995
 21
2.299999999999998
 31
0.0
  0
LINE
  5
730
330
903
100
AcDbEntity
  8
DETAIL
100
AcDbLine
 10
-112.499997
 20
34.99999900000001
 30
0.0
 11
-172.499995
 21
34.99999900000001
 31
0.0
  0
LINE
  5
732
330
903
100
AcDbEntity
  8
NOTE
100
AcDbLine
 10
-146.5
 20
275.0
 30
0.0
 11
-163.079891
 21
303.917439
 31
0.0
  0
LINE
  5
733
330
903
100
AcDbEntity
  8
NOTE
100
AcDbLine
 10
-146.5
 20
275.0
 30
0.0
 11
-175.317326
 21
291.753291
 31
0.0
  0
LINE
  5
734
330
903
100
AcDbEntity
  8
NOTE
100
AcDbLine
 10
-146.5
 20
210.0
 30
0.0
 11
-165.403985
 21
237.454515
 31
0.0
  0
LINE
  5
735
330
903
100
AcDbEntity
  8
NOTE
100
AcDbLine
 10
-146.5
 20
210.0
 30
0.0
 11
-176.598589
 21
224.324315
 31
0.0
  0
LINE
  5
73A
330
903
100
AcDbEntity
  8
NOTE
100
AcDbLine
 10
-104.8333
 20
210.0
 30
0.0
 11
-188.1667
 21
210.0
 31
0.0
  0
LINE
  5
73B
330
903
100
AcDbEntity
  8
NOTE
100
AcDbLine
 10
-146.5
 20
251.666665
 30
0.0
 11
-146.5
 21
168.333335
 31
0.0
  0
CIRCLE
  5
73C
330
903
100
AcDbEntity
  8
DETAIL
100
AcDbCircle
 10
-146.5
 20
210.0
 30
0.0
 40
21.5
  0
CIRCLE
  5
73D
330
903
100
AcDbEntity
  8
DETAIL
100
AcDbCircle
 10
-146.5
 20
275.0
 30
0.0
 40
13.5
  0
LINE
  5
73E
330
903
100
AcDbEntity
  8
NOTE
100
AcDbLine
 10
-122.5015
 20
275.0
 30
0.0
 11
-170.4985
 21
275.0
 31
0.0
  0
LINE
  5
73F
330
903
100
AcDbEntity
  8
NOTE
100
AcDbLine
 10
-146.5
 20
298.998463
 30
0.0
 11
-146.5
 21
251.001537
 31
0.0
  0
CIRCLE
  5
740
330
903
100
AcDbEntity
  8
DETAIL
100
AcDbCircle
 10
7.499992999999999
 20
102.0
 30
0.0
 40
18.999999
  0
LINE
  5
741
330
903
100
AcDbEntity
  8
NOTE
100
AcDbLine
 10
39.166658
 20
102.0
 30
0.0
 11
-24.166673
 21
102.0
 31
0.0
  0
CIRCLE
  5
742
330
903
100
AcDbEntity
  8
DETAIL
100
AcDbCircle
 10
7.499992999999999
 20
102.126566
 30
0.0
 40
14.0
  0
LINE
  5
743
330
903
100
AcDbEntity
  8
NOTE
100
AcDbLine
 10
7.500003999999998
 20
102.000011
 30
0.0
 11
-8.271758999999999
 21
72.634001
 31
0.0
  0
LINE
  5
744
330
903
100
AcDbEntity
  8
NOTE
100
AcDbLine
 10
7.500003999999998
 20
102.000011
 30
0.0
 11
-20.841749
 21
84.45418199999997
 31
0.0
  0
LINE
  5
747
330
903
100
AcDbEntity
  8
NOTE
100
AcDbLine
 10
7.499992999999999
 20
133.666665
 30
0.0
 11
7.499992999999999
 21
70.33333499999999
 31
0.0
  0
LINE
  5
748
330
903
100
AcDbEntity
  8
DETAIL
100
AcDbLine
 10
-3.205734999999998
 20
213.999993
 30
0.0
 11
19.794265
 21
213.999993
 31
0.0
  0
LINE
  5
749
330
903
100
AcDbEntity
  8
DETAIL
100
AcDbLine
 10
-3.205734999999998
 20
190.999994
 30
0.0
 11
-3.205734999999998
 21
213.999993
 31
0.0
  0
LINE
  5
74A
330
903
100
AcDbEntity
  8
DETAIL
100
AcDbLine
 10
-33.205734
 20
195.999994
 30
0.0
 11
-28.20573400000001
 21
190.999994
 31
0.0
  0
ARC
  5
74B
330
903
100
AcDbEntity
  8
DETAIL
100
AcDbCircle
 10
-13.205734
 20
220.999993
 30
0.0
 40
10.0
100
AcDbArc
 50
180.0
 51
270.0
  0
LINE
  5
74C
330
903
100
AcDbEntity
  8
DETAIL
100
AcDbLine
 10
-28.20573400000001
 20
190.999994
 30
0.0
 11
-3.205734999999998
 21
190.999994
 31
0.0
  0
LINE
  5
74D
330
903
100
AcDbEntity
  8
DETAIL
100
AcDbLine
 10
-13.205734
 20
210.999994
 30
0.0
 11
-3.205734999999998
 21
210.999994
 31
0.0
  0
LINE
  5
750
330
903
100
AcDbEntity
  8
DETAIL
100
AcDbLine
 10
73.794263
 20
213.999993
 30
0.0
 11
99.794262
 21
213.999993
 31
0.0
  0
LINE
  5
751
330
903
100
AcDbEntity
  8
DETAIL
100
AcDbLine
 10
73.794263
 20
210.999994
 30
0.0
 11
73.794263
 21
260.999992
 31
0.0
  0
LINE
  5
752
330
903
100
AcDbEntity
  8
DETAIL
100
AcDbLine
 10
99.794262
 20
210.999994
 30
0.0
 11
99.794262
 21
260.999992
 31
0.0
  0
LINE
  5
753
330
903
100
AcDbEntity
  8
NOTE
100
AcDbLine
 10
41.499993
 20
224.0
 30
0.0
 11
56.745263
 21
194.357247
 31
0.0
  0
CIRCLE
  5
754
330
903
100
AcDbEntity
  8
DETAIL
100
AcDbCircle
 10
41.499993
 20
224.0
 30
0.0
 40
8.939999999999997
  0
CIRCLE
  5
755
330
903
100
AcDbEntity
  8
DETAIL
100
AcDbCircle
 10
41.499993
 20
224.0
 30
0.0
 40
7.94
  0
LINE
  5
756
330
903
100
AcDbEntity
  8
NOTE
100
AcDbLine
 10
41.499993
 20
239.606666
 30
0.0
 11
41.499993
 21
208.393334
 31
0.0
  0
LINE
  5
757
330
903
100
AcDbEntity
  8
DETAIL
100
AcDbLine
 10
19.794265
 20
210.999994
 30
0.0
 11
19.794265
 21
260.999992
 31
0.0
  0
LINE
  5
758
330
903
100
AcDbEntity
  8
NOTE
100
AcDbLine
 10
41.499993
 20
224.0
 30
0.0
 11
69.52415999999999
 21
205.951259
 31
0.0
  0
LINE
  5
759
330
903
100
AcDbEntity
  8
NOTE
100
AcDbLine
 10
57.106658
 20
224.0
 30
0.0
 11
25.893327
 21
224.0
 31
0.0
  0
ARC
  5
75A
330
903
100
AcDbEntity
  8
DETAIL
100
AcDbCircle
 10
46.79426399999999
 20
260.999992
 30
0.0
 40
26.999999
100
AcDbArc
 50
0.0
 51
180.0
  0
LINE
  5
75B
330
903
100
AcDbEntity
  8
NOTE
100
AcDbLine
 10
-146.5
 20
325.0
 30
0.0
 11
-156.43535
 21
356.818232
 31
0.0
  0
LINE
  5
75C
330
903
100
AcDbEntity
  8
NOTE
100
AcDbLine
 10
-146.5
 20
325.0
 30
0.0
 11
-171.013381
 21
347.587722
 31
0.0
  0
LINE
  5
75E
330
903
100
AcDbEntity
  8
NOTE
100
AcDbLine
 10
-122.5015
 20
325.0
 30
0.0
 11
-170.4985
 21
325.0
 31
0.0
  0
CIRCLE
  5
75F
330
903
100
AcDbEntity
  8
DETAIL
100
AcDbCircle
 10
-146.5
 20
325.0
 30
0.0
 40
13.5
  0
LINE
  5
760
330
903
100
AcDbEntity
  8
DETAIL
100
AcDbLine
 10
-33.205734
 20
445.999986
 30
0.0
 11
-28.20573400000001
 21
450.999986
 31
0.0
  0
ARC
  5
761
330
903
100
AcDbEntity
  8
DETAIL
100
AcDbCircle
 10
-13.205734
 20
420.999987
 30
0.0
 40
10.0
100
AcDbArc
 50
90.0
 51
180.0
  0
CIRCLE
  5
762
330
903
100
AcDbEntity
  8
DETAIL
100
AcDbCircle
 10
1.794265
 20
440.999987
 30
0.0
 40
3.0
  0
LINE
  5
763
330
903
100
AcDbEntity
  8
DETAIL
100
AcDbLine
 10
206.794259
 20
195.999994
 30
0.0
 11
206.794259
 21
445.999986
 31
0.0
  0
LINE
  5
764
330
903
100
AcDbEntity
  8
DETAIL
100
AcDbLine
 10
196.794259
 20
420.999987
 30
0.0
 11
196.794259
 21
220.999993
 31
0.0
  0
TEXT
  5
765
330
903
100
AcDbEntity
  8
SIZE
100
AcDbText
 10
373.234583
 20
16.86617957142857
 30
0.0
 40
55.0
  1
102
 50
90.0
 41
0.9
 72
     1
 11
373.234583
 21
75.794751
 31
0.0
100
AcDbText
  0
LINE
  5
766
330
903
100
AcDbEntity
  8
SIZE
100
AcDbLine
 10
250.499993
 20
0.0
 30
0.0
 11
418.234583
 21
0.0
 31
0.0
  0
LINE
  5
767
330
903
100
AcDbEntity
  8
SIZE
100
AcDbLine
 10
250.499993
 20
0.0
 30
0.0
 11
523.518457
 21
0.0
 31
0.0
  0
LINE
  5
76A
330
903
100
AcDbEntity
  8
NOTE
100
AcDbLine
 10
177.4999949999999
 20
0.0
 30
0.0
 11
137.499995
 21
0.0
 31
0.0
  0
LINE
  5
771
330
903
100
AcDbEntity
  8
DETAIL
100
AcDbLine
 10
230.499993
 20
0.0
 30
0.0
 11
230.499993
 21
130.0
 31
0.0
  0
CIRCLE
  5
772
330
903
100
AcDbEntity
  8
DETAIL
100
AcDbCircle
 10
201.899994
 20
144.999996
 30
0.0
 40
2.25
  0
LINE
  5
773
330
903
100
AcDbEntity
  8
DETAIL
100
AcDbLine
 10
187.499994
 20
34.99999900000001
 30
0.0
 11
187.499994
 21
0.0
 31
0.0
  0
LINE
  5
774
330
903
100
AcDbEntity
  8
DETAIL
100
AcDbLine
 10
132.499996
 20
2.299999999999998
 30
0.0
 11
132.499996
 21
0.0
 31
0.0
  0
LINE
  5
775
330
903
100
AcDbEntity
  8
DETAIL
100
AcDbLine
 10
182.499994
 20
2.299999999999998
 30
0.0
 11
182.499994
 21
0.0
 31
0.0
  0
LINE
  5
776
330
903
100
AcDbEntity
  8
DETAIL
100
AcDbLine
 10
127.499996
 20
34.99999900000001
 30
0.0
 11
127.499996
 21
0.0
 31
0.0
  0
LINE
  5
777
330
903
100
AcDbEntity
  8
DETAIL
100
AcDbLine
 10
127.499996
 20
34.99999900000001
 30
0.0
 11
187.499994
 21
34.99999900000001
 31
0.0
  0
LINE
  5
778
330
903
100
AcDbEntity
  8
DETAIL
100
AcDbLine
 10
127.499996
 20
2.299999999999998
 30
0.0
 11
187.499994
 21
2.299999999999998
 31
0.0
  0
LINE
  5
779
330
903
100
AcDbEntity
  8
DETAIL
100
AcDbLine
 10
127.499996
 20
0.0
 30
0.0
 11
187.499994
 21
0.0
 31
0.0
  0
LINE
  5
782
330
903
100
AcDbEntity
  8
DETAIL
100
AcDbLine
 10
206.794259
 20
195.999994
 30
0.0
 11
201.794259
 21
190.999994
 31
0.0
  0
LINE
  5
783
330
903
100
AcDbEntity
  8
NOTE
100
AcDbLine
 10
126.499993
 20
226.0
 30
0.0
 11
154.334079
 21
207.65948
 31
0.0
  0
LINE
  5
784
330
903
100
AcDbEntity
  8
NOTE
100
AcDbLine
 10
126.499993
 20
226.0
 30
0.0
 11
141.434758
 21
196.1996
 31
0.0
  0
LINE
  5
785
330
903
100
AcDbEntity
  8
DETAIL
100
AcDbLine
 10
153.794261
 20
213.999993
 30
0.0
 11
176.79426
 21
213.999993
 31
0.0
  0
LINE
  5
786
330
903
100
AcDbEntity
  8
DETAIL
100
AcDbLine
 10
176.79426
 20
190.999994
 30
0.0
 11
176.79426
 21
213.999993
 31
0.0
  0
LINE
  5
787
330
903
100
AcDbEntity
  8
DETAIL
100
AcDbLine
 10
176.79426
 20
210.999994
 30
0.0
 11
186.79426
 21
210.999994
 31
0.0
  0
LINE
  5
788
330
903
100
AcDbEntity
  8
NOTE
100
AcDbLine
 10
126.499993
 20
243.191666
 30
0.0
 11
126.499993
 21
208.808334
 31
0.0
  0
LINE
  5
789
330
903
100
AcDbEntity
  8
DETAIL
100
AcDbLine
 10
153.794261
 20
210.999994
 30
0.0
 11
153.794261
 21
260.999992
 31
0.0
  0
LINE
  5
78A
330
903
100
AcDbEntity
  8
DETAIL
100
AcDbLine
 10
201.794259
 20
190.999994
 30
0.0
 11
176.79426
 21
190.999994
 31
0.0
  0
ARC
  5
78B
330
903
100
AcDbEntity
  8
DETAIL
100
AcDbCircle
 10
186.79426
 20
220.999993
 30
0.0
 40
10.0
100
AcDbArc
 50
270.0
 51
0.0
  0
TEXT
  5
78C
330
903
100
AcDbEntity
  8
SIZE
100
AcDbText
 10
478.518457
 20
35.73297842857143
 30
0.0
 40
55.0
  1
224
 50
90.0
 41
0.9
 72
     1
 11
478.518457
 21
100.554407
 31
0.0
100
AcDbText
  0
LINE
  5
78D
330
903
100
AcDbEntity
  8
SIZE
100
AcDbLine
 10
493.518457
 20
10.0
 30
0.0
 11
493.518457
 21
214.0
 31
0.0
  0
LINE
  5
78F
330
903
100
AcDbEntity
  8
SIZE
100
AcDbLine
 10
388.234583
 20
5.0
 30
0.0
 11
388.234583
 21
10.0
 31
0.0
  0
LINE
  5
790
330
903
100
AcDbEntity
  8
SIZE
100
AcDbLine
 10
388.234583
 20
97.0
 30
0.0
 11
388.234583
 21
92.0
 31
0.0
  0
CIRCLE
  5
791
330
903
100
AcDbEntity
  8
SIZE
100
AcDbCircle
 10
388.234583
 20
102.0
 30
0.0
 40
5.0
  0
LINE
  5
792
330
903
100
AcDbEntity
  8
SIZE
100
AcDbLine
 10
388.234583
 20
92.0
 30
0.0
 11
388.234583
 21
10.0
 31
0.0
  0
LINE
  5
793
330
903
100
AcDbEntity
  8
SIZE
100
AcDbLine
 10
493.518457
 20
5.0
 30
0.0
 11
493.518457
 21
10.0
 31
0.0
  0
LINE
  5
795
330
903
100
AcDbEntity
  8
SIZE
100
AcDbLine
 10
493.518457
 20
219.0
 30
0.0
 11
493.518457
 21
214.0
 31
0.0
  0
CIRCLE
  5
796
330
903
100
AcDbEntity
  8
SIZE
100
AcDbCircle
 10
493.518457
 20
224.0
 30
0.0
 40
5.0
  0
TEXT
  5
797
330
903
100
AcDbEntity
  8
SIZE
100
AcDbText
 10
267.4999925714285
 20
518.176691
 30
0.0
 40
55.0
  1
107
 41
0.9
 72
     1
 11
326.428564
 21
518.176691
 31
0.0
100
AcDbText
  0
LINE
  5
798
330
903
100
AcDbEntity
  8
SIZE
100
AcDbLine
 10
242.499993
 20
503.1766909999998
 30
0.0
 11
400.357135
 21
503.1766909999998
 31
0.0
  0
LINE
  5
799
330
903
100
AcDbEntity
  8
DETAIL
100
AcDbLine
 10
201.794259
 20
450.999986
 30
0.0
 11
206.794259
 21
445.999986
 31
0.0
  0
CIRCLE
  5
79A
330
903
100
AcDbEntity
  8
DETAIL
100
AcDbCircle
 10
171.79426
 20
440.999987
 30
0.0
 40
3.0
  0
ARC
  5
79B
330
903
100
AcDbEntity
  8
DETAIL
100
AcDbCircle
 10
186.79426
 20
420.999987
 30
0.0
 40
10.0
100
AcDbArc
 50
0.0
 51
90.0
  0
LINE
  5
79C
330
903
100
AcDbEntity
  8
SIZE
100
AcDbLine
 10
145.499993
 20
503.1766909999998
 30
0.0
 11
232.499993
 21
503.1766909999998
 31
0.0
  0
LINE
  5
79F
330
903
100
AcDbEntity
  8
SIZE
100
AcDbLine
 10
140.499993
 20
503.1766909999998
 30
0.0
 11
145.499993
 21
503.1766909999998
 31
0.0
  0
CIRCLE
  5
7A0
330
903
100
AcDbEntity
  8
SIZE
100
AcDbCircle
 10
135.499993
 20
503.1766909999998
 30
0.0
 40
5.0
  0
LINE
  5
7A1
330
903
100
AcDbEntity
  8
SIZE
100
AcDbLine
 10
135.499993
 20
568.3333349999998
 30
0.0
 11
135.499993
 21
473.176691
 31
0.0
  0
LINE
  5
7A2
330
903
100
AcDbEntity
  8
SIZE
100
AcDbLine
 10
237.499993
 20
503.1766909999998
 30
0.0
 11
232.499993
 21
503.1766909999998
 31
0.0
  0
CIRCLE
  5
7A3
330
903
100
AcDbEntity
  8
SIZE
100
AcDbCircle
 10
242.499993
 20
503.1766909999998
 30
0.0
 40
5.0
  0
LINE
  5
7A4
330
903
100
AcDbEntity
  8
SIZE
100
AcDbLine
 10
242.499993
 20
610.0
 30
0.0
 11
242.499993
 21
473.176691
 31
0.0
  0
CIRCLE
  5
7A5
330
903
100
AcDbEntity
  8
DETAIL
100
AcDbCircle
 10
135.499995
 20
630.0000129999999
 30
0.0
 40
18.999999
  0
LINE
  5
7A6
330
903
100
AcDbEntity
  8
SIZE
100
AcDbLine
 10
220.161289
 20
711.714319
 30
0.0
 11
97.499997
 21
711.714319
 31
0.0
  0
LINE
  5
7A7
330
903
100
AcDbEntity
  8
NOTE
100
AcDbLine
 10
177.166658
 20
630.0
 30
0.0
 11
93.833327
 21
630.0
 31
0.0
  0
LINE
  5
7A8
330
903
100
AcDbEntity
  8
SIZE
100
AcDbLine
 10
-325.30557
 20
918.9999719999999
 30
0.0
 11
-325.30557
 21
833.999975
 31
0.0
  0
LINE
  5
7A9
330
903
100
AcDbEntity
  8
NOTE
100
AcDbLine
 10
-192.499994
 20
925.2051469999999
 30
0.0
 11
-192.499994
 21
912.794796
 31
0.0
  0
LINE
  5
7AA
330
903
100
AcDbEntity
  8
NOTE
100
AcDbLine
 10
97.499997
 20
925.2051469999999
 30
0.0
 11
97.499997
 21
912.794796
 31
0.0
  0
LINE
  5
7AB
330
903
100
AcDbEntity
  8
DETAIL
100
AcDbLine
 10
87.499997
 20
848.999974
 30
0.0
 11
87.499997
 21
988.99997
 31
0.0
  0
LINE
  5
7AC
330
903
100
AcDbEntity
  8
DETAIL
100
AcDbLine
 10
-182.499994
 20
848.999974
 30
0.0
 11
-182.499994
 21
988.99997
 31
0.0
  0
TEXT
  5
7AD
330
903
100
AcDbEntity
  8
SIZE
100
AcDbText
 10
-119.7269404285714
 20
727.7155759999998
 30
0.0
 40
55.0
  1
150
 41
0.9
 72
     1
 11
-60.798369
 21
727.7155759999998
 31
0.0
100
AcDbText
  0
LINE
  5
7AE
330
903
100
AcDbEntity
  8
SIZE
100
AcDbLine
 10
-112.499996
 20
711.714319
 30
0.0
 11
17.499999
 21
711.714319
 31
0.0
  0
LINE
  5
7AF
330
903
100
AcDbEntity
  8
DETAIL
100
AcDbLine
 10
-177.4999949999999
 20
843.9999740000001
 30
0.0
 11
82.499997
 21
843.9999740000001
 31
0.0
  0
LINE
  5
7B0
330
903
100
AcDbEntity
  8
SIZE
100
AcDbLine
 10
-122.499996
 20
807.794799
 30
0.0
 11
-122.499996
 21
681.714319
 31
0.0
  0
LINE
  5
7B1
330
903
100
AcDbEntity
  8
SIZE
100
AcDbLine
 10
-122.499996
 20
807.794799
 30
0.0
 11
-122.499996
 21
681.714319
 31
0.0
  0
LINE
  5
7B2
330
903
100
AcDbEntity
  8
SIZE
100
AcDbLine
 10
-192.499994
 20
892.794796
 30
0.0
 11
-192.499994
 21
681.714319
 31
0.0
  0
LINE
  5
7B3
330
903
100
AcDbEntity
  8
SIZE
100
AcDbLine
 10
-117.499996
 20
711.714319
 30
0.0
 11
-112.499996
 21
711.714319
 31
0.0
  0
CIRCLE
  5
7B4
330
903
100
AcDbEntity
  8
SIZE
100
AcDbCircle
 10
-122.499996
 20
711.714319
 30
0.0
 40
5.0
  0
LINE
  5
7B6
330
903
100
AcDbEntity
  8
SIZE
100
AcDbLine
 10
-187.499994
 20
711.714319
 30
0.0
 11
-182.499994
 21
711.714319
 31
0.0
  0
CIRCLE
  5
7B7
330
903
100
AcDbEntity
  8
SIZE
100
AcDbCircle
 10
-192.499994
 20
711.714319
 30
0.0
 40
5.0
  0
LINE
  5
7B8
330
903
100
AcDbEntity
  8
SIZE
100
AcDbLine
 10
-127.499996
 20
711.714319
 30
0.0
 11
-132.499996
 21
711.714319
 31
0.0
  0
CIRCLE
  5
7B9
330
903
100
AcDbEntity
  8
SIZE
100
AcDbCircle
 10
-122.499996
 20
711.714319
 30
0.0
 40
5.0
  0
LINE
  5
7BA
330
903
100
AcDbEntity
  8
SIZE
100
AcDbLine
 10
-132.499996
 20
711.714319
 30
0.0
 11
-182.499994
 21
711.714319
 31
0.0
  0
LINE
  5
7BC
330
903
100
AcDbEntity
  8
SIZE
100
AcDbLine
 10
-325.30557
 20
828.9999749999998
 30
0.0
 11
-325.30557
 21
823.9999749999999
 31
0.0
  0
LINE
  5
7BD
330
903
100
AcDbEntity
  8
SIZE
100
AcDbLine
 10
-325.30557
 20
823.9999749999999
 30
0.0
 11
-325.30557
 21
813.9999749999997
 31
0.0
  0
LINE
  5
7BE
330
903
100
AcDbEntity
  8
SIZE
100
AcDbLine
 10
-325.30557
 20
913.999972
 30
0.0
 11
-325.30557
 21
908.9999719999999
 31
0.0
  0
LINE
  5
7BF
330
903
100
AcDbEntity
  8
SIZE
100
AcDbLine
 10
-325.30557
 20
908.9999719999999
 30
0.0
 11
-325.30557
 21
898.999972
 31
0.0
  0
LINE
  5
7C4
330
903
100
AcDbEntity
  8
NOTE
100
AcDbLine
 10
-116.294821
 20
833.999975
 30
0.0
 11
-128.705172
 21
833.999975
 31
0.0
  0
LINE
  5
7C5
330
903
100
AcDbEntity
  8
NOTE
100
AcDbLine
 10
-122.499996
 20
840.20515
 30
0.0
 11
-122.499996
 21
827.7947989999999
 31
0.0
  0
CIRCLE
  5
7C6
330
903
100
AcDbEntity
  8
DETAIL
100
AcDbCircle
 10
-122.499996
 20
833.999975
 30
0.0
 40
1.45
  0
ARC
  5
7C7
330
903
100
AcDbEntity
  8
DETAIL
100
AcDbCircle
 10
-177.4999949999999
 20
848.999974
 30
0.0
 40
5.0
100
AcDbArc
 50
180.0
 51
270.0
  0
LINE
  5
7C8
330
903
100
AcDbEntity
  8
SIZE
100
AcDbLine
 10
97.499997
 20
892.794796
 30
0.0
 11
97.499997
 21
681.714319
 31
0.0
  0
LINE
  5
7C9
330
903
100
AcDbEntity
  8
SIZE
100
AcDbLine
 10
27.499999
 20
807.794799
 30
0.0
 11
27.499999
 21
681.714319
 31
0.0
  0
LINE
  5
7CA
330
903
100
AcDbEntity
  8
SIZE
100
AcDbLine
 10
27.499999
 20
807.794799
 30
0.0
 11
27.499999
 21
681.714319
 31
0.0
  0
LINE
  5
7CC
330
903
100
AcDbEntity
  8
SIZE
100
AcDbLine
 10
92.499997
 20
711.714319
 30
0.0
 11
87.499997
 21
711.714319
 31
0.0
  0
CIRCLE
  5
7CD
330
903
100
AcDbEntity
  8
SIZE
100
AcDbCircle
 10
97.499997
 20
711.714319
 30
0.0
 40
5.0
  0
LINE
  5
7CE
330
903
100
AcDbEntity
  8
SIZE
100
AcDbLine
 10
32.49999900000001
 20
711.714319
 30
0.0
 11
37.49999900000001
 21
711.714319
 31
0.0
  0
CIRCLE
  5
7CF
330
903
100
AcDbEntity
  8
SIZE
100
AcDbCircle
 10
27.499999
 20
711.714319
 30
0.0
 40
5.0
  0
LINE
  5
7D0
330
903
100
AcDbEntity
  8
SIZE
100
AcDbLine
 10
37.49999900000001
 20
711.714319
 30
0.0
 11
87.499997
 21
711.714319
 31
0.0
  0
LINE
  5
7D2
330
903
100
AcDbEntity
  8
SIZE
100
AcDbLine
 10
22.499999
 20
711.714319
 30
0.0
 11
17.499999
 21
711.714319
 31
0.0
  0
CIRCLE
  5
7D3
330
903
100
AcDbEntity
  8
SIZE
100
AcDbCircle
 10
27.499999
 20
711.714319
 30
0.0
 40
5.0
  0
LINE
  5
7D7
330
903
100
AcDbEntity
  8
NOTE
100
AcDbLine
 10
33.705175
 20
833.999975
 30
0.0
 11
21.294824
 21
833.999975
 31
0.0
  0
LINE
  5
7D8
330
903
100
AcDbEntity
  8
NOTE
100
AcDbLine
 10
27.499999
 20
840.20515
 30
0.0
 11
27.499999
 21
827.7947989999999
 31
0.0
  0
ARC
  5
7D9
330
903
100
AcDbEntity
  8
DETAIL
100
AcDbCircle
 10
82.499997
 20
848.999974
 30
0.0
 40
5.0
100
AcDbArc
 50
270.0
 51
0.0
  0
CIRCLE
  5
7DA
330
903
100
AcDbEntity
  8
DETAIL
100
AcDbCircle
 10
27.499999
 20
833.999975
 30
0.0
 40
1.45
  0
TEXT
  5
7DB
330
903
100
AcDbEntity
  8
SIZE
100
AcDbText
 10
-138.8547371428571
 20
1065.401974
 30
0.0
 40
55.0
  1
270
 41
0.9
 72
     1
 11
-75.21188000000002
 21
1065.401974
 31
0.0
100
AcDbText
  0
LINE
  5
7DC
330
903
100
AcDbEntity
  8
SIZE
100
AcDbLine
 10
-172.499994
 20
1050.401974
 30
0.0
 11
77.499997
 21
1050.401974
 31
0.0
  0
LINE
  5
7DD
330
903
100
AcDbEntity
  8
DETAIL
100
AcDbLine
 10
-177.4999949999999
 20
993.9999699999999
 30
0.0
 11
82.499997
 21
993.9999699999999
 31
0.0
  0
LINE
  5
7DE
330
903
100
AcDbEntity
  8
SIZE
100
AcDbLine
 10
-182.499994
 20
1008.99997
 30
0.0
 11
-182.499994
 21
1080.401974
 31
0.0
  0
LINE
  5
7DF
330
903
100
AcDbEntity
  8
SIZE
100
AcDbLine
 10
-325.30557
 20
923.999972
 30
0.0
 11
-325.30557
 21
928.999972
 31
0.0
  0
LINE
  5
7E0
330
903
100
AcDbEntity
  8
SIZE
100
AcDbLine
 10
-325.30557
 20
928.999972
 30
0.0
 11
-325.30557
 21
938.999972
 31
0.0
  0
LINE
  5
7E2
330
903
100
AcDbEntity
  8
SIZE
100
AcDbLine
 10
-325.30557
 20
1008.999969
 30
0.0
 11
-325.30557
 21
1013.999969
 31
0.0
  0
LINE
  5
7E3
330
903
100
AcDbEntity
  8
SIZE
100
AcDbLine
 10
-325.30557
 20
1003.999969
 30
0.0
 11
-325.30557
 21
918.9999719999999
 31
0.0
  0
LINE
  5
7E4
330
903
100
AcDbEntity
  8
SIZE
100
AcDbLine
 10
-325.30557
 20
1013.999969
 30
0.0
 11
-325.30557
 21
1023.999969
 31
0.0
  0
SOLID
  5
7E5
330
903
100
AcDbEntity
  8
NOTE
100
AcDbTrace
 10
-147.255328
 20
954.2945289999996
 30
0.0
 11
-148.235405
 21
951.9284159999999
 31
0.0
 12
-148.235405
 22
956.660643
 32
0.0
 13
-148.235405
 23
956.660643
 33
0.0
  0
SOLID
  5
7E6
330
903
100
AcDbEntity
  8
NOTE
100
AcDbTrace
 10
-150.601518
 20
950.9483389999999
 30
0.0
 11
-148.235405
 21
956.660643
 31
0.0
 12
-148.235405
 22
951.9284159999999
 32
0.0
 13
-148.235405
 23
951.9284159999999
 33
0.0
  0
SOLID
  5
7E7
330
903
100
AcDbEntity
  8
NOTE
100
AcDbTrace
 10
-148.235405
 20
956.660643
 30
0.0
 11
-150.601518
 21
950.9483389999999
 31
0.0
 12
-150.601518
 22
957.6407189999999
 32
0.0
 13
-150.601518
 23
957.6407189999999
 33
0.0
  0
SOLID
  5
7E8
330
903
100
AcDbEntity
  8
NOTE
100
AcDbTrace
 10
-152.967632
 20
951.9284159999999
 30
0.0
 11
-150.601518
 21
957.6407189999999
 31
0.0
 12
-150.601518
 22
950.9483389999999
 32
0.0
 13
-150.601518
 23
950.9483389999999
 33
0.0
  0
SOLID
  5
7E9
330
903
100
AcDbEntity
  8
NOTE
100
AcDbTrace
 10
-150.601518
 20
957.6407189999999
 30
0.0
 11
-152.967632
 21
951.9284159999999
 31
0.0
 12
-152.967632
 22
956.660643
 32
0.0
 13
-152.967632
 23
956.660643
 33
0.0
  0
SOLID
  5
7EA
330
903
100
AcDbEntity
  8
NOTE
100
AcDbTrace
 10
-153.947708
 20
954.2945289999996
 30
0.0
 11
-152.967632
 21
956.660643
 31
0.0
 12
-152.967632
 22
951.9284159999999
 32
0.0
 13
-152.967632
 23
951.9284159999999
 33
0.0
  0
CIRCLE
  5
7EB
330
903
100
AcDbEntity
  8
NOTE
100
AcDbCircle
 10
-150.601518
 20
954.2945289999996
 30
0.0
 40
3.346189999999998
  0
LINE
  5
7F0
330
903
100
AcDbEntity
  8
SIZE
100
AcDbLine
 10
-177.499994
 20
1050.401974
 30
0.0
 11
-172.499994
 21
1050.401974
 31
0.0
  0
CIRCLE
  5
7F1
330
903
100
AcDbEntity
  8
SIZE
100
AcDbCircle
 10
-182.499994
 20
1050.401974
 30
0.0
 40
5.0
  0
LINE
  5
7F2
330
903
100
AcDbEntity
  8
NOTE
100
AcDbLine
 10
-186.294819
 20
918.9999719999999
 30
0.0
 11
-198.70517
 21
918.9999719999999
 31
0.0
  0
LINE
  5
7F3
330
903
100
AcDbEntity
  8
NOTE
100
AcDbLine
 10
-116.294821
 20
1003.999969
 30
0.0
 11
-128.705172
 21
1003.999969
 31
0.0
  0
LINE
  5
7F4
330
903
100
AcDbEntity
  8
NOTE
100
AcDbLine
 10
-122.499996
 20
1010.205145
 30
0.0
 11
-122.499996
 21
997.7947939999999
 31
0.0
  0
CIRCLE
  5
7F5
330
903
100
AcDbEntity
  8
DETAIL
100
AcDbCircle
 10
-122.499996
 20
1003.999969
 30
0.0
 40
1.45
  0
ARC
  5
7F6
330
903
100
AcDbEntity
  8
DETAIL
100
AcDbCircle
 10
-177.4999949999999
 20
988.99997
 30
0.0
 40
5.0
100
AcDbArc
 50
90.0
 51
180.0
  0
CIRCLE
  5
7F7
330
903
100
AcDbEntity
  8
DETAIL
100
AcDbCircle
 10
-192.499994
 20
918.9999719999999
 30
0.0
 40
1.45
  0
LINE
  5
7F8
330
903
100
AcDbEntity
  8
SIZE
100
AcDbLine
 10
87.499997
 20
1008.99997
 30
0.0
 11
87.499997
 21
1080.401974
 31
0.0
  0
LINE
  5
7F9
330
903
100
AcDbEntity
  8
NOTE
100
AcDbLine
 10
27.499999
 20
1003.999969
 30
0.0
 11
42.64408399999999
 21
1033.694544
 31
0.0
  0
LINE
  5
7FA
330
903
100
AcDbEntity
  8
NOTE
100
AcDbLine
 10
27.499999
 20
1003.999969
 30
0.0
 11
55.462448
 21
1022.144183
 31
0.0
  0
LINE
  5
7FD
330
903
100
AcDbEntity
  8
SIZE
100
AcDbLine
 10
82.499997
 20
1050.401974
 30
0.0
 11
77.499997
 21
1050.401974
 31
0.0
  0
CIRCLE
  5
7FE
330
903
100
AcDbEntity
  8
SIZE
100
AcDbCircle
 10
87.499997
 20
1050.401974
 30
0.0
 40
5.0
  0
LINE
  5
7FF
330
903
100
AcDbEntity
  8
NOTE
100
AcDbLine
 10
33.705175
 20
1003.999969
 30
0.0
 11
21.294824
 21
1003.999969
 31
0.0
  0
LINE
  5
800
330
903
100
AcDbEntity
  8
NOTE
100
AcDbLine
 10
27.499999
 20
1010.205145
 30
0.0
 11
27.499999
 21
997.7947939999999
 31
0.0
  0
LINE
  5
801
330
903
100
AcDbEntity
  8
NOTE
100
AcDbLine
 10
103.705173
 20
918.9999719999999
 30
0.0
 11
91.29482199999999
 21
918.9999719999999
 31
0.0
  0
ARC
  5
802
330
903
100
AcDbEntity
  8
DETAIL
100
AcDbCircle
 10
82.499997
 20
988.99997
 30
0.0
 40
5.0
100
AcDbArc
 50
0.0
 51
90.0
  0
CIRCLE
  5
803
330
903
100
AcDbEntity
  8
DETAIL
100
AcDbCircle
 10
27.499999
 20
1003.999969
 30
0.0
 40
1.45
  0
CIRCLE
  5
804
330
903
100
AcDbEntity
  8
DETAIL
100
AcDbCircle
 10
97.499997
 20
918.9999719999999
 30
0.0
 40
1.45
  0
LINE
  5
805
330
903
100
AcDbEntity
  8
NOTE
100
AcDbLine
 10
381.682871
 20
988.8989999999999
 30
0.0
 11
135.499993
 21
630.0
 31
0.0
  0
TEXT
  5
806
330
903
100
AcDbEntity
  8
NOTE
100
AcDbText
 10
324.640176
 20
705.219464
 30
0.0
 40
46.666665
  1
後吸込口
 50
0.000003
 41
0.8404759999999999
  7
STANDARD1
100
AcDbText
  0
TEXT
  5
807
330
903
100
AcDbEntity
  8
SIZE
100
AcDbText
 10
125.0184324285714
 20
726.714319
 30
0.0
 40
55.0
  1
70
 41
0.9
 72
     1
 11
165.089861
 21
726.714319
 31
0.0
100
AcDbText
  0
CIRCLE
  5
808
330
903
100
AcDbEntity
  8
DETAIL
100
AcDbCircle
 10
135.499995
 20
630.126579
 30
0.0
 40
14.0
  0
LINE
  5
809
330
903
100
AcDbEntity
  8
NOTE
100
AcDbLine
 10
135.499993
 20
630.0
 30
0.0
 11
150.644077
 21
659.6945739999998
 31
0.0
  0
LINE
  5
80A
330
903
100
AcDbEntity
  8
NOTE
100
AcDbLine
 10
135.499993
 20
630.0
 30
0.0
 11
163.4624419999999
 21
648.144213
 31
0.0
  0
LINE
  5
80D
330
903
100
AcDbEntity
  8
NOTE
100
AcDbLine
 10
401.622679
 20
829.6877599999996
 30
0.0
 11
465.6226769999998
 21
829.6877599999996
 31
0.0
  0
LINE
  5
80E
330
903
100
AcDbEntity
  8
NOTE
100
AcDbLine
 10
401.622679
 20
789.687761
 30
0.0
 11
465.6226769999998
 21
789.687761
 31
0.0
  0
LINE
  5
80F
330
903
100
AcDbEntity
  8
NOTE
100
AcDbLine
 10
401.622679
 20
853.6877590000001
 30
0.0
 11
401.622679
 21
829.6877599999996
 31
0.0
  0
LINE
  5
810
330
903
100
AcDbEntity
  8
NOTE
100
AcDbLine
 10
353.622681
 20
809.6877609999998
 30
0.0
 11
401.622679
 21
765.687762
 31
0.0
  0
LINE
  5
811
330
903
100
AcDbEntity
  8
NOTE
100
AcDbLine
 10
401.622679
 20
789.687761
 30
0.0
 11
401.622679
 21
765.687762
 31
0.0
  0
LINE
  5
812
330
903
100
AcDbEntity
  8
NOTE
100
AcDbLine
 10
353.622681
 20
809.6877609999998
 30
0.0
 11
401.622679
 21
853.6877590000001
 31
0.0
  0
LINE
  5
813
330
903
100
AcDbEntity
  8
NOTE
100
AcDbLine
 10
465.6226769999998
 20
829.6877599999996
 30
0.0
 11
465.6226769999998
 21
789.687761
 31
0.0
  0
LINE
  5
814
330
903
100
AcDbEntity
  8
DETAIL
100
AcDbLine
 10
242.499993
 20
1132.699965
 30
0.0
 11
248.999993
 21
1132.699965
 31
0.0
  0
LINE
  5
815
330
903
100
AcDbEntity
  8
DETAIL
100
AcDbLine
 10
242.499993
 20
1127.299966
 30
0.0
 11
248.999993
 21
1127.299966
 31
0.0
  0
LINE
  5
816
330
903
100
AcDbEntity
  8
DETAIL
100
AcDbLine
 10
242.499993
 20
1126.499966
 30
0.0
 11
248.999993
 21
1126.499966
 31
0.0
  0
ARC
  5
817
330
903
100
AcDbEntity
  8
DETAIL
100
AcDbCircle
 10
248.999993
 20
1129.999966
 30
0.0
 40
3.5
100
AcDbArc
 50
270.0
 51
90.0
  0
ARC
  5
818
330
903
100
AcDbEntity
  8
DETAIL
100
AcDbCircle
 10
248.999993
 20
1129.999966
 30
0.0
 40
2.7
100
AcDbArc
 50
270.0
 51
90.0
  0
LINE
  5
819
330
903
100
AcDbEntity
  8
DETAIL
100
AcDbLine
 10
248.999993
 20
1133.499965
 30
0.0
 11
242.499993
 21
1133.499965
 31
0.0
  0
LINE
  5
81A
330
903
100
AcDbEntity
  8
SIZE
100
AcDbLine
 10
755.878836
 20
620.0
 30
0.0
 11
755.878836
 21
10.0
 31
0.0
  0
TEXT
  5
81B
330
903
100
AcDbEntity
  8
SIZE
100
AcDbText
 10
740.8788359999999
 20
251.3571428571429
 30
0.0
 40
55.0
  1
630
 50
90.0
 41
0.9
 72
     1
 11
740.8788359999999
 21
315.0
 31
0.0
100
AcDbText
  0
LINE
  5
81C
330
903
100
AcDbEntity
  8
SIZE
100
AcDbLine
 10
615.1808929999998
 20
216.0
 30
0.0
 11
615.1808929999998
 21
10.0
 31
0.0
  0
LINE
  5
81E
330
903
100
AcDbEntity
  8
SIZE
100
AcDbLine
 10
615.1808929999998
 20
5.0
 30
0.0
 11
615.1808929999998
 21
10.0
 31
0.0
  0
LINE
  5
820
330
903
100
AcDbEntity
  8
SIZE
100
AcDbLine
 10
755.878836
 20
5.0
 30
0.0
 11
755.878836
 21
10.0
 31
0.0
  0
LINE
  5
821
330
903
100
AcDbEntity
  8
SIZE
100
AcDbLine
 10
615.1808929999998
 20
221.0
 30
0.0
 11
615.1808929999998
 21
216.0
 31
0.0
  0
CIRCLE
  5
822
330
903
100
AcDbEntity
  8
SIZE
100
AcDbCircle
 10
615.1808929999998
 20
226.0
 30
0.0
 40
5.0
  0
LINE
  5
823
330
903
100
AcDbEntity
  8
SIZE
100
AcDbLine
 10
916.0957059999999
 20
5.0
 30
0.0
 11
916.0957059999999
 21
10.0
 31
0.0
  0
LINE
  5
825
330
903
100
AcDbEntity
  8
SIZE
100
AcDbLine
 10
1087.120929
 20
5.0
 30
0.0
 11
1087.120929
 21
10.0
 31
0.0
  0
TEXT
  5
826
330
903
100
AcDbEntity
  8
SIZE
100
AcDbText
 10
901.095706
 20
817.4999730000001
 30
0.0
 40
55.0
  1
1800
 50
90.0
 41
0.9
 72
     1
 11
901.095706
 21
899.999973
 31
0.0
100
AcDbText
  0
LINE
  5
827
330
903
100
AcDbEntity
  8
SIZE
100
AcDbLine
 10
755.878836
 20
625.0
 30
0.0
 11
755.878836
 21
620.0
 31
0.0
  0
CIRCLE
  5
828
330
903
100
AcDbEntity
  8
SIZE
100
AcDbCircle
 10
755.878836
 20
630.0
 30
0.0
 40
5.0
  0
TEXT
  5
829
330
903
100
AcDbEntity
  8
SIZE
100
AcDbText
 10
1072.120929
 20
912.7856832857142
 30
0.0
 40
55.0
  1
2000
 50
90.0
 41
0.9
 72
     1
 11
1072.120929
 21
999.9999689999999
 31
0.0
100
AcDbText
  0
LINE
  5
82A
330
903
100
AcDbEntity
  8
NOTE
100
AcDbLine
 10
-335.266787
 20
2044.062595
 30
0.0
 11
-242.499992
 21
1899.999945
 31
0.0
  0
LINE
  5
82B
330
903
100
AcDbEntity
  8
NOTE
100
AcDbLine
 10
-372.523251
 20
1905.405949
 30
0.0
 11
-308.5232529999999
 21
1905.405949
 31
0.0
  0
LINE
  5
82C
330
903
100
AcDbEntity
  8
NOTE
100
AcDbLine
 10
-372.523251
 20
1865.40595
 30
0.0
 11
-308.5232529999999
 21
1865.40595
 31
0.0
  0
TEXT
  5
82D
330
903
100
AcDbEntity
  8
NOTE
100
AcDbText
 10
-463.566465
 20
1753.64271
 30
0.0
 40
46.666665
  1
空気吹出
 50
0.000003
 41
0.8404759999999999
  7
STANDARD1
100
AcDbText
  0
TEXT
  5
82E
330
903
100
AcDbEntity
  8
NOTE
100
AcDbText
 10
-672.1640559999998
 20
2057.410296
 30
0.0
 40
64.0
  1
プレナム室
 50
359.999997
 41
0.85
  7
STANDARD1
100
AcDbText
  0
TEXT
  5
82F
330
903
100
AcDbEntity
  8
NOTE
100
AcDbText
 10
-692.5673549999998
 20
1968.050497
 30
0.0
 40
64.0
  1
(別売部品)
 50
359.999997
 41
0.85
  7
STANDARD1
100
AcDbText
  0
LINE
  5
830
330
903
100
AcDbEntity
  8
NOTE
100
AcDbLine
 10
-702.684334
 20
2044.062595
 30
0.0
 11
-335.266787
 21
2044.062595
 31
0.0
  0
LINE
  5
831
330
903
100
AcDbEntity
  8
NOTE
100
AcDbLine
 10
-372.523251
 20
1929.405948
 30
0.0
 11
-372.523251
 21
1905.405949
 31
0.0
  0
LINE
  5
832
330
903
100
AcDbEntity
  8
NOTE
100
AcDbLine
 10
-372.523251
 20
1865.40595
 30
0.0
 11
-372.523251
 21
1841.405951
 31
0.0
  0
LINE
  5
833
330
903
100
AcDbEntity
  8
NOTE
100
AcDbLine
 10
-420.52325
 20
1885.40595
 30
0.0
 11
-372.523251
 21
1841.405951
 31
0.0
  0
LINE
  5
834
330
903
100
AcDbEntity
  8
NOTE
100
AcDbLine
 10
-420.52325
 20
1885.40595
 30
0.0
 11
-372.523251
 21
1929.405948
 31
0.0
  0
TEXT
  5
835
330
903
100
AcDbEntity
  8
NOTE
100
AcDbText
 10
310.71858
 20
1336.52941
 30
0.0
 40
64.0
  1
6-%%C2.9
 41
0.9
100
AcDbText
  0
LINE
  5
836
330
903
100
AcDbEntity
  8
NOTE
100
AcDbLine
 10
314.057156
 20
1322.015495
 30
0.0
 11
610.571724
 21
1322.015495
 31
0.0
  0
TEXT
  5
837
330
903
100
AcDbEntity
  8
ETC
100
AcDbText
 10
-1245.689076545684
 20
2223.217615283968
 30
0.0
 40
64.0
  1
RF-P10A1_PLENUM_4
 41
0.9
100
AcDbText
  0
LINE
  5
838
330
903
100
AcDbEntity
  8
SIZE
100
AcDbLine
 10
262.499993
 20
1999.999939
 30
0.0
 11
1117.120929
 21
1999.999939
 31
0.0
  0
LINE
  5
839
330
903
100
AcDbEntity
  8
SIZE
100
AcDbLine
 10
262.499993
 20
1999.999939
 30
0.0
 11
946.095706
 21
1999.999939
 31
0.0
  0
LINE
  5
83A
330
903
100
AcDbEntity
  8
SIZE
100
AcDbLine
 10
262.499993
 20
1799.999945
 30
0.0
 11
946.095706
 21
1799.999945
 31
0.0
  0
LINE
  5
83B
330
903
100
AcDbEntity
  8
SIZE
100
AcDbLine
 10
262.499993
 20
1799.999945
 30
0.0
 11
946.095706
 21
1799.999945
 31
0.0
  0
LINE
  5
83C
330
903
100
AcDbEntity
  8
SIZE
100
AcDbLine
 10
252.499993
 20
1599.999952
 30
0.0
 11
252.499993
 21
2199.482905
 31
0.0
  0
LINE
  5
83D
330
903
100
AcDbEntity
  8
DETAIL
100
AcDbLine
 10
-237.499993
 20
1804.999945
 30
0.0
 11
-237.499993
 21
1841.999944
 31
0.0
  0
LINE
  5
83E
330
903
100
AcDbEntity
  8
DETAIL
100
AcDbLine
 10
-242.499993
 20
1799.999945
 30
0.0
 11
-242.499993
 21
1999.999939
 31
0.0
  0
LINE
  5
83F
330
903
100
AcDbEntity
  8
DETAIL
100
AcDbLine
 10
-168.967224
 20
1809.999945
 30
0.0
 11
-168.967224
 21
1957.99994
 31
0.0
  0
LINE
  5
840
330
903
100
AcDbEntity
  8
DETAIL
100
AcDbLine
 10
-158.967224
 20
1809.999945
 30
0.0
 11
-158.967224
 21
1957.99994
 31
0.0
  0
LINE
  5
841
330
903
100
AcDbEntity
  8
OUTLINE
100
AcDbLine
 10
-242.499993
 20
1799.999945
 30
0.0
 11
241.499993
 21
1799.999945
 31
0.0
  0
LINE
  5
842
330
903
100
AcDbEntity
  8
DETAIL
100
AcDbLine
 10
-242.499993
 20
1799.999945
 30
0.0
 11
242.499993
 21
1799.999945
 31
0.0
  0
LINE
  5
843
330
903
100
AcDbEntity
  8
DETAIL
100
AcDbLine
 10
-241.499993
 20
1799.999945
 30
0.0
 11
241.499993
 21
1799.999945
 31
0.0
  0
LINE
  5
844
330
903
100
AcDbEntity
  8
DETAIL
100
AcDbLine
 10
-242.499993
 20
1804.999945
 30
0.0
 11
-173.967224
 21
1804.999945
 31
0.0
  0
LINE
  5
845
330
903
100
AcDbEntity
  8
DETAIL
100
AcDbLine
 10
-242.499993
 20
1799.999945
 30
0.0
 11
-168.967224
 21
1799.999945
 31
0.0
  0
ARC
  5
846
330
903
100
AcDbEntity
  8
DETAIL
100
AcDbCircle
 10
-173.967224
 20
1809.999945
 30
0.0
 40
5.0
100
AcDbArc
 50
270.0
 51
0.0
  0
ARC
  5
847
330
903
100
AcDbEntity
  8
DETAIL
100
AcDbCircle
 10
-168.967224
 20
1809.999945
 30
0.0
 40
10.0
100
AcDbArc
 50
270.0
 51
0.0
  0
LINE
  5
848
330
903
100
AcDbEntity
  8
DETAIL
100
AcDbLine
 10
242.499993
 20
1357.699959
 30
0.0
 11
248.999993
 21
1357.699959
 31
0.0
  0
LINE
  5
849
330
903
100
AcDbEntity
  8
DETAIL
100
AcDbLine
 10
242.499993
 20
1352.299959
 30
0.0
 11
248.999993
 21
1352.299959
 31
0.0
  0
LINE
  5
84A
330
903
100
AcDbEntity
  8
DETAIL
100
AcDbLine
 10
242.499993
 20
1351.499959
 30
0.0
 11
248.999993
 21
1351.499959
 31
0.0
  0
ARC
  5
84B
330
903
100
AcDbEntity
  8
DETAIL
100
AcDbCircle
 10
248.999993
 20
1354.999959
 30
0.0
 40
3.5
100
AcDbArc
 50
270.0
 51
90.0
  0
ARC
  5
84C
330
903
100
AcDbEntity
  8
DETAIL
100
AcDbCircle
 10
248.999993
 20
1354.999959
 30
0.0
 40
2.7
100
AcDbArc
 50
270.0
 51
90.0
  0
LINE
  5
84D
330
903
100
AcDbEntity
  8
DETAIL
100
AcDbLine
 10
248.999993
 20
1358.499959
 30
0.0
 11
242.499993
 21
1358.499959
 31
0.0
  0
ARC
  5
84F
330
903
100
AcDbEntity
  8
DETAIL
100
AcDbCircle
 10
248.999993
 20
1579.999952
 30
0.0
 40
3.5
100
AcDbArc
 50
270.0
 51
90.0
  0
LINE
  5
850
330
903
100
AcDbEntity
  8
DETAIL
100
AcDbLine
 10
248.999993
 20
1583.499952
 30
0.0
 11
242.499993
 21
1583.499952
 31
0.0
  0
LINE
  5
851
330
903
100
AcDbEntity
  8
DETAIL
100
AcDbLine
 10
242.499993
 20
1576.499952
 30
0.0
 11
248.999993
 21
1576.499952
 31
0.0
  0
ARC
  5
852
330
903
100
AcDbEntity
  8
DETAIL
100
AcDbCircle
 10
248.999993
 20
1579.999952
 30
0.0
 40
2.7
100
AcDbArc
 50
270.0
 51
90.0
  0
LINE
  5
853
330
903
100
AcDbEntity
  8
DETAIL
100
AcDbLine
 10
242.499993
 20
1582.699952
 30
0.0
 11
248.999993
 21
1582.699952
 31
0.0
  0
LINE
  5
854
330
903
100
AcDbEntity
  8
DETAIL
100
AcDbLine
 10
242.499993
 20
1577.299952
 30
0.0
 11
248.999993
 21
1577.299952
 31
0.0
  0
LINE
  5
857
330
903
100
AcDbEntity
  8
SIZE
100
AcDbLine
 10
-232.499993
 20
2169.482905
 30
0.0
 11
232.499993
 21
2169.482905
 31
0.0
  0
LINE
  5
858
330
903
100
AcDbEntity
  8
DETAIL
100
AcDbLine
 10
-242.499993
 20
1999.999939
 30
0.0
 11
242.499993
 21
1999.999939
 31
0.0
  0
LINE
  5
859
330
903
100
AcDbEntity
  8
SIZE
100
AcDbLine
 10
-242.499993
 20
2019.999939
 30
0.0
 11
-242.499993
 21
2199.482905
 31
0.0
  0
LINE
  5
85A
330
903
100
AcDbEntity
  8
DETAIL
100
AcDbLine
 10
-242.499993
 20
1962.99994
 30
0.0
 11
-173.967224
 21
1962.99994
 31
0.0
  0
LINE
  5
85B
330
903
100
AcDbEntity
  8
DETAIL
100
AcDbLine
 10
-242.499993
 20
1967.99994
 30
0.0
 11
-168.967224
 21
1967.99994
 31
0.0
  0
LINE
  5
85C
330
903
100
AcDbEntity
  8
DETAIL
100
AcDbLine
 10
-242.499993
 20
1932.999941
 30
0.0
 11
-168.967224
 21
1932.999941
 31
0.0
  0
LINE
  5
85D
330
903
100
AcDbEntity
  8
DETAIL
100
AcDbLine
 10
-242.499993
 20
1925.999941
 30
0.0
 11
-168.967224
 21
1925.999941
 31
0.0
  0
LINE
  5
85E
330
903
100
AcDbEntity
  8
DETAIL
100
AcDbLine
 10
-242.499993
 20
1890.999942
 30
0.0
 11
-168.967224
 21
1890.999942
 31
0.0
  0
LINE
  5
85F
330
903
100
AcDbEntity
  8
DETAIL
100
AcDbLine
 10
-242.499993
 20
1883.999943
 30
0.0
 11
-168.967224
 21
1883.999943
 31
0.0
  0
LINE
  5
860
330
903
100
AcDbEntity
  8
DETAIL
100
AcDbLine
 10
-242.499993
 20
1848.999944
 30
0.0
 11
-168.967224
 21
1848.999944
 31
0.0
  0
LINE
  5
861
330
903
100
AcDbEntity
  8
DETAIL
100
AcDbLine
 10
-242.499993
 20
1841.999944
 30
0.0
 11
-168.967224
 21
1841.999944
 31
0.0
  0
LINE
  5
862
330
903
100
AcDbEntity
  8
NOTE
100
AcDbLine
 10
-242.499992
 20
1899.999945
 30
0.0
 11
-252.678119
 21
1931.74135
 31
0.0
  0
LINE
  5
863
330
903
100
AcDbEntity
  8
NOTE
100
AcDbLine
 10
-242.499992
 20
1899.999945
 30
0.0
 11
-267.185211
 21
1922.399744
 31
0.0
  0
LINE
  5
864
330
903
100
AcDbEntity
  8
DETAIL
100
AcDbLine
 10
-237.499993
 20
1932.999941
 30
0.0
 11
-237.499993
 21
1962.99994
 31
0.0
  0
LINE
  5
865
330
903
100
AcDbEntity
  8
DETAIL
100
AcDbLine
 10
-237.499993
 20
1890.999942
 30
0.0
 11
-237.499993
 21
1925.999941
 31
0.0
  0
LINE
  5
866
330
903
100
AcDbEntity
  8
DETAIL
100
AcDbLine
 10
-237.499993
 20
1848.999944
 30
0.0
 11
-237.499993
 21
1883.999943
 31
0.0
  0
LINE
  5
867
330
903
100
AcDbEntity
  8
NOTE
100
AcDbLine
 10
-308.5232529999999
 20
1905.405949
 30
0.0
 11
-308.5232529999999
 21
1865.40595
 31
0.0
  0
ARC
  5
868
330
903
100
AcDbEntity
  8
DETAIL
100
AcDbCircle
 10
-173.967224
 20
1957.99994
 30
0.0
 40
5.0
100
AcDbArc
 50
0.0
 51
90.0
  0
ARC
  5
869
330
903
100
AcDbEntity
  8
DETAIL
100
AcDbCircle
 10
-168.967224
 20
1957.99994
 30
0.0
 40
10.0
100
AcDbArc
 50
0.0
 51
90.0
  0
LINE
  5
86B
330
903
100
AcDbEntity
  8
SIZE
100
AcDbLine
 10
-237.499993
 20
2169.482905
 30
0.0
 11
-232.499993
 21
2169.482905
 31
0.0
  0
CIRCLE
  5
86C
330
903
100
AcDbEntity
  8
SIZE
100
AcDbCircle
 10
-242.499993
 20
2169.482905
 30
0.0
 40
5.0
  0
TEXT
  5
86D
330
903
100
AcDbEntity
  8
SIZE
100
AcDbText
 10
-63.64285714285713
 20
2184.482905000001
 30
0.0
 40
55.0
  1
485
 41
0.9
 72
     1
 11
0.0
 21
2184.482905000001
 31
0.0
100
AcDbText
  0
LINE
  5
86E
330
903
100
AcDbEntity
  8
SIZE
100
AcDbLine
 10
242.499993
 20
2019.999939
 30
0.0
 11
242.499993
 21
2199.482905
 31
0.0
  0
LINE
  5
86F
330
903
100
AcDbEntity
  8
SIZE
100
AcDbLine
 10
242.499993
 20
2019.999939
 30
0.0
 11
242.499993
 21
2199.482905
 31
0.0
  0
TEXT
  5
874
330
903
100
AcDbEntity
  8
SIZE
100
AcDbText
 10
289.5055155714286
 20
2187.887667
 30
0.0
 40
55.0
  1
(10)
 41
0.9
 72
     1
 11
356.684087
 21
2187.887667
 31
0.0
100
AcDbText
  0
LINE
  5
875
330
903
100
AcDbEntity
  8
SIZE
100
AcDbLine
 10
427.862659
 20
2169.482905
 30
0.0
 11
252.499993
 21
2169.482905
 31
0.0
  0
LINE
  5
876
330
903
100
AcDbEntity
  8
SIZE
100
AcDbLine
 10
232.499993
 20
2169.482905
 30
0.0
 11
222.499993
 21
2169.482905
 31
0.0
  0
LINE
  5
878
330
903
100
AcDbEntity
  8
SIZE
100
AcDbLine
 10
257.499993
 20
2169.482905
 30
0.0
 11
262.499993
 21
2169.482905
 31
0.0
  0
CIRCLE
  5
879
330
903
100
AcDbEntity
  8
SIZE
100
AcDbCircle
 10
252.499993
 20
2169.482905
 30
0.0
 40
5.0
  0
LINE
  5
87A
330
903
100
AcDbEntity
  8
SIZE
100
AcDbLine
 10
237.499993
 20
2169.482905
 30
0.0
 11
232.499993
 21
2169.482905
 31
0.0
  0
CIRCLE
  5
87B
330
903
100
AcDbEntity
  8
SIZE
100
AcDbCircle
 10
242.499993
 20
2169.482905
 30
0.0
 40
5.0
  0
LINE
  5
87C
330
903
100
AcDbEntity
  8
SIZE
100
AcDbLine
 10
242.499993
 20
2169.482905
 30
0.0
 11
252.499993
 21
2169.482905
 31
0.0
  0
LINE
  5
87D
330
903
100
AcDbEntity
  8
SIZE
100
AcDbLine
 10
242.499993
 20
2169.482905
 30
0.0
 11
252.499993
 21
2169.482905
 31
0.0
  0
LINE
  5
87E
330
903
100
AcDbEntity
  8
SIZE
100
AcDbLine
 10
262.499993
 20
2169.482905
 30
0.0
 11
272.499993
 21
2169.482905
 31
0.0
  0
LINE
  5
880
330
903
100
AcDbEntity
  8
SIZE
100
AcDbLine
 10
237.499993
 20
2169.482905
 30
0.0
 11
232.499993
 21
2169.482905
 31
0.0
  0
CIRCLE
  5
881
330
903
100
AcDbEntity
  8
SIZE
100
AcDbCircle
 10
242.499993
 20
2169.482905
 30
0.0
 40
5.0
  0
TEXT
  5
882
330
903
100
AcDbEntity
  8
SIZE
100
AcDbText
 10
897.690944
 20
1804.535656285714
 30
0.0
 40
55.0
  1
(200)
 50
90.0
 41
0.9
 72
     1
 11
897.690944
 21
1899.999942
 31
0.0
100
AcDbText
  0
LINE
  5
883
330
903
100
AcDbEntity
  8
SIZE
100
AcDbLine
 10
916.0957059999999
 20
1809.999945
 30
0.0
 11
916.0957059999999
 21
1989.999939
 31
0.0
  0
LINE
  5
884
330
903
100
AcDbEntity
  8
SIZE
100
AcDbLine
 10
916.0957059999999
 20
1804.999945
 30
0.0
 11
916.0957059999999
 21
1809.999945
 31
0.0
  0
CIRCLE
  5
885
330
903
100
AcDbEntity
  8
SIZE
100
AcDbCircle
 10
916.0957059999999
 20
1799.999945
 30
0.0
 40
5.0
  0
LINE
  5
887
330
903
100
AcDbEntity
  8
SIZE
100
AcDbLine
 10
916.0957059999999
 20
1794.999945
 30
0.0
 11
916.0957059999999
 21
1789.999945
 31
0.0
  0
CIRCLE
  5
888
330
903
100
AcDbEntity
  8
SIZE
100
AcDbCircle
 10
916.0957059999999
 20
1799.999945
 30
0.0
 40
5.0
  0
LINE
  5
88A
330
903
100
AcDbEntity
  8
SIZE
100
AcDbLine
 10
916.0957059999999
 20
1994.999939
 30
0.0
 11
916.0957059999999
 21
1989.999939
 31
0.0
  0
CIRCLE
  5
88B
330
903
100
AcDbEntity
  8
SIZE
100
AcDbCircle
 10
916.0957059999999
 20
1999.999939
 30
0.0
 40
5.0
  0
LINE
  5
88C
330
903
100
AcDbEntity
  8
SIZE
100
AcDbLine
 10
1087.120929
 20
1994.999939
 30
0.0
 11
1087.120929
 21
1989.999939
 31
0.0
  0
CIRCLE
  5
88D
330
903
100
AcDbEntity
  8
SIZE
100
AcDbCircle
 10
1087.120929
 20
1999.999939
 30
0.0
 40
5.0
  0
ENDSEC
  0
SECTION
  2
OBJECTS
  0
DICTIONARY
  5
89B
330
0
100
AcDbDictionary
281
     1
  3
ACAD_CIP_PREVIOUS_PRODUCT_INFO
350
95F
  3
ACAD_COLOR
350
8F9
  3
ACAD_GROUP
350
89C
  3
ACAD_LAYOUT
350
8F8
  3
ACAD_MATERIAL
350
89F
  3
ACAD_MLEADERSTYLE
350
8FC
  3
ACAD_MLINESTYLE
350
8F5
  3
ACAD_PLOTSETTINGS
350
8F7
  3
ACAD_PLOTSTYLENAME
350
89D
  3
ACAD_SCALELIST
350
8C9
  3
ACAD_TABLESTYLE
350
8FA
  3
ACAD_VISUALSTYLE
350
8B8
  3
ACDB_RECOMPOSE_DATA
350
964
  3
AcDbVariableDictionary
350
93C
  3
DWGPROPS
350
965
  0
DICTIONARY
  5
926
330
8EB
100
AcDbDictionary
280
     1
281
     1
  3
ADSK_XREC_LAYER_RECONCILED
360
927
  0
DICTIONARY
  5
928
330
907
100
AcDbDictionary
280
     1
281
     1
  3
ADSK_XREC_LAYER_RECONCILED
360
929
  0
DICTIONARY
  5
92A
330
90A
100
AcDbDictionary
280
     1
281
     1
  3
ADSK_XREC_LAYER_RECONCILED
360
92B
  0
DICTIONARY
  5
92C
330
90B
100
AcDbDictionary
280
     1
281
     1
  3
ADSK_XREC_LAYER_RECONCILED
360
92D
  0
DICTIONARY
  5
92E
330
90C
100
AcDbDictionary
280
     1
281
     1
  3
ADSK_XREC_LAYER_RECONCILED
360
92F
  0
DICTIONARY
  5
930
330
90D
100
AcDbDictionary
280
     1
281
     1
  3
ADSK_XREC_LAYER_RECONCILED
360
931
  0
DICTIONARY
  5
932
330
90E
100
AcDbDictionary
280
     1
281
     1
  3
ADSK_XREC_LAYER_RECONCILED
360
933
  0
DICTIONARY
  5
934
330
90F
100
AcDbDictionary
280
     1
281
     1
  3
ADSK_XREC_LAYER_RECONCILED
360
935
  0
DICTIONARY
  5
936
330
910
100
AcDbDictionary
280
     1
281
     1
  3
ADSK_XREC_LAYER_RECONCILED
360
937
  0
DICTIONARY
  5
938
330
911
100
AcDbDictionary
280
     1
281
     1
  3
ADSK_XREC_LAYER_RECONCILED
360
939
  0
DICTIONARY
  5
93A
330
912
100
AcDbDictionary
280
     1
281
     1
  3
ADSK_XREC_LAYER_RECONCILED
360
93B
  0
XRECORD
  5
95F
102
{ACAD_REACTORS
330
89B
102
}
330
89B
100
AcDbXrecord
280
     1
300
ACD
300
2012
300
BDSPRM_F_S
  0
DICTIONARY
  5
8F9
102
{ACAD_REACTORS
330
89B
102
}
330
89B
100
AcDbDictionary
281
     1
  0
DICTIONARY
  5
89C
102
{ACAD_REACTORS
330
89B
102
}
330
89B
100
AcDbDictionary
281
     1
  0
DICTIONARY
  5
8F8
102
{ACAD_REACTORS
330
89B
102
}
330
89B
100
AcDbDictionary
281
     1
  3
Layout1
350
902
  3
Model
350
906
  0
DICTIONARY
  5
89F
102
{ACAD_REACTORS
330
89B
102
}
330
89B
100
AcDbDictionary
281
     1
  3
ByBlock
350
8A8
  3
ByLayer
350
8A0
  3
Global
350
8B0
  0
DICTIONARY
  5
8FC
102
{ACAD_REACTORS
330
89B
102
}
330
89B
100
AcDbDictionary
281
     1
  3
Standard
350
8FD
  0
DICTIONARY
  5
8F5
102
{ACAD_REACTORS
330
89B
102
}
330
89B
100
AcDbDictionary
281
     1
  3
Standard
350
8F6
  0
DICTIONARY
  5
8F7
102
{ACAD_REACTORS
330
89B
102
}
330
89B
100
AcDbDictionary
281
     1
  0
ACDBDICTIONARYWDFLT
  5
89D
102
{ACAD_REACTORS
330
89B
102
}
330
89B
100
AcDbDictionary
281
     1
  3
Normal
350
89E
100
AcDbDictionaryWithDefault
340
89E
  0
DICTIONARY
  5
8C9
102
{ACAD_REACTORS
330
89B
102
}
330
89B
100
AcDbDictionary
281
     1
  3
A0
350
8CA
  3
A1
350
8CB
  3
A2
350
8CC
  3
A3
350
8CD
  3
A4
350
8CE
  3
A5
350
8CF
  3
A6
350
8D0
  3
A7
350
8D1
  3
A8
350
8D2
  3
A9
350
8D3
  3
B0
350
8D4
  3
B1
350
8D5
  3
B2
350
8D6
  3
B3
350
8D7
  3
B4
350
8D8
  3
B5
350
8D9
  3
B6
350
8DA
  3
B7
350
8DB
  3
B8
350
8DC
  3
B9
350
8DD
  3
C0
350
8DE
  3
C1
350
8DF
  3
C2
350
8E0
  3
C3
350
8E1
  3
C4
350
8E2
  3
C5
350
8E3
  3
C6
350
8E4
  3
C7
350
8E5
  3
C8
350
8E6
  3
C9
350
8E7
  3
D0
350
8E8
  3
D1
350
8E9
  3
D2
350
8EA
  0
DICTIONARY
  5
8FA
102
{ACAD_REACTORS
330
89B
102
}
330
89B
100
AcDbDictionary
281
     1
  3
Standard
350
8FB
  0
DICTIONARY
  5
8B8
102
{ACAD_REACTORS
330
89B
102
}
330
89B
100
AcDbDictionary
281
     1
  3
2dWireframe
350
8BE
  3
3D Hidden
350
8C0
  3
3dWireframe
350
8BF
  3
Basic
350
8BD
  3
Brighten
350
8C4
  3
ColorChange
350
8C8
  3
Conceptual
350
8C1
  3
Dim
350
8C3
  3
EdgeColorOff
350
95D
  3
Facepattern
350
8C7
  3
Flat
350
8B9
  3
FlatWithEdges
350
8BA
  3
Gouraud
350
8BB
  3
GouraudWithEdges
350
8BC
  3
Hidden
350
955
  3
JitterOff
350
95B
  3
Linepattern
350
8C6
  3
OverhangOff
350
95C
  3
Realistic
350
8C2
  3
Shaded
350
95A
  3
Shaded with edges
350
959
  3
Shades of Gray
350
956
  3
Sketchy
350
957
  3
Thicken
350
8C5
  3
Wireframe
350
954
  3
X-Ray
350
958
  0
XRECORD
  5
964
102
{ACAD_REACTORS
330
89B
102
}
330
89B
100
AcDbXrecord
280
     1
 90
        1
330
8FB
  0
DICTIONARY
  5
93C
102
{ACAD_REACTORS
330
89B
102
}
330
89B
100
AcDbDictionary
281
     1
  3
CANNOSCALE
350
93F
  3
CMLEADERSTYLE
350
93E
  3
CTABLESTYLE
350
93D
  3
DIMASSOC
350
942
  3
INDEXCTL
350
941
  3
SORTENTS
350
940
  3
XCLIPFRAME
350
962
  0
XRECORD
  5
965
102
{ACAD_REACTORS
330
89B
102
}
330
89B
100
AcDbXrecord
280
     1
  1
DWGPROPS COOKIE
  2

  3

  4

  6

  7

  8
prohiokamot
  9

300
=
301
=
302
=
303
=
304
=
305
=
306
=
307
=
308
=
309
=
 40
3.666764328703703
 41
2450330.481597662
 42
2458150.680759421
  1

 90
        0
  0
XRECORD
  5
927
102
{ACAD_REACTORS
330
926
102
}
330
926
100
AcDbXrecord
280
     1
290
     1
  0
XRECORD
  5
929
102
{ACAD_REACTORS
330
928
102
}
330
928
100
AcDbXrecord
280
     1
290
     1
  0
XRECORD
  5
92B
102
{ACAD_REACTORS
330
92A
102
}
330
92A
100
AcDbXrecord
280
     1
290
     1
  0
XRECORD
  5
92D
102
{ACAD_REACTORS
330
92C
102
}
330
92C
100
AcDbXrecord
280
     1
290
     1
  0
XRECORD
  5
92F
102
{ACAD_REACTORS
330
92E
102
}
330
92E
100
AcDbXrecord
280
     1
290
     1
  0
XRECORD
  5
931
102
{ACAD_REACTORS
330
930
102
}
330
930
100
AcDbXrecord
280
     1
290
     1
  0
XRECORD
  5
933
102
{ACAD_REACTORS
330
932
102
}
330
932
100
AcDbXrecord
280
     1
290
     1
  0
XRECORD
  5
935
102
{ACAD_REACTORS
330
934
102
}
330
934
100
AcDbXrecord
280
     1
290
     1
  0
XRECORD
  5
937
102
{ACAD_REACTORS
330
936
102
}
330
936
100
AcDbXrecord
280
     1
290
     1
  0
XRECORD
  5
939
102
{ACAD_REACTORS
330
938
102
}
330
938
100
AcDbXrecord
280
     1
290
     1
  0
XRECORD
  5
93B
102
{ACAD_REACTORS
330
93A
102
}
330
93A
100
AcDbXrecord
280
     1
290
     1
  0
LAYOUT
  5
902
102
{ACAD_XDICTIONARY
360
987
102
}
102
{ACAD_REACTORS
330
8F8
102
}
330
8F8
100
AcDbPlotSettings
  1

  2
FX DocuWide 2050
  4

  6

 40
0.0
 41
0.0
 42
0.0
 43
0.0
 44
0.0
 45
0.0
 46
0.0
 47
0.0
 48
0.0
 49
0.0
140
0.0
141
0.0
142
1.0
143
1.0
 70
   688
 72
     0
 73
     0
 74
     5
  7

 75
    16
147
1.0
148
0.0
149
0.0
100
AcDbLayout
  1
Layout1
 70
     1
 71
     1
 10
0.0
 20
0.0
 11
12.0
 21
9.0
 12
0.0
 22
0.0
 32
0.0
 14
1.000000000000000E+20
 24
1.000000000000000E+20
 34
1.000000000000000E+20
 15
-1.000000000000000E+20
 25
-1.000000000000000E+20
 35
-1.000000000000000E+20
146
0.0
 13
0.0
 23
0.0
 33
0.0
 16
1.0
 26
0.0
 36
0.0
 17
0.0
 27
1.0
 37
0.0
 76
     0
330
8FF
  0
LAYOUT
  5
906
102
{ACAD_XDICTIONARY
360
989
102
}
102
{ACAD_REACTORS
330
8F8
102
}
330
8F8
100
AcDbPlotSettings
  1

  2
FX DocuWide 2050
  4

  6

 40
0.0
 41
0.0
 42
0.0
 43
0.0
 44
0.0
 45
0.0
 46
0.0
 47
0.0
 48
0.0
 49
0.0
140
0.0
141
0.0
142
1.0
143
1.0
 70
  1712
 72
     0
 73
     0
 74
     0
  7

 75
     0
147
1.0
148
0.0
149
0.0
100
AcDbLayout
  1
Model
 70
     1
 71
     0
 10
0.0
 20
0.0
 11
12.0
 21
9.0
 12
0.0
 22
0.0
 32
0.0
 14
0.0
 24
0.0
 34
0.0
 15
0.0
 25
0.0
 35
0.0
146
0.0
 13
0.0
 23
0.0
 33
0.0
 16
1.0
 26
0.0
 36
0.0
 17
0.0
 27
1.0
 37
0.0
 76
     0
330
903
331
908
  0
MATERIAL
  5
8A8
102
{ACAD_XDICTIONARY
360
8A9
102
}
102
{ACAD_REACTORS
330
89F
102
}
330
89F
100
AcDbMaterial
  1
ByBlock
 72
     0
 43
0.0208333333333333
 43
0.0
 43
0.0
 43
0.0
 43
0.0
 43
0.0208333333333333
 43
0.0
 43
0.0
 43
0.0
 43
0.0
 43
1.0
 43
0.0
 43
0.0
 43
0.0
 43
0.0
 43
1.0
 77
     0
 47
0.0208333333333333
 47
0.0
 47
0.0
 47
0.0
 47
0.0
 47
0.0208333333333333
 47
0.0
 47
0.0
 47
0.0
 47
0.0
 47
1.0
 47
0.0
 47
0.0
 47
0.0
 47
0.0
 47
1.0
171
     0
 49
0.0208333333333333
 49
0.0
 49
0.0
 49
0.0
 49
0.0
 49
0.0208333333333333
 49
0.0
 49
0.0
 49
0.0
 49
0.0
 49
1.0
 49
0.0
 49
0.0
 49
0.0
 49
0.0
 49
1.0
175
     0
142
0.0208333333333333
142
0.0
142
0.0
142
0.0
142
0.0
142
0.0208333333333333
142
0.0
142
0.0
142
0.0
142
0.0
142
1.0
142
0.0
142
0.0
142
0.0
142
0.0
142
1.0
179
     0
144
0.0208333333333333
144
0.0
144
0.0
144
0.0
144
0.0
144
0.0208333333333333
144
0.0
144
0.0
144
0.0
144
0.0
144
1.0
144
0.0
144
0.0
144
0.0
144
0.0
144
1.0
147
0.0208333333333333
147
0.0
147
0.0
147
0.0
147
0.0
147
0.0208333333333333
147
0.0
147
0.0
147
0.0
147
0.0
147
1.0
147
0.0
147
0.0
147
0.0
147
0.0
147
1.0
  0
MATERIAL
  5
8A0
102
{ACAD_XDICTIONARY
360
8A1
102
}
102
{ACAD_REACTORS
330
89F
102
}
330
89F
100
AcDbMaterial
  1
ByLayer
 72
     0
 43
0.0208333333333333
 43
0.0
 43
0.0
 43
0.0
 43
0.0
 43
0.0208333333333333
 43
0.0
 43
0.0
 43
0.0
 43
0.0
 43
1.0
 43
0.0
 43
0.0
 43
0.0
 43
0.0
 43
1.0
 77
     0
 47
0.0208333333333333
 47
0.0
 47
0.0
 47
0.0
 47
0.0
 47
0.0208333333333333
 47
0.0
 47
0.0
 47
0.0
 47
0.0
 47
1.0
 47
0.0
 47
0.0
 47
0.0
 47
0.0
 47
1.0
171
     0
 49
0.0208333333333333
 49
0.0
 49
0.0
 49
0.0
 49
0.0
 49
0.0208333333333333
 49
0.0
 49
0.0
 49
0.0
 49
0.0
 49
1.0
 49
0.0
 49
0.0
 49
0.0
 49
0.0
 49
1.0
175
     0
142
0.0208333333333333
142
0.0
142
0.0
142
0.0
142
0.0
142
0.0208333333333333
142
0.0
142
0.0
142
0.0
142
0.0
142
1.0
142
0.0
142
0.0
142
0.0
142
0.0
142
1.0
179
     0
144
0.0208333333333333
144
0.0
144
0.0
144
0.0
144
0.0
144
0.0208333333333333
144
0.0
144
0.0
144
0.0
144
0.0
144
1.0
144
0.0
144
0.0
144
0.0
144
0.0
144
1.0
147
0.0208333333333333
147
0.0
147
0.0
147
0.0
147
0.0
147
0.0208333333333333
147
0.0
147
0.0
147
0.0
147
0.0
147
1.0
147
0.0
147
0.0
147
0.0
147
0.0
147
1.0
  0
MATERIAL
  5
8B0
102
{ACAD_XDICTIONARY
360
8B1
102
}
102
{ACAD_REACTORS
330
89F
102
}
330
89F
100
AcDbMaterial
  1
Global
 72
     0
 43
0.0208333333333333
 43
0.0
 43
0.0
 43
0.0
 43
0.0
 43
0.0208333333333333
 43
0.0
 43
0.0
 43
0.0
 43
0.0
 43
1.0
 43
0.0
 43
0.0
 43
0.0
 43
0.0
 43
1.0
 77
     0
 47
0.0208333333333333
 47
0.0
 47
0.0
 47
0.0
 47
0.0
 47
0.0208333333333333
 47
0.0
 47
0.0
 47
0.0
 47
0.0
 47
1.0
 47
0.0
 47
0.0
 47
0.0
 47
0.0
 47
1.0
171
     0
 49
0.0208333333333333
 49
0.0
 49
0.0
 49
0.0
 49
0.0
 49
0.0208333333333333
 49
0.0
 49
0.0
 49
0.0
 49
0.0
 49
1.0
 49
0.0
 49
0.0
 49
0.0
 49
0.0
 49
1.0
175
     0
142
0.0208333333333333
142
0.0
142
0.0
142
0.0
142
0.0
142
0.0208333333333333
142
0.0
142
0.0
142
0.0
142
0.0
142
1.0
142
0.0
142
0.0
142
0.0
142
0.0
142
1.0
179
     0
144
0.0208333333333333
144
0.0
144
0.0
144
0.0
144
0.0
144
0.0208333333333333
144
0.0
144
0.0
144
0.0
144
0.0
144
1.0
144
0.0
144
0.0
144
0.0
144
0.0
144
1.0
147
0.0208333333333333
147
0.0
147
0.0
147
0.0
147
0.0
147
0.0208333333333333
147
0.0
147
0.0
147
0.0
147
0.0
147
1.0
147
0.0
147
0.0
147
0.0
147
0.0
147
1.0
  0
MLEADERSTYLE
  5
8FD
102
{ACAD_REACTORS
330
8FC
102
}
330
8FC
100
AcDbMLeaderStyle
170
     2
171
     1
172
     0
 90
        2
 40
0.0
 41
0.0
173
     1
 91
-1056964608
340
8F1
 92
       -2
290
     1
 42
0.09
291
     1
 43
0.36
  3
Standard
 44
0.18
300

342
8EC
174
     1
178
     6
175
     1
176
     0
 93
-1056964608
 45
0.18
292
     0
297
     0
 46
0.18
 94
-1056964608
 47
1.0
 49
1.0
140
1.0
293
     1
141
0.0
294
     1
177
     0
142
1.0
295
     0
296
     0
143
0.125
1001
ACAD_MLEADERVER
1070
     2
  0
MLINESTYLE
  5
8F6
102
{ACAD_REACTORS
330
8F5
102
}
330
8F5
100
AcDbMlineStyle
  2
STANDARD
 70
     0
  3

 62
   256
 51
90.0
 52
90.0
 71
     2
 49
0.5
 62
   256
  6
BYLAYER
 49
-0.5
 62
   256
  6
BYLAYER
  0
ACDBPLACEHOLDER
  5
89E
102
{ACAD_REACTORS
330
89D
102
}
330
89D
  0
SCALE
  5
8CA
102
{ACAD_REACTORS
330
8C9
102
}
330
8C9
100
AcDbScale
 70
     0
300
1:1
140
1.0
141
1.0
290
     1
  0
SCALE
  5
8CB
102
{ACAD_REACTORS
330
8C9
102
}
330
8C9
100
AcDbScale
 70
     0
300
1:2
140
1.0
141
2.0
290
     0
  0
SCALE
  5
8CC
102
{ACAD_REACTORS
330
8C9
102
}
330
8C9
100
AcDbScale
 70
     0
300
1:4
140
1.0
141
4.0
290
     0
  0
SCALE
  5
8CD
102
{ACAD_REACTORS
330
8C9
102
}
330
8C9
100
AcDbScale
 70
     0
300
1:5
140
1.0
141
5.0
290
     0
  0
SCALE
  5
8CE
102
{ACAD_REACTORS
330
8C9
102
}
330
8C9
100
AcDbScale
 70
     0
300
1:8
140
1.0
141
8.0
290
     0
  0
SCALE
  5
8CF
102
{ACAD_REACTORS
330
8C9
102
}
330
8C9
100
AcDbScale
 70
     0
300
1:10
140
1.0
141
10.0
290
     0
  0
SCALE
  5
8D0
102
{ACAD_REACTORS
330
8C9
102
}
330
8C9
100
AcDbScale
 70
     0
300
1:16
140
1.0
141
16.0
290
     0
  0
SCALE
  5
8D1
102
{ACAD_REACTORS
330
8C9
102
}
330
8C9
100
AcDbScale
 70
     0
300
1:20
140
1.0
141
20.0
290
     0
  0
SCALE
  5
8D2
102
{ACAD_REACTORS
330
8C9
102
}
330
8C9
100
AcDbScale
 70
     0
300
1:30
140
1.0
141
30.0
290
     0
  0
SCALE
  5
8D3
102
{ACAD_REACTORS
330
8C9
102
}
330
8C9
100
AcDbScale
 70
     0
300
1:40
140
1.0
141
40.0
290
     0
  0
SCALE
  5
8D4
102
{ACAD_REACTORS
330
8C9
102
}
330
8C9
100
AcDbScale
 70
     0
300
1:50
140
1.0
141
50.0
290
     0
  0
SCALE
  5
8D5
102
{ACAD_REACTORS
330
8C9
102
}
330
8C9
100
AcDbScale
 70
     0
300
1:100
140
1.0
141
100.0
290
     0
  0
SCALE
  5
8D6
102
{ACAD_REACTORS
330
8C9
102
}
330
8C9
100
AcDbScale
 70
     0
300
2:1
140
2.0
141
1.0
290
     0
  0
SCALE
  5
8D7
102
{ACAD_REACTORS
330
8C9
102
}
330
8C9
100
AcDbScale
 70
     0
300
4:1
140
4.0
141
1.0
290
     0
  0
SCALE
  5
8D8
102
{ACAD_REACTORS
330
8C9
102
}
330
8C9
100
AcDbScale
 70
     0
300
8:1
140
8.0
141
1.0
290
     0
  0
SCALE
  5
8D9
102
{ACAD_REACTORS
330
8C9
102
}
330
8C9
100
AcDbScale
 70
     0
300
10:1
140
10.0
141
1.0
290
     0
  0
SCALE
  5
8DA
102
{ACAD_REACTORS
330
8C9
102
}
330
8C9
100
AcDbScale
 70
     0
300
100:1
140
100.0
141
1.0
290
     0
  0
SCALE
  5
8DB
102
{ACAD_REACTORS
330
8C9
102
}
330
8C9
100
AcDbScale
 70
     0
300
1/128" = 1'-0"
140
0.0078125
141
12.0
290
     0
  0
SCALE
  5
8DC
102
{ACAD_REACTORS
330
8C9
102
}
330
8C9
100
AcDbScale
 70
     0
300
1/64" = 1'-0"
140
0.015625
141
12.0
290
     0
  0
SCALE
  5
8DD
102
{ACAD_REACTORS
330
8C9
102
}
330
8C9
100
AcDbScale
 70
     0
300
1/32" = 1'-0"
140
0.03125
141
12.0
290
     0
  0
SCALE
  5
8DE
102
{ACAD_REACTORS
330
8C9
102
}
330
8C9
100
AcDbScale
 70
     0
300
1/16" = 1'-0"
140
0.0625
141
12.0
290
     0
  0
SCALE
  5
8DF
102
{ACAD_REACTORS
330
8C9
102
}
330
8C9
100
AcDbScale
 70
     0
300
3/32" = 1'-0"
140
0.09375
141
12.0
290
     0
  0
SCALE
  5
8E0
102
{ACAD_REACTORS
330
8C9
102
}
330
8C9
100
AcDbScale
 70
     0
300
1/8" = 1'-0"
140
0.125
141
12.0
290
     0
  0
SCALE
  5
8E1
102
{ACAD_REACTORS
330
8C9
102
}
330
8C9
100
AcDbScale
 70
     0
300
3/16" = 1'-0"
140
0.1875
141
12.0
290
     0
  0
SCALE
  5
8E2
102
{ACAD_REACTORS
330
8C9
102
}
330
8C9
100
AcDbScale
 70
     0
300
1/4" = 1'-0"
140
0.25
141
12.0
290
     0
  0
SCALE
  5
8E3
102
{ACAD_REACTORS
330
8C9
102
}
330
8C9
100
AcDbScale
 70
     0
300
3/8" = 1'-0"
140
0.375
141
12.0
290
     0
  0
SCALE
  5
8E4
102
{ACAD_REACTORS
330
8C9
102
}
330
8C9
100
AcDbScale
 70
     0
300
1/2" = 1'-0"
140
0.5
141
12.0
290
     0
  0
SCALE
  5
8E5
102
{ACAD_REACTORS
330
8C9
102
}
330
8C9
100
AcDbScale
 70
     0
300
3/4" = 1'-0"
140
0.75
141
12.0
290
     0
  0
SCALE
  5
8E6
102
{ACAD_REACTORS
330
8C9
102
}
330
8C9
100
AcDbScale
 70
     0
300
1" = 1'-0"
140
1.0
141
12.0
290
     0
  0
SCALE
  5
8E7
102
{ACAD_REACTORS
330
8C9
102
}
330
8C9
100
AcDbScale
 70
     0
300
1-1/2" = 1'-0"
140
1.5
141
12.0
290
     0
  0
SCALE
  5
8E8
102
{ACAD_REACTORS
330
8C9
102
}
330
8C9
100
AcDbScale
 70
     0
300
3" = 1'-0"
140
3.0
141
12.0
290
     0
  0
SCALE
  5
8E9
102
{ACAD_REACTORS
330
8C9
102
}
330
8C9
100
AcDbScale
 70
     0
300
6" = 1'-0"
140
6.0
141
12.0
290
     0
  0
SCALE
  5
8EA
102
{ACAD_REACTORS
330
8C9
102
}
330
8C9
100
AcDbScale
 70
     0
300
1'-0" = 1'-0"
140
12.0
141
12.0
290
     0
  0
TABLESTYLE
  5
8FB
102
{ACAD_XDICTIONARY
360
943
102
}
102
{ACAD_REACTORS
330
8FA
102
}
330
8FA
100
AcDbTableStyle
  3
Standard
 70
     0
 71
     0
 40
0.06
 41
0.06
280
     0
281
     0
  7
STANDARD
140
0.18
170
     2
 62
     0
 63
     7
283
     0
274
    -2
284
     1
 64
     0
275
    -2
285
     1
 65
     0
276
    -2
286
     1
 66
     0
277
    -2
287
     1
 67
     0
278
    -2
288
     1
 68
     0
279
    -2
289
     1
 69
     0
  7
STANDARD
140
0.25
170
     5
 62
     0
 63
     7
283
     0
274
    -2
284
     1
 64
     0
275
    -2
285
     1
 65
     0
276
    -2
286
     1
 66
     0
277
    -2
287
     1
 67
     0
278
    -2
288
     1
 68
     0
279
    -2
289
     1
 69
     0
  7
STANDARD
140
0.18
170
     5
 62
     0
 63
     7
283
     0
274
    -2
284
     1
 64
     0
275
    -2
285
     1
 65
     0
276
    -2
286
     1
 66
     0
277
    -2
287
     1
 67
     0
278
    -2
288
     1
 68
     0
279
    -2
289
     1
 69
     0
  0
VISUALSTYLE
  5
8BE
102
{ACAD_XDICTIONARY
360
970
102
}
102
{ACAD_REACTORS
330
8B8
102
}
330
8B8
100
AcDbVisualStyle
  2

 70
     4
 71
     0
 72
     2
 73
     0
 90
        0
 40
-0.6
 41
-30.0
 62
     5
 63
     7
 74
     1
 91
        4
 64
     7
 65
   257
 75
     1
175
     1
 42
1.0
 92
        0
 66
   257
 43
1.0
 76
     1
 77
     6
 78
     2
 67
     7
 79
     5
170
     0
171
     0
290
     0
174
     0
 93
        1
 44
0.0
173
     0
291
     0
 45
0.0
1001
ACAD
1000
AcDbSavedByObjectVersion
1070
     0
  0
VISUALSTYLE
  5
8C0
102
{ACAD_XDICTIONARY
360
974
102
}
102
{ACAD_REACTORS
330
8B8
102
}
330
8B8
100
AcDbVisualStyle
  2

 70
     6
 71
     1
 72
     2
 73
     2
 90
        0
 40
-0.6
 41
-30.0
 62
     5
 63
     7
 74
     2
 91
        2
 64
     7
 65
   257
 75
     2
175
     1
 42
40.0
 92
        0
 66
   257
 43
1.0
 76
     1
 77
     6
 78
     2
 67
     7
 79
     3
170
     0
171
     0
290
     0
174
     0
 93
        1
 44
0.0
173
     0
291
     0
 45
0.0
1001
ACAD
1000
AcDbSavedByObjectVersion
1070
     0
  0
VISUALSTYLE
  5
8BF
102
{ACAD_XDICTIONARY
360
972
102
}
102
{ACAD_REACTORS
330
8B8
102
}
330
8B8
100
AcDbVisualStyle
  2

 70
     5
 71
     0
 72
     2
 73
     0
 90
        0
 40
-0.6
 41
-30.0
 62
     5
 63
     7
 74
     1
 91
        4
 64
     7
 65
   257
 75
     1
175
     1
 42
1.0
 92
        0
 66
   257
 43
1.0
 76
     1
 77
     6
 78
     2
 67
     7
 79
     5
170
     0
171
     0
290
     0
174
     0
 93
        1
 44
0.0
173
     0
291
     0
 45
0.0
1001
ACAD
1000
AcDbSavedByObjectVersion
1070
     0
  0
VISUALSTYLE
  5
8BD
102
{ACAD_XDICTIONARY
360
96E
102
}
102
{ACAD_REACTORS
330
8B8
102
}
330
8B8
100
AcDbVisualStyle
  2

 70
     7
 71
     1
 72
     0
 73
     1
 90
        0
 40
-0.6
 41
-30.0
 62
     5
 63
     7
 74
     0
 91
        4
 64
     7
 65
   257
 75
     1
175
     1
 42
1.0
 92
        8
 66
     7
 43
1.0
 76
     1
 77
     6
 78
     2
 67
     7
 79
     5
170
     0
171
     0
290
     0
174
     0
 93
        1
 44
0.0
173
     0
291
     1
 45
0.0
1001
ACAD
1000
AcDbSavedByObjectVersion
1070
     0
  0
VISUALSTYLE
  5
8C4
102
{ACAD_XDICTIONARY
360
97C
102
}
102
{ACAD_REACTORS
330
8B8
102
}
330
8B8
100
AcDbVisualStyle
  2

 70
    12
 71
     2
 72
     2
 73
     0
 90
        0
 40
-0.6
 41
-30.0
 62
     5
 63
     7
 74
     1
 91
        4
 64
     7
 65
   257
 75
     1
175
     1
 42
1.0
 92
        8
 66
     7
 43
1.0
 76
     1
 77
     6
 78
     2
 67
     7
 79
     5
170
     0
171
     0
290
     0
174
     0
 93
        1
 44
50.0
173
     0
291
     1
 45
0.0
1001
ACAD
1000
AcDbSavedByObjectVersion
1070
     0
  0
VISUALSTYLE
  5
8C8
102
{ACAD_XDICTIONARY
360
984
102
}
102
{ACAD_REACTORS
330
8B8
102
}
330
8B8
100
AcDbVisualStyle
  2

 70
    16
 71
     2
 72
     2
 73
     3
 90
        0
 40
-0.6
 41
-30.0
 62
     5
 63
     8
 74
     1
 91
        4
 64
     7
 65
   257
 75
     1
175
     1
 42
1.0
 92
        8
 66
     8
 43
1.0
 76
     1
 77
     6
 78
     2
 67
     7
 79
     5
170
     0
171
     0
290
     0
174
     0
 93
        1
 44
0.0
173
     0
291
     1
 45
0.0
1001
ACAD
1000
AcDbSavedByObjectVersion
1070
     0
  0
VISUALSTYLE
  5
8C1
102
{ACAD_XDICTIONARY
360
976
102
}
102
{ACAD_REACTORS
330
8B8
102
}
330
8B8
100
AcDbVisualStyle
  2

 70
     9
 71
     3
 72
     2
 73
     0
 90
        0
 40
-0.6
 41
-30.0
 62
     5
 63
     7
 74
     2
 91
        2
 64
     7
 65
   257
 75
     1
175
     1
 42
40.0
 92
        8
 66
     7
 43
1.0
 76
     1
 77
     6
 78
     2
 67
     7
 79
     3
170
     0
171
     0
290
     0
174
     0
 93
        1
 44
0.0
173
     0
291
     0
 45
0.0
1001
ACAD
1000
AcDbSavedByObjectVersion
1070
     0
  0
VISUALSTYLE
  5
8C3
102
{ACAD_XDICTIONARY
360
97A
102
}
102
{ACAD_REACTORS
330
8B8
102
}
330
8B8
100
AcDbVisualStyle
  2

 70
    11
 71
     2
 72
     2
 73
     0
 90
        0
 40
-0.6
 41
-30.0
 62
     5
 63
     7
 74
     1
 91
        4
 64
     7
 65
   257
 75
     1
175
     1
 42
1.0
 92
        8
 66
     7
 43
1.0
 76
     1
 77
     6
 78
     2
 67
     7
 79
     5
170
     0
171
     0
290
     0
174
     0
 93
        1
 44
-50.0
173
     0
291
     1
 45
0.0
1001
ACAD
1000
AcDbSavedByObjectVersion
1070
     0
  0
VISUALSTYLE
  5
95D
102
{ACAD_XDICTIONARY
360
99D
102
}
102
{ACAD_REACTORS
330
8B8
102
}
330
8B8
100
AcDbVisualStyle
  2
EdgeColorOff
 70
    22
 71
     2
 72
     2
 73
     0
 90
        0
 40
-0.6
 41
-30.0
 62
     5
 63
     7
 74
     1
 91
        4
 64
     7
 65
   257
 75
     1
175
     1
 42
1.0
 92
        8
 66
     7
 43
1.0
 76
     1
 77
     6
 78
     2
 67
     7
 79
     5
170
     0
171
     0
290
     0
174
     0
 93
        1
 44
0.0
173
     0
291
     1
 45
0.0
1001
ACAD
1000
AcDbSavedByObjectVersion
1070
     0
  0
VISUALSTYLE
  5
8C7
102
{ACAD_XDICTIONARY
360
982
102
}
102
{ACAD_REACTORS
330
8B8
102
}
330
8B8
100
AcDbVisualStyle
  2

 70
    15
 71
     2
 72
     2
 73
     0
 90
        0
 40
-0.6
 41
-30.0
 62
     5
 63
     7
 74
     1
 91
        4
 64
     7
 65
   257
 75
     1
175
     1
 42
1.0
 92
        8
 66
     7
 43
1.0
 76
     1
 77
     6
 78
     2
 67
     7
 79
     5
170
     0
171
     0
290
     0
174
     0
 93
        1
 44
0.0
173
     0
291
     1
 45
0.0
1001
ACAD
1000
AcDbSavedByObjectVersion
1070
     0
  0
VISUALSTYLE
  5
8B9
102
{ACAD_XDICTIONARY
360
966
102
}
102
{ACAD_REACTORS
330
8B8
102
}
330
8B8
100
AcDbVisualStyle
  2

 70
     0
 71
     2
 72
     1
 73
     1
 90
        2
 40
-0.6
 41
30.0
 62
     5
 63
     7
 74
     0
 91
        4
 64
     7
 65
   257
 75
     1
175
     1
 42
1.0
 92
        8
 66
     7
 43
1.0
 76
     1
 77
     6
 78
     2
 67
     7
 79
     5
170
     0
171
     0
290
     0
174
     0
 93
       13
 44
0.0
173
     0
291
     1
 45
0.0
1001
ACAD
1000
AcDbSavedByObjectVersion
1070
     0
  0
VISUALSTYLE
  5
8BA
102
{ACAD_XDICTIONARY
360
968
102
}
102
{ACAD_REACTORS
330
8B8
102
}
330
8B8
100
AcDbVisualStyle
  2

 70
     1
 71
     2
 72
     1
 73
     1
 90
        2
 40
-0.6
 41
30.0
 62
     5
 63
     7
 74
     1
 91
        4
 64
     7
 65
   257
 75
     1
175
     1
 42
1.0
 92
        0
 66
   257
 43
1.0
 76
     1
 77
     6
 78
     2
 67
     7
 79
     5
170
     0
171
     0
290
     0
174
     0
 93
       13
 44
0.0
173
     0
291
     1
 45
0.0
1001
ACAD
1000
AcDbSavedByObjectVersion
1070
     0
  0
VISUALSTYLE
  5
8BB
102
{ACAD_XDICTIONARY
360
96A
102
}
102
{ACAD_REACTORS
330
8B8
102
}
330
8B8
100
AcDbVisualStyle
  2

 70
     2
 71
     2
 72
     2
 73
     1
 90
        2
 40
-0.6
 41
30.0
 62
     5
 63
     7
 74
     0
 91
        4
 64
     7
 65
   257
 75
     1
175
     1
 42
1.0
 92
        0
 66
     7
 43
1.0
 76
     1
 77
     6
 78
     2
 67
     7
 79
     5
170
     0
171
     0
290
     0
174
     0
 93
       13
 44
0.0
173
     0
291
     1
 45
0.0
1001
ACAD
1000
AcDbSavedByObjectVersion
1070
     0
  0
VISUALSTYLE
  5
8BC
102
{ACAD_XDICTIONARY
360
96C
102
}
102
{ACAD_REACTORS
330
8B8
102
}
330
8B8
100
AcDbVisualStyle
  2

 70
     3
 71
     2
 72
     2
 73
     1
 90
        2
 40
-0.6
 41
30.0
 62
     5
 63
     7
 74
     1
 91
        4
 64
     7
 65
   257
 75
     1
175
     1
 42
1.0
 92
        0
 66
   257
 43
1.0
 76
     1
 77
     6
 78
     2
 67
     7
 79
     5
170
     0
171
     0
290
     0
174
     0
 93
       13
 44
0.0
173
     0
291
     1
 45
0.0
1001
ACAD
1000
AcDbSavedByObjectVersion
1070
     0
  0
VISUALSTYLE
  5
955
102
{ACAD_XDICTIONARY
360
98D
102
}
102
{ACAD_REACTORS
330
8B8
102
}
330
8B8
100
AcDbVisualStyle
  2
Hidden
 70
     6
 71
     1
 72
     2
 73
     2
 90
        0
 40
-0.6
 41
-30.0
 62
     5
 63
     7
 74
     2
 91
        2
 64
     7
 65
   257
 75
     2
175
     1
 42
40.0
 92
        0
 66
   257
 43
1.0
 76
     1
 77
     6
 78
     2
 67
     7
 79
     3
170
     0
171
     0
290
     0
174
     0
 93
        1
 44
0.0
173
     0
291
     0
 45
0.0
1001
ACAD
1000
AcDbSavedByObjectVersion
1070
     0
  0
VISUALSTYLE
  5
95B
102
{ACAD_XDICTIONARY
360
999
102
}
102
{ACAD_REACTORS
330
8B8
102
}
330
8B8
100
AcDbVisualStyle
  2
JitterOff
 70
    20
 71
     2
 72
     2
 73
     0
 90
        0
 40
-0.6
 41
-30.0
 62
     5
 63
     7
 74
     1
 91
        4
 64
     7
 65
   257
 75
     1
175
     1
 42
1.0
 92
       10
 66
     7
 43
1.0
 76
     1
 77
     6
 78
     2
 67
     7
 79
     5
170
     0
171
     0
290
     0
174
     0
 93
        1
 44
0.0
173
     0
291
     1
 45
0.0
1001
ACAD
1000
AcDbSavedByObjectVersion
1070
     0
  0
VISUALSTYLE
  5
8C6
102
{ACAD_XDICTIONARY
360
980
102
}
102
{ACAD_REACTORS
330
8B8
102
}
330
8B8
100
AcDbVisualStyle
  2

 70
    14
 71
     2
 72
     2
 73
     0
 90
        0
 40
-0.6
 41
-30.0
 62
     5
 63
     7
 74
     1
 91
        4
 64
     7
 65
   257
 75
     7
175
     7
 42
1.0
 92
        8
 66
     7
 43
1.0
 76
     1
 77
     6
 78
     2
 67
     7
 79
     5
170
     0
171
     0
290
     0
174
     0
 93
        1
 44
0.0
173
     0
291
     1
 45
0.0
1001
ACAD
1000
AcDbSavedByObjectVersion
1070
     0
  0
VISUALSTYLE
  5
95C
102
{ACAD_XDICTIONARY
360
99B
102
}
102
{ACAD_REACTORS
330
8B8
102
}
330
8B8
100
AcDbVisualStyle
  2
OverhangOff
 70
    21
 71
     2
 72
     2
 73
     0
 90
        0
 40
-0.6
 41
-30.0
 62
     5
 63
     7
 74
     1
 91
        4
 64
     7
 65
   257
 75
     1
175
     1
 42
1.0
 92
        9
 66
     7
 43
1.0
 76
     1
 77
     6
 78
     2
 67
     7
 79
     5
170
     0
171
     0
290
     0
174
     0
 93
        1
 44
0.0
173
     0
291
     1
 45
0.0
1001
ACAD
1000
AcDbSavedByObjectVersion
1070
     0
  0
VISUALSTYLE
  5
8C2
102
{ACAD_XDICTIONARY
360
978
102
}
102
{ACAD_REACTORS
330
8B8
102
}
330
8B8
100
AcDbVisualStyle
  2

 70
     8
 71
     2
 72
     2
 73
     0
 90
        0
 40
-0.6
 41
-30.0
 62
     5
 63
     7
 74
     1
 91
        0
 64
     7
 65
   257
 75
     1
175
     1
 42
1.0
 92
        8
 66
     8
 43
1.0
 76
     1
 77
     6
 78
     2
 67
     7
 79
     5
170
     0
171
     0
290
     0
174
     0
 93
       13
 44
0.0
173
     0
291
     0
 45
0.0
1001
ACAD
1000
AcDbSavedByObjectVersion
1070
     0
  0
VISUALSTYLE
  5
95A
102
{ACAD_XDICTIONARY
360
997
102
}
102
{ACAD_REACTORS
330
8B8
102
}
330
8B8
100
AcDbVisualStyle
  2
Shaded
 70
    27
 71
     2
 72
     2
 73
     1
 90
        2
 40
-0.6
 41
30.0
 62
     5
 63
     7
 74
     0
 91
        4
 64
     7
 65
   257
 75
     1
175
     1
 42
1.0
 92
        8
 66
   257
 43
1.0
 76
     1
 77
     6
 78
     2
 67
     8
 79
     3
170
     0
171
     0
290
     0
174
     0
 93
        5
 44
0.0
173
     0
291
     0
 45
0.0
1001
ACAD
1000
AcDbSavedByObjectVersion
1070
     0
  0
VISUALSTYLE
  5
959
102
{ACAD_XDICTIONARY
360
995
102
}
102
{ACAD_REACTORS
330
8B8
102
}
330
8B8
100
AcDbVisualStyle
  2
Shaded with edges
 70
    26
 71
     2
 72
     2
 73
     1
 90
        2
 40
-0.6
 41
30.0
 62
     5
 63
     7
 74
     1
 91
       10
 64
     7
 65
   257
 75
     2
175
     1
 42
1.0
 92
        8
 66
   257
 43
1.0
 76
     1
 77
     6
 78
     2
 67
     7
 79
     3
170
     0
171
     0
290
     0
174
     0
 93
        5
 44
0.0
173
     0
291
     0
 45
0.0
1001
ACAD
1000
AcDbSavedByObjectVersion
1070
     0
  0
VISUALSTYLE
  5
956
102
{ACAD_XDICTIONARY
360
98F
102
}
102
{ACAD_REACTORS
330
8B8
102
}
330
8B8
100
AcDbVisualStyle
  2
Shades of Gray
 70
    23
 71
     2
 72
     2
 73
     3
 90
        0
 40
-0.6
 41
-30.0
 62
     5
 63
     7
 74
     2
 91
        2
 64
     7
 65
     7
 75
     1
175
     1
 42
40.0
 92
        8
 66
     7
 43
1.0
 76
     1
 77
     6
 78
     2
 67
     7
 79
     3
170
     0
171
     0
290
     0
174
     0
 93
        1
 44
0.0
173
     0
291
     0
 45
0.0
1001
ACAD
1000
AcDbSavedByObjectVersion
1070
     0
  0
VISUALSTYLE
  5
957
102
{ACAD_XDICTIONARY
360
991
102
}
102
{ACAD_REACTORS
330
8B8
102
}
330
8B8
100
AcDbVisualStyle
  2
Sketchy
 70
    24
 71
     1
 72
     2
 73
     2
 90
        0
 40
-0.6
 41
-30.0
 62
     5
 63
     7
 74
     2
 91
        2
 64
     7
 65
     7
 75
     1
175
     1
 42
40.0
 92
       11
 66
     7
 43
1.0
 76
     1
 77
     6
 78
     2
 67
     7
 79
     6
170
     0
171
     0
290
     0
174
     0
 93
        1
 44
0.0
173
     0
291
     0
 45
0.0
1001
ACAD
1000
AcDbSavedByObjectVersion
1070
     0
  0
VISUALSTYLE
  5
8C5
102
{ACAD_XDICTIONARY
360
97E
102
}
102
{ACAD_REACTORS
330
8B8
102
}
330
8B8
100
AcDbVisualStyle
  2

 70
    13
 71
     2
 72
     2
 73
     0
 90
        0
 40
-0.6
 41
-30.0
 62
     5
 63
     7
 74
     1
 91
        4
 64
     7
 65
   257
 75
     1
175
     1
 42
1.0
 92
       12
 66
     7
 43
1.0
 76
     1
 77
     6
 78
     2
 67
     7
 79
     5
170
     0
171
     0
290
     0
174
     0
 93
        1
 44
0.0
173
     0
291
     1
 45
0.0
1001
ACAD
1000
AcDbSavedByObjectVersion
1070
     0
  0
VISUALSTYLE
  5
954
102
{ACAD_XDICTIONARY
360
98B
102
}
102
{ACAD_REACTORS
330
8B8
102
}
330
8B8
100
AcDbVisualStyle
  2
Wireframe
 70
     5
 71
     0
 72
     2
 73
     0
 90
        0
 40
-0.6
 41
-30.0
 62
     5
 63
     7
 74
     1
 91
        4
 64
     7
 65
   257
 75
     1
175
     1
 42
1.0
 92
        0
 66
   257
 43
1.0
 76
     1
 77
     6
 78
     2
 67
     7
 79
     3
170
     0
171
     0
290
     0
174
     0
 93
        1
 44
0.0
173
     0
291
     0
 45
0.0
1001
ACAD
1000
AcDbSavedByObjectVersion
1070
     0
  0
VISUALSTYLE
  5
958
102
{ACAD_XDICTIONARY
360
993
102
}
102
{ACAD_REACTORS
330
8B8
102
}
330
8B8
100
AcDbVisualStyle
  2
X-Ray
 70
    25
 71
     2
 72
     2
 73
     1
 90
        1
 40
0.5
 41
-30.0
 62
     5
 63
     7
 74
     1
 91
        0
 64
     7
 65
   257
 75
     1
175
     1
 42
1.0
 92
        8
 66
     7
 43
1.0
 76
     1
 77
     6
 78
     2
 67
     7
 79
     3
170
     0
171
     0
290
     0
174
     0
 93
       13
 44
0.0
173
     0
291
     0
 45
0.0
1001
ACAD
1000
AcDbSavedByObjectVersion
1070
     0
  0
DICTIONARYVAR
  5
93F
102
{ACAD_REACTORS
330
93C
102
}
330
93C
100
DictionaryVariables
280
     0
  1
1:1
  0
DICTIONARYVAR
  5
93E
102
{ACAD_REACTORS
330
93C
102
}
330
93C
100
DictionaryVariables
280
     0
  1
STANDARD
  0
DICTIONARYVAR
  5
93D
102
{ACAD_REACTORS
330
93C
102
}
330
93C
100
DictionaryVariables
280
     0
  1
STANDARD
  0
DICTIONARYVAR
  5
942
102
{ACAD_REACTORS
330
93C
102
}
330
93C
100
DictionaryVariables
280
     0
  1
1
  0
DICTIONARYVAR
  5
941
102
{ACAD_REACTORS
330
93C
102
}
330
93C
100
DictionaryVariables
280
     0
  1
0
  0
DICTIONARYVAR
  5
940
102
{ACAD_REACTORS
330
93C
102
}
330
93C
100
DictionaryVariables
280
     0
  1
127
  0
DICTIONARYVAR
  5
962
102
{ACAD_REACTORS
330
93C
102
}
330
93C
100
DictionaryVariables
280
     0
  1
2
  0
DICTIONARY
  5
987
330
902
100
AcDbDictionary
280
     1
281
     1
  3
ACAD_XREC_ROUNDTRIP
360
988
  0
DICTIONARY
  5
989
330
906
100
AcDbDictionary
280
     1
281
     1
  3
ACAD_XREC_ROUNDTRIP
360
98A
  0
DICTIONARY
  5
8A9
330
8A8
100
AcDbDictionary
280
     1
281
     1
  3
ACAD_XREC_ROUNDTRIP
360
948
  3
BUMPTILE
360
8AB
  3
DIFFUSETILE
360
8AA
  3
OPACITYTILE
360
8AE
  3
REFLECTIONTILE
360
8AD
  3
REFRACTIONTILE
360
8AF
  3
SPECULARTILE
360
8AC
  0
DICTIONARY
  5
8A1
330
8A0
100
AcDbDictionary
280
     1
281
     1
  3
ACAD_XREC_ROUNDTRIP
360
947
  3
BUMPTILE
360
8A3
  3
DIFFUSETILE
360
8A2
  3
OPACITYTILE
360
8A6
  3
REFLECTIONTILE
360
8A5
  3
REFRACTIONTILE
360
8A7
  3
SPECULARTILE
360
8A4
  0
DICTIONARY
  5
8B1
330
8B0
100
AcDbDictionary
280
     1
281
     1
  3
ACAD_XREC_ROUNDTRIP
360
949
  3
BUMPTILE
360
8B3
  3
DIFFUSETILE
360
8B2
  3
OPACITYTILE
360
8B6
  3
REFLECTIONTILE
360
8B5
  3
REFRACTIONTILE
360
8B7
  3
SPECULARTILE
360
8B4
  0
DICTIONARY
  5
943
330
8FB
100
AcDbDictionary
280
     1
281
     1
  3
ACAD_ROUNDTRIP_2008_TABLESTYLE_CELLSTYLEMAP
360
963
  3
ACAD_XREC_ROUNDTRIP
360
986
  0
DICTIONARY
  5
970
330
8BE
100
AcDbDictionary
280
     1
281
     1
  3
ACAD_XREC_ROUNDTRIP
360
971
  0
DICTIONARY
  5
974
330
8C0
100
AcDbDictionary
280
     1
281
     1
  3
ACAD_XREC_ROUNDTRIP
360
975
  0
DICTIONARY
  5
972
330
8BF
100
AcDbDictionary
280
     1
281
     1
  3
ACAD_XREC_ROUNDTRIP
360
973
  0
DICTIONARY
  5
96E
330
8BD
100
AcDbDictionary
280
     1
281
     1
  3
ACAD_XREC_ROUNDTRIP
360
96F
  0
DICTIONARY
  5
97C
330
8C4
100
AcDbDictionary
280
     1
281
     1
  3
ACAD_XREC_ROUNDTRIP
360
97D
  0
DICTIONARY
  5
984
330
8C8
100
AcDbDictionary
280
     1
281
     1
  3
ACAD_XREC_ROUNDTRIP
360
985
  0
DICTIONARY
  5
976
330
8C1
100
AcDbDictionary
280
     1
281
     1
  3
ACAD_XREC_ROUNDTRIP
360
977
  0
DICTIONARY
  5
97A
330
8C3
100
AcDbDictionary
280
     1
281
     1
  3
ACAD_XREC_ROUNDTRIP
360
97B
  0
DICTIONARY
  5
99D
330
95D
100
AcDbDictionary
280
     1
281
     1
  3
ACAD_XREC_ROUNDTRIP
360
99E
  0
DICTIONARY
  5
982
330
8C7
100
AcDbDictionary
280
     1
281
     1
  3
ACAD_XREC_ROUNDTRIP
360
983
  0
DICTIONARY
  5
966
330
8B9
100
AcDbDictionary
280
     1
281
     1
  3
ACAD_XREC_ROUNDTRIP
360
967
  0
DICTIONARY
  5
968
330
8BA
100
AcDbDictionary
280
     1
281
     1
  3
ACAD_XREC_ROUNDTRIP
360
969
  0
DICTIONARY
  5
96A
330
8BB
100
AcDbDictionary
280
     1
281
     1
  3
ACAD_XREC_ROUNDTRIP
360
96B
  0
DICTIONARY
  5
96C
330
8BC
100
AcDbDictionary
280
     1
281
     1
  3
ACAD_XREC_ROUNDTRIP
360
96D
  0
DICTIONARY
  5
98D
330
955
100
AcDbDictionary
280
     1
281
     1
  3
ACAD_XREC_ROUNDTRIP
360
98E
  0
DICTIONARY
  5
999
330
95B
100
AcDbDictionary
280
     1
281
     1
  3
ACAD_XREC_ROUNDTRIP
360
99A
  0
DICTIONARY
  5
980
330
8C6
100
AcDbDictionary
280
     1
281
     1
  3
ACAD_XREC_ROUNDTRIP
360
981
  0
DICTIONARY
  5
99B
330
95C
100
AcDbDictionary
280
     1
281
     1
  3
ACAD_XREC_ROUNDTRIP
360
99C
  0
DICTIONARY
  5
978
330
8C2
100
AcDbDictionary
280
     1
281
     1
  3
ACAD_XREC_ROUNDTRIP
360
979
  0
DICTIONARY
  5
997
330
95A
100
AcDbDictionary
280
     1
281
     1
  3
ACAD_XREC_ROUNDTRIP
360
998
  0
DICTIONARY
  5
995
330
959
100
AcDbDictionary
280
     1
281
     1
  3
ACAD_XREC_ROUNDTRIP
360
996
  0
DICTIONARY
  5
98F
330
956
100
AcDbDictionary
280
     1
281
     1
  3
ACAD_XREC_ROUNDTRIP
360
990
  0
DICTIONARY
  5
991
330
957
100
AcDbDictionary
280
     1
281
     1
  3
ACAD_XREC_ROUNDTRIP
360
992
  0
DICTIONARY
  5
97E
330
8C5
100
AcDbDictionary
280
     1
281
     1
  3
ACAD_XREC_ROUNDTRIP
360
97F
  0
DICTIONARY
  5
98B
330
954
100
AcDbDictionary
280
     1
281
     1
  3
ACAD_XREC_ROUNDTRIP
360
98C
  0
DICTIONARY
  5
993
330
958
100
AcDbDictionary
280
     1
281
     1
  3
ACAD_XREC_ROUNDTRIP
360
994
  0
XRECORD
  5
988
102
{ACAD_REACTORS
330
987
102
}
330
987
100
AcDbXrecord
280
     1
102
SHADEPLOT
 70
     0
102
SHADEPLOTRESLEVEL
 70
     2
102
SHADEPLOTCUSTOMDPI
 70
   300
  0
XRECORD
  5
98A
102
{ACAD_REACTORS
330
989
102
}
330
989
100
AcDbXrecord
280
     1
102
SHADEPLOT
 70
     0
102
SHADEPLOTRESLEVEL
 70
     2
102
SHADEPLOTCUSTOMDPI
 70
   300
  0
XRECORD
  5
948
102
{ACAD_REACTORS
330
8A9
102
}
330
8A9
100
AcDbXrecord
280
     1
102
MATERIAL
148
0.0
149
0.0
149
0.0
 93
        0
 94
      127
282
     0
 72
     0
 77
     0
171
     0
175
     0
179
     0
273
     0
  0
XRECORD
  5
8AB
102
{ACAD_REACTORS
330
8A9
102
}
330
8A9
100
AcDbXrecord
280
     1
270
     1
271
     1
  0
XRECORD
  5
8AA
102
{ACAD_REACTORS
330
8A9
102
}
330
8A9
100
AcDbXrecord
280
     1
270
     1
271
     1
  0
XRECORD
  5
8AE
102
{ACAD_REACTORS
330
8A9
102
}
330
8A9
100
AcDbXrecord
280
     1
270
     1
271
     1
  0
XRECORD
  5
8AD
102
{ACAD_REACTORS
330
8A9
102
}
330
8A9
100
AcDbXrecord
280
     1
270
     1
271
     1
  0
XRECORD
  5
8AF
102
{ACAD_REACTORS
330
8A9
102
}
330
8A9
100
AcDbXrecord
280
     1
270
     1
271
     1
  0
XRECORD
  5
8AC
102
{ACAD_REACTORS
330
8A9
102
}
330
8A9
100
AcDbXrecord
280
     1
270
     1
271
     1
  0
XRECORD
  5
947
102
{ACAD_REACTORS
330
8A1
102
}
330
8A1
100
AcDbXrecord
280
     1
102
MATERIAL
148
0.0
149
0.0
149
0.0
 93
        0
 94
      127
282
     0
 72
     0
 77
     0
171
     0
175
     0
179
     0
273
     0
  0
XRECORD
  5
8A3
102
{ACAD_REACTORS
330
8A1
102
}
330
8A1
100
AcDbXrecord
280
     1
270
     1
271
     1
  0
XRECORD
  5
8A2
102
{ACAD_REACTORS
330
8A1
102
}
330
8A1
100
AcDbXrecord
280
     1
270
     1
271
     1
  0
XRECORD
  5
8A6
102
{ACAD_REACTORS
330
8A1
102
}
330
8A1
100
AcDbXrecord
280
     1
270
     1
271
     1
  0
XRECORD
  5
8A5
102
{ACAD_REACTORS
330
8A1
102
}
330
8A1
100
AcDbXrecord
280
     1
270
     1
271
     1
  0
XRECORD
  5
8A7
102
{ACAD_REACTORS
330
8A1
102
}
330
8A1
100
AcDbXrecord
280
     1
270
     1
271
     1
  0
XRECORD
  5
8A4
102
{ACAD_REACTORS
330
8A1
102
}
330
8A1
100
AcDbXrecord
280
     1
270
     1
271
     1
  0
XRECORD
  5
949
102
{ACAD_REACTORS
330
8B1
102
}
330
8B1
100
AcDbXrecord
280
     1
102
MATERIAL
148
0.0
149
0.0
149
0.0
 93
        0
 94
      127
282
     0
 72
     0
 77
     0
171
     0
175
     0
179
     0
273
     0
  0
XRECORD
  5
8B3
102
{ACAD_REACTORS
330
8B1
102
}
330
8B1
100
AcDbXrecord
280
     1
270
     1
271
     1
  0
XRECORD
  5
8B2
102
{ACAD_REACTORS
330
8B1
102
}
330
8B1
100
AcDbXrecord
280
     1
270
     1
271
     1
  0
XRECORD
  5
8B6
102
{ACAD_REACTORS
330
8B1
102
}
330
8B1
100
AcDbXrecord
280
     1
270
     1
271
     1
  0
XRECORD
  5
8B5
102
{ACAD_REACTORS
330
8B1
102
}
330
8B1
100
AcDbXrecord
280
     1
270
     1
271
     1
  0
XRECORD
  5
8B7
102
{ACAD_REACTORS
330
8B1
102
}
330
8B1
100
AcDbXrecord
280
     1
270
     1
271
     1
  0
XRECORD
  5
8B4
102
{ACAD_REACTORS
330
8B1
102
}
330
8B1
100
AcDbXrecord
280
     1
270
     1
271
     1
  0
CELLSTYLEMAP
  5
963
102
{ACAD_REACTORS
330
943
102
}
330
943
100
AcDbCellStyleMap
 90
        3
300
CELLSTYLE
  1
TABLEFORMAT_BEGIN
 90
        5
170
     1
 91
        0
 92
    32768
 62
   257
 93
        1
300
CONTENTFORMAT
  1
CONTENTFORMAT_BEGIN
 90
        0
 91
        0
 92
      512
 93
        0
300

 40
0.0
140
1.0
 94
        5
 62
     0
340
8EC
144
0.25
309
CONTENTFORMAT_END
171
     1
301
MARGIN
  1
CELLMARGIN_BEGIN
 40
0.06
 40
0.06
 40
0.06
 40
0.06
 40
0.18
 40
0.18
309
CELLMARGIN_END
 94
        6
 95
        1
302
GRIDFORMAT
  1
GRIDFORMAT_BEGIN
 90
        0
 91
        1
 62
     0
 92
       -2
340
0
 93
        0
 40
0.045
309
GRIDFORMAT_END
 95
        2
302
GRIDFORMAT
  1
GRIDFORMAT_BEGIN
 90
        0
 91
        1
 62
     0
 92
       -2
340
0
 93
        0
 40
0.045
309
GRIDFORMAT_END
 95
        4
302
GRIDFORMAT
  1
GRIDFORMAT_BEGIN
 90
        0
 91
        1
 62
     0
 92
       -2
340
0
 93
        0
 40
0.045
309
GRIDFORMAT_END
 95
        8
302
GRIDFORMAT
  1
GRIDFORMAT_BEGIN
 90
        0
 91
        1
 62
     0
 92
       -2
340
0
 93
        0
 40
0.045
309
GRIDFORMAT_END
 95
       16
302
GRIDFORMAT
  1
GRIDFORMAT_BEGIN
 90
        0
 91
        1
 62
     0
 92
       -2
340
0
 93
        0
 40
0.045
309
GRIDFORMAT_END
 95
       32
302
GRIDFORMAT
  1
GRIDFORMAT_BEGIN
 90
        0
 91
        1
 62
     0
 92
       -2
340
0
 93
        0
 40
0.045
309
GRIDFORMAT_END
309
TABLEFORMAT_END
  1
CELLSTYLE_BEGIN
 90
        1
 91
        1
300
_TITLE
309
CELLSTYLE_END
300
CELLSTYLE
  1
TABLEFORMAT_BEGIN
 90
        5
170
     1
 91
        0
 92
        0
 62
   257
 93
        1
300
CONTENTFORMAT
  1
CONTENTFORMAT_BEGIN
 90
        0
 91
        0
 92
      512
 93
        0
300

 40
0.0
140
1.0
 94
        5
 62
     0
340
8EC
144
0.18
309
CONTENTFORMAT_END
171
     1
301
MARGIN
  1
CELLMARGIN_BEGIN
 40
0.06
 40
0.06
 40
0.06
 40
0.06
 40
0.18
 40
0.18
309
CELLMARGIN_END
 94
        6
 95
        1
302
GRIDFORMAT
  1
GRIDFORMAT_BEGIN
 90
        0
 91
        1
 62
     0
 92
       -2
340
0
 93
        0
 40
0.045
309
GRIDFORMAT_END
 95
        2
302
GRIDFORMAT
  1
GRIDFORMAT_BEGIN
 90
        0
 91
        1
 62
     0
 92
       -2
340
0
 93
        0
 40
0.045
309
GRIDFORMAT_END
 95
        4
302
GRIDFORMAT
  1
GRIDFORMAT_BEGIN
 90
        0
 91
        1
 62
     0
 92
       -2
340
0
 93
        0
 40
0.045
309
GRIDFORMAT_END
 95
        8
302
GRIDFORMAT
  1
GRIDFORMAT_BEGIN
 90
        0
 91
        1
 62
     0
 92
       -2
340
0
 93
        0
 40
0.045
309
GRIDFORMAT_END
 95
       16
302
GRIDFORMAT
  1
GRIDFORMAT_BEGIN
 90
        0
 91
        1
 62
     0
 92
       -2
340
0
 93
        0
 40
0.045
309
GRIDFORMAT_END
 95
       32
302
GRIDFORMAT
  1
GRIDFORMAT_BEGIN
 90
        0
 91
        1
 62
     0
 92
       -2
340
0
 93
        0
 40
0.045
309
GRIDFORMAT_END
309
TABLEFORMAT_END
  1
CELLSTYLE_BEGIN
 90
        2
 91
        1
300
_HEADER
309
CELLSTYLE_END
300
CELLSTYLE
  1
TABLEFORMAT_BEGIN
 90
        5
170
     1
 91
        0
 92
        0
 62
   257
 93
        1
300
CONTENTFORMAT
  1
CONTENTFORMAT_BEGIN
 90
        0
 91
        0
 92
      512
 93
        0
300

 40
0.0
140
1.0
 94
        2
 62
     0
340
8EC
144
0.18
309
CONTENTFORMAT_END
171
     1
301
MARGIN
  1
CELLMARGIN_BEGIN
 40
0.06
 40
0.06
 40
0.06
 40
0.06
 40
0.18
 40
0.18
309
CELLMARGIN_END
 94
        6
 95
        1
302
GRIDFORMAT
  1
GRIDFORMAT_BEGIN
 90
        0
 91
        1
 62
     0
 92
       -2
340
0
 93
        0
 40
0.045
309
GRIDFORMAT_END
 95
        2
302
GRIDFORMAT
  1
GRIDFORMAT_BEGIN
 90
        0
 91
        1
 62
     0
 92
       -2
340
0
 93
        0
 40
0.045
309
GRIDFORMAT_END
 95
        4
302
GRIDFORMAT
  1
GRIDFORMAT_BEGIN
 90
        0
 91
        1
 62
     0
 92
       -2
340
0
 93
        0
 40
0.045
309
GRIDFORMAT_END
 95
        8
302
GRIDFORMAT
  1
GRIDFORMAT_BEGIN
 90
        0
 91
        1
 62
     0
 92
       -2
340
0
 93
        0
 40
0.045
309
GRIDFORMAT_END
 95
       16
302
GRIDFORMAT
  1
GRIDFORMAT_BEGIN
 90
        0
 91
        1
 62
     0
 92
       -2
340
0
 93
        0
 40
0.045
309
GRIDFORMAT_END
 95
       32
302
GRIDFORMAT
  1
GRIDFORMAT_BEGIN
 90
        0
 91
        1
 62
     0
 92
       -2
340
0
 93
        0
 40
0.045
309
GRIDFORMAT_END
309
TABLEFORMAT_END
  1
CELLSTYLE_BEGIN
 90
        3
 91
        2
300
_DATA
309
CELLSTYLE_END
  0
XRECORD
  5
986
102
{ACAD_REACTORS
330
943
102
}
330
943
100
AcDbXrecord
280
     1
102
ACAD_ROUNDTRIP_PRE2007_TABLESTYLE
 90
      512
 91
        0
  1

 92
      512
 93
        0
  2

 94
      512
 95
        0
  3

  0
XRECORD
  5
971
102
{ACAD_REACTORS
330
970
102
}
330
970
100
AcDbXrecord
280
     1
102
RTVSPropertyOp0
 70
     1
102
RTVSPropertyOp1
 70
     1
102
RTVSPropertyOp2
 70
     1
102
RTVSPropertyOp3
 70
     1
102
RTVSPropertyOp4
 70
     1
102
RTVSPropertyOp5
 70
     1
102
RTVSPropertyOp6
 70
     1
102
RTVSPropertyOp7
 70
     1
102
RTVSPropertyOp8
 70
     1
102
RTVSPropertyOp9
 70
     1
102
RTVSPropertyOp10
 70
     1
102
RTVSPropertyOp11
 70
     1
102
RTVSPropertyOp12
 70
     1
102
RTVSPropertyOp13
 70
     1
102
RTVSPropertyOp14
 70
     1
102
RTVSPropertyOp15
 70
     1
102
RTVSPropertyOp16
 70
     1
102
RTVSPropertyOp17
 70
     1
102
RTVSPropertyOp18
 70
     1
102
RTVSPropertyOp19
 70
     1
102
RTVSPropertyOp20
 70
     1
102
RTVSPropertyOp21
 70
     1
102
RTVSPropertyOp22
 70
     1
102
RTVSPropertyOp23
 70
     1
102
RTVSPropertyOp24
 70
     1
102
RTVSPropertyOp25
 70
     1
102
RTVSPropertyOp26
 70
     1
102
RTVSPropertyOp27
 70
     1
102
RTVSPropertyOp28
 70
     1
102
RTVSPropertyOp29
 70
     1
102
RTVSPropertyOp30
 70
     1
102
RTVSPropertyOp31
 70
     1
102
RTVSPropertyOp32
 70
     1
  0
XRECORD
  5
975
102
{ACAD_REACTORS
330
974
102
}
330
974
100
AcDbXrecord
280
     1
102
RTVSPropertyOp0
 70
     1
102
RTVSPropertyOp1
 70
     1
102
RTVSPropertyOp2
 70
     1
102
RTVSPropertyOp3
 70
     1
102
RTVSPropertyOp4
 70
     1
102
RTVSPropertyOp5
 70
     1
102
RTVSPropertyOp6
 70
     1
102
RTVSPropertyOp7
 70
     1
102
RTVSPropertyOp8
 70
     1
102
RTVSPropertyOp9
 70
     1
102
RTVSPropertyOp10
 70
     1
102
RTVSPropertyOp11
 70
     1
102
RTVSPropertyOp12
 70
     1
102
RTVSPropertyOp13
 70
     1
102
RTVSPropertyOp14
 70
     1
102
RTVSPropertyOp15
 70
     1
102
RTVSPropertyOp16
 70
     1
102
RTVSPropertyOp17
 70
     1
102
RTVSPropertyOp18
 70
     1
102
RTVSPropertyOp19
 70
     1
102
RTVSPropertyOp20
 70
     1
102
RTVSPropertyOp21
 70
     1
102
RTVSPropertyOp22
 70
     1
102
RTVSPropertyOp23
 70
     1
102
RTVSPropertyOp24
 70
     1
102
RTVSPropertyOp25
 70
     1
102
RTVSPropertyOp26
 70
     1
102
RTVSPropertyOp27
 70
     1
102
RTVSPropertyOp28
 70
     1
102
RTVSPropertyOp29
 70
     1
102
RTVSPropertyOp30
 70
     1
102
RTVSPropertyOp31
 70
     1
102
RTVSPropertyOp32
 70
     1
  0
XRECORD
  5
973
102
{ACAD_REACTORS
330
972
102
}
330
972
100
AcDbXrecord
280
     1
102
RTVSPropertyOp0
 70
     1
102
RTVSPropertyOp1
 70
     1
102
RTVSPropertyOp2
 70
     1
102
RTVSPropertyOp3
 70
     1
102
RTVSPropertyOp4
 70
     1
102
RTVSPropertyOp5
 70
     1
102
RTVSPropertyOp6
 70
     1
102
RTVSPropertyOp7
 70
     1
102
RTVSPropertyOp8
 70
     1
102
RTVSPropertyOp9
 70
     1
102
RTVSPropertyOp10
 70
     1
102
RTVSPropertyOp11
 70
     1
102
RTVSPropertyOp12
 70
     1
102
RTVSPropertyOp13
 70
     1
102
RTVSPropertyOp14
 70
     1
102
RTVSPropertyOp15
 70
     1
102
RTVSPropertyOp16
 70
     1
102
RTVSPropertyOp17
 70
     1
102
RTVSPropertyOp18
 70
     1
102
RTVSPropertyOp19
 70
     1
102
RTVSPropertyOp20
 70
     1
102
RTVSPropertyOp21
 70
     1
102
RTVSPropertyOp22
 70
     1
102
RTVSPropertyOp23
 70
     1
102
RTVSPropertyOp24
 70
     1
102
RTVSPropertyOp25
 70
     1
102
RTVSPropertyOp26
 70
     1
102
RTVSPropertyOp27
 70
     1
102
RTVSPropertyOp28
 70
     1
102
RTVSPropertyOp29
 70
     1
102
RTVSPropertyOp30
 70
     1
102
RTVSPropertyOp31
 70
     1
102
RTVSPropertyOp32
 70
     1
  0
XRECORD
  5
96F
102
{ACAD_REACTORS
330
96E
102
}
330
96E
100
AcDbXrecord
280
     1
102
RTVSPropertyOp0
 70
     1
102
RTVSPropertyOp1
 70
     1
102
RTVSPropertyOp2
 70
     1
102
RTVSPropertyOp3
 70
     1
102
RTVSPropertyOp4
 70
     1
102
RTVSPropertyOp5
 70
     1
102
RTVSPropertyOp6
 70
     1
102
RTVSPropertyOp7
 70
     1
102
RTVSPropertyOp8
 70
     1
102
RTVSPropertyOp9
 70
     1
102
RTVSPropertyOp10
 70
     1
102
RTVSPropertyOp11
 70
     1
102
RTVSPropertyOp12
 70
     1
102
RTVSPropertyOp13
 70
     1
102
RTVSPropertyOp14
 70
     1
102
RTVSPropertyOp15
 70
     1
102
RTVSPropertyOp16
 70
     1
102
RTVSPropertyOp17
 70
     1
102
RTVSPropertyOp18
 70
     1
102
RTVSPropertyOp19
 70
     1
102
RTVSPropertyOp20
 70
     1
102
RTVSPropertyOp21
 70
     1
102
RTVSPropertyOp22
 70
     1
102
RTVSPropertyOp23
 70
     1
102
RTVSPropertyOp24
 70
     1
102
RTVSPropertyOp25
 70
     1
102
RTVSPropertyOp26
 70
     1
102
RTVSPropertyOp27
 70
     1
102
RTVSPropertyOp28
 70
     1
102
RTVSPropertyOp29
 70
     1
102
RTVSPropertyOp30
 70
     1
102
RTVSPropertyOp31
 70
     1
102
RTVSPropertyOp32
 70
     1
  0
XRECORD
  5
97D
102
{ACAD_REACTORS
330
97C
102
}
330
97C
100
AcDbXrecord
280
     1
102
RTVSPropertyOp0
 70
     1
102
RTVSPropertyOp1
 70
     1
102
RTVSPropertyOp2
 70
     1
102
RTVSPropertyOp3
 70
     1
102
RTVSPropertyOp4
 70
     1
102
RTVSPropertyOp5
 70
     1
102
RTVSPropertyOp6
 70
     1
102
RTVSPropertyOp7
 70
     1
102
RTVSPropertyOp8
 70
     1
102
RTVSPropertyOp9
 70
     1
102
RTVSPropertyOp10
 70
     1
102
RTVSPropertyOp11
 70
     1
102
RTVSPropertyOp12
 70
     1
102
RTVSPropertyOp13
 70
     1
102
RTVSPropertyOp14
 70
     1
102
RTVSPropertyOp15
 70
     1
102
RTVSPropertyOp16
 70
     1
102
RTVSPropertyOp17
 70
     1
102
RTVSPropertyOp18
 70
     1
102
RTVSPropertyOp19
 70
     1
102
RTVSPropertyOp20
 70
     1
102
RTVSPropertyOp21
 70
     1
102
RTVSPropertyOp22
 70
     1
102
RTVSPropertyOp23
 70
     1
102
RTVSPropertyOp24
 70
     1
102
RTVSPropertyOp25
 70
     1
102
RTVSPropertyOp26
 70
     1
102
RTVSPropertyOp27
 70
     1
102
RTVSPropertyOp28
 70
     1
102
RTVSPropertyOp29
 70
     1
102
RTVSPropertyOp30
 70
     1
102
RTVSPropertyOp31
 70
     1
102
RTVSPropertyOp32
 70
     1
  0
XRECORD
  5
985
102
{ACAD_REACTORS
330
984
102
}
330
984
100
AcDbXrecord
280
     1
102
RTVSPropertyOp0
 70
     1
102
RTVSPropertyOp1
 70
     1
102
RTVSPropertyOp2
 70
     1
102
RTVSPropertyOp3
 70
     1
102
RTVSPropertyOp4
 70
     1
102
RTVSPropertyOp5
 70
     1
102
RTVSPropertyOp6
 70
     1
102
RTVSPropertyOp7
 70
     1
102
RTVSPropertyOp8
 70
     1
102
RTVSPropertyOp9
 70
     1
102
RTVSPropertyOp10
 70
     1
102
RTVSPropertyOp11
 70
     1
102
RTVSPropertyOp12
 70
     1
102
RTVSPropertyOp13
 70
     1
102
RTVSPropertyOp14
 70
     1
102
RTVSPropertyOp15
 70
     1
102
RTVSPropertyOp16
 70
     1
102
RTVSPropertyOp17
 70
     1
102
RTVSPropertyOp18
 70
     1
102
RTVSPropertyOp19
 70
     1
102
RTVSPropertyOp20
 70
     1
102
RTVSPropertyOp21
 70
     1
102
RTVSPropertyOp22
 70
     1
102
RTVSPropertyOp23
 70
     1
102
RTVSPropertyOp24
 70
     1
102
RTVSPropertyOp25
 70
     1
102
RTVSPropertyOp26
 70
     1
102
RTVSPropertyOp27
 70
     1
102
RTVSPropertyOp28
 70
     1
102
RTVSPropertyOp29
 70
     1
102
RTVSPropertyOp30
 70
     1
102
RTVSPropertyOp31
 70
     1
102
RTVSPropertyOp32
 70
     1
  0
XRECORD
  5
977
102
{ACAD_REACTORS
330
976
102
}
330
976
100
AcDbXrecord
280
     1
102
RTVSPropertyOp0
 70
     1
102
RTVSPropertyOp1
 70
     1
102
RTVSPropertyOp2
 70
     1
102
RTVSPropertyOp3
 70
     1
102
RTVSPropertyOp4
 70
     1
102
RTVSPropertyOp5
 70
     1
102
RTVSPropertyOp6
 70
     1
102
RTVSPropertyOp7
 70
     1
102
RTVSPropertyOp8
 70
     1
102
RTVSPropertyOp9
 70
     1
102
RTVSPropertyOp10
 70
     1
102
RTVSPropertyOp11
 70
     1
102
RTVSPropertyOp12
 70
     1
102
RTVSPropertyOp13
 70
     1
102
RTVSPropertyOp14
 70
     1
102
RTVSPropertyOp15
 70
     1
102
RTVSPropertyOp16
 70
     1
102
RTVSPropertyOp17
 70
     1
102
RTVSPropertyOp18
 70
     1
102
RTVSPropertyOp19
 70
     1
102
RTVSPropertyOp20
 70
     1
102
RTVSPropertyOp21
 70
     1
102
RTVSPropertyOp22
 70
     1
102
RTVSPropertyOp23
 70
     1
102
RTVSPropertyOp24
 70
     1
102
RTVSPropertyOp25
 70
     1
102
RTVSPropertyOp26
 70
     1
102
RTVSPropertyOp27
 70
     1
102
RTVSPropertyOp28
 70
     1
102
RTVSPropertyOp29
 70
     1
102
RTVSPropertyOp30
 70
     1
102
RTVSPropertyOp31
 70
     1
102
RTVSPropertyOp32
 70
     1
  0
XRECORD
  5
97B
102
{ACAD_REACTORS
330
97A
102
}
330
97A
100
AcDbXrecord
280
     1
102
RTVSPropertyOp0
 70
     1
102
RTVSPropertyOp1
 70
     1
102
RTVSPropertyOp2
 70
     1
102
RTVSPropertyOp3
 70
     1
102
RTVSPropertyOp4
 70
     1
102
RTVSPropertyOp5
 70
     1
102
RTVSPropertyOp6
 70
     1
102
RTVSPropertyOp7
 70
     1
102
RTVSPropertyOp8
 70
     1
102
RTVSPropertyOp9
 70
     1
102
RTVSPropertyOp10
 70
     1
102
RTVSPropertyOp11
 70
     1
102
RTVSPropertyOp12
 70
     1
102
RTVSPropertyOp13
 70
     1
102
RTVSPropertyOp14
 70
     1
102
RTVSPropertyOp15
 70
     1
102
RTVSPropertyOp16
 70
     1
102
RTVSPropertyOp17
 70
     1
102
RTVSPropertyOp18
 70
     1
102
RTVSPropertyOp19
 70
     1
102
RTVSPropertyOp20
 70
     1
102
RTVSPropertyOp21
 70
     1
102
RTVSPropertyOp22
 70
     1
102
RTVSPropertyOp23
 70
     1
102
RTVSPropertyOp24
 70
     1
102
RTVSPropertyOp25
 70
     1
102
RTVSPropertyOp26
 70
     1
102
RTVSPropertyOp27
 70
     1
102
RTVSPropertyOp28
 70
     1
102
RTVSPropertyOp29
 70
     1
102
RTVSPropertyOp30
 70
     1
102
RTVSPropertyOp31
 70
     1
102
RTVSPropertyOp32
 70
     1
  0
XRECORD
  5
99E
102
{ACAD_REACTORS
330
99D
102
}
330
99D
100
AcDbXrecord
280
     1
102
RTVSPropertyOp0
 70
     0
102
RTVSPropertyOp1
 70
     0
102
RTVSPropertyOp2
 70
     0
102
RTVSPropertyOp3
 70
     0
102
RTVSPropertyOp4
 70
     0
102
RTVSPropertyOp5
 70
     0
102
RTVSPropertyOp6
 70
     0
102
RTVSPropertyOp7
 70
     0
102
RTVSPropertyOp8
 70
     0
102
RTVSPropertyOp9
 70
     0
102
RTVSPropertyOp10
 70
     0
102
RTVSPropertyOp11
 70
     0
102
RTVSPropertyOp12
 70
     0
102
RTVSPropertyOp13
 70
     0
102
RTVSPropertyOp14
 70
     2
102
RTVSPropertyOp15
 70
     0
102
RTVSPropertyOp16
 70
     0
102
RTVSPropertyOp17
 70
     0
102
RTVSPropertyOp18
 70
     0
102
RTVSPropertyOp19
 70
     0
102
RTVSPropertyOp20
 70
     0
102
RTVSPropertyOp21
 70
     0
102
RTVSPropertyOp22
 70
     0
102
RTVSPropertyOp23
 70
     0
102
RTVSPropertyOp24
 70
     0
102
RTVSPropertyOp25
 70
     0
102
RTVSPropertyOp26
 70
     0
102
RTVSPropertyOp27
 70
     0
102
RTVSPropertyOp28
 70
     0
102
RTVSPropertyOp29
 70
     0
102
RTVSPropertyOp30
 70
     0
102
RTVSPropertyOp31
 70
     0
102
RTVSPropertyOp32
 70
     0
  0
XRECORD
  5
983
102
{ACAD_REACTORS
330
982
102
}
330
982
100
AcDbXrecord
280
     1
102
RTVSPropertyOp0
 70
     1
102
RTVSPropertyOp1
 70
     1
102
RTVSPropertyOp2
 70
     1
102
RTVSPropertyOp3
 70
     1
102
RTVSPropertyOp4
 70
     1
102
RTVSPropertyOp5
 70
     1
102
RTVSPropertyOp6
 70
     1
102
RTVSPropertyOp7
 70
     1
102
RTVSPropertyOp8
 70
     1
102
RTVSPropertyOp9
 70
     1
102
RTVSPropertyOp10
 70
     1
102
RTVSPropertyOp11
 70
     1
102
RTVSPropertyOp12
 70
     1
102
RTVSPropertyOp13
 70
     1
102
RTVSPropertyOp14
 70
     1
102
RTVSPropertyOp15
 70
     1
102
RTVSPropertyOp16
 70
     1
102
RTVSPropertyOp17
 70
     1
102
RTVSPropertyOp18
 70
     1
102
RTVSPropertyOp19
 70
     1
102
RTVSPropertyOp20
 70
     1
102
RTVSPropertyOp21
 70
     1
102
RTVSPropertyOp22
 70
     1
102
RTVSPropertyOp23
 70
     1
102
RTVSPropertyOp24
 70
     1
102
RTVSPropertyOp25
 70
     1
102
RTVSPropertyOp26
 70
     1
102
RTVSPropertyOp27
 70
     1
102
RTVSPropertyOp28
 70
     1
102
RTVSPropertyOp29
 70
     1
102
RTVSPropertyOp30
 70
     1
102
RTVSPropertyOp31
 70
     1
102
RTVSPropertyOp32
 70
     1
  0
XRECORD
  5
967
102
{ACAD_REACTORS
330
966
102
}
330
966
100
AcDbXrecord
280
     1
102
RTVSPropertyOp0
 70
     1
102
RTVSPropertyOp1
 70
     1
102
RTVSPropertyOp2
 70
     1
102
RTVSPropertyOp3
 70
     1
102
RTVSPropertyOp4
 70
     1
102
RTVSPropertyOp5
 70
     1
102
RTVSPropertyOp6
 70
     1
102
RTVSPropertyOp7
 70
     1
102
RTVSPropertyOp8
 70
     1
102
RTVSPropertyOp9
 70
     1
102
RTVSPropertyOp10
 70
     1
102
RTVSPropertyOp11
 70
     1
102
RTVSPropertyOp12
 70
     1
102
RTVSPropertyOp13
 70
     1
102
RTVSPropertyOp14
 70
     1
102
RTVSPropertyOp15
 70
     1
102
RTVSPropertyOp16
 70
     1
102
RTVSPropertyOp17
 70
     1
102
RTVSPropertyOp18
 70
     1
102
RTVSPropertyOp19
 70
     1
102
RTVSPropertyOp20
 70
     1
102
RTVSPropertyOp21
 70
     1
102
RTVSPropertyOp22
 70
     1
102
RTVSPropertyOp23
 70
     1
102
RTVSPropertyOp24
 70
     1
102
RTVSPropertyOp25
 70
     1
102
RTVSPropertyOp26
 70
     1
102
RTVSPropertyOp27
 70
     1
102
RTVSPropertyOp28
 70
     1
102
RTVSPropertyOp29
 70
     1
102
RTVSPropertyOp30
 70
     1
102
RTVSPropertyOp31
 70
     1
102
RTVSPropertyOp32
 70
     1
  0
XRECORD
  5
969
102
{ACAD_REACTORS
330
968
102
}
330
968
100
AcDbXrecord
280
     1
102
RTVSPropertyOp0
 70
     1
102
RTVSPropertyOp1
 70
     1
102
RTVSPropertyOp2
 70
     1
102
RTVSPropertyOp3
 70
     1
102
RTVSPropertyOp4
 70
     1
102
RTVSPropertyOp5
 70
     1
102
RTVSPropertyOp6
 70
     1
102
RTVSPropertyOp7
 70
     1
102
RTVSPropertyOp8
 70
     1
102
RTVSPropertyOp9
 70
     1
102
RTVSPropertyOp10
 70
     1
102
RTVSPropertyOp11
 70
     1
102
RTVSPropertyOp12
 70
     1
102
RTVSPropertyOp13
 70
     1
102
RTVSPropertyOp14
 70
     1
102
RTVSPropertyOp15
 70
     1
102
RTVSPropertyOp16
 70
     1
102
RTVSPropertyOp17
 70
     1
102
RTVSPropertyOp18
 70
     1
102
RTVSPropertyOp19
 70
     1
102
RTVSPropertyOp20
 70
     1
102
RTVSPropertyOp21
 70
     1
102
RTVSPropertyOp22
 70
     1
102
RTVSPropertyOp23
 70
     1
102
RTVSPropertyOp24
 70
     1
102
RTVSPropertyOp25
 70
     1
102
RTVSPropertyOp26
 70
     1
102
RTVSPropertyOp27
 70
     1
102
RTVSPropertyOp28
 70
     1
102
RTVSPropertyOp29
 70
     1
102
RTVSPropertyOp30
 70
     1
102
RTVSPropertyOp31
 70
     1
102
RTVSPropertyOp32
 70
     1
  0
XRECORD
  5
96B
102
{ACAD_REACTORS
330
96A
102
}
330
96A
100
AcDbXrecord
280
     1
102
RTVSPropertyOp0
 70
     1
102
RTVSPropertyOp1
 70
     1
102
RTVSPropertyOp2
 70
     1
102
RTVSPropertyOp3
 70
     1
102
RTVSPropertyOp4
 70
     1
102
RTVSPropertyOp5
 70
     1
102
RTVSPropertyOp6
 70
     1
102
RTVSPropertyOp7
 70
     1
102
RTVSPropertyOp8
 70
     1
102
RTVSPropertyOp9
 70
     1
102
RTVSPropertyOp10
 70
     1
102
RTVSPropertyOp11
 70
     1
102
RTVSPropertyOp12
 70
     1
102
RTVSPropertyOp13
 70
     1
102
RTVSPropertyOp14
 70
     1
102
RTVSPropertyOp15
 70
     1
102
RTVSPropertyOp16
 70
     1
102
RTVSPropertyOp17
 70
     1
102
RTVSPropertyOp18
 70
     1
102
RTVSPropertyOp19
 70
     1
102
RTVSPropertyOp20
 70
     1
102
RTVSPropertyOp21
 70
     1
102
RTVSPropertyOp22
 70
     1
102
RTVSPropertyOp23
 70
     1
102
RTVSPropertyOp24
 70
     1
102
RTVSPropertyOp25
 70
     1
102
RTVSPropertyOp26
 70
     1
102
RTVSPropertyOp27
 70
     1
102
RTVSPropertyOp28
 70
     1
102
RTVSPropertyOp29
 70
     1
102
RTVSPropertyOp30
 70
     1
102
RTVSPropertyOp31
 70
     1
102
RTVSPropertyOp32
 70
     1
  0
XRECORD
  5
96D
102
{ACAD_REACTORS
330
96C
102
}
330
96C
100
AcDbXrecord
280
     1
102
RTVSPropertyOp0
 70
     1
102
RTVSPropertyOp1
 70
     1
102
RTVSPropertyOp2
 70
     1
102
RTVSPropertyOp3
 70
     1
102
RTVSPropertyOp4
 70
     1
102
RTVSPropertyOp5
 70
     1
102
RTVSPropertyOp6
 70
     1
102
RTVSPropertyOp7
 70
     1
102
RTVSPropertyOp8
 70
     1
102
RTVSPropertyOp9
 70
     1
102
RTVSPropertyOp10
 70
     1
102
RTVSPropertyOp11
 70
     1
102
RTVSPropertyOp12
 70
     1
102
RTVSPropertyOp13
 70
     1
102
RTVSPropertyOp14
 70
     1
102
RTVSPropertyOp15
 70
     1
102
RTVSPropertyOp16
 70
     1
102
RTVSPropertyOp17
 70
     1
102
RTVSPropertyOp18
 70
     1
102
RTVSPropertyOp19
 70
     1
102
RTVSPropertyOp20
 70
     1
102
RTVSPropertyOp21
 70
     1
102
RTVSPropertyOp22
 70
     1
102
RTVSPropertyOp23
 70
     1
102
RTVSPropertyOp24
 70
     1
102
RTVSPropertyOp25
 70
     1
102
RTVSPropertyOp26
 70
     1
102
RTVSPropertyOp27
 70
     1
102
RTVSPropertyOp28
 70
     1
102
RTVSPropertyOp29
 70
     1
102
RTVSPropertyOp30
 70
     1
102
RTVSPropertyOp31
 70
     1
102
RTVSPropertyOp32
 70
     1
  0
XRECORD
  5
98E
102
{ACAD_REACTORS
330
98D
102
}
330
98D
100
AcDbXrecord
280
     1
102
RTVSPropertyOp0
 70
     1
102
RTVSPropertyOp1
 70
     1
102
RTVSPropertyOp2
 70
     1
102
RTVSPropertyOp3
 70
     1
102
RTVSPropertyOp4
 70
     1
102
RTVSPropertyOp5
 70
     1
102
RTVSPropertyOp6
 70
     1
102
RTVSPropertyOp7
 70
     1
102
RTVSPropertyOp8
 70
     1
102
RTVSPropertyOp9
 70
     1
102
RTVSPropertyOp10
 70
     1
102
RTVSPropertyOp11
 70
     1
102
RTVSPropertyOp12
 70
     1
102
RTVSPropertyOp13
 70
     1
102
RTVSPropertyOp14
 70
     1
102
RTVSPropertyOp15
 70
     1
102
RTVSPropertyOp16
 70
     1
102
RTVSPropertyOp17
 70
     1
102
RTVSPropertyOp18
 70
     1
102
RTVSPropertyOp19
 70
     1
102
RTVSPropertyOp20
 70
     1
102
RTVSPropertyOp21
 70
     1
102
RTVSPropertyOp22
 70
     1
102
RTVSPropertyOp23
 70
     1
102
RTVSPropertyOp24
 70
     1
102
RTVSPropertyOp25
 70
     1
102
RTVSPropertyOp26
 70
     1
102
RTVSPropertyOp27
 70
     1
102
RTVSPropertyOp28
 70
     1
102
RTVSPropertyOp29
 70
     1
102
RTVSPropertyOp30
 70
     1
102
RTVSPropertyOp31
 70
     1
102
RTVSPropertyOp32
 70
     1
  0
XRECORD
  5
99A
102
{ACAD_REACTORS
330
999
102
}
330
999
100
AcDbXrecord
280
     1
102
RTVSPropertyOp0
 70
     0
102
RTVSPropertyOp1
 70
     0
102
RTVSPropertyOp2
 70
     0
102
RTVSPropertyOp3
 70
     0
102
RTVSPropertyOp4
 70
     0
102
RTVSPropertyOp5
 70
     0
102
RTVSPropertyOp6
 70
     0
102
RTVSPropertyOp7
 70
     0
102
RTVSPropertyOp8
 70
     0
102
RTVSPropertyOp9
 70
     0
102
RTVSPropertyOp10
 70
     0
102
RTVSPropertyOp11
 70
     0
102
RTVSPropertyOp12
 70
     0
102
RTVSPropertyOp13
 70
     0
102
RTVSPropertyOp14
 70
     2
102
RTVSPropertyOp15
 70
     0
102
RTVSPropertyOp16
 70
     0
102
RTVSPropertyOp17
 70
     0
102
RTVSPropertyOp18
 70
     0
102
RTVSPropertyOp19
 70
     0
102
RTVSPropertyOp20
 70
     0
102
RTVSPropertyOp21
 70
     0
102
RTVSPropertyOp22
 70
     0
102
RTVSPropertyOp23
 70
     0
102
RTVSPropertyOp24
 70
     0
102
RTVSPropertyOp25
 70
     0
102
RTVSPropertyOp26
 70
     0
102
RTVSPropertyOp27
 70
     0
102
RTVSPropertyOp28
 70
     0
102
RTVSPropertyOp29
 70
     0
102
RTVSPropertyOp30
 70
     0
102
RTVSPropertyOp31
 70
     0
102
RTVSPropertyOp32
 70
     0
  0
XRECORD
  5
981
102
{ACAD_REACTORS
330
980
102
}
330
980
100
AcDbXrecord
280
     1
102
RTVSPropertyOp0
 70
     1
102
RTVSPropertyOp1
 70
     1
102
RTVSPropertyOp2
 70
     1
102
RTVSPropertyOp3
 70
     1
102
RTVSPropertyOp4
 70
     1
102
RTVSPropertyOp5
 70
     1
102
RTVSPropertyOp6
 70
     1
102
RTVSPropertyOp7
 70
     1
102
RTVSPropertyOp8
 70
     1
102
RTVSPropertyOp9
 70
     1
102
RTVSPropertyOp10
 70
     1
102
RTVSPropertyOp11
 70
     1
102
RTVSPropertyOp12
 70
     1
102
RTVSPropertyOp13
 70
     1
102
RTVSPropertyOp14
 70
     1
102
RTVSPropertyOp15
 70
     1
102
RTVSPropertyOp16
 70
     1
102
RTVSPropertyOp17
 70
     1
102
RTVSPropertyOp18
 70
     1
102
RTVSPropertyOp19
 70
     1
102
RTVSPropertyOp20
 70
     1
102
RTVSPropertyOp21
 70
     1
102
RTVSPropertyOp22
 70
     1
102
RTVSPropertyOp23
 70
     1
102
RTVSPropertyOp24
 70
     1
102
RTVSPropertyOp25
 70
     1
102
RTVSPropertyOp26
 70
     1
102
RTVSPropertyOp27
 70
     1
102
RTVSPropertyOp28
 70
     1
102
RTVSPropertyOp29
 70
     1
102
RTVSPropertyOp30
 70
     1
102
RTVSPropertyOp31
 70
     1
102
RTVSPropertyOp32
 70
     1
  0
XRECORD
  5
99C
102
{ACAD_REACTORS
330
99B
102
}
330
99B
100
AcDbXrecord
280
     1
102
RTVSPropertyOp0
 70
     0
102
RTVSPropertyOp1
 70
     0
102
RTVSPropertyOp2
 70
     0
102
RTVSPropertyOp3
 70
     0
102
RTVSPropertyOp4
 70
     0
102
RTVSPropertyOp5
 70
     0
102
RTVSPropertyOp6
 70
     0
102
RTVSPropertyOp7
 70
     0
102
RTVSPropertyOp8
 70
     0
102
RTVSPropertyOp9
 70
     0
102
RTVSPropertyOp10
 70
     0
102
RTVSPropertyOp11
 70
     0
102
RTVSPropertyOp12
 70
     0
102
RTVSPropertyOp13
 70
     0
102
RTVSPropertyOp14
 70
     2
102
RTVSPropertyOp15
 70
     0
102
RTVSPropertyOp16
 70
     0
102
RTVSPropertyOp17
 70
     0
102
RTVSPropertyOp18
 70
     0
102
RTVSPropertyOp19
 70
     0
102
RTVSPropertyOp20
 70
     0
102
RTVSPropertyOp21
 70
     0
102
RTVSPropertyOp22
 70
     0
102
RTVSPropertyOp23
 70
     0
102
RTVSPropertyOp24
 70
     0
102
RTVSPropertyOp25
 70
     0
102
RTVSPropertyOp26
 70
     0
102
RTVSPropertyOp27
 70
     0
102
RTVSPropertyOp28
 70
     0
102
RTVSPropertyOp29
 70
     0
102
RTVSPropertyOp30
 70
     0
102
RTVSPropertyOp31
 70
     0
102
RTVSPropertyOp32
 70
     0
  0
XRECORD
  5
979
102
{ACAD_REACTORS
330
978
102
}
330
978
100
AcDbXrecord
280
     1
102
RTVSPropertyOp0
 70
     1
102
RTVSPropertyOp1
 70
     1
102
RTVSPropertyOp2
 70
     1
102
RTVSPropertyOp3
 70
     1
102
RTVSPropertyOp4
 70
     1
102
RTVSPropertyOp5
 70
     1
102
RTVSPropertyOp6
 70
     1
102
RTVSPropertyOp7
 70
     1
102
RTVSPropertyOp8
 70
     1
102
RTVSPropertyOp9
 70
     1
102
RTVSPropertyOp10
 70
     1
102
RTVSPropertyOp11
 70
     1
102
RTVSPropertyOp12
 70
     1
102
RTVSPropertyOp13
 70
     1
102
RTVSPropertyOp14
 70
     1
102
RTVSPropertyOp15
 70
     1
102
RTVSPropertyOp16
 70
     1
102
RTVSPropertyOp17
 70
     1
102
RTVSPropertyOp18
 70
     1
102
RTVSPropertyOp19
 70
     1
102
RTVSPropertyOp20
 70
     1
102
RTVSPropertyOp21
 70
     1
102
RTVSPropertyOp22
 70
     1
102
RTVSPropertyOp23
 70
     1
102
RTVSPropertyOp24
 70
     1
102
RTVSPropertyOp25
 70
     1
102
RTVSPropertyOp26
 70
     1
102
RTVSPropertyOp27
 70
     1
102
RTVSPropertyOp28
 70
     1
102
RTVSPropertyOp29
 70
     1
102
RTVSPropertyOp30
 70
     1
102
RTVSPropertyOp31
 70
     1
102
RTVSPropertyOp32
 70
     1
  0
XRECORD
  5
998
102
{ACAD_REACTORS
330
997
102
}
330
997
100
AcDbXrecord
280
     1
102
RTVSPropertyOp0
 70
     1
102
RTVSPropertyOp1
 70
     1
102
RTVSPropertyOp2
 70
     1
102
RTVSPropertyOp3
 70
     1
102
RTVSPropertyOp4
 70
     1
102
RTVSPropertyOp5
 70
     1
102
RTVSPropertyOp6
 70
     1
102
RTVSPropertyOp7
 70
     1
102
RTVSPropertyOp8
 70
     1
102
RTVSPropertyOp9
 70
     1
102
RTVSPropertyOp10
 70
     1
102
RTVSPropertyOp11
 70
     1
102
RTVSPropertyOp12
 70
     1
102
RTVSPropertyOp13
 70
     1
102
RTVSPropertyOp14
 70
     1
102
RTVSPropertyOp15
 70
     1
102
RTVSPropertyOp16
 70
     1
102
RTVSPropertyOp17
 70
     1
102
RTVSPropertyOp18
 70
     1
102
RTVSPropertyOp19
 70
     1
102
RTVSPropertyOp20
 70
     1
102
RTVSPropertyOp21
 70
     1
102
RTVSPropertyOp22
 70
     1
102
RTVSPropertyOp23
 70
     1
102
RTVSPropertyOp24
 70
     1
102
RTVSPropertyOp25
 70
     1
102
RTVSPropertyOp26
 70
     1
102
RTVSPropertyOp27
 70
     1
102
RTVSPropertyOp28
 70
     1
102
RTVSPropertyOp29
 70
     1
102
RTVSPropertyOp30
 70
     1
102
RTVSPropertyOp31
 70
     1
102
RTVSPropertyOp32
 70
     1
  0
XRECORD
  5
996
102
{ACAD_REACTORS
330
995
102
}
330
995
100
AcDbXrecord
280
     1
102
RTVSPropertyOp0
 70
     1
102
RTVSPropertyOp1
 70
     1
102
RTVSPropertyOp2
 70
     1
102
RTVSPropertyOp3
 70
     1
102
RTVSPropertyOp4
 70
     1
102
RTVSPropertyOp5
 70
     1
102
RTVSPropertyOp6
 70
     1
102
RTVSPropertyOp7
 70
     1
102
RTVSPropertyOp8
 70
     1
102
RTVSPropertyOp9
 70
     1
102
RTVSPropertyOp10
 70
     1
102
RTVSPropertyOp11
 70
     1
102
RTVSPropertyOp12
 70
     1
102
RTVSPropertyOp13
 70
     1
102
RTVSPropertyOp14
 70
     1
102
RTVSPropertyOp15
 70
     1
102
RTVSPropertyOp16
 70
     1
102
RTVSPropertyOp17
 70
     1
102
RTVSPropertyOp18
 70
     1
102
RTVSPropertyOp19
 70
     1
102
RTVSPropertyOp20
 70
     1
102
RTVSPropertyOp21
 70
     1
102
RTVSPropertyOp22
 70
     1
102
RTVSPropertyOp23
 70
     1
102
RTVSPropertyOp24
 70
     1
102
RTVSPropertyOp25
 70
     1
102
RTVSPropertyOp26
 70
     1
102
RTVSPropertyOp27
 70
     1
102
RTVSPropertyOp28
 70
     1
102
RTVSPropertyOp29
 70
     1
102
RTVSPropertyOp30
 70
     1
102
RTVSPropertyOp31
 70
     1
102
RTVSPropertyOp32
 70
     1
  0
XRECORD
  5
990
102
{ACAD_REACTORS
330
98F
102
}
330
98F
100
AcDbXrecord
280
     1
102
RTVSPropertyOp0
 70
     1
102
RTVSPropertyOp1
 70
     1
102
RTVSPropertyOp2
 70
     1
102
RTVSPropertyOp3
 70
     1
102
RTVSPropertyOp4
 70
     1
102
RTVSPropertyOp5
 70
     1
102
RTVSPropertyOp6
 70
     1
102
RTVSPropertyOp7
 70
     1
102
RTVSPropertyOp8
 70
     1
102
RTVSPropertyOp9
 70
     1
102
RTVSPropertyOp10
 70
     1
102
RTVSPropertyOp11
 70
     1
102
RTVSPropertyOp12
 70
     1
102
RTVSPropertyOp13
 70
     1
102
RTVSPropertyOp14
 70
     1
102
RTVSPropertyOp15
 70
     1
102
RTVSPropertyOp16
 70
     1
102
RTVSPropertyOp17
 70
     1
102
RTVSPropertyOp18
 70
     1
102
RTVSPropertyOp19
 70
     1
102
RTVSPropertyOp20
 70
     1
102
RTVSPropertyOp21
 70
     1
102
RTVSPropertyOp22
 70
     1
102
RTVSPropertyOp23
 70
     1
102
RTVSPropertyOp24
 70
     1
102
RTVSPropertyOp25
 70
     1
102
RTVSPropertyOp26
 70
     1
102
RTVSPropertyOp27
 70
     1
102
RTVSPropertyOp28
 70
     1
102
RTVSPropertyOp29
 70
     1
102
RTVSPropertyOp30
 70
     1
102
RTVSPropertyOp31
 70
     1
102
RTVSPropertyOp32
 70
     1
  0
XRECORD
  5
992
102
{ACAD_REACTORS
330
991
102
}
330
991
100
AcDbXrecord
280
     1
102
RTVSPropertyOp0
 70
     1
102
RTVSPropertyOp1
 70
     1
102
RTVSPropertyOp2
 70
     1
102
RTVSPropertyOp3
 70
     1
102
RTVSPropertyOp4
 70
     1
102
RTVSPropertyOp5
 70
     1
102
RTVSPropertyOp6
 70
     1
102
RTVSPropertyOp7
 70
     1
102
RTVSPropertyOp8
 70
     1
102
RTVSPropertyOp9
 70
     1
102
RTVSPropertyOp10
 70
     1
102
RTVSPropertyOp11
 70
     1
102
RTVSPropertyOp12
 70
     1
102
RTVSPropertyOp13
 70
     1
102
RTVSPropertyOp14
 70
     1
102
RTVSPropertyOp15
 70
     1
102
RTVSPropertyOp16
 70
     1
102
RTVSPropertyOp17
 70
     1
102
RTVSPropertyOp18
 70
     1
102
RTVSPropertyOp19
 70
     1
102
RTVSPropertyOp20
 70
     1
102
RTVSPropertyOp21
 70
     1
102
RTVSPropertyOp22
 70
     1
102
RTVSPropertyOp23
 70
     1
102
RTVSPropertyOp24
 70
     1
102
RTVSPropertyOp25
 70
     1
102
RTVSPropertyOp26
 70
     1
102
RTVSPropertyOp27
 70
     1
102
RTVSPropertyOp28
 70
     1
102
RTVSPropertyOp29
 70
     1
102
RTVSPropertyOp30
 70
     1
102
RTVSPropertyOp31
 70
     1
102
RTVSPropertyOp32
 70
     1
  0
XRECORD
  5
97F
102
{ACAD_REACTORS
330
97E
102
}
330
97E
100
AcDbXrecord
280
     1
102
RTVSPropertyOp0
 70
     1
102
RTVSPropertyOp1
 70
     1
102
RTVSPropertyOp2
 70
     1
102
RTVSPropertyOp3
 70
     1
102
RTVSPropertyOp4
 70
     1
102
RTVSPropertyOp5
 70
     1
102
RTVSPropertyOp6
 70
     1
102
RTVSPropertyOp7
 70
     1
102
RTVSPropertyOp8
 70
     1
102
RTVSPropertyOp9
 70
     1
102
RTVSPropertyOp10
 70
     1
102
RTVSPropertyOp11
 70
     1
102
RTVSPropertyOp12
 70
     1
102
RTVSPropertyOp13
 70
     1
102
RTVSPropertyOp14
 70
     1
102
RTVSPropertyOp15
 70
     1
102
RTVSPropertyOp16
 70
     1
102
RTVSPropertyOp17
 70
     1
102
RTVSPropertyOp18
 70
     1
102
RTVSPropertyOp19
 70
     1
102
RTVSPropertyOp20
 70
     1
102
RTVSPropertyOp21
 70
     1
102
RTVSPropertyOp22
 70
     1
102
RTVSPropertyOp23
 70
     1
102
RTVSPropertyOp24
 70
     1
102
RTVSPropertyOp25
 70
     1
102
RTVSPropertyOp26
 70
     1
102
RTVSPropertyOp27
 70
     1
102
RTVSPropertyOp28
 70
     1
102
RTVSPropertyOp29
 70
     1
102
RTVSPropertyOp30
 70
     1
102
RTVSPropertyOp31
 70
     1
102
RTVSPropertyOp32
 70
     1
  0
XRECORD
  5
98C
102
{ACAD_REACTORS
330
98B
102
}
330
98B
100
AcDbXrecord
280
     1
102
RTVSPropertyOp0
 70
     1
102
RTVSPropertyOp1
 70
     1
102
RTVSPropertyOp2
 70
     1
102
RTVSPropertyOp3
 70
     1
102
RTVSPropertyOp4
 70
     1
102
RTVSPropertyOp5
 70
     1
102
RTVSPropertyOp6
 70
     1
102
RTVSPropertyOp7
 70
     1
102
RTVSPropertyOp8
 70
     1
102
RTVSPropertyOp9
 70
     1
102
RTVSPropertyOp10
 70
     1
102
RTVSPropertyOp11
 70
     1
102
RTVSPropertyOp12
 70
     1
102
RTVSPropertyOp13
 70
     1
102
RTVSPropertyOp14
 70
     1
102
RTVSPropertyOp15
 70
     1
102
RTVSPropertyOp16
 70
     1
102
RTVSPropertyOp17
 70
     1
102
RTVSPropertyOp18
 70
     1
102
RTVSPropertyOp19
 70
     1
102
RTVSPropertyOp20
 70
     1
102
RTVSPropertyOp21
 70
     1
102
RTVSPropertyOp22
 70
     1
102
RTVSPropertyOp23
 70
     1
102
RTVSPropertyOp24
 70
     1
102
RTVSPropertyOp25
 70
     1
102
RTVSPropertyOp26
 70
     1
102
RTVSPropertyOp27
 70
     1
102
RTVSPropertyOp28
 70
     1
102
RTVSPropertyOp29
 70
     1
102
RTVSPropertyOp30
 70
     1
102
RTVSPropertyOp31
 70
     1
102
RTVSPropertyOp32
 70
     1
  0
XRECORD
  5
994
102
{ACAD_REACTORS
330
993
102
}
330
993
100
AcDbXrecord
280
     1
102
RTVSPropertyOp0
 70
     1
102
RTVSPropertyOp1
 70
     1
102
RTVSPropertyOp2
 70
     1
102
RTVSPropertyOp3
 70
     1
102
RTVSPropertyOp4
 70
     1
102
RTVSPropertyOp5
 70
     1
102
RTVSPropertyOp6
 70
     1
102
RTVSPropertyOp7
 70
     1
102
RTVSPropertyOp8
 70
     1
102
RTVSPropertyOp9
 70
     1
102
RTVSPropertyOp10
 70
     1
102
RTVSPropertyOp11
 70
     1
102
RTVSPropertyOp12
 70
     1
102
RTVSPropertyOp13
 70
     1
102
RTVSPropertyOp14
 70
     1
102
RTVSPropertyOp15
 70
     1
102
RTVSPropertyOp16
 70
     1
102
RTVSPropertyOp17
 70
     1
102
RTVSPropertyOp18
 70
     1
102
RTVSPropertyOp19
 70
     1
102
RTVSPropertyOp20
 70
     1
102
RTVSPropertyOp21
 70
     1
102
RTVSPropertyOp22
 70
     1
102
RTVSPropertyOp23
 70
     1
102
RTVSPropertyOp24
 70
     1
102
RTVSPropertyOp25
 70
     1
102
RTVSPropertyOp26
 70
     1
102
RTVSPropertyOp27
 70
     1
102
RTVSPropertyOp28
 70
     1
102
RTVSPropertyOp29
 70
     1
102
RTVSPropertyOp30
 70
     1
102
RTVSPropertyOp31
 70
     1
102
RTVSPropertyOp32
 70
     1
  0
ENDSEC
  0
EOF
