  0
SECTION
  2
HEADER
  9
$ACADVER
  1
AC1015
  9
$ACADMAINTVER
 70
    20
  9
$DWGCODEPAGE
  3
ANSI_932
  9
$INSBASE
 10
0.0
 20
0.0
 30
0.0
  9
$EXTMIN
 10
-1792.052205
 20
-742.169793
 30
0.0
  9
$EXTMAX
 10
1184.880284
 20
2034.55967022591
 30
0.0
  9
$LIMMIN
 10
-4200.0
 20
-2970.0
  9
$LIMMAX
 10
4200.0
 20
2970.0
  9
$ORTHOMODE
 70
     0
  9
$REGENMODE
 70
     1
  9
$FILLMODE
 70
     1
  9
$QTEXTMODE
 70
     0
  9
$MIRRTEXT
 70
     0
  9
$LTSCALE
 40
20.0
  9
$ATTMODE
 70
     1
  9
$TEXTSIZE
 40
64.0
  9
$TRACEWID
 40
0.05
  9
$TEXTSTYLE
  7
STANDARD
  9
$CLAYER
  8
SIZE
  9
$CELTYPE
  6
CONTINUOUS
  9
$CECOLOR
 62
     7
  9
$CELTSCALE
 40
1.0
  9
$DISPSILH
 70
     0
  9
$DIMSCALE
 40
1.0
  9
$DIMASZ
 40
10.0
  9
$DIMEXO
 40
20.0
  9
$DIMDLI
 40
200.0
  9
$DIMRND
 40
0.0
  9
$DIMDLE
 40
0.0
  9
$DIMEXE
 40
30.0
  9
$DIMTP
 40
0.0
  9
$DIMTM
 40
0.0
  9
$DIMTXT
 40
64.0
  9
$DIMCEN
 40
0.0
  9
$DIMTSZ
 40
0.0
  9
$DIMTOL
 70
     0
  9
$DIMLIM
 70
     0
  9
$DIMTIH
 70
     0
  9
$DIMTOH
 70
     0
  9
$DIMSE1
 70
     0
  9
$DIMSE2
 70
     0
  9
$DIMTAD
 70
     1
  9
$DIMZIN
 70
     8
  9
$DIMBLK
  1
DOTBLANK
  9
$DIMASO
 70
     1
  9
$DIMSHO
 70
     0
  9
$DIMPOST
  1

  9
$DIMAPOST
  1

  9
$DIMALT
 70
     0
  9
$DIMALTD
 70
     2
  9
$DIMALTF
 40
25.4
  9
$DIMLFAC
 40
1.0
  9
$DIMTOFL
 70
     1
  9
$DIMTVP
 40
0.0
  9
$DIMTIX
 70
     1
  9
$DIMSOXD
 70
     0
  9
$DIMSAH
 70
     0
  9
$DIMBLK1
  1

  9
$DIMBLK2
  1

  9
$DIMSTYLE
  2
STANDARD
  9
$DIMCLRD
 70
     0
  9
$DIMCLRE
 70
     0
  9
$DIMCLRT
 70
     0
  9
$DIMTFAC
 40
1.0
  9
$DIMGAP
 40
0.09
  9
$DIMJUST
 70
     0
  9
$DIMSD1
 70
     0
  9
$DIMSD2
 70
     0
  9
$DIMTOLJ
 70
     1
  9
$DIMTZIN
 70
     0
  9
$DIMALTZ
 70
     0
  9
$DIMALTTZ
 70
     0
  9
$DIMUPT
 70
     0
  9
$DIMDEC
 70
     4
  9
$DIMTDEC
 70
     4
  9
$DIMALTU
 70
     2
  9
$DIMALTTD
 70
     2
  9
$DIMTXSTY
  7
STANDARD
  9
$DIMAUNIT
 70
     0
  9
$DIMADEC
 70
     0
  9
$DIMALTRND
 40
0.0
  9
$DIMAZIN
 70
     0
  9
$DIMDSEP
 70
    46
  9
$DIMATFIT
 70
     3
  9
$DIMFRAC
 70
     0
  9
$DIMLDRBLK
  1
DOTBLANK
  9
$DIMLUNIT
 70
     2
  9
$DIMLWD
 70
    -2
  9
$DIMLWE
 70
    -2
  9
$DIMTMOVE
 70
     0
  9
$LUNITS
 70
     2
  9
$LUPREC
 70
     4
  9
$SKETCHINC
 40
0.1
  9
$FILLETRAD
 40
0.0
  9
$AUNITS
 70
     1
  9
$AUPREC
 70
     3
  9
$MENU
  1
ACAD
  9
$ELEVATION
 40
0.0
  9
$PELEVATION
 40
0.0
  9
$THICKNESS
 40
0.0
  9
$LIMCHECK
 70
     0
  9
$CHAMFERA
 40
0.0
  9
$CHAMFERB
 40
0.0
  9
$CHAMFERC
 40
0.0
  9
$CHAMFERD
 40
0.0
  9
$SKPOLY
 70
     0
  9
$TDCREATE
 40
2449761.535289665
  9
$TDUCREATE
 40
2449761.160289664
  9
$TDUPDATE
 40
2458150.740884178
  9
$TDUUPDATE
 40
2458150.365884179
  9
$TDINDWG
 40
3.8745347685
  9
$TDUSRTIMER
 40
3.8745346412
  9
$USRTIMER
 70
     1
  9
$ANGBASE
 50
0.0
  9
$ANGDIR
 70
     0
  9
$PDMODE
 70
    35
  9
$PDSIZE
 40
100.0
  9
$PLINEWID
 40
0.0
  9
$SPLFRAME
 70
     0
  9
$SPLINETYPE
 70
     6
  9
$SPLINESEGS
 70
     8
  9
$HANDSEED
  5
1010
  9
$SURFTAB1
 70
     6
  9
$SURFTAB2
 70
     6
  9
$SURFTYPE
 70
     6
  9
$SURFU
 70
     6
  9
$SURFV
 70
     6
  9
$UCSBASE
  2

  9
$UCSNAME
  2

  9
$UCSORG
 10
0.0
 20
0.0
 30
0.0
  9
$UCSXDIR
 10
1.0
 20
0.0
 30
0.0
  9
$UCSYDIR
 10
0.0
 20
1.0
 30
0.0
  9
$UCSORTHOREF
  2

  9
$UCSORTHOVIEW
 70
     0
  9
$UCSORGTOP
 10
0.0
 20
0.0
 30
0.0
  9
$UCSORGBOTTOM
 10
0.0
 20
0.0
 30
0.0
  9
$UCSORGLEFT
 10
0.0
 20
0.0
 30
0.0
  9
$UCSORGRIGHT
 10
0.0
 20
0.0
 30
0.0
  9
$UCSORGFRONT
 10
0.0
 20
0.0
 30
0.0
  9
$UCSORGBACK
 10
0.0
 20
0.0
 30
0.0
  9
$PUCSBASE
  2

  9
$PUCSNAME
  2

  9
$PUCSORG
 10
0.0
 20
0.0
 30
0.0
  9
$PUCSXDIR
 10
1.0
 20
0.0
 30
0.0
  9
$PUCSYDIR
 10
0.0
 20
1.0
 30
0.0
  9
$PUCSORTHOREF
  2

  9
$PUCSORTHOVIEW
 70
     0
  9
$PUCSORGTOP
 10
0.0
 20
0.0
 30
0.0
  9
$PUCSORGBOTTOM
 10
0.0
 20
0.0
 30
0.0
  9
$PUCSORGLEFT
 10
0.0
 20
0.0
 30
0.0
  9
$PUCSORGRIGHT
 10
0.0
 20
0.0
 30
0.0
  9
$PUCSORGFRONT
 10
0.0
 20
0.0
 30
0.0
  9
$PUCSORGBACK
 10
0.0
 20
0.0
 30
0.0
  9
$USERI1
 70
     0
  9
$USERI2
 70
     0
  9
$USERI3
 70
     0
  9
$USERI4
 70
     0
  9
$USERI5
 70
     0
  9
$USERR1
 40
20.0
  9
$USERR2
 40
0.0
  9
$USERR3
 40
0.0
  9
$USERR4
 40
0.0
  9
$USERR5
 40
0.0
  9
$WORLDVIEW
 70
     1
  9
$SHADEDGE
 70
     3
  9
$SHADEDIF
 70
    70
  9
$TILEMODE
 70
     1
  9
$MAXACTVP
 70
    48
  9
$PINSBASE
 10
0.0
 20
0.0
 30
0.0
  9
$PLIMCHECK
 70
     0
  9
$PEXTMIN
 10
1.000000000000000E+20
 20
1.000000000000000E+20
 30
1.000000000000000E+20
  9
$PEXTMAX
 10
-1.000000000000000E+20
 20
-1.000000000000000E+20
 30
-1.000000000000000E+20
  9
$PLIMMIN
 10
0.0
 20
0.0
  9
$PLIMMAX
 10
12.0
 20
9.0
  9
$UNITMODE
 70
     0
  9
$VISRETAIN
 70
     1
  9
$PLINEGEN
 70
     0
  9
$PSLTSCALE
 70
     1
  9
$TREEDEPTH
 70
  3020
  9
$CMLSTYLE
  2
Standard
  9
$CMLJUST
 70
     0
  9
$CMLSCALE
 40
1.0
  9
$PROXYGRAPHICS
 70
     1
  9
$MEASUREMENT
 70
     0
  9
$CELWEIGHT
370
    -1
  9
$ENDCAPS
280
     0
  9
$JOINSTYLE
280
     0
  9
$LWDISPLAY
290
     0
  9
$INSUNITS
 70
     0
  9
$HYPERLINKBASE
  1

  9
$STYLESHEET
  1

  9
$XEDIT
290
     1
  9
$CEPSNTYPE
380
     0
  9
$PSTYLEMODE
290
     1
  9
$FINGERPRINTGUID
  2
{6060FB92-56A2-45D2-95C0-4E3B028390CF}
  9
$VERSIONGUID
  2
{F764069F-56C1-462A-A87A-85BE48AA73AD}
  9
$EXTNAMES
290
     1
  9
$PSVPSCALE
 40
0.0
  9
$OLESTARTUP
290
     0
  0
ENDSEC
  0
SECTION
  2
CLASSES
  0
CLASS
  1
ACDBDICTIONARYWDFLT
  2
AcDbDictionaryWithDefault
  3
ObjectDBX Classes
 90
        0
280
     0
281
     0
  0
CLASS
  1
MATERIAL
  2
AcDbMaterial
  3
ObjectDBX Classes
 90
     1153
280
     0
281
     0
  0
CLASS
  1
VISUALSTYLE
  2
AcDbVisualStyle
  3
ObjectDBX Classes
 90
     4095
280
     0
281
     0
  0
CLASS
  1
SCALE
  2
AcDbScale
  3
ObjectDBX Classes
 90
     1153
280
     0
281
     0
  0
CLASS
  1
TABLESTYLE
  2
AcDbTableStyle
  3
ObjectDBX Classes
 90
     4095
280
     0
281
     0
  0
CLASS
  1
MLEADERSTYLE
  2
AcDbMLeaderStyle
  3
ACDB_MLEADERSTYLE_CLASS
 90
     4095
280
     0
281
     0
  0
CLASS
  1
DICTIONARYVAR
  2
AcDbDictionaryVar
  3
ObjectDBX Classes
 90
        0
280
     0
281
     0
  0
CLASS
  1
CELLSTYLEMAP
  2
AcDbCellStyleMap
  3
ObjectDBX Classes
 90
     1152
280
     0
281
     0
  0
CLASS
  1
ACDBPLACEHOLDER
  2
AcDbPlaceHolder
  3
ObjectDBX Classes
 90
        0
280
     0
281
     0
  0
CLASS
  1
LAYOUT
  2
AcDbLayout
  3
ObjectDBX Classes
 90
        0
280
     0
281
     0
  0
ENDSEC
  0
SECTION
  2
TABLES
  0
TABLE
  2
VPORT
  5
EBC
330
0
100
AcDbSymbolTable
 70
     1
  0
VPORT
  5
F2D
330
EBC
100
AcDbSymbolTableRecord
100
AcDbViewportTableRecord
  2
*ACTIVE
 70
     0
 10
0.0
 20
0.0
 11
1.0
 21
1.0
 12
-551.3572361049901
 22
-380.6054885412573
 13
0.0
 23
0.0
 14
50.0
 24
50.0
 15
100.0
 25
100.0
 16
0.0
 26
0.0
 36
1.0
 17
0.0
 27
0.0
 37
0.0
 40
5603.938938889226
 41
1.127659574468085
 42
50.0
 43
0.0
 44
0.0
 50
0.0
 51
0.0
 71
     0
 72
  1000
 73
     1
 74
     0
 75
     0
 76
     0
 77
     0
 78
     0
281
     0
 65
     1
110
0.0
120
0.0
130
0.0
111
1.0
121
0.0
131
0.0
112
0.0
122
1.0
132
0.0
 79
     0
146
0.0
1001
ACAD_NAV_VCDISPLAY
1070
     3
  0
ENDTAB
  0
TABLE
  2
LTYPE
  5
EB9
330
0
100
AcDbSymbolTable
 70
     2
  0
LTYPE
  5
F16
330
EB9
100
AcDbSymbolTableRecord
100
AcDbLinetypeTableRecord
  2
ByBlock
 70
     0
  3

 72
    65
 73
     0
 40
0.0
  0
LTYPE
  5
F17
330
EB9
100
AcDbSymbolTableRecord
100
AcDbLinetypeTableRecord
  2
ByLayer
 70
     0
  3

 72
    65
 73
     0
 40
0.0
  0
LTYPE
  5
F18
330
EB9
100
AcDbSymbolTableRecord
100
AcDbLinetypeTableRecord
  2
CONTINUOUS
 70
     0
  3
実線
 72
    65
 73
     0
 40
0.0
  0
LTYPE
  5
F2E
330
EB9
100
AcDbSymbolTableRecord
100
AcDbLinetypeTableRecord
  2
DASHDOT
 70
     0
  3
____ _ ____ _ ____ _ ____ _ ____ _ ____ _ ____
 72
    65
 73
     4
 40
5.5
 49
4.0
 74
     0
 49
-0.6
 74
     0
 49
0.3
 74
     0
 49
-0.6
 74
     0
  0
ENDTAB
  0
TABLE
  2
LAYER
  5
EB6
330
0
100
AcDbSymbolTable
 70
    12
  0
LAYER
  5
F10
102
{ACAD_XDICTIONARY
360
F49
102
}
330
EB6
100
AcDbSymbolTableRecord
100
AcDbLayerTableRecord
  2
0
 70
     0
 62
     7
  6
CONTINUOUS
370
    -3
390
EC3
  0
LAYER
  5
F2C
102
{ACAD_XDICTIONARY
360
F4B
102
}
330
EB6
100
AcDbSymbolTableRecord
100
AcDbLayerTableRecord
  2
SIZE
 70
     0
 62
    30
  6
CONTINUOUS
370
    -3
390
EC3
  0
LAYER
  5
F2F
102
{ACAD_XDICTIONARY
360
F4D
102
}
330
EB6
100
AcDbSymbolTableRecord
100
AcDbLayerTableRecord
  2
OUTLINE
 70
     0
 62
     3
  6
CONTINUOUS
370
    -3
390
EC3
  0
LAYER
  5
F30
102
{ACAD_XDICTIONARY
360
F4F
102
}
330
EB6
100
AcDbSymbolTableRecord
100
AcDbLayerTableRecord
  2
DETAIL
 70
     0
 62
     5
  6
CONTINUOUS
370
    -3
390
EC3
  0
LAYER
  5
F31
102
{ACAD_XDICTIONARY
360
F51
102
}
330
EB6
100
AcDbSymbolTableRecord
100
AcDbLayerTableRecord
  2
BASIS
 70
     0
 62
     6
  6
DASHDOT
370
    -3
390
EC3
  0
LAYER
  5
F32
102
{ACAD_XDICTIONARY
360
F53
102
}
330
EB6
100
AcDbSymbolTableRecord
100
AcDbLayerTableRecord
  2
NOTE
 70
     0
 62
     4
  6
CONTINUOUS
370
    -3
390
EC3
  0
LAYER
  5
F33
102
{ACAD_XDICTIONARY
360
F55
102
}
330
EB6
100
AcDbSymbolTableRecord
100
AcDbLayerTableRecord
  2
ARRANGE
 70
     0
 62
     1
  6
CONTINUOUS
370
    -3
390
EC3
  0
LAYER
  5
F34
102
{ACAD_XDICTIONARY
360
F57
102
}
330
EB6
100
AcDbSymbolTableRecord
100
AcDbLayerTableRecord
  2
FIX
 70
     0
 62
    11
  6
CONTINUOUS
370
    -3
390
EC3
  0
LAYER
  5
F35
102
{ACAD_XDICTIONARY
360
F59
102
}
330
EB6
100
AcDbSymbolTableRecord
100
AcDbLayerTableRecord
  2
SERVICESPACE
 70
     0
 62
     2
  6
DASHDOT
370
    -3
390
EC3
  0
LAYER
  5
F36
102
{ACAD_XDICTIONARY
360
F5B
102
}
330
EB6
100
AcDbSymbolTableRecord
100
AcDbLayerTableRecord
  2
ETC
 70
     0
 62
    61
  6
CONTINUOUS
370
    -3
390
EC3
  0
LAYER
  5
F37
102
{ACAD_XDICTIONARY
360
F5D
102
}
330
EB6
100
AcDbSymbolTableRecord
100
AcDbLayerTableRecord
  2
SYMBOLLINE
 70
     0
 62
    15
  6
CONTINUOUS
370
    -3
390
EC3
  0
LAYER
  5
F38
330
EB6
100
AcDbSymbolTableRecord
100
AcDbLayerTableRecord
  2
DEFPOINTS
 70
     0
 62
     7
  6
CONTINUOUS
290
     0
370
    -3
390
EC3
  0
ENDTAB
  0
TABLE
  2
STYLE
  5
EB7
330
0
100
AcDbSymbolTable
 70
     4
  0
STYLE
  5
F11
330
EB7
100
AcDbSymbolTableRecord
100
AcDbTextStyleTableRecord
  2
STANDARD
 70
     0
 40
0.0
 41
0.9
 50
0.0
 71
     0
 42
64.0
  3
SIMPLEX
  4
BIGFONT
  0
STYLE
  5
F15
330
EB7
100
AcDbSymbolTableRecord
100
AcDbTextStyleTableRecord
  2
Annotative
 70
     0
 40
0.0
 41
1.0
 50
0.0
 71
     0
 42
0.2
  3
txt
  4

1001
AcadAnnotative
1000
AnnotativeData
1002
{
1070
     1
1070
     1
1002
}
  0
STYLE
  5
F39
330
EB7
100
AcDbSymbolTableRecord
100
AcDbTextStyleTableRecord
  2
STANDARD1
 70
     0
 40
0.0
 41
1.0
 50
0.0
 71
     0
 42
3.5
  3
MONOTXT
  4
BIGFONT
  0
STYLE
  5
FC8
330
EB7
100
AcDbSymbolTableRecord
100
AcDbTextStyleTableRecord
  2
KAIGAI_STANDARD_1
 70
     0
 40
53.0
 41
0.51
 50
0.0
 71
     0
 42
53.0
  3
MONOTXT.shx
  4
BIGFONT.shx
  0
ENDTAB
  0
TABLE
  2
VIEW
  5
EBA
330
0
100
AcDbSymbolTable
 70
     1
  0
VIEW
  5
F3A
330
EBA
100
AcDbSymbolTableRecord
100
AcDbViewTableRecord
  2
ALL
 70
     0
 40
6056.230032000001
 10
0.0
 20
58.115016
 41
8400.0
 11
0.0
 21
0.0
 31
1.0
 12
0.0
 22
0.0
 32
0.0
 42
50.0
 43
0.0
 44
0.0
 50
0.0
 71
     0
281
     0
 72
     1
110
0.0
120
0.0
130
0.0
111
1.0
121
0.0
131
0.0
112
0.0
122
1.0
132
0.0
 79
     0
146
0.0
  0
ENDTAB
  0
TABLE
  2
UCS
  5
EBB
330
0
100
AcDbSymbolTable
 70
     0
  0
ENDTAB
  0
TABLE
  2
APPID
  5
EBD
330
0
100
AcDbSymbolTable
 70
     5
  0
APPID
  5
F12
330
EBD
100
AcDbSymbolTableRecord
100
AcDbRegAppTableRecord
  2
ACAD
 70
     0
  0
APPID
  5
F19
330
EBD
100
AcDbSymbolTableRecord
100
AcDbRegAppTableRecord
  2
AcadAnnotative
 70
     0
  0
APPID
  5
F23
330
EBD
100
AcDbSymbolTableRecord
100
AcDbRegAppTableRecord
  2
ACAD_MLEADERVER
 70
     0
  0
APPID
  5
F47
330
EBD
100
AcDbSymbolTableRecord
100
AcDbRegAppTableRecord
  2
ACAD_EXEMPT_FROM_CAD_STANDARDS
 70
     0
  0
APPID
  5
F84
330
EBD
100
AcDbSymbolTableRecord
100
AcDbRegAppTableRecord
  2
ACAD_NAV_VCDISPLAY
 70
     0
  0
ENDTAB
  0
TABLE
  2
DIMSTYLE
  5
EBE
330
0
100
AcDbSymbolTable
 70
     2
100
AcDbDimStyleTable
 71
     0
  0
DIMSTYLE
105
F13
330
EBE
100
AcDbSymbolTableRecord
100
AcDbDimStyleTableRecord
  2
STANDARD
 70
     0
275
     1
279
     2
284
     8
285
     8
286
     8
340
F11
  0
DIMSTYLE
105
F14
330
EBE
100
AcDbSymbolTableRecord
100
AcDbDimStyleTableRecord
  2
Annotative
 70
     0
340
F11
1001
AcadAnnotative
1000
AnnotativeData
1002
{
1070
     1
1070
     1
1002
}
  0
ENDTAB
  0
TABLE
  2
BLOCK_RECORD
  5
EB5
330
0
100
AcDbSymbolTable
 70
     5
  0
BLOCK_RECORD
  5
F28
330
EB5
100
AcDbSymbolTableRecord
100
AcDbBlockTableRecord
  2
*Model_Space
340
F2B
  0
BLOCK_RECORD
  5
F24
330
EB5
100
AcDbSymbolTableRecord
100
AcDbBlockTableRecord
  2
*Paper_Space
340
F27
  0
BLOCK_RECORD
  5
F3F
330
EB5
100
AcDbSymbolTableRecord
100
AcDbBlockTableRecord
  2
$MODEL_SPACE
340
0
  0
BLOCK_RECORD
  5
F41
330
EB5
100
AcDbSymbolTableRecord
100
AcDbBlockTableRecord
  2
$PAPER_SPACE
340
0
  0
BLOCK_RECORD
  5
F43
330
EB5
100
AcDbSymbolTableRecord
100
AcDbBlockTableRecord
  2
_DOTBLANK
340
0
102
{BLKREFS
331
E63
331
E64
102
}
  0
BLOCK_RECORD
  5
F45
330
EB5
100
AcDbSymbolTableRecord
100
AcDbBlockTableRecord
  2
*D3
340
0
  0
ENDTAB
  0
ENDSEC
  0
SECTION
  2
BLOCKS
  0
BLOCK
  5
F29
330
F28
100
AcDbEntity
  8
0
100
AcDbBlockBegin
  2
*Model_Space
 70
     0
 10
0.0
 20
0.0
 30
0.0
  3
*Model_Space
  1

  0
ENDBLK
  5
F2A
330
F28
100
AcDbEntity
  8
0
100
AcDbBlockEnd
  0
BLOCK
  5
F25
330
F24
100
AcDbEntity
 67
     1
  8
0
100
AcDbBlockBegin
  2
*Paper_Space
 70
     0
 10
0.0
 20
0.0
 30
0.0
  3
*Paper_Space
  1

  0
ENDBLK
  5
F26
330
F24
100
AcDbEntity
 67
     1
  8
0
100
AcDbBlockEnd
  0
BLOCK
  5
F40
330
F3F
100
AcDbEntity
  8
0
100
AcDbBlockBegin
  2
$MODEL_SPACE
 70
     0
 10
0.0
 20
0.0
 30
0.0
  3
$MODEL_SPACE
  1

  0
ENDBLK
  5
E93
330
F3F
100
AcDbEntity
  8
0
100
AcDbBlockEnd
  0
BLOCK
  5
F42
330
F41
100
AcDbEntity
  8
0
100
AcDbBlockBegin
  2
$PAPER_SPACE
 70
     0
 10
0.0
 20
0.0
 30
0.0
  3
$PAPER_SPACE
  1

  0
ENDBLK
  5
E90
330
F41
100
AcDbEntity
  8
0
100
AcDbBlockEnd
  0
BLOCK
  5
F44
330
F43
100
AcDbEntity
  8
0
100
AcDbBlockBegin
  2
_DOTBLANK
 70
     0
 10
0.0
 20
0.0
 30
0.0
  3
_DOTBLANK
  1

  0
CIRCLE
  5
720
330
F43
100
AcDbEntity
  8
0
  6
Continuous
 62
     7
100
AcDbCircle
 10
0.0
 20
0.0
 30
0.0
 40
0.5
  0
LINE
  5
721
330
F43
100
AcDbEntity
  8
0
  6
Continuous
 62
     7
100
AcDbLine
 10
-0.5
 20
0.0
 30
0.0
 11
-1.0
 21
0.0
 31
0.0
  0
ENDBLK
  5
722
330
F43
100
AcDbEntity
  8
0
100
AcDbBlockEnd
  0
BLOCK
  5
F46
330
F45
100
AcDbEntity
  8
0
100
AcDbBlockBegin
  2
*D3
 70
     1
 10
0.0
 20
0.0
 30
0.0
  3
*D3
  1

  0
LINE
  5
E60
330
F45
100
AcDbEntity
  8
0
  6
ByBlock
 62
     0
100
AcDbLine
 10
435.000353
 20
242.0
 30
0.0
 11
1161.607932
 21
242.0
 31
0.0
  0
LINE
  5
E61
330
F45
100
AcDbEntity
  8
0
  6
ByBlock
 62
     0
100
AcDbLine
 10
435.000353
 20
80.0
 30
0.0
 11
1161.607932
 21
80.0
 31
0.0
  0
LINE
  5
E62
330
F45
100
AcDbEntity
  8
0
  6
ByBlock
 62
     0
100
AcDbLine
 10
1131.607932
 20
232.0
 30
0.0
 11
1131.607932
 21
90.0
 31
0.0
  0
INSERT
  5
E63
330
F45
100
AcDbEntity
  8
0
  6
ByBlock
 62
     0
100
AcDbBlockReference
  2
_DOTBLANK
 10
1131.607932
 20
242.0
 30
0.0
 41
10.0
 42
10.0
 43
10.0
 50
90.0
  0
INSERT
  5
E64
330
F45
100
AcDbEntity
  8
0
  6
ByBlock
 62
     0
100
AcDbBlockReference
  2
_DOTBLANK
 10
1131.607932
 20
80.0
 30
0.0
 41
10.0
 42
10.0
 43
10.0
 50
270.0
  0
TEXT
  5
E78
330
F45
100
AcDbEntity
  8
0
 62
     0
100
AcDbText
 10
971.518
 20
47.72
 30
0.0
 40
64.0
  1
162
100
AcDbText
  0
POINT
  5
E66
330
F45
100
AcDbEntity
  8
DEFPOINTS
  6
ByBlock
 62
     0
100
AcDbPoint
 10
415.0003529999998
 20
242.0
 30
0.0
  0
POINT
  5
E67
330
F45
100
AcDbEntity
  8
DEFPOINTS
  6
ByBlock
 62
     0
100
AcDbPoint
 10
415.0003529999998
 20
80.0
 30
0.0
  0
POINT
  5
E68
330
F45
100
AcDbEntity
  8
DEFPOINTS
  6
ByBlock
 62
     0
100
AcDbPoint
 10
1131.607932
 20
80.0
 30
0.0
  0
ENDBLK
  5
E69
330
F45
100
AcDbEntity
  8
0
100
AcDbBlockEnd
  0
ENDSEC
  0
SECTION
  2
ENTITIES
  0
LINE
  5
723
330
F28
100
AcDbEntity
  8
DETAIL
100
AcDbLine
 10
320.000024
 20
261.918171
 30
0.0
 11
320.000024
 21
79.975014
 31
0.0
  0
LINE
  5
724
330
F28
100
AcDbEntity
  8
DETAIL
100
AcDbLine
 10
270.015641
 20
593.9613009999998
 30
0.0
 11
270.015641
 21
80.0
 31
0.0
  0
LINE
  5
725
330
F28
100
AcDbEntity
  8
DETAIL
100
AcDbLine
 10
-269.815703
 20
593.9613009999998
 30
0.0
 11
-269.815703
 21
80.0
 31
0.0
  0
LINE
  5
726
330
F28
100
AcDbEntity
  8
DETAIL
100
AcDbLine
 10
275.014079
 20
1550.0
 30
0.0
 11
275.014079
 21
80.0
 31
0.0
  0
LINE
  5
727
330
F28
100
AcDbEntity
  8
DETAIL
100
AcDbLine
 10
320.000024
 20
1750.0
 30
0.0
 11
320.000024
 21
1550.0
 31
0.0
  0
LINE
  5
728
330
F28
100
AcDbEntity
  8
DETAIL
100
AcDbLine
 10
-274.814142
 20
1550.0
 30
0.0
 11
-274.814142
 21
80.0
 31
0.0
  0
LINE
  5
729
330
F28
100
AcDbEntity
  8
DETAIL
100
AcDbLine
 10
310.802898
 20
0.0
 30
0.0
 11
-310.60296
 21
0.0
 31
0.0
  0
LINE
  5
72A
330
F28
100
AcDbEntity
  8
DETAIL
100
AcDbLine
 10
340.793528
 20
80.0
 30
0.0
 11
-320.000024
 21
80.0
 31
0.0
  0
LINE
  5
72B
330
F28
100
AcDbEntity
  8
DETAIL
100
AcDbLine
 10
-311.0
 20
0.0
 30
0.0
 11
-311.0
 21
79.975014
 31
0.0
  0
LINE
  5
72C
330
F28
100
AcDbEntity
  8
DETAIL
100
AcDbLine
 10
-315.101555
 20
34.989069
 30
0.0
 11
-315.101555
 21
4.498594999999999
 31
0.0
  0
LINE
  5
72D
330
F28
100
AcDbEntity
  8
DETAIL
100
AcDbLine
 10
-315.101555
 20
4.498594999999999
 30
0.0
 11
-351.0
 21
4.498594999999999
 31
0.0
  0
LINE
  5
72E
330
F28
100
AcDbEntity
  8
DETAIL
100
AcDbLine
 10
-310.60296
 20
0.0
 30
0.0
 11
-351.0
 21
0.0
 31
0.0
  0
LINE
  5
72F
330
F28
100
AcDbEntity
  8
DETAIL
100
AcDbLine
 10
-351.0
 20
4.498594999999999
 30
0.0
 11
-351.0
 21
0.0
 31
0.0
  0
LINE
  5
730
330
F28
100
AcDbEntity
  8
DETAIL
100
AcDbLine
 10
-311.0
 20
34.989069
 30
0.0
 11
-315.101555
 21
34.989069
 31
0.0
  0
LINE
  5
731
330
F28
100
AcDbEntity
  8
DETAIL
100
AcDbLine
 10
-332.806333
 20
48.984696
 30
0.0
 11
-332.806333
 21
10.996564
 31
0.0
  0
LINE
  5
732
330
F28
100
AcDbEntity
  8
DETAIL
100
AcDbLine
 10
-315.101555
 20
10.996564
 30
0.0
 11
-332.806333
 21
10.996564
 31
0.0
  0
LINE
  5
733
330
F28
100
AcDbEntity
  8
DETAIL
100
AcDbLine
 10
-311.0
 20
48.984696
 30
0.0
 11
-332.806333
 21
48.984696
 31
0.0
  0
LINE
  5
734
330
F28
100
AcDbEntity
  8
DETAIL
100
AcDbLine
 10
-332.806333
 20
43.986258
 30
0.0
 11
-342.80321
 21
43.986258
 31
0.0
  0
LINE
  5
735
330
F28
100
AcDbEntity
  8
DETAIL
100
AcDbLine
 10
-332.806333
 20
15.995003
 30
0.0
 11
-342.80321
 21
15.995003
 31
0.0
  0
LINE
  5
736
330
F28
100
AcDbEntity
  8
DETAIL
100
AcDbLine
 10
-342.80321
 20
43.986258
 30
0.0
 11
-342.80321
 21
15.995003
 31
0.0
  0
LINE
  5
737
330
F28
100
AcDbEntity
  8
DETAIL
100
AcDbLine
 10
-353.000024
 20
37.488288
 30
0.0
 11
-353.000024
 21
22.492973
 31
0.0
  0
LINE
  5
738
330
F28
100
AcDbEntity
  8
DETAIL
100
AcDbLine
 10
-353.000024
 20
37.488288
 30
0.0
 11
-342.80321
 21
37.488288
 31
0.0
  0
LINE
  5
739
330
F28
100
AcDbEntity
  8
DETAIL
100
AcDbLine
 10
-353.000024
 20
22.492973
 30
0.0
 11
-342.80321
 21
22.492973
 31
0.0
  0
LINE
  5
73A
330
F28
100
AcDbEntity
  8
DETAIL
100
AcDbLine
 10
340.793528
 20
80.0
 30
0.0
 11
340.793528
 21
4.498594999999999
 31
0.0
  0
LINE
  5
73B
330
F28
100
AcDbEntity
  8
DETAIL
100
AcDbLine
 10
311.0
 20
0.0
 30
0.0
 11
311.0
 21
80.0
 31
0.0
  0
LINE
  5
73C
330
F28
100
AcDbEntity
  8
DETAIL
100
AcDbLine
 10
310.802898
 20
0.0
 30
0.0
 11
351.0
 21
0.0
 31
0.0
  0
LINE
  5
73D
330
F28
100
AcDbEntity
  8
DETAIL
100
AcDbLine
 10
315.301492
 20
4.498594999999999
 30
0.0
 11
351.0
 21
4.498594999999999
 31
0.0
  0
LINE
  5
73E
330
F28
100
AcDbEntity
  8
DETAIL
100
AcDbLine
 10
315.301492
 20
10.996564
 30
0.0
 11
332.796027
 21
10.996564
 31
0.0
  0
LINE
  5
73F
330
F28
100
AcDbEntity
  8
DETAIL
100
AcDbLine
 10
311.0
 20
48.984696
 30
0.0
 11
332.796027
 21
48.984696
 31
0.0
  0
LINE
  5
740
330
F28
100
AcDbEntity
  8
DETAIL
100
AcDbLine
 10
311.0
 20
34.989069
 30
0.0
 11
315.301492
 21
34.989069
 31
0.0
  0
LINE
  5
741
330
F28
100
AcDbEntity
  8
DETAIL
100
AcDbLine
 10
315.301492
 20
34.989069
 30
0.0
 11
315.301492
 21
4.498594999999999
 31
0.0
  0
LINE
  5
742
330
F28
100
AcDbEntity
  8
DETAIL
100
AcDbLine
 10
351.0
 20
4.498594999999999
 30
0.0
 11
351.0
 21
0.0
 31
0.0
  0
LINE
  5
743
330
F28
100
AcDbEntity
  8
DETAIL
100
AcDbLine
 10
332.796027
 20
48.984696
 30
0.0
 11
332.796027
 21
10.996564
 31
0.0
  0
LINE
  5
744
330
F28
100
AcDbEntity
  8
DETAIL
100
AcDbLine
 10
415.0003529999998
 20
80.0
 30
0.0
 11
320.000024
 21
80.0
 31
0.0
  0
LINE
  5
745
330
F28
100
AcDbEntity
  8
DETAIL
100
AcDbLine
 10
269.515797
 20
1105.654567
 30
0.0
 11
-268.316172
 21
1105.654567
 31
0.0
  0
LINE
  5
746
330
F28
100
AcDbEntity
  8
DETAIL
100
AcDbLine
 10
269.515797
 20
594.814166
 30
0.0
 11
-268.316172
 21
594.814166
 31
0.0
  0
LINE
  5
747
330
F28
100
AcDbEntity
  8
DETAIL
100
AcDbLine
 10
-269.015953
 20
594.7610509999996
 30
0.0
 11
269.215891
 21
594.7610509999996
 31
0.0
  0
LINE
  5
748
330
F28
100
AcDbEntity
  8
DETAIL
100
AcDbLine
 10
-269.015953
 20
1125.648321
 30
0.0
 11
269.215891
 21
1125.648321
 31
0.0
  0
LINE
  5
749
330
F28
100
AcDbEntity
  8
DETAIL
100
AcDbLine
 10
-269.015953
 20
1644.682112
 30
0.0
 11
266.01689
 21
1644.682112
 31
0.0
  0
LINE
  5
74A
330
F28
100
AcDbEntity
  8
DETAIL
100
AcDbLine
 10
-269.015953
 20
1634.293458
 30
0.0
 11
266.01689
 21
1634.293458
 31
0.0
  0
LINE
  5
74B
330
F28
100
AcDbEntity
  8
DETAIL
100
AcDbLine
 10
-269.015953
 20
1679.279403
 30
0.0
 11
266.01689
 21
1679.279403
 31
0.0
  0
LINE
  5
74C
330
F28
100
AcDbEntity
  8
DETAIL
100
AcDbLine
 10
-269.015953
 20
1689.668058
 30
0.0
 11
266.01689
 21
1689.668058
 31
0.0
  0
LINE
  5
74D
330
F28
100
AcDbEntity
  8
DETAIL
100
AcDbLine
 10
25.092161
 20
1016.002677
 30
0.0
 11
223.03032
 21
1016.002677
 31
0.0
  0
LINE
  5
74E
330
F28
100
AcDbEntity
  8
DETAIL
100
AcDbLine
 10
35.089037
 20
1035.99643
 30
0.0
 11
213.033443
 21
1035.99643
 31
0.0
  0
LINE
  5
74F
330
F28
100
AcDbEntity
  8
DETAIL
100
AcDbLine
 10
213.033443
 20
1030.140395
 30
0.0
 11
35.089037
 21
1030.140395
 31
0.0
  0
LINE
  5
750
330
F28
100
AcDbEntity
  8
DETAIL
100
AcDbLine
 10
25.092161
 20
975.8851700000001
 30
0.0
 11
223.03032
 21
975.8851700000001
 31
0.0
  0
LINE
  5
751
330
F28
100
AcDbEntity
  8
DETAIL
100
AcDbLine
 10
35.089037
 20
995.878923
 30
0.0
 11
213.033443
 21
995.878923
 31
0.0
  0
LINE
  5
752
330
F28
100
AcDbEntity
  8
DETAIL
100
AcDbLine
 10
213.033443
 20
990.022888
 30
0.0
 11
35.089037
 21
990.022888
 31
0.0
  0
LINE
  5
753
330
F28
100
AcDbEntity
  8
DETAIL
100
AcDbLine
 10
25.092161
 20
935.897663
 30
0.0
 11
223.03032
 21
935.897663
 31
0.0
  0
LINE
  5
754
330
F28
100
AcDbEntity
  8
DETAIL
100
AcDbLine
 10
35.089037
 20
955.891416
 30
0.0
 11
213.033443
 21
955.891416
 31
0.0
  0
LINE
  5
755
330
F28
100
AcDbEntity
  8
DETAIL
100
AcDbLine
 10
213.033443
 20
950.035381
 30
0.0
 11
35.089037
 21
950.035381
 31
0.0
  0
LINE
  5
756
330
F28
100
AcDbEntity
  8
DETAIL
100
AcDbLine
 10
25.092161
 20
895.910156
 30
0.0
 11
223.03032
 21
895.910156
 31
0.0
  0
LINE
  5
757
330
F28
100
AcDbEntity
  8
DETAIL
100
AcDbLine
 10
35.089037
 20
915.903909
 30
0.0
 11
213.033443
 21
915.903909
 31
0.0
  0
LINE
  5
758
330
F28
100
AcDbEntity
  8
DETAIL
100
AcDbLine
 10
213.033443
 20
910.0478739999999
 30
0.0
 11
35.089037
 21
910.0478739999999
 31
0.0
  0
LINE
  5
759
330
F28
100
AcDbEntity
  8
DETAIL
100
AcDbLine
 10
25.092161
 20
855.922649
 30
0.0
 11
223.03032
 21
855.922649
 31
0.0
  0
LINE
  5
75A
330
F28
100
AcDbEntity
  8
DETAIL
100
AcDbLine
 10
35.089037
 20
875.916402
 30
0.0
 11
213.033443
 21
875.916402
 31
0.0
  0
LINE
  5
75B
330
F28
100
AcDbEntity
  8
DETAIL
100
AcDbLine
 10
213.033443
 20
870.0603670000001
 30
0.0
 11
35.089037
 21
870.0603670000001
 31
0.0
  0
LINE
  5
75C
330
F28
100
AcDbEntity
  8
DETAIL
100
AcDbLine
 10
25.092161
 20
815.935142
 30
0.0
 11
223.03032
 21
815.935142
 31
0.0
  0
LINE
  5
75D
330
F28
100
AcDbEntity
  8
DETAIL
100
AcDbLine
 10
35.089037
 20
835.9288949999999
 30
0.0
 11
213.033443
 21
835.9288949999999
 31
0.0
  0
LINE
  5
75E
330
F28
100
AcDbEntity
  8
DETAIL
100
AcDbLine
 10
213.033443
 20
830.072861
 30
0.0
 11
35.089037
 21
830.072861
 31
0.0
  0
LINE
  5
75F
330
F28
100
AcDbEntity
  8
DETAIL
100
AcDbLine
 10
25.092161
 20
775.9476349999999
 30
0.0
 11
223.03032
 21
775.9476349999999
 31
0.0
  0
LINE
  5
760
330
F28
100
AcDbEntity
  8
DETAIL
100
AcDbLine
 10
35.089037
 20
795.9413879999997
 30
0.0
 11
213.033443
 21
795.9413879999997
 31
0.0
  0
LINE
  5
761
330
F28
100
AcDbEntity
  8
DETAIL
100
AcDbLine
 10
213.033443
 20
790.085354
 30
0.0
 11
35.089037
 21
790.085354
 31
0.0
  0
LINE
  5
762
330
F28
100
AcDbEntity
  8
DETAIL
100
AcDbLine
 10
25.092161
 20
735.960128
 30
0.0
 11
223.03032
 21
735.960128
 31
0.0
  0
LINE
  5
763
330
F28
100
AcDbEntity
  8
DETAIL
100
AcDbLine
 10
35.089037
 20
755.9538809999996
 30
0.0
 11
213.033443
 21
755.9538809999996
 31
0.0
  0
LINE
  5
764
330
F28
100
AcDbEntity
  8
DETAIL
100
AcDbLine
 10
213.033443
 20
750.0978469999997
 30
0.0
 11
35.089037
 21
750.0978469999997
 31
0.0
  0
LINE
  5
765
330
F28
100
AcDbEntity
  8
DETAIL
100
AcDbLine
 10
25.092161
 20
695.972621
 30
0.0
 11
223.03032
 21
695.972621
 31
0.0
  0
LINE
  5
766
330
F28
100
AcDbEntity
  8
DETAIL
100
AcDbLine
 10
35.089037
 20
715.966374
 30
0.0
 11
213.033443
 21
715.966374
 31
0.0
  0
LINE
  5
767
330
F28
100
AcDbEntity
  8
DETAIL
100
AcDbLine
 10
213.033443
 20
710.11034
 30
0.0
 11
35.089037
 21
710.11034
 31
0.0
  0
LINE
  5
768
330
F28
100
AcDbEntity
  8
DETAIL
100
AcDbLine
 10
25.092161
 20
655.9851139999997
 30
0.0
 11
223.03032
 21
655.9851139999997
 31
0.0
  0
LINE
  5
769
330
F28
100
AcDbEntity
  8
DETAIL
100
AcDbLine
 10
35.089037
 20
675.9788679999997
 30
0.0
 11
213.033443
 21
675.9788679999997
 31
0.0
  0
LINE
  5
76A
330
F28
100
AcDbEntity
  8
DETAIL
100
AcDbLine
 10
213.033443
 20
670.122833
 30
0.0
 11
35.089037
 21
670.122833
 31
0.0
  0
LINE
  5
76B
330
F28
100
AcDbEntity
  8
DETAIL
100
AcDbLine
 10
25.092161
 20
615.9976069999999
 30
0.0
 11
223.03032
 21
615.9976069999999
 31
0.0
  0
LINE
  5
76C
330
F28
100
AcDbEntity
  8
DETAIL
100
AcDbLine
 10
35.089037
 20
635.9913609999997
 30
0.0
 11
213.033443
 21
635.9913609999997
 31
0.0
  0
LINE
  5
76D
330
F28
100
AcDbEntity
  8
DETAIL
100
AcDbLine
 10
213.033443
 20
630.1353259999999
 30
0.0
 11
35.089037
 21
630.1353259999999
 31
0.0
  0
LINE
  5
76E
330
F28
100
AcDbEntity
  8
DETAIL
100
AcDbLine
 10
-270.015641
 20
1556.513708
 30
0.0
 11
270.015641
 21
1556.513708
 31
0.0
  0
LINE
  5
76F
330
F28
100
AcDbEntity
  8
DETAIL
100
AcDbLine
 10
-270.015641
 20
1590.503089
 30
0.0
 11
270.015641
 21
1590.503089
 31
0.0
  0
LINE
  5
770
330
F28
100
AcDbEntity
  8
DETAIL
100
AcDbLine
 10
-270.015641
 20
1597.500903
 30
0.0
 11
270.015641
 21
1597.500903
 31
0.0
  0
LINE
  5
771
330
F28
100
AcDbEntity
  8
DETAIL
100
AcDbLine
 10
-270.015641
 20
1726.960457
 30
0.0
 11
270.015641
 21
1726.960457
 31
0.0
  0
LINE
  5
772
330
F28
100
AcDbEntity
  8
DETAIL
100
AcDbLine
 10
-320.000024
 20
1750.0
 30
0.0
 11
320.000024
 21
1750.0
 31
0.0
  0
LINE
  5
773
330
F28
100
AcDbEntity
  8
DETAIL
100
AcDbLine
 10
272.015016
 20
1550.0
 30
0.0
 11
-272.015016
 21
1550.0
 31
0.0
  0
LINE
  5
774
330
F28
100
AcDbEntity
  8
DETAIL
100
AcDbLine
 10
-269.815703
 20
1550.0
 30
0.0
 11
-269.815703
 21
1126.448071
 31
0.0
  0
LINE
  5
775
330
F28
100
AcDbEntity
  8
DETAIL
100
AcDbLine
 10
-269.315859
 20
595.813854
 30
0.0
 11
-269.315859
 21
1104.65488
 31
0.0
  0
LINE
  5
776
330
F28
100
AcDbEntity
  8
DETAIL
100
AcDbLine
 10
-222.830383
 20
825.932019
 30
0.0
 11
-222.830383
 21
815.935142
 31
0.0
  0
LINE
  5
777
330
F28
100
AcDbEntity
  8
DETAIL
100
AcDbLine
 10
-24.892223
 20
825.932019
 30
0.0
 11
-24.892223
 21
815.935142
 31
0.0
  0
LINE
  5
778
330
F28
100
AcDbEntity
  8
DETAIL
100
AcDbLine
 10
25.092161
 20
825.932019
 30
0.0
 11
25.092161
 21
815.935142
 31
0.0
  0
LINE
  5
779
330
F28
100
AcDbEntity
  8
DETAIL
100
AcDbLine
 10
-222.830383
 20
815.935142
 30
0.0
 11
-24.892223
 21
815.935142
 31
0.0
  0
LINE
  5
77A
330
F28
100
AcDbEntity
  8
DETAIL
100
AcDbLine
 10
-222.830383
 20
775.9476349999999
 30
0.0
 11
-24.892223
 21
775.9476349999999
 31
0.0
  0
LINE
  5
77B
330
F28
100
AcDbEntity
  8
DETAIL
100
AcDbLine
 10
-212.833506
 20
795.9413879999997
 30
0.0
 11
-34.8891
 21
795.9413879999997
 31
0.0
  0
LINE
  5
77C
330
F28
100
AcDbEntity
  8
DETAIL
100
AcDbLine
 10
-34.8891
 20
790.085354
 30
0.0
 11
-212.833506
 21
790.085354
 31
0.0
  0
LINE
  5
77D
330
F28
100
AcDbEntity
  8
DETAIL
100
AcDbLine
 10
-222.830383
 20
735.960128
 30
0.0
 11
-24.892223
 21
735.960128
 31
0.0
  0
LINE
  5
77E
330
F28
100
AcDbEntity
  8
DETAIL
100
AcDbLine
 10
-212.833506
 20
755.9538809999996
 30
0.0
 11
-34.8891
 21
755.9538809999996
 31
0.0
  0
LINE
  5
77F
330
F28
100
AcDbEntity
  8
DETAIL
100
AcDbLine
 10
-34.8891
 20
750.0978469999997
 30
0.0
 11
-212.833506
 21
750.0978469999997
 31
0.0
  0
LINE
  5
780
330
F28
100
AcDbEntity
  8
DETAIL
100
AcDbLine
 10
-222.830383
 20
695.972621
 30
0.0
 11
-24.892223
 21
695.972621
 31
0.0
  0
LINE
  5
781
330
F28
100
AcDbEntity
  8
DETAIL
100
AcDbLine
 10
-212.833506
 20
715.966374
 30
0.0
 11
-34.8891
 21
715.966374
 31
0.0
  0
LINE
  5
782
330
F28
100
AcDbEntity
  8
DETAIL
100
AcDbLine
 10
-34.8891
 20
710.11034
 30
0.0
 11
-212.833506
 21
710.11034
 31
0.0
  0
LINE
  5
783
330
F28
100
AcDbEntity
  8
DETAIL
100
AcDbLine
 10
-222.830383
 20
655.9851139999997
 30
0.0
 11
-24.892223
 21
655.9851139999997
 31
0.0
  0
LINE
  5
784
330
F28
100
AcDbEntity
  8
DETAIL
100
AcDbLine
 10
-212.833506
 20
675.9788679999997
 30
0.0
 11
-34.8891
 21
675.9788679999997
 31
0.0
  0
LINE
  5
785
330
F28
100
AcDbEntity
  8
DETAIL
100
AcDbLine
 10
-34.8891
 20
670.122833
 30
0.0
 11
-212.833506
 21
670.122833
 31
0.0
  0
LINE
  5
786
330
F28
100
AcDbEntity
  8
DETAIL
100
AcDbLine
 10
-222.830383
 20
615.9976069999999
 30
0.0
 11
-24.892223
 21
615.9976069999999
 31
0.0
  0
LINE
  5
787
330
F28
100
AcDbEntity
  8
DETAIL
100
AcDbLine
 10
-212.833506
 20
635.9913609999997
 30
0.0
 11
-34.8891
 21
635.9913609999997
 31
0.0
  0
LINE
  5
788
330
F28
100
AcDbEntity
  8
DETAIL
100
AcDbLine
 10
-34.8891
 20
630.1353259999999
 30
0.0
 11
-212.833506
 21
630.1353259999999
 31
0.0
  0
ARC
  5
789
330
F28
100
AcDbEntity
  8
DETAIL
100
AcDbCircle
 10
-212.833506
 20
665.981991
 30
0.0
 40
9.996876999999999
100
AcDbArc
 50
90.0
 51
180.0
  0
LINE
  5
78A
330
F28
100
AcDbEntity
  8
DETAIL
100
AcDbLine
 10
-268.316172
 20
595.813854
 30
0.0
 11
-269.315859
 21
595.813854
 31
0.0
  0
LINE
  5
78B
330
F28
100
AcDbEntity
  8
DETAIL
100
AcDbLine
 10
-268.316172
 20
595.813854
 30
0.0
 11
-268.316172
 21
594.814166
 31
0.0
  0
LINE
  5
78C
330
F28
100
AcDbEntity
  8
DETAIL
100
AcDbLine
 10
-269.015953
 20
593.9613009999998
 30
0.0
 11
-269.815703
 21
593.9613009999998
 31
0.0
  0
LINE
  5
78D
330
F28
100
AcDbEntity
  8
DETAIL
100
AcDbLine
 10
-269.015953
 20
594.7610509999996
 30
0.0
 11
-269.015953
 21
593.9613009999998
 31
0.0
  0
LINE
  5
78E
330
F28
100
AcDbEntity
  8
DETAIL
100
AcDbLine
 10
-222.830383
 20
665.981991
 30
0.0
 11
-222.830383
 21
655.9851139999997
 31
0.0
  0
LWPOLYLINE
  5
78F
330
F28
100
AcDbEntity
  8
DETAIL
100
AcDbPolyline
 90
        9
 70
     0
 43
0.0
 10
-212.833506
 20
670.122833
 10
-214.7838
 20
669.9870070000002
 10
-216.659145
 20
669.584748
 10
-218.387473
 20
668.9315149999997
 10
-219.902365
 20
668.052412
 10
-221.145605
 20
666.9812209999999
 10
-222.069416
 20
665.7591089999997
 10
-222.638295
 20
664.433039
 10
-222.830383
 20
663.053973
  0
LINE
  5
79A
330
F28
100
AcDbEntity
  8
DETAIL
100
AcDbLine
 10
-222.830383
 20
625.9944839999997
 30
0.0
 11
-222.830383
 21
615.9976069999999
 31
0.0
  0
ARC
  5
79B
330
F28
100
AcDbEntity
  8
DETAIL
100
AcDbCircle
 10
-212.833506
 20
625.9944839999997
 30
0.0
 40
9.996876999999999
100
AcDbArc
 50
90.0
 51
180.0
  0
LWPOLYLINE
  5
79C
330
F28
100
AcDbEntity
  8
DETAIL
100
AcDbPolyline
 90
        9
 70
     0
 43
0.0
 10
-212.833506
 20
630.1353259999999
 10
-214.7838
 20
629.9995
 10
-216.659145
 20
629.597241
 10
-218.387473
 20
628.944008
 10
-219.902365
 20
628.064905
 10
-221.145605
 20
626.9937139999997
 10
-222.069416
 20
625.7716019999998
 10
-222.638295
 20
624.4455320000001
 10
-222.830383
 20
623.066466
  0
LINE
  5
7A7
330
F28
100
AcDbEntity
  8
DETAIL
100
AcDbLine
 10
-222.830383
 20
785.944512
 30
0.0
 11
-222.830383
 21
775.9476349999999
 31
0.0
  0
ARC
  5
7A8
330
F28
100
AcDbEntity
  8
DETAIL
100
AcDbCircle
 10
-212.833506
 20
785.944512
 30
0.0
 40
9.996876999999999
100
AcDbArc
 50
90.0
 51
180.0
  0
LWPOLYLINE
  5
7A9
330
F28
100
AcDbEntity
  8
DETAIL
100
AcDbPolyline
 90
        9
 70
     0
 43
0.0
 10
-212.833506
 20
790.085354
 10
-214.7838
 20
789.949527
 10
-216.659145
 20
789.547269
 10
-218.387473
 20
788.894036
 10
-219.902365
 20
788.014933
 10
-221.145605
 20
786.943742
 10
-222.069416
 20
785.72163
 10
-222.638295
 20
784.3955599999997
 10
-222.830383
 20
783.0164940000003
  0
LINE
  5
7B4
330
F28
100
AcDbEntity
  8
DETAIL
100
AcDbLine
 10
-222.830383
 20
745.9570049999999
 30
0.0
 11
-222.830383
 21
735.960128
 31
0.0
  0
ARC
  5
7B5
330
F28
100
AcDbEntity
  8
DETAIL
100
AcDbCircle
 10
-212.833506
 20
745.9570049999999
 30
0.0
 40
9.996876999999999
100
AcDbArc
 50
90.0
 51
180.0
  0
LWPOLYLINE
  5
7B6
330
F28
100
AcDbEntity
  8
DETAIL
100
AcDbPolyline
 90
        9
 70
     0
 43
0.0
 10
-212.833506
 20
750.0978469999997
 10
-214.7838
 20
749.96202
 10
-216.659145
 20
749.5597619999998
 10
-218.387473
 20
748.906529
 10
-219.902365
 20
748.0274259999996
 10
-221.145605
 20
746.956235
 10
-222.069416
 20
745.734123
 10
-222.638295
 20
744.4080529999999
 10
-222.830383
 20
743.028987
  0
LINE
  5
7C1
330
F28
100
AcDbEntity
  8
DETAIL
100
AcDbLine
 10
-222.830383
 20
705.969498
 30
0.0
 11
-222.830383
 21
695.972621
 31
0.0
  0
ARC
  5
7C2
330
F28
100
AcDbEntity
  8
DETAIL
100
AcDbCircle
 10
-212.833506
 20
705.969498
 30
0.0
 40
9.996876999999999
100
AcDbArc
 50
90.0
 51
180.0
  0
LWPOLYLINE
  5
7C3
330
F28
100
AcDbEntity
  8
DETAIL
100
AcDbPolyline
 90
        9
 70
     0
 43
0.0
 10
-212.833506
 20
710.11034
 10
-214.7838
 20
709.974514
 10
-216.659145
 20
709.5722549999996
 10
-218.387473
 20
708.9190219999997
 10
-219.902365
 20
708.039919
 10
-221.145605
 20
706.9687280000001
 10
-222.069416
 20
705.746616
 10
-222.638295
 20
704.4205459999997
 10
-222.830383
 20
703.0414799999999
  0
ARC
  5
7CE
330
F28
100
AcDbEntity
  8
DETAIL
100
AcDbCircle
 10
-34.8891
 20
665.981991
 30
0.0
 40
9.996876999999999
100
AcDbArc
 50
0.0
 51
90.0
  0
ARC
  5
7CF
330
F28
100
AcDbEntity
  8
DETAIL
100
AcDbCircle
 10
35.089037
 20
665.981991
 30
0.0
 40
9.996876999999999
100
AcDbArc
 50
90.0
 51
180.0
  0
LWPOLYLINE
  5
7D0
330
F28
100
AcDbEntity
  8
DETAIL
100
AcDbPolyline
 90
        9
 70
     0
 43
0.0
 10
35.089037
 20
670.122833
 10
33.138743
 20
669.9870070000002
 10
31.263398
 20
669.584748
 10
29.53507
 20
668.9315149999997
 10
28.020178
 20
668.052412
 10
26.776938
 20
666.9812209999999
 10
25.853128
 20
665.7591089999997
 10
25.284248
 20
664.433039
 10
25.092161
 20
663.053973
  0
ARC
  5
7DB
330
F28
100
AcDbEntity
  8
DETAIL
100
AcDbCircle
 10
35.089037
 20
625.9944839999997
 30
0.0
 40
9.996876999999999
100
AcDbArc
 50
90.0
 51
180.0
  0
LWPOLYLINE
  5
7DC
330
F28
100
AcDbEntity
  8
DETAIL
100
AcDbPolyline
 90
        9
 70
     0
 43
0.0
 10
35.089037
 20
630.1353259999999
 10
33.138743
 20
629.9995
 10
31.263398
 20
629.597241
 10
29.53507
 20
628.944008
 10
28.020178
 20
628.064905
 10
26.776938
 20
626.9937139999997
 10
25.853128
 20
625.7716019999998
 10
25.284248
 20
624.4455320000001
 10
25.092161
 20
623.066466
  0
LINE
  5
7E7
330
F28
100
AcDbEntity
  8
DETAIL
100
AcDbLine
 10
-24.892223
 20
665.981991
 30
0.0
 11
-24.892223
 21
655.9851139999997
 31
0.0
  0
LWPOLYLINE
  5
7E8
330
F28
100
AcDbEntity
  8
DETAIL
100
AcDbPolyline
 90
        9
 70
     0
 43
0.0
 10
-24.892223
 20
663.053973
 10
-25.08431
 20
664.433039
 10
-25.65319
 20
665.7591089999997
 10
-26.577001
 20
666.9812209999999
 10
-27.82024
 20
668.052412
 10
-29.335133
 20
668.9315149999997
 10
-31.063461
 20
669.584748
 10
-32.938806
 20
669.9870070000002
 10
-34.8891
 20
670.122833
  0
LINE
  5
7F3
330
F28
100
AcDbEntity
  8
DETAIL
100
AcDbLine
 10
-24.892223
 20
625.9944839999997
 30
0.0
 11
-24.892223
 21
615.9976069999999
 31
0.0
  0
ARC
  5
7F4
330
F28
100
AcDbEntity
  8
DETAIL
100
AcDbCircle
 10
-34.8891
 20
625.9944839999997
 30
0.0
 40
9.996876999999999
100
AcDbArc
 50
0.0
 51
90.0
  0
LWPOLYLINE
  5
7F5
330
F28
100
AcDbEntity
  8
DETAIL
100
AcDbPolyline
 90
        9
 70
     0
 43
0.0
 10
-24.892223
 20
623.066466
 10
-25.08431
 20
624.4455320000001
 10
-25.65319
 20
625.7716019999998
 10
-26.577001
 20
626.9937139999997
 10
-27.82024
 20
628.064905
 10
-29.335133
 20
628.944008
 10
-31.063461
 20
629.597241
 10
-32.938806
 20
629.9995
 10
-34.8891
 20
630.1353259999999
  0
LINE
  5
800
330
F28
100
AcDbEntity
  8
DETAIL
100
AcDbLine
 10
25.092161
 20
665.981991
 30
0.0
 11
25.092161
 21
655.9851139999997
 31
0.0
  0
LINE
  5
801
330
F28
100
AcDbEntity
  8
DETAIL
100
AcDbLine
 10
25.092161
 20
625.9944839999997
 30
0.0
 11
25.092161
 21
615.9976069999999
 31
0.0
  0
ARC
  5
802
330
F28
100
AcDbEntity
  8
DETAIL
100
AcDbCircle
 10
35.089037
 20
785.944512
 30
0.0
 40
9.996876999999999
100
AcDbArc
 50
90.0
 51
180.0
  0
LWPOLYLINE
  5
803
330
F28
100
AcDbEntity
  8
DETAIL
100
AcDbPolyline
 90
        9
 70
     0
 43
0.0
 10
35.089037
 20
790.085354
 10
33.138743
 20
789.949527
 10
31.263398
 20
789.547269
 10
29.53507
 20
788.894036
 10
28.020178
 20
788.014933
 10
26.776938
 20
786.943742
 10
25.853128
 20
785.72163
 10
25.284248
 20
784.3955599999997
 10
25.092161
 20
783.0164940000003
  0
ARC
  5
80E
330
F28
100
AcDbEntity
  8
DETAIL
100
AcDbCircle
 10
35.089037
 20
745.9570049999999
 30
0.0
 40
9.996876999999999
100
AcDbArc
 50
90.0
 51
180.0
  0
LWPOLYLINE
  5
80F
330
F28
100
AcDbEntity
  8
DETAIL
100
AcDbPolyline
 90
        9
 70
     0
 43
0.0
 10
35.089037
 20
750.0978469999997
 10
33.138743
 20
749.96202
 10
31.263398
 20
749.5597619999998
 10
29.53507
 20
748.906529
 10
28.020178
 20
748.0274259999996
 10
26.776938
 20
746.956235
 10
25.853128
 20
745.734123
 10
25.284248
 20
744.4080529999999
 10
25.092161
 20
743.028987
  0
ARC
  5
81A
330
F28
100
AcDbEntity
  8
DETAIL
100
AcDbCircle
 10
35.089037
 20
705.969498
 30
0.0
 40
9.996876999999999
100
AcDbArc
 50
90.0
 51
180.0
  0
LWPOLYLINE
  5
81B
330
F28
100
AcDbEntity
  8
DETAIL
100
AcDbPolyline
 90
        9
 70
     0
 43
0.0
 10
35.089037
 20
710.11034
 10
33.138743
 20
709.974514
 10
31.263398
 20
709.5722549999996
 10
29.53507
 20
708.9190219999997
 10
28.020178
 20
708.039919
 10
26.776938
 20
706.9687280000001
 10
25.853128
 20
705.746616
 10
25.284248
 20
704.4205459999997
 10
25.092161
 20
703.0414799999999
  0
LINE
  5
826
330
F28
100
AcDbEntity
  8
DETAIL
100
AcDbLine
 10
-24.892223
 20
785.944512
 30
0.0
 11
-24.892223
 21
775.9476349999999
 31
0.0
  0
ARC
  5
827
330
F28
100
AcDbEntity
  8
DETAIL
100
AcDbCircle
 10
-34.8891
 20
785.944512
 30
0.0
 40
9.996876999999999
100
AcDbArc
 50
0.0
 51
90.0
  0
LWPOLYLINE
  5
828
330
F28
100
AcDbEntity
  8
DETAIL
100
AcDbPolyline
 90
        9
 70
     0
 43
0.0
 10
-24.892223
 20
783.0164940000003
 10
-25.08431
 20
784.3955599999997
 10
-25.65319
 20
785.72163
 10
-26.577001
 20
786.943742
 10
-27.82024
 20
788.014933
 10
-29.335133
 20
788.894036
 10
-31.063461
 20
789.547269
 10
-32.938806
 20
789.949527
 10
-34.8891
 20
790.085354
  0
LINE
  5
833
330
F28
100
AcDbEntity
  8
DETAIL
100
AcDbLine
 10
-24.892223
 20
745.9570049999999
 30
0.0
 11
-24.892223
 21
735.960128
 31
0.0
  0
ARC
  5
834
330
F28
100
AcDbEntity
  8
DETAIL
100
AcDbCircle
 10
-34.8891
 20
745.9570049999999
 30
0.0
 40
9.996876999999999
100
AcDbArc
 50
0.0
 51
90.0
  0
LWPOLYLINE
  5
835
330
F28
100
AcDbEntity
  8
DETAIL
100
AcDbPolyline
 90
        9
 70
     0
 43
0.0
 10
-24.892223
 20
743.028987
 10
-25.08431
 20
744.4080529999999
 10
-25.65319
 20
745.734123
 10
-26.577001
 20
746.956235
 10
-27.82024
 20
748.0274259999996
 10
-29.335133
 20
748.906529
 10
-31.063461
 20
749.5597619999998
 10
-32.938806
 20
749.96202
 10
-34.8891
 20
750.0978469999997
  0
LINE
  5
840
330
F28
100
AcDbEntity
  8
DETAIL
100
AcDbLine
 10
-24.892223
 20
705.969498
 30
0.0
 11
-24.892223
 21
695.972621
 31
0.0
  0
ARC
  5
841
330
F28
100
AcDbEntity
  8
DETAIL
100
AcDbCircle
 10
-34.8891
 20
705.969498
 30
0.0
 40
9.996876999999999
100
AcDbArc
 50
0.0
 51
90.0
  0
LWPOLYLINE
  5
842
330
F28
100
AcDbEntity
  8
DETAIL
100
AcDbPolyline
 90
        9
 70
     0
 43
0.0
 10
-24.892223
 20
703.0414799999999
 10
-25.08431
 20
704.4205459999997
 10
-25.65319
 20
705.746616
 10
-26.577001
 20
706.9687280000001
 10
-27.82024
 20
708.039919
 10
-29.335133
 20
708.9190219999997
 10
-31.063461
 20
709.5722549999996
 10
-32.938806
 20
709.974514
 10
-34.8891
 20
710.11034
  0
LINE
  5
84D
330
F28
100
AcDbEntity
  8
DETAIL
100
AcDbLine
 10
25.092161
 20
785.944512
 30
0.0
 11
25.092161
 21
775.9476349999999
 31
0.0
  0
LINE
  5
84E
330
F28
100
AcDbEntity
  8
DETAIL
100
AcDbLine
 10
25.092161
 20
745.9570049999999
 30
0.0
 11
25.092161
 21
735.960128
 31
0.0
  0
LINE
  5
84F
330
F28
100
AcDbEntity
  8
DETAIL
100
AcDbLine
 10
25.092161
 20
705.969498
 30
0.0
 11
25.092161
 21
695.972621
 31
0.0
  0
LINE
  5
850
330
F28
100
AcDbEntity
  8
DETAIL
100
AcDbLine
 10
-253.8207
 20
1125.648321
 30
0.0
 11
-253.8207
 21
1105.654567
 31
0.0
  0
LINE
  5
851
330
F28
100
AcDbEntity
  8
DETAIL
100
AcDbLine
 10
-222.830383
 20
1016.002677
 30
0.0
 11
-24.892223
 21
1016.002677
 31
0.0
  0
LINE
  5
852
330
F28
100
AcDbEntity
  8
DETAIL
100
AcDbLine
 10
-212.833506
 20
1035.99643
 30
0.0
 11
-34.8891
 21
1035.99643
 31
0.0
  0
LINE
  5
853
330
F28
100
AcDbEntity
  8
DETAIL
100
AcDbLine
 10
-34.8891
 20
1030.140395
 30
0.0
 11
-212.833506
 21
1030.140395
 31
0.0
  0
LINE
  5
854
330
F28
100
AcDbEntity
  8
DETAIL
100
AcDbLine
 10
-222.830383
 20
975.8851700000001
 30
0.0
 11
-24.892223
 21
975.8851700000001
 31
0.0
  0
LINE
  5
855
330
F28
100
AcDbEntity
  8
DETAIL
100
AcDbLine
 10
-212.833506
 20
995.878923
 30
0.0
 11
-34.8891
 21
995.878923
 31
0.0
  0
LINE
  5
856
330
F28
100
AcDbEntity
  8
DETAIL
100
AcDbLine
 10
-34.8891
 20
990.022888
 30
0.0
 11
-212.833506
 21
990.022888
 31
0.0
  0
LINE
  5
857
330
F28
100
AcDbEntity
  8
DETAIL
100
AcDbLine
 10
-222.830383
 20
935.897663
 30
0.0
 11
-24.892223
 21
935.897663
 31
0.0
  0
LINE
  5
858
330
F28
100
AcDbEntity
  8
DETAIL
100
AcDbLine
 10
-212.833506
 20
955.891416
 30
0.0
 11
-34.8891
 21
955.891416
 31
0.0
  0
LINE
  5
859
330
F28
100
AcDbEntity
  8
DETAIL
100
AcDbLine
 10
-34.8891
 20
950.035381
 30
0.0
 11
-212.833506
 21
950.035381
 31
0.0
  0
LINE
  5
85A
330
F28
100
AcDbEntity
  8
DETAIL
100
AcDbLine
 10
-222.830383
 20
895.910156
 30
0.0
 11
-24.892223
 21
895.910156
 31
0.0
  0
LINE
  5
85B
330
F28
100
AcDbEntity
  8
DETAIL
100
AcDbLine
 10
-212.833506
 20
915.903909
 30
0.0
 11
-34.8891
 21
915.903909
 31
0.0
  0
LINE
  5
85C
330
F28
100
AcDbEntity
  8
DETAIL
100
AcDbLine
 10
-34.8891
 20
910.0478739999999
 30
0.0
 11
-212.833506
 21
910.0478739999999
 31
0.0
  0
LINE
  5
85D
330
F28
100
AcDbEntity
  8
DETAIL
100
AcDbLine
 10
-222.830383
 20
855.922649
 30
0.0
 11
-24.892223
 21
855.922649
 31
0.0
  0
LINE
  5
85E
330
F28
100
AcDbEntity
  8
DETAIL
100
AcDbLine
 10
-212.833506
 20
875.916402
 30
0.0
 11
-34.8891
 21
875.916402
 31
0.0
  0
LINE
  5
85F
330
F28
100
AcDbEntity
  8
DETAIL
100
AcDbLine
 10
-34.8891
 20
870.0603670000001
 30
0.0
 11
-212.833506
 21
870.0603670000001
 31
0.0
  0
LINE
  5
860
330
F28
100
AcDbEntity
  8
DETAIL
100
AcDbLine
 10
-212.833506
 20
835.9288949999999
 30
0.0
 11
-34.8891
 21
835.9288949999999
 31
0.0
  0
LINE
  5
861
330
F28
100
AcDbEntity
  8
DETAIL
100
AcDbLine
 10
-34.8891
 20
830.072861
 30
0.0
 11
-212.833506
 21
830.072861
 31
0.0
  0
LINE
  5
862
330
F28
100
AcDbEntity
  8
DETAIL
100
AcDbLine
 10
-222.830383
 20
945.894539
 30
0.0
 11
-222.830383
 21
935.897663
 31
0.0
  0
ARC
  5
863
330
F28
100
AcDbEntity
  8
DETAIL
100
AcDbCircle
 10
-212.833506
 20
945.894539
 30
0.0
 40
9.996876999999999
100
AcDbArc
 50
90.0
 51
180.0
  0
LWPOLYLINE
  5
864
330
F28
100
AcDbEntity
  8
DETAIL
100
AcDbPolyline
 90
        9
 70
     0
 43
0.0
 10
-212.833506
 20
950.035381
 10
-214.7838
 20
949.8995550000001
 10
-216.659145
 20
949.497297
 10
-218.387473
 20
948.844064
 10
-219.902365
 20
947.96496
 10
-221.145605
 20
946.8937699999999
 10
-222.069416
 20
945.6716569999999
 10
-222.638295
 20
944.3455880000001
 10
-222.830383
 20
942.966522
  0
LINE
  5
86F
330
F28
100
AcDbEntity
  8
DETAIL
100
AcDbLine
 10
-222.830383
 20
905.9070329999999
 30
0.0
 11
-222.830383
 21
895.910156
 31
0.0
  0
ARC
  5
870
330
F28
100
AcDbEntity
  8
DETAIL
100
AcDbCircle
 10
-212.833506
 20
905.9070329999999
 30
0.0
 40
9.996876999999999
100
AcDbArc
 50
90.0
 51
180.0
  0
LWPOLYLINE
  5
871
330
F28
100
AcDbEntity
  8
DETAIL
100
AcDbPolyline
 90
        9
 70
     0
 43
0.0
 10
-212.833506
 20
910.0478739999999
 10
-214.7838
 20
909.9120479999999
 10
-216.659145
 20
909.50979
 10
-218.387473
 20
908.856557
 10
-219.902365
 20
907.9774529999999
 10
-221.145605
 20
906.9062629999999
 10
-222.069416
 20
905.68415
 10
-222.638295
 20
904.3580809999999
 10
-222.830383
 20
902.979015
  0
LINE
  5
87C
330
F28
100
AcDbEntity
  8
DETAIL
100
AcDbLine
 10
-222.830383
 20
865.919526
 30
0.0
 11
-222.830383
 21
855.922649
 31
0.0
  0
ARC
  5
87D
330
F28
100
AcDbEntity
  8
DETAIL
100
AcDbCircle
 10
-212.833506
 20
865.919526
 30
0.0
 40
9.996876999999999
100
AcDbArc
 50
90.0
 51
180.0
  0
LWPOLYLINE
  5
87E
330
F28
100
AcDbEntity
  8
DETAIL
100
AcDbPolyline
 90
        9
 70
     0
 43
0.0
 10
-212.833506
 20
870.0603670000001
 10
-214.7838
 20
869.9245409999999
 10
-216.659145
 20
869.522283
 10
-218.387473
 20
868.8690499999999
 10
-219.902365
 20
867.989947
 10
-221.145605
 20
866.9187560000001
 10
-222.069416
 20
865.6966439999999
 10
-222.638295
 20
864.3705739999997
 10
-222.830383
 20
862.9915079999998
  0
ARC
  5
889
330
F28
100
AcDbEntity
  8
DETAIL
100
AcDbCircle
 10
-212.833506
 20
825.932019
 30
0.0
 40
9.996876999999999
100
AcDbArc
 50
90.0
 51
180.0
  0
LWPOLYLINE
  5
88A
330
F28
100
AcDbEntity
  8
DETAIL
100
AcDbPolyline
 90
        9
 70
     0
 43
0.0
 10
-212.833506
 20
830.072861
 10
-214.7838
 20
829.9370340000001
 10
-216.659145
 20
829.534776
 10
-218.387473
 20
828.8815429999997
 10
-219.902365
 20
828.00244
 10
-221.145605
 20
826.931249
 10
-222.069416
 20
825.7091370000001
 10
-222.638295
 20
824.3830669999999
 10
-222.830383
 20
823.0040009999999
  0
LINE
  5
895
330
F28
100
AcDbEntity
  8
DETAIL
100
AcDbLine
 10
-268.316172
 20
1104.65488
 30
0.0
 11
-268.316172
 21
1105.654567
 31
0.0
  0
LINE
  5
896
330
F28
100
AcDbEntity
  8
DETAIL
100
AcDbLine
 10
-268.316172
 20
1104.65488
 30
0.0
 11
-269.315859
 21
1104.65488
 31
0.0
  0
LINE
  5
897
330
F28
100
AcDbEntity
  8
DETAIL
100
AcDbLine
 10
-222.830383
 20
1025.999553
 30
0.0
 11
-222.830383
 21
1016.002677
 31
0.0
  0
ARC
  5
898
330
F28
100
AcDbEntity
  8
DETAIL
100
AcDbCircle
 10
-212.833506
 20
1025.999553
 30
0.0
 40
9.996876999999999
100
AcDbArc
 50
90.0
 51
180.0
  0
LWPOLYLINE
  5
899
330
F28
100
AcDbEntity
  8
DETAIL
100
AcDbPolyline
 90
        9
 70
     0
 43
0.0
 10
-212.833506
 20
1030.140395
 10
-214.7838
 20
1030.004569
 10
-216.659145
 20
1029.60231
 10
-218.387473
 20
1028.949078
 10
-219.902365
 20
1028.069974
 10
-221.145605
 20
1026.998784
 10
-222.069416
 20
1025.776671
 10
-222.638295
 20
1024.450602
 10
-222.830383
 20
1023.071536
  0
LINE
  5
8A4
330
F28
100
AcDbEntity
  8
DETAIL
100
AcDbLine
 10
-222.830383
 20
985.882046
 30
0.0
 11
-222.830383
 21
975.8851700000001
 31
0.0
  0
ARC
  5
8A5
330
F28
100
AcDbEntity
  8
DETAIL
100
AcDbCircle
 10
-212.833506
 20
985.882046
 30
0.0
 40
9.996876999999999
100
AcDbArc
 50
90.0
 51
180.0
  0
LWPOLYLINE
  5
8A6
330
F28
100
AcDbEntity
  8
DETAIL
100
AcDbPolyline
 90
        9
 70
     0
 43
0.0
 10
-212.833506
 20
990.022888
 10
-214.7838
 20
989.8870619999996
 10
-216.659145
 20
989.484803
 10
-218.387473
 20
988.831571
 10
-219.902365
 20
987.952467
 10
-221.145605
 20
986.8812769999999
 10
-222.069416
 20
985.6591640000001
 10
-222.638295
 20
984.333095
 10
-222.830383
 20
982.9540289999997
  0
ARC
  5
8B1
330
F28
100
AcDbEntity
  8
DETAIL
100
AcDbCircle
 10
35.089037
 20
945.894539
 30
0.0
 40
9.996876999999999
100
AcDbArc
 50
90.0
 51
180.0
  0
LWPOLYLINE
  5
8B2
330
F28
100
AcDbEntity
  8
DETAIL
100
AcDbPolyline
 90
        9
 70
     0
 43
0.0
 10
35.089037
 20
950.035381
 10
33.138743
 20
949.8995550000001
 10
31.263398
 20
949.497297
 10
29.53507
 20
948.844064
 10
28.020178
 20
947.96496
 10
26.776938
 20
946.8937699999999
 10
25.853128
 20
945.6716569999999
 10
25.284248
 20
944.3455880000001
 10
25.092161
 20
942.966522
  0
ARC
  5
8BD
330
F28
100
AcDbEntity
  8
DETAIL
100
AcDbCircle
 10
35.089037
 20
905.9070329999999
 30
0.0
 40
9.996876999999999
100
AcDbArc
 50
90.0
 51
180.0
  0
LWPOLYLINE
  5
8BE
330
F28
100
AcDbEntity
  8
DETAIL
100
AcDbPolyline
 90
        9
 70
     0
 43
0.0
 10
35.089037
 20
910.0478739999999
 10
33.138743
 20
909.9120479999999
 10
31.263398
 20
909.50979
 10
29.53507
 20
908.856557
 10
28.020178
 20
907.9774529999999
 10
26.776938
 20
906.9062629999999
 10
25.853128
 20
905.68415
 10
25.284248
 20
904.3580809999999
 10
25.092161
 20
902.979015
  0
ARC
  5
8C9
330
F28
100
AcDbEntity
  8
DETAIL
100
AcDbCircle
 10
35.089037
 20
865.919526
 30
0.0
 40
9.996876999999999
100
AcDbArc
 50
90.0
 51
180.0
  0
LWPOLYLINE
  5
8CA
330
F28
100
AcDbEntity
  8
DETAIL
100
AcDbPolyline
 90
        9
 70
     0
 43
0.0
 10
35.089037
 20
870.0603670000001
 10
33.138743
 20
869.9245409999999
 10
31.263398
 20
869.522283
 10
29.53507
 20
868.8690499999999
 10
28.020178
 20
867.989947
 10
26.776938
 20
866.9187560000001
 10
25.853128
 20
865.6966439999999
 10
25.284248
 20
864.3705739999997
 10
25.092161
 20
862.9915079999998
  0
ARC
  5
8D5
330
F28
100
AcDbEntity
  8
DETAIL
100
AcDbCircle
 10
35.089037
 20
825.932019
 30
0.0
 40
9.996876999999999
100
AcDbArc
 50
90.0
 51
180.0
  0
LWPOLYLINE
  5
8D6
330
F28
100
AcDbEntity
  8
DETAIL
100
AcDbPolyline
 90
        9
 70
     0
 43
0.0
 10
35.089037
 20
830.072861
 10
33.138743
 20
829.9370340000001
 10
31.263398
 20
829.534776
 10
29.53507
 20
828.8815429999997
 10
28.020178
 20
828.00244
 10
26.776938
 20
826.931249
 10
25.853128
 20
825.7091370000001
 10
25.284248
 20
824.3830669999999
 10
25.092161
 20
823.0040009999999
  0
LINE
  5
8E1
330
F28
100
AcDbEntity
  8
DETAIL
100
AcDbLine
 10
-24.892223
 20
945.894539
 30
0.0
 11
-24.892223
 21
935.897663
 31
0.0
  0
ARC
  5
8E2
330
F28
100
AcDbEntity
  8
DETAIL
100
AcDbCircle
 10
-34.8891
 20
945.894539
 30
0.0
 40
9.996876999999999
100
AcDbArc
 50
0.0
 51
90.0
  0
LWPOLYLINE
  5
8E3
330
F28
100
AcDbEntity
  8
DETAIL
100
AcDbPolyline
 90
        9
 70
     0
 43
0.0
 10
-24.892223
 20
942.966522
 10
-25.08431
 20
944.3455880000001
 10
-25.65319
 20
945.6716569999999
 10
-26.577001
 20
946.8937699999999
 10
-27.82024
 20
947.96496
 10
-29.335133
 20
948.844064
 10
-31.063461
 20
949.497297
 10
-32.938806
 20
949.8995550000001
 10
-34.8891
 20
950.035381
  0
LINE
  5
8EE
330
F28
100
AcDbEntity
  8
DETAIL
100
AcDbLine
 10
-24.892223
 20
905.9070329999999
 30
0.0
 11
-24.892223
 21
895.910156
 31
0.0
  0
ARC
  5
8EF
330
F28
100
AcDbEntity
  8
DETAIL
100
AcDbCircle
 10
-34.8891
 20
905.9070329999999
 30
0.0
 40
9.996876999999999
100
AcDbArc
 50
0.0
 51
90.0
  0
LWPOLYLINE
  5
8F0
330
F28
100
AcDbEntity
  8
DETAIL
100
AcDbPolyline
 90
        9
 70
     0
 43
0.0
 10
-24.892223
 20
902.979015
 10
-25.08431
 20
904.3580809999999
 10
-25.65319
 20
905.68415
 10
-26.577001
 20
906.9062629999999
 10
-27.82024
 20
907.9774529999999
 10
-29.335133
 20
908.856557
 10
-31.063461
 20
909.50979
 10
-32.938806
 20
909.9120479999999
 10
-34.8891
 20
910.0478739999999
  0
LINE
  5
8FB
330
F28
100
AcDbEntity
  8
DETAIL
100
AcDbLine
 10
-24.892223
 20
865.919526
 30
0.0
 11
-24.892223
 21
855.922649
 31
0.0
  0
ARC
  5
8FC
330
F28
100
AcDbEntity
  8
DETAIL
100
AcDbCircle
 10
-34.8891
 20
865.919526
 30
0.0
 40
9.996876999999999
100
AcDbArc
 50
0.0
 51
90.0
  0
LWPOLYLINE
  5
8FD
330
F28
100
AcDbEntity
  8
DETAIL
100
AcDbPolyline
 90
        9
 70
     0
 43
0.0
 10
-24.892223
 20
862.9915079999998
 10
-25.08431
 20
864.3705739999997
 10
-25.65319
 20
865.6966439999999
 10
-26.577001
 20
866.9187560000001
 10
-27.82024
 20
867.989947
 10
-29.335133
 20
868.8690499999999
 10
-31.063461
 20
869.522283
 10
-32.938806
 20
869.9245409999999
 10
-34.8891
 20
870.0603670000001
  0
ARC
  5
908
330
F28
100
AcDbEntity
  8
DETAIL
100
AcDbCircle
 10
-34.8891
 20
825.932019
 30
0.0
 40
9.996876999999999
100
AcDbArc
 50
0.0
 51
90.0
  0
LWPOLYLINE
  5
909
330
F28
100
AcDbEntity
  8
DETAIL
100
AcDbPolyline
 90
        9
 70
     0
 43
0.0
 10
-24.892223
 20
823.0040009999999
 10
-25.08431
 20
824.3830669999999
 10
-25.65319
 20
825.7091370000001
 10
-26.577001
 20
826.931249
 10
-27.82024
 20
828.00244
 10
-29.335133
 20
828.8815429999997
 10
-31.063461
 20
829.534776
 10
-32.938806
 20
829.9370340000001
 10
-34.8891
 20
830.072861
  0
LINE
  5
914
330
F28
100
AcDbEntity
  8
DETAIL
100
AcDbLine
 10
25.092161
 20
945.894539
 30
0.0
 11
25.092161
 21
935.897663
 31
0.0
  0
LINE
  5
915
330
F28
100
AcDbEntity
  8
DETAIL
100
AcDbLine
 10
25.092161
 20
905.9070329999999
 30
0.0
 11
25.092161
 21
895.910156
 31
0.0
  0
LINE
  5
916
330
F28
100
AcDbEntity
  8
DETAIL
100
AcDbLine
 10
25.092161
 20
865.919526
 30
0.0
 11
25.092161
 21
855.922649
 31
0.0
  0
ARC
  5
917
330
F28
100
AcDbEntity
  8
DETAIL
100
AcDbCircle
 10
35.089037
 20
1025.999553
 30
0.0
 40
9.996876999999999
100
AcDbArc
 50
90.0
 51
180.0
  0
LWPOLYLINE
  5
918
330
F28
100
AcDbEntity
  8
DETAIL
100
AcDbPolyline
 90
        9
 70
     0
 43
0.0
 10
35.089037
 20
1030.140395
 10
33.138743
 20
1030.004569
 10
31.263398
 20
1029.60231
 10
29.53507
 20
1028.949078
 10
28.020178
 20
1028.069974
 10
26.776938
 20
1026.998784
 10
25.853128
 20
1025.776671
 10
25.284248
 20
1024.450602
 10
25.092161
 20
1023.071536
  0
ARC
  5
923
330
F28
100
AcDbEntity
  8
DETAIL
100
AcDbCircle
 10
35.089037
 20
985.882046
 30
0.0
 40
9.996876999999999
100
AcDbArc
 50
90.0
 51
180.0
  0
LWPOLYLINE
  5
924
330
F28
100
AcDbEntity
  8
DETAIL
100
AcDbPolyline
 90
        9
 70
     0
 43
0.0
 10
35.089037
 20
990.022888
 10
33.138743
 20
989.8870619999996
 10
31.263398
 20
989.484803
 10
29.53507
 20
988.831571
 10
28.020178
 20
987.952467
 10
26.776938
 20
986.8812769999999
 10
25.853128
 20
985.6591640000001
 10
25.284248
 20
984.333095
 10
25.092161
 20
982.9540289999997
  0
LINE
  5
92F
330
F28
100
AcDbEntity
  8
DETAIL
100
AcDbLine
 10
-24.892223
 20
1025.999553
 30
0.0
 11
-24.892223
 21
1016.002677
 31
0.0
  0
ARC
  5
930
330
F28
100
AcDbEntity
  8
DETAIL
100
AcDbCircle
 10
-34.8891
 20
1025.999553
 30
0.0
 40
9.996876999999999
100
AcDbArc
 50
0.0
 51
90.0
  0
LWPOLYLINE
  5
931
330
F28
100
AcDbEntity
  8
DETAIL
100
AcDbPolyline
 90
        9
 70
     0
 43
0.0
 10
-24.892223
 20
1023.071536
 10
-25.08431
 20
1024.450602
 10
-25.65319
 20
1025.776671
 10
-26.577001
 20
1026.998784
 10
-27.82024
 20
1028.069974
 10
-29.335133
 20
1028.949078
 10
-31.063461
 20
1029.60231
 10
-32.938806
 20
1030.004569
 10
-34.8891
 20
1030.140395
  0
LINE
  5
93C
330
F28
100
AcDbEntity
  8
DETAIL
100
AcDbLine
 10
-24.892223
 20
985.882046
 30
0.0
 11
-24.892223
 21
975.8851700000001
 31
0.0
  0
ARC
  5
93D
330
F28
100
AcDbEntity
  8
DETAIL
100
AcDbCircle
 10
-34.8891
 20
985.882046
 30
0.0
 40
9.996876999999999
100
AcDbArc
 50
0.0
 51
90.0
  0
LWPOLYLINE
  5
93E
330
F28
100
AcDbEntity
  8
DETAIL
100
AcDbPolyline
 90
        9
 70
     0
 43
0.0
 10
-24.892223
 20
982.9540289999997
 10
-25.08431
 20
984.333095
 10
-25.65319
 20
985.6591640000001
 10
-26.577001
 20
986.8812769999999
 10
-27.82024
 20
987.952467
 10
-29.335133
 20
988.831571
 10
-31.063461
 20
989.484803
 10
-32.938806
 20
989.8870619999996
 10
-34.8891
 20
990.022888
  0
LINE
  5
949
330
F28
100
AcDbEntity
  8
DETAIL
100
AcDbLine
 10
25.092161
 20
1025.999553
 30
0.0
 11
25.092161
 21
1016.002677
 31
0.0
  0
LINE
  5
94A
330
F28
100
AcDbEntity
  8
DETAIL
100
AcDbLine
 10
25.092161
 20
985.882046
 30
0.0
 11
25.092161
 21
975.8851700000001
 31
0.0
  0
LINE
  5
94B
330
F28
100
AcDbEntity
  8
DETAIL
100
AcDbLine
 10
-269.015953
 20
1126.448071
 30
0.0
 11
-269.815703
 21
1126.448071
 31
0.0
  0
LINE
  5
94C
330
F28
100
AcDbEntity
  8
DETAIL
100
AcDbLine
 10
-269.015953
 20
1126.448071
 30
0.0
 11
-269.015953
 21
1125.648321
 31
0.0
  0
LINE
  5
94D
330
F28
100
AcDbEntity
  8
DETAIL
100
AcDbLine
 10
-270.015641
 20
1729.95952
 30
0.0
 11
-270.015641
 21
1726.960457
 31
0.0
  0
LINE
  5
94E
330
F28
100
AcDbEntity
  8
DETAIL
100
AcDbLine
 10
-271.015328
 20
1550.515582
 30
0.0
 11
-271.015328
 21
1728.459988
 31
0.0
  0
LINE
  5
94F
330
F28
100
AcDbEntity
  8
DETAIL
100
AcDbLine
 10
-320.000024
 20
80.0
 30
0.0
 11
-320.000024
 21
1553.998751
 31
0.0
  0
LINE
  5
950
330
F28
100
AcDbEntity
  8
DETAIL
100
AcDbLine
 10
-271.015328
 20
1624.49247
 30
0.0
 11
-271.015328
 21
1552.514958
 31
0.0
  0
LINE
  5
951
330
F28
100
AcDbEntity
  8
DETAIL
100
AcDbLine
 10
-270.015641
 20
1627.259555
 30
0.0
 11
-270.015641
 21
1552.514958
 31
0.0
  0
LINE
  5
952
330
F28
100
AcDbEntity
  8
DETAIL
100
AcDbLine
 10
-276.513611
 20
1555.014177
 30
0.0
 11
-276.513611
 21
1723.961394
 31
0.0
  0
LINE
  5
953
330
F28
100
AcDbEntity
  8
DETAIL
100
AcDbLine
 10
-303.005334
 20
1555.014177
 30
0.0
 11
-303.005334
 21
1590.503089
 31
0.0
  0
LINE
  5
954
330
F28
100
AcDbEntity
  8
DETAIL
100
AcDbLine
 10
-307.803835
 20
1550.0
 30
0.0
 11
-319.000337
 21
1550.0
 31
0.0
  0
LINE
  5
955
330
F28
100
AcDbEntity
  8
DETAIL
100
AcDbLine
 10
-270.015641
 20
1550.0
 30
0.0
 11
-270.015641
 21
1556.513708
 31
0.0
  0
LINE
  5
956
330
F28
100
AcDbEntity
  8
DETAIL
100
AcDbLine
 10
-318.000649
 20
1550.0
 30
0.0
 11
-272.015016
 21
1550.0
 31
0.0
  0
ARC
  5
957
330
F28
100
AcDbEntity
  8
DETAIL
100
AcDbCircle
 10
-272.015016
 20
1553.998751
 30
0.0
 40
0.9996879999999999
100
AcDbArc
 50
0.0
 51
90.0
  0
ARC
  5
958
330
F28
100
AcDbEntity
  8
DETAIL
100
AcDbCircle
 10
-319.000337
 20
1553.998751
 30
0.0
 40
0.9996879999999999
100
AcDbArc
 50
90.0
 51
180.0
  0
ARC
  5
959
330
F28
100
AcDbEntity
  8
DETAIL
100
AcDbCircle
 10
-272.015016
 20
1550.999688
 30
0.0
 40
0.9996879999999999
100
AcDbArc
 50
270.0
 51
0.0
  0
LINE
  5
95A
330
F28
100
AcDbEntity
  8
DETAIL
100
AcDbLine
 10
-319.000337
 20
1554.998438
 30
0.0
 11
-272.015016
 21
1554.998438
 31
0.0
  0
ARC
  5
95B
330
F28
100
AcDbEntity
  8
DETAIL
100
AcDbCircle
 10
-303.505178
 20
1555.498282
 30
0.0
 40
0.499844
100
AcDbArc
 50
270.0
 51
0.0
  0
ARC
  5
95C
330
F28
100
AcDbEntity
  8
DETAIL
100
AcDbCircle
 10
-277.013454
 20
1555.498282
 30
0.0
 40
0.499844
100
AcDbArc
 50
270.0
 51
0.0
  0
ARC
  5
95D
330
F28
100
AcDbEntity
  8
DETAIL
100
AcDbCircle
 10
-271.015328
 20
1628.991065
 30
0.0
 40
1.999374999999997
100
AcDbArc
 50
270.0
 51
0.0
  0
ARC
  5
95E
330
F28
100
AcDbEntity
  8
DETAIL
100
AcDbCircle
 10
-271.015328
 20
1649.984506
 30
0.0
 40
1.999374999999997
100
AcDbArc
 50
0.0
 51
90.0
  0
ARC
  5
95F
330
F28
100
AcDbEntity
  8
DETAIL
100
AcDbCircle
 10
-271.015328
 20
1673.97701
 30
0.0
 40
1.999374999999997
100
AcDbArc
 50
270.0
 51
0.0
  0
ARC
  5
960
330
F28
100
AcDbEntity
  8
DETAIL
100
AcDbCircle
 10
-271.015328
 20
1694.970451
 30
0.0
 40
1.999374999999997
100
AcDbArc
 50
0.0
 51
90.0
  0
LINE
  5
961
330
F28
100
AcDbEntity
  8
DETAIL
100
AcDbLine
 10
-269.015953
 20
1673.97701
 30
0.0
 11
-269.015953
 21
1694.970451
 31
0.0
  0
LINE
  5
962
330
F28
100
AcDbEntity
  8
DETAIL
100
AcDbLine
 10
-269.015953
 20
1628.991065
 30
0.0
 11
-269.015953
 21
1649.984506
 31
0.0
  0
LINE
  5
963
330
F28
100
AcDbEntity
  8
DETAIL
100
AcDbLine
 10
-269.015953
 20
1636.488722
 30
0.0
 11
-266.01689
 21
1636.488722
 31
0.0
  0
LINE
  5
964
330
F28
100
AcDbEntity
  8
DETAIL
100
AcDbLine
 10
-269.015953
 20
1642.486848
 30
0.0
 11
-266.01689
 21
1642.486848
 31
0.0
  0
LINE
  5
965
330
F28
100
AcDbEntity
  8
DETAIL
100
AcDbLine
 10
-266.01689
 20
1634.293458
 30
0.0
 11
-266.01689
 21
1644.682112
 31
0.0
  0
LINE
  5
966
330
F28
100
AcDbEntity
  8
DETAIL
100
AcDbLine
 10
-269.015953
 20
1681.474667
 30
0.0
 11
-266.01689
 21
1681.474667
 31
0.0
  0
LINE
  5
967
330
F28
100
AcDbEntity
  8
DETAIL
100
AcDbLine
 10
-269.015953
 20
1687.472793
 30
0.0
 11
-266.01689
 21
1687.472793
 31
0.0
  0
LINE
  5
968
330
F28
100
AcDbEntity
  8
DETAIL
100
AcDbLine
 10
-266.01689
 20
1679.279403
 30
0.0
 11
-266.01689
 21
1689.668058
 31
0.0
  0
LINE
  5
969
330
F28
100
AcDbEntity
  8
DETAIL
100
AcDbLine
 10
-270.015641
 20
1590.503089
 30
0.0
 11
-270.015641
 21
1597.500903
 31
0.0
  0
LINE
  5
96A
330
F28
100
AcDbEntity
  8
DETAIL
100
AcDbLine
 10
-270.015641
 20
1624.49247
 30
0.0
 11
-271.015328
 21
1624.49247
 31
0.0
  0
ARC
  5
96B
330
F28
100
AcDbEntity
  8
DETAIL
100
AcDbCircle
 10
-319.000337
 20
1725.460925
 30
0.0
 40
0.9996879999999999
100
AcDbArc
 50
180.0
 51
270.0
  0
ARC
  5
96C
330
F28
100
AcDbEntity
  8
DETAIL
100
AcDbCircle
 10
-272.015016
 20
1725.460925
 30
0.0
 40
0.9996879999999999
100
AcDbArc
 50
270.0
 51
0.0
  0
ARC
  5
96D
330
F28
100
AcDbEntity
  8
DETAIL
100
AcDbCircle
 10
-277.013454
 20
1723.961394
 30
0.0
 40
0.499844
100
AcDbArc
 50
0.0
 51
90.0
  0
LINE
  5
96E
330
F28
100
AcDbEntity
  8
DETAIL
100
AcDbLine
 10
-319.000337
 20
1724.461237
 30
0.0
 11
-272.015016
 21
1724.461237
 31
0.0
  0
ARC
  5
96F
330
F28
100
AcDbEntity
  8
DETAIL
100
AcDbCircle
 10
-303.505178
 20
1723.961394
 30
0.0
 40
0.499844
100
AcDbArc
 50
0.0
 51
90.0
  0
ARC
  5
970
330
F28
100
AcDbEntity
  8
DETAIL
100
AcDbCircle
 10
-309.00346
 20
1639.487785
 30
0.0
 40
3.998751
100
AcDbArc
 50
90.0
 51
270.0
  0
LINE
  5
971
330
F28
100
AcDbEntity
  8
DETAIL
100
AcDbLine
 10
-277.013454
 20
1643.486536
 30
0.0
 11
-309.00346
 21
1643.486536
 31
0.0
  0
ARC
  5
972
330
F28
100
AcDbEntity
  8
DETAIL
100
AcDbCircle
 10
-277.013454
 20
1643.98638
 30
0.0
 40
0.499844
100
AcDbArc
 50
270.0
 51
0.0
  0
LINE
  5
973
330
F28
100
AcDbEntity
  8
DETAIL
100
AcDbLine
 10
-277.013454
 20
1635.489034
 30
0.0
 11
-309.00346
 21
1635.489034
 31
0.0
  0
ARC
  5
974
330
F28
100
AcDbEntity
  8
DETAIL
100
AcDbCircle
 10
-277.013454
 20
1634.989191
 30
0.0
 40
0.499844
100
AcDbArc
 50
0.0
 51
90.0
  0
ARC
  5
975
330
F28
100
AcDbEntity
  8
DETAIL
100
AcDbCircle
 10
-277.013454
 20
1688.972325
 30
0.0
 40
0.499844
100
AcDbArc
 50
270.0
 51
0.0
  0
ARC
  5
976
330
F28
100
AcDbEntity
  8
DETAIL
100
AcDbCircle
 10
-277.013454
 20
1679.975136
 30
0.0
 40
0.499844
100
AcDbArc
 50
0.0
 51
90.0
  0
ARC
  5
977
330
F28
100
AcDbEntity
  8
DETAIL
100
AcDbCircle
 10
-309.00346
 20
1684.47373
 30
0.0
 40
3.998751
100
AcDbArc
 50
90.0
 51
270.0
  0
LINE
  5
978
330
F28
100
AcDbEntity
  8
DETAIL
100
AcDbLine
 10
-277.013454
 20
1688.472480999999
 30
0.0
 11
-309.00346
 21
1688.472480999999
 31
0.0
  0
LINE
  5
979
330
F28
100
AcDbEntity
  8
DETAIL
100
AcDbLine
 10
-277.013454
 20
1680.47498
 30
0.0
 11
-309.00346
 21
1680.47498
 31
0.0
  0
ARC
  5
97A
330
F28
100
AcDbEntity
  8
DETAIL
100
AcDbCircle
 10
-277.013454
 20
1599.000434
 30
0.0
 40
0.499844
100
AcDbArc
 50
270.0
 51
0.0
  0
ARC
  5
97B
330
F28
100
AcDbEntity
  8
DETAIL
100
AcDbCircle
 10
-277.013454
 20
1590.003245
 30
0.0
 40
0.499844
100
AcDbArc
 50
0.0
 51
90.0
  0
ARC
  5
97C
330
F28
100
AcDbEntity
  8
DETAIL
100
AcDbCircle
 10
-309.00346
 20
1594.50184
 30
0.0
 40
3.998751
100
AcDbArc
 50
90.0
 51
270.0
  0
LINE
  5
97D
330
F28
100
AcDbEntity
  8
DETAIL
100
AcDbLine
 10
-277.013454
 20
1598.500591
 30
0.0
 11
-309.00346
 21
1598.500591
 31
0.0
  0
LINE
  5
97E
330
F28
100
AcDbEntity
  8
DETAIL
100
AcDbLine
 10
-277.013454
 20
1590.503089
 30
0.0
 11
-309.00346
 21
1590.503089
 31
0.0
  0
LINE
  5
97F
330
F28
100
AcDbEntity
  8
DETAIL
100
AcDbLine
 10
-303.005334
 20
1643.486536
 30
0.0
 11
-303.005334
 21
1680.47498
 31
0.0
  0
LINE
  5
980
330
F28
100
AcDbEntity
  8
DETAIL
100
AcDbLine
 10
-303.005334
 20
1688.472480999999
 30
0.0
 11
-303.005334
 21
1723.961394
 31
0.0
  0
LINE
  5
981
330
F28
100
AcDbEntity
  8
DETAIL
100
AcDbLine
 10
-303.005334
 20
1598.500591
 30
0.0
 11
-303.005334
 21
1635.489034
 31
0.0
  0
LINE
  5
982
330
F28
100
AcDbEntity
  8
DETAIL
100
AcDbLine
 10
-272.51486
 20
1729.95952
 30
0.0
 11
-270.015641
 21
1729.95952
 31
0.0
  0
LINE
  5
983
330
F28
100
AcDbEntity
  8
DETAIL
100
AcDbLine
 10
-272.51486
 20
1750.0
 30
0.0
 11
-272.51486
 21
1729.95952
 31
0.0
  0
LINE
  5
984
330
F28
100
AcDbEntity
  8
DETAIL
100
AcDbLine
 10
-319.000337
 20
1729.459676
 30
0.0
 11
-318.000649
 21
1729.459676
 31
0.0
  0
ARC
  5
985
330
F28
100
AcDbEntity
  8
DETAIL
100
AcDbCircle
 10
-272.015016
 20
1728.459988
 30
0.0
 40
0.9996879999999999
100
AcDbArc
 50
0.0
 51
90.0
  0
LINE
  5
986
330
F28
100
AcDbEntity
  8
DETAIL
100
AcDbLine
 10
-318.000649
 20
1729.459676
 30
0.0
 11
-272.015016
 21
1729.459676
 31
0.0
  0
ARC
  5
987
330
F28
100
AcDbEntity
  8
DETAIL
100
AcDbCircle
 10
-319.000337
 20
1728.459988
 30
0.0
 40
0.9996879999999999
100
AcDbArc
 50
90.0
 51
180.0
  0
LINE
  5
988
330
F28
100
AcDbEntity
  8
DETAIL
100
AcDbLine
 10
270.015641
 20
1550.0
 30
0.0
 11
270.015641
 21
1126.448071
 31
0.0
  0
LINE
  5
989
330
F28
100
AcDbEntity
  8
DETAIL
100
AcDbLine
 10
270.515485
 20
1104.65488
 30
0.0
 11
270.515485
 21
595.813854
 31
0.0
  0
LINE
  5
98A
330
F28
100
AcDbEntity
  8
DETAIL
100
AcDbLine
 10
223.03032
 20
825.932019
 30
0.0
 11
223.03032
 21
815.935142
 31
0.0
  0
LINE
  5
98B
330
F28
100
AcDbEntity
  8
DETAIL
100
AcDbLine
 10
415.0003529999998
 20
242.0
 30
0.0
 11
320.000024
 21
242.0
 31
0.0
  0
ARC
  5
98C
330
F28
100
AcDbEntity
  8
DETAIL
100
AcDbCircle
 10
213.033443
 20
665.981991
 30
0.0
 40
9.996876999999999
100
AcDbArc
 50
0.0
 51
90.0
  0
LINE
  5
98D
330
F28
100
AcDbEntity
  8
DETAIL
100
AcDbLine
 10
269.515797
 20
595.813854
 30
0.0
 11
269.515797
 21
594.814166
 31
0.0
  0
LINE
  5
98E
330
F28
100
AcDbEntity
  8
DETAIL
100
AcDbLine
 10
269.515797
 20
595.813854
 30
0.0
 11
270.515485
 21
595.813854
 31
0.0
  0
LINE
  5
98F
330
F28
100
AcDbEntity
  8
DETAIL
100
AcDbLine
 10
269.215891
 20
593.9613009999998
 30
0.0
 11
269.215891
 21
594.7610509999996
 31
0.0
  0
LINE
  5
990
330
F28
100
AcDbEntity
  8
DETAIL
100
AcDbLine
 10
269.215891
 20
593.9613009999998
 30
0.0
 11
270.015641
 21
593.9613009999998
 31
0.0
  0
LINE
  5
991
330
F28
100
AcDbEntity
  8
DETAIL
100
AcDbLine
 10
223.03032
 20
665.981991
 30
0.0
 11
223.03032
 21
655.9851139999997
 31
0.0
  0
LWPOLYLINE
  5
992
330
F28
100
AcDbEntity
  8
DETAIL
100
AcDbPolyline
 90
        9
 70
     0
 43
0.0
 10
223.03032
 20
663.053973
 10
222.838233
 20
664.433039
 10
222.269353
 20
665.7591089999997
 10
221.345543
 20
666.9812209999999
 10
220.102303
 20
668.052412
 10
218.58741
 20
668.9315149999997
 10
216.859082
 20
669.584748
 10
214.983737
 20
669.9870070000002
 10
213.033443
 20
670.122833
  0
LINE
  5
99D
330
F28
100
AcDbEntity
  8
DETAIL
100
AcDbLine
 10
223.03032
 20
625.9944839999997
 30
0.0
 11
223.03032
 21
615.9976069999999
 31
0.0
  0
ARC
  5
99E
330
F28
100
AcDbEntity
  8
DETAIL
100
AcDbCircle
 10
213.033443
 20
625.9944839999997
 30
0.0
 40
9.996876999999999
100
AcDbArc
 50
0.0
 51
90.0
  0
LWPOLYLINE
  5
99F
330
F28
100
AcDbEntity
  8
DETAIL
100
AcDbPolyline
 90
        9
 70
     0
 43
0.0
 10
223.03032
 20
623.066466
 10
222.838233
 20
624.4455320000001
 10
222.269353
 20
625.7716019999998
 10
221.345543
 20
626.9937139999997
 10
220.102303
 20
628.064905
 10
218.58741
 20
628.944008
 10
216.859082
 20
629.597241
 10
214.983737
 20
629.9995
 10
213.033443
 20
630.1353259999999
  0
LINE
  5
9AA
330
F28
100
AcDbEntity
  8
DETAIL
100
AcDbLine
 10
223.03032
 20
785.944512
 30
0.0
 11
223.03032
 21
775.9476349999999
 31
0.0
  0
ARC
  5
9AB
330
F28
100
AcDbEntity
  8
DETAIL
100
AcDbCircle
 10
213.033443
 20
785.944512
 30
0.0
 40
9.996876999999999
100
AcDbArc
 50
0.0
 51
90.0
  0
LWPOLYLINE
  5
9AC
330
F28
100
AcDbEntity
  8
DETAIL
100
AcDbPolyline
 90
        9
 70
     0
 43
0.0
 10
223.03032
 20
783.0164940000003
 10
222.838233
 20
784.3955599999997
 10
222.269353
 20
785.72163
 10
221.345543
 20
786.943742
 10
220.102303
 20
788.014933
 10
218.58741
 20
788.894036
 10
216.859082
 20
789.547269
 10
214.983737
 20
789.949527
 10
213.033443
 20
790.085354
  0
LINE
  5
9B7
330
F28
100
AcDbEntity
  8
DETAIL
100
AcDbLine
 10
223.03032
 20
745.9570049999999
 30
0.0
 11
223.03032
 21
735.960128
 31
0.0
  0
ARC
  5
9B8
330
F28
100
AcDbEntity
  8
DETAIL
100
AcDbCircle
 10
213.033443
 20
745.9570049999999
 30
0.0
 40
9.996876999999999
100
AcDbArc
 50
0.0
 51
90.0
  0
LWPOLYLINE
  5
9B9
330
F28
100
AcDbEntity
  8
DETAIL
100
AcDbPolyline
 90
        9
 70
     0
 43
0.0
 10
223.03032
 20
743.028987
 10
222.838233
 20
744.4080529999999
 10
222.269353
 20
745.734123
 10
221.345543
 20
746.956235
 10
220.102303
 20
748.0274259999996
 10
218.58741
 20
748.906529
 10
216.859082
 20
749.5597619999998
 10
214.983737
 20
749.96202
 10
213.033443
 20
750.0978469999997
  0
LINE
  5
9C4
330
F28
100
AcDbEntity
  8
DETAIL
100
AcDbLine
 10
223.03032
 20
705.969498
 30
0.0
 11
223.03032
 21
695.972621
 31
0.0
  0
ARC
  5
9C5
330
F28
100
AcDbEntity
  8
DETAIL
100
AcDbCircle
 10
213.033443
 20
705.969498
 30
0.0
 40
9.996876999999999
100
AcDbArc
 50
0.0
 51
90.0
  0
LWPOLYLINE
  5
9C6
330
F28
100
AcDbEntity
  8
DETAIL
100
AcDbPolyline
 90
        9
 70
     0
 43
0.0
 10
223.03032
 20
703.0414799999999
 10
222.838233
 20
704.4205459999997
 10
222.269353
 20
705.746616
 10
221.345543
 20
706.9687280000001
 10
220.102303
 20
708.039919
 10
218.58741
 20
708.9190219999997
 10
216.859082
 20
709.5722549999996
 10
214.983737
 20
709.974514
 10
213.033443
 20
710.11034
  0
LINE
  5
9D1
330
F28
100
AcDbEntity
  8
DETAIL
100
AcDbLine
 10
254.020638
 20
1125.648321
 30
0.0
 11
254.020638
 21
1105.654567
 31
0.0
  0
LINE
  5
9D2
330
F28
100
AcDbEntity
  8
DETAIL
100
AcDbLine
 10
223.03032
 20
945.894539
 30
0.0
 11
223.03032
 21
935.897663
 31
0.0
  0
ARC
  5
9D3
330
F28
100
AcDbEntity
  8
DETAIL
100
AcDbCircle
 10
213.033443
 20
945.894539
 30
0.0
 40
9.996876999999999
100
AcDbArc
 50
0.0
 51
90.0
  0
LWPOLYLINE
  5
9D4
330
F28
100
AcDbEntity
  8
DETAIL
100
AcDbPolyline
 90
        9
 70
     0
 43
0.0
 10
223.03032
 20
942.966522
 10
222.838233
 20
944.3455880000001
 10
222.269353
 20
945.6716569999999
 10
221.345543
 20
946.8937699999999
 10
220.102303
 20
947.96496
 10
218.58741
 20
948.844064
 10
216.859082
 20
949.497297
 10
214.983737
 20
949.8995550000001
 10
213.033443
 20
950.035381
  0
LINE
  5
9DF
330
F28
100
AcDbEntity
  8
DETAIL
100
AcDbLine
 10
223.03032
 20
905.9070329999999
 30
0.0
 11
223.03032
 21
895.910156
 31
0.0
  0
ARC
  5
9E0
330
F28
100
AcDbEntity
  8
DETAIL
100
AcDbCircle
 10
213.033443
 20
905.9070329999999
 30
0.0
 40
9.996876999999999
100
AcDbArc
 50
0.0
 51
90.0
  0
LWPOLYLINE
  5
9E1
330
F28
100
AcDbEntity
  8
DETAIL
100
AcDbPolyline
 90
        9
 70
     0
 43
0.0
 10
223.03032
 20
902.979015
 10
222.838233
 20
904.3580809999999
 10
222.269353
 20
905.68415
 10
221.345543
 20
906.9062629999999
 10
220.102303
 20
907.9774529999999
 10
218.58741
 20
908.856557
 10
216.859082
 20
909.50979
 10
214.983737
 20
909.9120479999999
 10
213.033443
 20
910.0478739999999
  0
LINE
  5
9EC
330
F28
100
AcDbEntity
  8
DETAIL
100
AcDbLine
 10
223.03032
 20
865.919526
 30
0.0
 11
223.03032
 21
855.922649
 31
0.0
  0
ARC
  5
9ED
330
F28
100
AcDbEntity
  8
DETAIL
100
AcDbCircle
 10
213.033443
 20
865.919526
 30
0.0
 40
9.996876999999999
100
AcDbArc
 50
0.0
 51
90.0
  0
LWPOLYLINE
  5
9EE
330
F28
100
AcDbEntity
  8
DETAIL
100
AcDbPolyline
 90
        9
 70
     0
 43
0.0
 10
223.03032
 20
862.9915079999998
 10
222.838233
 20
864.3705739999997
 10
222.269353
 20
865.6966439999999
 10
221.345543
 20
866.9187560000001
 10
220.102303
 20
867.989947
 10
218.58741
 20
868.8690499999999
 10
216.859082
 20
869.522283
 10
214.983737
 20
869.9245409999999
 10
213.033443
 20
870.0603670000001
  0
ARC
  5
9F9
330
F28
100
AcDbEntity
  8
DETAIL
100
AcDbCircle
 10
213.033443
 20
825.932019
 30
0.0
 40
9.996876999999999
100
AcDbArc
 50
0.0
 51
90.0
  0
LWPOLYLINE
  5
9FA
330
F28
100
AcDbEntity
  8
DETAIL
100
AcDbPolyline
 90
        9
 70
     0
 43
0.0
 10
223.03032
 20
823.0040009999999
 10
222.838233
 20
824.3830669999999
 10
222.269353
 20
825.7091370000001
 10
221.345543
 20
826.931249
 10
220.102303
 20
828.00244
 10
218.58741
 20
828.8815429999997
 10
216.859082
 20
829.534776
 10
214.983737
 20
829.9370340000001
 10
213.033443
 20
830.072861
  0
LINE
  5
A05
330
F28
100
AcDbEntity
  8
DETAIL
100
AcDbLine
 10
269.515797
 20
1104.65488
 30
0.0
 11
269.515797
 21
1105.654567
 31
0.0
  0
LINE
  5
A06
330
F28
100
AcDbEntity
  8
DETAIL
100
AcDbLine
 10
269.515797
 20
1104.65488
 30
0.0
 11
270.515485
 21
1104.65488
 31
0.0
  0
LINE
  5
A07
330
F28
100
AcDbEntity
  8
DETAIL
100
AcDbLine
 10
223.03032
 20
1025.999553
 30
0.0
 11
223.03032
 21
1016.002677
 31
0.0
  0
ARC
  5
A08
330
F28
100
AcDbEntity
  8
DETAIL
100
AcDbCircle
 10
213.033443
 20
1025.999553
 30
0.0
 40
9.996876999999999
100
AcDbArc
 50
0.0
 51
90.0
  0
LWPOLYLINE
  5
A09
330
F28
100
AcDbEntity
  8
DETAIL
100
AcDbPolyline
 90
        9
 70
     0
 43
0.0
 10
223.03032
 20
1023.071536
 10
222.838233
 20
1024.450602
 10
222.269353
 20
1025.776671
 10
221.345543
 20
1026.998784
 10
220.102303
 20
1028.069974
 10
218.58741
 20
1028.949078
 10
216.859082
 20
1029.60231
 10
214.983737
 20
1030.004569
 10
213.033443
 20
1030.140395
  0
LINE
  5
A14
330
F28
100
AcDbEntity
  8
DETAIL
100
AcDbLine
 10
223.03032
 20
985.882046
 30
0.0
 11
223.03032
 21
975.8851700000001
 31
0.0
  0
ARC
  5
A15
330
F28
100
AcDbEntity
  8
DETAIL
100
AcDbCircle
 10
213.033443
 20
985.882046
 30
0.0
 40
9.996876999999999
100
AcDbArc
 50
0.0
 51
90.0
  0
LWPOLYLINE
  5
A16
330
F28
100
AcDbEntity
  8
DETAIL
100
AcDbPolyline
 90
        9
 70
     0
 43
0.0
 10
223.03032
 20
982.9540289999997
 10
222.838233
 20
984.333095
 10
222.269353
 20
985.6591640000001
 10
221.345543
 20
986.8812769999999
 10
220.102303
 20
987.952467
 10
218.58741
 20
988.831571
 10
216.859082
 20
989.484803
 10
214.983737
 20
989.8870619999996
 10
213.033443
 20
990.022888
  0
LINE
  5
A21
330
F28
100
AcDbEntity
  8
DETAIL
100
AcDbLine
 10
269.215891
 20
1126.448071
 30
0.0
 11
270.015641
 21
1126.448071
 31
0.0
  0
LINE
  5
A22
330
F28
100
AcDbEntity
  8
DETAIL
100
AcDbLine
 10
269.215891
 20
1126.448071
 30
0.0
 11
269.215891
 21
1125.648321
 31
0.0
  0
LINE
  5
A23
330
F28
100
AcDbEntity
  8
DETAIL
100
AcDbLine
 10
270.015641
 20
1729.95952
 30
0.0
 11
270.015641
 21
1726.960457
 31
0.0
  0
LINE
  5
A24
330
F28
100
AcDbEntity
  8
DETAIL
100
AcDbLine
 10
271.015328
 20
1550.515582
 30
0.0
 11
271.015328
 21
1728.459988
 31
0.0
  0
LINE
  5
A25
330
F28
100
AcDbEntity
  8
DETAIL
100
AcDbLine
 10
271.015328
 20
1624.49247
 30
0.0
 11
271.015328
 21
1552.514958
 31
0.0
  0
LINE
  5
A26
330
F28
100
AcDbEntity
  8
DETAIL
100
AcDbLine
 10
270.015641
 20
1627.259555
 30
0.0
 11
270.015641
 21
1552.514958
 31
0.0
  0
LINE
  5
A27
330
F28
100
AcDbEntity
  8
DETAIL
100
AcDbLine
 10
276.513611
 20
1555.014177
 30
0.0
 11
276.513611
 21
1723.961394
 31
0.0
  0
LINE
  5
A28
330
F28
100
AcDbEntity
  8
DETAIL
100
AcDbLine
 10
303.005334
 20
1555.014177
 30
0.0
 11
303.005334
 21
1590.503089
 31
0.0
  0
LINE
  5
A29
330
F28
100
AcDbEntity
  8
DETAIL
100
AcDbLine
 10
319.000337
 20
1554.998438
 30
0.0
 11
272.015016
 21
1554.998438
 31
0.0
  0
LINE
  5
A2A
330
F28
100
AcDbEntity
  8
DETAIL
100
AcDbLine
 10
269.215891
 20
1550.0
 30
0.0
 11
270.015641
 21
1550.0
 31
0.0
  0
LINE
  5
A2B
330
F28
100
AcDbEntity
  8
DETAIL
100
AcDbLine
 10
270.015641
 20
1550.0
 30
0.0
 11
270.015641
 21
1556.997814
 31
0.0
  0
ARC
  5
A2C
330
F28
100
AcDbEntity
  8
DETAIL
100
AcDbCircle
 10
303.505178
 20
1555.498282
 30
0.0
 40
0.499844
100
AcDbArc
 50
180.0
 51
270.0
  0
ARC
  5
A2D
330
F28
100
AcDbEntity
  8
DETAIL
100
AcDbCircle
 10
277.013454
 20
1555.498282
 30
0.0
 40
0.499844
100
AcDbArc
 50
180.0
 51
270.0
  0
ARC
  5
A2E
330
F28
100
AcDbEntity
  8
DETAIL
100
AcDbCircle
 10
272.015016
 20
1553.998751
 30
0.0
 40
0.9996879999999999
100
AcDbArc
 50
90.0
 51
180.0
  0
ARC
  5
A2F
330
F28
100
AcDbEntity
  8
DETAIL
100
AcDbCircle
 10
272.015016
 20
1550.999688
 30
0.0
 40
0.9996879999999999
100
AcDbArc
 50
180.0
 51
270.0
  0
LINE
  5
A30
330
F28
100
AcDbEntity
  8
DETAIL
100
AcDbLine
 10
318.000634
 20
1550.0
 30
0.0
 11
272.015016
 21
1550.0
 31
0.0
  0
ARC
  5
A31
330
F28
100
AcDbEntity
  8
DETAIL
100
AcDbCircle
 10
319.000337
 20
1553.998751
 30
0.0
 40
0.9996879999999999
100
AcDbArc
 50
0.0
 51
90.0
  0
LINE
  5
A32
330
F28
100
AcDbEntity
  8
DETAIL
100
AcDbLine
 10
319.000337
 20
1724.461237
 30
0.0
 11
272.015016
 21
1724.461237
 31
0.0
  0
ARC
  5
A33
330
F28
100
AcDbEntity
  8
DETAIL
100
AcDbCircle
 10
271.015328
 20
1694.970451
 30
0.0
 40
1.999374999999997
100
AcDbArc
 50
90.0
 51
180.0
  0
ARC
  5
A34
330
F28
100
AcDbEntity
  8
DETAIL
100
AcDbCircle
 10
271.015328
 20
1673.97701
 30
0.0
 40
1.999374999999997
100
AcDbArc
 50
180.0
 51
270.0
  0
ARC
  5
A35
330
F28
100
AcDbEntity
  8
DETAIL
100
AcDbCircle
 10
271.015328
 20
1649.984506
 30
0.0
 40
1.999374999999997
100
AcDbArc
 50
90.0
 51
180.0
  0
ARC
  5
A36
330
F28
100
AcDbEntity
  8
DETAIL
100
AcDbCircle
 10
271.015328
 20
1628.991065
 30
0.0
 40
1.999374999999997
100
AcDbArc
 50
180.0
 51
270.0
  0
LINE
  5
A37
330
F28
100
AcDbEntity
  8
DETAIL
100
AcDbLine
 10
269.015953
 20
1673.97701
 30
0.0
 11
269.015953
 21
1694.970451
 31
0.0
  0
LINE
  5
A38
330
F28
100
AcDbEntity
  8
DETAIL
100
AcDbLine
 10
269.015953
 20
1628.991065
 30
0.0
 11
269.015953
 21
1649.984506
 31
0.0
  0
LINE
  5
A39
330
F28
100
AcDbEntity
  8
DETAIL
100
AcDbLine
 10
266.01689
 20
1634.293458
 30
0.0
 11
266.01689
 21
1644.682112
 31
0.0
  0
LINE
  5
A3A
330
F28
100
AcDbEntity
  8
DETAIL
100
AcDbLine
 10
266.01689
 20
1636.488722
 30
0.0
 11
269.015953
 21
1636.488722
 31
0.0
  0
LINE
  5
A3B
330
F28
100
AcDbEntity
  8
DETAIL
100
AcDbLine
 10
266.01689
 20
1642.486848
 30
0.0
 11
269.015953
 21
1642.486848
 31
0.0
  0
LINE
  5
A3C
330
F28
100
AcDbEntity
  8
DETAIL
100
AcDbLine
 10
266.01689
 20
1681.474667
 30
0.0
 11
269.015953
 21
1681.474667
 31
0.0
  0
LINE
  5
A3D
330
F28
100
AcDbEntity
  8
DETAIL
100
AcDbLine
 10
266.01689
 20
1687.472793
 30
0.0
 11
269.015953
 21
1687.472793
 31
0.0
  0
LINE
  5
A3E
330
F28
100
AcDbEntity
  8
DETAIL
100
AcDbLine
 10
266.01689
 20
1679.279403
 30
0.0
 11
266.01689
 21
1689.668058
 31
0.0
  0
LINE
  5
A3F
330
F28
100
AcDbEntity
  8
DETAIL
100
AcDbLine
 10
270.015641
 20
1590.503089
 30
0.0
 11
270.015641
 21
1597.500903
 31
0.0
  0
LINE
  5
A40
330
F28
100
AcDbEntity
  8
DETAIL
100
AcDbLine
 10
270.015641
 20
1624.49247
 30
0.0
 11
271.015328
 21
1624.49247
 31
0.0
  0
LINE
  5
A41
330
F28
100
AcDbEntity
  8
DETAIL
100
AcDbLine
 10
303.005334
 20
1598.500591
 30
0.0
 11
303.005334
 21
1635.489034
 31
0.0
  0
LINE
  5
A42
330
F28
100
AcDbEntity
  8
DETAIL
100
AcDbLine
 10
303.005334
 20
1688.472480999999
 30
0.0
 11
303.005334
 21
1723.961394
 31
0.0
  0
ARC
  5
A43
330
F28
100
AcDbEntity
  8
DETAIL
100
AcDbCircle
 10
277.013454
 20
1599.000434
 30
0.0
 40
0.499844
100
AcDbArc
 50
180.0
 51
270.0
  0
ARC
  5
A44
330
F28
100
AcDbEntity
  8
DETAIL
100
AcDbCircle
 10
277.013454
 20
1590.003245
 30
0.0
 40
0.499844
100
AcDbArc
 50
90.0
 51
180.0
  0
ARC
  5
A45
330
F28
100
AcDbEntity
  8
DETAIL
100
AcDbCircle
 10
309.00346
 20
1594.50184
 30
0.0
 40
3.998751
100
AcDbArc
 50
270.0
 51
90.0
  0
LINE
  5
A46
330
F28
100
AcDbEntity
  8
DETAIL
100
AcDbLine
 10
277.013454
 20
1598.500591
 30
0.0
 11
309.00346
 21
1598.500591
 31
0.0
  0
LINE
  5
A47
330
F28
100
AcDbEntity
  8
DETAIL
100
AcDbLine
 10
277.013454
 20
1590.503089
 30
0.0
 11
309.00346
 21
1590.503089
 31
0.0
  0
ARC
  5
A48
330
F28
100
AcDbEntity
  8
DETAIL
100
AcDbCircle
 10
277.013454
 20
1688.972325
 30
0.0
 40
0.499844
100
AcDbArc
 50
180.0
 51
270.0
  0
ARC
  5
A49
330
F28
100
AcDbEntity
  8
DETAIL
100
AcDbCircle
 10
277.013454
 20
1679.975136
 30
0.0
 40
0.499844
100
AcDbArc
 50
90.0
 51
180.0
  0
ARC
  5
A4A
330
F28
100
AcDbEntity
  8
DETAIL
100
AcDbCircle
 10
309.00346
 20
1684.47373
 30
0.0
 40
3.998751
100
AcDbArc
 50
270.0
 51
90.0
  0
LINE
  5
A4B
330
F28
100
AcDbEntity
  8
DETAIL
100
AcDbLine
 10
277.013454
 20
1688.472480999999
 30
0.0
 11
309.00346
 21
1688.472480999999
 31
0.0
  0
LINE
  5
A4C
330
F28
100
AcDbEntity
  8
DETAIL
100
AcDbLine
 10
277.013454
 20
1680.47498
 30
0.0
 11
309.00346
 21
1680.47498
 31
0.0
  0
LINE
  5
A4D
330
F28
100
AcDbEntity
  8
DETAIL
100
AcDbLine
 10
303.005334
 20
1643.486536
 30
0.0
 11
303.005334
 21
1680.47498
 31
0.0
  0
ARC
  5
A4E
330
F28
100
AcDbEntity
  8
DETAIL
100
AcDbCircle
 10
277.013454
 20
1634.989191
 30
0.0
 40
0.499844
100
AcDbArc
 50
90.0
 51
180.0
  0
ARC
  5
A4F
330
F28
100
AcDbEntity
  8
DETAIL
100
AcDbCircle
 10
277.013454
 20
1643.98638
 30
0.0
 40
0.499844
100
AcDbArc
 50
180.0
 51
270.0
  0
ARC
  5
A50
330
F28
100
AcDbEntity
  8
DETAIL
100
AcDbCircle
 10
309.00346
 20
1639.487785
 30
0.0
 40
3.998751
100
AcDbArc
 50
270.0
 51
90.0
  0
LINE
  5
A51
330
F28
100
AcDbEntity
  8
DETAIL
100
AcDbLine
 10
277.013454
 20
1635.489034
 30
0.0
 11
309.00346
 21
1635.489034
 31
0.0
  0
LINE
  5
A52
330
F28
100
AcDbEntity
  8
DETAIL
100
AcDbLine
 10
277.013454
 20
1643.486536
 30
0.0
 11
309.00346
 21
1643.486536
 31
0.0
  0
ARC
  5
A53
330
F28
100
AcDbEntity
  8
DETAIL
100
AcDbCircle
 10
303.505178
 20
1723.961394
 30
0.0
 40
0.499844
100
AcDbArc
 50
90.0
 51
180.0
  0
ARC
  5
A54
330
F28
100
AcDbEntity
  8
DETAIL
100
AcDbCircle
 10
277.013454
 20
1723.961394
 30
0.0
 40
0.499844
100
AcDbArc
 50
90.0
 51
180.0
  0
ARC
  5
A55
330
F28
100
AcDbEntity
  8
DETAIL
100
AcDbCircle
 10
272.015016
 20
1725.460925
 30
0.0
 40
0.9996879999999999
100
AcDbArc
 50
180.0
 51
270.0
  0
ARC
  5
A56
330
F28
100
AcDbEntity
  8
DETAIL
100
AcDbCircle
 10
319.000337
 20
1725.460925
 30
0.0
 40
0.9996879999999999
100
AcDbArc
 50
270.0
 51
0.0
  0
LINE
  5
A57
330
F28
100
AcDbEntity
  8
DETAIL
100
AcDbLine
 10
319.000337
 20
1729.459676
 30
0.0
 11
318.000649
 21
1729.459676
 31
0.0
  0
LINE
  5
A58
330
F28
100
AcDbEntity
  8
DETAIL
100
AcDbLine
 10
270.015641
 20
1729.95952
 30
0.0
 11
272.51486
 21
1729.95952
 31
0.0
  0
LINE
  5
A59
330
F28
100
AcDbEntity
  8
DETAIL
100
AcDbLine
 10
272.51486
 20
1750.0
 30
0.0
 11
272.51486
 21
1729.95952
 31
0.0
  0
ARC
  5
A5A
330
F28
100
AcDbEntity
  8
DETAIL
100
AcDbCircle
 10
272.015016
 20
1728.459988
 30
0.0
 40
0.9996879999999999
100
AcDbArc
 50
90.0
 51
180.0
  0
LINE
  5
A5B
330
F28
100
AcDbEntity
  8
DETAIL
100
AcDbLine
 10
318.000649
 20
1729.459676
 30
0.0
 11
272.015016
 21
1729.459676
 31
0.0
  0
ARC
  5
A5C
330
F28
100
AcDbEntity
  8
DETAIL
100
AcDbCircle
 10
319.000337
 20
1728.459988
 30
0.0
 40
0.9996879999999999
100
AcDbArc
 50
0.0
 51
90.0
  0
LINE
  5
A5D
330
F28
100
AcDbEntity
  8
DETAIL
100
AcDbLine
 10
320.000024
 20
1553.998751
 30
0.0
 11
320.000024
 21
80.0
 31
0.0
  0
LINE
  5
A5E
330
F28
100
AcDbEntity
  8
DETAIL
100
AcDbLine
 10
-320.000024
 20
1550.0
 30
0.0
 11
-320.000024
 21
1750.0
 31
0.0
  0
LINE
  5
A5F
330
F28
100
AcDbEntity
  8
DETAIL
100
AcDbLine
 10
415.0003529999998
 20
80.0
 30
0.0
 11
415.0003529999998
 21
242.0
 31
0.0
  0
LINE
  5
A60
330
F28
100
AcDbEntity
  8
OUTLINE
100
AcDbLine
 10
320.000024
 20
1553.998751
 30
0.0
 11
320.000024
 21
241.124667
 31
0.0
  0
LINE
  5
A61
330
F28
100
AcDbEntity
  8
OUTLINE
100
AcDbLine
 10
-320.000024
 20
80.0
 30
0.0
 11
-320.000024
 21
1553.998751
 31
0.0
  0
LINE
  5
A62
330
F28
100
AcDbEntity
  8
OUTLINE
100
AcDbLine
 10
320.000024
 20
80.0
 30
0.0
 11
-320.000024
 21
80.0
 31
0.0
  0
LINE
  5
A63
330
F28
100
AcDbEntity
  8
OUTLINE
100
AcDbLine
 10
310.802898
 20
0.0
 30
0.0
 11
-310.60296
 21
0.0
 31
0.0
  0
LINE
  5
A64
330
F28
100
AcDbEntity
  8
OUTLINE
100
AcDbLine
 10
-315.101555
 20
4.498594999999999
 30
0.0
 11
-351.0
 21
4.498594999999999
 31
0.0
  0
LINE
  5
A65
330
F28
100
AcDbEntity
  8
OUTLINE
100
AcDbLine
 10
-351.0
 20
4.498594999999999
 30
0.0
 11
-351.0
 21
0.0
 31
0.0
  0
LINE
  5
A66
330
F28
100
AcDbEntity
  8
OUTLINE
100
AcDbLine
 10
-310.60296
 20
0.0
 30
0.0
 11
-351.0
 21
0.0
 31
0.0
  0
LINE
  5
A67
330
F28
100
AcDbEntity
  8
OUTLINE
100
AcDbLine
 10
415.0003529999998
 20
80.0
 30
0.0
 11
415.0003529999998
 21
242.0
 31
0.0
  0
LINE
  5
A68
330
F28
100
AcDbEntity
  8
OUTLINE
100
AcDbLine
 10
320.000024
 20
261.918171
 30
0.0
 11
320.000024
 21
241.124667
 31
0.0
  0
LINE
  5
A69
330
F28
100
AcDbEntity
  8
OUTLINE
100
AcDbLine
 10
415.0003529999998
 20
80.0
 30
0.0
 11
340.793528
 21
80.0
 31
0.0
  0
LINE
  5
A6A
330
F28
100
AcDbEntity
  8
OUTLINE
100
AcDbLine
 10
351.0
 20
4.498594999999999
 30
0.0
 11
351.0
 21
0.0
 31
0.0
  0
LINE
  5
A6B
330
F28
100
AcDbEntity
  8
OUTLINE
100
AcDbLine
 10
340.793528
 20
4.498594999999999
 30
0.0
 11
351.0
 21
4.498594999999999
 31
0.0
  0
LINE
  5
A6C
330
F28
100
AcDbEntity
  8
OUTLINE
100
AcDbLine
 10
310.802898
 20
0.0
 30
0.0
 11
351.0
 21
0.0
 31
0.0
  0
LINE
  5
A6D
330
F28
100
AcDbEntity
  8
OUTLINE
100
AcDbLine
 10
340.793528
 20
80.0
 30
0.0
 11
340.793528
 21
4.498594999999999
 31
0.0
  0
LINE
  5
A6E
330
F28
100
AcDbEntity
  8
OUTLINE
100
AcDbLine
 10
415.0003529999998
 20
242.0
 30
0.0
 11
320.000024
 21
242.0
 31
0.0
  0
LINE
  5
A6F
330
F28
100
AcDbEntity
  8
OUTLINE
100
AcDbLine
 10
-320.000024
 20
1550.0
 30
0.0
 11
-320.000024
 21
1750.0
 31
0.0
  0
LINE
  5
A70
330
F28
100
AcDbEntity
  8
OUTLINE
100
AcDbLine
 10
320.000024
 20
1750.0
 30
0.0
 11
320.000024
 21
1550.0
 31
0.0
  0
LINE
  5
A71
330
F28
100
AcDbEntity
  8
OUTLINE
100
AcDbLine
 10
-320.000024
 20
1750.0
 30
0.0
 11
320.000024
 21
1750.0
 31
0.0
  0
LINE
  5
A72
330
F28
100
AcDbEntity
  8
OUTLINE
100
AcDbLine
 10
-315.101555
 20
10.996564
 30
0.0
 11
-315.101555
 21
4.498594999999999
 31
0.0
  0
LINE
  5
A73
330
F28
100
AcDbEntity
  8
OUTLINE
100
AcDbLine
 10
-311.0
 20
48.984696
 30
0.0
 11
-311.0
 21
79.975014
 31
0.0
  0
CIRCLE
  5
A74
330
F28
100
AcDbEntity
  8
FIX
100
AcDbCircle
 10
-337.0
 20
0.0
 30
0.0
 40
9.858928999999999
  0
LINE
  5
A75
330
F28
100
AcDbEntity
  8
NOTE
100
AcDbLine
 10
-337.0
 20
13.138752
 30
0.0
 11
-337.0
 21
-13.138752
 31
0.0
  0
LINE
  5
A76
330
F28
100
AcDbEntity
  8
NOTE
100
AcDbLine
 10
-323.861248
 20
0.0
 30
0.0
 11
-350.138752
 21
0.0
 31
0.0
  0
LINE
  5
A77
330
F28
100
AcDbEntity
  8
NOTE
100
AcDbLine
 10
320.000024
 20
158.633911
 30
0.0
 11
320.000024
 21
101.366089
 31
0.0
  0
LINE
  5
A78
330
F28
100
AcDbEntity
  8
NOTE
100
AcDbLine
 10
348.633936
 20
130.0
 30
0.0
 11
291.366113
 21
130.0
 31
0.0
  0
CIRCLE
  5
A79
330
F28
100
AcDbEntity
  8
FIX
100
AcDbCircle
 10
337.0
 20
0.0
 30
0.0
 40
9.858928999999999
  0
LINE
  5
A7A
330
F28
100
AcDbEntity
  8
NOTE
100
AcDbLine
 10
350.138752
 20
0.0
 30
0.0
 11
323.861248
 21
0.0
 31
0.0
  0
LINE
  5
A7B
330
F28
100
AcDbEntity
  8
NOTE
100
AcDbLine
 10
337.0
 20
13.138752
 30
0.0
 11
337.0
 21
-13.138752
 31
0.0
  0
LINE
  5
A7C
330
F28
100
AcDbEntity
  8
NOTE
100
AcDbLine
 10
332.796027
 20
56.125322
 30
0.0
 11
332.796027
 21
3.855937999999998
 31
0.0
  0
LINE
  5
A7D
330
F28
100
AcDbEntity
  8
NOTE
100
AcDbLine
 10
358.930719
 20
29.99063
 30
0.0
 11
306.661335
 21
29.99063
 31
0.0
  0
LINE
  5
A7E
330
F28
100
AcDbEntity
  8
NOTE
100
AcDbLine
 10
-353.000024
 20
56.125322
 30
0.0
 11
-353.000024
 21
3.855937999999998
 31
0.0
  0
LINE
  5
A7F
330
F28
100
AcDbEntity
  8
NOTE
100
AcDbLine
 10
-326.865332
 20
29.99063
 30
0.0
 11
-379.134716
 21
29.99063
 31
0.0
  0
LINE
  5
A80
330
F28
100
AcDbEntity
  8
NOTE
100
AcDbLine
 10
-320.000024
 20
270.63641
 30
0.0
 11
-320.000024
 21
229.36359
 31
0.0
  0
LINE
  5
A81
330
F28
100
AcDbEntity
  8
NOTE
100
AcDbLine
 10
-340.636434
 20
250.0
 30
0.0
 11
-299.363615
 21
250.0
 31
0.0
  0
LINE
  5
A82
330
F28
100
AcDbEntity
  8
NOTE
100
AcDbLine
 10
-320.000024
 20
210.63641
 30
0.0
 11
-320.000024
 21
169.36359
 31
0.0
  0
LINE
  5
A83
330
F28
100
AcDbEntity
  8
NOTE
100
AcDbLine
 10
-340.636434
 20
190.0
 30
0.0
 11
-299.363615
 21
190.0
 31
0.0
  0
LINE
  5
A84
330
F28
100
AcDbEntity
  8
NOTE
100
AcDbLine
 10
-348.633936
 20
130.0
 30
0.0
 11
-291.366113
 21
130.0
 31
0.0
  0
LINE
  5
A85
330
F28
100
AcDbEntity
  8
NOTE
100
AcDbLine
 10
-320.000024
 20
538.276499
 30
0.0
 11
-320.000024
 21
471.7258629999998
 31
0.0
  0
LINE
  5
A86
330
F28
100
AcDbEntity
  8
NOTE
100
AcDbLine
 10
-286.724706
 20
505.0011809999999
 30
0.0
 11
-353.275343
 21
505.0011809999999
 31
0.0
  0
LINE
  5
A87
330
F28
100
AcDbEntity
  8
NOTE
100
AcDbLine
 10
-502.5821579999997
 20
900.424096
 30
0.0
 11
-320.000024
 21
505.0011809999999
 31
0.0
  0
LINE
  5
A88
330
F28
100
AcDbEntity
  8
NOTE
100
AcDbLine
 10
-320.000024
 20
505.0011809999999
 30
0.0
 11
-324.833116
 21
533.1518099999998
 31
0.0
  0
LINE
  5
A89
330
F28
100
AcDbEntity
  8
NOTE
100
AcDbLine
 10
-320.000024
 20
505.0011809999999
 30
0.0
 11
-338.26092
 21
526.9637949999999
 31
0.0
  0
TEXT
  5
A8A
330
F28
100
AcDbEntity
  8
NOTE
100
AcDbText
 10
-756.4217079999997
 20
912.5678629999999
 30
0.0
 40
50.0
  1
D1　Rc1
 50
0.000003
 41
0.6310000000000003
  7
STANDARD1
100
AcDbText
  0
LINE
  5
A8B
330
F28
100
AcDbEntity
  8
NOTE
100
AcDbLine
 10
-848.970158
 20
900.424096
 30
0.0
 11
-502.5821579999997
 21
900.424096
 31
0.0
  0
TEXT
  5
A8C
330
F28
100
AcDbEntity
  8
NOTE
100
AcDbText
 10
-818.7544719999998
 20
912.167739
 30
0.0
 40
50.0
  1
※
 50
0.000003
 41
0.6310000000000003
  7
STANDARD1
100
AcDbText
  0
LINE
  5
A8D
330
F28
100
AcDbEntity
  8
NOTE
100
AcDbLine
 10
-1066.076711
 20
-532.1911899999999
 30
0.0
 11
-536.704323
 21
-532.1911899999999
 31
0.0
  0
TEXT
  5
A8E
330
F28
100
AcDbEntity
  8
NOTE
100
AcDbText
 10
-1047.826488
 20
-517.909886
 30
0.0
 40
50.0
  1
AH　2\U+00D72-\U+03C612（M10）
 50
0.000003
 41
0.6310000000000003
  7
STANDARD1
100
AcDbText
  0
LINE
  5
A8F
330
F28
100
AcDbEntity
  8
NOTE
100
AcDbLine
 10
-536.704323
 20
-532.1911899999999
 30
0.0
 11
-337.0
 21
0.0
 31
0.0
  0
LINE
  5
A90
330
F28
100
AcDbEntity
  8
NOTE
100
AcDbLine
 10
-337.0
 20
0.0
 30
0.0
 11
-339.557624
 21
-28.44776400000001
 31
0.0
  0
LINE
  5
A91
330
F28
100
AcDbEntity
  8
NOTE
100
AcDbLine
 10
-337.0
 20
0.0
 30
0.0
 11
-353.438849
 21
-23.357674
 31
0.0
  0
LINE
  5
A92
330
F28
100
AcDbEntity
  8
NOTE
100
AcDbLine
 10
-539.045921
 20
414.877871
 30
0.0
 11
-849.325997
 21
414.877871
 31
0.0
  0
LINE
  5
A93
330
F28
100
AcDbEntity
  8
NOTE
100
AcDbLine
 10
-682.431281
 20
-253.838866
 30
0.0
 11
-993.509522
 21
-253.838866
 31
0.0
  0
TEXT
  5
A94
330
F28
100
AcDbEntity
  8
NOTE
100
AcDbText
 10
-986.582373
 20
-242.364609
 30
0.0
 40
50.0
  1
EL2
 50
0.000003
 41
0.6310000000000003
  7
STANDARD1
100
AcDbText
  0
TEXT
  5
A95
330
F28
100
AcDbEntity
  8
NOTE
100
AcDbText
 10
-883.044605
 20
-241.843942
 30
0.0
 40
50.0
  1
ﾉｯｸｱｳﾄ\U+03C643
 50
0.000003
 41
0.6310000000000003
  7
STANDARD1
100
AcDbText
  0
TEXT
  5
A96
330
F28
100
AcDbEntity
  8
NOTE
100
AcDbText
 10
-848.519757
 20
424.776686
 30
0.0
 40
50.0
  1
EL1
 50
0.000003
 41
0.6310000000000003
  7
STANDARD1
100
AcDbText
  0
TEXT
  5
A97
330
F28
100
AcDbEntity
  8
NOTE
100
AcDbText
 10
-757.6988019999999
 20
425.997898
 30
0.0
 40
50.0
  1
ﾉｯｸｱｳﾄ\U+03C627
 50
0.000003
 41
0.6310000000000003
  7
STANDARD1
100
AcDbText
  0
LINE
  5
A98
330
F28
100
AcDbEntity
  8
NOTE
100
AcDbLine
 10
-554.7345009999998
 20
719.018909
 30
0.0
 11
-846.537299
 21
719.018909
 31
0.0
  0
TEXT
  5
A99
330
F28
100
AcDbEntity
  8
NOTE
100
AcDbText
 10
-812.044625
 20
659.318558
 30
0.0
 40
50.0
  1
ﾉｯｸｱｳﾄ\U+03C627
 50
0.000003
 41
0.6310000000000003
  7
STANDARD1
100
AcDbText
  0
TEXT
  5
A9A
330
F28
100
AcDbEntity
  8
NOTE
100
AcDbText
 10
-750.057423
 20
727.8613599999999
 30
0.0
 40
50.0
  1
CL1
 50
0.000003
 41
0.6310000000000003
  7
STANDARD1
100
AcDbText
  0
LINE
  5
A9B
330
F28
100
AcDbEntity
  8
NOTE
100
AcDbLine
 10
-554.7345009999998
 20
719.018909
 30
0.0
 11
-319.952393
 21
249.943764
 31
0.0
  0
LINE
  5
A9C
330
F28
100
AcDbEntity
  8
NOTE
100
AcDbLine
 10
-682.431281
 20
-253.838866
 30
0.0
 11
-320.000024
 21
130.0
 31
0.0
  0
LINE
  5
A9D
330
F28
100
AcDbEntity
  8
NOTE
100
AcDbLine
 10
-539.045921
 20
414.877871
 30
0.0
 11
-319.881558
 21
189.987853
 31
0.0
  0
LINE
  5
A9E
330
F28
100
AcDbEntity
  8
NOTE
100
AcDbLine
 10
-319.952393
 20
249.943764
 30
0.0
 11
-325.690281
 21
277.923995
 31
0.0
  0
LINE
  5
A9F
330
F28
100
AcDbEntity
  8
NOTE
100
AcDbLine
 10
-319.952393
 20
249.943764
 30
0.0
 11
-338.911666
 21
271.30641
 31
0.0
  0
LINE
  5
AA0
330
F28
100
AcDbEntity
  8
NOTE
100
AcDbLine
 10
-319.881558
 20
189.987853
 30
0.0
 11
-333.846346
 21
214.90374
 31
0.0
  0
LINE
  5
AA1
330
F28
100
AcDbEntity
  8
NOTE
100
AcDbLine
 10
-319.881558
 20
189.987853
 30
0.0
 11
-344.433363
 21
204.583249
 31
0.0
  0
LINE
  5
AA2
330
F28
100
AcDbEntity
  8
NOTE
100
AcDbLine
 10
-320.000024
 20
130.0
 30
0.0
 11
-333.56612
 21
104.864811
 31
0.0
  0
LINE
  5
AA3
330
F28
100
AcDbEntity
  8
NOTE
100
AcDbLine
 10
-320.000024
 20
130.0
 30
0.0
 11
-344.316203
 21
115.015336
 31
0.0
  0
LINE
  5
AA4
330
F28
100
AcDbEntity
  8
NOTE
100
AcDbLine
 10
-599.1665669999997
 20
-343.846781
 30
0.0
 11
-882.367525
 21
-343.846781
 31
0.0
  0
TEXT
  5
AA5
330
F28
100
AcDbEntity
  8
NOTE
100
AcDbText
 10
-802.4177789999999
 20
-332.313515
 30
0.0
 40
50.0
  1
D2　Rc1
 50
0.000003
 41
0.6310000000000003
  7
STANDARD1
100
AcDbText
  0
TEXT
  5
AA6
330
F28
100
AcDbEntity
  8
NOTE
100
AcDbText
 10
-862.401833
 20
-334.974964
 30
0.0
 40
50.0
  1
※
 50
0.000003
 41
0.6310000000000003
  7
STANDARD1
100
AcDbText
  0
LINE
  5
AA7
330
F28
100
AcDbEntity
  8
NOTE
100
AcDbLine
 10
-599.1665669999997
 20
-343.846781
 30
0.0
 11
-353.000024
 21
29.99063
 31
0.0
  0
LINE
  5
AA8
330
F28
100
AcDbEntity
  8
NOTE
100
AcDbLine
 10
-353.000024
 20
29.99063
 30
0.0
 11
-374.174027
 21
10.820907
 31
0.0
  0
LINE
  5
AA9
330
F28
100
AcDbEntity
  8
NOTE
100
AcDbLine
 10
-353.000024
 20
29.99063
 30
0.0
 11
-361.752387
 21
2.802160999999999
 31
0.0
  0
LINE
  5
AAA
330
F28
100
AcDbEntity
  8
NOTE
100
AcDbLine
 10
397.060084
 20
-344.562557
 30
0.0
 11
657.546241
 21
-344.562557
 31
0.0
  0
TEXT
  5
AAB
330
F28
100
AcDbEntity
  8
NOTE
100
AcDbText
 10
427.5505299999998
 20
-333.029291
 30
0.0
 40
50.0
  1
D4　Rc1
 50
0.000003
 41
0.6310000000000003
  7
STANDARD1
100
AcDbText
  0
LINE
  5
AAC
330
F28
100
AcDbEntity
  8
NOTE
100
AcDbLine
 10
397.060084
 20
-344.562557
 30
0.0
 11
332.796027
 21
29.99063
 31
0.0
  0
LINE
  5
AAD
330
F28
100
AcDbEntity
  8
NOTE
100
AcDbLine
 10
332.796027
 20
29.99063
 30
0.0
 11
344.465648
 21
3.920789
 31
0.0
  0
LINE
  5
AAE
330
F28
100
AcDbEntity
  8
NOTE
100
AcDbLine
 10
332.796027
 20
29.99063
 30
0.0
 11
329.867294
 21
1.578675
 31
0.0
  0
LINE
  5
AAF
330
F28
100
AcDbEntity
  8
NOTE
100
AcDbLine
 10
340.636434
 20
250.0
 30
0.0
 11
299.363615
 21
250.0
 31
0.0
  0
LINE
  5
AB0
330
F28
100
AcDbEntity
  8
NOTE
100
AcDbLine
 10
320.000024
 20
270.63641
 30
0.0
 11
320.000024
 21
229.36359
 31
0.0
  0
LINE
  5
AB1
330
F28
100
AcDbEntity
  8
NOTE
100
AcDbLine
 10
340.636434
 20
190.0
 30
0.0
 11
299.363615
 21
190.0
 31
0.0
  0
LINE
  5
AB2
330
F28
100
AcDbEntity
  8
NOTE
100
AcDbLine
 10
320.000024
 20
210.63641
 30
0.0
 11
320.000024
 21
169.36359
 31
0.0
  0
TEXT
  5
AB3
330
F28
100
AcDbEntity
  8
NOTE
100
AcDbText
 10
754.410825
 20
619.190149
 30
0.0
 40
50.0
  1
EL4
 50
0.000003
 41
0.6310000000000003
  7
STANDARD1
100
AcDbText
  0
LINE
  5
AB4
330
F28
100
AcDbEntity
  8
NOTE
100
AcDbLine
 10
663.05642
 20
612.0539919999997
 30
0.0
 11
934.0495109999999
 21
612.0539919999997
 31
0.0
  0
TEXT
  5
AB5
330
F28
100
AcDbEntity
  8
NOTE
100
AcDbText
 10
696.8571759999996
 20
547.1355919999998
 30
0.0
 40
50.0
  1
ﾉｯｸｱｳﾄ\U+03C643
 50
0.000003
 41
0.6310000000000003
  7
STANDARD1
100
AcDbText
  0
LINE
  5
AB6
330
F28
100
AcDbEntity
  8
NOTE
100
AcDbLine
 10
677.740298
 20
777.052133
 30
0.0
 11
933.149144
 21
777.052133
 31
0.0
  0
TEXT
  5
AB7
330
F28
100
AcDbEntity
  8
NOTE
100
AcDbText
 10
701.7284179999997
 20
712.8452129999997
 30
0.0
 40
50.0
  1
ﾉｯｸｱｳﾄ\U+03C627
 50
0.000003
 41
0.6310000000000003
  7
STANDARD1
100
AcDbText
  0
TEXT
  5
AB8
330
F28
100
AcDbEntity
  8
NOTE
100
AcDbText
 10
747.1762949999996
 20
787.646687
 30
0.0
 40
50.0
  1
EL3
 50
0.000003
 41
0.6310000000000003
  7
STANDARD1
100
AcDbText
  0
LINE
  5
AB9
330
F28
100
AcDbEntity
  8
NOTE
100
AcDbLine
 10
682.010307
 20
939.671651
 30
0.0
 11
931.693324
 21
939.671651
 31
0.0
  0
TEXT
  5
ABA
330
F28
100
AcDbEntity
  8
NOTE
100
AcDbText
 10
698.2000059999997
 20
876.5245769999996
 30
0.0
 40
50.0
  1
ﾉｯｸｱｳﾄ\U+03C627
 50
0.000003
 41
0.6310000000000003
  7
STANDARD1
100
AcDbText
  0
TEXT
  5
ABB
330
F28
100
AcDbEntity
  8
NOTE
100
AcDbText
 10
748.1776940000003
 20
948.514102
 30
0.0
 40
50.0
  1
CL2
 50
0.000003
 41
0.6310000000000003
  7
STANDARD1
100
AcDbText
  0
LINE
  5
ABC
330
F28
100
AcDbEntity
  8
NOTE
100
AcDbLine
 10
677.740298
 20
777.052133
 30
0.0
 11
320.000024
 21
189.95268
 31
0.0
  0
LINE
  5
ABD
330
F28
100
AcDbEntity
  8
NOTE
100
AcDbLine
 10
663.05642
 20
612.0539919999997
 30
0.0
 11
320.000024
 21
130.0
 31
0.0
  0
LINE
  5
ABE
330
F28
100
AcDbEntity
  8
NOTE
100
AcDbLine
 10
682.010307
 20
939.671651
 30
0.0
 11
320.000024
 21
250.0
 31
0.0
  0
LINE
  5
ABF
330
F28
100
AcDbEntity
  8
NOTE
100
AcDbLine
 10
320.000024
 20
250.0
 30
0.0
 11
326.251526
 21
277.869973
 31
0.0
  0
LINE
  5
AC0
330
F28
100
AcDbEntity
  8
NOTE
100
AcDbLine
 10
320.000024
 20
250.0
 30
0.0
 11
339.34897
 21
271.010354
 31
0.0
  0
LINE
  5
AC1
330
F28
100
AcDbEntity
  8
NOTE
100
AcDbLine
 10
320.000024
 20
189.95268
 30
0.0
 11
327.96765
 21
217.381381
 31
0.0
  0
LINE
  5
AC2
330
F28
100
AcDbEntity
  8
NOTE
100
AcDbLine
 10
320.000024
 20
189.95268
 30
0.0
 11
340.6145410000001
 21
209.722818
 31
0.0
  0
LINE
  5
AC3
330
F28
100
AcDbEntity
  8
NOTE
100
AcDbLine
 10
320.000024
 20
130.0
 30
0.0
 11
330.080264
 21
156.724623
 31
0.0
  0
LINE
  5
AC4
330
F28
100
AcDbEntity
  8
NOTE
100
AcDbLine
 10
320.000024
 20
130.0
 30
0.0
 11
342.09208
 21
148.104082
 31
0.0
  0
LINE
  5
AC5
330
F28
100
AcDbEntity
  8
NOTE
100
AcDbLine
 10
353.275343
 20
505.0
 30
0.0
 11
286.724706
 21
505.0
 31
0.0
  0
LINE
  5
AC6
330
F28
100
AcDbEntity
  8
NOTE
100
AcDbLine
 10
320.000024
 20
538.2753179999999
 30
0.0
 11
320.000024
 21
471.724682
 31
0.0
  0
LINE
  5
AC7
330
F28
100
AcDbEntity
  8
NOTE
100
AcDbLine
 10
686.8854989999999
 20
1106.461256
 30
0.0
 11
320.000024
 21
505.0
 31
0.0
  0
TEXT
  5
AC8
330
F28
100
AcDbEntity
  8
NOTE
100
AcDbText
 10
714.273409
 20
1117.902972
 30
0.0
 40
50.0
  1
D3　Rc1
 50
359.999997
 41
0.6310000000000003
  7
STANDARD1
100
AcDbText
  0
LINE
  5
AC9
330
F28
100
AcDbEntity
  8
NOTE
100
AcDbLine
 10
320.000024
 20
505.0
 30
0.0
 11
328.049356
 21
532.4048349999998
 31
0.0
  0
LINE
  5
ACA
330
F28
100
AcDbEntity
  8
NOTE
100
AcDbLine
 10
320.000024
 20
505.0
 30
0.0
 11
340.673367
 21
524.708617
 31
0.0
  0
LINE
  5
ACB
330
F28
100
AcDbEntity
  8
NOTE
100
AcDbLine
 10
686.8854989999999
 20
1106.461256
 30
0.0
 11
925.8396989999999
 21
1106.461256
 31
0.0
  0
LINE
  5
ACD
330
F28
100
AcDbEntity
  8
SIZE
100
AcDbLine
 10
-320.000024
 20
1775.0
 30
0.0
 11
-320.000024
 21
1951.994165
 31
0.0
  0
LINE
  5
ACE
330
F28
100
AcDbEntity
  8
SIZE
100
AcDbLine
 10
320.000024
 20
1775.0
 30
0.0
 11
320.000024
 21
1951.994165
 31
0.0
  0
LINE
  5
ACF
330
F28
100
AcDbEntity
  8
SIZE
100
AcDbLine
 10
-310.000024
 20
1921.994165
 30
0.0
 11
310.000024
 21
1921.994165
 31
0.0
  0
CIRCLE
  5
AD0
330
F28
100
AcDbEntity
  8
SIZE
100
AcDbCircle
 10
-320.000024
 20
1921.994165
 30
0.0
 40
5.0
  0
LINE
  5
AD1
330
F28
100
AcDbEntity
  8
SIZE
100
AcDbLine
 10
-315.000024
 20
1921.994165
 30
0.0
 11
-310.000024
 21
1921.994165
 31
0.0
  0
CIRCLE
  5
AD2
330
F28
100
AcDbEntity
  8
SIZE
100
AcDbCircle
 10
320.000024
 20
1921.994165
 30
0.0
 40
5.0
  0
LINE
  5
AD3
330
F28
100
AcDbEntity
  8
SIZE
100
AcDbLine
 10
315.000024
 20
1921.994165
 30
0.0
 11
310.000024
 21
1921.994165
 31
0.0
  0
TEXT
  5
AD4
330
F28
100
AcDbEntity
  8
SIZE
100
AcDbText
 10
-74.05714285714285
 20
1941.994165
 30
0.0
 40
64.0
  1
640
 41
0.9
 72
     1
 11
0.0
 21
1941.994165
 31
0.0
100
AcDbText
  0
LINE
  5
AD8
330
F28
100
AcDbEntity
  8
SIZE
100
AcDbLine
 10
-371.0
 20
0.0
 30
0.0
 11
-1738.052205
 21
0.0
 31
0.0
  0
LINE
  5
AD9
330
F28
100
AcDbEntity
  8
SIZE
100
AcDbLine
 10
-340.000024
 20
1550.0
 30
0.0
 11
-1738.052205
 21
1550.0
 31
0.0
  0
LINE
  5
ADA
330
F28
100
AcDbEntity
  8
SIZE
100
AcDbLine
 10
-1708.052205
 20
10.0
 30
0.0
 11
-1708.052205
 21
1540.0
 31
0.0
  0
CIRCLE
  5
ADB
330
F28
100
AcDbEntity
  8
SIZE
100
AcDbCircle
 10
-1708.052205
 20
0.0
 30
0.0
 40
5.0
  0
LINE
  5
ADC
330
F28
100
AcDbEntity
  8
SIZE
100
AcDbLine
 10
-1708.052205
 20
5.0
 30
0.0
 11
-1708.052205
 21
10.0
 31
0.0
  0
CIRCLE
  5
ADD
330
F28
100
AcDbEntity
  8
SIZE
100
AcDbCircle
 10
-1708.052205
 20
1550.0
 30
0.0
 40
5.0
  0
LINE
  5
ADE
330
F28
100
AcDbEntity
  8
SIZE
100
AcDbLine
 10
-1708.052205
 20
1545.0
 30
0.0
 11
-1708.052205
 21
1540.0
 31
0.0
  0
TEXT
  5
ADF
330
F28
100
AcDbEntity
  8
SIZE
100
AcDbText
 10
-1728.052205
 20
679.0
 30
0.0
 40
64.0
  1
1550
 50
90.0
 41
0.9
 72
     1
 11
-1728.052205
 21
775.0
 31
0.0
100
AcDbText
  0
LINE
  5
AE3
330
F28
100
AcDbEntity
  8
SIZE
100
AcDbLine
 10
-340.000024
 20
1550.0
 30
0.0
 11
-1738.052205
 21
1550.0
 31
0.0
  0
LINE
  5
AE4
330
F28
100
AcDbEntity
  8
SIZE
100
AcDbLine
 10
-340.000024
 20
1750.0
 30
0.0
 11
-1738.052205
 21
1750.0
 31
0.0
  0
LINE
  5
AE5
330
F28
100
AcDbEntity
  8
SIZE
100
AcDbLine
 10
-1708.052205
 20
1560.0
 30
0.0
 11
-1708.052205
 21
1740.0
 31
0.0
  0
CIRCLE
  5
AE6
330
F28
100
AcDbEntity
  8
SIZE
100
AcDbCircle
 10
-1708.052205
 20
1550.0
 30
0.0
 40
5.0
  0
LINE
  5
AE7
330
F28
100
AcDbEntity
  8
SIZE
100
AcDbLine
 10
-1708.052205
 20
1555.0
 30
0.0
 11
-1708.052205
 21
1560.0
 31
0.0
  0
CIRCLE
  5
AE8
330
F28
100
AcDbEntity
  8
SIZE
100
AcDbCircle
 10
-1708.052205
 20
1750.0
 30
0.0
 40
5.0
  0
LINE
  5
AE9
330
F28
100
AcDbEntity
  8
SIZE
100
AcDbLine
 10
-1708.052205
 20
1745.0
 30
0.0
 11
-1708.052205
 21
1740.0
 31
0.0
  0
TEXT
  5
AEA
330
F28
100
AcDbEntity
  8
SIZE
100
AcDbText
 10
-1728.052205
 20
1578.442857142857
 30
0.0
 40
64.0
  1
200
 50
90.0
 41
0.9
 72
     1
 11
-1728.052205
 21
1652.5
 31
0.0
100
AcDbText
  0
LINE
  5
AEE
330
F28
100
AcDbEntity
  8
SIZE
100
AcDbLine
 10
-311.0
 20
-20.0
 30
0.0
 11
-311.0
 21
-384.505689
 31
0.0
  0
LINE
  5
AEF
330
F28
100
AcDbEntity
  8
SIZE
100
AcDbLine
 10
311.0
 20
-20.0
 30
0.0
 11
311.0
 21
-384.505689
 31
0.0
  0
LINE
  5
AF0
330
F28
100
AcDbEntity
  8
SIZE
100
AcDbLine
 10
-301.0
 20
-354.505689
 30
0.0
 11
301.0
 21
-354.505689
 31
0.0
  0
CIRCLE
  5
AF1
330
F28
100
AcDbEntity
  8
SIZE
100
AcDbCircle
 10
-311.0
 20
-354.505689
 30
0.0
 40
5.0
  0
LINE
  5
AF2
330
F28
100
AcDbEntity
  8
SIZE
100
AcDbLine
 10
-306.0
 20
-354.505689
 30
0.0
 11
-301.0
 21
-354.505689
 31
0.0
  0
CIRCLE
  5
AF3
330
F28
100
AcDbEntity
  8
SIZE
100
AcDbCircle
 10
311.0
 20
-354.505689
 30
0.0
 40
5.0
  0
LINE
  5
AF4
330
F28
100
AcDbEntity
  8
SIZE
100
AcDbLine
 10
306.0
 20
-354.505689
 30
0.0
 11
301.0
 21
-354.505689
 31
0.0
  0
TEXT
  5
AF5
330
F28
100
AcDbEntity
  8
SIZE
100
AcDbText
 10
-74.05714285714283
 20
-334.505689
 30
0.0
 40
64.0
  1
622
 41
0.9
 72
     1
 11
0.0
 21
-334.505689
 31
0.0
100
AcDbText
  0
LINE
  5
AF9
330
F28
100
AcDbEntity
  8
SIZE
100
AcDbLine
 10
320.000024
 20
99.975014
 30
0.0
 11
320.000024
 21
1057.718994
 31
0.0
  0
LINE
  5
AFA
330
F28
100
AcDbEntity
  8
SIZE
100
AcDbLine
 10
415.0003529999998
 20
100.0
 30
0.0
 11
415.0003529999998
 21
1057.718994
 31
0.0
  0
LINE
  5
AFB
330
F28
100
AcDbEntity
  8
SIZE
100
AcDbLine
 10
330.000024
 20
1027.718993999999
 30
0.0
 11
405.0003529999998
 21
1027.718993999999
 31
0.0
  0
LINE
  5
AFC
330
F28
100
AcDbEntity
  8
SIZE
100
AcDbLine
 10
415.0003529999998
 20
1027.718993999999
 30
0.0
 11
558.2574959999998
 21
1027.718993999999
 31
0.0
  0
CIRCLE
  5
AFD
330
F28
100
AcDbEntity
  8
SIZE
100
AcDbCircle
 10
320.000024
 20
1027.718993999999
 30
0.0
 40
5.0
  0
LINE
  5
AFE
330
F28
100
AcDbEntity
  8
SIZE
100
AcDbLine
 10
325.000024
 20
1027.718993999999
 30
0.0
 11
330.000024
 21
1027.718993999999
 31
0.0
  0
CIRCLE
  5
AFF
330
F28
100
AcDbEntity
  8
SIZE
100
AcDbCircle
 10
415.0003529999998
 20
1027.718993999999
 30
0.0
 40
5.0
  0
LINE
  5
B00
330
F28
100
AcDbEntity
  8
SIZE
100
AcDbLine
 10
410.0003529999998
 20
1027.718993999999
 30
0.0
 11
405.0003529999998
 21
1027.718993999999
 31
0.0
  0
TEXT
  5
B01
330
F28
100
AcDbEntity
  8
SIZE
100
AcDbText
 10
445.0003535714285
 20
1047.718994
 30
0.0
 40
64.0
  1
95
 41
0.9
 72
     1
 11
491.628925
 21
1047.718994
 31
0.0
100
AcDbText
  0
LINE
  5
B05
330
F28
100
AcDbEntity
  8
NOTE
100
AcDbLine
 10
-320.000024
 20
158.633911
 30
0.0
 11
-320.000024
 21
101.366089
 31
0.0
  0
LINE
  5
B06
330
F28
100
AcDbEntity
  8
SIZE
100
AcDbLine
 10
330.802898
 20
0.0
 30
0.0
 11
771.340414
 21
0.0
 31
0.0
  0
LINE
  5
B07
330
F28
100
AcDbEntity
  8
SIZE
100
AcDbLine
 10
340.000024
 20
130.0
 30
0.0
 11
771.340414
 21
130.0
 31
0.0
  0
LINE
  5
B08
330
F28
100
AcDbEntity
  8
SIZE
100
AcDbLine
 10
741.3404139999999
 20
120.0
 30
0.0
 11
741.3404139999999
 21
10.0
 31
0.0
  0
LINE
  5
B09
330
F28
100
AcDbEntity
  8
SIZE
100
AcDbLine
 10
741.3404139999999
 20
0.0
 30
0.0
 11
741.3404139999999
 21
-187.142857
 31
0.0
  0
CIRCLE
  5
B0A
330
F28
100
AcDbEntity
  8
SIZE
100
AcDbCircle
 10
741.3404139999999
 20
130.0
 30
0.0
 40
5.0
  0
LINE
  5
B0B
330
F28
100
AcDbEntity
  8
SIZE
100
AcDbLine
 10
741.3404139999999
 20
125.0
 30
0.0
 11
741.3404139999999
 21
120.0
 31
0.0
  0
CIRCLE
  5
B0C
330
F28
100
AcDbEntity
  8
SIZE
100
AcDbCircle
 10
741.3404139999999
 20
0.0
 30
0.0
 40
5.0
  0
LINE
  5
B0D
330
F28
100
AcDbEntity
  8
SIZE
100
AcDbLine
 10
741.3404139999999
 20
5.0
 30
0.0
 11
741.3404139999999
 21
10.0
 31
0.0
  0
TEXT
  5
B0E
330
F28
100
AcDbEntity
  8
SIZE
100
AcDbText
 10
721.340414
 20
-167.1428575714285
 30
0.0
 40
64.0
  1
130
 50
90.0
 41
0.9
 72
     1
 11
721.340414
 21
-98.57142899999999
 31
0.0
100
AcDbText
  0
LINE
  5
B12
330
F28
100
AcDbEntity
  8
SIZE
100
AcDbLine
 10
340.000024
 20
130.0
 30
0.0
 11
771.340414
 21
130.0
 31
0.0
  0
LINE
  5
B13
330
F28
100
AcDbEntity
  8
SIZE
100
AcDbLine
 10
340.000024
 20
190.0
 30
0.0
 11
771.340414
 21
190.0
 31
0.0
  0
LINE
  5
B14
330
F28
100
AcDbEntity
  8
SIZE
100
AcDbLine
 10
741.3404139999999
 20
120.0
 30
0.0
 11
741.3404139999999
 21
110.0
 31
0.0
  0
LINE
  5
B15
330
F28
100
AcDbEntity
  8
SIZE
100
AcDbLine
 10
741.3404139999999
 20
200.0
 30
0.0
 11
741.3404139999999
 21
210.0
 31
0.0
  0
LINE
  5
B16
330
F28
100
AcDbEntity
  8
SIZE
100
AcDbLine
 10
741.3404139999999
 20
160.0
 30
0.0
 11
904.92003
 21
216.440519
 31
0.0
  0
LINE
  5
B17
330
F28
100
AcDbEntity
  8
SIZE
100
AcDbLine
 10
904.92003
 20
216.440519
 30
0.0
 11
904.92003
 21
349.697662
 31
0.0
  0
TEXT
  5
B18
330
F28
100
AcDbEntity
  8
SIZE
100
AcDbText
 10
882.538948
 20
255.1299105714285
 30
0.0
 40
64.0
  1
60
 50
90.0
 41
0.9
 72
     1
 11
882.538948
 21
301.758482
 31
0.0
100
AcDbText
  0
LINE
  5
B19
330
F28
100
AcDbEntity
  8
SIZE
100
AcDbLine
 10
741.3404139999999
 20
130.0
 30
0.0
 11
741.3404139999999
 21
190.0
 31
0.0
  0
LINE
  5
B1A
330
F28
100
AcDbEntity
  8
SIZE
100
AcDbLine
 10
741.3404139999999
 20
130.0
 30
0.0
 11
741.3404139999999
 21
190.0
 31
0.0
  0
CIRCLE
  5
B1B
330
F28
100
AcDbEntity
  8
SIZE
100
AcDbCircle
 10
741.3404139999999
 20
130.0
 30
0.0
 40
5.0
  0
LINE
  5
B1C
330
F28
100
AcDbEntity
  8
SIZE
100
AcDbLine
 10
741.3404139999999
 20
125.0
 30
0.0
 11
741.3404139999999
 21
120.0
 31
0.0
  0
CIRCLE
  5
B1D
330
F28
100
AcDbEntity
  8
SIZE
100
AcDbCircle
 10
741.3404139999999
 20
190.0
 30
0.0
 40
5.0
  0
LINE
  5
B1E
330
F28
100
AcDbEntity
  8
SIZE
100
AcDbLine
 10
741.3404139999999
 20
195.0
 30
0.0
 11
741.3404139999999
 21
200.0
 31
0.0
  0
LINE
  5
B22
330
F28
100
AcDbEntity
  8
SIZE
100
AcDbLine
 10
340.000024
 20
190.0
 30
0.0
 11
771.340414
 21
190.0
 31
0.0
  0
LINE
  5
B23
330
F28
100
AcDbEntity
  8
SIZE
100
AcDbLine
 10
341.18687
 20
250.0
 30
0.0
 11
771.340414
 21
250.0
 31
0.0
  0
LINE
  5
B24
330
F28
100
AcDbEntity
  8
SIZE
100
AcDbLine
 10
741.3404139999999
 20
200.0
 30
0.0
 11
741.3404139999999
 21
240.0
 31
0.0
  0
LINE
  5
B25
330
F28
100
AcDbEntity
  8
SIZE
100
AcDbLine
 10
741.3404139999999
 20
401.2883569999998
 30
0.0
 11
741.3404139999999
 21
250.0
 31
0.0
  0
TEXT
  5
B26
330
F28
100
AcDbEntity
  8
SIZE
100
AcDbText
 10
721.340414
 20
288.0312135714286
 30
0.0
 40
64.0
  1
60
 50
90.0
 41
0.9
 72
     1
 11
721.340414
 21
334.659785
 31
0.0
100
AcDbText
  0
CIRCLE
  5
B27
330
F28
100
AcDbEntity
  8
SIZE
100
AcDbCircle
 10
741.3404139999999
 20
190.0
 30
0.0
 40
5.0
  0
LINE
  5
B28
330
F28
100
AcDbEntity
  8
SIZE
100
AcDbLine
 10
741.3404139999999
 20
195.0
 30
0.0
 11
741.3404139999999
 21
200.0
 31
0.0
  0
CIRCLE
  5
B29
330
F28
100
AcDbEntity
  8
SIZE
100
AcDbCircle
 10
741.3404139999999
 20
250.0
 30
0.0
 40
5.0
  0
LINE
  5
B2A
330
F28
100
AcDbEntity
  8
SIZE
100
AcDbLine
 10
741.3404139999999
 20
245.0
 30
0.0
 11
741.3404139999999
 21
240.0
 31
0.0
  0
LINE
  5
B2E
330
F28
100
AcDbEntity
  8
SIZE
100
AcDbLine
 10
330.802898
 20
0.0
 30
0.0
 11
1120.0
 21
0.0
 31
0.0
  0
LINE
  5
B2F
330
F28
100
AcDbEntity
  8
SIZE
100
AcDbLine
 10
340.000024
 20
505.0
 30
0.0
 11
1120.0
 21
505.0
 31
0.0
  0
LINE
  5
B30
330
F28
100
AcDbEntity
  8
SIZE
100
AcDbLine
 10
1106.451887
 20
10.0
 30
0.0
 11
1106.451887
 21
495.0
 31
0.0
  0
CIRCLE
  5
B31
330
F28
100
AcDbEntity
  8
SIZE
100
AcDbCircle
 10
1106.451887
 20
0.0
 30
0.0
 40
5.0
  0
LINE
  5
B32
330
F28
100
AcDbEntity
  8
SIZE
100
AcDbLine
 10
1106.451887
 20
5.0
 30
0.0
 11
1106.451887
 21
10.0
 31
0.0
  0
CIRCLE
  5
B33
330
F28
100
AcDbEntity
  8
SIZE
100
AcDbCircle
 10
1106.451887
 20
505.0
 30
0.0
 40
5.0
  0
LINE
  5
B34
330
F28
100
AcDbEntity
  8
SIZE
100
AcDbLine
 10
1106.451887
 20
500.0
 30
0.0
 11
1106.451887
 21
495.0
 31
0.0
  0
TEXT
  5
B35
330
F28
100
AcDbEntity
  8
SIZE
100
AcDbText
 10
1090.830046
 20
179.8151971428571
 30
0.0
 40
64.0
  1
505
 50
90.0
 41
0.9
 72
     1
 11
1090.830046
 21
253.87234
 31
0.0
100
AcDbText
  0
LINE
  5
B39
330
F28
100
AcDbEntity
  8
BASIS
100
AcDbLine
 10
0.0
 20
1868.004526
 30
0.0
 11
0.0
 21
-97.727388
 31
0.0
  0
TEXT
  5
B3A
330
F28
100
AcDbEntity
  8
ETC
100
AcDbText
 10
-1690.584897210965
 20
1944.55967022591
 30
0.0
 40
90.0
  1
RF-P2_3A1_PLENUM_2
 50
359.999997
 41
0.6030590000000001
  7
STANDARD1
100
AcDbText
  0
LINE
  5
B3D
330
F28
100
AcDbEntity
  8
SIZE
100
AcDbLine
 10
-337.0
 20
-20.0
 30
0.0
 11
-337.0
 21
-559.1698389999996
 31
0.0
  0
LINE
  5
B3E
330
F28
100
AcDbEntity
  8
SIZE
100
AcDbLine
 10
337.0
 20
-20.0
 30
0.0
 11
337.0
 21
-559.1698389999996
 31
0.0
  0
LINE
  5
B3F
330
F28
100
AcDbEntity
  8
SIZE
100
AcDbLine
 10
-327.0
 20
-529.1698389999996
 30
0.0
 11
327.0
 21
-529.1698389999996
 31
0.0
  0
CIRCLE
  5
B40
330
F28
100
AcDbEntity
  8
SIZE
100
AcDbCircle
 10
-337.0
 20
-529.1698389999996
 30
0.0
 40
5.0
  0
LINE
  5
B41
330
F28
100
AcDbEntity
  8
SIZE
100
AcDbLine
 10
-332.0
 20
-529.1698389999996
 30
0.0
 11
-327.0
 21
-529.1698389999996
 31
0.0
  0
CIRCLE
  5
B42
330
F28
100
AcDbEntity
  8
SIZE
100
AcDbCircle
 10
337.0
 20
-529.1698389999996
 30
0.0
 40
5.0
  0
LINE
  5
B43
330
F28
100
AcDbEntity
  8
SIZE
100
AcDbLine
 10
332.0
 20
-529.1698389999996
 30
0.0
 11
327.0
 21
-529.1698389999996
 31
0.0
  0
TEXT
  5
B44
330
F28
100
AcDbEntity
  8
SIZE
100
AcDbText
 10
-75.42857142857141
 20
-509.1698389999998
 30
0.0
 40
64.0
  1
674
 41
0.9
 72
     1
 11
0.0
 21
-509.1698389999998
 31
0.0
100
AcDbText
  0
LINE
  5
B48
330
F28
100
AcDbEntity
  8
SIZE
100
AcDbLine
 10
-351.0
 20
-20.0
 30
0.0
 11
-351.0
 21
-742.169793
 31
0.0
  0
LINE
  5
B49
330
F28
100
AcDbEntity
  8
SIZE
100
AcDbLine
 10
351.0
 20
-20.0
 30
0.0
 11
351.0
 21
-742.169793
 31
0.0
  0
LINE
  5
B4A
330
F28
100
AcDbEntity
  8
SIZE
100
AcDbLine
 10
-341.0
 20
-712.169793
 30
0.0
 11
341.0
 21
-712.169793
 31
0.0
  0
CIRCLE
  5
B4B
330
F28
100
AcDbEntity
  8
SIZE
100
AcDbCircle
 10
-351.0
 20
-712.169793
 30
0.0
 40
5.0
  0
LINE
  5
B4C
330
F28
100
AcDbEntity
  8
SIZE
100
AcDbLine
 10
-346.0
 20
-712.169793
 30
0.0
 11
-341.0
 21
-712.169793
 31
0.0
  0
CIRCLE
  5
B4D
330
F28
100
AcDbEntity
  8
SIZE
100
AcDbCircle
 10
351.0
 20
-712.169793
 30
0.0
 40
5.0
  0
LINE
  5
B4E
330
F28
100
AcDbEntity
  8
SIZE
100
AcDbLine
 10
346.0
 20
-712.169793
 30
0.0
 11
341.0
 21
-712.169793
 31
0.0
  0
TEXT
  5
B4F
330
F28
100
AcDbEntity
  8
SIZE
100
AcDbText
 10
-74.05714285714285
 20
-692.169793
 30
0.0
 40
64.0
  1
702
 41
0.9
 72
     1
 11
0.0
 21
-692.169793
 31
0.0
100
AcDbText
  0
TEXT
  5
B53
330
F28
100
AcDbEntity
  8
NOTE
100
AcDbText
 10
-887.057571
 20
-400.9182479999997
 30
0.0
 40
50.0
  1
【※はプラグ付】
 50
359.999997
 41
0.6310000000000003
  7
STANDARD1
100
AcDbText
  0
LINE
  5
B54
330
F28
100
AcDbEntity
  8
NOTE
100
AcDbLine
 10
374.000024
 20
219.63641
 30
0.0
 11
374.000024
 21
178.36359
 31
0.0
  0
LINE
  5
B55
330
F28
100
AcDbEntity
  8
NOTE
100
AcDbLine
 10
394.636434
 20
199.0
 30
0.0
 11
353.363615
 21
199.0
 31
0.0
  0
LINE
  5
B56
330
F28
100
AcDbEntity
  8
NOTE
100
AcDbLine
 10
374.074396
 20
143.63641
 30
0.0
 11
374.074396
 21
102.36359
 31
0.0
  0
LINE
  5
B57
330
F28
100
AcDbEntity
  8
NOTE
100
AcDbLine
 10
394.710806
 20
123.0
 30
0.0
 11
353.437987
 21
123.0
 31
0.0
  0
LINE
  5
B58
330
F28
100
AcDbEntity
  8
NOTE
100
AcDbLine
 10
820.2703089999996
 20
-90.112526
 30
0.0
 11
374.000024
 21
199.0
 31
0.0
  0
LINE
  5
B59
330
F28
100
AcDbEntity
  8
NOTE
100
AcDbLine
 10
79.982249
 20
-182.689842
 30
0.0
 11
374.0696890000001
 21
123.0
 31
0.0
  0
LINE
  5
B5A
330
F28
100
AcDbEntity
  8
NOTE
100
AcDbLine
 10
79.982249
 20
-182.646701
 30
0.0
 11
-293.926773
 21
-182.646701
 31
0.0
  0
TEXT
  5
B5B
330
F28
100
AcDbEntity
  8
NOTE
100
AcDbText
 10
-254.524777
 20
-170.584129
 30
0.0
 40
50.0
  1
RL　\U+03C69.52ﾌﾚｱ
 50
0.000003
 41
0.6310000000000003
  7
STANDARD1
100
AcDbText
  0
TEXT
  5
B5C
330
F28
100
AcDbEntity
  8
NOTE
100
AcDbText
 10
855.5139249999998
 20
-79.46858500000002
 30
0.0
 40
50.0
  1
RG　\U+03C612.7ﾌﾚｱ
 50
0.000003
 41
0.6310000000000003
  7
STANDARD1
100
AcDbText
  0
LINE
  5
B5D
330
F28
100
AcDbEntity
  8
NOTE
100
AcDbLine
 10
1184.880284
 20
-90.4326
 30
0.0
 11
820.2209679999999
 21
-90.469129
 31
0.0
  0
LINE
  5
B5E
330
F28
100
AcDbEntity
  8
NOTE
100
AcDbLine
 10
374.0696890000001
 20
123.0
 30
0.0
 11
349.786468
 21
107.961987
 31
0.0
  0
LINE
  5
B5F
330
F28
100
AcDbEntity
  8
NOTE
100
AcDbLine
 10
374.0696890000001
 20
123.0
 30
0.0
 11
360.558809
 21
97.835087
 31
0.0
  0
LINE
  5
B60
330
F28
100
AcDbEntity
  8
NOTE
100
AcDbLine
 10
374.000024
 20
199.0
 30
0.0
 11
401.235665
 21
190.39555
 31
0.0
  0
LINE
  5
B61
330
F28
100
AcDbEntity
  8
NOTE
100
AcDbLine
 10
374.000024
 20
199.0
 30
0.0
 11
393.284556
 21
177.930507
 31
0.0
  0
LINE
  5
B62
330
F28
100
AcDbEntity
  8
SIZE
100
AcDbLine
 10
320.000024
 20
150.0
 30
0.0
 11
320.000024
 21
927.5617089999999
 31
0.0
  0
LINE
  5
B63
330
F28
100
AcDbEntity
  8
SIZE
100
AcDbLine
 10
374.000024
 20
143.0
 30
0.0
 11
374.000024
 21
927.5617089999999
 31
0.0
  0
LINE
  5
B64
330
F28
100
AcDbEntity
  8
SIZE
100
AcDbLine
 10
310.000024
 20
897.561709
 30
0.0
 11
300.000024
 21
897.561709
 31
0.0
  0
LINE
  5
B65
330
F28
100
AcDbEntity
  8
SIZE
100
AcDbLine
 10
384.000024
 20
897.561709
 30
0.0
 11
394.000024
 21
897.561709
 31
0.0
  0
LINE
  5
B66
330
F28
100
AcDbEntity
  8
SIZE
100
AcDbLine
 10
551.9841150000002
 20
897.561709
 30
0.0
 11
374.000024
 21
897.561709
 31
0.0
  0
TEXT
  5
B67
330
F28
100
AcDbEntity
  8
SIZE
100
AcDbText
 10
435.984115
 20
917.5617089999999
 30
0.0
 40
64.0
  1
54
 41
0.9
 72
     1
 11
483.984115
 21
917.5617089999999
 31
0.0
100
AcDbText
  0
LINE
  5
B68
330
F28
100
AcDbEntity
  8
SIZE
100
AcDbLine
 10
320.000024
 20
897.561709
 30
0.0
 11
374.000024
 21
897.561709
 31
0.0
  0
LINE
  5
B69
330
F28
100
AcDbEntity
  8
SIZE
100
AcDbLine
 10
320.000024
 20
897.561709
 30
0.0
 11
374.000024
 21
897.561709
 31
0.0
  0
CIRCLE
  5
B6A
330
F28
100
AcDbEntity
  8
SIZE
100
AcDbCircle
 10
320.000024
 20
897.561709
 30
0.0
 40
5.0
  0
LINE
  5
B6B
330
F28
100
AcDbEntity
  8
SIZE
100
AcDbLine
 10
315.000024
 20
897.561709
 30
0.0
 11
310.000024
 21
897.561709
 31
0.0
  0
CIRCLE
  5
B6C
330
F28
100
AcDbEntity
  8
SIZE
100
AcDbCircle
 10
374.000024
 20
897.561709
 30
0.0
 40
5.0
  0
LINE
  5
B6D
330
F28
100
AcDbEntity
  8
SIZE
100
AcDbLine
 10
379.000024
 20
897.561709
 30
0.0
 11
384.000024
 21
897.561709
 31
0.0
  0
LINE
  5
B71
330
F28
100
AcDbEntity
  8
SIZE
100
AcDbLine
 10
417.738613
 20
0.0
 30
0.0
 11
616.1174879999999
 21
0.0
 31
0.0
  0
LINE
  5
B72
330
F28
100
AcDbEntity
  8
SIZE
100
AcDbLine
 10
394.074396
 20
123.0
 30
0.0
 11
616.1174879999999
 21
123.0
 31
0.0
  0
LINE
  5
B73
330
F28
100
AcDbEntity
  8
SIZE
100
AcDbLine
 10
586.117488
 20
10.0
 30
0.0
 11
586.117488
 21
113.0
 31
0.0
  0
LINE
  5
B74
330
F28
100
AcDbEntity
  8
SIZE
100
AcDbLine
 10
586.117488
 20
-191.061651
 30
0.0
 11
586.117488
 21
0.0
 31
0.0
  0
TEXT
  5
B75
330
F28
100
AcDbEntity
  8
SIZE
100
AcDbText
 10
566.1174879999999
 20
-171.0616505714285
 30
0.0
 40
64.0
  1
123
 50
90.0
 41
0.9
 72
     1
 11
566.1174879999999
 21
-102.490222
 31
0.0
100
AcDbText
  0
CIRCLE
  5
B76
330
F28
100
AcDbEntity
  8
SIZE
100
AcDbCircle
 10
586.117488
 20
0.0
 30
0.0
 40
5.0
  0
LINE
  5
B77
330
F28
100
AcDbEntity
  8
SIZE
100
AcDbLine
 10
586.117488
 20
5.0
 30
0.0
 11
586.117488
 21
10.0
 31
0.0
  0
CIRCLE
  5
B78
330
F28
100
AcDbEntity
  8
SIZE
100
AcDbCircle
 10
586.117488
 20
123.0
 30
0.0
 40
5.0
  0
LINE
  5
B79
330
F28
100
AcDbEntity
  8
SIZE
100
AcDbLine
 10
586.117488
 20
118.0
 30
0.0
 11
586.117488
 21
113.0
 31
0.0
  0
LINE
  5
B7D
330
F28
100
AcDbEntity
  8
SIZE
100
AcDbLine
 10
394.074396
 20
123.0
 30
0.0
 11
616.118217
 21
123.0
 31
0.0
  0
LINE
  5
B7E
330
F28
100
AcDbEntity
  8
SIZE
100
AcDbLine
 10
394.074396
 20
199.0
 30
0.0
 11
616.118217
 21
199.0
 31
0.0
  0
LINE
  5
B7F
330
F28
100
AcDbEntity
  8
SIZE
100
AcDbLine
 10
586.1182169999997
 20
133.0
 30
0.0
 11
586.1182169999997
 21
189.0
 31
0.0
  0
LINE
  5
B80
330
F28
100
AcDbEntity
  8
SIZE
100
AcDbLine
 10
586.1182169999997
 20
389.027188
 30
0.0
 11
586.1182169999997
 21
199.0
 31
0.0
  0
TEXT
  5
B81
330
F28
100
AcDbEntity
  8
SIZE
100
AcDbText
 10
566.118217
 20
278.5129021428572
 30
0.0
 40
64.0
  1
76
 50
90.0
 41
0.9
 72
     1
 11
566.118217
 21
323.7700450000001
 31
0.0
100
AcDbText
  0
CIRCLE
  5
B82
330
F28
100
AcDbEntity
  8
SIZE
100
AcDbCircle
 10
586.1182169999997
 20
123.0
 30
0.0
 40
5.0
  0
LINE
  5
B83
330
F28
100
AcDbEntity
  8
SIZE
100
AcDbLine
 10
586.1182169999997
 20
128.0
 30
0.0
 11
586.1182169999997
 21
133.0
 31
0.0
  0
CIRCLE
  5
B84
330
F28
100
AcDbEntity
  8
SIZE
100
AcDbCircle
 10
586.1182169999997
 20
199.0
 30
0.0
 40
5.0
  0
LINE
  5
B85
330
F28
100
AcDbEntity
  8
SIZE
100
AcDbLine
 10
586.1182169999997
 20
194.0
 30
0.0
 11
586.1182169999997
 21
189.0
 31
0.0
  0
LINE
  5
B89
330
F28
100
AcDbEntity
  8
OUTLINE
100
AcDbLine
 10
340.793528
 20
80.0
 30
0.0
 11
320.000024
 21
80.0
 31
0.0
  0
LINE
  5
B8A
330
F28
100
AcDbEntity
  8
OUTLINE
100
AcDbLine
 10
320.000024
 20
80.0
 30
0.0
 11
320.000024
 21
241.124667
 31
0.0
  0
LINE
  5
B8C
330
F28
100
AcDbEntity
  8
OUTLINE
100
AcDbLine
 10
311.0
 20
80.0
 30
0.0
 11
311.0
 21
34.989069
 31
0.0
  0
LINE
  5
B8D
330
F28
100
AcDbEntity
  8
OUTLINE
100
AcDbLine
 10
311.0
 20
34.989069
 30
0.0
 11
315.301492
 21
34.989069
 31
0.0
  0
LINE
  5
B8E
330
F28
100
AcDbEntity
  8
OUTLINE
100
AcDbLine
 10
315.301492
 20
34.989069
 30
0.0
 11
315.301492
 21
4.498594999999999
 31
0.0
  0
LINE
  5
B8F
330
F28
100
AcDbEntity
  8
OUTLINE
100
AcDbLine
 10
315.301492
 20
4.498594999999999
 30
0.0
 11
340.793528
 21
4.498594999999999
 31
0.0
  0
LINE
  5
B90
330
F28
100
AcDbEntity
  8
OUTLINE
100
AcDbLine
 10
-311.0
 20
48.984696
 30
0.0
 11
-311.0
 21
34.989069
 31
0.0
  0
LINE
  5
B91
330
F28
100
AcDbEntity
  8
OUTLINE
100
AcDbLine
 10
-311.0
 20
34.989069
 30
0.0
 11
-315.101555
 21
34.989069
 31
0.0
  0
LINE
  5
B92
330
F28
100
AcDbEntity
  8
OUTLINE
100
AcDbLine
 10
-315.101555
 20
34.989069
 30
0.0
 11
-315.101555
 21
10.996564
 31
0.0
  0
TEXT
  5
B93
330
F28
100
AcDbEntity
  8
NOTE
100
AcDbText
 10
-842.1349259999997
 20
832.7333239999997
 30
0.0
 40
50.0
  1
【※はプラグ付】
 50
359.999997
 41
0.6310000000000003
  7
STANDARD1
100
AcDbText
  0
LINE
  5
B94
330
F28
100
AcDbEntity
  8
SIZE
100
AcDbLine
 10
-330.802898
 20
0.0
 30
0.0
 11
-1101.607932
 21
0.0
 31
0.0
  0
LINE
  5
B95
330
F28
100
AcDbEntity
  8
SIZE
100
AcDbLine
 10
-340.000024
 20
505.0
 30
0.0
 11
-1101.607932
 21
505.0
 31
0.0
  0
LINE
  5
B96
330
F28
100
AcDbEntity
  8
SIZE
100
AcDbLine
 10
-1071.607932
 20
10.0
 30
0.0
 11
-1071.607932
 21
495.0
 31
0.0
  0
CIRCLE
  5
B97
330
F28
100
AcDbEntity
  8
SIZE
100
AcDbCircle
 10
-1071.607932
 20
0.0
 30
0.0
 40
5.0
  0
LINE
  5
B98
330
F28
100
AcDbEntity
  8
SIZE
100
AcDbLine
 10
-1071.607932
 20
5.0
 30
0.0
 11
-1071.607932
 21
10.0
 31
0.0
  0
CIRCLE
  5
B99
330
F28
100
AcDbEntity
  8
SIZE
100
AcDbCircle
 10
-1071.607932
 20
505.0
 30
0.0
 40
5.0
  0
LINE
  5
B9A
330
F28
100
AcDbEntity
  8
SIZE
100
AcDbLine
 10
-1071.607932
 20
500.0
 30
0.0
 11
-1071.607932
 21
495.0
 31
0.0
  0
TEXT
  5
B9B
330
F28
100
AcDbEntity
  8
SIZE
100
AcDbText
 10
-1091.607932
 20
178.4428571428571
 30
0.0
 40
64.0
  1
505
 50
90.0
 41
0.9
 72
     1
 11
-1091.607932
 21
252.5
 31
0.0
100
AcDbText
  0
LINE
  5
B9F
330
F28
100
AcDbEntity
  8
SIZE
100
AcDbLine
 10
-340.000024
 20
130.0
 30
0.0
 11
-771.340414
 21
130.0
 31
0.0
  0
LINE
  5
BA0
330
F28
100
AcDbEntity
  8
SIZE
100
AcDbLine
 10
-340.000024
 20
190.0
 30
0.0
 11
-771.340414
 21
190.0
 31
0.0
  0
LINE
  5
BA1
330
F28
100
AcDbEntity
  8
SIZE
100
AcDbLine
 10
-741.3404139999999
 20
120.0
 30
0.0
 11
-741.3404139999999
 21
110.0
 31
0.0
  0
LINE
  5
BA2
330
F28
100
AcDbEntity
  8
SIZE
100
AcDbLine
 10
-741.3404139999999
 20
200.0
 30
0.0
 11
-741.3404139999999
 21
210.0
 31
0.0
  0
LINE
  5
BA3
330
F28
100
AcDbEntity
  8
SIZE
100
AcDbLine
 10
-741.3404139999999
 20
160.0
 30
0.0
 11
-904.92003
 21
216.440519
 31
0.0
  0
LINE
  5
BA4
330
F28
100
AcDbEntity
  8
SIZE
100
AcDbLine
 10
-904.92003
 20
216.440519
 30
0.0
 11
-904.92003
 21
349.697662
 31
0.0
  0
TEXT
  5
BA5
330
F28
100
AcDbEntity
  8
SIZE
100
AcDbText
 10
-924.9200300000001
 20
236.4405185714286
 30
0.0
 40
64.0
  1
60
 50
90.0
 41
0.9
 72
     1
 11
-924.9200300000001
 21
283.06909
 31
0.0
100
AcDbText
  0
LINE
  5
BA6
330
F28
100
AcDbEntity
  8
SIZE
100
AcDbLine
 10
-741.3404139999999
 20
130.0
 30
0.0
 11
-741.3404139999999
 21
190.0
 31
0.0
  0
LINE
  5
BA7
330
F28
100
AcDbEntity
  8
SIZE
100
AcDbLine
 10
-741.3404139999999
 20
130.0
 30
0.0
 11
-741.3404139999999
 21
190.0
 31
0.0
  0
CIRCLE
  5
BA8
330
F28
100
AcDbEntity
  8
SIZE
100
AcDbCircle
 10
-741.3404139999999
 20
130.0
 30
0.0
 40
5.0
  0
LINE
  5
BA9
330
F28
100
AcDbEntity
  8
SIZE
100
AcDbLine
 10
-741.3404139999999
 20
125.0
 30
0.0
 11
-741.3404139999999
 21
120.0
 31
0.0
  0
CIRCLE
  5
BAA
330
F28
100
AcDbEntity
  8
SIZE
100
AcDbCircle
 10
-741.3404139999999
 20
190.0
 30
0.0
 40
5.0
  0
LINE
  5
BAB
330
F28
100
AcDbEntity
  8
SIZE
100
AcDbLine
 10
-741.3404139999999
 20
195.0
 30
0.0
 11
-741.3404139999999
 21
200.0
 31
0.0
  0
LINE
  5
BAF
330
F28
100
AcDbEntity
  8
SIZE
100
AcDbLine
 10
-340.000024
 20
190.0
 30
0.0
 11
-771.340414
 21
190.0
 31
0.0
  0
LINE
  5
BB0
330
F28
100
AcDbEntity
  8
SIZE
100
AcDbLine
 10
-341.18687
 20
250.0
 30
0.0
 11
-771.340414
 21
250.0
 31
0.0
  0
LINE
  5
BB1
330
F28
100
AcDbEntity
  8
SIZE
100
AcDbLine
 10
-741.3404139999999
 20
200.0
 30
0.0
 11
-741.3404139999999
 21
240.0
 31
0.0
  0
LINE
  5
BB2
330
F28
100
AcDbEntity
  8
SIZE
100
AcDbLine
 10
-741.3404139999999
 20
401.2883569999998
 30
0.0
 11
-741.3404139999999
 21
250.0
 31
0.0
  0
TEXT
  5
BB3
330
F28
100
AcDbEntity
  8
SIZE
100
AcDbText
 10
-761.340414
 20
288.0312135714286
 30
0.0
 40
64.0
  1
60
 50
90.0
 41
0.9
 72
     1
 11
-761.340414
 21
334.659785
 31
0.0
100
AcDbText
  0
CIRCLE
  5
BB4
330
F28
100
AcDbEntity
  8
SIZE
100
AcDbCircle
 10
-741.3404139999999
 20
190.0
 30
0.0
 40
5.0
  0
LINE
  5
BB5
330
F28
100
AcDbEntity
  8
SIZE
100
AcDbLine
 10
-741.3404139999999
 20
195.0
 30
0.0
 11
-741.3404139999999
 21
200.0
 31
0.0
  0
CIRCLE
  5
BB6
330
F28
100
AcDbEntity
  8
SIZE
100
AcDbCircle
 10
-741.3404139999999
 20
250.0
 30
0.0
 40
5.0
  0
LINE
  5
BB7
330
F28
100
AcDbEntity
  8
SIZE
100
AcDbLine
 10
-741.3404139999999
 20
245.0
 30
0.0
 11
-741.3404139999999
 21
240.0
 31
0.0
  0
LINE
  5
BBB
330
F28
100
AcDbEntity
  8
SIZE
100
AcDbLine
 10
-330.802898
 20
0.0
 30
0.0
 11
-771.340414
 21
0.0
 31
0.0
  0
LINE
  5
BBC
330
F28
100
AcDbEntity
  8
SIZE
100
AcDbLine
 10
-340.000024
 20
130.0
 30
0.0
 11
-771.340414
 21
130.0
 31
0.0
  0
LINE
  5
BBD
330
F28
100
AcDbEntity
  8
SIZE
100
AcDbLine
 10
-741.3404139999999
 20
120.0
 30
0.0
 11
-741.3404139999999
 21
10.0
 31
0.0
  0
LINE
  5
BBE
330
F28
100
AcDbEntity
  8
SIZE
100
AcDbLine
 10
-741.3404139999999
 20
0.0
 30
0.0
 11
-741.3404139999999
 21
-187.142857
 31
0.0
  0
CIRCLE
  5
BBF
330
F28
100
AcDbEntity
  8
SIZE
100
AcDbCircle
 10
-741.3404139999999
 20
130.0
 30
0.0
 40
5.0
  0
LINE
  5
BC0
330
F28
100
AcDbEntity
  8
SIZE
100
AcDbLine
 10
-741.3404139999999
 20
125.0
 30
0.0
 11
-741.3404139999999
 21
120.0
 31
0.0
  0
CIRCLE
  5
BC1
330
F28
100
AcDbEntity
  8
SIZE
100
AcDbCircle
 10
-741.3404139999999
 20
0.0
 30
0.0
 40
5.0
  0
LINE
  5
BC2
330
F28
100
AcDbEntity
  8
SIZE
100
AcDbLine
 10
-741.3404139999999
 20
5.0
 30
0.0
 11
-741.3404139999999
 21
10.0
 31
0.0
  0
TEXT
  5
BC3
330
F28
100
AcDbEntity
  8
SIZE
100
AcDbText
 10
-761.340414
 20
-167.1428575714285
 30
0.0
 40
64.0
  1
130
 50
90.0
 41
0.9
 72
     1
 11
-761.340414
 21
-98.57142899999999
 31
0.0
100
AcDbText
  0
LINE
  5
BC7
330
F28
100
AcDbEntity
  8
SIZE
100
AcDbLine
 10
-371.0
 20
0.0
 30
0.0
 11
-1402.176061
 21
0.0
 31
0.0
  0
LINE
  5
BC8
330
F28
100
AcDbEntity
  8
SIZE
100
AcDbLine
 10
-340.000024
 20
80.0
 30
0.0
 11
-1402.176061
 21
80.0
 31
0.0
  0
LINE
  5
BC9
330
F28
100
AcDbEntity
  8
SIZE
100
AcDbLine
 10
-1372.176061
 20
70.0
 30
0.0
 11
-1372.176061
 21
10.0
 31
0.0
  0
LINE
  5
BCA
330
F28
100
AcDbEntity
  8
SIZE
100
AcDbLine
 10
-1372.176061
 20
0.0
 30
0.0
 11
-1372.176061
 21
-158.041244
 31
0.0
  0
CIRCLE
  5
BCB
330
F28
100
AcDbEntity
  8
SIZE
100
AcDbCircle
 10
-1372.176061
 20
80.0
 30
0.0
 40
5.0
  0
LINE
  5
BCC
330
F28
100
AcDbEntity
  8
SIZE
100
AcDbLine
 10
-1372.176061
 20
75.0
 30
0.0
 11
-1372.176061
 21
70.0
 31
0.0
  0
CIRCLE
  5
BCD
330
F28
100
AcDbEntity
  8
SIZE
100
AcDbCircle
 10
-1372.176061
 20
0.0
 30
0.0
 40
5.0
  0
LINE
  5
BCE
330
F28
100
AcDbEntity
  8
SIZE
100
AcDbLine
 10
-1372.176061
 20
5.0
 30
0.0
 11
-1372.176061
 21
10.0
 31
0.0
  0
TEXT
  5
BCF
330
F28
100
AcDbEntity
  8
SIZE
100
AcDbText
 10
-1392.176061
 20
-138.0412444285714
 30
0.0
 40
64.0
  1
80
 50
90.0
 41
0.9
 72
     1
 11
-1392.176061
 21
-91.412673
 31
0.0
100
AcDbText
  0
LINE
  5
BD3
330
F28
100
AcDbEntity
  8
SIZE
100
AcDbLine
 10
-340.000024
 20
80.0
 30
0.0
 11
-1402.176061
 21
80.0
 31
0.0
  0
LINE
  5
BD4
330
F28
100
AcDbEntity
  8
SIZE
100
AcDbLine
 10
-242.830383
 20
615.9976069999999
 30
0.0
 11
-1402.176061
 21
615.9976069999999
 31
0.0
  0
LINE
  5
BD5
330
F28
100
AcDbEntity
  8
SIZE
100
AcDbLine
 10
-1372.176061
 20
90.0
 30
0.0
 11
-1372.176061
 21
605.997607
 31
0.0
  0
CIRCLE
  5
BD6
330
F28
100
AcDbEntity
  8
SIZE
100
AcDbCircle
 10
-1372.176061
 20
80.0
 30
0.0
 40
5.0
  0
LINE
  5
BD7
330
F28
100
AcDbEntity
  8
SIZE
100
AcDbLine
 10
-1372.176061
 20
85.0
 30
0.0
 11
-1372.176061
 21
90.0
 31
0.0
  0
CIRCLE
  5
BD8
330
F28
100
AcDbEntity
  8
SIZE
100
AcDbCircle
 10
-1372.176061
 20
615.9976069999999
 30
0.0
 40
5.0
  0
LINE
  5
BD9
330
F28
100
AcDbEntity
  8
SIZE
100
AcDbLine
 10
-1372.176061
 20
610.997607
 30
0.0
 11
-1372.176061
 21
605.997607
 31
0.0
  0
TEXT
  5
BDA
330
F28
100
AcDbEntity
  8
SIZE
100
AcDbText
 10
-1392.176061
 20
275.3130897142857
 30
0.0
 40
64.0
  1
536
 50
90.0
 41
0.9
 72
     1
 11
-1392.176061
 21
347.998804
 31
0.0
100
AcDbText
  0
LINE
  5
BDE
330
F28
100
AcDbEntity
  8
SIZE
100
AcDbLine
 10
-242.830383
 20
615.9976069999999
 30
0.0
 11
-1402.176061
 21
615.9976069999999
 31
0.0
  0
LINE
  5
BDF
330
F28
100
AcDbEntity
  8
SIZE
100
AcDbLine
 10
-232.833506
 20
1035.99643
 30
0.0
 11
-1402.176061
 21
1035.99643
 31
0.0
  0
LINE
  5
BE0
330
F28
100
AcDbEntity
  8
SIZE
100
AcDbLine
 10
-1372.176061
 20
625.997607
 30
0.0
 11
-1372.176061
 21
1025.99643
 31
0.0
  0
CIRCLE
  5
BE1
330
F28
100
AcDbEntity
  8
SIZE
100
AcDbCircle
 10
-1372.176061
 20
615.9976069999999
 30
0.0
 40
5.0
  0
LINE
  5
BE2
330
F28
100
AcDbEntity
  8
SIZE
100
AcDbLine
 10
-1372.176061
 20
620.997607
 30
0.0
 11
-1372.176061
 21
625.997607
 31
0.0
  0
CIRCLE
  5
BE3
330
F28
100
AcDbEntity
  8
SIZE
100
AcDbCircle
 10
-1372.176061
 20
1035.99643
 30
0.0
 40
5.0
  0
LINE
  5
BE4
330
F28
100
AcDbEntity
  8
SIZE
100
AcDbLine
 10
-1372.176061
 20
1030.99643
 30
0.0
 11
-1372.176061
 21
1025.99643
 31
0.0
  0
TEXT
  5
BE5
330
F28
100
AcDbEntity
  8
SIZE
100
AcDbText
 10
-1392.176061
 20
751.9398761428572
 30
0.0
 40
64.0
  1
420
 50
90.0
 41
0.9
 72
     1
 11
-1392.176061
 21
825.997019
 31
0.0
100
AcDbText
  0
LINE
  5
BE9
330
F28
100
AcDbEntity
  8
SIZE
100
AcDbLine
 10
378.930719
 20
29.99063
 30
0.0
 11
503.4169179999998
 21
29.99063
 31
0.0
  0
LINE
  5
BEA
330
F28
100
AcDbEntity
  8
SIZE
100
AcDbLine
 10
370.138752
 20
0.0
 30
0.0
 11
503.4169179999998
 21
0.0
 31
0.0
  0
LINE
  5
BEB
330
F28
100
AcDbEntity
  8
SIZE
100
AcDbLine
 10
473.4169179999998
 20
39.99062999999999
 30
0.0
 11
473.4169179999998
 21
49.99062999999999
 31
0.0
  0
LINE
  5
BEC
330
F28
100
AcDbEntity
  8
SIZE
100
AcDbLine
 10
473.4169179999998
 20
-10.0
 30
0.0
 11
473.4169179999998
 21
-161.097211
 31
0.0
  0
LINE
  5
BED
330
F28
100
AcDbEntity
  8
SIZE
100
AcDbLine
 10
473.4169179999998
 20
29.99063
 30
0.0
 11
473.4169179999998
 21
0.0
 31
0.0
  0
CIRCLE
  5
BEE
330
F28
100
AcDbEntity
  8
SIZE
100
AcDbCircle
 10
473.4169179999998
 20
29.99063
 30
0.0
 40
5.0
  0
LINE
  5
BEF
330
F28
100
AcDbEntity
  8
SIZE
100
AcDbLine
 10
473.4169179999998
 20
34.99063
 30
0.0
 11
473.4169179999998
 21
39.99062999999999
 31
0.0
  0
CIRCLE
  5
BF0
330
F28
100
AcDbEntity
  8
SIZE
100
AcDbCircle
 10
473.4169179999998
 20
0.0
 30
0.0
 40
5.0
  0
LINE
  5
BF1
330
F28
100
AcDbEntity
  8
SIZE
100
AcDbLine
 10
473.4169179999998
 20
-5.0
 30
0.0
 11
473.4169179999998
 21
-10.0
 31
0.0
  0
TEXT
  5
BF2
330
F28
100
AcDbEntity
  8
SIZE
100
AcDbText
 10
453.4169179999998
 20
-141.0972114285714
 30
0.0
 40
64.0
  1
30
 50
90.0
 41
0.9
 72
     1
 11
453.4169179999998
 21
-94.46863999999999
 31
0.0
100
AcDbText
  0
LINE
  5
BF6
330
F28
100
AcDbEntity
  8
SIZE
100
AcDbLine
 10
-378.909841
 20
30.052558
 30
0.0
 11
-635.856798
 21
30.094551
 31
0.0
  0
LINE
  5
BF7
330
F28
100
AcDbEntity
  8
SIZE
100
AcDbLine
 10
-370.122776
 20
0.060491
 30
0.0
 11
-635.8617
 21
0.103921
 31
0.0
  0
LINE
  5
BF8
330
F28
100
AcDbEntity
  8
SIZE
100
AcDbLine
 10
-605.8551639999997
 20
40.089648
 30
0.0
 11
-605.8535299999999
 21
50.08964699999999
 31
0.0
  0
LINE
  5
BF9
330
F28
100
AcDbEntity
  8
SIZE
100
AcDbLine
 10
-605.863334
 20
-9.900982
 30
0.0
 11
-605.886747
 21
-153.158123
 31
0.0
  0
LINE
  5
BFA
330
F28
100
AcDbEntity
  8
SIZE
100
AcDbLine
 10
-605.856799
 20
30.089648
 30
0.0
 11
-605.8617
 21
0.099018
 31
0.0
  0
CIRCLE
  5
BFB
330
F28
100
AcDbEntity
  8
SIZE
100
AcDbCircle
 10
-605.856799
 20
30.089648
 30
0.0
 40
5.0
  0
LINE
  5
BFC
330
F28
100
AcDbEntity
  8
SIZE
100
AcDbLine
 10
-605.8559809999998
 20
35.089648
 30
0.0
 11
-605.8551639999997
 21
40.089648
 31
0.0
  0
CIRCLE
  5
BFD
330
F28
100
AcDbEntity
  8
SIZE
100
AcDbCircle
 10
-605.8617
 20
0.099018
 30
0.0
 40
5.0
  0
LINE
  5
BFE
330
F28
100
AcDbEntity
  8
SIZE
100
AcDbLine
 10
-605.862517
 20
-4.900981999999999
 30
0.0
 11
-605.863334
 21
-9.900982
 31
0.0
  0
TEXT
  5
BFF
330
F28
100
AcDbEntity
  8
SIZE
100
AcDbText
 10
-625.8834786300817
 20
-133.1548548058416
 30
0.0
 40
64.0
  1
30
 50
89.99063599999997
 41
0.9
 72
     1
 11
-625.875858
 21
-86.52628399999995
 31
0.0
100
AcDbText
  0
LINE
  5
C03
330
F28
100
AcDbEntity
  8
SIZE
100
AcDbLine
 10
-353.000024
 20
76.125322
 30
0.0
 11
-353.000024
 21
308.343198
 31
0.0
  0
LINE
  5
C04
330
F28
100
AcDbEntity
  8
SIZE
100
AcDbLine
 10
-320.000024
 20
100.0
 30
0.0
 11
-320.000024
 21
308.343198
 31
0.0
  0
LINE
  5
C05
330
F28
100
AcDbEntity
  8
SIZE
100
AcDbLine
 10
-310.000024
 20
278.343198
 30
0.0
 11
-300.000024
 21
278.343198
 31
0.0
  0
LINE
  5
C06
330
F28
100
AcDbEntity
  8
SIZE
100
AcDbLine
 10
-363.000024
 20
278.343198
 30
0.0
 11
-689.808996
 21
278.343198
 31
0.0
  0
LINE
  5
C07
330
F28
100
AcDbEntity
  8
SIZE
100
AcDbLine
 10
-320.000024
 20
278.343198
 30
0.0
 11
-353.000024
 21
278.343198
 31
0.0
  0
CIRCLE
  5
C08
330
F28
100
AcDbEntity
  8
SIZE
100
AcDbCircle
 10
-320.000024
 20
278.343198
 30
0.0
 40
5.0
  0
LINE
  5
C09
330
F28
100
AcDbEntity
  8
SIZE
100
AcDbLine
 10
-315.000024
 20
278.343198
 30
0.0
 11
-310.000024
 21
278.343198
 31
0.0
  0
CIRCLE
  5
C0A
330
F28
100
AcDbEntity
  8
SIZE
100
AcDbCircle
 10
-353.000024
 20
278.343198
 30
0.0
 40
5.0
  0
LINE
  5
C0B
330
F28
100
AcDbEntity
  8
SIZE
100
AcDbLine
 10
-358.000024
 20
278.343198
 30
0.0
 11
-363.000024
 21
278.343198
 31
0.0
  0
TEXT
  5
C0C
330
F28
100
AcDbEntity
  8
SIZE
100
AcDbText
 10
-681.8089958571428
 20
303.105103
 30
0.0
 40
64.0
  1
(33)
 41
0.9
 72
     1
 11
-598.151853
 21
303.105103
 31
0.0
100
AcDbText
  0
LINE
  5
E6A
330
F28
100
AcDbEntity
  8
SIZE
100
AcDbLine
 10
415.0003529999998
 20
242.0
 30
0.0
 11
1020.0
 21
242.0
 31
0.0
  0
LINE
  5
E6B
330
F28
100
AcDbEntity
  8
SIZE
100
AcDbLine
 10
415.0003529999998
 20
80.0
 30
0.0
 11
1020.0
 21
80.0
 31
0.0
  0
LINE
  5
E6C
330
F28
100
AcDbEntity
  8
SIZE
100
AcDbLine
 10
995.7868389999999
 20
232.029959
 30
0.0
 11
995.7868389999999
 21
90.029959
 31
0.0
  0
TEXT
  5
E79
330
F28
100
AcDbEntity
  8
SIZE
100
AcDbText
 10
982.3841959999999
 20
84.08825680952382
 30
0.0
 40
64.0
  1
162
 50
90.0
 72
     1
 11
982.3841959999999
 21
160.278733
 31
0.0
100
AcDbText
  0
CIRCLE
  5
E73
330
F28
100
AcDbEntity
  8
SIZE
100
AcDbCircle
 10
995.7868389999999
 20
242.029959
 30
0.0
 40
5.0
  0
LINE
  5
E74
330
F28
100
AcDbEntity
  8
SIZE
100
AcDbLine
 10
995.7868389999999
 20
237.029959
 30
0.0
 11
995.7868389999999
 21
232.029959
 31
0.0
  0
CIRCLE
  5
E75
330
F28
100
AcDbEntity
  8
SIZE
100
AcDbCircle
 10
995.7868389999999
 20
80.029959
 30
0.0
 40
5.0
  0
LINE
  5
E76
330
F28
100
AcDbEntity
  8
SIZE
100
AcDbLine
 10
995.7868389999999
 20
85.029959
 30
0.0
 11
995.7868389999999
 21
90.029959
 31
0.0
  0
LINE
  5
EB2
330
F28
100
AcDbEntity
  8
OUTLINE
100
AcDbLine
 10
-320.000024
 20
1550.0
 30
0.0
 11
320.000024
 21
1550.0
 31
0.0
  0
CIRCLE
  5
FD0
330
F28
100
AcDbEntity
  8
ARRANGE
  6
Continuous
 62
     1
100
AcDbCircle
 10
0.0
 20
0.0
 30
0.0
 40
40.0
  0
LINE
  5
FD1
330
F28
100
AcDbEntity
  8
ARRANGE
  6
Continuous
 62
     1
100
AcDbLine
 10
-39.59797974644789
 20
39.59797974644607
 30
0.0
 11
39.59797974644789
 21
-39.59797974644789
 31
0.0
  0
LINE
  5
FD2
330
F28
100
AcDbEntity
  8
ARRANGE
  6
Continuous
 62
     1
100
AcDbLine
 10
39.59797974644789
 20
39.59797974644607
 30
0.0
 11
-39.59797974644789
 21
-39.59797974644789
 31
0.0
  0
ENDSEC
  0
SECTION
  2
OBJECTS
  0
DICTIONARY
  5
EC0
330
0
100
AcDbDictionary
281
     1
  3
ACAD_CIP_PREVIOUS_PRODUCT_INFO
350
F82
  3
ACAD_COLOR
350
F1E
  3
ACAD_GROUP
350
EC1
  3
ACAD_LAYOUT
350
F1D
  3
ACAD_MATERIAL
350
EC4
  3
ACAD_MLEADERSTYLE
350
F21
  3
ACAD_MLINESTYLE
350
F1A
  3
ACAD_PLOTSETTINGS
350
F1C
  3
ACAD_PLOTSTYLENAME
350
EC2
  3
ACAD_SCALELIST
350
EEE
  3
ACAD_TABLESTYLE
350
F1F
  3
ACAD_VISUALSTYLE
350
EDD
  3
ACDB_RECOMPOSE_DATA
350
FD5
  3
AcDbVariableDictionary
350
F5F
  3
DWGPROPS
350
FD6
  0
DICTIONARY
  5
F49
330
F10
100
AcDbDictionary
280
     1
281
     1
  3
ADSK_XREC_LAYER_RECONCILED
360
F4A
  0
DICTIONARY
  5
F4B
330
F2C
100
AcDbDictionary
280
     1
281
     1
  3
ADSK_XREC_LAYER_RECONCILED
360
F4C
  0
DICTIONARY
  5
F4D
330
F2F
100
AcDbDictionary
280
     1
281
     1
  3
ADSK_XREC_LAYER_RECONCILED
360
F4E
  0
DICTIONARY
  5
F4F
330
F30
100
AcDbDictionary
280
     1
281
     1
  3
ADSK_XREC_LAYER_RECONCILED
360
F50
  0
DICTIONARY
  5
F51
330
F31
100
AcDbDictionary
280
     1
281
     1
  3
ADSK_XREC_LAYER_RECONCILED
360
F52
  0
DICTIONARY
  5
F53
330
F32
100
AcDbDictionary
280
     1
281
     1
  3
ADSK_XREC_LAYER_RECONCILED
360
F54
  0
DICTIONARY
  5
F55
330
F33
100
AcDbDictionary
280
     1
281
     1
  3
ADSK_XREC_LAYER_RECONCILED
360
F56
  0
DICTIONARY
  5
F57
330
F34
100
AcDbDictionary
280
     1
281
     1
  3
ADSK_XREC_LAYER_RECONCILED
360
F58
  0
DICTIONARY
  5
F59
330
F35
100
AcDbDictionary
280
     1
281
     1
  3
ADSK_XREC_LAYER_RECONCILED
360
F5A
  0
DICTIONARY
  5
F5B
330
F36
100
AcDbDictionary
280
     1
281
     1
  3
ADSK_XREC_LAYER_RECONCILED
360
F5C
  0
DICTIONARY
  5
F5D
330
F37
100
AcDbDictionary
280
     1
281
     1
  3
ADSK_XREC_LAYER_RECONCILED
360
F5E
  0
XRECORD
  5
F82
102
{ACAD_REACTORS
330
EC0
102
}
330
EC0
100
AcDbXrecord
280
     1
300
ACD
300
2012
300
BDSPRM_F_S
  0
DICTIONARY
  5
F1E
102
{ACAD_REACTORS
330
EC0
102
}
330
EC0
100
AcDbDictionary
281
     1
  0
DICTIONARY
  5
EC1
102
{ACAD_REACTORS
330
EC0
102
}
330
EC0
100
AcDbDictionary
281
     1
  0
DICTIONARY
  5
F1D
102
{ACAD_REACTORS
330
EC0
102
}
330
EC0
100
AcDbDictionary
281
     1
  3
Layout1
350
F27
  3
Model
350
F2B
  0
DICTIONARY
  5
EC4
102
{ACAD_REACTORS
330
EC0
102
}
330
EC0
100
AcDbDictionary
281
     1
  3
ByBlock
350
ECD
  3
ByLayer
350
EC5
  3
Global
350
ED5
  0
DICTIONARY
  5
F21
102
{ACAD_REACTORS
330
EC0
102
}
330
EC0
100
AcDbDictionary
281
     1
  3
Standard
350
F22
  0
DICTIONARY
  5
F1A
102
{ACAD_REACTORS
330
EC0
102
}
330
EC0
100
AcDbDictionary
281
     1
  3
Standard
350
F1B
  0
DICTIONARY
  5
F1C
102
{ACAD_REACTORS
330
EC0
102
}
330
EC0
100
AcDbDictionary
281
     1
  0
ACDBDICTIONARYWDFLT
  5
EC2
102
{ACAD_REACTORS
330
EC0
102
}
330
EC0
100
AcDbDictionary
281
     1
  3
Normal
350
EC3
100
AcDbDictionaryWithDefault
340
EC3
  0
DICTIONARY
  5
EEE
102
{ACAD_REACTORS
330
EC0
102
}
330
EC0
100
AcDbDictionary
281
     1
  3
A0
350
EEF
  3
A1
350
EF0
  3
A2
350
EF1
  3
A3
350
EF2
  3
A4
350
EF3
  3
A5
350
EF4
  3
A6
350
EF5
  3
A7
350
EF6
  3
A8
350
EF7
  3
A9
350
EF8
  3
B0
350
EF9
  3
B1
350
EFA
  3
B2
350
EFB
  3
B3
350
EFC
  3
B4
350
EFD
  3
B5
350
EFE
  3
B6
350
EFF
  3
B7
350
F00
  3
B8
350
F01
  3
B9
350
F02
  3
C0
350
F03
  3
C1
350
F04
  3
C2
350
F05
  3
C3
350
F06
  3
C4
350
F07
  3
C5
350
F08
  3
C6
350
F09
  3
C7
350
F0A
  3
C8
350
F0B
  3
C9
350
F0C
  3
D0
350
F0D
  3
D1
350
F0E
  3
D2
350
F0F
  0
DICTIONARY
  5
F1F
102
{ACAD_REACTORS
330
EC0
102
}
330
EC0
100
AcDbDictionary
281
     1
  3
Standard
350
F20
  0
DICTIONARY
  5
EDD
102
{ACAD_REACTORS
330
EC0
102
}
330
EC0
100
AcDbDictionary
281
     1
  3
2dWireframe
350
EE3
  3
3D Hidden
350
EE5
  3
3dWireframe
350
EE4
  3
Basic
350
EE2
  3
Brighten
350
EE9
  3
ColorChange
350
EED
  3
Conceptual
350
EE6
  3
Dim
350
EE8
  3
EdgeColorOff
350
F80
  3
Facepattern
350
EEC
  3
Flat
350
EDE
  3
FlatWithEdges
350
EDF
  3
Gouraud
350
EE0
  3
GouraudWithEdges
350
EE1
  3
Hidden
350
F78
  3
JitterOff
350
F7E
  3
Linepattern
350
EEB
  3
OverhangOff
350
F7F
  3
Realistic
350
EE7
  3
Shaded
350
F7D
  3
Shaded with edges
350
F7C
  3
Shades of Gray
350
F79
  3
Sketchy
350
F7A
  3
Thicken
350
EEA
  3
Wireframe
350
F77
  3
X-Ray
350
F7B
  0
XRECORD
  5
FD5
102
{ACAD_REACTORS
330
EC0
102
}
330
EC0
100
AcDbXrecord
280
     1
 90
        1
330
F20
  0
DICTIONARY
  5
F5F
102
{ACAD_REACTORS
330
EC0
102
}
330
EC0
100
AcDbDictionary
281
     1
  3
CANNOSCALE
350
F62
  3
CMLEADERSTYLE
350
F61
  3
CTABLESTYLE
350
F60
  3
DIMASSOC
350
F65
  3
INDEXCTL
350
F64
  3
SORTENTS
350
F63
  3
XCLIPFRAME
350
FD3
  0
XRECORD
  5
FD6
102
{ACAD_REACTORS
330
EC0
102
}
330
EC0
100
AcDbXrecord
280
     1
  1
DWGPROPS COOKIE
  2

  3

  4

  6

  7

  8
prohiokamot
  9

300
=
301
=
302
=
303
=
304
=
305
=
306
=
307
=
308
=
309
=
 40
3.87453412037037
 41
2449761.535289665
 42
2458150.740884178
  1

 90
        0
  0
XRECORD
  5
F4A
102
{ACAD_REACTORS
330
F49
102
}
330
F49
100
AcDbXrecord
280
     1
290
     1
  0
XRECORD
  5
F4C
102
{ACAD_REACTORS
330
F4B
102
}
330
F4B
100
AcDbXrecord
280
     1
290
     1
  0
XRECORD
  5
F4E
102
{ACAD_REACTORS
330
F4D
102
}
330
F4D
100
AcDbXrecord
280
     1
290
     1
  0
XRECORD
  5
F50
102
{ACAD_REACTORS
330
F4F
102
}
330
F4F
100
AcDbXrecord
280
     1
290
     1
  0
XRECORD
  5
F52
102
{ACAD_REACTORS
330
F51
102
}
330
F51
100
AcDbXrecord
280
     1
290
     1
  0
XRECORD
  5
F54
102
{ACAD_REACTORS
330
F53
102
}
330
F53
100
AcDbXrecord
280
     1
290
     1
  0
XRECORD
  5
F56
102
{ACAD_REACTORS
330
F55
102
}
330
F55
100
AcDbXrecord
280
     1
290
     1
  0
XRECORD
  5
F58
102
{ACAD_REACTORS
330
F57
102
}
330
F57
100
AcDbXrecord
280
     1
290
     1
  0
XRECORD
  5
F5A
102
{ACAD_REACTORS
330
F59
102
}
330
F59
100
AcDbXrecord
280
     1
290
     1
  0
XRECORD
  5
F5C
102
{ACAD_REACTORS
330
F5B
102
}
330
F5B
100
AcDbXrecord
280
     1
290
     1
  0
XRECORD
  5
F5E
102
{ACAD_REACTORS
330
F5D
102
}
330
F5D
100
AcDbXrecord
280
     1
290
     1
  0
LAYOUT
  5
F27
102
{ACAD_XDICTIONARY
360
FF8
102
}
102
{ACAD_REACTORS
330
F1D
102
}
330
F1D
100
AcDbPlotSettings
  1

  2
FX DocuWide 2050
  4

  6

 40
0.0
 41
0.0
 42
0.0
 43
0.0
 44
0.0
 45
0.0
 46
0.0
 47
0.0
 48
0.0
 49
0.0
140
0.0
141
0.0
142
1.0
143
1.0
 70
   688
 72
     0
 73
     0
 74
     5
  7

 75
    16
147
1.0
148
0.0
149
0.0
100
AcDbLayout
  1
Layout1
 70
     1
 71
     1
 10
0.0
 20
0.0
 11
12.0
 21
9.0
 12
0.0
 22
0.0
 32
0.0
 14
1.000000000000000E+20
 24
1.000000000000000E+20
 34
1.000000000000000E+20
 15
-1.000000000000000E+20
 25
-1.000000000000000E+20
 35
-1.000000000000000E+20
146
0.0
 13
0.0
 23
0.0
 33
0.0
 16
1.0
 26
0.0
 36
0.0
 17
0.0
 27
1.0
 37
0.0
 76
     0
330
F24
  0
LAYOUT
  5
F2B
102
{ACAD_XDICTIONARY
360
FFA
102
}
102
{ACAD_REACTORS
330
F1D
102
}
330
F1D
100
AcDbPlotSettings
  1

  2
FX DocuWide 2050
  4

  6

 40
0.0
 41
0.0
 42
0.0
 43
0.0
 44
0.0
 45
0.0
 46
0.0
 47
0.0
 48
0.0
 49
0.0
140
0.0
141
0.0
142
1.0
143
1.0
 70
  1712
 72
     0
 73
     0
 74
     0
  7

 75
     0
147
1.0
148
0.0
149
0.0
100
AcDbLayout
  1
Model
 70
     1
 71
     0
 10
0.0
 20
0.0
 11
12.0
 21
9.0
 12
0.0
 22
0.0
 32
0.0
 14
0.0
 24
0.0
 34
0.0
 15
0.0
 25
0.0
 35
0.0
146
0.0
 13
0.0
 23
0.0
 33
0.0
 16
1.0
 26
0.0
 36
0.0
 17
0.0
 27
1.0
 37
0.0
 76
     0
330
F28
331
F2D
  0
MATERIAL
  5
ECD
102
{ACAD_XDICTIONARY
360
ECE
102
}
102
{ACAD_REACTORS
330
EC4
102
}
330
EC4
100
AcDbMaterial
  1
ByBlock
 72
     0
 43
0.0208333333333333
 43
0.0
 43
0.0
 43
0.0
 43
0.0
 43
0.0208333333333333
 43
0.0
 43
0.0
 43
0.0
 43
0.0
 43
1.0
 43
0.0
 43
0.0
 43
0.0
 43
0.0
 43
1.0
 77
     0
 47
0.0208333333333333
 47
0.0
 47
0.0
 47
0.0
 47
0.0
 47
0.0208333333333333
 47
0.0
 47
0.0
 47
0.0
 47
0.0
 47
1.0
 47
0.0
 47
0.0
 47
0.0
 47
0.0
 47
1.0
171
     0
 49
0.0208333333333333
 49
0.0
 49
0.0
 49
0.0
 49
0.0
 49
0.0208333333333333
 49
0.0
 49
0.0
 49
0.0
 49
0.0
 49
1.0
 49
0.0
 49
0.0
 49
0.0
 49
0.0
 49
1.0
175
     0
142
0.0208333333333333
142
0.0
142
0.0
142
0.0
142
0.0
142
0.0208333333333333
142
0.0
142
0.0
142
0.0
142
0.0
142
1.0
142
0.0
142
0.0
142
0.0
142
0.0
142
1.0
179
     0
144
0.0208333333333333
144
0.0
144
0.0
144
0.0
144
0.0
144
0.0208333333333333
144
0.0
144
0.0
144
0.0
144
0.0
144
1.0
144
0.0
144
0.0
144
0.0
144
0.0
144
1.0
147
0.0208333333333333
147
0.0
147
0.0
147
0.0
147
0.0
147
0.0208333333333333
147
0.0
147
0.0
147
0.0
147
0.0
147
1.0
147
0.0
147
0.0
147
0.0
147
0.0
147
1.0
  0
MATERIAL
  5
EC5
102
{ACAD_XDICTIONARY
360
EC6
102
}
102
{ACAD_REACTORS
330
EC4
102
}
330
EC4
100
AcDbMaterial
  1
ByLayer
 72
     0
 43
0.0208333333333333
 43
0.0
 43
0.0
 43
0.0
 43
0.0
 43
0.0208333333333333
 43
0.0
 43
0.0
 43
0.0
 43
0.0
 43
1.0
 43
0.0
 43
0.0
 43
0.0
 43
0.0
 43
1.0
 77
     0
 47
0.0208333333333333
 47
0.0
 47
0.0
 47
0.0
 47
0.0
 47
0.0208333333333333
 47
0.0
 47
0.0
 47
0.0
 47
0.0
 47
1.0
 47
0.0
 47
0.0
 47
0.0
 47
0.0
 47
1.0
171
     0
 49
0.0208333333333333
 49
0.0
 49
0.0
 49
0.0
 49
0.0
 49
0.0208333333333333
 49
0.0
 49
0.0
 49
0.0
 49
0.0
 49
1.0
 49
0.0
 49
0.0
 49
0.0
 49
0.0
 49
1.0
175
     0
142
0.0208333333333333
142
0.0
142
0.0
142
0.0
142
0.0
142
0.0208333333333333
142
0.0
142
0.0
142
0.0
142
0.0
142
1.0
142
0.0
142
0.0
142
0.0
142
0.0
142
1.0
179
     0
144
0.0208333333333333
144
0.0
144
0.0
144
0.0
144
0.0
144
0.0208333333333333
144
0.0
144
0.0
144
0.0
144
0.0
144
1.0
144
0.0
144
0.0
144
0.0
144
0.0
144
1.0
147
0.0208333333333333
147
0.0
147
0.0
147
0.0
147
0.0
147
0.0208333333333333
147
0.0
147
0.0
147
0.0
147
0.0
147
1.0
147
0.0
147
0.0
147
0.0
147
0.0
147
1.0
  0
MATERIAL
  5
ED5
102
{ACAD_XDICTIONARY
360
ED6
102
}
102
{ACAD_REACTORS
330
EC4
102
}
330
EC4
100
AcDbMaterial
  1
Global
 72
     0
 43
0.0208333333333333
 43
0.0
 43
0.0
 43
0.0
 43
0.0
 43
0.0208333333333333
 43
0.0
 43
0.0
 43
0.0
 43
0.0
 43
1.0
 43
0.0
 43
0.0
 43
0.0
 43
0.0
 43
1.0
 77
     0
 47
0.0208333333333333
 47
0.0
 47
0.0
 47
0.0
 47
0.0
 47
0.0208333333333333
 47
0.0
 47
0.0
 47
0.0
 47
0.0
 47
1.0
 47
0.0
 47
0.0
 47
0.0
 47
0.0
 47
1.0
171
     0
 49
0.0208333333333333
 49
0.0
 49
0.0
 49
0.0
 49
0.0
 49
0.0208333333333333
 49
0.0
 49
0.0
 49
0.0
 49
0.0
 49
1.0
 49
0.0
 49
0.0
 49
0.0
 49
0.0
 49
1.0
175
     0
142
0.0208333333333333
142
0.0
142
0.0
142
0.0
142
0.0
142
0.0208333333333333
142
0.0
142
0.0
142
0.0
142
0.0
142
1.0
142
0.0
142
0.0
142
0.0
142
0.0
142
1.0
179
     0
144
0.0208333333333333
144
0.0
144
0.0
144
0.0
144
0.0
144
0.0208333333333333
144
0.0
144
0.0
144
0.0
144
0.0
144
1.0
144
0.0
144
0.0
144
0.0
144
0.0
144
1.0
147
0.0208333333333333
147
0.0
147
0.0
147
0.0
147
0.0
147
0.0208333333333333
147
0.0
147
0.0
147
0.0
147
0.0
147
1.0
147
0.0
147
0.0
147
0.0
147
0.0
147
1.0
  0
MLEADERSTYLE
  5
F22
102
{ACAD_REACTORS
330
F21
102
}
330
F21
100
AcDbMLeaderStyle
170
     2
171
     1
172
     0
 90
        2
 40
0.0
 41
0.0
173
     1
 91
-1056964608
340
F16
 92
       -2
290
     1
 42
0.09
291
     1
 43
0.36
  3
Standard
 44
0.18
300

342
F11
174
     1
178
     6
175
     1
176
     0
 93
-1056964608
 45
0.18
292
     0
297
     0
 46
0.18
 94
-1056964608
 47
1.0
 49
1.0
140
1.0
293
     1
141
0.0
294
     1
177
     0
142
1.0
295
     0
296
     0
143
0.125
1001
ACAD_MLEADERVER
1070
     2
  0
MLINESTYLE
  5
F1B
102
{ACAD_REACTORS
330
F1A
102
}
330
F1A
100
AcDbMlineStyle
  2
STANDARD
 70
     0
  3

 62
   256
 51
90.0
 52
90.0
 71
     2
 49
0.5
 62
   256
  6
BYLAYER
 49
-0.5
 62
   256
  6
BYLAYER
  0
ACDBPLACEHOLDER
  5
EC3
102
{ACAD_REACTORS
330
EC2
102
}
330
EC2
  0
SCALE
  5
EEF
102
{ACAD_REACTORS
330
EEE
102
}
330
EEE
100
AcDbScale
 70
     0
300
1:1
140
1.0
141
1.0
290
     1
  0
SCALE
  5
EF0
102
{ACAD_REACTORS
330
EEE
102
}
330
EEE
100
AcDbScale
 70
     0
300
1:2
140
1.0
141
2.0
290
     0
  0
SCALE
  5
EF1
102
{ACAD_REACTORS
330
EEE
102
}
330
EEE
100
AcDbScale
 70
     0
300
1:4
140
1.0
141
4.0
290
     0
  0
SCALE
  5
EF2
102
{ACAD_REACTORS
330
EEE
102
}
330
EEE
100
AcDbScale
 70
     0
300
1:5
140
1.0
141
5.0
290
     0
  0
SCALE
  5
EF3
102
{ACAD_REACTORS
330
EEE
102
}
330
EEE
100
AcDbScale
 70
     0
300
1:8
140
1.0
141
8.0
290
     0
  0
SCALE
  5
EF4
102
{ACAD_REACTORS
330
EEE
102
}
330
EEE
100
AcDbScale
 70
     0
300
1:10
140
1.0
141
10.0
290
     0
  0
SCALE
  5
EF5
102
{ACAD_REACTORS
330
EEE
102
}
330
EEE
100
AcDbScale
 70
     0
300
1:16
140
1.0
141
16.0
290
     0
  0
SCALE
  5
EF6
102
{ACAD_REACTORS
330
EEE
102
}
330
EEE
100
AcDbScale
 70
     0
300
1:20
140
1.0
141
20.0
290
     0
  0
SCALE
  5
EF7
102
{ACAD_REACTORS
330
EEE
102
}
330
EEE
100
AcDbScale
 70
     0
300
1:30
140
1.0
141
30.0
290
     0
  0
SCALE
  5
EF8
102
{ACAD_REACTORS
330
EEE
102
}
330
EEE
100
AcDbScale
 70
     0
300
1:40
140
1.0
141
40.0
290
     0
  0
SCALE
  5
EF9
102
{ACAD_REACTORS
330
EEE
102
}
330
EEE
100
AcDbScale
 70
     0
300
1:50
140
1.0
141
50.0
290
     0
  0
SCALE
  5
EFA
102
{ACAD_REACTORS
330
EEE
102
}
330
EEE
100
AcDbScale
 70
     0
300
1:100
140
1.0
141
100.0
290
     0
  0
SCALE
  5
EFB
102
{ACAD_REACTORS
330
EEE
102
}
330
EEE
100
AcDbScale
 70
     0
300
2:1
140
2.0
141
1.0
290
     0
  0
SCALE
  5
EFC
102
{ACAD_REACTORS
330
EEE
102
}
330
EEE
100
AcDbScale
 70
     0
300
4:1
140
4.0
141
1.0
290
     0
  0
SCALE
  5
EFD
102
{ACAD_REACTORS
330
EEE
102
}
330
EEE
100
AcDbScale
 70
     0
300
8:1
140
8.0
141
1.0
290
     0
  0
SCALE
  5
EFE
102
{ACAD_REACTORS
330
EEE
102
}
330
EEE
100
AcDbScale
 70
     0
300
10:1
140
10.0
141
1.0
290
     0
  0
SCALE
  5
EFF
102
{ACAD_REACTORS
330
EEE
102
}
330
EEE
100
AcDbScale
 70
     0
300
100:1
140
100.0
141
1.0
290
     0
  0
SCALE
  5
F00
102
{ACAD_REACTORS
330
EEE
102
}
330
EEE
100
AcDbScale
 70
     0
300
1/128" = 1'-0"
140
0.0078125
141
12.0
290
     0
  0
SCALE
  5
F01
102
{ACAD_REACTORS
330
EEE
102
}
330
EEE
100
AcDbScale
 70
     0
300
1/64" = 1'-0"
140
0.015625
141
12.0
290
     0
  0
SCALE
  5
F02
102
{ACAD_REACTORS
330
EEE
102
}
330
EEE
100
AcDbScale
 70
     0
300
1/32" = 1'-0"
140
0.03125
141
12.0
290
     0
  0
SCALE
  5
F03
102
{ACAD_REACTORS
330
EEE
102
}
330
EEE
100
AcDbScale
 70
     0
300
1/16" = 1'-0"
140
0.0625
141
12.0
290
     0
  0
SCALE
  5
F04
102
{ACAD_REACTORS
330
EEE
102
}
330
EEE
100
AcDbScale
 70
     0
300
3/32" = 1'-0"
140
0.09375
141
12.0
290
     0
  0
SCALE
  5
F05
102
{ACAD_REACTORS
330
EEE
102
}
330
EEE
100
AcDbScale
 70
     0
300
1/8" = 1'-0"
140
0.125
141
12.0
290
     0
  0
SCALE
  5
F06
102
{ACAD_REACTORS
330
EEE
102
}
330
EEE
100
AcDbScale
 70
     0
300
3/16" = 1'-0"
140
0.1875
141
12.0
290
     0
  0
SCALE
  5
F07
102
{ACAD_REACTORS
330
EEE
102
}
330
EEE
100
AcDbScale
 70
     0
300
1/4" = 1'-0"
140
0.25
141
12.0
290
     0
  0
SCALE
  5
F08
102
{ACAD_REACTORS
330
EEE
102
}
330
EEE
100
AcDbScale
 70
     0
300
3/8" = 1'-0"
140
0.375
141
12.0
290
     0
  0
SCALE
  5
F09
102
{ACAD_REACTORS
330
EEE
102
}
330
EEE
100
AcDbScale
 70
     0
300
1/2" = 1'-0"
140
0.5
141
12.0
290
     0
  0
SCALE
  5
F0A
102
{ACAD_REACTORS
330
EEE
102
}
330
EEE
100
AcDbScale
 70
     0
300
3/4" = 1'-0"
140
0.75
141
12.0
290
     0
  0
SCALE
  5
F0B
102
{ACAD_REACTORS
330
EEE
102
}
330
EEE
100
AcDbScale
 70
     0
300
1" = 1'-0"
140
1.0
141
12.0
290
     0
  0
SCALE
  5
F0C
102
{ACAD_REACTORS
330
EEE
102
}
330
EEE
100
AcDbScale
 70
     0
300
1-1/2" = 1'-0"
140
1.5
141
12.0
290
     0
  0
SCALE
  5
F0D
102
{ACAD_REACTORS
330
EEE
102
}
330
EEE
100
AcDbScale
 70
     0
300
3" = 1'-0"
140
3.0
141
12.0
290
     0
  0
SCALE
  5
F0E
102
{ACAD_REACTORS
330
EEE
102
}
330
EEE
100
AcDbScale
 70
     0
300
6" = 1'-0"
140
6.0
141
12.0
290
     0
  0
SCALE
  5
F0F
102
{ACAD_REACTORS
330
EEE
102
}
330
EEE
100
AcDbScale
 70
     0
300
1'-0" = 1'-0"
140
12.0
141
12.0
290
     0
  0
TABLESTYLE
  5
F20
102
{ACAD_XDICTIONARY
360
F66
102
}
102
{ACAD_REACTORS
330
F1F
102
}
330
F1F
100
AcDbTableStyle
  3
Standard
 70
     0
 71
     0
 40
0.06
 41
0.06
280
     0
281
     0
  7
STANDARD
140
0.18
170
     2
 62
     0
 63
     7
283
     0
274
    -2
284
     1
 64
     0
275
    -2
285
     1
 65
     0
276
    -2
286
     1
 66
     0
277
    -2
287
     1
 67
     0
278
    -2
288
     1
 68
     0
279
    -2
289
     1
 69
     0
  7
STANDARD
140
0.25
170
     5
 62
     0
 63
     7
283
     0
274
    -2
284
     1
 64
     0
275
    -2
285
     1
 65
     0
276
    -2
286
     1
 66
     0
277
    -2
287
     1
 67
     0
278
    -2
288
     1
 68
     0
279
    -2
289
     1
 69
     0
  7
STANDARD
140
0.18
170
     5
 62
     0
 63
     7
283
     0
274
    -2
284
     1
 64
     0
275
    -2
285
     1
 65
     0
276
    -2
286
     1
 66
     0
277
    -2
287
     1
 67
     0
278
    -2
288
     1
 68
     0
279
    -2
289
     1
 69
     0
  0
VISUALSTYLE
  5
EE3
102
{ACAD_XDICTIONARY
360
FE1
102
}
102
{ACAD_REACTORS
330
EDD
102
}
330
EDD
100
AcDbVisualStyle
  2

 70
     4
 71
     0
 72
     2
 73
     0
 90
        0
 40
-0.6
 41
-30.0
 62
     5
 63
     7
 74
     1
 91
        4
 64
     7
 65
   257
 75
     1
175
     1
 42
1.0
 92
        0
 66
   257
 43
1.0
 76
     1
 77
     6
 78
     2
 67
     7
 79
     5
170
     0
171
     0
290
     0
174
     0
 93
        1
 44
0.0
173
     0
291
     0
 45
0.0
1001
ACAD
1000
AcDbSavedByObjectVersion
1070
     0
  0
VISUALSTYLE
  5
EE5
102
{ACAD_XDICTIONARY
360
FE5
102
}
102
{ACAD_REACTORS
330
EDD
102
}
330
EDD
100
AcDbVisualStyle
  2

 70
     6
 71
     1
 72
     2
 73
     2
 90
        0
 40
-0.6
 41
-30.0
 62
     5
 63
     7
 74
     2
 91
        2
 64
     7
 65
   257
 75
     2
175
     1
 42
40.0
 92
        0
 66
   257
 43
1.0
 76
     1
 77
     6
 78
     2
 67
     7
 79
     3
170
     0
171
     0
290
     0
174
     0
 93
        1
 44
0.0
173
     0
291
     0
 45
0.0
1001
ACAD
1000
AcDbSavedByObjectVersion
1070
     0
  0
VISUALSTYLE
  5
EE4
102
{ACAD_XDICTIONARY
360
FE3
102
}
102
{ACAD_REACTORS
330
EDD
102
}
330
EDD
100
AcDbVisualStyle
  2

 70
     5
 71
     0
 72
     2
 73
     0
 90
        0
 40
-0.6
 41
-30.0
 62
     5
 63
     7
 74
     1
 91
        4
 64
     7
 65
   257
 75
     1
175
     1
 42
1.0
 92
        0
 66
   257
 43
1.0
 76
     1
 77
     6
 78
     2
 67
     7
 79
     5
170
     0
171
     0
290
     0
174
     0
 93
        1
 44
0.0
173
     0
291
     0
 45
0.0
1001
ACAD
1000
AcDbSavedByObjectVersion
1070
     0
  0
VISUALSTYLE
  5
EE2
102
{ACAD_XDICTIONARY
360
FDF
102
}
102
{ACAD_REACTORS
330
EDD
102
}
330
EDD
100
AcDbVisualStyle
  2

 70
     7
 71
     1
 72
     0
 73
     1
 90
        0
 40
-0.6
 41
-30.0
 62
     5
 63
     7
 74
     0
 91
        4
 64
     7
 65
   257
 75
     1
175
     1
 42
1.0
 92
        8
 66
     7
 43
1.0
 76
     1
 77
     6
 78
     2
 67
     7
 79
     5
170
     0
171
     0
290
     0
174
     0
 93
        1
 44
0.0
173
     0
291
     1
 45
0.0
1001
ACAD
1000
AcDbSavedByObjectVersion
1070
     0
  0
VISUALSTYLE
  5
EE9
102
{ACAD_XDICTIONARY
360
FED
102
}
102
{ACAD_REACTORS
330
EDD
102
}
330
EDD
100
AcDbVisualStyle
  2

 70
    12
 71
     2
 72
     2
 73
     0
 90
        0
 40
-0.6
 41
-30.0
 62
     5
 63
     7
 74
     1
 91
        4
 64
     7
 65
   257
 75
     1
175
     1
 42
1.0
 92
        8
 66
     7
 43
1.0
 76
     1
 77
     6
 78
     2
 67
     7
 79
     5
170
     0
171
     0
290
     0
174
     0
 93
        1
 44
50.0
173
     0
291
     1
 45
0.0
1001
ACAD
1000
AcDbSavedByObjectVersion
1070
     0
  0
VISUALSTYLE
  5
EED
102
{ACAD_XDICTIONARY
360
FF5
102
}
102
{ACAD_REACTORS
330
EDD
102
}
330
EDD
100
AcDbVisualStyle
  2

 70
    16
 71
     2
 72
     2
 73
     3
 90
        0
 40
-0.6
 41
-30.0
 62
     5
 63
     8
 74
     1
 91
        4
 64
     7
 65
   257
 75
     1
175
     1
 42
1.0
 92
        8
 66
     8
 43
1.0
 76
     1
 77
     6
 78
     2
 67
     7
 79
     5
170
     0
171
     0
290
     0
174
     0
 93
        1
 44
0.0
173
     0
291
     1
 45
0.0
1001
ACAD
1000
AcDbSavedByObjectVersion
1070
     0
  0
VISUALSTYLE
  5
EE6
102
{ACAD_XDICTIONARY
360
FE7
102
}
102
{ACAD_REACTORS
330
EDD
102
}
330
EDD
100
AcDbVisualStyle
  2

 70
     9
 71
     3
 72
     2
 73
     0
 90
        0
 40
-0.6
 41
-30.0
 62
     5
 63
     7
 74
     2
 91
        2
 64
     7
 65
   257
 75
     1
175
     1
 42
40.0
 92
        8
 66
     7
 43
1.0
 76
     1
 77
     6
 78
     2
 67
     7
 79
     3
170
     0
171
     0
290
     0
174
     0
 93
        1
 44
0.0
173
     0
291
     0
 45
0.0
1001
ACAD
1000
AcDbSavedByObjectVersion
1070
     0
  0
VISUALSTYLE
  5
EE8
102
{ACAD_XDICTIONARY
360
FEB
102
}
102
{ACAD_REACTORS
330
EDD
102
}
330
EDD
100
AcDbVisualStyle
  2

 70
    11
 71
     2
 72
     2
 73
     0
 90
        0
 40
-0.6
 41
-30.0
 62
     5
 63
     7
 74
     1
 91
        4
 64
     7
 65
   257
 75
     1
175
     1
 42
1.0
 92
        8
 66
     7
 43
1.0
 76
     1
 77
     6
 78
     2
 67
     7
 79
     5
170
     0
171
     0
290
     0
174
     0
 93
        1
 44
-50.0
173
     0
291
     1
 45
0.0
1001
ACAD
1000
AcDbSavedByObjectVersion
1070
     0
  0
VISUALSTYLE
  5
F80
102
{ACAD_XDICTIONARY
360
100E
102
}
102
{ACAD_REACTORS
330
EDD
102
}
330
EDD
100
AcDbVisualStyle
  2

 70
    22
 71
     2
 72
     2
 73
     0
 90
        0
 40
-0.6
 41
-30.0
 62
     5
 63
     7
 74
     1
 91
        4
 64
     7
 65
   257
 75
     1
175
     1
 42
1.0
 92
        8
 66
     7
 43
1.0
 76
     1
 77
     6
 78
     2
 67
     7
 79
     5
170
     0
171
     0
290
     0
174
     0
 93
        1
 44
0.0
173
     0
291
     1
 45
0.0
1001
ACAD
1000
AcDbSavedByObjectVersion
1070
     0
  0
VISUALSTYLE
  5
EEC
102
{ACAD_XDICTIONARY
360
FF3
102
}
102
{ACAD_REACTORS
330
EDD
102
}
330
EDD
100
AcDbVisualStyle
  2

 70
    15
 71
     2
 72
     2
 73
     0
 90
        0
 40
-0.6
 41
-30.0
 62
     5
 63
     7
 74
     1
 91
        4
 64
     7
 65
   257
 75
     1
175
     1
 42
1.0
 92
        8
 66
     7
 43
1.0
 76
     1
 77
     6
 78
     2
 67
     7
 79
     5
170
     0
171
     0
290
     0
174
     0
 93
        1
 44
0.0
173
     0
291
     1
 45
0.0
1001
ACAD
1000
AcDbSavedByObjectVersion
1070
     0
  0
VISUALSTYLE
  5
EDE
102
{ACAD_XDICTIONARY
360
FD7
102
}
102
{ACAD_REACTORS
330
EDD
102
}
330
EDD
100
AcDbVisualStyle
  2

 70
     0
 71
     2
 72
     1
 73
     1
 90
        2
 40
-0.6
 41
30.0
 62
     5
 63
     7
 74
     0
 91
        4
 64
     7
 65
   257
 75
     1
175
     1
 42
1.0
 92
        8
 66
     7
 43
1.0
 76
     1
 77
     6
 78
     2
 67
     7
 79
     5
170
     0
171
     0
290
     0
174
     0
 93
       13
 44
0.0
173
     0
291
     1
 45
0.0
1001
ACAD
1000
AcDbSavedByObjectVersion
1070
     0
  0
VISUALSTYLE
  5
EDF
102
{ACAD_XDICTIONARY
360
FD9
102
}
102
{ACAD_REACTORS
330
EDD
102
}
330
EDD
100
AcDbVisualStyle
  2

 70
     1
 71
     2
 72
     1
 73
     1
 90
        2
 40
-0.6
 41
30.0
 62
     5
 63
     7
 74
     1
 91
        4
 64
     7
 65
   257
 75
     1
175
     1
 42
1.0
 92
        0
 66
   257
 43
1.0
 76
     1
 77
     6
 78
     2
 67
     7
 79
     5
170
     0
171
     0
290
     0
174
     0
 93
       13
 44
0.0
173
     0
291
     1
 45
0.0
1001
ACAD
1000
AcDbSavedByObjectVersion
1070
     0
  0
VISUALSTYLE
  5
EE0
102
{ACAD_XDICTIONARY
360
FDB
102
}
102
{ACAD_REACTORS
330
EDD
102
}
330
EDD
100
AcDbVisualStyle
  2

 70
     2
 71
     2
 72
     2
 73
     1
 90
        2
 40
-0.6
 41
30.0
 62
     5
 63
     7
 74
     0
 91
        4
 64
     7
 65
   257
 75
     1
175
     1
 42
1.0
 92
        0
 66
     7
 43
1.0
 76
     1
 77
     6
 78
     2
 67
     7
 79
     5
170
     0
171
     0
290
     0
174
     0
 93
       13
 44
0.0
173
     0
291
     1
 45
0.0
1001
ACAD
1000
AcDbSavedByObjectVersion
1070
     0
  0
VISUALSTYLE
  5
EE1
102
{ACAD_XDICTIONARY
360
FDD
102
}
102
{ACAD_REACTORS
330
EDD
102
}
330
EDD
100
AcDbVisualStyle
  2

 70
     3
 71
     2
 72
     2
 73
     1
 90
        2
 40
-0.6
 41
30.0
 62
     5
 63
     7
 74
     1
 91
        4
 64
     7
 65
   257
 75
     1
175
     1
 42
1.0
 92
        0
 66
   257
 43
1.0
 76
     1
 77
     6
 78
     2
 67
     7
 79
     5
170
     0
171
     0
290
     0
174
     0
 93
       13
 44
0.0
173
     0
291
     1
 45
0.0
1001
ACAD
1000
AcDbSavedByObjectVersion
1070
     0
  0
VISUALSTYLE
  5
F78
102
{ACAD_XDICTIONARY
360
FFE
102
}
102
{ACAD_REACTORS
330
EDD
102
}
330
EDD
100
AcDbVisualStyle
  2

 70
     6
 71
     1
 72
     2
 73
     2
 90
        0
 40
-0.6
 41
-30.0
 62
     5
 63
     7
 74
     2
 91
        2
 64
     7
 65
   257
 75
     2
175
     1
 42
40.0
 92
        0
 66
   257
 43
1.0
 76
     1
 77
     6
 78
     2
 67
     7
 79
     3
170
     0
171
     0
290
     0
174
     0
 93
        1
 44
0.0
173
     0
291
     0
 45
0.0
1001
ACAD
1000
AcDbSavedByObjectVersion
1070
     0
  0
VISUALSTYLE
  5
F7E
102
{ACAD_XDICTIONARY
360
100A
102
}
102
{ACAD_REACTORS
330
EDD
102
}
330
EDD
100
AcDbVisualStyle
  2

 70
    20
 71
     2
 72
     2
 73
     0
 90
        0
 40
-0.6
 41
-30.0
 62
     5
 63
     7
 74
     1
 91
        4
 64
     7
 65
   257
 75
     1
175
     1
 42
1.0
 92
       10
 66
     7
 43
1.0
 76
     1
 77
     6
 78
     2
 67
     7
 79
     5
170
     0
171
     0
290
     0
174
     0
 93
        1
 44
0.0
173
     0
291
     1
 45
0.0
1001
ACAD
1000
AcDbSavedByObjectVersion
1070
     0
  0
VISUALSTYLE
  5
EEB
102
{ACAD_XDICTIONARY
360
FF1
102
}
102
{ACAD_REACTORS
330
EDD
102
}
330
EDD
100
AcDbVisualStyle
  2

 70
    14
 71
     2
 72
     2
 73
     0
 90
        0
 40
-0.6
 41
-30.0
 62
     5
 63
     7
 74
     1
 91
        4
 64
     7
 65
   257
 75
     7
175
     7
 42
1.0
 92
        8
 66
     7
 43
1.0
 76
     1
 77
     6
 78
     2
 67
     7
 79
     5
170
     0
171
     0
290
     0
174
     0
 93
        1
 44
0.0
173
     0
291
     1
 45
0.0
1001
ACAD
1000
AcDbSavedByObjectVersion
1070
     0
  0
VISUALSTYLE
  5
F7F
102
{ACAD_XDICTIONARY
360
100C
102
}
102
{ACAD_REACTORS
330
EDD
102
}
330
EDD
100
AcDbVisualStyle
  2

 70
    21
 71
     2
 72
     2
 73
     0
 90
        0
 40
-0.6
 41
-30.0
 62
     5
 63
     7
 74
     1
 91
        4
 64
     7
 65
   257
 75
     1
175
     1
 42
1.0
 92
        9
 66
     7
 43
1.0
 76
     1
 77
     6
 78
     2
 67
     7
 79
     5
170
     0
171
     0
290
     0
174
     0
 93
        1
 44
0.0
173
     0
291
     1
 45
0.0
1001
ACAD
1000
AcDbSavedByObjectVersion
1070
     0
  0
VISUALSTYLE
  5
EE7
102
{ACAD_XDICTIONARY
360
FE9
102
}
102
{ACAD_REACTORS
330
EDD
102
}
330
EDD
100
AcDbVisualStyle
  2

 70
     8
 71
     2
 72
     2
 73
     0
 90
        0
 40
-0.6
 41
-30.0
 62
     5
 63
     7
 74
     1
 91
        0
 64
     7
 65
   257
 75
     1
175
     1
 42
1.0
 92
        8
 66
     8
 43
1.0
 76
     1
 77
     6
 78
     2
 67
     7
 79
     5
170
     0
171
     0
290
     0
174
     0
 93
       13
 44
0.0
173
     0
291
     0
 45
0.0
1001
ACAD
1000
AcDbSavedByObjectVersion
1070
     0
  0
VISUALSTYLE
  5
F7D
102
{ACAD_XDICTIONARY
360
1008
102
}
102
{ACAD_REACTORS
330
EDD
102
}
330
EDD
100
AcDbVisualStyle
  2

 70
    27
 71
     2
 72
     2
 73
     1
 90
        2
 40
-0.6
 41
30.0
 62
     5
 63
     7
 74
     0
 91
        4
 64
     7
 65
   257
 75
     1
175
     1
 42
1.0
 92
        8
 66
   257
 43
1.0
 76
     1
 77
     6
 78
     2
 67
     8
 79
     3
170
     0
171
     0
290
     0
174
     0
 93
        5
 44
0.0
173
     0
291
     0
 45
0.0
1001
ACAD
1000
AcDbSavedByObjectVersion
1070
     0
  0
VISUALSTYLE
  5
F7C
102
{ACAD_XDICTIONARY
360
1006
102
}
102
{ACAD_REACTORS
330
EDD
102
}
330
EDD
100
AcDbVisualStyle
  2

 70
    26
 71
     2
 72
     2
 73
     1
 90
        2
 40
-0.6
 41
30.0
 62
     5
 63
     7
 74
     1
 91
       10
 64
     7
 65
   257
 75
     2
175
     1
 42
1.0
 92
        8
 66
   257
 43
1.0
 76
     1
 77
     6
 78
     2
 67
     7
 79
     3
170
     0
171
     0
290
     0
174
     0
 93
        5
 44
0.0
173
     0
291
     0
 45
0.0
1001
ACAD
1000
AcDbSavedByObjectVersion
1070
     0
  0
VISUALSTYLE
  5
F79
102
{ACAD_XDICTIONARY
360
1000
102
}
102
{ACAD_REACTORS
330
EDD
102
}
330
EDD
100
AcDbVisualStyle
  2

 70
    23
 71
     2
 72
     2
 73
     3
 90
        0
 40
-0.6
 41
-30.0
 62
     5
 63
     7
 74
     2
 91
        2
 64
     7
 65
     7
 75
     1
175
     1
 42
40.0
 92
        8
 66
     7
 43
1.0
 76
     1
 77
     6
 78
     2
 67
     7
 79
     3
170
     0
171
     0
290
     0
174
     0
 93
        1
 44
0.0
173
     0
291
     0
 45
0.0
1001
ACAD
1000
AcDbSavedByObjectVersion
1070
     0
  0
VISUALSTYLE
  5
F7A
102
{ACAD_XDICTIONARY
360
1002
102
}
102
{ACAD_REACTORS
330
EDD
102
}
330
EDD
100
AcDbVisualStyle
  2

 70
    24
 71
     1
 72
     2
 73
     2
 90
        0
 40
-0.6
 41
-30.0
 62
     5
 63
     7
 74
     2
 91
        2
 64
     7
 65
     7
 75
     1
175
     1
 42
40.0
 92
       11
 66
     7
 43
1.0
 76
     1
 77
     6
 78
     2
 67
     7
 79
     6
170
     0
171
     0
290
     0
174
     0
 93
        1
 44
0.0
173
     0
291
     0
 45
0.0
1001
ACAD
1000
AcDbSavedByObjectVersion
1070
     0
  0
VISUALSTYLE
  5
EEA
102
{ACAD_XDICTIONARY
360
FEF
102
}
102
{ACAD_REACTORS
330
EDD
102
}
330
EDD
100
AcDbVisualStyle
  2

 70
    13
 71
     2
 72
     2
 73
     0
 90
        0
 40
-0.6
 41
-30.0
 62
     5
 63
     7
 74
     1
 91
        4
 64
     7
 65
   257
 75
     1
175
     1
 42
1.0
 92
       12
 66
     7
 43
1.0
 76
     1
 77
     6
 78
     2
 67
     7
 79
     5
170
     0
171
     0
290
     0
174
     0
 93
        1
 44
0.0
173
     0
291
     1
 45
0.0
1001
ACAD
1000
AcDbSavedByObjectVersion
1070
     0
  0
VISUALSTYLE
  5
F77
102
{ACAD_XDICTIONARY
360
FFC
102
}
102
{ACAD_REACTORS
330
EDD
102
}
330
EDD
100
AcDbVisualStyle
  2

 70
     5
 71
     0
 72
     2
 73
     0
 90
        0
 40
-0.6
 41
-30.0
 62
     5
 63
     7
 74
     1
 91
        4
 64
     7
 65
   257
 75
     1
175
     1
 42
1.0
 92
        0
 66
   257
 43
1.0
 76
     1
 77
     6
 78
     2
 67
     7
 79
     3
170
     0
171
     0
290
     0
174
     0
 93
        1
 44
0.0
173
     0
291
     0
 45
0.0
1001
ACAD
1000
AcDbSavedByObjectVersion
1070
     0
  0
VISUALSTYLE
  5
F7B
102
{ACAD_XDICTIONARY
360
1004
102
}
102
{ACAD_REACTORS
330
EDD
102
}
330
EDD
100
AcDbVisualStyle
  2

 70
    25
 71
     2
 72
     2
 73
     1
 90
        1
 40
0.5
 41
-30.0
 62
     5
 63
     7
 74
     1
 91
        0
 64
     7
 65
   257
 75
     1
175
     1
 42
1.0
 92
        8
 66
     7
 43
1.0
 76
     1
 77
     6
 78
     2
 67
     7
 79
     3
170
     0
171
     0
290
     0
174
     0
 93
       13
 44
0.0
173
     0
291
     0
 45
0.0
1001
ACAD
1000
AcDbSavedByObjectVersion
1070
     0
  0
DICTIONARYVAR
  5
F62
102
{ACAD_REACTORS
330
F5F
102
}
330
F5F
100
DictionaryVariables
280
     0
  1
1:1
  0
DICTIONARYVAR
  5
F61
102
{ACAD_REACTORS
330
F5F
102
}
330
F5F
100
DictionaryVariables
280
     0
  1
STANDARD
  0
DICTIONARYVAR
  5
F60
102
{ACAD_REACTORS
330
F5F
102
}
330
F5F
100
DictionaryVariables
280
     0
  1
STANDARD
  0
DICTIONARYVAR
  5
F65
102
{ACAD_REACTORS
330
F5F
102
}
330
F5F
100
DictionaryVariables
280
     0
  1
1
  0
DICTIONARYVAR
  5
F64
102
{ACAD_REACTORS
330
F5F
102
}
330
F5F
100
DictionaryVariables
280
     0
  1
0
  0
DICTIONARYVAR
  5
F63
102
{ACAD_REACTORS
330
F5F
102
}
330
F5F
100
DictionaryVariables
280
     0
  1
127
  0
DICTIONARYVAR
  5
FD3
102
{ACAD_REACTORS
330
F5F
102
}
330
F5F
100
DictionaryVariables
280
     0
  1
2
  0
DICTIONARY
  5
FF8
330
F27
100
AcDbDictionary
280
     1
281
     1
  3
ACAD_XREC_ROUNDTRIP
360
FF9
  0
DICTIONARY
  5
FFA
330
F2B
100
AcDbDictionary
280
     1
281
     1
  3
ACAD_XREC_ROUNDTRIP
360
FFB
  0
DICTIONARY
  5
ECE
330
ECD
100
AcDbDictionary
280
     1
281
     1
  3
ACAD_XREC_ROUNDTRIP
360
F6B
  3
BUMPTILE
360
ED0
  3
DIFFUSETILE
360
ECF
  3
OPACITYTILE
360
ED3
  3
REFLECTIONTILE
360
ED2
  3
REFRACTIONTILE
360
ED4
  3
SPECULARTILE
360
ED1
  0
DICTIONARY
  5
EC6
330
EC5
100
AcDbDictionary
280
     1
281
     1
  3
ACAD_XREC_ROUNDTRIP
360
F6A
  3
BUMPTILE
360
EC8
  3
DIFFUSETILE
360
EC7
  3
OPACITYTILE
360
ECB
  3
REFLECTIONTILE
360
ECA
  3
REFRACTIONTILE
360
ECC
  3
SPECULARTILE
360
EC9
  0
DICTIONARY
  5
ED6
330
ED5
100
AcDbDictionary
280
     1
281
     1
  3
ACAD_XREC_ROUNDTRIP
360
F6C
  3
BUMPTILE
360
ED8
  3
DIFFUSETILE
360
ED7
  3
OPACITYTILE
360
EDB
  3
REFLECTIONTILE
360
EDA
  3
REFRACTIONTILE
360
EDC
  3
SPECULARTILE
360
ED9
  0
DICTIONARY
  5
F66
330
F20
100
AcDbDictionary
280
     1
281
     1
  3
ACAD_ROUNDTRIP_2008_TABLESTYLE_CELLSTYLEMAP
360
FD4
  3
ACAD_XREC_ROUNDTRIP
360
FF7
  0
DICTIONARY
  5
FE1
330
EE3
100
AcDbDictionary
280
     1
281
     1
  3
ACAD_XREC_ROUNDTRIP
360
FE2
  0
DICTIONARY
  5
FE5
330
EE5
100
AcDbDictionary
280
     1
281
     1
  3
ACAD_XREC_ROUNDTRIP
360
FE6
  0
DICTIONARY
  5
FE3
330
EE4
100
AcDbDictionary
280
     1
281
     1
  3
ACAD_XREC_ROUNDTRIP
360
FE4
  0
DICTIONARY
  5
FDF
330
EE2
100
AcDbDictionary
280
     1
281
     1
  3
ACAD_XREC_ROUNDTRIP
360
FE0
  0
DICTIONARY
  5
FED
330
EE9
100
AcDbDictionary
280
     1
281
     1
  3
ACAD_XREC_ROUNDTRIP
360
FEE
  0
DICTIONARY
  5
FF5
330
EED
100
AcDbDictionary
280
     1
281
     1
  3
ACAD_XREC_ROUNDTRIP
360
FF6
  0
DICTIONARY
  5
FE7
330
EE6
100
AcDbDictionary
280
     1
281
     1
  3
ACAD_XREC_ROUNDTRIP
360
FE8
  0
DICTIONARY
  5
FEB
330
EE8
100
AcDbDictionary
280
     1
281
     1
  3
ACAD_XREC_ROUNDTRIP
360
FEC
  0
DICTIONARY
  5
100E
330
F80
100
AcDbDictionary
280
     1
281
     1
  3
ACAD_XREC_ROUNDTRIP
360
100F
  0
DICTIONARY
  5
FF3
330
EEC
100
AcDbDictionary
280
     1
281
     1
  3
ACAD_XREC_ROUNDTRIP
360
FF4
  0
DICTIONARY
  5
FD7
330
EDE
100
AcDbDictionary
280
     1
281
     1
  3
ACAD_XREC_ROUNDTRIP
360
FD8
  0
DICTIONARY
  5
FD9
330
EDF
100
AcDbDictionary
280
     1
281
     1
  3
ACAD_XREC_ROUNDTRIP
360
FDA
  0
DICTIONARY
  5
FDB
330
EE0
100
AcDbDictionary
280
     1
281
     1
  3
ACAD_XREC_ROUNDTRIP
360
FDC
  0
DICTIONARY
  5
FDD
330
EE1
100
AcDbDictionary
280
     1
281
     1
  3
ACAD_XREC_ROUNDTRIP
360
FDE
  0
DICTIONARY
  5
FFE
330
F78
100
AcDbDictionary
280
     1
281
     1
  3
ACAD_XREC_ROUNDTRIP
360
FFF
  0
DICTIONARY
  5
100A
330
F7E
100
AcDbDictionary
280
     1
281
     1
  3
ACAD_XREC_ROUNDTRIP
360
100B
  0
DICTIONARY
  5
FF1
330
EEB
100
AcDbDictionary
280
     1
281
     1
  3
ACAD_XREC_ROUNDTRIP
360
FF2
  0
DICTIONARY
  5
100C
330
F7F
100
AcDbDictionary
280
     1
281
     1
  3
ACAD_XREC_ROUNDTRIP
360
100D
  0
DICTIONARY
  5
FE9
330
EE7
100
AcDbDictionary
280
     1
281
     1
  3
ACAD_XREC_ROUNDTRIP
360
FEA
  0
DICTIONARY
  5
1008
330
F7D
100
AcDbDictionary
280
     1
281
     1
  3
ACAD_XREC_ROUNDTRIP
360
1009
  0
DICTIONARY
  5
1006
330
F7C
100
AcDbDictionary
280
     1
281
     1
  3
ACAD_XREC_ROUNDTRIP
360
1007
  0
DICTIONARY
  5
1000
330
F79
100
AcDbDictionary
280
     1
281
     1
  3
ACAD_XREC_ROUNDTRIP
360
1001
  0
DICTIONARY
  5
1002
330
F7A
100
AcDbDictionary
280
     1
281
     1
  3
ACAD_XREC_ROUNDTRIP
360
1003
  0
DICTIONARY
  5
FEF
330
EEA
100
AcDbDictionary
280
     1
281
     1
  3
ACAD_XREC_ROUNDTRIP
360
FF0
  0
DICTIONARY
  5
FFC
330
F77
100
AcDbDictionary
280
     1
281
     1
  3
ACAD_XREC_ROUNDTRIP
360
FFD
  0
DICTIONARY
  5
1004
330
F7B
100
AcDbDictionary
280
     1
281
     1
  3
ACAD_XREC_ROUNDTRIP
360
1005
  0
XRECORD
  5
FF9
102
{ACAD_REACTORS
330
FF8
102
}
330
FF8
100
AcDbXrecord
280
     1
102
SHADEPLOT
 70
     0
102
SHADEPLOTRESLEVEL
 70
     2
102
SHADEPLOTCUSTOMDPI
 70
   300
  0
XRECORD
  5
FFB
102
{ACAD_REACTORS
330
FFA
102
}
330
FFA
100
AcDbXrecord
280
     1
102
SHADEPLOT
 70
     0
102
SHADEPLOTRESLEVEL
 70
     2
102
SHADEPLOTCUSTOMDPI
 70
   300
  0
XRECORD
  5
F6B
102
{ACAD_REACTORS
330
ECE
102
}
330
ECE
100
AcDbXrecord
280
     1
102
MATERIAL
148
0.0
149
0.0
149
0.0
 93
        0
 94
      127
282
     0
 72
     0
 77
     0
171
     0
175
     0
179
     0
273
     0
  0
XRECORD
  5
ED0
102
{ACAD_REACTORS
330
ECE
102
}
330
ECE
100
AcDbXrecord
280
     1
270
     1
271
     1
  0
XRECORD
  5
ECF
102
{ACAD_REACTORS
330
ECE
102
}
330
ECE
100
AcDbXrecord
280
     1
270
     1
271
     1
  0
XRECORD
  5
ED3
102
{ACAD_REACTORS
330
ECE
102
}
330
ECE
100
AcDbXrecord
280
     1
270
     1
271
     1
  0
XRECORD
  5
ED2
102
{ACAD_REACTORS
330
ECE
102
}
330
ECE
100
AcDbXrecord
280
     1
270
     1
271
     1
  0
XRECORD
  5
ED4
102
{ACAD_REACTORS
330
ECE
102
}
330
ECE
100
AcDbXrecord
280
     1
270
     1
271
     1
  0
XRECORD
  5
ED1
102
{ACAD_REACTORS
330
ECE
102
}
330
ECE
100
AcDbXrecord
280
     1
270
     1
271
     1
  0
XRECORD
  5
F6A
102
{ACAD_REACTORS
330
EC6
102
}
330
EC6
100
AcDbXrecord
280
     1
102
MATERIAL
148
0.0
149
0.0
149
0.0
 93
        0
 94
      127
282
     0
 72
     0
 77
     0
171
     0
175
     0
179
     0
273
     0
  0
XRECORD
  5
EC8
102
{ACAD_REACTORS
330
EC6
102
}
330
EC6
100
AcDbXrecord
280
     1
270
     1
271
     1
  0
XRECORD
  5
EC7
102
{ACAD_REACTORS
330
EC6
102
}
330
EC6
100
AcDbXrecord
280
     1
270
     1
271
     1
  0
XRECORD
  5
ECB
102
{ACAD_REACTORS
330
EC6
102
}
330
EC6
100
AcDbXrecord
280
     1
270
     1
271
     1
  0
XRECORD
  5
ECA
102
{ACAD_REACTORS
330
EC6
102
}
330
EC6
100
AcDbXrecord
280
     1
270
     1
271
     1
  0
XRECORD
  5
ECC
102
{ACAD_REACTORS
330
EC6
102
}
330
EC6
100
AcDbXrecord
280
     1
270
     1
271
     1
  0
XRECORD
  5
EC9
102
{ACAD_REACTORS
330
EC6
102
}
330
EC6
100
AcDbXrecord
280
     1
270
     1
271
     1
  0
XRECORD
  5
F6C
102
{ACAD_REACTORS
330
ED6
102
}
330
ED6
100
AcDbXrecord
280
     1
102
MATERIAL
148
0.0
149
0.0
149
0.0
 93
        0
 94
      127
282
     0
 72
     0
 77
     0
171
     0
175
     0
179
     0
273
     0
  0
XRECORD
  5
ED8
102
{ACAD_REACTORS
330
ED6
102
}
330
ED6
100
AcDbXrecord
280
     1
270
     1
271
     1
  0
XRECORD
  5
ED7
102
{ACAD_REACTORS
330
ED6
102
}
330
ED6
100
AcDbXrecord
280
     1
270
     1
271
     1
  0
XRECORD
  5
EDB
102
{ACAD_REACTORS
330
ED6
102
}
330
ED6
100
AcDbXrecord
280
     1
270
     1
271
     1
  0
XRECORD
  5
EDA
102
{ACAD_REACTORS
330
ED6
102
}
330
ED6
100
AcDbXrecord
280
     1
270
     1
271
     1
  0
XRECORD
  5
EDC
102
{ACAD_REACTORS
330
ED6
102
}
330
ED6
100
AcDbXrecord
280
     1
270
     1
271
     1
  0
XRECORD
  5
ED9
102
{ACAD_REACTORS
330
ED6
102
}
330
ED6
100
AcDbXrecord
280
     1
270
     1
271
     1
  0
CELLSTYLEMAP
  5
FD4
102
{ACAD_REACTORS
330
F66
102
}
330
F66
100
AcDbCellStyleMap
 90
        3
300
CELLSTYLE
  1
TABLEFORMAT_BEGIN
 90
        5
170
     1
 91
        0
 92
    32768
 62
   257
 93
        1
300
CONTENTFORMAT
  1
CONTENTFORMAT_BEGIN
 90
        0
 91
        0
 92
      512
 93
        0
300

 40
0.0
140
1.0
 94
        5
 62
     0
340
F11
144
0.25
309
CONTENTFORMAT_END
171
     1
301
MARGIN
  1
CELLMARGIN_BEGIN
 40
0.06
 40
0.06
 40
0.06
 40
0.06
 40
0.18
 40
0.18
309
CELLMARGIN_END
 94
        6
 95
        1
302
GRIDFORMAT
  1
GRIDFORMAT_BEGIN
 90
        0
 91
        1
 62
     0
 92
       -2
340
0
 93
        0
 40
0.045
309
GRIDFORMAT_END
 95
        2
302
GRIDFORMAT
  1
GRIDFORMAT_BEGIN
 90
        0
 91
        1
 62
     0
 92
       -2
340
0
 93
        0
 40
0.045
309
GRIDFORMAT_END
 95
        4
302
GRIDFORMAT
  1
GRIDFORMAT_BEGIN
 90
        0
 91
        1
 62
     0
 92
       -2
340
0
 93
        0
 40
0.045
309
GRIDFORMAT_END
 95
        8
302
GRIDFORMAT
  1
GRIDFORMAT_BEGIN
 90
        0
 91
        1
 62
     0
 92
       -2
340
0
 93
        0
 40
0.045
309
GRIDFORMAT_END
 95
       16
302
GRIDFORMAT
  1
GRIDFORMAT_BEGIN
 90
        0
 91
        1
 62
     0
 92
       -2
340
0
 93
        0
 40
0.045
309
GRIDFORMAT_END
 95
       32
302
GRIDFORMAT
  1
GRIDFORMAT_BEGIN
 90
        0
 91
        1
 62
     0
 92
       -2
340
0
 93
        0
 40
0.045
309
GRIDFORMAT_END
309
TABLEFORMAT_END
  1
CELLSTYLE_BEGIN
 90
        1
 91
        1
300
_TITLE
309
CELLSTYLE_END
300
CELLSTYLE
  1
TABLEFORMAT_BEGIN
 90
        5
170
     1
 91
        0
 92
        0
 62
   257
 93
        1
300
CONTENTFORMAT
  1
CONTENTFORMAT_BEGIN
 90
        0
 91
        0
 92
      512
 93
        0
300

 40
0.0
140
1.0
 94
        5
 62
     0
340
F11
144
0.18
309
CONTENTFORMAT_END
171
     1
301
MARGIN
  1
CELLMARGIN_BEGIN
 40
0.06
 40
0.06
 40
0.06
 40
0.06
 40
0.18
 40
0.18
309
CELLMARGIN_END
 94
        6
 95
        1
302
GRIDFORMAT
  1
GRIDFORMAT_BEGIN
 90
        0
 91
        1
 62
     0
 92
       -2
340
0
 93
        0
 40
0.045
309
GRIDFORMAT_END
 95
        2
302
GRIDFORMAT
  1
GRIDFORMAT_BEGIN
 90
        0
 91
        1
 62
     0
 92
       -2
340
0
 93
        0
 40
0.045
309
GRIDFORMAT_END
 95
        4
302
GRIDFORMAT
  1
GRIDFORMAT_BEGIN
 90
        0
 91
        1
 62
     0
 92
       -2
340
0
 93
        0
 40
0.045
309
GRIDFORMAT_END
 95
        8
302
GRIDFORMAT
  1
GRIDFORMAT_BEGIN
 90
        0
 91
        1
 62
     0
 92
       -2
340
0
 93
        0
 40
0.045
309
GRIDFORMAT_END
 95
       16
302
GRIDFORMAT
  1
GRIDFORMAT_BEGIN
 90
        0
 91
        1
 62
     0
 92
       -2
340
0
 93
        0
 40
0.045
309
GRIDFORMAT_END
 95
       32
302
GRIDFORMAT
  1
GRIDFORMAT_BEGIN
 90
        0
 91
        1
 62
     0
 92
       -2
340
0
 93
        0
 40
0.045
309
GRIDFORMAT_END
309
TABLEFORMAT_END
  1
CELLSTYLE_BEGIN
 90
        2
 91
        1
300
_HEADER
309
CELLSTYLE_END
300
CELLSTYLE
  1
TABLEFORMAT_BEGIN
 90
        5
170
     1
 91
        0
 92
        0
 62
   257
 93
        1
300
CONTENTFORMAT
  1
CONTENTFORMAT_BEGIN
 90
        0
 91
        0
 92
      512
 93
        0
300

 40
0.0
140
1.0
 94
        2
 62
     0
340
F11
144
0.18
309
CONTENTFORMAT_END
171
     1
301
MARGIN
  1
CELLMARGIN_BEGIN
 40
0.06
 40
0.06
 40
0.06
 40
0.06
 40
0.18
 40
0.18
309
CELLMARGIN_END
 94
        6
 95
        1
302
GRIDFORMAT
  1
GRIDFORMAT_BEGIN
 90
        0
 91
        1
 62
     0
 92
       -2
340
0
 93
        0
 40
0.045
309
GRIDFORMAT_END
 95
        2
302
GRIDFORMAT
  1
GRIDFORMAT_BEGIN
 90
        0
 91
        1
 62
     0
 92
       -2
340
0
 93
        0
 40
0.045
309
GRIDFORMAT_END
 95
        4
302
GRIDFORMAT
  1
GRIDFORMAT_BEGIN
 90
        0
 91
        1
 62
     0
 92
       -2
340
0
 93
        0
 40
0.045
309
GRIDFORMAT_END
 95
        8
302
GRIDFORMAT
  1
GRIDFORMAT_BEGIN
 90
        0
 91
        1
 62
     0
 92
       -2
340
0
 93
        0
 40
0.045
309
GRIDFORMAT_END
 95
       16
302
GRIDFORMAT
  1
GRIDFORMAT_BEGIN
 90
        0
 91
        1
 62
     0
 92
       -2
340
0
 93
        0
 40
0.045
309
GRIDFORMAT_END
 95
       32
302
GRIDFORMAT
  1
GRIDFORMAT_BEGIN
 90
        0
 91
        1
 62
     0
 92
       -2
340
0
 93
        0
 40
0.045
309
GRIDFORMAT_END
309
TABLEFORMAT_END
  1
CELLSTYLE_BEGIN
 90
        3
 91
        2
300
_DATA
309
CELLSTYLE_END
  0
XRECORD
  5
FF7
102
{ACAD_REACTORS
330
F66
102
}
330
F66
100
AcDbXrecord
280
     1
102
ACAD_ROUNDTRIP_PRE2007_TABLESTYLE
 90
      512
 91
        0
  1

 92
      512
 93
        0
  2

 94
      512
 95
        0
  3

  0
XRECORD
  5
FE2
102
{ACAD_REACTORS
330
FE1
102
}
330
FE1
100
AcDbXrecord
280
     1
102
RTVSPropertyOp0
 70
     1
102
RTVSPropertyOp1
 70
     1
102
RTVSPropertyOp2
 70
     1
102
RTVSPropertyOp3
 70
     1
102
RTVSPropertyOp4
 70
     1
102
RTVSPropertyOp5
 70
     1
102
RTVSPropertyOp6
 70
     1
102
RTVSPropertyOp7
 70
     1
102
RTVSPropertyOp8
 70
     1
102
RTVSPropertyOp9
 70
     1
102
RTVSPropertyOp10
 70
     1
102
RTVSPropertyOp11
 70
     1
102
RTVSPropertyOp12
 70
     1
102
RTVSPropertyOp13
 70
     1
102
RTVSPropertyOp14
 70
     1
102
RTVSPropertyOp15
 70
     1
102
RTVSPropertyOp16
 70
     1
102
RTVSPropertyOp17
 70
     1
102
RTVSPropertyOp18
 70
     1
102
RTVSPropertyOp19
 70
     1
102
RTVSPropertyOp20
 70
     1
102
RTVSPropertyOp21
 70
     1
102
RTVSPropertyOp22
 70
     1
102
RTVSPropertyOp23
 70
     1
102
RTVSPropertyOp24
 70
     1
102
RTVSPropertyOp25
 70
     1
102
RTVSPropertyOp26
 70
     1
102
RTVSPropertyOp27
 70
     1
102
RTVSPropertyOp28
 70
     1
102
RTVSPropertyOp29
 70
     1
102
RTVSPropertyOp30
 70
     1
102
RTVSPropertyOp31
 70
     1
102
RTVSPropertyOp32
 70
     1
  0
XRECORD
  5
FE6
102
{ACAD_REACTORS
330
FE5
102
}
330
FE5
100
AcDbXrecord
280
     1
102
RTVSPropertyOp0
 70
     1
102
RTVSPropertyOp1
 70
     1
102
RTVSPropertyOp2
 70
     1
102
RTVSPropertyOp3
 70
     1
102
RTVSPropertyOp4
 70
     1
102
RTVSPropertyOp5
 70
     1
102
RTVSPropertyOp6
 70
     1
102
RTVSPropertyOp7
 70
     1
102
RTVSPropertyOp8
 70
     1
102
RTVSPropertyOp9
 70
     1
102
RTVSPropertyOp10
 70
     1
102
RTVSPropertyOp11
 70
     1
102
RTVSPropertyOp12
 70
     1
102
RTVSPropertyOp13
 70
     1
102
RTVSPropertyOp14
 70
     1
102
RTVSPropertyOp15
 70
     1
102
RTVSPropertyOp16
 70
     1
102
RTVSPropertyOp17
 70
     1
102
RTVSPropertyOp18
 70
     1
102
RTVSPropertyOp19
 70
     1
102
RTVSPropertyOp20
 70
     1
102
RTVSPropertyOp21
 70
     1
102
RTVSPropertyOp22
 70
     1
102
RTVSPropertyOp23
 70
     1
102
RTVSPropertyOp24
 70
     1
102
RTVSPropertyOp25
 70
     1
102
RTVSPropertyOp26
 70
     1
102
RTVSPropertyOp27
 70
     1
102
RTVSPropertyOp28
 70
     1
102
RTVSPropertyOp29
 70
     1
102
RTVSPropertyOp30
 70
     1
102
RTVSPropertyOp31
 70
     1
102
RTVSPropertyOp32
 70
     1
  0
XRECORD
  5
FE4
102
{ACAD_REACTORS
330
FE3
102
}
330
FE3
100
AcDbXrecord
280
     1
102
RTVSPropertyOp0
 70
     1
102
RTVSPropertyOp1
 70
     1
102
RTVSPropertyOp2
 70
     1
102
RTVSPropertyOp3
 70
     1
102
RTVSPropertyOp4
 70
     1
102
RTVSPropertyOp5
 70
     1
102
RTVSPropertyOp6
 70
     1
102
RTVSPropertyOp7
 70
     1
102
RTVSPropertyOp8
 70
     1
102
RTVSPropertyOp9
 70
     1
102
RTVSPropertyOp10
 70
     1
102
RTVSPropertyOp11
 70
     1
102
RTVSPropertyOp12
 70
     1
102
RTVSPropertyOp13
 70
     1
102
RTVSPropertyOp14
 70
     1
102
RTVSPropertyOp15
 70
     1
102
RTVSPropertyOp16
 70
     1
102
RTVSPropertyOp17
 70
     1
102
RTVSPropertyOp18
 70
     1
102
RTVSPropertyOp19
 70
     1
102
RTVSPropertyOp20
 70
     1
102
RTVSPropertyOp21
 70
     1
102
RTVSPropertyOp22
 70
     1
102
RTVSPropertyOp23
 70
     1
102
RTVSPropertyOp24
 70
     1
102
RTVSPropertyOp25
 70
     1
102
RTVSPropertyOp26
 70
     1
102
RTVSPropertyOp27
 70
     1
102
RTVSPropertyOp28
 70
     1
102
RTVSPropertyOp29
 70
     1
102
RTVSPropertyOp30
 70
     1
102
RTVSPropertyOp31
 70
     1
102
RTVSPropertyOp32
 70
     1
  0
XRECORD
  5
FE0
102
{ACAD_REACTORS
330
FDF
102
}
330
FDF
100
AcDbXrecord
280
     1
102
RTVSPropertyOp0
 70
     1
102
RTVSPropertyOp1
 70
     1
102
RTVSPropertyOp2
 70
     1
102
RTVSPropertyOp3
 70
     1
102
RTVSPropertyOp4
 70
     1
102
RTVSPropertyOp5
 70
     1
102
RTVSPropertyOp6
 70
     1
102
RTVSPropertyOp7
 70
     1
102
RTVSPropertyOp8
 70
     1
102
RTVSPropertyOp9
 70
     1
102
RTVSPropertyOp10
 70
     1
102
RTVSPropertyOp11
 70
     1
102
RTVSPropertyOp12
 70
     1
102
RTVSPropertyOp13
 70
     1
102
RTVSPropertyOp14
 70
     1
102
RTVSPropertyOp15
 70
     1
102
RTVSPropertyOp16
 70
     1
102
RTVSPropertyOp17
 70
     1
102
RTVSPropertyOp18
 70
     1
102
RTVSPropertyOp19
 70
     1
102
RTVSPropertyOp20
 70
     1
102
RTVSPropertyOp21
 70
     1
102
RTVSPropertyOp22
 70
     1
102
RTVSPropertyOp23
 70
     1
102
RTVSPropertyOp24
 70
     1
102
RTVSPropertyOp25
 70
     1
102
RTVSPropertyOp26
 70
     1
102
RTVSPropertyOp27
 70
     1
102
RTVSPropertyOp28
 70
     1
102
RTVSPropertyOp29
 70
     1
102
RTVSPropertyOp30
 70
     1
102
RTVSPropertyOp31
 70
     1
102
RTVSPropertyOp32
 70
     1
  0
XRECORD
  5
FEE
102
{ACAD_REACTORS
330
FED
102
}
330
FED
100
AcDbXrecord
280
     1
102
RTVSPropertyOp0
 70
     1
102
RTVSPropertyOp1
 70
     1
102
RTVSPropertyOp2
 70
     1
102
RTVSPropertyOp3
 70
     1
102
RTVSPropertyOp4
 70
     1
102
RTVSPropertyOp5
 70
     1
102
RTVSPropertyOp6
 70
     1
102
RTVSPropertyOp7
 70
     1
102
RTVSPropertyOp8
 70
     1
102
RTVSPropertyOp9
 70
     1
102
RTVSPropertyOp10
 70
     1
102
RTVSPropertyOp11
 70
     1
102
RTVSPropertyOp12
 70
     1
102
RTVSPropertyOp13
 70
     1
102
RTVSPropertyOp14
 70
     1
102
RTVSPropertyOp15
 70
     1
102
RTVSPropertyOp16
 70
     1
102
RTVSPropertyOp17
 70
     1
102
RTVSPropertyOp18
 70
     1
102
RTVSPropertyOp19
 70
     1
102
RTVSPropertyOp20
 70
     1
102
RTVSPropertyOp21
 70
     1
102
RTVSPropertyOp22
 70
     1
102
RTVSPropertyOp23
 70
     1
102
RTVSPropertyOp24
 70
     1
102
RTVSPropertyOp25
 70
     1
102
RTVSPropertyOp26
 70
     1
102
RTVSPropertyOp27
 70
     1
102
RTVSPropertyOp28
 70
     1
102
RTVSPropertyOp29
 70
     1
102
RTVSPropertyOp30
 70
     1
102
RTVSPropertyOp31
 70
     1
102
RTVSPropertyOp32
 70
     1
  0
XRECORD
  5
FF6
102
{ACAD_REACTORS
330
FF5
102
}
330
FF5
100
AcDbXrecord
280
     1
102
RTVSPropertyOp0
 70
     1
102
RTVSPropertyOp1
 70
     1
102
RTVSPropertyOp2
 70
     1
102
RTVSPropertyOp3
 70
     1
102
RTVSPropertyOp4
 70
     1
102
RTVSPropertyOp5
 70
     1
102
RTVSPropertyOp6
 70
     1
102
RTVSPropertyOp7
 70
     1
102
RTVSPropertyOp8
 70
     1
102
RTVSPropertyOp9
 70
     1
102
RTVSPropertyOp10
 70
     1
102
RTVSPropertyOp11
 70
     1
102
RTVSPropertyOp12
 70
     1
102
RTVSPropertyOp13
 70
     1
102
RTVSPropertyOp14
 70
     1
102
RTVSPropertyOp15
 70
     1
102
RTVSPropertyOp16
 70
     1
102
RTVSPropertyOp17
 70
     1
102
RTVSPropertyOp18
 70
     1
102
RTVSPropertyOp19
 70
     1
102
RTVSPropertyOp20
 70
     1
102
RTVSPropertyOp21
 70
     1
102
RTVSPropertyOp22
 70
     1
102
RTVSPropertyOp23
 70
     1
102
RTVSPropertyOp24
 70
     1
102
RTVSPropertyOp25
 70
     1
102
RTVSPropertyOp26
 70
     1
102
RTVSPropertyOp27
 70
     1
102
RTVSPropertyOp28
 70
     1
102
RTVSPropertyOp29
 70
     1
102
RTVSPropertyOp30
 70
     1
102
RTVSPropertyOp31
 70
     1
102
RTVSPropertyOp32
 70
     1
  0
XRECORD
  5
FE8
102
{ACAD_REACTORS
330
FE7
102
}
330
FE7
100
AcDbXrecord
280
     1
102
RTVSPropertyOp0
 70
     1
102
RTVSPropertyOp1
 70
     1
102
RTVSPropertyOp2
 70
     1
102
RTVSPropertyOp3
 70
     1
102
RTVSPropertyOp4
 70
     1
102
RTVSPropertyOp5
 70
     1
102
RTVSPropertyOp6
 70
     1
102
RTVSPropertyOp7
 70
     1
102
RTVSPropertyOp8
 70
     1
102
RTVSPropertyOp9
 70
     1
102
RTVSPropertyOp10
 70
     1
102
RTVSPropertyOp11
 70
     1
102
RTVSPropertyOp12
 70
     1
102
RTVSPropertyOp13
 70
     1
102
RTVSPropertyOp14
 70
     1
102
RTVSPropertyOp15
 70
     1
102
RTVSPropertyOp16
 70
     1
102
RTVSPropertyOp17
 70
     1
102
RTVSPropertyOp18
 70
     1
102
RTVSPropertyOp19
 70
     1
102
RTVSPropertyOp20
 70
     1
102
RTVSPropertyOp21
 70
     1
102
RTVSPropertyOp22
 70
     1
102
RTVSPropertyOp23
 70
     1
102
RTVSPropertyOp24
 70
     1
102
RTVSPropertyOp25
 70
     1
102
RTVSPropertyOp26
 70
     1
102
RTVSPropertyOp27
 70
     1
102
RTVSPropertyOp28
 70
     1
102
RTVSPropertyOp29
 70
     1
102
RTVSPropertyOp30
 70
     1
102
RTVSPropertyOp31
 70
     1
102
RTVSPropertyOp32
 70
     1
  0
XRECORD
  5
FEC
102
{ACAD_REACTORS
330
FEB
102
}
330
FEB
100
AcDbXrecord
280
     1
102
RTVSPropertyOp0
 70
     1
102
RTVSPropertyOp1
 70
     1
102
RTVSPropertyOp2
 70
     1
102
RTVSPropertyOp3
 70
     1
102
RTVSPropertyOp4
 70
     1
102
RTVSPropertyOp5
 70
     1
102
RTVSPropertyOp6
 70
     1
102
RTVSPropertyOp7
 70
     1
102
RTVSPropertyOp8
 70
     1
102
RTVSPropertyOp9
 70
     1
102
RTVSPropertyOp10
 70
     1
102
RTVSPropertyOp11
 70
     1
102
RTVSPropertyOp12
 70
     1
102
RTVSPropertyOp13
 70
     1
102
RTVSPropertyOp14
 70
     1
102
RTVSPropertyOp15
 70
     1
102
RTVSPropertyOp16
 70
     1
102
RTVSPropertyOp17
 70
     1
102
RTVSPropertyOp18
 70
     1
102
RTVSPropertyOp19
 70
     1
102
RTVSPropertyOp20
 70
     1
102
RTVSPropertyOp21
 70
     1
102
RTVSPropertyOp22
 70
     1
102
RTVSPropertyOp23
 70
     1
102
RTVSPropertyOp24
 70
     1
102
RTVSPropertyOp25
 70
     1
102
RTVSPropertyOp26
 70
     1
102
RTVSPropertyOp27
 70
     1
102
RTVSPropertyOp28
 70
     1
102
RTVSPropertyOp29
 70
     1
102
RTVSPropertyOp30
 70
     1
102
RTVSPropertyOp31
 70
     1
102
RTVSPropertyOp32
 70
     1
  0
XRECORD
  5
100F
102
{ACAD_REACTORS
330
100E
102
}
330
100E
100
AcDbXrecord
280
     1
102
RTVSPropertyOp0
 70
     0
102
RTVSPropertyOp1
 70
     0
102
RTVSPropertyOp2
 70
     0
102
RTVSPropertyOp3
 70
     0
102
RTVSPropertyOp4
 70
     0
102
RTVSPropertyOp5
 70
     0
102
RTVSPropertyOp6
 70
     0
102
RTVSPropertyOp7
 70
     0
102
RTVSPropertyOp8
 70
     0
102
RTVSPropertyOp9
 70
     0
102
RTVSPropertyOp10
 70
     0
102
RTVSPropertyOp11
 70
     0
102
RTVSPropertyOp12
 70
     0
102
RTVSPropertyOp13
 70
     0
102
RTVSPropertyOp14
 70
     2
102
RTVSPropertyOp15
 70
     0
102
RTVSPropertyOp16
 70
     0
102
RTVSPropertyOp17
 70
     0
102
RTVSPropertyOp18
 70
     0
102
RTVSPropertyOp19
 70
     0
102
RTVSPropertyOp20
 70
     0
102
RTVSPropertyOp21
 70
     0
102
RTVSPropertyOp22
 70
     0
102
RTVSPropertyOp23
 70
     0
102
RTVSPropertyOp24
 70
     0
102
RTVSPropertyOp25
 70
     0
102
RTVSPropertyOp26
 70
     0
102
RTVSPropertyOp27
 70
     0
102
RTVSPropertyOp28
 70
     0
102
RTVSPropertyOp29
 70
     0
102
RTVSPropertyOp30
 70
     0
102
RTVSPropertyOp31
 70
     0
102
RTVSPropertyOp32
 70
     0
  0
XRECORD
  5
FF4
102
{ACAD_REACTORS
330
FF3
102
}
330
FF3
100
AcDbXrecord
280
     1
102
RTVSPropertyOp0
 70
     1
102
RTVSPropertyOp1
 70
     1
102
RTVSPropertyOp2
 70
     1
102
RTVSPropertyOp3
 70
     1
102
RTVSPropertyOp4
 70
     1
102
RTVSPropertyOp5
 70
     1
102
RTVSPropertyOp6
 70
     1
102
RTVSPropertyOp7
 70
     1
102
RTVSPropertyOp8
 70
     1
102
RTVSPropertyOp9
 70
     1
102
RTVSPropertyOp10
 70
     1
102
RTVSPropertyOp11
 70
     1
102
RTVSPropertyOp12
 70
     1
102
RTVSPropertyOp13
 70
     1
102
RTVSPropertyOp14
 70
     1
102
RTVSPropertyOp15
 70
     1
102
RTVSPropertyOp16
 70
     1
102
RTVSPropertyOp17
 70
     1
102
RTVSPropertyOp18
 70
     1
102
RTVSPropertyOp19
 70
     1
102
RTVSPropertyOp20
 70
     1
102
RTVSPropertyOp21
 70
     1
102
RTVSPropertyOp22
 70
     1
102
RTVSPropertyOp23
 70
     1
102
RTVSPropertyOp24
 70
     1
102
RTVSPropertyOp25
 70
     1
102
RTVSPropertyOp26
 70
     1
102
RTVSPropertyOp27
 70
     1
102
RTVSPropertyOp28
 70
     1
102
RTVSPropertyOp29
 70
     1
102
RTVSPropertyOp30
 70
     1
102
RTVSPropertyOp31
 70
     1
102
RTVSPropertyOp32
 70
     1
  0
XRECORD
  5
FD8
102
{ACAD_REACTORS
330
FD7
102
}
330
FD7
100
AcDbXrecord
280
     1
102
RTVSPropertyOp0
 70
     1
102
RTVSPropertyOp1
 70
     1
102
RTVSPropertyOp2
 70
     1
102
RTVSPropertyOp3
 70
     1
102
RTVSPropertyOp4
 70
     1
102
RTVSPropertyOp5
 70
     1
102
RTVSPropertyOp6
 70
     1
102
RTVSPropertyOp7
 70
     1
102
RTVSPropertyOp8
 70
     1
102
RTVSPropertyOp9
 70
     1
102
RTVSPropertyOp10
 70
     1
102
RTVSPropertyOp11
 70
     1
102
RTVSPropertyOp12
 70
     1
102
RTVSPropertyOp13
 70
     1
102
RTVSPropertyOp14
 70
     1
102
RTVSPropertyOp15
 70
     1
102
RTVSPropertyOp16
 70
     1
102
RTVSPropertyOp17
 70
     1
102
RTVSPropertyOp18
 70
     1
102
RTVSPropertyOp19
 70
     1
102
RTVSPropertyOp20
 70
     1
102
RTVSPropertyOp21
 70
     1
102
RTVSPropertyOp22
 70
     1
102
RTVSPropertyOp23
 70
     1
102
RTVSPropertyOp24
 70
     1
102
RTVSPropertyOp25
 70
     1
102
RTVSPropertyOp26
 70
     1
102
RTVSPropertyOp27
 70
     1
102
RTVSPropertyOp28
 70
     1
102
RTVSPropertyOp29
 70
     1
102
RTVSPropertyOp30
 70
     1
102
RTVSPropertyOp31
 70
     1
102
RTVSPropertyOp32
 70
     1
  0
XRECORD
  5
FDA
102
{ACAD_REACTORS
330
FD9
102
}
330
FD9
100
AcDbXrecord
280
     1
102
RTVSPropertyOp0
 70
     1
102
RTVSPropertyOp1
 70
     1
102
RTVSPropertyOp2
 70
     1
102
RTVSPropertyOp3
 70
     1
102
RTVSPropertyOp4
 70
     1
102
RTVSPropertyOp5
 70
     1
102
RTVSPropertyOp6
 70
     1
102
RTVSPropertyOp7
 70
     1
102
RTVSPropertyOp8
 70
     1
102
RTVSPropertyOp9
 70
     1
102
RTVSPropertyOp10
 70
     1
102
RTVSPropertyOp11
 70
     1
102
RTVSPropertyOp12
 70
     1
102
RTVSPropertyOp13
 70
     1
102
RTVSPropertyOp14
 70
     1
102
RTVSPropertyOp15
 70
     1
102
RTVSPropertyOp16
 70
     1
102
RTVSPropertyOp17
 70
     1
102
RTVSPropertyOp18
 70
     1
102
RTVSPropertyOp19
 70
     1
102
RTVSPropertyOp20
 70
     1
102
RTVSPropertyOp21
 70
     1
102
RTVSPropertyOp22
 70
     1
102
RTVSPropertyOp23
 70
     1
102
RTVSPropertyOp24
 70
     1
102
RTVSPropertyOp25
 70
     1
102
RTVSPropertyOp26
 70
     1
102
RTVSPropertyOp27
 70
     1
102
RTVSPropertyOp28
 70
     1
102
RTVSPropertyOp29
 70
     1
102
RTVSPropertyOp30
 70
     1
102
RTVSPropertyOp31
 70
     1
102
RTVSPropertyOp32
 70
     1
  0
XRECORD
  5
FDC
102
{ACAD_REACTORS
330
FDB
102
}
330
FDB
100
AcDbXrecord
280
     1
102
RTVSPropertyOp0
 70
     1
102
RTVSPropertyOp1
 70
     1
102
RTVSPropertyOp2
 70
     1
102
RTVSPropertyOp3
 70
     1
102
RTVSPropertyOp4
 70
     1
102
RTVSPropertyOp5
 70
     1
102
RTVSPropertyOp6
 70
     1
102
RTVSPropertyOp7
 70
     1
102
RTVSPropertyOp8
 70
     1
102
RTVSPropertyOp9
 70
     1
102
RTVSPropertyOp10
 70
     1
102
RTVSPropertyOp11
 70
     1
102
RTVSPropertyOp12
 70
     1
102
RTVSPropertyOp13
 70
     1
102
RTVSPropertyOp14
 70
     1
102
RTVSPropertyOp15
 70
     1
102
RTVSPropertyOp16
 70
     1
102
RTVSPropertyOp17
 70
     1
102
RTVSPropertyOp18
 70
     1
102
RTVSPropertyOp19
 70
     1
102
RTVSPropertyOp20
 70
     1
102
RTVSPropertyOp21
 70
     1
102
RTVSPropertyOp22
 70
     1
102
RTVSPropertyOp23
 70
     1
102
RTVSPropertyOp24
 70
     1
102
RTVSPropertyOp25
 70
     1
102
RTVSPropertyOp26
 70
     1
102
RTVSPropertyOp27
 70
     1
102
RTVSPropertyOp28
 70
     1
102
RTVSPropertyOp29
 70
     1
102
RTVSPropertyOp30
 70
     1
102
RTVSPropertyOp31
 70
     1
102
RTVSPropertyOp32
 70
     1
  0
XRECORD
  5
FDE
102
{ACAD_REACTORS
330
FDD
102
}
330
FDD
100
AcDbXrecord
280
     1
102
RTVSPropertyOp0
 70
     1
102
RTVSPropertyOp1
 70
     1
102
RTVSPropertyOp2
 70
     1
102
RTVSPropertyOp3
 70
     1
102
RTVSPropertyOp4
 70
     1
102
RTVSPropertyOp5
 70
     1
102
RTVSPropertyOp6
 70
     1
102
RTVSPropertyOp7
 70
     1
102
RTVSPropertyOp8
 70
     1
102
RTVSPropertyOp9
 70
     1
102
RTVSPropertyOp10
 70
     1
102
RTVSPropertyOp11
 70
     1
102
RTVSPropertyOp12
 70
     1
102
RTVSPropertyOp13
 70
     1
102
RTVSPropertyOp14
 70
     1
102
RTVSPropertyOp15
 70
     1
102
RTVSPropertyOp16
 70
     1
102
RTVSPropertyOp17
 70
     1
102
RTVSPropertyOp18
 70
     1
102
RTVSPropertyOp19
 70
     1
102
RTVSPropertyOp20
 70
     1
102
RTVSPropertyOp21
 70
     1
102
RTVSPropertyOp22
 70
     1
102
RTVSPropertyOp23
 70
     1
102
RTVSPropertyOp24
 70
     1
102
RTVSPropertyOp25
 70
     1
102
RTVSPropertyOp26
 70
     1
102
RTVSPropertyOp27
 70
     1
102
RTVSPropertyOp28
 70
     1
102
RTVSPropertyOp29
 70
     1
102
RTVSPropertyOp30
 70
     1
102
RTVSPropertyOp31
 70
     1
102
RTVSPropertyOp32
 70
     1
  0
XRECORD
  5
FFF
102
{ACAD_REACTORS
330
FFE
102
}
330
FFE
100
AcDbXrecord
280
     1
102
RTVSPropertyOp0
 70
     1
102
RTVSPropertyOp1
 70
     1
102
RTVSPropertyOp2
 70
     1
102
RTVSPropertyOp3
 70
     1
102
RTVSPropertyOp4
 70
     1
102
RTVSPropertyOp5
 70
     1
102
RTVSPropertyOp6
 70
     1
102
RTVSPropertyOp7
 70
     1
102
RTVSPropertyOp8
 70
     1
102
RTVSPropertyOp9
 70
     1
102
RTVSPropertyOp10
 70
     1
102
RTVSPropertyOp11
 70
     1
102
RTVSPropertyOp12
 70
     1
102
RTVSPropertyOp13
 70
     1
102
RTVSPropertyOp14
 70
     1
102
RTVSPropertyOp15
 70
     1
102
RTVSPropertyOp16
 70
     1
102
RTVSPropertyOp17
 70
     1
102
RTVSPropertyOp18
 70
     1
102
RTVSPropertyOp19
 70
     1
102
RTVSPropertyOp20
 70
     1
102
RTVSPropertyOp21
 70
     1
102
RTVSPropertyOp22
 70
     1
102
RTVSPropertyOp23
 70
     1
102
RTVSPropertyOp24
 70
     1
102
RTVSPropertyOp25
 70
     1
102
RTVSPropertyOp26
 70
     1
102
RTVSPropertyOp27
 70
     1
102
RTVSPropertyOp28
 70
     1
102
RTVSPropertyOp29
 70
     1
102
RTVSPropertyOp30
 70
     1
102
RTVSPropertyOp31
 70
     1
102
RTVSPropertyOp32
 70
     1
  0
XRECORD
  5
100B
102
{ACAD_REACTORS
330
100A
102
}
330
100A
100
AcDbXrecord
280
     1
102
RTVSPropertyOp0
 70
     0
102
RTVSPropertyOp1
 70
     0
102
RTVSPropertyOp2
 70
     0
102
RTVSPropertyOp3
 70
     0
102
RTVSPropertyOp4
 70
     0
102
RTVSPropertyOp5
 70
     0
102
RTVSPropertyOp6
 70
     0
102
RTVSPropertyOp7
 70
     0
102
RTVSPropertyOp8
 70
     0
102
RTVSPropertyOp9
 70
     0
102
RTVSPropertyOp10
 70
     0
102
RTVSPropertyOp11
 70
     0
102
RTVSPropertyOp12
 70
     0
102
RTVSPropertyOp13
 70
     0
102
RTVSPropertyOp14
 70
     2
102
RTVSPropertyOp15
 70
     0
102
RTVSPropertyOp16
 70
     0
102
RTVSPropertyOp17
 70
     0
102
RTVSPropertyOp18
 70
     0
102
RTVSPropertyOp19
 70
     0
102
RTVSPropertyOp20
 70
     0
102
RTVSPropertyOp21
 70
     0
102
RTVSPropertyOp22
 70
     0
102
RTVSPropertyOp23
 70
     0
102
RTVSPropertyOp24
 70
     0
102
RTVSPropertyOp25
 70
     0
102
RTVSPropertyOp26
 70
     0
102
RTVSPropertyOp27
 70
     0
102
RTVSPropertyOp28
 70
     0
102
RTVSPropertyOp29
 70
     0
102
RTVSPropertyOp30
 70
     0
102
RTVSPropertyOp31
 70
     0
102
RTVSPropertyOp32
 70
     0
  0
XRECORD
  5
FF2
102
{ACAD_REACTORS
330
FF1
102
}
330
FF1
100
AcDbXrecord
280
     1
102
RTVSPropertyOp0
 70
     1
102
RTVSPropertyOp1
 70
     1
102
RTVSPropertyOp2
 70
     1
102
RTVSPropertyOp3
 70
     1
102
RTVSPropertyOp4
 70
     1
102
RTVSPropertyOp5
 70
     1
102
RTVSPropertyOp6
 70
     1
102
RTVSPropertyOp7
 70
     1
102
RTVSPropertyOp8
 70
     1
102
RTVSPropertyOp9
 70
     1
102
RTVSPropertyOp10
 70
     1
102
RTVSPropertyOp11
 70
     1
102
RTVSPropertyOp12
 70
     1
102
RTVSPropertyOp13
 70
     1
102
RTVSPropertyOp14
 70
     1
102
RTVSPropertyOp15
 70
     1
102
RTVSPropertyOp16
 70
     1
102
RTVSPropertyOp17
 70
     1
102
RTVSPropertyOp18
 70
     1
102
RTVSPropertyOp19
 70
     1
102
RTVSPropertyOp20
 70
     1
102
RTVSPropertyOp21
 70
     1
102
RTVSPropertyOp22
 70
     1
102
RTVSPropertyOp23
 70
     1
102
RTVSPropertyOp24
 70
     1
102
RTVSPropertyOp25
 70
     1
102
RTVSPropertyOp26
 70
     1
102
RTVSPropertyOp27
 70
     1
102
RTVSPropertyOp28
 70
     1
102
RTVSPropertyOp29
 70
     1
102
RTVSPropertyOp30
 70
     1
102
RTVSPropertyOp31
 70
     1
102
RTVSPropertyOp32
 70
     1
  0
XRECORD
  5
100D
102
{ACAD_REACTORS
330
100C
102
}
330
100C
100
AcDbXrecord
280
     1
102
RTVSPropertyOp0
 70
     0
102
RTVSPropertyOp1
 70
     0
102
RTVSPropertyOp2
 70
     0
102
RTVSPropertyOp3
 70
     0
102
RTVSPropertyOp4
 70
     0
102
RTVSPropertyOp5
 70
     0
102
RTVSPropertyOp6
 70
     0
102
RTVSPropertyOp7
 70
     0
102
RTVSPropertyOp8
 70
     0
102
RTVSPropertyOp9
 70
     0
102
RTVSPropertyOp10
 70
     0
102
RTVSPropertyOp11
 70
     0
102
RTVSPropertyOp12
 70
     0
102
RTVSPropertyOp13
 70
     0
102
RTVSPropertyOp14
 70
     2
102
RTVSPropertyOp15
 70
     0
102
RTVSPropertyOp16
 70
     0
102
RTVSPropertyOp17
 70
     0
102
RTVSPropertyOp18
 70
     0
102
RTVSPropertyOp19
 70
     0
102
RTVSPropertyOp20
 70
     0
102
RTVSPropertyOp21
 70
     0
102
RTVSPropertyOp22
 70
     0
102
RTVSPropertyOp23
 70
     0
102
RTVSPropertyOp24
 70
     0
102
RTVSPropertyOp25
 70
     0
102
RTVSPropertyOp26
 70
     0
102
RTVSPropertyOp27
 70
     0
102
RTVSPropertyOp28
 70
     0
102
RTVSPropertyOp29
 70
     0
102
RTVSPropertyOp30
 70
     0
102
RTVSPropertyOp31
 70
     0
102
RTVSPropertyOp32
 70
     0
  0
XRECORD
  5
FEA
102
{ACAD_REACTORS
330
FE9
102
}
330
FE9
100
AcDbXrecord
280
     1
102
RTVSPropertyOp0
 70
     1
102
RTVSPropertyOp1
 70
     1
102
RTVSPropertyOp2
 70
     1
102
RTVSPropertyOp3
 70
     1
102
RTVSPropertyOp4
 70
     1
102
RTVSPropertyOp5
 70
     1
102
RTVSPropertyOp6
 70
     1
102
RTVSPropertyOp7
 70
     1
102
RTVSPropertyOp8
 70
     1
102
RTVSPropertyOp9
 70
     1
102
RTVSPropertyOp10
 70
     1
102
RTVSPropertyOp11
 70
     1
102
RTVSPropertyOp12
 70
     1
102
RTVSPropertyOp13
 70
     1
102
RTVSPropertyOp14
 70
     1
102
RTVSPropertyOp15
 70
     1
102
RTVSPropertyOp16
 70
     1
102
RTVSPropertyOp17
 70
     1
102
RTVSPropertyOp18
 70
     1
102
RTVSPropertyOp19
 70
     1
102
RTVSPropertyOp20
 70
     1
102
RTVSPropertyOp21
 70
     1
102
RTVSPropertyOp22
 70
     1
102
RTVSPropertyOp23
 70
     1
102
RTVSPropertyOp24
 70
     1
102
RTVSPropertyOp25
 70
     1
102
RTVSPropertyOp26
 70
     1
102
RTVSPropertyOp27
 70
     1
102
RTVSPropertyOp28
 70
     1
102
RTVSPropertyOp29
 70
     1
102
RTVSPropertyOp30
 70
     1
102
RTVSPropertyOp31
 70
     1
102
RTVSPropertyOp32
 70
     1
  0
XRECORD
  5
1009
102
{ACAD_REACTORS
330
1008
102
}
330
1008
100
AcDbXrecord
280
     1
102
RTVSPropertyOp0
 70
     1
102
RTVSPropertyOp1
 70
     1
102
RTVSPropertyOp2
 70
     1
102
RTVSPropertyOp3
 70
     1
102
RTVSPropertyOp4
 70
     1
102
RTVSPropertyOp5
 70
     1
102
RTVSPropertyOp6
 70
     1
102
RTVSPropertyOp7
 70
     1
102
RTVSPropertyOp8
 70
     1
102
RTVSPropertyOp9
 70
     1
102
RTVSPropertyOp10
 70
     1
102
RTVSPropertyOp11
 70
     1
102
RTVSPropertyOp12
 70
     1
102
RTVSPropertyOp13
 70
     1
102
RTVSPropertyOp14
 70
     1
102
RTVSPropertyOp15
 70
     1
102
RTVSPropertyOp16
 70
     1
102
RTVSPropertyOp17
 70
     1
102
RTVSPropertyOp18
 70
     1
102
RTVSPropertyOp19
 70
     1
102
RTVSPropertyOp20
 70
     1
102
RTVSPropertyOp21
 70
     1
102
RTVSPropertyOp22
 70
     1
102
RTVSPropertyOp23
 70
     1
102
RTVSPropertyOp24
 70
     1
102
RTVSPropertyOp25
 70
     1
102
RTVSPropertyOp26
 70
     1
102
RTVSPropertyOp27
 70
     1
102
RTVSPropertyOp28
 70
     1
102
RTVSPropertyOp29
 70
     1
102
RTVSPropertyOp30
 70
     1
102
RTVSPropertyOp31
 70
     1
102
RTVSPropertyOp32
 70
     1
  0
XRECORD
  5
1007
102
{ACAD_REACTORS
330
1006
102
}
330
1006
100
AcDbXrecord
280
     1
102
RTVSPropertyOp0
 70
     1
102
RTVSPropertyOp1
 70
     1
102
RTVSPropertyOp2
 70
     1
102
RTVSPropertyOp3
 70
     1
102
RTVSPropertyOp4
 70
     1
102
RTVSPropertyOp5
 70
     1
102
RTVSPropertyOp6
 70
     1
102
RTVSPropertyOp7
 70
     1
102
RTVSPropertyOp8
 70
     1
102
RTVSPropertyOp9
 70
     1
102
RTVSPropertyOp10
 70
     1
102
RTVSPropertyOp11
 70
     1
102
RTVSPropertyOp12
 70
     1
102
RTVSPropertyOp13
 70
     1
102
RTVSPropertyOp14
 70
     1
102
RTVSPropertyOp15
 70
     1
102
RTVSPropertyOp16
 70
     1
102
RTVSPropertyOp17
 70
     1
102
RTVSPropertyOp18
 70
     1
102
RTVSPropertyOp19
 70
     1
102
RTVSPropertyOp20
 70
     1
102
RTVSPropertyOp21
 70
     1
102
RTVSPropertyOp22
 70
     1
102
RTVSPropertyOp23
 70
     1
102
RTVSPropertyOp24
 70
     1
102
RTVSPropertyOp25
 70
     1
102
RTVSPropertyOp26
 70
     1
102
RTVSPropertyOp27
 70
     1
102
RTVSPropertyOp28
 70
     1
102
RTVSPropertyOp29
 70
     1
102
RTVSPropertyOp30
 70
     1
102
RTVSPropertyOp31
 70
     1
102
RTVSPropertyOp32
 70
     1
  0
XRECORD
  5
1001
102
{ACAD_REACTORS
330
1000
102
}
330
1000
100
AcDbXrecord
280
     1
102
RTVSPropertyOp0
 70
     1
102
RTVSPropertyOp1
 70
     1
102
RTVSPropertyOp2
 70
     1
102
RTVSPropertyOp3
 70
     1
102
RTVSPropertyOp4
 70
     1
102
RTVSPropertyOp5
 70
     1
102
RTVSPropertyOp6
 70
     1
102
RTVSPropertyOp7
 70
     1
102
RTVSPropertyOp8
 70
     1
102
RTVSPropertyOp9
 70
     1
102
RTVSPropertyOp10
 70
     1
102
RTVSPropertyOp11
 70
     1
102
RTVSPropertyOp12
 70
     1
102
RTVSPropertyOp13
 70
     1
102
RTVSPropertyOp14
 70
     1
102
RTVSPropertyOp15
 70
     1
102
RTVSPropertyOp16
 70
     1
102
RTVSPropertyOp17
 70
     1
102
RTVSPropertyOp18
 70
     1
102
RTVSPropertyOp19
 70
     1
102
RTVSPropertyOp20
 70
     1
102
RTVSPropertyOp21
 70
     1
102
RTVSPropertyOp22
 70
     1
102
RTVSPropertyOp23
 70
     1
102
RTVSPropertyOp24
 70
     1
102
RTVSPropertyOp25
 70
     1
102
RTVSPropertyOp26
 70
     1
102
RTVSPropertyOp27
 70
     1
102
RTVSPropertyOp28
 70
     1
102
RTVSPropertyOp29
 70
     1
102
RTVSPropertyOp30
 70
     1
102
RTVSPropertyOp31
 70
     1
102
RTVSPropertyOp32
 70
     1
  0
XRECORD
  5
1003
102
{ACAD_REACTORS
330
1002
102
}
330
1002
100
AcDbXrecord
280
     1
102
RTVSPropertyOp0
 70
     1
102
RTVSPropertyOp1
 70
     1
102
RTVSPropertyOp2
 70
     1
102
RTVSPropertyOp3
 70
     1
102
RTVSPropertyOp4
 70
     1
102
RTVSPropertyOp5
 70
     1
102
RTVSPropertyOp6
 70
     1
102
RTVSPropertyOp7
 70
     1
102
RTVSPropertyOp8
 70
     1
102
RTVSPropertyOp9
 70
     1
102
RTVSPropertyOp10
 70
     1
102
RTVSPropertyOp11
 70
     1
102
RTVSPropertyOp12
 70
     1
102
RTVSPropertyOp13
 70
     1
102
RTVSPropertyOp14
 70
     1
102
RTVSPropertyOp15
 70
     1
102
RTVSPropertyOp16
 70
     1
102
RTVSPropertyOp17
 70
     1
102
RTVSPropertyOp18
 70
     1
102
RTVSPropertyOp19
 70
     1
102
RTVSPropertyOp20
 70
     1
102
RTVSPropertyOp21
 70
     1
102
RTVSPropertyOp22
 70
     1
102
RTVSPropertyOp23
 70
     1
102
RTVSPropertyOp24
 70
     1
102
RTVSPropertyOp25
 70
     1
102
RTVSPropertyOp26
 70
     1
102
RTVSPropertyOp27
 70
     1
102
RTVSPropertyOp28
 70
     1
102
RTVSPropertyOp29
 70
     1
102
RTVSPropertyOp30
 70
     1
102
RTVSPropertyOp31
 70
     1
102
RTVSPropertyOp32
 70
     1
  0
XRECORD
  5
FF0
102
{ACAD_REACTORS
330
FEF
102
}
330
FEF
100
AcDbXrecord
280
     1
102
RTVSPropertyOp0
 70
     1
102
RTVSPropertyOp1
 70
     1
102
RTVSPropertyOp2
 70
     1
102
RTVSPropertyOp3
 70
     1
102
RTVSPropertyOp4
 70
     1
102
RTVSPropertyOp5
 70
     1
102
RTVSPropertyOp6
 70
     1
102
RTVSPropertyOp7
 70
     1
102
RTVSPropertyOp8
 70
     1
102
RTVSPropertyOp9
 70
     1
102
RTVSPropertyOp10
 70
     1
102
RTVSPropertyOp11
 70
     1
102
RTVSPropertyOp12
 70
     1
102
RTVSPropertyOp13
 70
     1
102
RTVSPropertyOp14
 70
     1
102
RTVSPropertyOp15
 70
     1
102
RTVSPropertyOp16
 70
     1
102
RTVSPropertyOp17
 70
     1
102
RTVSPropertyOp18
 70
     1
102
RTVSPropertyOp19
 70
     1
102
RTVSPropertyOp20
 70
     1
102
RTVSPropertyOp21
 70
     1
102
RTVSPropertyOp22
 70
     1
102
RTVSPropertyOp23
 70
     1
102
RTVSPropertyOp24
 70
     1
102
RTVSPropertyOp25
 70
     1
102
RTVSPropertyOp26
 70
     1
102
RTVSPropertyOp27
 70
     1
102
RTVSPropertyOp28
 70
     1
102
RTVSPropertyOp29
 70
     1
102
RTVSPropertyOp30
 70
     1
102
RTVSPropertyOp31
 70
     1
102
RTVSPropertyOp32
 70
     1
  0
XRECORD
  5
FFD
102
{ACAD_REACTORS
330
FFC
102
}
330
FFC
100
AcDbXrecord
280
     1
102
RTVSPropertyOp0
 70
     1
102
RTVSPropertyOp1
 70
     1
102
RTVSPropertyOp2
 70
     1
102
RTVSPropertyOp3
 70
     1
102
RTVSPropertyOp4
 70
     1
102
RTVSPropertyOp5
 70
     1
102
RTVSPropertyOp6
 70
     1
102
RTVSPropertyOp7
 70
     1
102
RTVSPropertyOp8
 70
     1
102
RTVSPropertyOp9
 70
     1
102
RTVSPropertyOp10
 70
     1
102
RTVSPropertyOp11
 70
     1
102
RTVSPropertyOp12
 70
     1
102
RTVSPropertyOp13
 70
     1
102
RTVSPropertyOp14
 70
     1
102
RTVSPropertyOp15
 70
     1
102
RTVSPropertyOp16
 70
     1
102
RTVSPropertyOp17
 70
     1
102
RTVSPropertyOp18
 70
     1
102
RTVSPropertyOp19
 70
     1
102
RTVSPropertyOp20
 70
     1
102
RTVSPropertyOp21
 70
     1
102
RTVSPropertyOp22
 70
     1
102
RTVSPropertyOp23
 70
     1
102
RTVSPropertyOp24
 70
     1
102
RTVSPropertyOp25
 70
     1
102
RTVSPropertyOp26
 70
     1
102
RTVSPropertyOp27
 70
     1
102
RTVSPropertyOp28
 70
     1
102
RTVSPropertyOp29
 70
     1
102
RTVSPropertyOp30
 70
     1
102
RTVSPropertyOp31
 70
     1
102
RTVSPropertyOp32
 70
     1
  0
XRECORD
  5
1005
102
{ACAD_REACTORS
330
1004
102
}
330
1004
100
AcDbXrecord
280
     1
102
RTVSPropertyOp0
 70
     1
102
RTVSPropertyOp1
 70
     1
102
RTVSPropertyOp2
 70
     1
102
RTVSPropertyOp3
 70
     1
102
RTVSPropertyOp4
 70
     1
102
RTVSPropertyOp5
 70
     1
102
RTVSPropertyOp6
 70
     1
102
RTVSPropertyOp7
 70
     1
102
RTVSPropertyOp8
 70
     1
102
RTVSPropertyOp9
 70
     1
102
RTVSPropertyOp10
 70
     1
102
RTVSPropertyOp11
 70
     1
102
RTVSPropertyOp12
 70
     1
102
RTVSPropertyOp13
 70
     1
102
RTVSPropertyOp14
 70
     1
102
RTVSPropertyOp15
 70
     1
102
RTVSPropertyOp16
 70
     1
102
RTVSPropertyOp17
 70
     1
102
RTVSPropertyOp18
 70
     1
102
RTVSPropertyOp19
 70
     1
102
RTVSPropertyOp20
 70
     1
102
RTVSPropertyOp21
 70
     1
102
RTVSPropertyOp22
 70
     1
102
RTVSPropertyOp23
 70
     1
102
RTVSPropertyOp24
 70
     1
102
RTVSPropertyOp25
 70
     1
102
RTVSPropertyOp26
 70
     1
102
RTVSPropertyOp27
 70
     1
102
RTVSPropertyOp28
 70
     1
102
RTVSPropertyOp29
 70
     1
102
RTVSPropertyOp30
 70
     1
102
RTVSPropertyOp31
 70
     1
102
RTVSPropertyOp32
 70
     1
  0
ENDSEC
  0
EOF
