  0
SECTION
  2
HEADER
  9
$ACADVER
  1
AC1015
  9
$ACADMAINTVER
 70
    20
  9
$DWGCODEPAGE
  3
ANSI_932
  9
$INSBASE
 10
0.0
 20
0.0
 30
0.0
  9
$EXTMIN
 10
-1975.894054
 20
-707.3997359999999
 30
0.0
  9
$EXTMAX
 10
1417.393305
 20
2110.477857000001
 30
0.0
  9
$LIMMIN
 10
-4200.0
 20
-2970.0
  9
$LIMMAX
 10
4200.0
 20
2970.0
  9
$ORTHOMODE
 70
     0
  9
$REGENMODE
 70
     1
  9
$FILLMODE
 70
     1
  9
$QTEXTMODE
 70
     0
  9
$MIRRTEXT
 70
     0
  9
$LTSCALE
 40
20.0
  9
$ATTMODE
 70
     1
  9
$TEXTSIZE
 40
64.0
  9
$TRACEWID
 40
0.05
  9
$TEXTSTYLE
  7
STANDARD
  9
$CLAYER
  8
SIZE
  9
$CELTYPE
  6
CONTINUOUS
  9
$CECOLOR
 62
     7
  9
$CELTSCALE
 40
1.0
  9
$DISPSILH
 70
     0
  9
$DIMSCALE
 40
1.0
  9
$DIMASZ
 40
10.0
  9
$DIMEXO
 40
20.0
  9
$DIMDLI
 40
200.0
  9
$DIMRND
 40
0.0
  9
$DIMDLE
 40
0.0
  9
$DIMEXE
 40
30.0
  9
$DIMTP
 40
0.0
  9
$DIMTM
 40
0.0
  9
$DIMTXT
 40
64.0
  9
$DIMCEN
 40
0.0
  9
$DIMTSZ
 40
0.0
  9
$DIMTOL
 70
     0
  9
$DIMLIM
 70
     0
  9
$DIMTIH
 70
     0
  9
$DIMTOH
 70
     0
  9
$DIMSE1
 70
     0
  9
$DIMSE2
 70
     0
  9
$DIMTAD
 70
     1
  9
$DIMZIN
 70
     8
  9
$DIMBLK
  1
DOTBLANK
  9
$DIMASO
 70
     1
  9
$DIMSHO
 70
     0
  9
$DIMPOST
  1

  9
$DIMAPOST
  1

  9
$DIMALT
 70
     0
  9
$DIMALTD
 70
     2
  9
$DIMALTF
 40
25.4
  9
$DIMLFAC
 40
1.0
  9
$DIMTOFL
 70
     1
  9
$DIMTVP
 40
0.0
  9
$DIMTIX
 70
     1
  9
$DIMSOXD
 70
     0
  9
$DIMSAH
 70
     0
  9
$DIMBLK1
  1

  9
$DIMBLK2
  1

  9
$DIMSTYLE
  2
STANDARD
  9
$DIMCLRD
 70
     0
  9
$DIMCLRE
 70
     0
  9
$DIMCLRT
 70
     0
  9
$DIMTFAC
 40
1.0
  9
$DIMGAP
 40
0.09
  9
$DIMJUST
 70
     0
  9
$DIMSD1
 70
     0
  9
$DIMSD2
 70
     0
  9
$DIMTOLJ
 70
     1
  9
$DIMTZIN
 70
     0
  9
$DIMALTZ
 70
     0
  9
$DIMALTTZ
 70
     0
  9
$DIMUPT
 70
     0
  9
$DIMDEC
 70
     4
  9
$DIMTDEC
 70
     4
  9
$DIMALTU
 70
     2
  9
$DIMALTTD
 70
     2
  9
$DIMTXSTY
  7
STANDARD
  9
$DIMAUNIT
 70
     0
  9
$DIMADEC
 70
     0
  9
$DIMALTRND
 40
0.0
  9
$DIMAZIN
 70
     0
  9
$DIMDSEP
 70
    46
  9
$DIMATFIT
 70
     3
  9
$DIMFRAC
 70
     0
  9
$DIMLDRBLK
  1
DOTBLANK
  9
$DIMLUNIT
 70
     2
  9
$DIMLWD
 70
    -2
  9
$DIMLWE
 70
    -2
  9
$DIMTMOVE
 70
     0
  9
$LUNITS
 70
     2
  9
$LUPREC
 70
     4
  9
$SKETCHINC
 40
0.1
  9
$FILLETRAD
 40
0.0
  9
$AUNITS
 70
     1
  9
$AUPREC
 70
     3
  9
$MENU
  1
ACAD
  9
$ELEVATION
 40
0.0
  9
$PELEVATION
 40
0.0
  9
$THICKNESS
 40
0.0
  9
$LIMCHECK
 70
     0
  9
$CHAMFERA
 40
0.0
  9
$CHAMFERB
 40
0.0
  9
$CHAMFERC
 40
0.0
  9
$CHAMFERD
 40
0.0
  9
$SKPOLY
 70
     0
  9
$TDCREATE
 40
2449761.493622998
  9
$TDUCREATE
 40
2449761.118622998
  9
$TDUPDATE
 40
2458150.754109421
  9
$TDUUPDATE
 40
2458150.379109421
  9
$TDINDWG
 40
4.1526344560
  9
$TDUSRTIMER
 40
4.1526330787
  9
$USRTIMER
 70
     1
  9
$ANGBASE
 50
0.0
  9
$ANGDIR
 70
     0
  9
$PDMODE
 70
    35
  9
$PDSIZE
 40
100.0
  9
$PLINEWID
 40
0.0
  9
$SPLFRAME
 70
     0
  9
$SPLINETYPE
 70
     6
  9
$SPLINESEGS
 70
     8
  9
$HANDSEED
  5
1542
  9
$SURFTAB1
 70
     6
  9
$SURFTAB2
 70
     6
  9
$SURFTYPE
 70
     6
  9
$SURFU
 70
     6
  9
$SURFV
 70
     6
  9
$UCSBASE
  2

  9
$UCSNAME
  2

  9
$UCSORG
 10
0.0
 20
0.0
 30
0.0
  9
$UCSXDIR
 10
1.0
 20
0.0
 30
0.0
  9
$UCSYDIR
 10
0.0
 20
1.0
 30
0.0
  9
$UCSORTHOREF
  2

  9
$UCSORTHOVIEW
 70
     0
  9
$UCSORGTOP
 10
0.0
 20
0.0
 30
0.0
  9
$UCSORGBOTTOM
 10
0.0
 20
0.0
 30
0.0
  9
$UCSORGLEFT
 10
0.0
 20
0.0
 30
0.0
  9
$UCSORGRIGHT
 10
0.0
 20
0.0
 30
0.0
  9
$UCSORGFRONT
 10
0.0
 20
0.0
 30
0.0
  9
$UCSORGBACK
 10
0.0
 20
0.0
 30
0.0
  9
$PUCSBASE
  2

  9
$PUCSNAME
  2

  9
$PUCSORG
 10
0.0
 20
0.0
 30
0.0
  9
$PUCSXDIR
 10
1.0
 20
0.0
 30
0.0
  9
$PUCSYDIR
 10
0.0
 20
1.0
 30
0.0
  9
$PUCSORTHOREF
  2

  9
$PUCSORTHOVIEW
 70
     0
  9
$PUCSORGTOP
 10
0.0
 20
0.0
 30
0.0
  9
$PUCSORGBOTTOM
 10
0.0
 20
0.0
 30
0.0
  9
$PUCSORGLEFT
 10
0.0
 20
0.0
 30
0.0
  9
$PUCSORGRIGHT
 10
0.0
 20
0.0
 30
0.0
  9
$PUCSORGFRONT
 10
0.0
 20
0.0
 30
0.0
  9
$PUCSORGBACK
 10
0.0
 20
0.0
 30
0.0
  9
$USERI1
 70
     0
  9
$USERI2
 70
     0
  9
$USERI3
 70
     0
  9
$USERI4
 70
     0
  9
$USERI5
 70
     0
  9
$USERR1
 40
20.0
  9
$USERR2
 40
0.0
  9
$USERR3
 40
0.0
  9
$USERR4
 40
0.0
  9
$USERR5
 40
0.0
  9
$WORLDVIEW
 70
     1
  9
$SHADEDGE
 70
     3
  9
$SHADEDIF
 70
    70
  9
$TILEMODE
 70
     1
  9
$MAXACTVP
 70
    48
  9
$PINSBASE
 10
0.0
 20
0.0
 30
0.0
  9
$PLIMCHECK
 70
     0
  9
$PEXTMIN
 10
1.000000000000000E+20
 20
1.000000000000000E+20
 30
1.000000000000000E+20
  9
$PEXTMAX
 10
-1.000000000000000E+20
 20
-1.000000000000000E+20
 30
-1.000000000000000E+20
  9
$PLIMMIN
 10
0.0
 20
0.0
  9
$PLIMMAX
 10
12.0
 20
9.0
  9
$UNITMODE
 70
     0
  9
$VISRETAIN
 70
     1
  9
$PLINEGEN
 70
     0
  9
$PSLTSCALE
 70
     1
  9
$TREEDEPTH
 70
  3020
  9
$CMLSTYLE
  2
Standard
  9
$CMLJUST
 70
     0
  9
$CMLSCALE
 40
1.0
  9
$PROXYGRAPHICS
 70
     1
  9
$MEASUREMENT
 70
     0
  9
$CELWEIGHT
370
    -1
  9
$ENDCAPS
280
     0
  9
$JOINSTYLE
280
     0
  9
$LWDISPLAY
290
     0
  9
$INSUNITS
 70
     0
  9
$HYPERLINKBASE
  1

  9
$STYLESHEET
  1

  9
$XEDIT
290
     1
  9
$CEPSNTYPE
380
     0
  9
$PSTYLEMODE
290
     1
  9
$FINGERPRINTGUID
  2
{4C120871-8420-454B-A05B-95FFD8BD6D6B}
  9
$VERSIONGUID
  2
{77E45B0A-927B-49DC-8276-4546A092922F}
  9
$EXTNAMES
290
     1
  9
$PSVPSCALE
 40
0.0
  9
$OLESTARTUP
290
     0
  0
ENDSEC
  0
SECTION
  2
CLASSES
  0
CLASS
  1
ACDBDICTIONARYWDFLT
  2
AcDbDictionaryWithDefault
  3
ObjectDBX Classes
 90
        0
280
     0
281
     0
  0
CLASS
  1
MATERIAL
  2
AcDbMaterial
  3
ObjectDBX Classes
 90
     1153
280
     0
281
     0
  0
CLASS
  1
VISUALSTYLE
  2
AcDbVisualStyle
  3
ObjectDBX Classes
 90
     4095
280
     0
281
     0
  0
CLASS
  1
SCALE
  2
AcDbScale
  3
ObjectDBX Classes
 90
     1153
280
     0
281
     0
  0
CLASS
  1
TABLESTYLE
  2
AcDbTableStyle
  3
ObjectDBX Classes
 90
     4095
280
     0
281
     0
  0
CLASS
  1
MLEADERSTYLE
  2
AcDbMLeaderStyle
  3
ACDB_MLEADERSTYLE_CLASS
 90
     4095
280
     0
281
     0
  0
CLASS
  1
DICTIONARYVAR
  2
AcDbDictionaryVar
  3
ObjectDBX Classes
 90
        0
280
     0
281
     0
  0
CLASS
  1
CELLSTYLEMAP
  2
AcDbCellStyleMap
  3
ObjectDBX Classes
 90
     1152
280
     0
281
     0
  0
CLASS
  1
ACDBPLACEHOLDER
  2
AcDbPlaceHolder
  3
ObjectDBX Classes
 90
        0
280
     0
281
     0
  0
CLASS
  1
LAYOUT
  2
AcDbLayout
  3
ObjectDBX Classes
 90
        0
280
     0
281
     0
  0
ENDSEC
  0
SECTION
  2
TABLES
  0
TABLE
  2
VPORT
  5
1417
330
0
100
AcDbSymbolTable
 70
     1
  0
VPORT
  5
147F
330
1417
100
AcDbSymbolTableRecord
100
AcDbViewportTableRecord
  2
*ACTIVE
 70
     0
 10
0.0
 20
0.0
 11
1.0
 21
1.0
 12
-93.3982829933484
 22
410.1622709532884
 13
0.0
 23
0.0
 14
50.0
 24
50.0
 15
100.0
 25
100.0
 16
0.0
 26
0.0
 36
1.0
 17
0.0
 27
0.0
 37
0.0
 40
2838.118459977101
 41
1.127659574468085
 42
50.0
 43
0.0
 44
0.0
 50
0.0
 51
0.0
 71
     0
 72
  1000
 73
     1
 74
     0
 75
     0
 76
     0
 77
     0
 78
     0
281
     0
 65
     1
110
0.0
120
0.0
130
0.0
111
1.0
121
0.0
131
0.0
112
0.0
122
1.0
132
0.0
 79
     0
146
0.0
1001
ACAD_NAV_VCDISPLAY
1070
     3
  0
ENDTAB
  0
TABLE
  2
LTYPE
  5
1414
330
0
100
AcDbSymbolTable
 70
     2
  0
LTYPE
  5
1469
330
1414
100
AcDbSymbolTableRecord
100
AcDbLinetypeTableRecord
  2
ByBlock
 70
     0
  3

 72
    65
 73
     0
 40
0.0
  0
LTYPE
  5
146A
330
1414
100
AcDbSymbolTableRecord
100
AcDbLinetypeTableRecord
  2
ByLayer
 70
     0
  3

 72
    65
 73
     0
 40
0.0
  0
LTYPE
  5
146B
330
1414
100
AcDbSymbolTableRecord
100
AcDbLinetypeTableRecord
  2
CONTINUOUS
 70
     0
  3
実線
 72
    65
 73
     0
 40
0.0
  0
LTYPE
  5
1480
330
1414
100
AcDbSymbolTableRecord
100
AcDbLinetypeTableRecord
  2
DASHDOT
 70
     0
  3
____ _ ____ _ ____ _ ____ _ ____ _ ____ _ ____
 72
    65
 73
     4
 40
5.5
 49
4.0
 74
     0
 49
-0.6
 74
     0
 49
0.3
 74
     0
 49
-0.6
 74
     0
  0
ENDTAB
  0
TABLE
  2
LAYER
  5
1411
330
0
100
AcDbSymbolTable
 70
    12
  0
LAYER
  5
1463
102
{ACAD_XDICTIONARY
360
149E
102
}
330
1411
100
AcDbSymbolTableRecord
100
AcDbLayerTableRecord
  2
0
 70
     0
 62
     7
  6
CONTINUOUS
370
    -3
390
141E
  0
LAYER
  5
147E
102
{ACAD_XDICTIONARY
360
14A0
102
}
330
1411
100
AcDbSymbolTableRecord
100
AcDbLayerTableRecord
  2
SIZE
 70
     0
 62
    30
  6
CONTINUOUS
370
    -3
390
141E
  0
LAYER
  5
1481
102
{ACAD_XDICTIONARY
360
14A2
102
}
330
1411
100
AcDbSymbolTableRecord
100
AcDbLayerTableRecord
  2
OUTLINE
 70
     0
 62
     3
  6
CONTINUOUS
370
    -3
390
141E
  0
LAYER
  5
1482
102
{ACAD_XDICTIONARY
360
14A4
102
}
330
1411
100
AcDbSymbolTableRecord
100
AcDbLayerTableRecord
  2
DETAIL
 70
     0
 62
     5
  6
CONTINUOUS
370
    -3
390
141E
  0
LAYER
  5
1483
102
{ACAD_XDICTIONARY
360
14A6
102
}
330
1411
100
AcDbSymbolTableRecord
100
AcDbLayerTableRecord
  2
BASIS
 70
     0
 62
     6
  6
DASHDOT
370
    -3
390
141E
  0
LAYER
  5
1484
102
{ACAD_XDICTIONARY
360
14A8
102
}
330
1411
100
AcDbSymbolTableRecord
100
AcDbLayerTableRecord
  2
NOTE
 70
     0
 62
     4
  6
CONTINUOUS
370
    -3
390
141E
  0
LAYER
  5
1485
102
{ACAD_XDICTIONARY
360
14AA
102
}
330
1411
100
AcDbSymbolTableRecord
100
AcDbLayerTableRecord
  2
ARRANGE
 70
     0
 62
     1
  6
CONTINUOUS
370
    -3
390
141E
  0
LAYER
  5
1486
102
{ACAD_XDICTIONARY
360
14AC
102
}
330
1411
100
AcDbSymbolTableRecord
100
AcDbLayerTableRecord
  2
FIX
 70
     0
 62
    11
  6
CONTINUOUS
370
    -3
390
141E
  0
LAYER
  5
1487
102
{ACAD_XDICTIONARY
360
14AE
102
}
330
1411
100
AcDbSymbolTableRecord
100
AcDbLayerTableRecord
  2
SERVICESPACE
 70
     0
 62
     2
  6
DASHDOT
370
    -3
390
141E
  0
LAYER
  5
1488
102
{ACAD_XDICTIONARY
360
14B0
102
}
330
1411
100
AcDbSymbolTableRecord
100
AcDbLayerTableRecord
  2
ETC
 70
     0
 62
    61
  6
CONTINUOUS
370
    -3
390
141E
  0
LAYER
  5
1489
102
{ACAD_XDICTIONARY
360
14B2
102
}
330
1411
100
AcDbSymbolTableRecord
100
AcDbLayerTableRecord
  2
SYMBOLLINE
 70
     0
 62
    15
  6
CONTINUOUS
370
    -3
390
141E
  0
LAYER
  5
148A
330
1411
100
AcDbSymbolTableRecord
100
AcDbLayerTableRecord
  2
DEFPOINTS
 70
     0
 62
     7
  6
CONTINUOUS
290
     0
370
    -3
390
141E
  0
ENDTAB
  0
TABLE
  2
STYLE
  5
1412
330
0
100
AcDbSymbolTable
 70
     4
  0
STYLE
  5
1464
330
1412
100
AcDbSymbolTableRecord
100
AcDbTextStyleTableRecord
  2
STANDARD
 70
     0
 40
0.0
 41
0.9
 50
0.0
 71
     0
 42
64.0
  3
SIMPLEX
  4
BIGFONT
  0
STYLE
  5
1468
330
1412
100
AcDbSymbolTableRecord
100
AcDbTextStyleTableRecord
  2
ANNOTATIVE
 70
     0
 40
0.0
 41
1.0
 50
0.0
 71
     0
 42
0.2
  3
txt
  4

1001
ACADANNOTATIVE
1000
AnnotativeData
1002
{
1070
     1
1070
     1
1002
}
  0
STYLE
  5
148B
330
1412
100
AcDbSymbolTableRecord
100
AcDbTextStyleTableRecord
  2
STANDARD1
 70
     0
 40
0.0
 41
1.0
 50
0.0
 71
     0
 42
3.5
  3
MONOTXT
  4
BIGFONT
  0
STYLE
  5
14FE
330
1412
100
AcDbSymbolTableRecord
100
AcDbTextStyleTableRecord
  2
KAIGAI_STANDARD_1
 70
     0
 40
53.0
 41
0.51
 50
0.0
 71
     0
 42
53.0
  3
MONOTXT.shx
  4
BIGFONT.shx
  0
ENDTAB
  0
TABLE
  2
VIEW
  5
1415
330
0
100
AcDbSymbolTable
 70
     1
  0
VIEW
  5
148C
330
1415
100
AcDbSymbolTableRecord
100
AcDbViewTableRecord
  2
ALL
 70
     0
 40
6056.230032000001
 10
0.0
 20
58.11501599999999
 41
8400.0
 11
0.0
 21
0.0
 31
1.0
 12
0.0
 22
0.0
 32
0.0
 42
50.0
 43
0.0
 44
0.0
 50
0.0
 71
     0
281
     0
 72
     1
110
0.0
120
0.0
130
0.0
111
1.0
121
0.0
131
0.0
112
0.0
122
1.0
132
0.0
 79
     0
146
0.0
  0
ENDTAB
  0
TABLE
  2
UCS
  5
1416
330
0
100
AcDbSymbolTable
 70
     0
  0
ENDTAB
  0
TABLE
  2
APPID
  5
1418
330
0
100
AcDbSymbolTable
 70
     5
  0
APPID
  5
1465
330
1418
100
AcDbSymbolTableRecord
100
AcDbRegAppTableRecord
  2
ACAD
 70
     0
  0
APPID
  5
146C
330
1418
100
AcDbSymbolTableRecord
100
AcDbRegAppTableRecord
  2
ACADANNOTATIVE
 70
     0
  0
APPID
  5
148D
330
1418
100
AcDbSymbolTableRecord
100
AcDbRegAppTableRecord
  2
ACAD_MLEADERVER
 70
     0
  0
APPID
  5
148E
330
1418
100
AcDbSymbolTableRecord
100
AcDbRegAppTableRecord
  2
ACAD_EXEMPT_FROM_CAD_STANDARDS
 70
     0
  0
APPID
  5
149D
330
1418
100
AcDbSymbolTableRecord
100
AcDbRegAppTableRecord
  2
ACAD_NAV_VCDISPLAY
 70
     0
  0
ENDTAB
  0
TABLE
  2
DIMSTYLE
  5
1419
330
0
100
AcDbSymbolTable
 70
     2
100
AcDbDimStyleTable
 71
     0
  0
DIMSTYLE
105
1466
330
1419
100
AcDbSymbolTableRecord
100
AcDbDimStyleTableRecord
  2
STANDARD
 70
     0
275
     1
279
     2
284
     8
285
     8
286
     8
340
1464
  0
DIMSTYLE
105
1467
330
1419
100
AcDbSymbolTableRecord
100
AcDbDimStyleTableRecord
  2
ANNOTATIVE
 70
     0
275
     1
279
     2
284
     8
285
     8
286
     8
340
1464
1001
ACADANNOTATIVE
1000
AnnotativeData
1002
{
1070
     1
1070
     1
1002
}
  0
ENDTAB
  0
TABLE
  2
BLOCK_RECORD
  5
1410
330
0
100
AcDbSymbolTable
 70
     5
  0
BLOCK_RECORD
  5
147A
330
1410
100
AcDbSymbolTableRecord
100
AcDbBlockTableRecord
  2
*Model_Space
340
147D
  0
BLOCK_RECORD
  5
1476
330
1410
100
AcDbSymbolTableRecord
100
AcDbBlockTableRecord
  2
*Paper_Space
340
1479
  0
BLOCK_RECORD
  5
1493
330
1410
100
AcDbSymbolTableRecord
100
AcDbBlockTableRecord
  2
$MODEL_SPACE
340
0
  0
BLOCK_RECORD
  5
1495
330
1410
100
AcDbSymbolTableRecord
100
AcDbBlockTableRecord
  2
$PAPER_SPACE
340
0
  0
BLOCK_RECORD
  5
1497
330
1410
100
AcDbSymbolTableRecord
100
AcDbBlockTableRecord
  2
_DOTBLANK
340
0
102
{BLKREFS
331
B9A
331
B9B
102
}
  0
BLOCK_RECORD
  5
1499
330
1410
100
AcDbSymbolTableRecord
100
AcDbBlockTableRecord
  2
*D3
340
0
  0
ENDTAB
  0
ENDSEC
  0
SECTION
  2
BLOCKS
  0
BLOCK
  5
147B
330
147A
100
AcDbEntity
  8
0
100
AcDbBlockBegin
  2
*Model_Space
 70
     0
 10
0.0
 20
0.0
 30
0.0
  3
*Model_Space
  1

  0
ENDBLK
  5
147C
330
147A
100
AcDbEntity
  8
0
100
AcDbBlockEnd
  0
BLOCK
  5
1477
330
1476
100
AcDbEntity
 67
     1
  8
0
100
AcDbBlockBegin
  2
*Paper_Space
 70
     0
 10
0.0
 20
0.0
 30
0.0
  3
*Paper_Space
  1

  0
ENDBLK
  5
1478
330
1476
100
AcDbEntity
 67
     1
  8
0
100
AcDbBlockEnd
  0
BLOCK
  5
1494
330
1493
100
AcDbEntity
  8
0
100
AcDbBlockBegin
  2
$MODEL_SPACE
 70
     0
 10
0.0
 20
0.0
 30
0.0
  3
$MODEL_SPACE
  1

  0
ENDBLK
  5
CD4
330
1493
100
AcDbEntity
  8
0
100
AcDbBlockEnd
  0
BLOCK
  5
1496
330
1495
100
AcDbEntity
  8
0
100
AcDbBlockBegin
  2
$PAPER_SPACE
 70
     0
 10
0.0
 20
0.0
 30
0.0
  3
$PAPER_SPACE
  1

  0
ENDBLK
  5
CD0
330
1495
100
AcDbEntity
  8
0
100
AcDbBlockEnd
  0
BLOCK
  5
1498
330
1497
100
AcDbEntity
  8
0
100
AcDbBlockBegin
  2
_DOTBLANK
 70
     0
 10
0.0
 20
0.0
 30
0.0
  3
_DOTBLANK
  1

  0
CIRCLE
  5
36
330
1497
100
AcDbEntity
  8
0
  6
Continuous
 62
     7
100
AcDbCircle
 10
0.0
 20
0.0
 30
0.0
 40
0.5
  0
LINE
  5
37
330
1497
100
AcDbEntity
  8
0
  6
Continuous
 62
     7
100
AcDbLine
 10
-0.5
 20
0.0
 30
0.0
 11
-1.0
 21
0.0
 31
0.0
  0
ENDBLK
  5
38
330
1497
100
AcDbEntity
  8
0
100
AcDbBlockEnd
  0
BLOCK
  5
149A
330
1499
100
AcDbEntity
  8
0
100
AcDbBlockBegin
  2
*D3
 70
     1
 10
0.0
 20
0.0
 30
0.0
  3
*D3
  1

  0
LINE
  5
B97
330
1499
100
AcDbEntity
  8
0
  6
ByBlock
 62
     0
100
AcDbLine
 10
605.0
 20
242.0
 30
0.0
 11
1129.863732
 21
242.0
 31
0.0
  0
LINE
  5
B98
330
1499
100
AcDbEntity
  8
0
  6
ByBlock
 62
     0
100
AcDbLine
 10
605.0
 20
80.0
 30
0.0
 11
1129.863732
 21
80.0
 31
0.0
  0
LINE
  5
B99
330
1499
100
AcDbEntity
  8
0
  6
ByBlock
 62
     0
100
AcDbLine
 10
1099.863732
 20
232.0
 30
0.0
 11
1099.863732
 21
90.0
 31
0.0
  0
INSERT
  5
B9A
330
1499
100
AcDbEntity
  8
0
  6
ByBlock
 62
     0
100
AcDbBlockReference
  2
_DOTBLANK
 10
1099.863732
 20
242.0
 30
0.0
 41
10.0
 42
10.0
 43
10.0
 50
90.0
  0
INSERT
  5
B9B
330
1499
100
AcDbEntity
  8
0
  6
ByBlock
 62
     0
100
AcDbBlockReference
  2
_DOTBLANK
 10
1099.863732
 20
80.0
 30
0.0
 41
10.0
 42
10.0
 43
10.0
 50
270.0
  0
TEXT
  5
BB1
330
1499
100
AcDbEntity
  8
0
 62
     0
100
AcDbText
 10
939.7739999999997
 20
47.72
 30
0.0
 40
64.0
  1
162
100
AcDbText
  0
POINT
  5
B9D
330
1499
100
AcDbEntity
  8
DEFPOINTS
  6
ByBlock
 62
     0
100
AcDbPoint
 10
585.0
 20
242.0
 30
0.0
  0
POINT
  5
B9E
330
1499
100
AcDbEntity
  8
DEFPOINTS
  6
ByBlock
 62
     0
100
AcDbPoint
 10
585.0
 20
80.0
 30
0.0
  0
POINT
  5
B9F
330
1499
100
AcDbEntity
  8
DEFPOINTS
  6
ByBlock
 62
     0
100
AcDbPoint
 10
1099.863732
 20
80.0
 30
0.0
  0
ENDBLK
  5
BA0
330
1499
100
AcDbEntity
  8
0
100
AcDbBlockEnd
  0
ENDSEC
  0
SECTION
  2
ENTITIES
  0
LINE
  5
39
330
147A
100
AcDbEntity
  8
DETAIL
100
AcDbLine
 10
490.0000239999998
 20
242.0
 30
0.0
 11
490.0000239999998
 21
80.0
 31
0.0
  0
LINE
  5
3A
330
147A
100
AcDbEntity
  8
DETAIL
100
AcDbLine
 10
440.015641
 20
593.9613009999998
 30
0.0
 11
440.015641
 21
80.0
 31
0.0
  0
LINE
  5
3B
330
147A
100
AcDbEntity
  8
DETAIL
100
AcDbLine
 10
-439.815703
 20
593.9613009999998
 30
0.0
 11
-439.815703
 21
80.0
 31
0.0
  0
LINE
  5
3C
330
147A
100
AcDbEntity
  8
DETAIL
100
AcDbLine
 10
445.0140789999998
 20
1650.0
 30
0.0
 11
445.0140789999998
 21
80.0
 31
0.0
  0
LINE
  5
3D
330
147A
100
AcDbEntity
  8
DETAIL
100
AcDbLine
 10
490.0000239999998
 20
1850.0
 30
0.0
 11
490.0000239999998
 21
1650.0
 31
0.0
  0
LINE
  5
3E
330
147A
100
AcDbEntity
  8
DETAIL
100
AcDbLine
 10
-444.8141419999998
 20
1650.0
 30
0.0
 11
-444.8141419999998
 21
80.0
 31
0.0
  0
LINE
  5
3F
330
147A
100
AcDbEntity
  8
DETAIL
100
AcDbLine
 10
481.0
 20
0.0
 30
0.0
 11
-480.6029599999998
 21
0.0
 31
0.0
  0
LINE
  5
40
330
147A
100
AcDbEntity
  8
DETAIL
100
AcDbLine
 10
510.7935279999998
 20
80.0
 30
0.0
 11
-490.0000239999998
 21
80.0
 31
0.0
  0
LINE
  5
41
330
147A
100
AcDbEntity
  8
DETAIL
100
AcDbLine
 10
-481.0
 20
0.0
 30
0.0
 11
-481.0
 21
79.975014
 31
0.0
  0
LINE
  5
42
330
147A
100
AcDbEntity
  8
DETAIL
100
AcDbLine
 10
-485.1015549999998
 20
34.989069
 30
0.0
 11
-485.1015549999998
 21
4.498594999999999
 31
0.0
  0
LINE
  5
43
330
147A
100
AcDbEntity
  8
DETAIL
100
AcDbLine
 10
-485.1015549999998
 20
4.498594999999999
 30
0.0
 11
-521.0
 21
4.498594999999999
 31
0.0
  0
LINE
  5
44
330
147A
100
AcDbEntity
  8
DETAIL
100
AcDbLine
 10
-480.6029599999998
 20
0.0
 30
0.0
 11
-521.0
 21
0.0
 31
0.0
  0
LINE
  5
45
330
147A
100
AcDbEntity
  8
DETAIL
100
AcDbLine
 10
-521.0
 20
4.498594999999999
 30
0.0
 11
-521.0
 21
0.0
 31
0.0
  0
LINE
  5
46
330
147A
100
AcDbEntity
  8
DETAIL
100
AcDbLine
 10
-481.0
 20
34.989069
 30
0.0
 11
-485.1015549999998
 21
34.989069
 31
0.0
  0
LINE
  5
47
330
147A
100
AcDbEntity
  8
DETAIL
100
AcDbLine
 10
-502.806333
 20
48.984696
 30
0.0
 11
-502.806333
 21
10.996564
 31
0.0
  0
LINE
  5
48
330
147A
100
AcDbEntity
  8
DETAIL
100
AcDbLine
 10
-485.1015549999998
 20
10.996564
 30
0.0
 11
-502.806333
 21
10.996564
 31
0.0
  0
LINE
  5
49
330
147A
100
AcDbEntity
  8
DETAIL
100
AcDbLine
 10
-481.0
 20
48.984696
 30
0.0
 11
-502.806333
 21
48.984696
 31
0.0
  0
LINE
  5
4A
330
147A
100
AcDbEntity
  8
DETAIL
100
AcDbLine
 10
-502.806333
 20
43.986258
 30
0.0
 11
-512.8032099999997
 21
43.986258
 31
0.0
  0
LINE
  5
4B
330
147A
100
AcDbEntity
  8
DETAIL
100
AcDbLine
 10
-502.806333
 20
15.995003
 30
0.0
 11
-512.8032099999997
 21
15.995003
 31
0.0
  0
LINE
  5
4C
330
147A
100
AcDbEntity
  8
DETAIL
100
AcDbLine
 10
-512.8032099999997
 20
43.986258
 30
0.0
 11
-512.8032099999997
 21
15.995003
 31
0.0
  0
LINE
  5
4D
330
147A
100
AcDbEntity
  8
DETAIL
100
AcDbLine
 10
-523.000024
 20
37.488288
 30
0.0
 11
-523.000024
 21
22.492973
 31
0.0
  0
LINE
  5
4E
330
147A
100
AcDbEntity
  8
DETAIL
100
AcDbLine
 10
-523.000024
 20
37.488288
 30
0.0
 11
-512.8032099999997
 21
37.488288
 31
0.0
  0
LINE
  5
4F
330
147A
100
AcDbEntity
  8
DETAIL
100
AcDbLine
 10
-523.000024
 20
22.492973
 30
0.0
 11
-512.8032099999997
 21
22.492973
 31
0.0
  0
LINE
  5
50
330
147A
100
AcDbEntity
  8
DETAIL
100
AcDbLine
 10
510.7935279999998
 20
79.975014
 30
0.0
 11
510.7935279999998
 21
4.498594999999999
 31
0.0
  0
LINE
  5
51
330
147A
100
AcDbEntity
  8
DETAIL
100
AcDbLine
 10
481.0
 20
0.0
 30
0.0
 11
481.0
 21
80.0
 31
0.0
  0
LINE
  5
52
330
147A
100
AcDbEntity
  8
DETAIL
100
AcDbLine
 10
480.802898
 20
0.0
 30
0.0
 11
521.0
 21
0.0
 31
0.0
  0
LINE
  5
53
330
147A
100
AcDbEntity
  8
DETAIL
100
AcDbLine
 10
485.3014919999998
 20
4.498594999999999
 30
0.0
 11
521.0
 21
4.498594999999999
 31
0.0
  0
LINE
  5
54
330
147A
100
AcDbEntity
  8
DETAIL
100
AcDbLine
 10
485.3014919999998
 20
10.996564
 30
0.0
 11
502.796027
 21
10.996564
 31
0.0
  0
LINE
  5
55
330
147A
100
AcDbEntity
  8
DETAIL
100
AcDbLine
 10
481.0
 20
48.984696
 30
0.0
 11
502.796027
 21
48.984696
 31
0.0
  0
LINE
  5
56
330
147A
100
AcDbEntity
  8
DETAIL
100
AcDbLine
 10
481.0
 20
34.989069
 30
0.0
 11
485.3014919999998
 21
34.989069
 31
0.0
  0
LINE
  5
57
330
147A
100
AcDbEntity
  8
DETAIL
100
AcDbLine
 10
485.3014919999998
 20
34.989069
 30
0.0
 11
485.3014919999998
 21
4.498594999999999
 31
0.0
  0
LINE
  5
58
330
147A
100
AcDbEntity
  8
DETAIL
100
AcDbLine
 10
521.0
 20
4.498594999999999
 30
0.0
 11
521.0
 21
0.0
 31
0.0
  0
LINE
  5
59
330
147A
100
AcDbEntity
  8
DETAIL
100
AcDbLine
 10
502.796027
 20
48.984696
 30
0.0
 11
502.796027
 21
10.996564
 31
0.0
  0
LINE
  5
5A
330
147A
100
AcDbEntity
  8
DETAIL
100
AcDbLine
 10
585.0
 20
80.0
 30
0.0
 11
490.0000239999998
 21
80.0
 31
0.0
  0
LINE
  5
5B
330
147A
100
AcDbEntity
  8
DETAIL
100
AcDbLine
 10
439.215891
 20
1105.654567
 30
0.0
 11
-438.316172
 21
1105.654567
 31
0.0
  0
LINE
  5
5C
330
147A
100
AcDbEntity
  8
DETAIL
100
AcDbLine
 10
-170.0
 20
594.814166
 30
0.0
 11
-438.316172
 21
594.814166
 31
0.0
  0
LINE
  5
5D
330
147A
100
AcDbEntity
  8
DETAIL
100
AcDbLine
 10
-439.015953
 20
594.7610509999998
 30
0.0
 11
439.215891
 21
594.7610509999998
 31
0.0
  0
LINE
  5
5E
330
147A
100
AcDbEntity
  8
DETAIL
100
AcDbLine
 10
-439.015953
 20
1125.648321
 30
0.0
 11
439.215891
 21
1125.648321
 31
0.0
  0
LINE
  5
5F
330
147A
100
AcDbEntity
  8
DETAIL
100
AcDbLine
 10
-439.015953
 20
1744.682112
 30
0.0
 11
439.215891
 21
1744.682112
 31
0.0
  0
LINE
  5
60
330
147A
100
AcDbEntity
  8
DETAIL
100
AcDbLine
 10
-439.015953
 20
1734.293457999999
 30
0.0
 11
439.215891
 21
1734.293457999999
 31
0.0
  0
LINE
  5
61
330
147A
100
AcDbEntity
  8
DETAIL
100
AcDbLine
 10
-439.015953
 20
1779.279403
 30
0.0
 11
439.215891
 21
1779.279403
 31
0.0
  0
LINE
  5
62
330
147A
100
AcDbEntity
  8
DETAIL
100
AcDbLine
 10
-439.015953
 20
1789.668058
 30
0.0
 11
439.215891
 21
1789.668058
 31
0.0
  0
LINE
  5
63
330
147A
100
AcDbEntity
  8
DETAIL
100
AcDbLine
 10
-211.344886
 20
1016.002677
 30
0.0
 11
-13.406726
 21
1016.002677
 31
0.0
  0
LINE
  5
64
330
147A
100
AcDbEntity
  8
DETAIL
100
AcDbLine
 10
-201.348009
 20
1035.99643
 30
0.0
 11
-23.403603
 21
1035.99643
 31
0.0
  0
LINE
  5
65
330
147A
100
AcDbEntity
  8
DETAIL
100
AcDbLine
 10
-23.403603
 20
1030.140395
 30
0.0
 11
-201.348009
 21
1030.140395
 31
0.0
  0
LINE
  5
66
330
147A
100
AcDbEntity
  8
DETAIL
100
AcDbLine
 10
-211.344886
 20
975.8851700000001
 30
0.0
 11
-13.406726
 21
975.8851700000001
 31
0.0
  0
LINE
  5
67
330
147A
100
AcDbEntity
  8
DETAIL
100
AcDbLine
 10
-201.348009
 20
995.878923
 30
0.0
 11
-23.403603
 21
995.878923
 31
0.0
  0
LINE
  5
68
330
147A
100
AcDbEntity
  8
DETAIL
100
AcDbLine
 10
-23.403603
 20
990.022888
 30
0.0
 11
-201.348009
 21
990.022888
 31
0.0
  0
LINE
  5
69
330
147A
100
AcDbEntity
  8
DETAIL
100
AcDbLine
 10
-211.344886
 20
935.8976629999999
 30
0.0
 11
-13.406726
 21
935.8976629999999
 31
0.0
  0
LINE
  5
6A
330
147A
100
AcDbEntity
  8
DETAIL
100
AcDbLine
 10
-201.348009
 20
955.891416
 30
0.0
 11
-23.403603
 21
955.891416
 31
0.0
  0
LINE
  5
6B
330
147A
100
AcDbEntity
  8
DETAIL
100
AcDbLine
 10
-23.403603
 20
950.035381
 30
0.0
 11
-201.348009
 21
950.035381
 31
0.0
  0
LINE
  5
6C
330
147A
100
AcDbEntity
  8
DETAIL
100
AcDbLine
 10
-211.344886
 20
895.910156
 30
0.0
 11
-13.406726
 21
895.910156
 31
0.0
  0
LINE
  5
6D
330
147A
100
AcDbEntity
  8
DETAIL
100
AcDbLine
 10
-201.348009
 20
915.903909
 30
0.0
 11
-23.403603
 21
915.903909
 31
0.0
  0
LINE
  5
6E
330
147A
100
AcDbEntity
  8
DETAIL
100
AcDbLine
 10
-23.403603
 20
910.0478739999998
 30
0.0
 11
-201.348009
 21
910.0478739999998
 31
0.0
  0
LINE
  5
6F
330
147A
100
AcDbEntity
  8
DETAIL
100
AcDbLine
 10
-211.344886
 20
855.922649
 30
0.0
 11
-13.406726
 21
855.922649
 31
0.0
  0
LINE
  5
70
330
147A
100
AcDbEntity
  8
DETAIL
100
AcDbLine
 10
-201.348009
 20
875.9164019999998
 30
0.0
 11
-23.403603
 21
875.9164019999998
 31
0.0
  0
LINE
  5
71
330
147A
100
AcDbEntity
  8
DETAIL
100
AcDbLine
 10
-23.403603
 20
870.0603670000001
 30
0.0
 11
-201.348009
 21
870.0603670000001
 31
0.0
  0
LINE
  5
72
330
147A
100
AcDbEntity
  8
DETAIL
100
AcDbLine
 10
-211.344886
 20
815.935142
 30
0.0
 11
-13.406726
 21
815.935142
 31
0.0
  0
LINE
  5
73
330
147A
100
AcDbEntity
  8
DETAIL
100
AcDbLine
 10
-201.348009
 20
835.9288949999999
 30
0.0
 11
-23.403603
 21
835.9288949999999
 31
0.0
  0
LINE
  5
74
330
147A
100
AcDbEntity
  8
DETAIL
100
AcDbLine
 10
-23.403603
 20
830.072861
 30
0.0
 11
-201.348009
 21
830.072861
 31
0.0
  0
LINE
  5
75
330
147A
100
AcDbEntity
  8
DETAIL
100
AcDbLine
 10
-211.344886
 20
775.9476349999999
 30
0.0
 11
-13.406726
 21
775.9476349999999
 31
0.0
  0
LINE
  5
76
330
147A
100
AcDbEntity
  8
DETAIL
100
AcDbLine
 10
-201.348009
 20
795.9413879999997
 30
0.0
 11
-23.403603
 21
795.9413879999997
 31
0.0
  0
LINE
  5
77
330
147A
100
AcDbEntity
  8
DETAIL
100
AcDbLine
 10
-23.403603
 20
790.085354
 30
0.0
 11
-201.348009
 21
790.085354
 31
0.0
  0
LINE
  5
78
330
147A
100
AcDbEntity
  8
DETAIL
100
AcDbLine
 10
-211.344886
 20
735.960128
 30
0.0
 11
-13.406726
 21
735.960128
 31
0.0
  0
LINE
  5
79
330
147A
100
AcDbEntity
  8
DETAIL
100
AcDbLine
 10
-201.348009
 20
755.9538809999996
 30
0.0
 11
-23.403603
 21
755.9538809999996
 31
0.0
  0
LINE
  5
7A
330
147A
100
AcDbEntity
  8
DETAIL
100
AcDbLine
 10
-23.403603
 20
750.0978469999998
 30
0.0
 11
-201.348009
 21
750.0978469999998
 31
0.0
  0
LINE
  5
7B
330
147A
100
AcDbEntity
  8
DETAIL
100
AcDbLine
 10
-211.344886
 20
695.972621
 30
0.0
 11
-13.406726
 21
695.972621
 31
0.0
  0
LINE
  5
7C
330
147A
100
AcDbEntity
  8
DETAIL
100
AcDbLine
 10
-201.348009
 20
715.966374
 30
0.0
 11
-23.403603
 21
715.966374
 31
0.0
  0
LINE
  5
7D
330
147A
100
AcDbEntity
  8
DETAIL
100
AcDbLine
 10
-23.403603
 20
710.1103399999998
 30
0.0
 11
-201.348009
 21
710.1103399999998
 31
0.0
  0
LINE
  5
7E
330
147A
100
AcDbEntity
  8
DETAIL
100
AcDbLine
 10
-211.344886
 20
655.9851139999998
 30
0.0
 11
-13.406726
 21
655.9851139999998
 31
0.0
  0
LINE
  5
7F
330
147A
100
AcDbEntity
  8
DETAIL
100
AcDbLine
 10
-201.348009
 20
675.9788679999997
 30
0.0
 11
-23.403603
 21
675.9788679999997
 31
0.0
  0
LINE
  5
80
330
147A
100
AcDbEntity
  8
DETAIL
100
AcDbLine
 10
-23.403603
 20
670.122833
 30
0.0
 11
-201.348009
 21
670.122833
 31
0.0
  0
LINE
  5
81
330
147A
100
AcDbEntity
  8
DETAIL
100
AcDbLine
 10
-211.344886
 20
615.9976069999999
 30
0.0
 11
-13.406726
 21
615.9976069999999
 31
0.0
  0
LINE
  5
82
330
147A
100
AcDbEntity
  8
DETAIL
100
AcDbLine
 10
-201.348009
 20
635.9913609999997
 30
0.0
 11
-23.403603
 21
635.9913609999997
 31
0.0
  0
LINE
  5
83
330
147A
100
AcDbEntity
  8
DETAIL
100
AcDbLine
 10
-23.403603
 20
630.1353259999999
 30
0.0
 11
-201.348009
 21
630.1353259999999
 31
0.0
  0
LINE
  5
84
330
147A
100
AcDbEntity
  8
DETAIL
100
AcDbLine
 10
-440.015641
 20
1656.513708
 30
0.0
 11
439.215891
 21
1656.513708
 31
0.0
  0
LINE
  5
85
330
147A
100
AcDbEntity
  8
DETAIL
100
AcDbLine
 10
-440.015641
 20
1690.503089
 30
0.0
 11
439.215891
 21
1690.503089
 31
0.0
  0
LINE
  5
86
330
147A
100
AcDbEntity
  8
DETAIL
100
AcDbLine
 10
-440.015641
 20
1697.500903
 30
0.0
 11
439.215891
 21
1697.500903
 31
0.0
  0
LINE
  5
87
330
147A
100
AcDbEntity
  8
DETAIL
100
AcDbLine
 10
-440.015641
 20
1826.960457
 30
0.0
 11
439.215891
 21
1826.960457
 31
0.0
  0
LINE
  5
88
330
147A
100
AcDbEntity
  8
DETAIL
100
AcDbLine
 10
-490.0000239999998
 20
1850.0
 30
0.0
 11
490.0000239999998
 21
1850.0
 31
0.0
  0
LINE
  5
89
330
147A
100
AcDbEntity
  8
DETAIL
100
AcDbLine
 10
439.215891
 20
1650.0
 30
0.0
 11
-442.015016
 21
1650.0
 31
0.0
  0
LINE
  5
8A
330
147A
100
AcDbEntity
  8
DETAIL
100
AcDbLine
 10
-439.815703
 20
1650.0
 30
0.0
 11
-439.815703
 21
1126.448071
 31
0.0
  0
LINE
  5
8B
330
147A
100
AcDbEntity
  8
DETAIL
100
AcDbLine
 10
-439.3158589999998
 20
595.813854
 30
0.0
 11
-439.3158589999998
 21
1104.65488
 31
0.0
  0
LINE
  5
8C
330
147A
100
AcDbEntity
  8
DETAIL
100
AcDbLine
 10
-427.02694
 20
825.9320189999996
 30
0.0
 11
-427.02694
 21
815.935142
 31
0.0
  0
LINE
  5
8D
330
147A
100
AcDbEntity
  8
DETAIL
100
AcDbLine
 10
-229.088781
 20
825.9320189999996
 30
0.0
 11
-229.088781
 21
815.935142
 31
0.0
  0
LINE
  5
8E
330
147A
100
AcDbEntity
  8
DETAIL
100
AcDbLine
 10
-211.344886
 20
825.9320189999996
 30
0.0
 11
-211.344886
 21
815.935142
 31
0.0
  0
LINE
  5
8F
330
147A
100
AcDbEntity
  8
DETAIL
100
AcDbLine
 10
-427.02694
 20
815.935142
 30
0.0
 11
-229.088781
 21
815.935142
 31
0.0
  0
LINE
  5
90
330
147A
100
AcDbEntity
  8
DETAIL
100
AcDbLine
 10
-427.02694
 20
775.9476349999999
 30
0.0
 11
-229.088781
 21
775.9476349999999
 31
0.0
  0
LINE
  5
91
330
147A
100
AcDbEntity
  8
DETAIL
100
AcDbLine
 10
-417.0300629999998
 20
795.9413879999997
 30
0.0
 11
-239.085658
 21
795.9413879999997
 31
0.0
  0
LINE
  5
92
330
147A
100
AcDbEntity
  8
DETAIL
100
AcDbLine
 10
-239.085658
 20
790.085354
 30
0.0
 11
-417.0300629999998
 21
790.085354
 31
0.0
  0
LINE
  5
93
330
147A
100
AcDbEntity
  8
DETAIL
100
AcDbLine
 10
-427.02694
 20
735.960128
 30
0.0
 11
-229.088781
 21
735.960128
 31
0.0
  0
LINE
  5
94
330
147A
100
AcDbEntity
  8
DETAIL
100
AcDbLine
 10
-417.0300629999998
 20
755.9538809999996
 30
0.0
 11
-239.085658
 21
755.9538809999996
 31
0.0
  0
LINE
  5
95
330
147A
100
AcDbEntity
  8
DETAIL
100
AcDbLine
 10
-239.085658
 20
750.0978469999998
 30
0.0
 11
-417.0300629999998
 21
750.0978469999998
 31
0.0
  0
LINE
  5
96
330
147A
100
AcDbEntity
  8
DETAIL
100
AcDbLine
 10
-427.02694
 20
695.972621
 30
0.0
 11
-229.088781
 21
695.972621
 31
0.0
  0
LINE
  5
97
330
147A
100
AcDbEntity
  8
DETAIL
100
AcDbLine
 10
-417.0300629999998
 20
715.966374
 30
0.0
 11
-239.085658
 21
715.966374
 31
0.0
  0
LINE
  5
98
330
147A
100
AcDbEntity
  8
DETAIL
100
AcDbLine
 10
-239.085658
 20
710.1103399999998
 30
0.0
 11
-417.0300629999998
 21
710.1103399999998
 31
0.0
  0
LINE
  5
99
330
147A
100
AcDbEntity
  8
DETAIL
100
AcDbLine
 10
-427.02694
 20
655.9851139999998
 30
0.0
 11
-229.088781
 21
655.9851139999998
 31
0.0
  0
LINE
  5
9A
330
147A
100
AcDbEntity
  8
DETAIL
100
AcDbLine
 10
-417.0300629999998
 20
675.9788679999997
 30
0.0
 11
-239.085658
 21
675.9788679999997
 31
0.0
  0
LINE
  5
9B
330
147A
100
AcDbEntity
  8
DETAIL
100
AcDbLine
 10
-239.085658
 20
670.122833
 30
0.0
 11
-417.0300629999998
 21
670.122833
 31
0.0
  0
LINE
  5
9C
330
147A
100
AcDbEntity
  8
DETAIL
100
AcDbLine
 10
-427.02694
 20
615.9976069999999
 30
0.0
 11
-229.088781
 21
615.9976069999999
 31
0.0
  0
LINE
  5
9D
330
147A
100
AcDbEntity
  8
DETAIL
100
AcDbLine
 10
-417.0300629999998
 20
635.9913609999997
 30
0.0
 11
-239.085658
 21
635.9913609999997
 31
0.0
  0
LINE
  5
9E
330
147A
100
AcDbEntity
  8
DETAIL
100
AcDbLine
 10
-239.085658
 20
630.1353259999999
 30
0.0
 11
-417.0300629999998
 21
630.1353259999999
 31
0.0
  0
ARC
  5
9F
330
147A
100
AcDbEntity
  8
DETAIL
100
AcDbCircle
 10
-417.0300629999998
 20
665.981991
 30
0.0
 40
9.996876999999999
100
AcDbArc
 50
90.0
 51
180.0
  0
LINE
  5
A0
330
147A
100
AcDbEntity
  8
DETAIL
100
AcDbLine
 10
-438.316172
 20
595.813854
 30
0.0
 11
-439.3158589999998
 21
595.813854
 31
0.0
  0
LINE
  5
A1
330
147A
100
AcDbEntity
  8
DETAIL
100
AcDbLine
 10
-438.316172
 20
595.813854
 30
0.0
 11
-438.316172
 21
594.814166
 31
0.0
  0
LINE
  5
A2
330
147A
100
AcDbEntity
  8
DETAIL
100
AcDbLine
 10
-439.015953
 20
593.9613009999998
 30
0.0
 11
-439.815703
 21
593.9613009999998
 31
0.0
  0
LINE
  5
A3
330
147A
100
AcDbEntity
  8
DETAIL
100
AcDbLine
 10
-439.015953
 20
594.7610509999998
 30
0.0
 11
-439.015953
 21
593.9613009999998
 31
0.0
  0
LINE
  5
A4
330
147A
100
AcDbEntity
  8
DETAIL
100
AcDbLine
 10
-427.02694
 20
665.981991
 30
0.0
 11
-427.02694
 21
655.9851139999998
 31
0.0
  0
LWPOLYLINE
  5
A5
330
147A
100
AcDbEntity
  8
DETAIL
100
AcDbPolyline
 90
        9
 70
     0
 43
0.0
 10
-417.0300629999998
 20
670.122833
 10
-418.9803569999998
 20
669.9870070000002
 10
-420.8557029999998
 20
669.584748
 10
-422.5840309999998
 20
668.9315149999997
 10
-424.0989230000001
 20
668.052412
 10
-425.342163
 20
666.9812209999999
 10
-426.265973
 20
665.7591089999997
 10
-426.8348529999998
 20
664.433039
 10
-427.02694
 20
663.053973
  0
LINE
  5
B0
330
147A
100
AcDbEntity
  8
DETAIL
100
AcDbLine
 10
-427.02694
 20
625.9944840000001
 30
0.0
 11
-427.02694
 21
615.9976069999999
 31
0.0
  0
ARC
  5
B1
330
147A
100
AcDbEntity
  8
DETAIL
100
AcDbCircle
 10
-417.0300629999998
 20
625.9944840000001
 30
0.0
 40
9.996876999999999
100
AcDbArc
 50
90.0
 51
180.0
  0
LWPOLYLINE
  5
B2
330
147A
100
AcDbEntity
  8
DETAIL
100
AcDbPolyline
 90
        9
 70
     0
 43
0.0
 10
-417.0300629999998
 20
630.1353259999999
 10
-418.9803569999998
 20
629.9995
 10
-420.8557029999998
 20
629.5972410000001
 10
-422.5840309999998
 20
628.9440080000002
 10
-424.0989230000001
 20
628.064905
 10
-425.342163
 20
626.9937139999998
 10
-426.265973
 20
625.7716019999998
 10
-426.8348529999998
 20
624.4455320000001
 10
-427.02694
 20
623.066466
  0
LINE
  5
BD
330
147A
100
AcDbEntity
  8
DETAIL
100
AcDbLine
 10
-427.02694
 20
785.944512
 30
0.0
 11
-427.02694
 21
775.9476349999999
 31
0.0
  0
ARC
  5
BE
330
147A
100
AcDbEntity
  8
DETAIL
100
AcDbCircle
 10
-417.0300629999998
 20
785.944512
 30
0.0
 40
9.996876999999999
100
AcDbArc
 50
90.0
 51
180.0
  0
LWPOLYLINE
  5
BF
330
147A
100
AcDbEntity
  8
DETAIL
100
AcDbPolyline
 90
        9
 70
     0
 43
0.0
 10
-417.0300629999998
 20
790.085354
 10
-418.9803569999998
 20
789.949527
 10
-420.8557029999998
 20
789.547269
 10
-422.5840309999998
 20
788.894036
 10
-424.0989230000001
 20
788.014933
 10
-425.342163
 20
786.943742
 10
-426.265973
 20
785.72163
 10
-426.8348529999998
 20
784.3955599999997
 10
-427.02694
 20
783.0164939999998
  0
LINE
  5
CA
330
147A
100
AcDbEntity
  8
DETAIL
100
AcDbLine
 10
-427.02694
 20
745.9570049999999
 30
0.0
 11
-427.02694
 21
735.960128
 31
0.0
  0
ARC
  5
CB
330
147A
100
AcDbEntity
  8
DETAIL
100
AcDbCircle
 10
-417.0300629999998
 20
745.9570049999999
 30
0.0
 40
9.996876999999999
100
AcDbArc
 50
90.0
 51
180.0
  0
LWPOLYLINE
  5
CC
330
147A
100
AcDbEntity
  8
DETAIL
100
AcDbPolyline
 90
        9
 70
     0
 43
0.0
 10
-417.0300629999998
 20
750.0978469999998
 10
-418.9803569999998
 20
749.96202
 10
-420.8557029999998
 20
749.5597619999998
 10
-422.5840309999998
 20
748.906529
 10
-424.0989230000001
 20
748.0274259999998
 10
-425.342163
 20
746.956235
 10
-426.265973
 20
745.7341229999997
 10
-426.8348529999998
 20
744.4080529999999
 10
-427.02694
 20
743.028987
  0
LINE
  5
D7
330
147A
100
AcDbEntity
  8
DETAIL
100
AcDbLine
 10
-427.02694
 20
705.969498
 30
0.0
 11
-427.02694
 21
695.972621
 31
0.0
  0
ARC
  5
D8
330
147A
100
AcDbEntity
  8
DETAIL
100
AcDbCircle
 10
-417.0300629999998
 20
705.969498
 30
0.0
 40
9.996876999999999
100
AcDbArc
 50
90.0
 51
180.0
  0
LWPOLYLINE
  5
D9
330
147A
100
AcDbEntity
  8
DETAIL
100
AcDbPolyline
 90
        9
 70
     0
 43
0.0
 10
-417.0300629999998
 20
710.1103399999998
 10
-418.9803569999998
 20
709.974514
 10
-420.8557029999998
 20
709.5722549999996
 10
-422.5840309999998
 20
708.9190219999997
 10
-424.0989230000001
 20
708.0399190000001
 10
-425.342163
 20
706.9687280000001
 10
-426.265973
 20
705.746616
 10
-426.8348529999998
 20
704.4205459999998
 10
-427.02694
 20
703.0414799999999
  0
ARC
  5
E4
330
147A
100
AcDbEntity
  8
DETAIL
100
AcDbCircle
 10
-239.085658
 20
665.981991
 30
0.0
 40
9.996876999999999
100
AcDbArc
 50
0.0
 51
90.0
  0
ARC
  5
E5
330
147A
100
AcDbEntity
  8
DETAIL
100
AcDbCircle
 10
-201.348009
 20
665.981991
 30
0.0
 40
9.996876999999999
100
AcDbArc
 50
90.0
 51
180.0
  0
LWPOLYLINE
  5
E6
330
147A
100
AcDbEntity
  8
DETAIL
100
AcDbPolyline
 90
        9
 70
     0
 43
0.0
 10
-201.348009
 20
670.122833
 10
-203.298303
 20
669.9870070000002
 10
-205.173648
 20
669.584748
 10
-206.901976
 20
668.9315149999997
 10
-208.416868
 20
668.052412
 10
-209.660108
 20
666.9812209999999
 10
-210.583919
 20
665.7591089999997
 10
-211.152799
 20
664.433039
 10
-211.344886
 20
663.053973
  0
ARC
  5
F1
330
147A
100
AcDbEntity
  8
DETAIL
100
AcDbCircle
 10
-201.348009
 20
625.9944840000001
 30
0.0
 40
9.996876999999999
100
AcDbArc
 50
90.0
 51
180.0
  0
LWPOLYLINE
  5
F2
330
147A
100
AcDbEntity
  8
DETAIL
100
AcDbPolyline
 90
        9
 70
     0
 43
0.0
 10
-201.348009
 20
630.1353259999999
 10
-203.298303
 20
629.9995
 10
-205.173648
 20
629.5972410000001
 10
-206.901976
 20
628.9440080000002
 10
-208.416868
 20
628.064905
 10
-209.660108
 20
626.9937139999998
 10
-210.583919
 20
625.7716019999998
 10
-211.152799
 20
624.4455320000001
 10
-211.344886
 20
623.066466
  0
LINE
  5
FD
330
147A
100
AcDbEntity
  8
DETAIL
100
AcDbLine
 10
-229.088781
 20
665.981991
 30
0.0
 11
-229.088781
 21
655.9851139999998
 31
0.0
  0
LWPOLYLINE
  5
FE
330
147A
100
AcDbEntity
  8
DETAIL
100
AcDbPolyline
 90
        9
 70
     0
 43
0.0
 10
-229.088781
 20
663.053973
 10
-229.280868
 20
664.433039
 10
-229.849748
 20
665.7591089999997
 10
-230.773558
 20
666.9812209999999
 10
-232.016798
 20
668.052412
 10
-233.53169
 20
668.9315149999997
 10
-235.260018
 20
669.584748
 10
-237.135364
 20
669.9870070000002
 10
-239.085658
 20
670.122833
  0
LINE
  5
109
330
147A
100
AcDbEntity
  8
DETAIL
100
AcDbLine
 10
-229.088781
 20
625.9944840000001
 30
0.0
 11
-229.088781
 21
615.9976069999999
 31
0.0
  0
ARC
  5
10A
330
147A
100
AcDbEntity
  8
DETAIL
100
AcDbCircle
 10
-239.085658
 20
625.9944840000001
 30
0.0
 40
9.996876999999999
100
AcDbArc
 50
0.0
 51
90.0
  0
LWPOLYLINE
  5
10B
330
147A
100
AcDbEntity
  8
DETAIL
100
AcDbPolyline
 90
        9
 70
     0
 43
0.0
 10
-229.088781
 20
623.066466
 10
-229.280868
 20
624.4455320000001
 10
-229.849748
 20
625.7716019999998
 10
-230.773558
 20
626.9937139999998
 10
-232.016798
 20
628.064905
 10
-233.53169
 20
628.9440080000002
 10
-235.260018
 20
629.5972410000001
 10
-237.135364
 20
629.9995
 10
-239.085658
 20
630.1353259999999
  0
LINE
  5
116
330
147A
100
AcDbEntity
  8
DETAIL
100
AcDbLine
 10
-211.344886
 20
665.981991
 30
0.0
 11
-211.344886
 21
655.9851139999998
 31
0.0
  0
LINE
  5
117
330
147A
100
AcDbEntity
  8
DETAIL
100
AcDbLine
 10
-211.344886
 20
625.9944840000001
 30
0.0
 11
-211.344886
 21
615.9976069999999
 31
0.0
  0
ARC
  5
118
330
147A
100
AcDbEntity
  8
DETAIL
100
AcDbCircle
 10
-201.348009
 20
785.944512
 30
0.0
 40
9.996876999999999
100
AcDbArc
 50
90.0
 51
180.0
  0
LWPOLYLINE
  5
119
330
147A
100
AcDbEntity
  8
DETAIL
100
AcDbPolyline
 90
        9
 70
     0
 43
0.0
 10
-201.348009
 20
790.085354
 10
-203.298303
 20
789.949527
 10
-205.173648
 20
789.547269
 10
-206.901976
 20
788.894036
 10
-208.416868
 20
788.014933
 10
-209.660108
 20
786.943742
 10
-210.583919
 20
785.72163
 10
-211.152799
 20
784.3955599999997
 10
-211.344886
 20
783.0164939999998
  0
ARC
  5
124
330
147A
100
AcDbEntity
  8
DETAIL
100
AcDbCircle
 10
-201.348009
 20
745.9570049999999
 30
0.0
 40
9.996876999999999
100
AcDbArc
 50
90.0
 51
180.0
  0
LWPOLYLINE
  5
125
330
147A
100
AcDbEntity
  8
DETAIL
100
AcDbPolyline
 90
        9
 70
     0
 43
0.0
 10
-201.348009
 20
750.0978469999998
 10
-203.298303
 20
749.96202
 10
-205.173648
 20
749.5597619999998
 10
-206.901976
 20
748.906529
 10
-208.416868
 20
748.0274259999998
 10
-209.660108
 20
746.956235
 10
-210.583919
 20
745.7341229999997
 10
-211.152799
 20
744.4080529999999
 10
-211.344886
 20
743.028987
  0
ARC
  5
130
330
147A
100
AcDbEntity
  8
DETAIL
100
AcDbCircle
 10
-201.348009
 20
705.969498
 30
0.0
 40
9.996876999999999
100
AcDbArc
 50
90.0
 51
180.0
  0
LWPOLYLINE
  5
131
330
147A
100
AcDbEntity
  8
DETAIL
100
AcDbPolyline
 90
        9
 70
     0
 43
0.0
 10
-201.348009
 20
710.1103399999998
 10
-203.298303
 20
709.974514
 10
-205.173648
 20
709.5722549999996
 10
-206.901976
 20
708.9190219999997
 10
-208.416868
 20
708.0399190000001
 10
-209.660108
 20
706.9687280000001
 10
-210.583919
 20
705.746616
 10
-211.152799
 20
704.4205459999998
 10
-211.344886
 20
703.0414799999999
  0
LINE
  5
13C
330
147A
100
AcDbEntity
  8
DETAIL
100
AcDbLine
 10
-229.088781
 20
785.944512
 30
0.0
 11
-229.088781
 21
775.9476349999999
 31
0.0
  0
ARC
  5
13D
330
147A
100
AcDbEntity
  8
DETAIL
100
AcDbCircle
 10
-239.085658
 20
785.944512
 30
0.0
 40
9.996876999999999
100
AcDbArc
 50
0.0
 51
90.0
  0
LWPOLYLINE
  5
13E
330
147A
100
AcDbEntity
  8
DETAIL
100
AcDbPolyline
 90
        9
 70
     0
 43
0.0
 10
-229.088781
 20
783.0164939999998
 10
-229.280868
 20
784.3955599999997
 10
-229.849748
 20
785.72163
 10
-230.773558
 20
786.943742
 10
-232.016798
 20
788.014933
 10
-233.53169
 20
788.894036
 10
-235.260018
 20
789.547269
 10
-237.135364
 20
789.949527
 10
-239.085658
 20
790.085354
  0
LINE
  5
149
330
147A
100
AcDbEntity
  8
DETAIL
100
AcDbLine
 10
-229.088781
 20
745.9570049999999
 30
0.0
 11
-229.088781
 21
735.960128
 31
0.0
  0
ARC
  5
14A
330
147A
100
AcDbEntity
  8
DETAIL
100
AcDbCircle
 10
-239.085658
 20
745.9570049999999
 30
0.0
 40
9.996876999999999
100
AcDbArc
 50
0.0
 51
90.0
  0
LWPOLYLINE
  5
14B
330
147A
100
AcDbEntity
  8
DETAIL
100
AcDbPolyline
 90
        9
 70
     0
 43
0.0
 10
-229.088781
 20
743.028987
 10
-229.280868
 20
744.4080529999999
 10
-229.849748
 20
745.7341229999997
 10
-230.773558
 20
746.956235
 10
-232.016798
 20
748.0274259999998
 10
-233.53169
 20
748.906529
 10
-235.260018
 20
749.5597619999998
 10
-237.135364
 20
749.96202
 10
-239.085658
 20
750.0978469999998
  0
LINE
  5
156
330
147A
100
AcDbEntity
  8
DETAIL
100
AcDbLine
 10
-229.088781
 20
705.969498
 30
0.0
 11
-229.088781
 21
695.972621
 31
0.0
  0
ARC
  5
157
330
147A
100
AcDbEntity
  8
DETAIL
100
AcDbCircle
 10
-239.085658
 20
705.969498
 30
0.0
 40
9.996876999999999
100
AcDbArc
 50
0.0
 51
90.0
  0
LWPOLYLINE
  5
158
330
147A
100
AcDbEntity
  8
DETAIL
100
AcDbPolyline
 90
        9
 70
     0
 43
0.0
 10
-229.088781
 20
703.0414799999999
 10
-229.280868
 20
704.4205459999998
 10
-229.849748
 20
705.746616
 10
-230.773558
 20
706.9687280000001
 10
-232.016798
 20
708.0399190000001
 10
-233.53169
 20
708.9190219999997
 10
-235.260018
 20
709.5722549999996
 10
-237.135364
 20
709.974514
 10
-239.085658
 20
710.1103399999998
  0
LINE
  5
163
330
147A
100
AcDbEntity
  8
DETAIL
100
AcDbLine
 10
-211.344886
 20
785.944512
 30
0.0
 11
-211.344886
 21
775.9476349999999
 31
0.0
  0
LINE
  5
164
330
147A
100
AcDbEntity
  8
DETAIL
100
AcDbLine
 10
-211.344886
 20
745.9570049999999
 30
0.0
 11
-211.344886
 21
735.960128
 31
0.0
  0
LINE
  5
165
330
147A
100
AcDbEntity
  8
DETAIL
100
AcDbLine
 10
-211.344886
 20
705.969498
 30
0.0
 11
-211.344886
 21
695.972621
 31
0.0
  0
LINE
  5
166
330
147A
100
AcDbEntity
  8
DETAIL
100
AcDbLine
 10
-423.8207
 20
1125.648321
 30
0.0
 11
-423.8207
 21
1105.654567
 31
0.0
  0
LINE
  5
167
330
147A
100
AcDbEntity
  8
DETAIL
100
AcDbLine
 10
-427.02694
 20
1016.002677
 30
0.0
 11
-229.088781
 21
1016.002677
 31
0.0
  0
LINE
  5
168
330
147A
100
AcDbEntity
  8
DETAIL
100
AcDbLine
 10
-417.0300629999998
 20
1035.99643
 30
0.0
 11
-239.085658
 21
1035.99643
 31
0.0
  0
LINE
  5
169
330
147A
100
AcDbEntity
  8
DETAIL
100
AcDbLine
 10
-239.085658
 20
1030.140395
 30
0.0
 11
-417.0300629999998
 21
1030.140395
 31
0.0
  0
LINE
  5
16A
330
147A
100
AcDbEntity
  8
DETAIL
100
AcDbLine
 10
-427.02694
 20
975.8851700000001
 30
0.0
 11
-229.088781
 21
975.8851700000001
 31
0.0
  0
LINE
  5
16B
330
147A
100
AcDbEntity
  8
DETAIL
100
AcDbLine
 10
-417.0300629999998
 20
995.878923
 30
0.0
 11
-239.085658
 21
995.878923
 31
0.0
  0
LINE
  5
16C
330
147A
100
AcDbEntity
  8
DETAIL
100
AcDbLine
 10
-239.085658
 20
990.022888
 30
0.0
 11
-417.0300629999998
 21
990.022888
 31
0.0
  0
LINE
  5
16D
330
147A
100
AcDbEntity
  8
DETAIL
100
AcDbLine
 10
-427.02694
 20
935.8976629999999
 30
0.0
 11
-229.088781
 21
935.8976629999999
 31
0.0
  0
LINE
  5
16E
330
147A
100
AcDbEntity
  8
DETAIL
100
AcDbLine
 10
-417.0300629999998
 20
955.891416
 30
0.0
 11
-239.085658
 21
955.891416
 31
0.0
  0
LINE
  5
16F
330
147A
100
AcDbEntity
  8
DETAIL
100
AcDbLine
 10
-239.085658
 20
950.035381
 30
0.0
 11
-417.0300629999998
 21
950.035381
 31
0.0
  0
LINE
  5
170
330
147A
100
AcDbEntity
  8
DETAIL
100
AcDbLine
 10
-427.02694
 20
895.910156
 30
0.0
 11
-229.088781
 21
895.910156
 31
0.0
  0
LINE
  5
171
330
147A
100
AcDbEntity
  8
DETAIL
100
AcDbLine
 10
-417.0300629999998
 20
915.903909
 30
0.0
 11
-239.085658
 21
915.903909
 31
0.0
  0
LINE
  5
172
330
147A
100
AcDbEntity
  8
DETAIL
100
AcDbLine
 10
-239.085658
 20
910.0478739999998
 30
0.0
 11
-417.0300629999998
 21
910.0478739999998
 31
0.0
  0
LINE
  5
173
330
147A
100
AcDbEntity
  8
DETAIL
100
AcDbLine
 10
-427.02694
 20
855.922649
 30
0.0
 11
-229.088781
 21
855.922649
 31
0.0
  0
LINE
  5
174
330
147A
100
AcDbEntity
  8
DETAIL
100
AcDbLine
 10
-417.0300629999998
 20
875.9164019999998
 30
0.0
 11
-239.085658
 21
875.9164019999998
 31
0.0
  0
LINE
  5
175
330
147A
100
AcDbEntity
  8
DETAIL
100
AcDbLine
 10
-239.085658
 20
870.0603670000001
 30
0.0
 11
-417.0300629999998
 21
870.0603670000001
 31
0.0
  0
LINE
  5
176
330
147A
100
AcDbEntity
  8
DETAIL
100
AcDbLine
 10
-417.0300629999998
 20
835.9288949999999
 30
0.0
 11
-239.085658
 21
835.9288949999999
 31
0.0
  0
LINE
  5
177
330
147A
100
AcDbEntity
  8
DETAIL
100
AcDbLine
 10
-239.085658
 20
830.072861
 30
0.0
 11
-417.0300629999998
 21
830.072861
 31
0.0
  0
LINE
  5
178
330
147A
100
AcDbEntity
  8
DETAIL
100
AcDbLine
 10
-427.02694
 20
945.894539
 30
0.0
 11
-427.02694
 21
935.8976629999999
 31
0.0
  0
ARC
  5
179
330
147A
100
AcDbEntity
  8
DETAIL
100
AcDbCircle
 10
-417.0300629999998
 20
945.894539
 30
0.0
 40
9.996876999999999
100
AcDbArc
 50
90.0
 51
180.0
  0
LWPOLYLINE
  5
17A
330
147A
100
AcDbEntity
  8
DETAIL
100
AcDbPolyline
 90
        9
 70
     0
 43
0.0
 10
-417.0300629999998
 20
950.035381
 10
-418.9803569999998
 20
949.8995550000001
 10
-420.8557029999998
 20
949.497297
 10
-422.5840309999998
 20
948.844064
 10
-424.0989230000001
 20
947.96496
 10
-425.342163
 20
946.8937699999999
 10
-426.265973
 20
945.6716569999999
 10
-426.8348529999998
 20
944.3455880000001
 10
-427.02694
 20
942.966522
  0
LINE
  5
185
330
147A
100
AcDbEntity
  8
DETAIL
100
AcDbLine
 10
-427.02694
 20
905.9070329999999
 30
0.0
 11
-427.02694
 21
895.910156
 31
0.0
  0
ARC
  5
186
330
147A
100
AcDbEntity
  8
DETAIL
100
AcDbCircle
 10
-417.0300629999998
 20
905.9070329999999
 30
0.0
 40
9.996876999999999
100
AcDbArc
 50
90.0
 51
180.0
  0
LWPOLYLINE
  5
187
330
147A
100
AcDbEntity
  8
DETAIL
100
AcDbPolyline
 90
        9
 70
     0
 43
0.0
 10
-417.0300629999998
 20
910.0478739999998
 10
-418.9803569999998
 20
909.9120479999999
 10
-420.8557029999998
 20
909.5097899999997
 10
-422.5840309999998
 20
908.856557
 10
-424.0989230000001
 20
907.9774529999998
 10
-425.342163
 20
906.9062629999999
 10
-426.265973
 20
905.68415
 10
-426.8348529999998
 20
904.3580809999999
 10
-427.02694
 20
902.979015
  0
LINE
  5
192
330
147A
100
AcDbEntity
  8
DETAIL
100
AcDbLine
 10
-427.02694
 20
865.919526
 30
0.0
 11
-427.02694
 21
855.922649
 31
0.0
  0
ARC
  5
193
330
147A
100
AcDbEntity
  8
DETAIL
100
AcDbCircle
 10
-417.0300629999998
 20
865.919526
 30
0.0
 40
9.996876999999999
100
AcDbArc
 50
90.0
 51
180.0
  0
LWPOLYLINE
  5
194
330
147A
100
AcDbEntity
  8
DETAIL
100
AcDbPolyline
 90
        9
 70
     0
 43
0.0
 10
-417.0300629999998
 20
870.0603670000001
 10
-418.9803569999998
 20
869.9245409999999
 10
-420.8557029999998
 20
869.522283
 10
-422.5840309999998
 20
868.8690499999999
 10
-424.0989230000001
 20
867.989947
 10
-425.342163
 20
866.9187560000001
 10
-426.265973
 20
865.6966439999999
 10
-426.8348529999998
 20
864.3705739999997
 10
-427.02694
 20
862.9915079999998
  0
ARC
  5
19F
330
147A
100
AcDbEntity
  8
DETAIL
100
AcDbCircle
 10
-417.0300629999998
 20
825.9320189999996
 30
0.0
 40
9.996876999999999
100
AcDbArc
 50
90.0
 51
180.0
  0
LWPOLYLINE
  5
1A0
330
147A
100
AcDbEntity
  8
DETAIL
100
AcDbPolyline
 90
        9
 70
     0
 43
0.0
 10
-417.0300629999998
 20
830.072861
 10
-418.9803569999998
 20
829.9370340000001
 10
-420.8557029999998
 20
829.5347759999996
 10
-422.5840309999998
 20
828.8815429999997
 10
-424.0989230000001
 20
828.00244
 10
-425.342163
 20
826.931249
 10
-426.265973
 20
825.7091370000001
 10
-426.8348529999998
 20
824.3830669999999
 10
-427.02694
 20
823.0040009999999
  0
LINE
  5
1AB
330
147A
100
AcDbEntity
  8
DETAIL
100
AcDbLine
 10
-438.316172
 20
1104.65488
 30
0.0
 11
-438.316172
 21
1105.654567
 31
0.0
  0
LINE
  5
1AC
330
147A
100
AcDbEntity
  8
DETAIL
100
AcDbLine
 10
-438.316172
 20
1104.65488
 30
0.0
 11
-439.3158589999998
 21
1104.65488
 31
0.0
  0
LINE
  5
1AD
330
147A
100
AcDbEntity
  8
DETAIL
100
AcDbLine
 10
-427.02694
 20
1025.999553
 30
0.0
 11
-427.02694
 21
1016.002677
 31
0.0
  0
ARC
  5
1AE
330
147A
100
AcDbEntity
  8
DETAIL
100
AcDbCircle
 10
-417.0300629999998
 20
1025.999553
 30
0.0
 40
9.996876999999999
100
AcDbArc
 50
90.0
 51
180.0
  0
LWPOLYLINE
  5
1AF
330
147A
100
AcDbEntity
  8
DETAIL
100
AcDbPolyline
 90
        9
 70
     0
 43
0.0
 10
-417.0300629999998
 20
1030.140395
 10
-418.9803569999998
 20
1030.004569
 10
-420.8557029999998
 20
1029.60231
 10
-422.5840309999998
 20
1028.949078
 10
-424.0989230000001
 20
1028.069974
 10
-425.342163
 20
1026.998784
 10
-426.265973
 20
1025.776671
 10
-426.8348529999998
 20
1024.450602
 10
-427.02694
 20
1023.071536
  0
LINE
  5
1BA
330
147A
100
AcDbEntity
  8
DETAIL
100
AcDbLine
 10
-427.02694
 20
985.882046
 30
0.0
 11
-427.02694
 21
975.8851700000001
 31
0.0
  0
ARC
  5
1BB
330
147A
100
AcDbEntity
  8
DETAIL
100
AcDbCircle
 10
-417.0300629999998
 20
985.882046
 30
0.0
 40
9.996876999999999
100
AcDbArc
 50
90.0
 51
180.0
  0
LWPOLYLINE
  5
1BC
330
147A
100
AcDbEntity
  8
DETAIL
100
AcDbPolyline
 90
        9
 70
     0
 43
0.0
 10
-417.0300629999998
 20
990.022888
 10
-418.9803569999998
 20
989.8870619999996
 10
-420.8557029999998
 20
989.484803
 10
-422.5840309999998
 20
988.831571
 10
-424.0989230000001
 20
987.952467
 10
-425.342163
 20
986.8812769999999
 10
-426.265973
 20
985.6591640000001
 10
-426.8348529999998
 20
984.333095
 10
-427.02694
 20
982.9540289999997
  0
ARC
  5
1C7
330
147A
100
AcDbEntity
  8
DETAIL
100
AcDbCircle
 10
-201.348009
 20
945.894539
 30
0.0
 40
9.996876999999999
100
AcDbArc
 50
90.0
 51
180.0
  0
LWPOLYLINE
  5
1C8
330
147A
100
AcDbEntity
  8
DETAIL
100
AcDbPolyline
 90
        9
 70
     0
 43
0.0
 10
-201.348009
 20
950.035381
 10
-203.298303
 20
949.8995550000001
 10
-205.173648
 20
949.497297
 10
-206.901976
 20
948.844064
 10
-208.416868
 20
947.96496
 10
-209.660108
 20
946.8937699999999
 10
-210.583919
 20
945.6716569999999
 10
-211.152799
 20
944.3455880000001
 10
-211.344886
 20
942.966522
  0
ARC
  5
1D3
330
147A
100
AcDbEntity
  8
DETAIL
100
AcDbCircle
 10
-201.348009
 20
905.9070329999999
 30
0.0
 40
9.996876999999999
100
AcDbArc
 50
90.0
 51
180.0
  0
LWPOLYLINE
  5
1D4
330
147A
100
AcDbEntity
  8
DETAIL
100
AcDbPolyline
 90
        9
 70
     0
 43
0.0
 10
-201.348009
 20
910.0478739999998
 10
-203.298303
 20
909.9120479999999
 10
-205.173648
 20
909.5097899999997
 10
-206.901976
 20
908.856557
 10
-208.416868
 20
907.9774529999998
 10
-209.660108
 20
906.9062629999999
 10
-210.583919
 20
905.68415
 10
-211.152799
 20
904.3580809999999
 10
-211.344886
 20
902.979015
  0
ARC
  5
1DF
330
147A
100
AcDbEntity
  8
DETAIL
100
AcDbCircle
 10
-201.348009
 20
865.919526
 30
0.0
 40
9.996876999999999
100
AcDbArc
 50
90.0
 51
180.0
  0
LWPOLYLINE
  5
1E0
330
147A
100
AcDbEntity
  8
DETAIL
100
AcDbPolyline
 90
        9
 70
     0
 43
0.0
 10
-201.348009
 20
870.0603670000001
 10
-203.298303
 20
869.9245409999999
 10
-205.173648
 20
869.522283
 10
-206.901976
 20
868.8690499999999
 10
-208.416868
 20
867.989947
 10
-209.660108
 20
866.9187560000001
 10
-210.583919
 20
865.6966439999999
 10
-211.152799
 20
864.3705739999997
 10
-211.344886
 20
862.9915079999998
  0
ARC
  5
1EB
330
147A
100
AcDbEntity
  8
DETAIL
100
AcDbCircle
 10
-201.348009
 20
825.9320189999996
 30
0.0
 40
9.996876999999999
100
AcDbArc
 50
90.0
 51
180.0
  0
LWPOLYLINE
  5
1EC
330
147A
100
AcDbEntity
  8
DETAIL
100
AcDbPolyline
 90
        9
 70
     0
 43
0.0
 10
-201.348009
 20
830.072861
 10
-203.298303
 20
829.9370340000001
 10
-205.173648
 20
829.5347759999996
 10
-206.901976
 20
828.8815429999997
 10
-208.416868
 20
828.00244
 10
-209.660108
 20
826.931249
 10
-210.583919
 20
825.7091370000001
 10
-211.152799
 20
824.3830669999999
 10
-211.344886
 20
823.0040009999999
  0
LINE
  5
1F7
330
147A
100
AcDbEntity
  8
DETAIL
100
AcDbLine
 10
-229.088781
 20
945.894539
 30
0.0
 11
-229.088781
 21
935.8976629999999
 31
0.0
  0
ARC
  5
1F8
330
147A
100
AcDbEntity
  8
DETAIL
100
AcDbCircle
 10
-239.085658
 20
945.894539
 30
0.0
 40
9.996876999999999
100
AcDbArc
 50
0.0
 51
90.0
  0
LWPOLYLINE
  5
1F9
330
147A
100
AcDbEntity
  8
DETAIL
100
AcDbPolyline
 90
        9
 70
     0
 43
0.0
 10
-229.088781
 20
942.966522
 10
-229.280868
 20
944.3455880000001
 10
-229.849748
 20
945.6716569999999
 10
-230.773558
 20
946.8937699999999
 10
-232.016798
 20
947.96496
 10
-233.53169
 20
948.844064
 10
-235.260018
 20
949.497297
 10
-237.135364
 20
949.8995550000001
 10
-239.085658
 20
950.035381
  0
LINE
  5
204
330
147A
100
AcDbEntity
  8
DETAIL
100
AcDbLine
 10
-229.088781
 20
905.9070329999999
 30
0.0
 11
-229.088781
 21
895.910156
 31
0.0
  0
ARC
  5
205
330
147A
100
AcDbEntity
  8
DETAIL
100
AcDbCircle
 10
-239.085658
 20
905.9070329999999
 30
0.0
 40
9.996876999999999
100
AcDbArc
 50
0.0
 51
90.0
  0
LWPOLYLINE
  5
206
330
147A
100
AcDbEntity
  8
DETAIL
100
AcDbPolyline
 90
        9
 70
     0
 43
0.0
 10
-229.088781
 20
902.979015
 10
-229.280868
 20
904.3580809999999
 10
-229.849748
 20
905.68415
 10
-230.773558
 20
906.9062629999999
 10
-232.016798
 20
907.9774529999998
 10
-233.53169
 20
908.856557
 10
-235.260018
 20
909.5097899999997
 10
-237.135364
 20
909.9120479999999
 10
-239.085658
 20
910.0478739999998
  0
LINE
  5
211
330
147A
100
AcDbEntity
  8
DETAIL
100
AcDbLine
 10
-229.088781
 20
865.919526
 30
0.0
 11
-229.088781
 21
855.922649
 31
0.0
  0
ARC
  5
212
330
147A
100
AcDbEntity
  8
DETAIL
100
AcDbCircle
 10
-239.085658
 20
865.919526
 30
0.0
 40
9.996876999999999
100
AcDbArc
 50
0.0
 51
90.0
  0
LWPOLYLINE
  5
213
330
147A
100
AcDbEntity
  8
DETAIL
100
AcDbPolyline
 90
        9
 70
     0
 43
0.0
 10
-229.088781
 20
862.9915079999998
 10
-229.280868
 20
864.3705739999997
 10
-229.849748
 20
865.6966439999999
 10
-230.773558
 20
866.9187560000001
 10
-232.016798
 20
867.989947
 10
-233.53169
 20
868.8690499999999
 10
-235.260018
 20
869.522283
 10
-237.135364
 20
869.9245409999999
 10
-239.085658
 20
870.0603670000001
  0
ARC
  5
21E
330
147A
100
AcDbEntity
  8
DETAIL
100
AcDbCircle
 10
-239.085658
 20
825.9320189999996
 30
0.0
 40
9.996876999999999
100
AcDbArc
 50
0.0
 51
90.0
  0
LWPOLYLINE
  5
21F
330
147A
100
AcDbEntity
  8
DETAIL
100
AcDbPolyline
 90
        9
 70
     0
 43
0.0
 10
-229.088781
 20
823.0040009999999
 10
-229.280868
 20
824.3830669999999
 10
-229.849748
 20
825.7091370000001
 10
-230.773558
 20
826.931249
 10
-232.016798
 20
828.00244
 10
-233.53169
 20
828.8815429999997
 10
-235.260018
 20
829.5347759999996
 10
-237.135364
 20
829.9370340000001
 10
-239.085658
 20
830.072861
  0
LINE
  5
22A
330
147A
100
AcDbEntity
  8
DETAIL
100
AcDbLine
 10
-211.344886
 20
945.894539
 30
0.0
 11
-211.344886
 21
935.8976629999999
 31
0.0
  0
LINE
  5
22B
330
147A
100
AcDbEntity
  8
DETAIL
100
AcDbLine
 10
-211.344886
 20
905.9070329999999
 30
0.0
 11
-211.344886
 21
895.910156
 31
0.0
  0
LINE
  5
22C
330
147A
100
AcDbEntity
  8
DETAIL
100
AcDbLine
 10
-211.344886
 20
865.919526
 30
0.0
 11
-211.344886
 21
855.922649
 31
0.0
  0
ARC
  5
22D
330
147A
100
AcDbEntity
  8
DETAIL
100
AcDbCircle
 10
-201.348009
 20
1025.999553
 30
0.0
 40
9.996876999999999
100
AcDbArc
 50
90.0
 51
180.0
  0
LWPOLYLINE
  5
22E
330
147A
100
AcDbEntity
  8
DETAIL
100
AcDbPolyline
 90
        9
 70
     0
 43
0.0
 10
-201.348009
 20
1030.140395
 10
-203.298303
 20
1030.004569
 10
-205.173648
 20
1029.60231
 10
-206.901976
 20
1028.949078
 10
-208.416868
 20
1028.069974
 10
-209.660108
 20
1026.998784
 10
-210.583919
 20
1025.776671
 10
-211.152799
 20
1024.450602
 10
-211.344886
 20
1023.071536
  0
ARC
  5
239
330
147A
100
AcDbEntity
  8
DETAIL
100
AcDbCircle
 10
-201.348009
 20
985.882046
 30
0.0
 40
9.996876999999999
100
AcDbArc
 50
90.0
 51
180.0
  0
LWPOLYLINE
  5
23A
330
147A
100
AcDbEntity
  8
DETAIL
100
AcDbPolyline
 90
        9
 70
     0
 43
0.0
 10
-201.348009
 20
990.022888
 10
-203.298303
 20
989.8870619999996
 10
-205.173648
 20
989.484803
 10
-206.901976
 20
988.831571
 10
-208.416868
 20
987.952467
 10
-209.660108
 20
986.8812769999999
 10
-210.583919
 20
985.6591640000001
 10
-211.152799
 20
984.333095
 10
-211.344886
 20
982.9540289999997
  0
LINE
  5
245
330
147A
100
AcDbEntity
  8
DETAIL
100
AcDbLine
 10
-229.088781
 20
1025.999553
 30
0.0
 11
-229.088781
 21
1016.002677
 31
0.0
  0
ARC
  5
246
330
147A
100
AcDbEntity
  8
DETAIL
100
AcDbCircle
 10
-239.085658
 20
1025.999553
 30
0.0
 40
9.996876999999999
100
AcDbArc
 50
0.0
 51
90.0
  0
LWPOLYLINE
  5
247
330
147A
100
AcDbEntity
  8
DETAIL
100
AcDbPolyline
 90
        9
 70
     0
 43
0.0
 10
-229.088781
 20
1023.071536
 10
-229.280868
 20
1024.450602
 10
-229.849748
 20
1025.776671
 10
-230.773558
 20
1026.998784
 10
-232.016798
 20
1028.069974
 10
-233.53169
 20
1028.949078
 10
-235.260018
 20
1029.60231
 10
-237.135364
 20
1030.004569
 10
-239.085658
 20
1030.140395
  0
LINE
  5
252
330
147A
100
AcDbEntity
  8
DETAIL
100
AcDbLine
 10
-229.088781
 20
985.882046
 30
0.0
 11
-229.088781
 21
975.8851700000001
 31
0.0
  0
ARC
  5
253
330
147A
100
AcDbEntity
  8
DETAIL
100
AcDbCircle
 10
-239.085658
 20
985.882046
 30
0.0
 40
9.996876999999999
100
AcDbArc
 50
0.0
 51
90.0
  0
LWPOLYLINE
  5
254
330
147A
100
AcDbEntity
  8
DETAIL
100
AcDbPolyline
 90
        9
 70
     0
 43
0.0
 10
-229.088781
 20
982.9540289999997
 10
-229.280868
 20
984.333095
 10
-229.849748
 20
985.6591640000001
 10
-230.773558
 20
986.8812769999999
 10
-232.016798
 20
987.952467
 10
-233.53169
 20
988.831571
 10
-235.260018
 20
989.484803
 10
-237.135364
 20
989.8870619999996
 10
-239.085658
 20
990.022888
  0
LINE
  5
25F
330
147A
100
AcDbEntity
  8
DETAIL
100
AcDbLine
 10
-211.344886
 20
1025.999553
 30
0.0
 11
-211.344886
 21
1016.002677
 31
0.0
  0
LINE
  5
260
330
147A
100
AcDbEntity
  8
DETAIL
100
AcDbLine
 10
-211.344886
 20
985.882046
 30
0.0
 11
-211.344886
 21
975.8851700000001
 31
0.0
  0
LINE
  5
261
330
147A
100
AcDbEntity
  8
DETAIL
100
AcDbLine
 10
-439.015953
 20
1126.448071
 30
0.0
 11
-439.815703
 21
1126.448071
 31
0.0
  0
LINE
  5
262
330
147A
100
AcDbEntity
  8
DETAIL
100
AcDbLine
 10
-439.015953
 20
1126.448071
 30
0.0
 11
-439.015953
 21
1125.648321
 31
0.0
  0
LINE
  5
263
330
147A
100
AcDbEntity
  8
DETAIL
100
AcDbLine
 10
-440.015641
 20
1829.95952
 30
0.0
 11
-440.015641
 21
1826.960457
 31
0.0
  0
LINE
  5
264
330
147A
100
AcDbEntity
  8
DETAIL
100
AcDbLine
 10
-441.015328
 20
1650.515582
 30
0.0
 11
-441.015328
 21
1828.459988
 31
0.0
  0
LINE
  5
265
330
147A
100
AcDbEntity
  8
DETAIL
100
AcDbLine
 10
-490.0000239999998
 20
80.0
 30
0.0
 11
-490.0000239999998
 21
1650.0
 31
0.0
  0
LINE
  5
266
330
147A
100
AcDbEntity
  8
DETAIL
100
AcDbLine
 10
-441.015328
 20
1724.49247
 30
0.0
 11
-441.015328
 21
1652.514958
 31
0.0
  0
LINE
  5
267
330
147A
100
AcDbEntity
  8
DETAIL
100
AcDbLine
 10
-440.015641
 20
1727.259555
 30
0.0
 11
-440.015641
 21
1652.514958
 31
0.0
  0
LINE
  5
268
330
147A
100
AcDbEntity
  8
DETAIL
100
AcDbLine
 10
-446.513611
 20
1655.014177
 30
0.0
 11
-446.513611
 21
1823.961394
 31
0.0
  0
LINE
  5
269
330
147A
100
AcDbEntity
  8
DETAIL
100
AcDbLine
 10
-473.005334
 20
1655.014177
 30
0.0
 11
-473.005334
 21
1690.503089
 31
0.0
  0
LINE
  5
26A
330
147A
100
AcDbEntity
  8
DETAIL
100
AcDbLine
 10
-440.015641
 20
1650.0
 30
0.0
 11
-440.015641
 21
1656.513708
 31
0.0
  0
LINE
  5
26B
330
147A
100
AcDbEntity
  8
DETAIL
100
AcDbLine
 10
-490.0000239999998
 20
1650.0
 30
0.0
 11
-442.015016
 21
1650.0
 31
0.0
  0
ARC
  5
26C
330
147A
100
AcDbEntity
  8
DETAIL
100
AcDbCircle
 10
-442.015016
 20
1653.998751
 30
0.0
 40
0.9996879999999999
100
AcDbArc
 50
0.0
 51
90.0
  0
ARC
  5
26D
330
147A
100
AcDbEntity
  8
DETAIL
100
AcDbCircle
 10
-489.000337
 20
1653.998751
 30
0.0
 40
0.9996879999999999
100
AcDbArc
 50
90.0
 51
180.0
  0
ARC
  5
26E
330
147A
100
AcDbEntity
  8
DETAIL
100
AcDbCircle
 10
-442.015016
 20
1650.999688
 30
0.0
 40
0.9996879999999999
100
AcDbArc
 50
270.0
 51
0.0
  0
LINE
  5
26F
330
147A
100
AcDbEntity
  8
DETAIL
100
AcDbLine
 10
-489.000337
 20
1654.998438
 30
0.0
 11
-442.015016
 21
1654.998438
 31
0.0
  0
ARC
  5
270
330
147A
100
AcDbEntity
  8
DETAIL
100
AcDbCircle
 10
-473.505178
 20
1655.498282
 30
0.0
 40
0.499844
100
AcDbArc
 50
270.0
 51
0.0
  0
ARC
  5
271
330
147A
100
AcDbEntity
  8
DETAIL
100
AcDbCircle
 10
-447.013454
 20
1655.498282
 30
0.0
 40
0.499844
100
AcDbArc
 50
270.0
 51
0.0
  0
ARC
  5
272
330
147A
100
AcDbEntity
  8
DETAIL
100
AcDbCircle
 10
-441.015328
 20
1728.991065
 30
0.0
 40
1.999374999999997
100
AcDbArc
 50
270.0
 51
0.0
  0
ARC
  5
273
330
147A
100
AcDbEntity
  8
DETAIL
100
AcDbCircle
 10
-441.015328
 20
1749.984506
 30
0.0
 40
1.999374999999997
100
AcDbArc
 50
0.0
 51
90.0
  0
ARC
  5
274
330
147A
100
AcDbEntity
  8
DETAIL
100
AcDbCircle
 10
-441.015328
 20
1773.97701
 30
0.0
 40
1.999374999999997
100
AcDbArc
 50
270.0
 51
0.0
  0
ARC
  5
275
330
147A
100
AcDbEntity
  8
DETAIL
100
AcDbCircle
 10
-441.015328
 20
1794.970451
 30
0.0
 40
1.999374999999997
100
AcDbArc
 50
0.0
 51
90.0
  0
LINE
  5
276
330
147A
100
AcDbEntity
  8
DETAIL
100
AcDbLine
 10
-439.015953
 20
1773.97701
 30
0.0
 11
-439.015953
 21
1794.970451
 31
0.0
  0
LINE
  5
277
330
147A
100
AcDbEntity
  8
DETAIL
100
AcDbLine
 10
-439.015953
 20
1728.991065
 30
0.0
 11
-439.015953
 21
1749.984506
 31
0.0
  0
LINE
  5
278
330
147A
100
AcDbEntity
  8
DETAIL
100
AcDbLine
 10
-439.015953
 20
1736.488722
 30
0.0
 11
-436.0168899999998
 21
1736.488722
 31
0.0
  0
LINE
  5
279
330
147A
100
AcDbEntity
  8
DETAIL
100
AcDbLine
 10
-439.015953
 20
1742.486848
 30
0.0
 11
-436.0168899999998
 21
1742.486848
 31
0.0
  0
LINE
  5
27A
330
147A
100
AcDbEntity
  8
DETAIL
100
AcDbLine
 10
-436.0168899999998
 20
1734.293457999999
 30
0.0
 11
-436.0168899999998
 21
1744.682112
 31
0.0
  0
LINE
  5
27B
330
147A
100
AcDbEntity
  8
DETAIL
100
AcDbLine
 10
-439.015953
 20
1781.474667
 30
0.0
 11
-436.0168899999998
 21
1781.474667
 31
0.0
  0
LINE
  5
27C
330
147A
100
AcDbEntity
  8
DETAIL
100
AcDbLine
 10
-439.015953
 20
1787.472793
 30
0.0
 11
-436.0168899999998
 21
1787.472793
 31
0.0
  0
LINE
  5
27D
330
147A
100
AcDbEntity
  8
DETAIL
100
AcDbLine
 10
-436.0168899999998
 20
1779.279403
 30
0.0
 11
-436.0168899999998
 21
1789.668058
 31
0.0
  0
LINE
  5
27E
330
147A
100
AcDbEntity
  8
DETAIL
100
AcDbLine
 10
-440.015641
 20
1690.503089
 30
0.0
 11
-440.015641
 21
1697.500903
 31
0.0
  0
LINE
  5
27F
330
147A
100
AcDbEntity
  8
DETAIL
100
AcDbLine
 10
-440.015641
 20
1724.49247
 30
0.0
 11
-441.015328
 21
1724.49247
 31
0.0
  0
ARC
  5
280
330
147A
100
AcDbEntity
  8
DETAIL
100
AcDbCircle
 10
-489.000337
 20
1825.460925
 30
0.0
 40
0.9996879999999999
100
AcDbArc
 50
180.0
 51
270.0
  0
ARC
  5
281
330
147A
100
AcDbEntity
  8
DETAIL
100
AcDbCircle
 10
-442.015016
 20
1825.460925
 30
0.0
 40
0.9996879999999999
100
AcDbArc
 50
270.0
 51
0.0
  0
ARC
  5
282
330
147A
100
AcDbEntity
  8
DETAIL
100
AcDbCircle
 10
-447.013454
 20
1823.961394
 30
0.0
 40
0.499844
100
AcDbArc
 50
0.0
 51
90.0
  0
LINE
  5
283
330
147A
100
AcDbEntity
  8
DETAIL
100
AcDbLine
 10
-489.000337
 20
1824.461237
 30
0.0
 11
-442.015016
 21
1824.461237
 31
0.0
  0
ARC
  5
284
330
147A
100
AcDbEntity
  8
DETAIL
100
AcDbCircle
 10
-473.505178
 20
1823.961394
 30
0.0
 40
0.499844
100
AcDbArc
 50
0.0
 51
90.0
  0
ARC
  5
285
330
147A
100
AcDbEntity
  8
DETAIL
100
AcDbCircle
 10
-479.0034599999998
 20
1739.487785
 30
0.0
 40
3.998751
100
AcDbArc
 50
90.0
 51
270.0
  0
LINE
  5
286
330
147A
100
AcDbEntity
  8
DETAIL
100
AcDbLine
 10
-447.013454
 20
1743.486536
 30
0.0
 11
-479.0034599999998
 21
1743.486536
 31
0.0
  0
ARC
  5
287
330
147A
100
AcDbEntity
  8
DETAIL
100
AcDbCircle
 10
-447.013454
 20
1743.98638
 30
0.0
 40
0.499844
100
AcDbArc
 50
270.0
 51
0.0
  0
LINE
  5
288
330
147A
100
AcDbEntity
  8
DETAIL
100
AcDbLine
 10
-447.013454
 20
1735.489034
 30
0.0
 11
-479.0034599999998
 21
1735.489034
 31
0.0
  0
ARC
  5
289
330
147A
100
AcDbEntity
  8
DETAIL
100
AcDbCircle
 10
-447.013454
 20
1734.989191
 30
0.0
 40
0.499844
100
AcDbArc
 50
0.0
 51
90.0
  0
ARC
  5
28A
330
147A
100
AcDbEntity
  8
DETAIL
100
AcDbCircle
 10
-447.013454
 20
1788.972325
 30
0.0
 40
0.499844
100
AcDbArc
 50
270.0
 51
0.0
  0
ARC
  5
28B
330
147A
100
AcDbEntity
  8
DETAIL
100
AcDbCircle
 10
-447.013454
 20
1779.975136
 30
0.0
 40
0.499844
100
AcDbArc
 50
0.0
 51
90.0
  0
ARC
  5
28C
330
147A
100
AcDbEntity
  8
DETAIL
100
AcDbCircle
 10
-479.0034599999998
 20
1784.47373
 30
0.0
 40
3.998751
100
AcDbArc
 50
90.0
 51
270.0
  0
LINE
  5
28D
330
147A
100
AcDbEntity
  8
DETAIL
100
AcDbLine
 10
-447.013454
 20
1788.472481
 30
0.0
 11
-479.0034599999998
 21
1788.472481
 31
0.0
  0
LINE
  5
28E
330
147A
100
AcDbEntity
  8
DETAIL
100
AcDbLine
 10
-447.013454
 20
1780.47498
 30
0.0
 11
-479.0034599999998
 21
1780.47498
 31
0.0
  0
ARC
  5
28F
330
147A
100
AcDbEntity
  8
DETAIL
100
AcDbCircle
 10
-447.013454
 20
1699.000434
 30
0.0
 40
0.499844
100
AcDbArc
 50
270.0
 51
0.0
  0
ARC
  5
290
330
147A
100
AcDbEntity
  8
DETAIL
100
AcDbCircle
 10
-447.013454
 20
1690.003244999999
 30
0.0
 40
0.499844
100
AcDbArc
 50
0.0
 51
90.0
  0
ARC
  5
291
330
147A
100
AcDbEntity
  8
DETAIL
100
AcDbCircle
 10
-479.0034599999998
 20
1694.50184
 30
0.0
 40
3.998751
100
AcDbArc
 50
90.0
 51
270.0
  0
LINE
  5
292
330
147A
100
AcDbEntity
  8
DETAIL
100
AcDbLine
 10
-447.013454
 20
1698.500591
 30
0.0
 11
-479.0034599999998
 21
1698.500591
 31
0.0
  0
LINE
  5
293
330
147A
100
AcDbEntity
  8
DETAIL
100
AcDbLine
 10
-447.013454
 20
1690.503089
 30
0.0
 11
-479.0034599999998
 21
1690.503089
 31
0.0
  0
LINE
  5
294
330
147A
100
AcDbEntity
  8
DETAIL
100
AcDbLine
 10
-473.005334
 20
1743.486536
 30
0.0
 11
-473.005334
 21
1780.47498
 31
0.0
  0
LINE
  5
295
330
147A
100
AcDbEntity
  8
DETAIL
100
AcDbLine
 10
-473.005334
 20
1788.472481
 30
0.0
 11
-473.005334
 21
1823.961394
 31
0.0
  0
LINE
  5
296
330
147A
100
AcDbEntity
  8
DETAIL
100
AcDbLine
 10
-473.005334
 20
1698.500591
 30
0.0
 11
-473.005334
 21
1735.489034
 31
0.0
  0
LINE
  5
297
330
147A
100
AcDbEntity
  8
DETAIL
100
AcDbLine
 10
-442.5148599999998
 20
1829.95952
 30
0.0
 11
-440.015641
 21
1829.95952
 31
0.0
  0
LINE
  5
298
330
147A
100
AcDbEntity
  8
DETAIL
100
AcDbLine
 10
-442.5148599999998
 20
1850.0
 30
0.0
 11
-442.5148599999998
 21
1829.95952
 31
0.0
  0
LINE
  5
299
330
147A
100
AcDbEntity
  8
DETAIL
100
AcDbLine
 10
-489.000337
 20
1829.459676
 30
0.0
 11
-488.000649
 21
1829.459676
 31
0.0
  0
ARC
  5
29A
330
147A
100
AcDbEntity
  8
DETAIL
100
AcDbCircle
 10
-442.015016
 20
1828.459988
 30
0.0
 40
0.9996879999999999
100
AcDbArc
 50
0.0
 51
90.0
  0
LINE
  5
29B
330
147A
100
AcDbEntity
  8
DETAIL
100
AcDbLine
 10
-488.000649
 20
1829.459676
 30
0.0
 11
-442.015016
 21
1829.459676
 31
0.0
  0
ARC
  5
29C
330
147A
100
AcDbEntity
  8
DETAIL
100
AcDbCircle
 10
-489.000337
 20
1828.459988
 30
0.0
 40
0.9996879999999999
100
AcDbArc
 50
90.0
 51
180.0
  0
LINE
  5
29D
330
147A
100
AcDbEntity
  8
DETAIL
100
AcDbLine
 10
440.015641
 20
1650.0
 30
0.0
 11
440.015641
 21
1126.448071
 31
0.0
  0
LINE
  5
29E
330
147A
100
AcDbEntity
  8
DETAIL
100
AcDbLine
 10
440.5154849999998
 20
1104.65488
 30
0.0
 11
440.5154849999998
 21
595.813854
 31
0.0
  0
LINE
  5
29F
330
147A
100
AcDbEntity
  8
DETAIL
100
AcDbLine
 10
-13.406726
 20
825.9320189999996
 30
0.0
 11
-13.406726
 21
815.935142
 31
0.0
  0
LINE
  5
2A0
330
147A
100
AcDbEntity
  8
DETAIL
100
AcDbLine
 10
585.0
 20
242.0
 30
0.0
 11
490.0000239999998
 21
242.0
 31
0.0
  0
ARC
  5
2A1
330
147A
100
AcDbEntity
  8
DETAIL
100
AcDbCircle
 10
-23.403603
 20
665.981991
 30
0.0
 40
9.996876999999999
100
AcDbArc
 50
0.0
 51
90.0
  0
LINE
  5
2A2
330
147A
100
AcDbEntity
  8
DETAIL
100
AcDbLine
 10
439.5157969999998
 20
595.813854
 30
0.0
 11
439.5157969999998
 21
594.814166
 31
0.0
  0
LINE
  5
2A3
330
147A
100
AcDbEntity
  8
DETAIL
100
AcDbLine
 10
439.5157969999998
 20
595.813854
 30
0.0
 11
440.5154849999998
 21
595.813854
 31
0.0
  0
LINE
  5
2A4
330
147A
100
AcDbEntity
  8
DETAIL
100
AcDbLine
 10
439.215891
 20
593.9613009999998
 30
0.0
 11
439.215891
 21
594.7610509999998
 31
0.0
  0
LINE
  5
2A5
330
147A
100
AcDbEntity
  8
DETAIL
100
AcDbLine
 10
439.215891
 20
593.9613009999998
 30
0.0
 11
440.015641
 21
593.9613009999998
 31
0.0
  0
LINE
  5
2A6
330
147A
100
AcDbEntity
  8
DETAIL
100
AcDbLine
 10
-13.406726
 20
665.981991
 30
0.0
 11
-13.406726
 21
655.9851139999998
 31
0.0
  0
LWPOLYLINE
  5
2A7
330
147A
100
AcDbEntity
  8
DETAIL
100
AcDbPolyline
 90
        9
 70
     0
 43
0.0
 10
-13.406726
 20
663.053973
 10
-13.598813
 20
664.433039
 10
-14.167693
 20
665.7591089999997
 10
-15.091504
 20
666.9812209999999
 10
-16.334744
 20
668.052412
 10
-17.849636
 20
668.9315149999997
 10
-19.577964
 20
669.584748
 10
-21.453309
 20
669.9870070000002
 10
-23.403603
 20
670.122833
  0
LINE
  5
2B2
330
147A
100
AcDbEntity
  8
DETAIL
100
AcDbLine
 10
-13.406726
 20
625.9944840000001
 30
0.0
 11
-13.406726
 21
615.9976069999999
 31
0.0
  0
ARC
  5
2B3
330
147A
100
AcDbEntity
  8
DETAIL
100
AcDbCircle
 10
-23.403603
 20
625.9944840000001
 30
0.0
 40
9.996876999999999
100
AcDbArc
 50
0.0
 51
90.0
  0
LWPOLYLINE
  5
2B4
330
147A
100
AcDbEntity
  8
DETAIL
100
AcDbPolyline
 90
        9
 70
     0
 43
0.0
 10
-13.406726
 20
623.066466
 10
-13.598813
 20
624.4455320000001
 10
-14.167693
 20
625.7716019999998
 10
-15.091504
 20
626.9937139999998
 10
-16.334744
 20
628.064905
 10
-17.849636
 20
628.9440080000002
 10
-19.577964
 20
629.5972410000001
 10
-21.453309
 20
629.9995
 10
-23.403603
 20
630.1353259999999
  0
LINE
  5
2BF
330
147A
100
AcDbEntity
  8
DETAIL
100
AcDbLine
 10
-13.406726
 20
785.944512
 30
0.0
 11
-13.406726
 21
775.9476349999999
 31
0.0
  0
ARC
  5
2C0
330
147A
100
AcDbEntity
  8
DETAIL
100
AcDbCircle
 10
-23.403603
 20
785.944512
 30
0.0
 40
9.996876999999999
100
AcDbArc
 50
0.0
 51
90.0
  0
LWPOLYLINE
  5
2C1
330
147A
100
AcDbEntity
  8
DETAIL
100
AcDbPolyline
 90
        9
 70
     0
 43
0.0
 10
-13.406726
 20
783.0164939999998
 10
-13.598813
 20
784.3955599999997
 10
-14.167693
 20
785.72163
 10
-15.091504
 20
786.943742
 10
-16.334744
 20
788.014933
 10
-17.849636
 20
788.894036
 10
-19.577964
 20
789.547269
 10
-21.453309
 20
789.949527
 10
-23.403603
 20
790.085354
  0
LINE
  5
2CC
330
147A
100
AcDbEntity
  8
DETAIL
100
AcDbLine
 10
-13.406726
 20
745.9570049999999
 30
0.0
 11
-13.406726
 21
735.960128
 31
0.0
  0
ARC
  5
2CD
330
147A
100
AcDbEntity
  8
DETAIL
100
AcDbCircle
 10
-23.403603
 20
745.9570049999999
 30
0.0
 40
9.996876999999999
100
AcDbArc
 50
0.0
 51
90.0
  0
LWPOLYLINE
  5
2CE
330
147A
100
AcDbEntity
  8
DETAIL
100
AcDbPolyline
 90
        9
 70
     0
 43
0.0
 10
-13.406726
 20
743.028987
 10
-13.598813
 20
744.4080529999999
 10
-14.167693
 20
745.7341229999997
 10
-15.091504
 20
746.956235
 10
-16.334744
 20
748.0274259999998
 10
-17.849636
 20
748.906529
 10
-19.577964
 20
749.5597619999998
 10
-21.453309
 20
749.96202
 10
-23.403603
 20
750.0978469999998
  0
LINE
  5
2D9
330
147A
100
AcDbEntity
  8
DETAIL
100
AcDbLine
 10
-13.406726
 20
705.969498
 30
0.0
 11
-13.406726
 21
695.972621
 31
0.0
  0
ARC
  5
2DA
330
147A
100
AcDbEntity
  8
DETAIL
100
AcDbCircle
 10
-23.403603
 20
705.969498
 30
0.0
 40
9.996876999999999
100
AcDbArc
 50
0.0
 51
90.0
  0
LWPOLYLINE
  5
2DB
330
147A
100
AcDbEntity
  8
DETAIL
100
AcDbPolyline
 90
        9
 70
     0
 43
0.0
 10
-13.406726
 20
703.0414799999999
 10
-13.598813
 20
704.4205459999998
 10
-14.167693
 20
705.746616
 10
-15.091504
 20
706.9687280000001
 10
-16.334744
 20
708.0399190000001
 10
-17.849636
 20
708.9190219999997
 10
-19.577964
 20
709.5722549999996
 10
-21.453309
 20
709.974514
 10
-23.403603
 20
710.1103399999998
  0
LINE
  5
2E6
330
147A
100
AcDbEntity
  8
DETAIL
100
AcDbLine
 10
424.020638
 20
1125.648321
 30
0.0
 11
424.020638
 21
1105.654567
 31
0.0
  0
LINE
  5
2E7
330
147A
100
AcDbEntity
  8
DETAIL
100
AcDbLine
 10
-13.406726
 20
945.894539
 30
0.0
 11
-13.406726
 21
935.8976629999999
 31
0.0
  0
ARC
  5
2E8
330
147A
100
AcDbEntity
  8
DETAIL
100
AcDbCircle
 10
-23.403603
 20
945.894539
 30
0.0
 40
9.996876999999999
100
AcDbArc
 50
0.0
 51
90.0
  0
LWPOLYLINE
  5
2E9
330
147A
100
AcDbEntity
  8
DETAIL
100
AcDbPolyline
 90
        9
 70
     0
 43
0.0
 10
-13.406726
 20
942.966522
 10
-13.598813
 20
944.3455880000001
 10
-14.167693
 20
945.6716569999999
 10
-15.091504
 20
946.8937699999999
 10
-16.334744
 20
947.96496
 10
-17.849636
 20
948.844064
 10
-19.577964
 20
949.497297
 10
-21.453309
 20
949.8995550000001
 10
-23.403603
 20
950.035381
  0
LINE
  5
2F4
330
147A
100
AcDbEntity
  8
DETAIL
100
AcDbLine
 10
-13.406726
 20
905.9070329999999
 30
0.0
 11
-13.406726
 21
895.910156
 31
0.0
  0
ARC
  5
2F5
330
147A
100
AcDbEntity
  8
DETAIL
100
AcDbCircle
 10
-23.403603
 20
905.9070329999999
 30
0.0
 40
9.996876999999999
100
AcDbArc
 50
0.0
 51
90.0
  0
LWPOLYLINE
  5
2F6
330
147A
100
AcDbEntity
  8
DETAIL
100
AcDbPolyline
 90
        9
 70
     0
 43
0.0
 10
-13.406726
 20
902.979015
 10
-13.598813
 20
904.3580809999999
 10
-14.167693
 20
905.68415
 10
-15.091504
 20
906.9062629999999
 10
-16.334744
 20
907.9774529999998
 10
-17.849636
 20
908.856557
 10
-19.577964
 20
909.5097899999997
 10
-21.453309
 20
909.9120479999999
 10
-23.403603
 20
910.0478739999998
  0
LINE
  5
301
330
147A
100
AcDbEntity
  8
DETAIL
100
AcDbLine
 10
-13.406726
 20
865.919526
 30
0.0
 11
-13.406726
 21
855.922649
 31
0.0
  0
ARC
  5
302
330
147A
100
AcDbEntity
  8
DETAIL
100
AcDbCircle
 10
-23.403603
 20
865.919526
 30
0.0
 40
9.996876999999999
100
AcDbArc
 50
0.0
 51
90.0
  0
LWPOLYLINE
  5
303
330
147A
100
AcDbEntity
  8
DETAIL
100
AcDbPolyline
 90
        9
 70
     0
 43
0.0
 10
-13.406726
 20
862.9915079999998
 10
-13.598813
 20
864.3705739999997
 10
-14.167693
 20
865.6966439999999
 10
-15.091504
 20
866.9187560000001
 10
-16.334744
 20
867.989947
 10
-17.849636
 20
868.8690499999999
 10
-19.577964
 20
869.522283
 10
-21.453309
 20
869.9245409999999
 10
-23.403603
 20
870.0603670000001
  0
ARC
  5
30E
330
147A
100
AcDbEntity
  8
DETAIL
100
AcDbCircle
 10
-23.403603
 20
825.9320189999996
 30
0.0
 40
9.996876999999999
100
AcDbArc
 50
0.0
 51
90.0
  0
LWPOLYLINE
  5
30F
330
147A
100
AcDbEntity
  8
DETAIL
100
AcDbPolyline
 90
        9
 70
     0
 43
0.0
 10
-13.406726
 20
823.0040009999999
 10
-13.598813
 20
824.3830669999999
 10
-14.167693
 20
825.7091370000001
 10
-15.091504
 20
826.931249
 10
-16.334744
 20
828.00244
 10
-17.849636
 20
828.8815429999997
 10
-19.577964
 20
829.5347759999996
 10
-21.453309
 20
829.9370340000001
 10
-23.403603
 20
830.072861
  0
LINE
  5
31A
330
147A
100
AcDbEntity
  8
DETAIL
100
AcDbLine
 10
439.5157969999998
 20
1104.65488
 30
0.0
 11
439.5157969999998
 21
1105.654567
 31
0.0
  0
LINE
  5
31B
330
147A
100
AcDbEntity
  8
DETAIL
100
AcDbLine
 10
439.5157969999998
 20
1104.65488
 30
0.0
 11
440.5154849999998
 21
1104.65488
 31
0.0
  0
LINE
  5
31C
330
147A
100
AcDbEntity
  8
DETAIL
100
AcDbLine
 10
-13.406726
 20
1025.999553
 30
0.0
 11
-13.406726
 21
1016.002677
 31
0.0
  0
ARC
  5
31D
330
147A
100
AcDbEntity
  8
DETAIL
100
AcDbCircle
 10
-23.403603
 20
1025.999553
 30
0.0
 40
9.996876999999999
100
AcDbArc
 50
0.0
 51
90.0
  0
LWPOLYLINE
  5
31E
330
147A
100
AcDbEntity
  8
DETAIL
100
AcDbPolyline
 90
        9
 70
     0
 43
0.0
 10
-13.406726
 20
1023.071536
 10
-13.598813
 20
1024.450602
 10
-14.167693
 20
1025.776671
 10
-15.091504
 20
1026.998784
 10
-16.334744
 20
1028.069974
 10
-17.849636
 20
1028.949078
 10
-19.577964
 20
1029.60231
 10
-21.453309
 20
1030.004569
 10
-23.403603
 20
1030.140395
  0
LINE
  5
329
330
147A
100
AcDbEntity
  8
DETAIL
100
AcDbLine
 10
-13.406726
 20
985.882046
 30
0.0
 11
-13.406726
 21
975.8851700000001
 31
0.0
  0
ARC
  5
32A
330
147A
100
AcDbEntity
  8
DETAIL
100
AcDbCircle
 10
-23.403603
 20
985.882046
 30
0.0
 40
9.996876999999999
100
AcDbArc
 50
0.0
 51
90.0
  0
LWPOLYLINE
  5
32B
330
147A
100
AcDbEntity
  8
DETAIL
100
AcDbPolyline
 90
        9
 70
     0
 43
0.0
 10
-13.406726
 20
982.9540289999997
 10
-13.598813
 20
984.333095
 10
-14.167693
 20
985.6591640000001
 10
-15.091504
 20
986.8812769999999
 10
-16.334744
 20
987.952467
 10
-17.849636
 20
988.831571
 10
-19.577964
 20
989.484803
 10
-21.453309
 20
989.8870619999996
 10
-23.403603
 20
990.022888
  0
LINE
  5
336
330
147A
100
AcDbEntity
  8
DETAIL
100
AcDbLine
 10
439.215891
 20
1126.448071
 30
0.0
 11
440.015641
 21
1126.448071
 31
0.0
  0
LINE
  5
337
330
147A
100
AcDbEntity
  8
DETAIL
100
AcDbLine
 10
439.215891
 20
1126.448071
 30
0.0
 11
439.215891
 21
1125.648321
 31
0.0
  0
LINE
  5
338
330
147A
100
AcDbEntity
  8
DETAIL
100
AcDbLine
 10
440.015641
 20
1829.95952
 30
0.0
 11
440.015641
 21
1826.960457
 31
0.0
  0
LINE
  5
339
330
147A
100
AcDbEntity
  8
DETAIL
100
AcDbLine
 10
441.015328
 20
1650.515582
 30
0.0
 11
441.015328
 21
1828.459988
 31
0.0
  0
LINE
  5
33A
330
147A
100
AcDbEntity
  8
DETAIL
100
AcDbLine
 10
441.015328
 20
1724.49247
 30
0.0
 11
441.015328
 21
1652.514958
 31
0.0
  0
LINE
  5
33B
330
147A
100
AcDbEntity
  8
DETAIL
100
AcDbLine
 10
440.015641
 20
1727.259555
 30
0.0
 11
440.015641
 21
1652.514958
 31
0.0
  0
LINE
  5
33C
330
147A
100
AcDbEntity
  8
DETAIL
100
AcDbLine
 10
446.513611
 20
1655.014177
 30
0.0
 11
446.513611
 21
1823.961394
 31
0.0
  0
LINE
  5
33D
330
147A
100
AcDbEntity
  8
DETAIL
100
AcDbLine
 10
473.005334
 20
1655.014177
 30
0.0
 11
473.005334
 21
1690.503089
 31
0.0
  0
LINE
  5
33E
330
147A
100
AcDbEntity
  8
DETAIL
100
AcDbLine
 10
489.000337
 20
1654.998438
 30
0.0
 11
442.015016
 21
1654.998438
 31
0.0
  0
LINE
  5
33F
330
147A
100
AcDbEntity
  8
DETAIL
100
AcDbLine
 10
439.215891
 20
1650.0
 30
0.0
 11
440.015641
 21
1650.0
 31
0.0
  0
LINE
  5
340
330
147A
100
AcDbEntity
  8
DETAIL
100
AcDbLine
 10
440.015641
 20
1650.0
 30
0.0
 11
440.015641
 21
1656.997814
 31
0.0
  0
ARC
  5
341
330
147A
100
AcDbEntity
  8
DETAIL
100
AcDbCircle
 10
473.505178
 20
1655.498282
 30
0.0
 40
0.499844
100
AcDbArc
 50
180.0
 51
270.0
  0
ARC
  5
342
330
147A
100
AcDbEntity
  8
DETAIL
100
AcDbCircle
 10
447.013454
 20
1655.498282
 30
0.0
 40
0.499844
100
AcDbArc
 50
180.0
 51
270.0
  0
ARC
  5
343
330
147A
100
AcDbEntity
  8
DETAIL
100
AcDbCircle
 10
442.015016
 20
1653.998751
 30
0.0
 40
0.9996879999999999
100
AcDbArc
 50
90.0
 51
180.0
  0
ARC
  5
344
330
147A
100
AcDbEntity
  8
DETAIL
100
AcDbCircle
 10
442.015016
 20
1650.999688
 30
0.0
 40
0.9996879999999999
100
AcDbArc
 50
180.0
 51
270.0
  0
LINE
  5
345
330
147A
100
AcDbEntity
  8
DETAIL
100
AcDbLine
 10
490.0000239999998
 20
1650.0
 30
0.0
 11
442.015016
 21
1650.0
 31
0.0
  0
ARC
  5
346
330
147A
100
AcDbEntity
  8
DETAIL
100
AcDbCircle
 10
489.000337
 20
1653.998751
 30
0.0
 40
0.9996879999999999
100
AcDbArc
 50
0.0
 51
90.0
  0
LINE
  5
347
330
147A
100
AcDbEntity
  8
DETAIL
100
AcDbLine
 10
489.000337
 20
1824.461237
 30
0.0
 11
442.015016
 21
1824.461237
 31
0.0
  0
ARC
  5
348
330
147A
100
AcDbEntity
  8
DETAIL
100
AcDbCircle
 10
441.015328
 20
1794.970451
 30
0.0
 40
1.999374999999997
100
AcDbArc
 50
90.0
 51
180.0
  0
ARC
  5
349
330
147A
100
AcDbEntity
  8
DETAIL
100
AcDbCircle
 10
441.015328
 20
1773.97701
 30
0.0
 40
1.999374999999997
100
AcDbArc
 50
180.0
 51
270.0
  0
ARC
  5
34A
330
147A
100
AcDbEntity
  8
DETAIL
100
AcDbCircle
 10
441.015328
 20
1749.984506
 30
0.0
 40
1.999374999999997
100
AcDbArc
 50
90.0
 51
180.0
  0
ARC
  5
34B
330
147A
100
AcDbEntity
  8
DETAIL
100
AcDbCircle
 10
441.015328
 20
1728.991065
 30
0.0
 40
1.999374999999997
100
AcDbArc
 50
180.0
 51
270.0
  0
LINE
  5
34C
330
147A
100
AcDbEntity
  8
DETAIL
100
AcDbLine
 10
439.015953
 20
1773.97701
 30
0.0
 11
439.015953
 21
1794.970451
 31
0.0
  0
LINE
  5
34D
330
147A
100
AcDbEntity
  8
DETAIL
100
AcDbLine
 10
439.015953
 20
1728.991065
 30
0.0
 11
439.015953
 21
1749.984506
 31
0.0
  0
LINE
  5
34E
330
147A
100
AcDbEntity
  8
DETAIL
100
AcDbLine
 10
436.0168899999998
 20
1734.293457999999
 30
0.0
 11
436.0168899999998
 21
1744.682112
 31
0.0
  0
LINE
  5
34F
330
147A
100
AcDbEntity
  8
DETAIL
100
AcDbLine
 10
436.0168899999998
 20
1736.488722
 30
0.0
 11
439.015953
 21
1736.488722
 31
0.0
  0
LINE
  5
350
330
147A
100
AcDbEntity
  8
DETAIL
100
AcDbLine
 10
436.0168899999998
 20
1742.486848
 30
0.0
 11
439.015953
 21
1742.486848
 31
0.0
  0
LINE
  5
351
330
147A
100
AcDbEntity
  8
DETAIL
100
AcDbLine
 10
436.0168899999998
 20
1781.474667
 30
0.0
 11
439.015953
 21
1781.474667
 31
0.0
  0
LINE
  5
352
330
147A
100
AcDbEntity
  8
DETAIL
100
AcDbLine
 10
436.0168899999998
 20
1787.472793
 30
0.0
 11
439.015953
 21
1787.472793
 31
0.0
  0
LINE
  5
353
330
147A
100
AcDbEntity
  8
DETAIL
100
AcDbLine
 10
436.0168899999998
 20
1779.279403
 30
0.0
 11
436.0168899999998
 21
1789.668058
 31
0.0
  0
LINE
  5
354
330
147A
100
AcDbEntity
  8
DETAIL
100
AcDbLine
 10
440.015641
 20
1690.503089
 30
0.0
 11
440.015641
 21
1697.500903
 31
0.0
  0
LINE
  5
355
330
147A
100
AcDbEntity
  8
DETAIL
100
AcDbLine
 10
440.015641
 20
1724.49247
 30
0.0
 11
441.015328
 21
1724.49247
 31
0.0
  0
LINE
  5
356
330
147A
100
AcDbEntity
  8
DETAIL
100
AcDbLine
 10
473.005334
 20
1698.500591
 30
0.0
 11
473.005334
 21
1735.489034
 31
0.0
  0
LINE
  5
357
330
147A
100
AcDbEntity
  8
DETAIL
100
AcDbLine
 10
473.005334
 20
1788.472481
 30
0.0
 11
473.005334
 21
1823.961394
 31
0.0
  0
ARC
  5
358
330
147A
100
AcDbEntity
  8
DETAIL
100
AcDbCircle
 10
447.013454
 20
1699.000434
 30
0.0
 40
0.499844
100
AcDbArc
 50
180.0
 51
270.0
  0
ARC
  5
359
330
147A
100
AcDbEntity
  8
DETAIL
100
AcDbCircle
 10
447.013454
 20
1690.003244999999
 30
0.0
 40
0.499844
100
AcDbArc
 50
90.0
 51
180.0
  0
ARC
  5
35A
330
147A
100
AcDbEntity
  8
DETAIL
100
AcDbCircle
 10
479.0034599999998
 20
1694.50184
 30
0.0
 40
3.998751
100
AcDbArc
 50
270.0
 51
90.0
  0
LINE
  5
35B
330
147A
100
AcDbEntity
  8
DETAIL
100
AcDbLine
 10
447.013454
 20
1698.500591
 30
0.0
 11
479.0034599999998
 21
1698.500591
 31
0.0
  0
LINE
  5
35C
330
147A
100
AcDbEntity
  8
DETAIL
100
AcDbLine
 10
447.013454
 20
1690.503089
 30
0.0
 11
479.0034599999998
 21
1690.503089
 31
0.0
  0
ARC
  5
35D
330
147A
100
AcDbEntity
  8
DETAIL
100
AcDbCircle
 10
447.013454
 20
1788.972325
 30
0.0
 40
0.499844
100
AcDbArc
 50
180.0
 51
270.0
  0
ARC
  5
35E
330
147A
100
AcDbEntity
  8
DETAIL
100
AcDbCircle
 10
447.013454
 20
1779.975136
 30
0.0
 40
0.499844
100
AcDbArc
 50
90.0
 51
180.0
  0
ARC
  5
35F
330
147A
100
AcDbEntity
  8
DETAIL
100
AcDbCircle
 10
479.0034599999998
 20
1784.47373
 30
0.0
 40
3.998751
100
AcDbArc
 50
270.0
 51
90.0
  0
LINE
  5
360
330
147A
100
AcDbEntity
  8
DETAIL
100
AcDbLine
 10
447.013454
 20
1788.472481
 30
0.0
 11
479.0034599999998
 21
1788.472481
 31
0.0
  0
LINE
  5
361
330
147A
100
AcDbEntity
  8
DETAIL
100
AcDbLine
 10
447.013454
 20
1780.47498
 30
0.0
 11
479.0034599999998
 21
1780.47498
 31
0.0
  0
LINE
  5
362
330
147A
100
AcDbEntity
  8
DETAIL
100
AcDbLine
 10
473.005334
 20
1743.486536
 30
0.0
 11
473.005334
 21
1780.47498
 31
0.0
  0
ARC
  5
363
330
147A
100
AcDbEntity
  8
DETAIL
100
AcDbCircle
 10
447.013454
 20
1734.989191
 30
0.0
 40
0.499844
100
AcDbArc
 50
90.0
 51
180.0
  0
ARC
  5
364
330
147A
100
AcDbEntity
  8
DETAIL
100
AcDbCircle
 10
447.013454
 20
1743.98638
 30
0.0
 40
0.499844
100
AcDbArc
 50
180.0
 51
270.0
  0
ARC
  5
365
330
147A
100
AcDbEntity
  8
DETAIL
100
AcDbCircle
 10
479.0034599999998
 20
1739.487785
 30
0.0
 40
3.998751
100
AcDbArc
 50
270.0
 51
90.0
  0
LINE
  5
366
330
147A
100
AcDbEntity
  8
DETAIL
100
AcDbLine
 10
447.013454
 20
1735.489034
 30
0.0
 11
479.0034599999998
 21
1735.489034
 31
0.0
  0
LINE
  5
367
330
147A
100
AcDbEntity
  8
DETAIL
100
AcDbLine
 10
447.013454
 20
1743.486536
 30
0.0
 11
479.0034599999998
 21
1743.486536
 31
0.0
  0
ARC
  5
368
330
147A
100
AcDbEntity
  8
DETAIL
100
AcDbCircle
 10
473.505178
 20
1823.961394
 30
0.0
 40
0.499844
100
AcDbArc
 50
90.0
 51
180.0
  0
ARC
  5
369
330
147A
100
AcDbEntity
  8
DETAIL
100
AcDbCircle
 10
447.013454
 20
1823.961394
 30
0.0
 40
0.499844
100
AcDbArc
 50
90.0
 51
180.0
  0
ARC
  5
36A
330
147A
100
AcDbEntity
  8
DETAIL
100
AcDbCircle
 10
442.015016
 20
1825.460925
 30
0.0
 40
0.9996879999999999
100
AcDbArc
 50
180.0
 51
270.0
  0
ARC
  5
36B
330
147A
100
AcDbEntity
  8
DETAIL
100
AcDbCircle
 10
489.000337
 20
1825.460925
 30
0.0
 40
0.9996879999999999
100
AcDbArc
 50
270.0
 51
0.0
  0
LINE
  5
36C
330
147A
100
AcDbEntity
  8
DETAIL
100
AcDbLine
 10
489.000337
 20
1829.459676
 30
0.0
 11
488.000649
 21
1829.459676
 31
0.0
  0
LINE
  5
36D
330
147A
100
AcDbEntity
  8
DETAIL
100
AcDbLine
 10
440.015641
 20
1829.95952
 30
0.0
 11
442.5148599999998
 21
1829.95952
 31
0.0
  0
LINE
  5
36E
330
147A
100
AcDbEntity
  8
DETAIL
100
AcDbLine
 10
442.5148599999998
 20
1850.0
 30
0.0
 11
442.5148599999998
 21
1829.95952
 31
0.0
  0
ARC
  5
36F
330
147A
100
AcDbEntity
  8
DETAIL
100
AcDbCircle
 10
442.015016
 20
1828.459988
 30
0.0
 40
0.9996879999999999
100
AcDbArc
 50
90.0
 51
180.0
  0
LINE
  5
370
330
147A
100
AcDbEntity
  8
DETAIL
100
AcDbLine
 10
488.000649
 20
1829.459676
 30
0.0
 11
442.015016
 21
1829.459676
 31
0.0
  0
ARC
  5
371
330
147A
100
AcDbEntity
  8
DETAIL
100
AcDbCircle
 10
489.000337
 20
1828.459988
 30
0.0
 40
0.9996879999999999
100
AcDbArc
 50
0.0
 51
90.0
  0
LINE
  5
372
330
147A
100
AcDbEntity
  8
DETAIL
100
AcDbLine
 10
490.0000239999998
 20
1650.0
 30
0.0
 11
490.0000239999998
 21
80.0
 31
0.0
  0
LINE
  5
373
330
147A
100
AcDbEntity
  8
DETAIL
100
AcDbLine
 10
-490.0000239999998
 20
1650.0
 30
0.0
 11
-490.0000239999998
 21
1850.0
 31
0.0
  0
LINE
  5
374
330
147A
100
AcDbEntity
  8
DETAIL
100
AcDbLine
 10
585.0
 20
80.0
 30
0.0
 11
585.0
 21
242.0
 31
0.0
  0
LINE
  5
375
330
147A
100
AcDbEntity
  8
OUTLINE
100
AcDbLine
 10
490.0000239999998
 20
1650.0
 30
0.0
 11
490.0000239999998
 21
241.124667
 31
0.0
  0
LINE
  5
376
330
147A
100
AcDbEntity
  8
OUTLINE
100
AcDbLine
 10
-490.0000239999998
 20
80.0
 30
0.0
 11
-490.0000239999998
 21
1650.0
 31
0.0
  0
LINE
  5
377
330
147A
100
AcDbEntity
  8
OUTLINE
100
AcDbLine
 10
490.0000239999998
 20
80.0
 30
0.0
 11
-490.0000239999998
 21
80.0
 31
0.0
  0
LINE
  5
378
330
147A
100
AcDbEntity
  8
OUTLINE
100
AcDbLine
 10
481.0
 20
0.0
 30
0.0
 11
-480.6029599999998
 21
0.0
 31
0.0
  0
LINE
  5
379
330
147A
100
AcDbEntity
  8
OUTLINE
100
AcDbLine
 10
-485.1015549999998
 20
4.498594999999999
 30
0.0
 11
-521.0
 21
4.498594999999999
 31
0.0
  0
LINE
  5
37A
330
147A
100
AcDbEntity
  8
OUTLINE
100
AcDbLine
 10
-521.0
 20
4.498594999999999
 30
0.0
 11
-521.0
 21
0.0
 31
0.0
  0
LINE
  5
37B
330
147A
100
AcDbEntity
  8
OUTLINE
100
AcDbLine
 10
-480.6029599999998
 20
0.0
 30
0.0
 11
-521.0
 21
0.0
 31
0.0
  0
LINE
  5
37C
330
147A
100
AcDbEntity
  8
OUTLINE
100
AcDbLine
 10
585.0
 20
80.0
 30
0.0
 11
585.0
 21
242.0
 31
0.0
  0
LINE
  5
37D
330
147A
100
AcDbEntity
  8
OUTLINE
100
AcDbLine
 10
490.0000239999998
 20
261.918171
 30
0.0
 11
490.0000239999998
 21
241.124667
 31
0.0
  0
LINE
  5
37E
330
147A
100
AcDbEntity
  8
OUTLINE
100
AcDbLine
 10
585.0
 20
80.0
 30
0.0
 11
510.7935279999998
 21
80.0
 31
0.0
  0
LINE
  5
37F
330
147A
100
AcDbEntity
  8
OUTLINE
100
AcDbLine
 10
521.0
 20
4.498594999999999
 30
0.0
 11
521.0
 21
0.0
 31
0.0
  0
LINE
  5
380
330
147A
100
AcDbEntity
  8
OUTLINE
100
AcDbLine
 10
510.7935279999998
 20
4.498594999999999
 30
0.0
 11
521.0
 21
4.498594999999999
 31
0.0
  0
LINE
  5
381
330
147A
100
AcDbEntity
  8
OUTLINE
100
AcDbLine
 10
480.802898
 20
0.0
 30
0.0
 11
521.0
 21
0.0
 31
0.0
  0
LINE
  5
382
330
147A
100
AcDbEntity
  8
OUTLINE
100
AcDbLine
 10
510.7935279999998
 20
80.0
 30
0.0
 11
510.7935279999998
 21
4.498594999999999
 31
0.0
  0
LINE
  5
383
330
147A
100
AcDbEntity
  8
OUTLINE
100
AcDbLine
 10
585.0
 20
242.0
 30
0.0
 11
490.0000239999998
 21
242.0
 31
0.0
  0
LINE
  5
384
330
147A
100
AcDbEntity
  8
OUTLINE
100
AcDbLine
 10
-490.0000239999998
 20
1650.0
 30
0.0
 11
-490.0000239999998
 21
1850.0
 31
0.0
  0
LINE
  5
385
330
147A
100
AcDbEntity
  8
OUTLINE
100
AcDbLine
 10
490.0000239999998
 20
1850.0
 30
0.0
 11
490.0000239999998
 21
1650.0
 31
0.0
  0
LINE
  5
386
330
147A
100
AcDbEntity
  8
OUTLINE
100
AcDbLine
 10
-485.1015549999998
 20
10.996564
 30
0.0
 11
-485.1015549999998
 21
4.498594999999999
 31
0.0
  0
LINE
  5
387
330
147A
100
AcDbEntity
  8
OUTLINE
100
AcDbLine
 10
-481.0
 20
48.984696
 30
0.0
 11
-481.0
 21
79.975014
 31
0.0
  0
CIRCLE
  5
388
330
147A
100
AcDbEntity
  8
FIX
100
AcDbCircle
 10
-507.0
 20
0.0
 30
0.0
 40
9.858928999999999
  0
LINE
  5
389
330
147A
100
AcDbEntity
  8
NOTE
100
AcDbLine
 10
-507.0
 20
13.138752
 30
0.0
 11
-507.0
 21
-13.138752
 31
0.0
  0
LINE
  5
38A
330
147A
100
AcDbEntity
  8
NOTE
100
AcDbLine
 10
-493.8612479999998
 20
0.0
 30
0.0
 11
-520.1387519999998
 21
0.0
 31
0.0
  0
LINE
  5
38B
330
147A
100
AcDbEntity
  8
NOTE
100
AcDbLine
 10
490.0000239999998
 20
158.633911
 30
0.0
 11
490.0000239999998
 21
101.366089
 31
0.0
  0
LINE
  5
38C
330
147A
100
AcDbEntity
  8
NOTE
100
AcDbLine
 10
518.6339359999998
 20
130.0
 30
0.0
 11
461.3661129999998
 21
130.0
 31
0.0
  0
CIRCLE
  5
38D
330
147A
100
AcDbEntity
  8
FIX
100
AcDbCircle
 10
507.0
 20
0.0
 30
0.0
 40
9.858928999999999
  0
LINE
  5
38E
330
147A
100
AcDbEntity
  8
NOTE
100
AcDbLine
 10
520.1387519999998
 20
0.0
 30
0.0
 11
493.8612479999998
 21
0.0
 31
0.0
  0
LINE
  5
38F
330
147A
100
AcDbEntity
  8
NOTE
100
AcDbLine
 10
507.0
 20
13.138752
 30
0.0
 11
507.0
 21
-13.138752
 31
0.0
  0
LINE
  5
390
330
147A
100
AcDbEntity
  8
NOTE
100
AcDbLine
 10
502.796027
 20
56.125322
 30
0.0
 11
502.796027
 21
3.855937999999998
 31
0.0
  0
LINE
  5
391
330
147A
100
AcDbEntity
  8
NOTE
100
AcDbLine
 10
528.9307189999998
 20
30.0
 30
0.0
 11
476.6613349999998
 21
30.0
 31
0.0
  0
LINE
  5
392
330
147A
100
AcDbEntity
  8
NOTE
100
AcDbLine
 10
-523.000024
 20
56.125322
 30
0.0
 11
-523.000024
 21
3.855937999999998
 31
0.0
  0
LINE
  5
393
330
147A
100
AcDbEntity
  8
NOTE
100
AcDbLine
 10
-496.865332
 20
30.0
 30
0.0
 11
-549.134716
 21
30.0
 31
0.0
  0
LINE
  5
394
330
147A
100
AcDbEntity
  8
NOTE
100
AcDbLine
 10
-490.0000239999998
 20
270.63641
 30
0.0
 11
-490.0000239999998
 21
229.36359
 31
0.0
  0
LINE
  5
395
330
147A
100
AcDbEntity
  8
NOTE
100
AcDbLine
 10
-510.6364339999998
 20
250.0
 30
0.0
 11
-469.3636149999998
 21
250.0
 31
0.0
  0
LINE
  5
396
330
147A
100
AcDbEntity
  8
NOTE
100
AcDbLine
 10
-490.0000239999998
 20
210.63641
 30
0.0
 11
-490.0000239999998
 21
169.36359
 31
0.0
  0
LINE
  5
397
330
147A
100
AcDbEntity
  8
NOTE
100
AcDbLine
 10
-510.6364339999998
 20
190.0
 30
0.0
 11
-469.3636149999998
 21
190.0
 31
0.0
  0
LINE
  5
398
330
147A
100
AcDbEntity
  8
NOTE
100
AcDbLine
 10
-518.6339359999998
 20
130.0
 30
0.0
 11
-461.3661129999998
 21
130.0
 31
0.0
  0
LINE
  5
399
330
147A
100
AcDbEntity
  8
NOTE
100
AcDbLine
 10
-490.0000239999998
 20
538.2764989999998
 30
0.0
 11
-490.0000239999998
 21
471.7258629999998
 31
0.0
  0
LINE
  5
39A
330
147A
100
AcDbEntity
  8
NOTE
100
AcDbLine
 10
-456.7247059999998
 20
505.0011809999999
 30
0.0
 11
-523.275343
 21
505.0011809999999
 31
0.0
  0
LINE
  5
39B
330
147A
100
AcDbEntity
  8
NOTE
100
AcDbLine
 10
-672.5821580000001
 20
900.4240959999997
 30
0.0
 11
-490.0000239999998
 21
505.0011809999999
 31
0.0
  0
LINE
  5
39C
330
147A
100
AcDbEntity
  8
NOTE
100
AcDbLine
 10
-490.0000239999998
 20
505.0011809999999
 30
0.0
 11
-494.833116
 21
533.1518099999998
 31
0.0
  0
LINE
  5
39D
330
147A
100
AcDbEntity
  8
NOTE
100
AcDbLine
 10
-490.0000239999998
 20
505.0011809999999
 30
0.0
 11
-508.26092
 21
526.9637949999999
 31
0.0
  0
TEXT
  5
39E
330
147A
100
AcDbEntity
  8
NOTE
100
AcDbText
 10
-926.4217079999998
 20
912.5678629999999
 30
0.0
 40
50.0
  1
D1　Rc1
 50
0.000003
 41
0.6310000000000003
  7
STANDARD1
100
AcDbText
  0
LINE
  5
39F
330
147A
100
AcDbEntity
  8
NOTE
100
AcDbLine
 10
-1018.970158
 20
900.4240959999997
 30
0.0
 11
-672.5821580000001
 21
900.4240959999997
 31
0.0
  0
TEXT
  5
3A0
330
147A
100
AcDbEntity
  8
NOTE
100
AcDbText
 10
-988.7544719999999
 20
912.167739
 30
0.0
 40
50.0
  1
※
 50
0.000003
 41
0.6310000000000003
  7
STANDARD1
100
AcDbText
  0
LINE
  5
3A1
330
147A
100
AcDbEntity
  8
NOTE
100
AcDbLine
 10
-1236.076711
 20
-532.1911899999999
 30
0.0
 11
-706.704323
 21
-532.1911899999999
 31
0.0
  0
TEXT
  5
3A2
330
147A
100
AcDbEntity
  8
NOTE
100
AcDbText
 10
-1217.826488
 20
-517.909886
 30
0.0
 40
50.0
  1
AH　2\U+00D72-\U+03C612（M10）
 50
0.000003
 41
0.6310000000000003
  7
STANDARD1
100
AcDbText
  0
LINE
  5
3A3
330
147A
100
AcDbEntity
  8
NOTE
100
AcDbLine
 10
-706.704323
 20
-532.1911899999999
 30
0.0
 11
-507.0
 21
0.0
 31
0.0
  0
LINE
  5
3A4
330
147A
100
AcDbEntity
  8
NOTE
100
AcDbLine
 10
-507.0
 20
0.0
 30
0.0
 11
-509.5576239999998
 21
-28.44776400000001
 31
0.0
  0
LINE
  5
3A5
330
147A
100
AcDbEntity
  8
NOTE
100
AcDbLine
 10
-507.0
 20
0.0
 30
0.0
 11
-523.4388489999998
 21
-23.357674
 31
0.0
  0
LINE
  5
3A6
330
147A
100
AcDbEntity
  8
NOTE
100
AcDbLine
 10
-726.9128789999999
 20
433.2116019999999
 30
0.0
 11
-1020.005543
 21
433.2116019999999
 31
0.0
  0
LINE
  5
3A7
330
147A
100
AcDbEntity
  8
NOTE
100
AcDbLine
 10
-759.579283
 20
-155.502409
 30
0.0
 11
-1040.334207
 21
-155.502409
 31
0.0
  0
TEXT
  5
3A8
330
147A
100
AcDbEntity
  8
NOTE
100
AcDbText
 10
-943.5809179999999
 20
-141.221165
 30
0.0
 40
50.0
  1
EL2
 50
0.000003
 41
0.6310000000000003
  7
STANDARD1
100
AcDbText
  0
TEXT
  5
3A9
330
147A
100
AcDbEntity
  8
NOTE
100
AcDbText
 10
-1008.547552
 20
-215.085669
 30
0.0
 40
50.0
  1
ﾉｯｸｱｳﾄ\U+03C643
 50
0.000003
 41
0.6310000000000003
  7
STANDARD1
100
AcDbText
  0
TEXT
  5
3AA
330
147A
100
AcDbEntity
  8
NOTE
100
AcDbText
 10
-1015.627901
 20
447.675836
 30
0.0
 40
50.0
  1
EL1
 50
0.000003
 41
0.6310000000000003
  7
STANDARD1
100
AcDbText
  0
TEXT
  5
3AB
330
147A
100
AcDbEntity
  8
NOTE
100
AcDbText
 10
-923.1745339999999
 20
440.833544
 30
0.0
 40
50.0
  1
ﾉｯｸｱｳﾄ\U+03C627
 50
0.000003
 41
0.6310000000000003
  7
STANDARD1
100
AcDbText
  0
LINE
  5
3AC
330
147A
100
AcDbEntity
  8
NOTE
100
AcDbLine
 10
-724.734501
 20
719.018909
 30
0.0
 11
-1016.537299
 21
719.018909
 31
0.0
  0
TEXT
  5
3AD
330
147A
100
AcDbEntity
  8
NOTE
100
AcDbText
 10
-982.0446249999999
 20
659.3185580000001
 30
0.0
 40
50.0
  1
ﾉｯｸｱｳﾄ\U+03C627
 50
0.000003
 41
0.6310000000000003
  7
STANDARD1
100
AcDbText
  0
TEXT
  5
3AE
330
147A
100
AcDbEntity
  8
NOTE
100
AcDbText
 10
-920.0574229999999
 20
727.8613599999999
 30
0.0
 40
50.0
  1
CL1
 50
0.000003
 41
0.6310000000000003
  7
STANDARD1
100
AcDbText
  0
LINE
  5
3AF
330
147A
100
AcDbEntity
  8
NOTE
100
AcDbLine
 10
-724.734501
 20
719.018909
 30
0.0
 11
-489.9523929999999
 21
249.943764
 31
0.0
  0
LINE
  5
3B0
330
147A
100
AcDbEntity
  8
NOTE
100
AcDbLine
 10
-759.579283
 20
-155.502409
 30
0.0
 11
-490.0000239999998
 21
130.0
 31
0.0
  0
LINE
  5
3B1
330
147A
100
AcDbEntity
  8
NOTE
100
AcDbLine
 10
-726.9128789999999
 20
433.2116019999999
 30
0.0
 11
-489.8815579999999
 21
189.987853
 31
0.0
  0
LINE
  5
3B2
330
147A
100
AcDbEntity
  8
NOTE
100
AcDbLine
 10
-489.9523929999999
 20
249.943764
 30
0.0
 11
-495.6902809999998
 21
277.923995
 31
0.0
  0
LINE
  5
3B3
330
147A
100
AcDbEntity
  8
NOTE
100
AcDbLine
 10
-489.9523929999999
 20
249.943764
 30
0.0
 11
-508.911666
 21
271.30641
 31
0.0
  0
LINE
  5
3B4
330
147A
100
AcDbEntity
  8
NOTE
100
AcDbLine
 10
-489.8815579999999
 20
189.987853
 30
0.0
 11
-503.846346
 21
214.90374
 31
0.0
  0
LINE
  5
3B5
330
147A
100
AcDbEntity
  8
NOTE
100
AcDbLine
 10
-489.8815579999999
 20
189.987853
 30
0.0
 11
-514.433363
 21
204.583249
 31
0.0
  0
LINE
  5
3B6
330
147A
100
AcDbEntity
  8
NOTE
100
AcDbLine
 10
-490.0000239999998
 20
130.0
 30
0.0
 11
-503.5661199999998
 21
104.864811
 31
0.0
  0
LINE
  5
3B7
330
147A
100
AcDbEntity
  8
NOTE
100
AcDbLine
 10
-490.0000239999998
 20
130.0
 30
0.0
 11
-514.316203
 21
115.015336
 31
0.0
  0
LINE
  5
3B8
330
147A
100
AcDbEntity
  8
NOTE
100
AcDbLine
 10
-769.1665669999999
 20
-343.846781
 30
0.0
 11
-1052.367525
 21
-343.846781
 31
0.0
  0
TEXT
  5
3B9
330
147A
100
AcDbEntity
  8
NOTE
100
AcDbText
 10
-972.4177789999997
 20
-332.313515
 30
0.0
 40
50.0
  1
D2　Rc1
 50
0.000003
 41
0.6310000000000003
  7
STANDARD1
100
AcDbText
  0
TEXT
  5
3BA
330
147A
100
AcDbEntity
  8
NOTE
100
AcDbText
 10
-1032.401833
 20
-334.974964
 30
0.0
 40
50.0
  1
※
 50
0.000003
 41
0.6310000000000003
  7
STANDARD1
100
AcDbText
  0
LINE
  5
3BB
330
147A
100
AcDbEntity
  8
NOTE
100
AcDbLine
 10
-769.1665669999999
 20
-343.846781
 30
0.0
 11
-523.000024
 21
29.99063
 31
0.0
  0
LINE
  5
3BC
330
147A
100
AcDbEntity
  8
NOTE
100
AcDbLine
 10
-523.000024
 20
29.99063
 30
0.0
 11
-544.1740269999997
 21
10.820907
 31
0.0
  0
LINE
  5
3BD
330
147A
100
AcDbEntity
  8
NOTE
100
AcDbLine
 10
-523.000024
 20
29.99063
 30
0.0
 11
-531.752387
 21
2.802160999999999
 31
0.0
  0
LINE
  5
3BE
330
147A
100
AcDbEntity
  8
NOTE
100
AcDbLine
 10
627.2398139999998
 20
-329.074691
 30
0.0
 11
887.7259699999997
 21
-329.074691
 31
0.0
  0
TEXT
  5
3BF
330
147A
100
AcDbEntity
  8
NOTE
100
AcDbText
 10
657.7302599999998
 20
-317.541425
 30
0.0
 40
50.0
  1
D4　Rc1
 50
0.000003
 41
0.6310000000000003
  7
STANDARD1
100
AcDbText
  0
LINE
  5
3C0
330
147A
100
AcDbEntity
  8
NOTE
100
AcDbLine
 10
627.2398139999998
 20
-329.074691
 30
0.0
 11
502.798669
 21
29.99962
 31
0.0
  0
LINE
  5
3C1
330
147A
100
AcDbEntity
  8
NOTE
100
AcDbLine
 10
502.798669
 20
29.99962
 30
0.0
 11
518.5605699999999
 21
6.179897
 31
0.0
  0
LINE
  5
3C2
330
147A
100
AcDbEntity
  8
NOTE
100
AcDbLine
 10
502.798669
 20
29.99962
 30
0.0
 11
504.5390139999998
 21
1.490183999999999
 31
0.0
  0
LINE
  5
3C3
330
147A
100
AcDbEntity
  8
NOTE
100
AcDbLine
 10
510.6364339999998
 20
250.0
 30
0.0
 11
469.3636149999998
 21
250.0
 31
0.0
  0
LINE
  5
3C4
330
147A
100
AcDbEntity
  8
NOTE
100
AcDbLine
 10
490.0000239999998
 20
270.63641
 30
0.0
 11
490.0000239999998
 21
229.36359
 31
0.0
  0
LINE
  5
3C5
330
147A
100
AcDbEntity
  8
NOTE
100
AcDbLine
 10
510.6364339999998
 20
190.0
 30
0.0
 11
469.3636149999998
 21
190.0
 31
0.0
  0
LINE
  5
3C6
330
147A
100
AcDbEntity
  8
NOTE
100
AcDbLine
 10
490.0000239999998
 20
210.63641
 30
0.0
 11
490.0000239999998
 21
169.36359
 31
0.0
  0
TEXT
  5
3C7
330
147A
100
AcDbEntity
  8
NOTE
100
AcDbText
 10
924.410825
 20
619.190149
 30
0.0
 40
50.0
  1
EL4
 50
0.000003
 41
0.6310000000000003
  7
STANDARD1
100
AcDbText
  0
LINE
  5
3C8
330
147A
100
AcDbEntity
  8
NOTE
100
AcDbLine
 10
833.0564199999999
 20
612.0539919999997
 30
0.0
 11
1104.049511
 21
612.0539919999997
 31
0.0
  0
TEXT
  5
3C9
330
147A
100
AcDbEntity
  8
NOTE
100
AcDbText
 10
866.857176
 20
547.1355919999998
 30
0.0
 40
50.0
  1
ﾉｯｸｱｳﾄ\U+03C643
 50
0.000003
 41
0.6310000000000003
  7
STANDARD1
100
AcDbText
  0
LINE
  5
3CA
330
147A
100
AcDbEntity
  8
NOTE
100
AcDbLine
 10
847.740298
 20
777.052133
 30
0.0
 11
1103.149144
 21
777.052133
 31
0.0
  0
TEXT
  5
3CB
330
147A
100
AcDbEntity
  8
NOTE
100
AcDbText
 10
871.728418
 20
712.8452129999998
 30
0.0
 40
50.0
  1
ﾉｯｸｱｳﾄ\U+03C627
 50
0.000003
 41
0.6310000000000003
  7
STANDARD1
100
AcDbText
  0
TEXT
  5
3CC
330
147A
100
AcDbEntity
  8
NOTE
100
AcDbText
 10
917.1762949999999
 20
787.646687
 30
0.0
 40
50.0
  1
EL3
 50
0.000003
 41
0.6310000000000003
  7
STANDARD1
100
AcDbText
  0
LINE
  5
3CD
330
147A
100
AcDbEntity
  8
NOTE
100
AcDbLine
 10
852.0103070000001
 20
939.671651
 30
0.0
 11
1101.693324
 21
939.671651
 31
0.0
  0
TEXT
  5
3CE
330
147A
100
AcDbEntity
  8
NOTE
100
AcDbText
 10
868.200006
 20
876.5245769999996
 30
0.0
 40
50.0
  1
ﾉｯｸｱｳﾄ\U+03C627
 50
0.000003
 41
0.6310000000000003
  7
STANDARD1
100
AcDbText
  0
TEXT
  5
3CF
330
147A
100
AcDbEntity
  8
NOTE
100
AcDbText
 10
918.177694
 20
948.514102
 30
0.0
 40
50.0
  1
CL2
 50
0.000003
 41
0.6310000000000003
  7
STANDARD1
100
AcDbText
  0
LINE
  5
3D0
330
147A
100
AcDbEntity
  8
NOTE
100
AcDbLine
 10
847.740298
 20
777.052133
 30
0.0
 11
490.0000239999998
 21
189.95268
 31
0.0
  0
LINE
  5
3D1
330
147A
100
AcDbEntity
  8
NOTE
100
AcDbLine
 10
833.0564199999999
 20
612.0539919999997
 30
0.0
 11
490.0000239999998
 21
130.0
 31
0.0
  0
LINE
  5
3D2
330
147A
100
AcDbEntity
  8
NOTE
100
AcDbLine
 10
852.0103070000001
 20
939.671651
 30
0.0
 11
490.0000239999998
 21
250.0
 31
0.0
  0
LINE
  5
3D3
330
147A
100
AcDbEntity
  8
NOTE
100
AcDbLine
 10
490.0000239999998
 20
250.0
 30
0.0
 11
496.2515259999998
 21
277.869973
 31
0.0
  0
LINE
  5
3D4
330
147A
100
AcDbEntity
  8
NOTE
100
AcDbLine
 10
490.0000239999998
 20
250.0
 30
0.0
 11
509.34897
 21
271.010354
 31
0.0
  0
LINE
  5
3D5
330
147A
100
AcDbEntity
  8
NOTE
100
AcDbLine
 10
490.0000239999998
 20
189.95268
 30
0.0
 11
497.96765
 21
217.381381
 31
0.0
  0
LINE
  5
3D6
330
147A
100
AcDbEntity
  8
NOTE
100
AcDbLine
 10
490.0000239999998
 20
189.95268
 30
0.0
 11
510.6145409999998
 21
209.722818
 31
0.0
  0
LINE
  5
3D7
330
147A
100
AcDbEntity
  8
NOTE
100
AcDbLine
 10
490.0000239999998
 20
130.0
 30
0.0
 11
500.0802639999998
 21
156.724623
 31
0.0
  0
LINE
  5
3D8
330
147A
100
AcDbEntity
  8
NOTE
100
AcDbLine
 10
490.0000239999998
 20
130.0
 30
0.0
 11
512.09208
 21
148.104082
 31
0.0
  0
LINE
  5
3D9
330
147A
100
AcDbEntity
  8
NOTE
100
AcDbLine
 10
523.275343
 20
505.0
 30
0.0
 11
456.7247059999998
 21
505.0
 31
0.0
  0
LINE
  5
3DA
330
147A
100
AcDbEntity
  8
NOTE
100
AcDbLine
 10
490.0000239999998
 20
538.2753179999999
 30
0.0
 11
490.0000239999998
 21
471.7246819999998
 31
0.0
  0
LINE
  5
3DB
330
147A
100
AcDbEntity
  8
NOTE
100
AcDbLine
 10
856.885499
 20
1106.461256
 30
0.0
 11
490.0000239999998
 21
505.0
 31
0.0
  0
TEXT
  5
3DC
330
147A
100
AcDbEntity
  8
NOTE
100
AcDbText
 10
884.273409
 20
1117.902972
 30
0.0
 40
50.0
  1
D3　Rc1
 50
359.999997
 41
0.6310000000000003
  7
STANDARD1
100
AcDbText
  0
LINE
  5
3DD
330
147A
100
AcDbEntity
  8
NOTE
100
AcDbLine
 10
490.0000239999998
 20
505.0
 30
0.0
 11
498.0493559999998
 21
532.4048349999998
 31
0.0
  0
LINE
  5
3DE
330
147A
100
AcDbEntity
  8
NOTE
100
AcDbLine
 10
490.0000239999998
 20
505.0
 30
0.0
 11
510.6733669999998
 21
524.708617
 31
0.0
  0
LINE
  5
3DF
330
147A
100
AcDbEntity
  8
NOTE
100
AcDbLine
 10
856.885499
 20
1106.461256
 30
0.0
 11
1095.839699
 21
1106.461256
 31
0.0
  0
LINE
  5
3E1
330
147A
100
AcDbEntity
  8
SIZE
100
AcDbLine
 10
490.0000239999998
 20
99.975014
 30
0.0
 11
490.0000239999998
 21
1057.718994
 31
0.0
  0
LINE
  5
3E2
330
147A
100
AcDbEntity
  8
SIZE
100
AcDbLine
 10
585.0
 20
100.0
 30
0.0
 11
585.0
 21
1057.718994
 31
0.0
  0
LINE
  5
3E3
330
147A
100
AcDbEntity
  8
SIZE
100
AcDbLine
 10
500.000024
 20
1027.718993999998
 30
0.0
 11
575.0
 21
1027.718993999998
 31
0.0
  0
LINE
  5
3E4
330
147A
100
AcDbEntity
  8
SIZE
100
AcDbLine
 10
585.000353
 20
1027.718993999998
 30
0.0
 11
728.2574959999997
 21
1027.718993999998
 31
0.0
  0
CIRCLE
  5
3E5
330
147A
100
AcDbEntity
  8
SIZE
100
AcDbCircle
 10
490.0000239999998
 20
1027.718993999998
 30
0.0
 40
5.0
  0
LINE
  5
3E6
330
147A
100
AcDbEntity
  8
SIZE
100
AcDbLine
 10
495.000024
 20
1027.718993999998
 30
0.0
 11
500.000024
 21
1027.718993999998
 31
0.0
  0
CIRCLE
  5
3E7
330
147A
100
AcDbEntity
  8
SIZE
100
AcDbCircle
 10
585.0
 20
1027.718993999998
 30
0.0
 40
5.0
  0
LINE
  5
3E8
330
147A
100
AcDbEntity
  8
SIZE
100
AcDbLine
 10
580.0
 20
1027.718993999998
 30
0.0
 11
575.0
 21
1027.718993999998
 31
0.0
  0
TEXT
  5
3E9
330
147A
100
AcDbEntity
  8
SIZE
100
AcDbText
 10
615.0003535714286
 20
1047.718994
 30
0.0
 40
64.0
  1
95
 41
0.9
 72
     1
 11
661.628925
 21
1047.718994
 31
0.0
100
AcDbText
  0
LINE
  5
3ED
330
147A
100
AcDbEntity
  8
NOTE
100
AcDbLine
 10
-490.0000239999998
 20
158.633911
 30
0.0
 11
-490.0000239999998
 21
101.366089
 31
0.0
  0
LINE
  5
3EE
330
147A
100
AcDbEntity
  8
SIZE
100
AcDbLine
 10
500.802898
 20
0.0
 30
0.0
 11
941.340414
 21
0.0
 31
0.0
  0
LINE
  5
3EF
330
147A
100
AcDbEntity
  8
SIZE
100
AcDbLine
 10
510.0000239999998
 20
130.0
 30
0.0
 11
941.340414
 21
130.0
 31
0.0
  0
LINE
  5
3F0
330
147A
100
AcDbEntity
  8
SIZE
100
AcDbLine
 10
911.340414
 20
120.0
 30
0.0
 11
911.340414
 21
10.0
 31
0.0
  0
LINE
  5
3F1
330
147A
100
AcDbEntity
  8
SIZE
100
AcDbLine
 10
911.340414
 20
0.0
 30
0.0
 11
911.340414
 21
-187.142857
 31
0.0
  0
CIRCLE
  5
3F2
330
147A
100
AcDbEntity
  8
SIZE
100
AcDbCircle
 10
911.340414
 20
130.0
 30
0.0
 40
5.0
  0
LINE
  5
3F3
330
147A
100
AcDbEntity
  8
SIZE
100
AcDbLine
 10
911.340414
 20
125.0
 30
0.0
 11
911.340414
 21
120.0
 31
0.0
  0
CIRCLE
  5
3F4
330
147A
100
AcDbEntity
  8
SIZE
100
AcDbCircle
 10
911.340414
 20
0.0
 30
0.0
 40
5.0
  0
LINE
  5
3F5
330
147A
100
AcDbEntity
  8
SIZE
100
AcDbLine
 10
911.340414
 20
5.0
 30
0.0
 11
911.340414
 21
10.0
 31
0.0
  0
TEXT
  5
3F6
330
147A
100
AcDbEntity
  8
SIZE
100
AcDbText
 10
891.340414
 20
-167.1428575714286
 30
0.0
 40
64.0
  1
130
 50
90.0
 41
0.9
 72
     1
 11
891.340414
 21
-98.57142900000004
 31
0.0
100
AcDbText
  0
LINE
  5
3FA
330
147A
100
AcDbEntity
  8
SIZE
100
AcDbLine
 10
510.0000239999998
 20
130.0
 30
0.0
 11
941.340414
 21
130.0
 31
0.0
  0
LINE
  5
3FB
330
147A
100
AcDbEntity
  8
SIZE
100
AcDbLine
 10
510.0000239999998
 20
190.0
 30
0.0
 11
941.340414
 21
190.0
 31
0.0
  0
LINE
  5
3FC
330
147A
100
AcDbEntity
  8
SIZE
100
AcDbLine
 10
911.340414
 20
120.0
 30
0.0
 11
911.340414
 21
110.0
 31
0.0
  0
LINE
  5
3FD
330
147A
100
AcDbEntity
  8
SIZE
100
AcDbLine
 10
911.340414
 20
200.0
 30
0.0
 11
911.340414
 21
210.0
 31
0.0
  0
LINE
  5
3FE
330
147A
100
AcDbEntity
  8
SIZE
100
AcDbLine
 10
911.340414
 20
160.0
 30
0.0
 11
1054.898281
 21
277.082621
 31
0.0
  0
LINE
  5
3FF
330
147A
100
AcDbEntity
  8
SIZE
100
AcDbLine
 10
1054.898281
 20
277.082621
 30
0.0
 11
1054.898281
 21
393.683427
 31
0.0
  0
TEXT
  5
400
330
147A
100
AcDbEntity
  8
SIZE
100
AcDbText
 10
1022.304487
 20
283.6103045714286
 30
0.0
 40
64.0
  1
60
 50
90.0
 41
0.9
 72
     1
 11
1022.304487
 21
330.238876
 31
0.0
100
AcDbText
  0
LINE
  5
401
330
147A
100
AcDbEntity
  8
SIZE
100
AcDbLine
 10
911.340414
 20
130.0
 30
0.0
 11
911.340414
 21
190.0
 31
0.0
  0
LINE
  5
402
330
147A
100
AcDbEntity
  8
SIZE
100
AcDbLine
 10
911.340414
 20
130.0
 30
0.0
 11
911.340414
 21
190.0
 31
0.0
  0
CIRCLE
  5
403
330
147A
100
AcDbEntity
  8
SIZE
100
AcDbCircle
 10
911.340414
 20
130.0
 30
0.0
 40
5.0
  0
LINE
  5
404
330
147A
100
AcDbEntity
  8
SIZE
100
AcDbLine
 10
911.340414
 20
125.0
 30
0.0
 11
911.340414
 21
120.0
 31
0.0
  0
CIRCLE
  5
405
330
147A
100
AcDbEntity
  8
SIZE
100
AcDbCircle
 10
911.340414
 20
190.0
 30
0.0
 40
5.0
  0
LINE
  5
406
330
147A
100
AcDbEntity
  8
SIZE
100
AcDbLine
 10
911.340414
 20
195.0
 30
0.0
 11
911.340414
 21
200.0
 31
0.0
  0
LINE
  5
40A
330
147A
100
AcDbEntity
  8
SIZE
100
AcDbLine
 10
510.0000239999998
 20
190.0
 30
0.0
 11
941.340414
 21
190.0
 31
0.0
  0
LINE
  5
40B
330
147A
100
AcDbEntity
  8
SIZE
100
AcDbLine
 10
511.18687
 20
250.0
 30
0.0
 11
941.340414
 21
250.0
 31
0.0
  0
LINE
  5
40C
330
147A
100
AcDbEntity
  8
SIZE
100
AcDbLine
 10
911.340414
 20
200.0
 30
0.0
 11
911.340414
 21
240.0
 31
0.0
  0
LINE
  5
40D
330
147A
100
AcDbEntity
  8
SIZE
100
AcDbLine
 10
911.340414
 20
401.2883569999998
 30
0.0
 11
911.340414
 21
250.0
 31
0.0
  0
TEXT
  5
40E
330
147A
100
AcDbEntity
  8
SIZE
100
AcDbText
 10
891.340414
 20
288.0312135714286
 30
0.0
 40
64.0
  1
60
 50
90.0
 41
0.9
 72
     1
 11
891.340414
 21
334.659785
 31
0.0
100
AcDbText
  0
CIRCLE
  5
40F
330
147A
100
AcDbEntity
  8
SIZE
100
AcDbCircle
 10
911.340414
 20
190.0
 30
0.0
 40
5.0
  0
LINE
  5
410
330
147A
100
AcDbEntity
  8
SIZE
100
AcDbLine
 10
911.340414
 20
195.0
 30
0.0
 11
911.340414
 21
200.0
 31
0.0
  0
CIRCLE
  5
411
330
147A
100
AcDbEntity
  8
SIZE
100
AcDbCircle
 10
911.340414
 20
250.0
 30
0.0
 40
5.0
  0
LINE
  5
412
330
147A
100
AcDbEntity
  8
SIZE
100
AcDbLine
 10
911.340414
 20
245.0
 30
0.0
 11
911.340414
 21
240.0
 31
0.0
  0
LINE
  5
416
330
147A
100
AcDbEntity
  8
SIZE
100
AcDbLine
 10
500.802898
 20
0.0
 30
0.0
 11
1271.607932
 21
0.0
 31
0.0
  0
LINE
  5
417
330
147A
100
AcDbEntity
  8
SIZE
100
AcDbLine
 10
510.0000239999998
 20
505.0
 30
0.0
 11
1271.607932
 21
505.0
 31
0.0
  0
LINE
  5
418
330
147A
100
AcDbEntity
  8
SIZE
100
AcDbLine
 10
1241.607932
 20
10.0
 30
0.0
 11
1241.607932
 21
495.0
 31
0.0
  0
CIRCLE
  5
419
330
147A
100
AcDbEntity
  8
SIZE
100
AcDbCircle
 10
1241.607932
 20
0.0
 30
0.0
 40
5.0
  0
LINE
  5
41A
330
147A
100
AcDbEntity
  8
SIZE
100
AcDbLine
 10
1241.607932
 20
5.0
 30
0.0
 11
1241.607932
 21
10.0
 31
0.0
  0
CIRCLE
  5
41B
330
147A
100
AcDbEntity
  8
SIZE
100
AcDbCircle
 10
1241.607932
 20
505.0
 30
0.0
 40
5.0
  0
LINE
  5
41C
330
147A
100
AcDbEntity
  8
SIZE
100
AcDbLine
 10
1241.607932
 20
500.0
 30
0.0
 11
1241.607932
 21
495.0
 31
0.0
  0
TEXT
  5
41D
330
147A
100
AcDbEntity
  8
SIZE
100
AcDbText
 10
1221.607932
 20
178.4428571428571
 30
0.0
 40
64.0
  1
505
 50
90.0
 41
0.9
 72
     1
 11
1221.607932
 21
252.5
 31
0.0
100
AcDbText
  0
LINE
  5
421
330
147A
100
AcDbEntity
  8
BASIS
100
AcDbLine
 10
0.0
 20
1868.004526
 30
0.0
 11
0.0
 21
-97.727388
 31
0.0
  0
TEXT
  5
422
330
147A
100
AcDbEntity
  8
ETC
100
AcDbText
 10
-1649.958161817022
 20
1985.400631496394
 30
0.0
 40
90.0
  1
RF-P5A1_PLENUM_2
 50
359.999997
 41
0.6030590000000001
  7
STANDARD1
100
AcDbText
  0
TEXT
  5
424
330
147A
100
AcDbEntity
  8
NOTE
100
AcDbText
 10
-1039.559492
 20
-423.4044029999997
 30
0.0
 40
50.0
  1
【※はプラグ付】
 50
359.999997
 41
0.6310000000000003
  7
STANDARD1
100
AcDbText
  0
LINE
  5
425
330
147A
100
AcDbEntity
  8
NOTE
100
AcDbLine
 10
544.000024
 20
219.63641
 30
0.0
 11
544.000024
 21
178.36359
 31
0.0
  0
LINE
  5
426
330
147A
100
AcDbEntity
  8
NOTE
100
AcDbLine
 10
564.6364339999998
 20
199.0
 30
0.0
 11
523.3636149999998
 21
199.0
 31
0.0
  0
LINE
  5
427
330
147A
100
AcDbEntity
  8
NOTE
100
AcDbLine
 10
544.0743959999998
 20
144.63641
 30
0.0
 11
544.0743959999998
 21
103.36359
 31
0.0
  0
LINE
  5
428
330
147A
100
AcDbEntity
  8
NOTE
100
AcDbLine
 10
564.7108059999998
 20
124.0
 30
0.0
 11
523.437987
 21
124.0
 31
0.0
  0
LINE
  5
429
330
147A
100
AcDbEntity
  8
NOTE
100
AcDbLine
 10
990.2703090000001
 20
-90.112526
 30
0.0
 11
544.000024
 21
199.0
 31
0.0
  0
LINE
  5
42A
330
147A
100
AcDbEntity
  8
NOTE
100
AcDbLine
 10
249.982249
 20
-181.689842
 30
0.0
 11
544.0696889999998
 21
124.0
 31
0.0
  0
LINE
  5
42B
330
147A
100
AcDbEntity
  8
NOTE
100
AcDbLine
 10
249.982249
 20
-181.689842
 30
0.0
 11
-123.926773
 21
-181.689842
 31
0.0
  0
TEXT
  5
42C
330
147A
100
AcDbEntity
  8
NOTE
100
AcDbText
 10
-84.52477700000001
 20
-169.6272699999999
 30
0.0
 40
50.0
  1
RL　\U+03C612.7ﾌﾚｱ
 50
0.000003
 41
0.6310000000000003
  7
STANDARD1
100
AcDbText
  0
TEXT
  5
42D
330
147A
100
AcDbEntity
  8
NOTE
100
AcDbText
 10
1025.513925
 20
-79.46858500000002
 30
0.0
 40
50.0
  1
RG　\U+03C615.88ﾌﾚｱ
 50
0.000003
 41
0.6310000000000003
  7
STANDARD1
100
AcDbText
  0
LINE
  5
42E
330
147A
100
AcDbEntity
  8
NOTE
100
AcDbLine
 10
1417.393305
 20
-90.4326
 30
0.0
 11
990.220968
 21
-90.469129
 31
0.0
  0
LINE
  5
42F
330
147A
100
AcDbEntity
  8
NOTE
100
AcDbLine
 10
544.0696889999998
 20
124.0
 30
0.0
 11
519.786468
 21
108.961987
 31
0.0
  0
LINE
  5
430
330
147A
100
AcDbEntity
  8
NOTE
100
AcDbLine
 10
544.0696889999998
 20
124.0
 30
0.0
 11
530.5588089999998
 21
98.835087
 31
0.0
  0
LINE
  5
431
330
147A
100
AcDbEntity
  8
NOTE
100
AcDbLine
 10
544.000024
 20
199.0
 30
0.0
 11
571.235665
 21
190.39555
 31
0.0
  0
LINE
  5
432
330
147A
100
AcDbEntity
  8
NOTE
100
AcDbLine
 10
544.000024
 20
199.0
 30
0.0
 11
563.2845559999998
 21
177.930507
 31
0.0
  0
LINE
  5
433
330
147A
100
AcDbEntity
  8
SIZE
100
AcDbLine
 10
490.0000239999998
 20
150.0
 30
0.0
 11
490.0000239999998
 21
927.5617089999999
 31
0.0
  0
LINE
  5
434
330
147A
100
AcDbEntity
  8
SIZE
100
AcDbLine
 10
544.000024
 20
143.0
 30
0.0
 11
544.000024
 21
927.5617089999999
 31
0.0
  0
LINE
  5
435
330
147A
100
AcDbEntity
  8
SIZE
100
AcDbLine
 10
480.000024
 20
897.5617089999998
 30
0.0
 11
470.000024
 21
897.5617089999998
 31
0.0
  0
LINE
  5
436
330
147A
100
AcDbEntity
  8
SIZE
100
AcDbLine
 10
554.000024
 20
897.5617089999998
 30
0.0
 11
564.0000240000001
 21
897.5617089999998
 31
0.0
  0
LINE
  5
437
330
147A
100
AcDbEntity
  8
SIZE
100
AcDbLine
 10
721.9841149999997
 20
897.5617089999998
 30
0.0
 11
544.000024
 21
897.5617089999998
 31
0.0
  0
TEXT
  5
438
330
147A
100
AcDbEntity
  8
SIZE
100
AcDbText
 10
605.9841149999998
 20
917.5617089999999
 30
0.0
 40
64.0
  1
54
 41
0.9
 72
     1
 11
653.9841149999999
 21
917.5617089999999
 31
0.0
100
AcDbText
  0
LINE
  5
439
330
147A
100
AcDbEntity
  8
SIZE
100
AcDbLine
 10
490.0000239999998
 20
897.5617089999998
 30
0.0
 11
544.000024
 21
897.5617089999998
 31
0.0
  0
LINE
  5
43A
330
147A
100
AcDbEntity
  8
SIZE
100
AcDbLine
 10
490.0000239999998
 20
897.5617089999998
 30
0.0
 11
544.000024
 21
897.5617089999998
 31
0.0
  0
CIRCLE
  5
43B
330
147A
100
AcDbEntity
  8
SIZE
100
AcDbCircle
 10
490.0000239999998
 20
897.5617089999998
 30
0.0
 40
5.0
  0
LINE
  5
43C
330
147A
100
AcDbEntity
  8
SIZE
100
AcDbLine
 10
485.0000239999998
 20
897.5617089999998
 30
0.0
 11
480.000024
 21
897.5617089999998
 31
0.0
  0
CIRCLE
  5
43D
330
147A
100
AcDbEntity
  8
SIZE
100
AcDbCircle
 10
544.000024
 20
897.5617089999998
 30
0.0
 40
5.0
  0
LINE
  5
43E
330
147A
100
AcDbEntity
  8
SIZE
100
AcDbLine
 10
549.000024
 20
897.5617089999998
 30
0.0
 11
554.000024
 21
897.5617089999998
 31
0.0
  0
LINE
  5
442
330
147A
100
AcDbEntity
  8
OUTLINE
100
AcDbLine
 10
510.7935279999998
 20
79.975014
 30
0.0
 11
490.0000239999998
 21
79.975014
 31
0.0
  0
LINE
  5
443
330
147A
100
AcDbEntity
  8
OUTLINE
100
AcDbLine
 10
490.0000239999998
 20
80.0
 30
0.0
 11
490.0000239999998
 21
242.0
 31
0.0
  0
LINE
  5
445
330
147A
100
AcDbEntity
  8
OUTLINE
100
AcDbLine
 10
481.0
 20
80.0
 30
0.0
 11
481.0
 21
34.989069
 31
0.0
  0
LINE
  5
446
330
147A
100
AcDbEntity
  8
OUTLINE
100
AcDbLine
 10
481.0
 20
34.989069
 30
0.0
 11
485.3014919999998
 21
34.989069
 31
0.0
  0
LINE
  5
447
330
147A
100
AcDbEntity
  8
OUTLINE
100
AcDbLine
 10
485.3014919999998
 20
34.989069
 30
0.0
 11
485.3014919999998
 21
4.498594999999999
 31
0.0
  0
LINE
  5
448
330
147A
100
AcDbEntity
  8
OUTLINE
100
AcDbLine
 10
485.3014919999998
 20
4.498594999999999
 30
0.0
 11
510.7935279999998
 21
4.498594999999999
 31
0.0
  0
LINE
  5
449
330
147A
100
AcDbEntity
  8
OUTLINE
100
AcDbLine
 10
-481.0
 20
48.984696
 30
0.0
 11
-481.0
 21
34.989069
 31
0.0
  0
LINE
  5
44A
330
147A
100
AcDbEntity
  8
OUTLINE
100
AcDbLine
 10
-481.0
 20
34.989069
 30
0.0
 11
-485.1015549999998
 21
34.989069
 31
0.0
  0
LINE
  5
44B
330
147A
100
AcDbEntity
  8
OUTLINE
100
AcDbLine
 10
-485.1015549999998
 20
34.989069
 30
0.0
 11
-485.1015549999998
 21
10.996564
 31
0.0
  0
TEXT
  5
44C
330
147A
100
AcDbEntity
  8
NOTE
100
AcDbText
 10
-1012.134926
 20
832.7333239999997
 30
0.0
 40
50.0
  1
【※はプラグ付】
 50
359.999997
 41
0.6310000000000003
  7
STANDARD1
100
AcDbText
  0
LINE
  5
44D
330
147A
100
AcDbEntity
  8
DETAIL
100
AcDbLine
 10
24.45173
 20
630.116249
 30
0.0
 11
202.39597
 21
629.872515
 31
0.0
  0
LINE
  5
44E
330
147A
100
AcDbEntity
  8
DETAIL
100
AcDbLine
 10
202.403991
 20
635.7285440000001
 30
0.0
 11
24.459752
 21
635.9722780000002
 31
0.0
  0
LINE
  5
44F
330
147A
100
AcDbEntity
  8
DETAIL
100
AcDbLine
 10
212.373472
 20
615.7211160000001
 30
0.0
 11
14.435498
 21
615.9922360000003
 31
0.0
  0
LINE
  5
450
330
147A
100
AcDbEntity
  8
DETAIL
100
AcDbLine
 10
24.506502
 20
670.103718
 30
0.0
 11
202.450741
 21
669.8599839999999
 31
0.0
  0
LINE
  5
451
330
147A
100
AcDbEntity
  8
DETAIL
100
AcDbLine
 10
202.458762
 20
675.7160139999997
 30
0.0
 11
24.514523
 21
675.959748
 31
0.0
  0
LINE
  5
452
330
147A
100
AcDbEntity
  8
DETAIL
100
AcDbLine
 10
212.428244
 20
655.7085859999999
 30
0.0
 11
14.49027
 21
655.979706
 31
0.0
  0
LINE
  5
453
330
147A
100
AcDbEntity
  8
DETAIL
100
AcDbLine
 10
24.561274
 20
710.0911879999999
 30
0.0
 11
202.505513
 21
709.8474539999998
 31
0.0
  0
LINE
  5
454
330
147A
100
AcDbEntity
  8
DETAIL
100
AcDbLine
 10
202.513534
 20
715.703483
 30
0.0
 11
24.569295
 21
715.947217
 31
0.0
  0
LINE
  5
455
330
147A
100
AcDbEntity
  8
DETAIL
100
AcDbLine
 10
212.483016
 20
695.6960549999997
 30
0.0
 11
14.545042
 21
695.967175
 31
0.0
  0
LINE
  5
456
330
147A
100
AcDbEntity
  8
DETAIL
100
AcDbLine
 10
24.616046
 20
750.078657
 30
0.0
 11
202.560285
 21
749.834923
 31
0.0
  0
LINE
  5
457
330
147A
100
AcDbEntity
  8
DETAIL
100
AcDbLine
 10
202.568306
 20
755.6909519999996
 30
0.0
 11
24.624067
 21
755.934686
 31
0.0
  0
LINE
  5
458
330
147A
100
AcDbEntity
  8
DETAIL
100
AcDbLine
 10
212.537787
 20
735.683525
 30
0.0
 11
14.599813
 21
735.954645
 31
0.0
  0
LINE
  5
459
330
147A
100
AcDbEntity
  8
DETAIL
100
AcDbLine
 10
24.670817
 20
790.0661269999996
 30
0.0
 11
202.615056
 21
789.8223929999996
 31
0.0
  0
LINE
  5
45A
330
147A
100
AcDbEntity
  8
DETAIL
100
AcDbLine
 10
202.623077
 20
795.6784219999997
 30
0.0
 11
24.678838
 21
795.9221559999997
 31
0.0
  0
LINE
  5
45B
330
147A
100
AcDbEntity
  8
DETAIL
100
AcDbLine
 10
212.592559
 20
775.6709939999998
 30
0.0
 11
14.654585
 21
775.9421139999997
 31
0.0
  0
LINE
  5
45C
330
147A
100
AcDbEntity
  8
DETAIL
100
AcDbLine
 10
24.72558900000001
 20
830.0535959999999
 30
0.0
 11
202.669828
 21
829.8098619999999
 31
0.0
  0
LINE
  5
45D
330
147A
100
AcDbEntity
  8
DETAIL
100
AcDbLine
 10
202.677849
 20
835.665891
 30
0.0
 11
24.73361000000001
 21
835.909625
 31
0.0
  0
LINE
  5
45E
330
147A
100
AcDbEntity
  8
DETAIL
100
AcDbLine
 10
212.647331
 20
815.658464
 30
0.0
 11
14.709357
 21
815.9295829999999
 31
0.0
  0
LINE
  5
45F
330
147A
100
AcDbEntity
  8
DETAIL
100
AcDbLine
 10
24.780361
 20
870.041065
 30
0.0
 11
202.7246
 21
869.7973310000001
 31
0.0
  0
LINE
  5
460
330
147A
100
AcDbEntity
  8
DETAIL
100
AcDbLine
 10
202.732621
 20
875.6533609999996
 30
0.0
 11
24.788382
 21
875.897095
 31
0.0
  0
LINE
  5
461
330
147A
100
AcDbEntity
  8
DETAIL
100
AcDbLine
 10
212.702102
 20
855.645933
 30
0.0
 11
14.764129
 21
855.9170529999999
 31
0.0
  0
LINE
  5
462
330
147A
100
AcDbEntity
  8
DETAIL
100
AcDbLine
 10
24.835132
 20
910.028535
 30
0.0
 11
202.779371
 21
909.7848009999999
 31
0.0
  0
LINE
  5
463
330
147A
100
AcDbEntity
  8
DETAIL
100
AcDbLine
 10
202.787392
 20
915.64083
 30
0.0
 11
24.843153
 21
915.8845639999999
 31
0.0
  0
LINE
  5
464
330
147A
100
AcDbEntity
  8
DETAIL
100
AcDbLine
 10
212.756874
 20
895.6334029999997
 30
0.0
 11
14.8189
 21
895.904522
 31
0.0
  0
LINE
  5
465
330
147A
100
AcDbEntity
  8
DETAIL
100
AcDbLine
 10
24.889904
 20
950.0160039999999
 30
0.0
 11
202.834143
 21
949.7722699999997
 31
0.0
  0
LINE
  5
466
330
147A
100
AcDbEntity
  8
DETAIL
100
AcDbLine
 10
202.842164
 20
955.6283
 30
0.0
 11
24.897925
 21
955.872034
 31
0.0
  0
LINE
  5
467
330
147A
100
AcDbEntity
  8
DETAIL
100
AcDbLine
 10
212.811646
 20
935.6208719999999
 30
0.0
 11
14.873672
 21
935.8919919999998
 31
0.0
  0
LINE
  5
468
330
147A
100
AcDbEntity
  8
DETAIL
100
AcDbLine
 10
24.944676
 20
990.003474
 30
0.0
 11
202.888915
 21
989.75974
 31
0.0
  0
LINE
  5
469
330
147A
100
AcDbEntity
  8
DETAIL
100
AcDbLine
 10
202.896936
 20
995.6157689999999
 30
0.0
 11
24.952697
 21
995.8595029999999
 31
0.0
  0
LINE
  5
46A
330
147A
100
AcDbEntity
  8
DETAIL
100
AcDbLine
 10
212.866417
 20
975.608341
 30
0.0
 11
14.928444
 21
975.879461
 31
0.0
  0
LINE
  5
46B
330
147A
100
AcDbEntity
  8
DETAIL
100
AcDbLine
 10
24.999625
 20
1030.120943
 30
0.0
 11
202.943864
 21
1029.877209
 31
0.0
  0
LINE
  5
46C
330
147A
100
AcDbEntity
  8
DETAIL
100
AcDbLine
 10
202.951886
 20
1035.733238
 30
0.0
 11
25.007647
 21
1035.976972
 31
0.0
  0
LINE
  5
46D
330
147A
100
AcDbEntity
  8
DETAIL
100
AcDbLine
 10
212.921367
 20
1015.725811
 30
0.0
 11
14.983393
 21
1015.996931
 31
0.0
  0
ARC
  5
46E
330
147A
100
AcDbEntity
  8
DETAIL
100
AcDbCircle
 10
202.664156
 20
825.6690240000001
 30
0.0
 40
9.996876999999999
100
AcDbArc
 50
359.921521
 51
89.921521
  0
ARC
  5
46F
330
147A
100
AcDbEntity
  8
DETAIL
100
AcDbCircle
 10
418.3460219999998
 20
825.394146
 30
0.0
 40
9.996876999999999
100
AcDbArc
 50
359.921521
 51
89.921521
  0
ARC
  5
470
330
147A
100
AcDbEntity
  8
DETAIL
100
AcDbCircle
 10
240.401783
 20
825.63788
 30
0.0
 40
9.996876999999999
100
AcDbArc
 50
89.921521
 51
179.921521
  0
LWPOLYLINE
  5
471
330
147A
100
AcDbEntity
  8
DETAIL
100
AcDbPolyline
 90
        9
 70
     0
 43
0.0
 10
418.351694
 20
829.534984
 10
420.3018
 20
829.3964859999999
 10
422.176593
 20
828.991659
 10
423.9040239999998
 20
828.3360599999998
 10
425.417711
 20
827.4548819999999
 10
426.659483
 20
826.3819900000001
 10
427.5816179999998
 20
825.1586129999997
 10
428.1486809999998
 20
823.8317659999999
 10
428.338879
 20
822.452438
  0
LWPOLYLINE
  5
47C
330
147A
100
AcDbEntity
  8
DETAIL
100
AcDbPolyline
 90
        9
 70
     0
 43
0.0
 10
418.187379
 20
709.572575
 10
420.1374849999998
 20
709.434078
 10
422.0122779999998
 20
709.0292509999997
 10
423.7397089999998
 20
708.373652
 10
425.253396
 20
707.492474
 10
426.495167
 20
706.419582
 10
427.417303
 20
705.196205
 10
427.984366
 20
703.869358
 10
428.1745639999998
 20
702.4900299999996
  0
ARC
  5
487
330
147A
100
AcDbEntity
  8
DETAIL
100
AcDbCircle
 10
418.1817069999998
 20
705.4317369999997
 30
0.0
 40
9.996876999999999
100
AcDbArc
 50
359.921521
 51
89.921521
  0
LWPOLYLINE
  5
488
330
147A
100
AcDbEntity
  8
DETAIL
100
AcDbPolyline
 90
        9
 70
     0
 43
0.0
 10
418.242151
 20
749.5600449999997
 10
420.1922569999998
 20
749.4215469999996
 10
422.0670489999998
 20
749.0167199999997
 10
423.794481
 20
748.361121
 10
425.3081679999998
 20
747.4799429999997
 10
426.549939
 20
746.4070509999997
 10
427.472075
 20
745.183674
 10
428.039138
 20
743.8568269999997
 10
428.2293359999998
 20
742.4774989999997
  0
ARC
  5
493
330
147A
100
AcDbEntity
  8
DETAIL
100
AcDbCircle
 10
418.2364789999998
 20
745.419207
 30
0.0
 40
9.996876999999999
100
AcDbArc
 50
359.921521
 51
89.921521
  0
LWPOLYLINE
  5
494
330
147A
100
AcDbEntity
  8
DETAIL
100
AcDbPolyline
 90
        9
 70
     0
 43
0.0
 10
418.296923
 20
789.547514
 10
420.2470289999998
 20
789.4090169999997
 10
422.1218209999998
 20
789.0041899999999
 10
423.849253
 20
788.3485899999998
 10
425.3629389999998
 20
787.4674129999997
 10
426.604711
 20
786.3945209999997
 10
427.5268469999998
 20
785.171144
 10
428.093909
 20
783.844297
 10
428.2841079999998
 20
782.464969
  0
ARC
  5
49F
330
147A
100
AcDbEntity
  8
DETAIL
100
AcDbCircle
 10
418.2912509999998
 20
785.4066759999997
 30
0.0
 40
9.996876999999999
100
AcDbArc
 50
359.921521
 51
89.921521
  0
LWPOLYLINE
  5
4A0
330
147A
100
AcDbEntity
  8
DETAIL
100
AcDbPolyline
 90
        9
 70
     0
 43
0.0
 10
418.0778359999997
 20
629.5976369999997
 10
420.027942
 20
629.4591389999999
 10
421.902734
 20
629.0543119999997
 10
423.6301659999998
 20
628.398713
 10
425.1438529999998
 20
627.5175349999998
 10
426.3856239999998
 20
626.4446429999998
 10
427.3077599999998
 20
625.221266
 10
427.8748229999997
 20
623.8944189999998
 10
428.065021
 20
622.5150909999999
  0
ARC
  5
4AB
330
147A
100
AcDbEntity
  8
DETAIL
100
AcDbCircle
 10
418.0721639999998
 20
625.4567980000001
 30
0.0
 40
9.996876999999999
100
AcDbArc
 50
359.921521
 51
89.921521
  0
LWPOLYLINE
  5
4AC
330
147A
100
AcDbEntity
  8
DETAIL
100
AcDbPolyline
 90
        9
 70
     0
 43
0.0
 10
418.1326069999998
 20
669.5851059999998
 10
420.0827139999998
 20
669.4466089999997
 10
421.9575059999998
 20
669.041782
 10
423.6849379999998
 20
668.3861819999998
 10
425.1986239999998
 20
667.505005
 10
426.440396
 20
666.4321119999997
 10
427.3625319999998
 20
665.2087349999998
 10
427.9295939999998
 20
663.881888
 10
428.119792
 20
662.50256
  0
ARC
  5
4B7
330
147A
100
AcDbEntity
  8
DETAIL
100
AcDbCircle
 10
418.1269359999998
 20
665.4442679999997
 30
0.0
 40
9.996876999999999
100
AcDbArc
 50
359.921521
 51
89.921521
  0
LINE
  5
4B8
330
147A
100
AcDbEntity
  8
DETAIL
100
AcDbLine
 10
428.0553379999998
 20
615.446238
 30
0.0
 11
230.117365
 21
615.717358
 31
0.0
  0
LINE
  5
4B9
330
147A
100
AcDbEntity
  8
DETAIL
100
AcDbLine
 10
428.1101099999998
 20
655.433708
 30
0.0
 11
230.172136
 21
655.704828
 31
0.0
  0
LINE
  5
4BA
330
147A
100
AcDbEntity
  8
DETAIL
100
AcDbLine
 10
428.164882
 20
695.4211769999998
 30
0.0
 11
230.226908
 21
695.6922969999999
 31
0.0
  0
LINE
  5
4BB
330
147A
100
AcDbEntity
  8
DETAIL
100
AcDbLine
 10
428.219654
 20
735.4086469999997
 30
0.0
 11
230.28168
 21
735.6797659999998
 31
0.0
  0
LINE
  5
4BC
330
147A
100
AcDbEntity
  8
DETAIL
100
AcDbLine
 10
428.274425
 20
775.396116
 30
0.0
 11
230.336451
 21
775.667236
 31
0.0
  0
LINE
  5
4BD
330
147A
100
AcDbEntity
  8
DETAIL
100
AcDbLine
 10
428.3291969999998
 20
815.383585
 30
0.0
 11
230.391223
 21
815.654705
 31
0.0
  0
LINE
  5
4BE
330
147A
100
AcDbEntity
  8
DETAIL
100
AcDbLine
 10
428.0690309999998
 20
625.4431059999998
 30
0.0
 11
428.0553379999998
 21
615.446238
 31
0.0
  0
LINE
  5
4BF
330
147A
100
AcDbEntity
  8
DETAIL
100
AcDbLine
 10
428.1238029999998
 20
665.4305749999998
 30
0.0
 11
428.1101099999998
 21
655.433708
 31
0.0
  0
LINE
  5
4C0
330
147A
100
AcDbEntity
  8
DETAIL
100
AcDbLine
 10
439.316918
 20
595.2538889999997
 30
0.0
 11
440.316605
 21
595.25252
 31
0.0
  0
LINE
  5
4C1
330
147A
100
AcDbEntity
  8
DETAIL
100
AcDbLine
 10
439.316918
 20
595.2538889999997
 30
0.0
 11
439.3155489999998
 21
594.2542019999997
 31
0.0
  0
LINE
  5
4C2
330
147A
100
AcDbEntity
  8
DETAIL
100
AcDbLine
 10
440.014161
 20
593.4003799999998
 30
0.0
 11
440.813911
 21
593.399285
 31
0.0
  0
LINE
  5
4C3
330
147A
100
AcDbEntity
  8
DETAIL
100
AcDbLine
 10
440.015257
 20
594.2001289999998
 30
0.0
 11
440.014161
 21
593.4003799999998
 31
0.0
  0
LINE
  5
4C4
330
147A
100
AcDbEntity
  8
DETAIL
100
AcDbLine
 10
428.178575
 20
705.418044
 30
0.0
 11
428.164882
 21
695.4211769999998
 31
0.0
  0
LINE
  5
4C5
330
147A
100
AcDbEntity
  8
DETAIL
100
AcDbLine
 10
428.233346
 20
745.4055139999996
 30
0.0
 11
428.219654
 21
735.4086469999997
 31
0.0
  0
LINE
  5
4C6
330
147A
100
AcDbEntity
  8
DETAIL
100
AcDbLine
 10
428.288118
 20
785.3929829999997
 30
0.0
 11
428.274425
 21
775.396116
 31
0.0
  0
LINE
  5
4C7
330
147A
100
AcDbEntity
  8
DETAIL
100
AcDbLine
 10
428.34289
 20
825.380453
 30
0.0
 11
428.3291969999998
 21
815.383585
 31
0.0
  0
LINE
  5
4C8
330
147A
100
AcDbEntity
  8
DETAIL
100
AcDbLine
 10
240.133597
 20
629.841371
 30
0.0
 11
418.0778359999997
 21
629.5976369999997
 31
0.0
  0
LINE
  5
4C9
330
147A
100
AcDbEntity
  8
DETAIL
100
AcDbLine
 10
418.0858569999998
 20
635.4536659999999
 30
0.0
 11
240.141618
 21
635.6974
 31
0.0
  0
LINE
  5
4CA
330
147A
100
AcDbEntity
  8
DETAIL
100
AcDbLine
 10
240.188368
 20
669.82884
 30
0.0
 11
418.1326069999998
 21
669.5851059999998
 31
0.0
  0
LINE
  5
4CB
330
147A
100
AcDbEntity
  8
DETAIL
100
AcDbLine
 10
418.1406289999998
 20
675.4411349999998
 30
0.0
 11
240.19639
 21
675.6848690000001
 31
0.0
  0
LINE
  5
4CC
330
147A
100
AcDbEntity
  8
DETAIL
100
AcDbLine
 10
212.387165
 20
625.717984
 30
0.0
 11
212.373472
 21
615.7211160000001
 31
0.0
  0
LINE
  5
4CD
330
147A
100
AcDbEntity
  8
DETAIL
100
AcDbLine
 10
212.441937
 20
665.705453
 30
0.0
 11
212.428244
 21
655.7085859999999
 31
0.0
  0
LWPOLYLINE
  5
4CE
330
147A
100
AcDbEntity
  8
DETAIL
100
AcDbPolyline
 90
        9
 70
     0
 43
0.0
 10
202.39597
 20
629.872515
 10
204.346076
 20
629.734017
 10
206.220868
 20
629.32919
 10
207.9483
 20
628.6735909999999
 10
209.461986
 20
627.792413
 10
210.703758
 20
626.7195209999997
 10
211.625894
 20
625.4961439999998
 10
212.192956
 20
624.169297
 10
212.383155
 20
622.789969
  0
ARC
  5
4D9
330
147A
100
AcDbEntity
  8
DETAIL
100
AcDbCircle
 10
202.390298
 20
625.731677
 30
0.0
 40
9.996876999999999
100
AcDbArc
 50
359.921521
 51
89.921521
  0
LWPOLYLINE
  5
4DA
330
147A
100
AcDbEntity
  8
DETAIL
100
AcDbPolyline
 90
        9
 70
     0
 43
0.0
 10
202.450741
 20
669.8599839999999
 10
204.400847
 20
669.721487
 10
206.27564
 20
669.3166599999998
 10
208.003071
 20
668.6610599999998
 10
209.516758
 20
667.779883
 10
210.75853
 20
666.70699
 10
211.680665
 20
665.483614
 10
212.247728
 20
664.1567659999998
 10
212.437926
 20
662.7774389999999
  0
ARC
  5
4E5
330
147A
100
AcDbEntity
  8
DETAIL
100
AcDbCircle
 10
202.445069
 20
665.7191459999998
 30
0.0
 40
9.996876999999999
100
AcDbArc
 50
359.921521
 51
89.921521
  0
LINE
  5
4E6
330
147A
100
AcDbEntity
  8
DETAIL
100
AcDbLine
 10
230.131058
 20
625.7142250000002
 30
0.0
 11
230.117365
 21
615.717358
 31
0.0
  0
LINE
  5
4E7
330
147A
100
AcDbEntity
  8
DETAIL
100
AcDbLine
 10
230.185829
 20
665.701695
 30
0.0
 11
230.172136
 21
655.704828
 31
0.0
  0
LWPOLYLINE
  5
4E8
330
147A
100
AcDbEntity
  8
DETAIL
100
AcDbPolyline
 90
        9
 70
     0
 43
0.0
 10
230.127047
 20
622.786211
 10
230.321023
 20
624.1650120000001
 10
230.891719
 20
625.4903009999998
 10
231.817202
 20
626.7111469999997
 10
233.061908
 20
627.7806339999997
 10
234.578003
 20
628.657661
 10
236.307224
 20
629.308526
 10
238.183119
 20
629.708216
 10
240.133597
 20
629.841371
  0
ARC
  5
4F3
330
147A
100
AcDbEntity
  8
DETAIL
100
AcDbCircle
 10
240.127925
 20
625.7005330000001
 30
0.0
 40
9.996876999999999
100
AcDbArc
 50
89.921521
 51
179.921521
  0
LWPOLYLINE
  5
4F4
330
147A
100
AcDbEntity
  8
DETAIL
100
AcDbPolyline
 90
        9
 70
     0
 43
0.0
 10
230.181819
 20
662.77368
 10
230.375795
 20
664.1524819999998
 10
230.94649
 20
665.4777709999997
 10
231.871974
 20
666.698617
 10
233.11668
 20
667.768103
 10
234.632775
 20
668.6451309999998
 10
236.361996
 20
669.2959959999998
 10
238.23789
 20
669.6956849999998
 10
240.188368
 20
669.82884
  0
ARC
  5
4FF
330
147A
100
AcDbEntity
  8
DETAIL
100
AcDbCircle
 10
240.182697
 20
665.688002
 30
0.0
 40
9.996876999999999
100
AcDbArc
 50
89.921521
 51
179.921521
  0
LINE
  5
500
330
147A
100
AcDbEntity
  8
DETAIL
100
AcDbLine
 10
240.407455
 20
829.778718
 30
0.0
 11
418.351694
 21
829.534984
 31
0.0
  0
LINE
  5
501
330
147A
100
AcDbEntity
  8
DETAIL
100
AcDbLine
 10
418.3597149999997
 20
835.391013
 30
0.0
 11
240.415476
 21
835.6347469999999
 31
0.0
  0
LINE
  5
502
330
147A
100
AcDbEntity
  8
DETAIL
100
AcDbLine
 10
240.24314
 20
709.8163089999997
 30
0.0
 11
418.187379
 21
709.572575
 31
0.0
  0
LINE
  5
503
330
147A
100
AcDbEntity
  8
DETAIL
100
AcDbLine
 10
418.1954
 20
715.4286049999998
 30
0.0
 11
240.251161
 21
715.6723389999997
 31
0.0
  0
LINE
  5
504
330
147A
100
AcDbEntity
  8
DETAIL
100
AcDbLine
 10
240.297912
 20
749.8037789999997
 30
0.0
 11
418.242151
 21
749.5600449999997
 31
0.0
  0
LINE
  5
505
330
147A
100
AcDbEntity
  8
DETAIL
100
AcDbLine
 10
418.250172
 20
755.416074
 30
0.0
 11
240.305933
 21
755.659808
 31
0.0
  0
LINE
  5
506
330
147A
100
AcDbEntity
  8
DETAIL
100
AcDbLine
 10
240.352684
 20
789.791248
 30
0.0
 11
418.296923
 21
789.547514
 31
0.0
  0
LINE
  5
507
330
147A
100
AcDbEntity
  8
DETAIL
100
AcDbLine
 10
418.3049439999998
 20
795.403544
 30
0.0
 11
240.360705
 21
795.647278
 31
0.0
  0
LINE
  5
508
330
147A
100
AcDbEntity
  8
DETAIL
100
AcDbLine
 10
212.496708
 20
705.6929229999998
 30
0.0
 11
212.483016
 21
695.6960549999997
 31
0.0
  0
LINE
  5
509
330
147A
100
AcDbEntity
  8
DETAIL
100
AcDbLine
 10
212.55148
 20
745.6803919999996
 30
0.0
 11
212.537787
 21
735.683525
 31
0.0
  0
LINE
  5
50A
330
147A
100
AcDbEntity
  8
DETAIL
100
AcDbLine
 10
212.606252
 20
785.667862
 30
0.0
 11
212.592559
 21
775.6709939999998
 31
0.0
  0
LINE
  5
50B
330
147A
100
AcDbEntity
  8
DETAIL
100
AcDbLine
 10
212.661024
 20
825.6553309999997
 30
0.0
 11
212.647331
 21
815.658464
 31
0.0
  0
LWPOLYLINE
  5
50C
330
147A
100
AcDbEntity
  8
DETAIL
100
AcDbPolyline
 90
        9
 70
     0
 43
0.0
 10
202.669828
 20
829.8098619999999
 10
204.619934
 20
829.671365
 10
206.494726
 20
829.2665379999997
 10
208.222158
 20
828.610938
 10
209.735845
 20
827.7297610000001
 10
210.977616
 20
826.6568679999997
 10
211.899752
 20
825.433491
 10
212.466815
 20
824.1066439999999
 10
212.657013
 20
822.7273159999999
  0
LWPOLYLINE
  5
517
330
147A
100
AcDbEntity
  8
DETAIL
100
AcDbPolyline
 90
        9
 70
     0
 43
0.0
 10
202.505513
 20
709.8474539999998
 10
204.455619
 20
709.7089559999998
 10
206.330411
 20
709.304129
 10
208.057843
 20
708.6485299999999
 10
209.57153
 20
707.7673519999997
 10
210.8133009999999
 20
706.6944599999999
 10
211.735437
 20
705.471083
 10
212.3025
 20
704.1442359999997
 10
212.492698
 20
702.7649079999996
  0
ARC
  5
522
330
147A
100
AcDbEntity
  8
DETAIL
100
AcDbCircle
 10
202.499841
 20
705.7066160000001
 30
0.0
 40
9.996876999999999
100
AcDbArc
 50
359.921521
 51
89.921521
  0
LWPOLYLINE
  5
523
330
147A
100
AcDbEntity
  8
DETAIL
100
AcDbPolyline
 90
        9
 70
     0
 43
0.0
 10
202.560285
 20
749.834923
 10
204.510391
 20
749.6964259999997
 10
206.385183
 20
749.291599
 10
208.112615
 20
748.6359989999997
 10
209.626301
 20
747.754822
 10
210.868073
 20
746.6819289999997
 10
211.790209
 20
745.4585530000001
 10
212.357272
 20
744.131705
 10
212.54747
 20
742.7523769999996
  0
ARC
  5
52E
330
147A
100
AcDbEntity
  8
DETAIL
100
AcDbCircle
 10
202.554613
 20
745.6940849999997
 30
0.0
 40
9.996876999999999
100
AcDbArc
 50
359.921521
 51
89.921521
  0
LWPOLYLINE
  5
52F
330
147A
100
AcDbEntity
  8
DETAIL
100
AcDbPolyline
 90
        9
 70
     0
 43
0.0
 10
202.615056
 20
789.8223929999996
 10
204.565162
 20
789.683895
 10
206.439955
 20
789.2790679999997
 10
208.167386
 20
788.623469
 10
209.681073
 20
787.742291
 10
210.922845
 20
786.6693989999999
 10
211.84498
 20
785.4460219999999
 10
212.412043
 20
784.1191750000001
 10
212.602241
 20
782.7398469999997
  0
ARC
  5
53A
330
147A
100
AcDbEntity
  8
DETAIL
100
AcDbCircle
 10
202.609384
 20
785.681554
 30
0.0
 40
9.996876999999999
100
AcDbArc
 50
359.921521
 51
89.921521
  0
LINE
  5
53B
330
147A
100
AcDbEntity
  8
DETAIL
100
AcDbLine
 10
230.240601
 20
705.6891639999999
 30
0.0
 11
230.226908
 21
695.6922969999999
 31
0.0
  0
LINE
  5
53C
330
147A
100
AcDbEntity
  8
DETAIL
100
AcDbLine
 10
230.295373
 20
745.676634
 30
0.0
 11
230.28168
 21
735.6797659999998
 31
0.0
  0
LINE
  5
53D
330
147A
100
AcDbEntity
  8
DETAIL
100
AcDbLine
 10
230.350144
 20
785.6641029999997
 30
0.0
 11
230.336451
 21
775.667236
 31
0.0
  0
LINE
  5
53E
330
147A
100
AcDbEntity
  8
DETAIL
100
AcDbLine
 10
230.404916
 20
825.651573
 30
0.0
 11
230.391223
 21
815.654705
 31
0.0
  0
LWPOLYLINE
  5
53F
330
147A
100
AcDbEntity
  8
DETAIL
100
AcDbPolyline
 90
        9
 70
     0
 43
0.0
 10
230.400905
 20
822.723558
 10
230.594881
 20
824.10236
 10
231.165577
 20
825.4276480000001
 10
232.091061
 20
826.6484939999996
 10
233.335767
 20
827.7179809999999
 10
234.851862
 20
828.595009
 10
236.581083
 20
829.2458729999998
 10
238.456977
 20
829.645563
 10
240.407455
 20
829.778718
  0
LWPOLYLINE
  5
54A
330
147A
100
AcDbEntity
  8
DETAIL
100
AcDbPolyline
 90
        9
 70
     0
 43
0.0
 10
230.23659
 20
702.76115
 10
230.430566
 20
704.1399509999997
 10
231.001262
 20
705.46524
 10
231.926746
 20
706.6860860000002
 10
233.171452
 20
707.755573
 10
234.687546
 20
708.6326
 10
236.416768
 20
709.2834650000003
 10
238.292662
 20
709.6831549999999
 10
240.24314
 20
709.8163089999997
  0
ARC
  5
555
330
147A
100
AcDbEntity
  8
DETAIL
100
AcDbCircle
 10
240.237468
 20
705.6754709999997
 30
0.0
 40
9.996876999999999
100
AcDbArc
 50
89.921521
 51
179.921521
  0
LWPOLYLINE
  5
556
330
147A
100
AcDbEntity
  8
DETAIL
100
AcDbPolyline
 90
        9
 70
     0
 43
0.0
 10
230.291362
 20
742.7486189999997
 10
230.485338
 20
744.127421
 10
231.056034
 20
745.4527099999997
 10
231.981517
 20
746.6735559999997
 10
233.226223
 20
747.7430419999997
 10
234.742318
 20
748.62007
 10
236.471539
 20
749.270935
 10
238.347434
 20
749.6706239999999
 10
240.297912
 20
749.8037789999997
  0
ARC
  5
561
330
147A
100
AcDbEntity
  8
DETAIL
100
AcDbCircle
 10
240.29224
 20
745.662941
 30
0.0
 40
9.996876999999999
100
AcDbArc
 50
89.921521
 51
179.921521
  0
LWPOLYLINE
  5
562
330
147A
100
AcDbEntity
  8
DETAIL
100
AcDbPolyline
 90
        9
 70
     0
 43
0.0
 10
230.346134
 20
782.736089
 10
230.54011
 20
784.1148899999998
 10
231.110805
 20
785.4401789999997
 10
232.036289
 20
786.6610249999999
 10
233.280995
 20
787.7305119999999
 10
234.79709
 20
788.6075389999997
 10
236.526311
 20
789.258404
 10
238.402205
 20
789.658094
 10
240.352684
 20
789.791248
  0
ARC
  5
56D
330
147A
100
AcDbEntity
  8
DETAIL
100
AcDbCircle
 10
240.347012
 20
785.6504099999997
 30
0.0
 40
9.996876999999999
100
AcDbArc
 50
89.921521
 51
179.921521
  0
LWPOLYLINE
  5
56E
330
147A
100
AcDbEntity
  8
DETAIL
100
AcDbPolyline
 90
        9
 70
     0
 43
0.0
 10
418.625731
 20
1029.602331
 10
420.5758369999998
 20
1029.463833
 10
422.4506289999998
 20
1029.059006
 10
424.178061
 20
1028.403407
 10
425.691748
 20
1027.522229
 10
426.9335189999998
 20
1026.449337
 10
427.8556549999998
 20
1025.22596
 10
428.422718
 20
1023.899113
 10
428.6129159999998
 20
1022.519785
  0
ARC
  5
579
330
147A
100
AcDbEntity
  8
DETAIL
100
AcDbCircle
 10
418.6200589999998
 20
1025.461493
 30
0.0
 40
9.996876999999999
100
AcDbArc
 50
359.921521
 51
89.921521
  0
LWPOLYLINE
  5
57A
330
147A
100
AcDbEntity
  8
DETAIL
100
AcDbPolyline
 90
        9
 70
     0
 43
0.0
 10
418.570781
 20
989.4848620000001
 10
420.5208869999998
 20
989.3463640000003
 10
422.3956789999999
 20
988.941537
 10
424.123111
 20
988.2859379999999
 10
425.636798
 20
987.40476
 10
426.878569
 20
986.331868
 10
427.800705
 20
985.1084909999999
 10
428.3677679999998
 20
983.7816439999999
 10
428.557966
 20
982.4023160000001
  0
LWPOLYLINE
  5
585
330
147A
100
AcDbEntity
  8
DETAIL
100
AcDbPolyline
 90
        9
 70
     0
 43
0.0
 10
418.406466
 20
869.5224529999999
 10
420.3565719999998
 20
869.383956
 10
422.231364
 20
868.9791289999996
 10
423.9587959999998
 20
868.3235289999997
 10
425.4724829999998
 20
867.4423519999997
 10
426.714254
 20
866.369459
 10
427.6363899999998
 20
865.1460829999999
 10
428.203453
 20
863.8192349999997
 10
428.393651
 20
862.4399079999998
  0
ARC
  5
590
330
147A
100
AcDbEntity
  8
DETAIL
100
AcDbCircle
 10
418.4007939999998
 20
865.381615
 30
0.0
 40
9.996876999999999
100
AcDbArc
 50
359.921521
 51
89.921521
  0
LWPOLYLINE
  5
591
330
147A
100
AcDbEntity
  8
DETAIL
100
AcDbPolyline
 90
        9
 70
     0
 43
0.0
 10
418.4612379999999
 20
909.509923
 10
420.4113439999998
 20
909.3714250000001
 10
422.286136
 20
908.9665980000003
 10
424.0135679999998
 20
908.310999
 10
425.5272539999998
 20
907.429821
 10
426.769026
 20
906.356929
 10
427.6911619999999
 20
905.133552
 10
428.2582249999999
 20
903.806705
 10
428.448423
 20
902.427377
  0
ARC
  5
59C
330
147A
100
AcDbEntity
  8
DETAIL
100
AcDbCircle
 10
418.455566
 20
905.3690849999997
 30
0.0
 40
9.996876999999999
100
AcDbArc
 50
359.921521
 51
89.921521
  0
LWPOLYLINE
  5
59D
330
147A
100
AcDbEntity
  8
DETAIL
100
AcDbPolyline
 90
        9
 70
     0
 43
0.0
 10
418.516009
 20
949.4973919999999
 10
420.466115
 20
949.3588949999999
 10
422.340908
 20
948.9540680000001
 10
424.068339
 20
948.2984679999999
 10
425.582026
 20
947.417291
 10
426.8237980000001
 20
946.3443979999999
 10
427.745933
 20
945.121022
 10
428.312996
 20
943.7941739999999
 10
428.503194
 20
942.4148459999999
  0
ARC
  5
5A8
330
147A
100
AcDbEntity
  8
DETAIL
100
AcDbCircle
 10
418.510337
 20
945.3565539999997
 30
0.0
 40
9.996876999999999
100
AcDbArc
 50
359.921521
 51
89.921521
  0
ARC
  5
5A9
330
147A
100
AcDbEntity
  8
DETAIL
100
AcDbCircle
 10
418.565109
 20
985.3440230000003
 30
0.0
 40
9.996876999999999
100
AcDbArc
 50
359.921521
 51
89.921521
  0
LINE
  5
5AA
330
147A
100
AcDbEntity
  8
DETAIL
100
AcDbLine
 10
428.3839689999998
 20
855.3710549999998
 30
0.0
 11
230.445995
 21
855.6421749999996
 31
0.0
  0
LINE
  5
5AB
330
147A
100
AcDbEntity
  8
DETAIL
100
AcDbLine
 10
428.43874
 20
895.358524
 30
0.0
 11
230.500766
 21
895.629644
 31
0.0
  0
LINE
  5
5AC
330
147A
100
AcDbEntity
  8
DETAIL
100
AcDbLine
 10
428.493512
 20
935.3459939999996
 30
0.0
 11
230.555538
 21
935.617114
 31
0.0
  0
LINE
  5
5AD
330
147A
100
AcDbEntity
  8
DETAIL
100
AcDbLine
 10
428.5482839999998
 20
975.3334630000001
 30
0.0
 11
230.61031
 21
975.6045830000001
 31
0.0
  0
LINE
  5
5AE
330
147A
100
AcDbEntity
  8
DETAIL
100
AcDbLine
 10
428.603233
 20
1015.450933
 30
0.0
 11
230.66526
 21
1015.722052
 31
0.0
  0
LINE
  5
5AF
330
147A
100
AcDbEntity
  8
DETAIL
100
AcDbLine
 10
428.5619769999998
 20
985.3303309999999
 30
0.0
 11
428.5482839999998
 21
975.3334630000001
 31
0.0
  0
LINE
  5
5B0
330
147A
100
AcDbEntity
  8
DETAIL
100
AcDbLine
 10
428.397661
 20
865.367922
 30
0.0
 11
428.3839689999998
 21
855.3710549999998
 31
0.0
  0
LINE
  5
5B1
330
147A
100
AcDbEntity
  8
DETAIL
100
AcDbLine
 10
428.4524329999999
 20
905.3553919999997
 30
0.0
 11
428.43874
 21
895.358524
 31
0.0
  0
LINE
  5
5B2
330
147A
100
AcDbEntity
  8
DETAIL
100
AcDbLine
 10
428.507205
 20
945.3428609999999
 30
0.0
 11
428.493512
 21
935.3459939999996
 31
0.0
  0
LINE
  5
5B3
330
147A
100
AcDbEntity
  8
DETAIL
100
AcDbLine
 10
428.616926
 20
1025.4478
 30
0.0
 11
428.603233
 21
1015.450933
 31
0.0
  0
ARC
  5
5B4
330
147A
100
AcDbEntity
  8
DETAIL
100
AcDbCircle
 10
202.883243
 20
985.618902
 30
0.0
 40
9.996876999999999
100
AcDbArc
 50
359.921521
 51
89.921521
  0
ARC
  5
5B5
330
147A
100
AcDbEntity
  8
DETAIL
100
AcDbCircle
 10
240.62087
 20
985.587757
 30
0.0
 40
9.996876999999999
100
AcDbArc
 50
89.921521
 51
179.921521
  0
LINE
  5
5B6
330
147A
100
AcDbEntity
  8
DETAIL
100
AcDbLine
 10
240.462227
 20
869.7661869999999
 30
0.0
 11
418.406466
 21
869.5224529999999
 31
0.0
  0
LINE
  5
5B7
330
147A
100
AcDbEntity
  8
DETAIL
100
AcDbLine
 10
418.4144869999998
 20
875.3784829999997
 30
0.0
 11
240.470248
 21
875.6222169999999
 31
0.0
  0
LINE
  5
5B8
330
147A
100
AcDbEntity
  8
DETAIL
100
AcDbLine
 10
240.516999
 20
909.753657
 30
0.0
 11
418.4612379999999
 21
909.509923
 31
0.0
  0
LINE
  5
5B9
330
147A
100
AcDbEntity
  8
DETAIL
100
AcDbLine
 10
418.469259
 20
915.3659519999999
 30
0.0
 11
240.52502
 21
915.6096859999999
 31
0.0
  0
LINE
  5
5BA
330
147A
100
AcDbEntity
  8
DETAIL
100
AcDbLine
 10
240.57177
 20
949.7411259999999
 30
0.0
 11
418.516009
 21
949.4973919999999
 31
0.0
  0
LINE
  5
5BB
330
147A
100
AcDbEntity
  8
DETAIL
100
AcDbLine
 10
418.52403
 20
955.3534210000002
 30
0.0
 11
240.579791
 21
955.597155
 31
0.0
  0
LINE
  5
5BC
330
147A
100
AcDbEntity
  8
DETAIL
100
AcDbLine
 10
240.626542
 20
989.7285960000001
 30
0.0
 11
418.570781
 21
989.4848620000001
 31
0.0
  0
LINE
  5
5BD
330
147A
100
AcDbEntity
  8
DETAIL
100
AcDbLine
 10
212.88011
 20
985.605209
 30
0.0
 11
212.866417
 21
975.608341
 31
0.0
  0
LINE
  5
5BE
330
147A
100
AcDbEntity
  8
DETAIL
100
AcDbLine
 10
212.715795
 20
865.6427999999998
 30
0.0
 11
212.702102
 21
855.645933
 31
0.0
  0
LINE
  5
5BF
330
147A
100
AcDbEntity
  8
DETAIL
100
AcDbLine
 10
212.770567
 20
905.6302699999999
 30
0.0
 11
212.756874
 21
895.6334029999997
 31
0.0
  0
LINE
  5
5C0
330
147A
100
AcDbEntity
  8
DETAIL
100
AcDbLine
 10
212.825339
 20
945.617739
 30
0.0
 11
212.811646
 21
935.6208719999999
 31
0.0
  0
LWPOLYLINE
  5
5C1
330
147A
100
AcDbEntity
  8
DETAIL
100
AcDbPolyline
 90
        9
 70
     0
 43
0.0
 10
202.888915
 20
989.75974
 10
204.839021
 20
989.6212420000001
 10
206.713813
 20
989.2164149999999
 10
208.441245
 20
988.560816
 10
209.954932
 20
987.679638
 10
211.196703
 20
986.606746
 10
212.118839
 20
985.383369
 10
212.685902
 20
984.056522
 10
212.8761
 20
982.677194
  0
LWPOLYLINE
  5
5CC
330
147A
100
AcDbEntity
  8
DETAIL
100
AcDbPolyline
 90
        9
 70
     0
 43
0.0
 10
202.7246
 20
869.7973310000001
 10
204.674706
 20
869.6588339999998
 10
206.549498
 20
869.2540069999999
 10
208.27693
 20
868.5984079999997
 10
209.790616
 20
867.7172299999996
 10
211.032388
 20
866.6443379999996
 10
211.954524
 20
865.4209609999996
 10
212.521587
 20
864.094114
 10
212.711785
 20
862.7147859999999
  0
ARC
  5
5D7
330
147A
100
AcDbEntity
  8
DETAIL
100
AcDbCircle
 10
202.718928
 20
865.6564929999998
 30
0.0
 40
9.996876999999999
100
AcDbArc
 50
359.921521
 51
89.921521
  0
LWPOLYLINE
  5
5D8
330
147A
100
AcDbEntity
  8
DETAIL
100
AcDbPolyline
 90
        9
 70
     0
 43
0.0
 10
202.779371
 20
909.7848009999999
 10
204.729477
 20
909.646303
 10
206.60427
 20
909.241476
 10
208.331701
 20
908.5858769999999
 10
209.845388
 20
907.7046989999999
 10
211.08716
 20
906.6318069999999
 10
212.009295
 20
905.4084299999999
 10
212.576358
 20
904.0815829999999
 10
212.766556
 20
902.7022549999999
  0
ARC
  5
5E3
330
147A
100
AcDbEntity
  8
DETAIL
100
AcDbCircle
 10
202.7737
 20
905.6439629999999
 30
0.0
 40
9.996876999999999
100
AcDbArc
 50
359.921521
 51
89.921521
  0
LWPOLYLINE
  5
5E4
330
147A
100
AcDbEntity
  8
DETAIL
100
AcDbPolyline
 90
        9
 70
     0
 43
0.0
 10
202.834143
 20
949.7722699999997
 10
204.784249
 20
949.633773
 10
206.659042
 20
949.228946
 10
208.386473
 20
948.5733460000004
 10
209.90016
 20
947.6921690000001
 10
211.141931
 20
946.619276
 10
212.064067
 20
945.3958999999999
 10
212.63113
 20
944.0690530000001
 10
212.821328
 20
942.6897249999999
  0
ARC
  5
5EF
330
147A
100
AcDbEntity
  8
DETAIL
100
AcDbCircle
 10
202.828471
 20
945.631432
 30
0.0
 40
9.996876999999999
100
AcDbArc
 50
359.921521
 51
89.921521
  0
LINE
  5
5F0
330
147A
100
AcDbEntity
  8
DETAIL
100
AcDbLine
 10
230.624003
 20
985.60145
 30
0.0
 11
230.61031
 21
975.6045830000001
 31
0.0
  0
LINE
  5
5F1
330
147A
100
AcDbEntity
  8
DETAIL
100
AcDbLine
 10
230.459688
 20
865.6390420000001
 30
0.0
 11
230.445995
 21
855.6421749999996
 31
0.0
  0
LINE
  5
5F2
330
147A
100
AcDbEntity
  8
DETAIL
100
AcDbLine
 10
230.514459
 20
905.6265119999999
 30
0.0
 11
230.500766
 21
895.629644
 31
0.0
  0
LINE
  5
5F3
330
147A
100
AcDbEntity
  8
DETAIL
100
AcDbLine
 10
230.569231
 20
945.6139809999999
 30
0.0
 11
230.555538
 21
935.617114
 31
0.0
  0
LWPOLYLINE
  5
5F4
330
147A
100
AcDbEntity
  8
DETAIL
100
AcDbPolyline
 90
        9
 70
     0
 43
0.0
 10
230.619992
 20
982.6734360000001
 10
230.813968
 20
984.0522369999996
 10
231.384664
 20
985.377526
 10
232.3101470000001
 20
986.598372
 10
233.554853
 20
987.667859
 10
235.070948
 20
988.5448859999996
 10
236.800169
 20
989.1957509999999
 10
238.676064
 20
989.5954409999999
 10
240.626542
 20
989.7285960000001
  0
LWPOLYLINE
  5
5FF
330
147A
100
AcDbEntity
  8
DETAIL
100
AcDbPolyline
 90
        9
 70
     0
 43
0.0
 10
230.455677
 20
862.7110269999999
 10
230.649653
 20
864.0898289999999
 10
231.220349
 20
865.4151179999999
 10
232.145832
 20
866.6359639999997
 10
233.390538
 20
867.7054509999997
 10
234.906633
 20
868.5824779999999
 10
236.635854
 20
869.2333429999999
 10
238.511749
 20
869.6330329999996
 10
240.462227
 20
869.7661869999999
  0
ARC
  5
60A
330
147A
100
AcDbEntity
  8
DETAIL
100
AcDbCircle
 10
240.456555
 20
865.625349
 30
0.0
 40
9.996876999999999
100
AcDbArc
 50
89.921521
 51
179.921521
  0
LWPOLYLINE
  5
60B
330
147A
100
AcDbEntity
  8
DETAIL
100
AcDbPolyline
 90
        9
 70
     0
 43
0.0
 10
230.510449
 20
902.6984969999999
 10
230.704425
 20
904.077299
 10
231.27512
 20
905.402587
 10
232.200604
 20
906.623433
 10
233.44531
 20
907.69292
 10
234.961405
 20
908.569948
 10
236.690626
 20
909.2208119999996
 10
238.56652
 20
909.6205019999999
 10
240.516999
 20
909.753657
  0
ARC
  5
616
330
147A
100
AcDbEntity
  8
DETAIL
100
AcDbCircle
 10
240.511327
 20
905.6128189999999
 30
0.0
 40
9.996876999999999
100
AcDbArc
 50
89.921521
 51
179.921521
  0
LWPOLYLINE
  5
617
330
147A
100
AcDbEntity
  8
DETAIL
100
AcDbPolyline
 90
        9
 70
     0
 43
0.0
 10
230.565221
 20
942.6859659999999
 10
230.759196
 20
944.0647679999997
 10
231.329892
 20
945.390057
 10
232.255376
 20
946.6109029999996
 10
233.500082
 20
947.6803889999999
 10
235.016177
 20
948.5574169999999
 10
236.745398
 20
949.208282
 10
238.621292
 20
949.6079710000001
 10
240.57177
 20
949.7411259999999
  0
ARC
  5
622
330
147A
100
AcDbEntity
  8
DETAIL
100
AcDbCircle
 10
240.566098
 20
945.6002879999999
 30
0.0
 40
9.996876999999999
100
AcDbArc
 50
89.921521
 51
179.921521
  0
LINE
  5
623
330
147A
100
AcDbEntity
  8
DETAIL
100
AcDbLine
 10
418.578802
 20
995.340891
 30
0.0
 11
240.634563
 21
995.584625
 31
0.0
  0
LINE
  5
624
330
147A
100
AcDbEntity
  8
DETAIL
100
AcDbLine
 10
240.681492
 20
1029.846065
 30
0.0
 11
418.625731
 21
1029.602331
 31
0.0
  0
LINE
  5
625
330
147A
100
AcDbEntity
  8
DETAIL
100
AcDbLine
 10
418.633752
 20
1035.45836
 30
0.0
 11
240.689513
 21
1035.702094
 31
0.0
  0
LINE
  5
626
330
147A
100
AcDbEntity
  8
DETAIL
100
AcDbLine
 10
212.93506
 20
1025.722678
 30
0.0
 11
212.921367
 21
1015.725811
 31
0.0
  0
LWPOLYLINE
  5
627
330
147A
100
AcDbEntity
  8
DETAIL
100
AcDbPolyline
 90
        9
 70
     0
 43
0.0
 10
202.943864
 20
1029.877209
 10
204.89397
 20
1029.738712
 10
206.768763
 20
1029.333885
 10
208.496195
 20
1028.678285
 10
210.009881
 20
1027.797108
 10
211.251653
 20
1026.724215
 10
212.173789
 20
1025.500839
 10
212.7408509999999
 20
1024.173991
 10
212.931049
 20
1022.794663
  0
ARC
  5
632
330
147A
100
AcDbEntity
  8
DETAIL
100
AcDbCircle
 10
202.938193
 20
1025.736371
 30
0.0
 40
9.996876999999999
100
AcDbArc
 50
359.921521
 51
89.921521
  0
LINE
  5
633
330
147A
100
AcDbEntity
  8
DETAIL
100
AcDbLine
 10
230.678953
 20
1025.71892
 30
0.0
 11
230.66526
 21
1015.722052
 31
0.0
  0
LWPOLYLINE
  5
634
330
147A
100
AcDbEntity
  8
DETAIL
100
AcDbPolyline
 90
        9
 70
     0
 43
0.0
 10
230.674942
 20
1022.790905
 10
230.868918
 20
1024.169707
 10
231.439613
 20
1025.494996
 10
232.365097
 20
1026.715842
 10
233.609803
 20
1027.785328
 10
235.125898
 20
1028.662356
 10
236.855119
 20
1029.313221
 10
238.731014
 20
1029.71291
 10
240.681492
 20
1029.846065
  0
ARC
  5
63F
330
147A
100
AcDbEntity
  8
DETAIL
100
AcDbCircle
 10
240.67582
 20
1025.705227
 30
0.0
 40
9.996876999999999
100
AcDbArc
 50
89.921521
 51
179.921521
  0
ARC
  5
640
330
147A
100
AcDbEntity
  8
DETAIL
100
AcDbCircle
 10
24.719917
 20
825.9127580000001
 30
0.0
 40
9.996876999999999
100
AcDbArc
 50
89.921521
 51
179.921521
  0
LWPOLYLINE
  5
641
330
147A
100
AcDbEntity
  8
DETAIL
100
AcDbPolyline
 90
        9
 70
     0
 43
0.0
 10
14.445181
 20
623.0610889999998
 10
14.639157
 20
624.439891
 10
15.209852
 20
625.7651789999997
 10
16.135336
 20
626.986025
 10
17.380042
 20
628.055512
 10
18.896137
 20
628.93254
 10
20.625358
 20
629.5834039999999
 10
22.501252
 20
629.9830940000001
 10
24.45173
 20
630.116249
  0
ARC
  5
64C
330
147A
100
AcDbEntity
  8
DETAIL
100
AcDbCircle
 10
24.446059
 20
625.975411
 30
0.0
 40
9.996876999999999
100
AcDbArc
 50
89.921521
 51
179.921521
  0
LINE
  5
64D
330
147A
100
AcDbEntity
  8
DETAIL
100
AcDbLine
 10
14.449191
 20
625.989104
 30
0.0
 11
14.435498
 21
615.9922360000003
 31
0.0
  0
LWPOLYLINE
  5
64E
330
147A
100
AcDbEntity
  8
DETAIL
100
AcDbPolyline
 90
        9
 70
     0
 43
0.0
 10
14.499952
 20
663.0485579999997
 10
14.693928
 20
664.4273599999998
 10
15.264624
 20
665.752649
 10
16.190108
 20
666.9734949999998
 10
17.434814
 20
668.0429820000001
 10
18.950908
 20
668.9200089999999
 10
20.68013
 20
669.570874
 10
22.556024
 20
669.9705639999997
 10
24.506502
 20
670.103718
  0
LINE
  5
659
330
147A
100
AcDbEntity
  8
DETAIL
100
AcDbLine
 10
14.503963
 20
665.976573
 30
0.0
 11
14.49027
 21
655.979706
 31
0.0
  0
ARC
  5
65A
330
147A
100
AcDbEntity
  8
DETAIL
100
AcDbCircle
 10
24.50083
 20
665.9628799999998
 30
0.0
 40
9.996876999999999
100
AcDbArc
 50
89.921521
 51
179.921521
  0
LWPOLYLINE
  5
65B
330
147A
100
AcDbEntity
  8
DETAIL
100
AcDbPolyline
 90
        9
 70
     0
 43
0.0
 10
14.719039
 20
822.9984359999999
 10
14.913015
 20
824.3772380000001
 10
15.48371099999999
 20
825.7025269999996
 10
16.409194
 20
826.9233729999998
 10
17.6539
 20
827.9928589999999
 10
19.169995
 20
828.8698869999999
 10
20.899216
 20
829.5207519999999
 10
22.775111
 20
829.9204409999996
 10
24.72558900000001
 20
830.0535959999999
  0
LWPOLYLINE
  5
666
330
147A
100
AcDbEntity
  8
DETAIL
100
AcDbPolyline
 90
        9
 70
     0
 43
0.0
 10
14.554724
 20
703.036028
 10
14.7487
 20
704.4148299999999
 10
15.319396
 20
705.7401179999999
 10
16.244879
 20
706.960964
 10
17.489585
 20
708.0304509999997
 10
19.00567999999999
 20
708.9074789999997
 10
20.734901
 20
709.5583429999996
 10
22.610796
 20
709.958033
 10
24.561274
 20
710.0911879999999
  0
ARC
  5
671
330
147A
100
AcDbEntity
  8
DETAIL
100
AcDbCircle
 10
24.555602
 20
705.9503499999997
 30
0.0
 40
9.996876999999999
100
AcDbArc
 50
89.921521
 51
179.921521
  0
LINE
  5
672
330
147A
100
AcDbEntity
  8
DETAIL
100
AcDbLine
 10
14.558735
 20
705.9640429999998
 30
0.0
 11
14.545042
 21
695.967175
 31
0.0
  0
LWPOLYLINE
  5
673
330
147A
100
AcDbEntity
  8
DETAIL
100
AcDbPolyline
 90
        9
 70
     0
 43
0.0
 10
14.609496
 20
743.023497
 10
14.803472
 20
744.4022989999997
 10
15.374167
 20
745.7275879999997
 10
16.299651
 20
746.948434
 10
17.544357
 20
748.01792
 10
19.060452
 20
748.894948
 10
20.789673
 20
749.5458129999997
 10
22.665567
 20
749.9455019999997
 10
24.616046
 20
750.078657
  0
ARC
  5
67E
330
147A
100
AcDbEntity
  8
DETAIL
100
AcDbCircle
 10
24.610374
 20
745.9378189999998
 30
0.0
 40
9.996876999999999
100
AcDbArc
 50
89.921521
 51
179.921521
  0
LINE
  5
67F
330
147A
100
AcDbEntity
  8
DETAIL
100
AcDbLine
 10
14.613506
 20
745.9515119999996
 30
0.0
 11
14.599813
 21
735.954645
 31
0.0
  0
LWPOLYLINE
  5
680
330
147A
100
AcDbEntity
  8
DETAIL
100
AcDbPolyline
 90
        9
 70
     0
 43
0.0
 10
14.664268
 20
783.0109669999997
 10
14.858243
 20
784.389768
 10
15.428939
 20
785.7150569999999
 10
16.354423
 20
786.935903
 10
17.599129
 20
788.00539
 10
19.115224
 20
788.882417
 10
20.844445
 20
789.533282
 10
22.720339
 20
789.9329719999997
 10
24.670817
 20
790.0661269999996
  0
ARC
  5
68B
330
147A
100
AcDbEntity
  8
DETAIL
100
AcDbCircle
 10
24.66514500000001
 20
785.925288
 30
0.0
 40
9.996876999999999
100
AcDbArc
 50
89.921521
 51
179.921521
  0
LINE
  5
68C
330
147A
100
AcDbEntity
  8
DETAIL
100
AcDbLine
 10
14.668278
 20
785.938981
 30
0.0
 11
14.654585
 21
775.9421139999997
 31
0.0
  0
LINE
  5
68D
330
147A
100
AcDbEntity
  8
DETAIL
100
AcDbLine
 10
14.72305
 20
825.9264509999997
 30
0.0
 11
14.709357
 21
815.9295829999999
 31
0.0
  0
ARC
  5
68E
330
147A
100
AcDbEntity
  8
DETAIL
100
AcDbCircle
 10
24.939004
 20
985.862636
 30
0.0
 40
9.996876999999999
100
AcDbArc
 50
89.921521
 51
179.921521
  0
LWPOLYLINE
  5
68F
330
147A
100
AcDbEntity
  8
DETAIL
100
AcDbPolyline
 90
        9
 70
     0
 43
0.0
 10
14.938126
 20
982.948314
 10
15.132102
 20
984.327116
 10
15.702797
 20
985.652404
 10
16.628281
 20
986.87325
 10
17.87298699999999
 20
987.942737
 10
19.389082
 20
988.819765
 10
21.118303
 20
989.470629
 10
22.994198
 20
989.870319
 10
24.944676
 20
990.003474
  0
LINE
  5
69A
330
147A
100
AcDbEntity
  8
DETAIL
100
AcDbLine
 10
14.942137
 20
985.8763289999997
 30
0.0
 11
14.928444
 21
975.879461
 31
0.0
  0
LWPOLYLINE
  5
69B
330
147A
100
AcDbEntity
  8
DETAIL
100
AcDbPolyline
 90
        9
 70
     0
 43
0.0
 10
14.773811
 20
862.9859059999999
 10
14.967787
 20
864.3647069999998
 10
15.538482
 20
865.6899959999996
 10
16.463966
 20
866.910842
 10
17.708672
 20
867.9803289999997
 10
19.224767
 20
868.8573560000001
 10
20.953988
 20
869.508221
 10
22.829882
 20
869.9079109999999
 10
24.780361
 20
870.041065
  0
ARC
  5
6A6
330
147A
100
AcDbEntity
  8
DETAIL
100
AcDbCircle
 10
24.774689
 20
865.9002269999998
 30
0.0
 40
9.996876999999999
100
AcDbArc
 50
89.921521
 51
179.921521
  0
LINE
  5
6A7
330
147A
100
AcDbEntity
  8
DETAIL
100
AcDbLine
 10
14.777821
 20
865.9139199999996
 30
0.0
 11
14.764129
 21
855.9170529999999
 31
0.0
  0
LWPOLYLINE
  5
6A8
330
147A
100
AcDbEntity
  8
DETAIL
100
AcDbPolyline
 90
        9
 70
     0
 43
0.0
 10
14.828583
 20
902.973375
 10
15.022559
 20
904.3521769999996
 10
15.593254
 20
905.677466
 10
16.518738
 20
906.8983119999996
 10
17.763444
 20
907.9677979999999
 10
19.279539
 20
908.8448259999999
 10
21.00876
 20
909.495691
 10
22.884654
 20
909.89538
 10
24.835132
 20
910.028535
  0
ARC
  5
6B3
330
147A
100
AcDbEntity
  8
DETAIL
100
AcDbCircle
 10
24.829461
 20
905.8876970000001
 30
0.0
 40
9.996876999999999
100
AcDbArc
 50
89.921521
 51
179.921521
  0
LINE
  5
6B4
330
147A
100
AcDbEntity
  8
DETAIL
100
AcDbLine
 10
14.832593
 20
905.90139
 30
0.0
 11
14.8189
 21
895.904522
 31
0.0
  0
LWPOLYLINE
  5
6B5
330
147A
100
AcDbEntity
  8
DETAIL
100
AcDbPolyline
 90
        9
 70
     0
 43
0.0
 10
14.883354
 20
942.9608449999999
 10
15.07733
 20
944.339646
 10
15.648026
 20
945.6649350000001
 10
16.573509
 20
946.8857809999999
 10
17.818215
 20
947.9552680000001
 10
19.33431
 20
948.8322949999997
 10
21.063531
 20
949.4831599999999
 10
22.939426
 20
949.88285
 10
24.889904
 20
950.0160039999999
  0
ARC
  5
6C0
330
147A
100
AcDbEntity
  8
DETAIL
100
AcDbCircle
 10
24.884232
 20
945.875166
 30
0.0
 40
9.996876999999999
100
AcDbArc
 50
89.921521
 51
179.921521
  0
LINE
  5
6C1
330
147A
100
AcDbEntity
  8
DETAIL
100
AcDbLine
 10
14.887365
 20
945.888859
 30
0.0
 11
14.873672
 21
935.8919919999998
 31
0.0
  0
LWPOLYLINE
  5
6C2
330
147A
100
AcDbEntity
  8
DETAIL
100
AcDbPolyline
 90
        9
 70
     0
 43
0.0
 10
14.993076
 20
1023.065783
 10
15.187052
 20
1024.444585
 10
15.757747
 20
1025.769874
 10
16.683231
 20
1026.99072
 10
17.927937
 20
1028.060206
 10
19.444032
 20
1028.937234
 10
21.173253
 20
1029.588099
 10
23.049147
 20
1029.987788
 10
24.999625
 20
1030.120943
  0
ARC
  5
6CD
330
147A
100
AcDbEntity
  8
DETAIL
100
AcDbCircle
 10
24.993954
 20
1025.980105
 30
0.0
 40
9.996876999999999
100
AcDbArc
 50
89.921521
 51
179.921521
  0
LINE
  5
6CE
330
147A
100
AcDbEntity
  8
DETAIL
100
AcDbLine
 10
14.997086
 20
1025.993798
 30
0.0
 11
14.983393
 21
1015.996931
 31
0.0
  0
LINE
  5
6CF
330
147A
100
AcDbEntity
  8
OUTLINE
100
AcDbLine
 10
-490.0000239999998
 20
1850.0
 30
0.0
 11
490.0000239999998
 21
1850.0
 31
0.0
  0
LINE
  5
6D0
330
147A
100
AcDbEntity
  8
SIZE
100
AcDbLine
 10
-490.0000239999998
 20
1875.0
 30
0.0
 11
-490.0000239999998
 21
2056.477857
 31
0.0
  0
LINE
  5
6D1
330
147A
100
AcDbEntity
  8
SIZE
100
AcDbLine
 10
490.0000239999998
 20
1875.0
 30
0.0
 11
490.0000239999998
 21
2056.477857
 31
0.0
  0
LINE
  5
6D2
330
147A
100
AcDbEntity
  8
SIZE
100
AcDbLine
 10
-480.000024
 20
2026.477857
 30
0.0
 11
480.000024
 21
2026.477857
 31
0.0
  0
CIRCLE
  5
6D3
330
147A
100
AcDbEntity
  8
SIZE
100
AcDbCircle
 10
-490.0000239999998
 20
2026.477857
 30
0.0
 40
5.0
  0
LINE
  5
6D4
330
147A
100
AcDbEntity
  8
SIZE
100
AcDbLine
 10
-485.0000239999998
 20
2026.477857
 30
0.0
 11
-480.000024
 21
2026.477857
 31
0.0
  0
CIRCLE
  5
6D5
330
147A
100
AcDbEntity
  8
SIZE
100
AcDbCircle
 10
490.0000239999998
 20
2026.477857
 30
0.0
 40
5.0
  0
LINE
  5
6D6
330
147A
100
AcDbEntity
  8
SIZE
100
AcDbLine
 10
485.0000239999998
 20
2026.477857
 30
0.0
 11
480.000024
 21
2026.477857
 31
0.0
  0
TEXT
  5
6D7
330
147A
100
AcDbEntity
  8
SIZE
100
AcDbText
 10
-74.05714285714285
 20
2046.477857
 30
0.0
 40
64.0
  1
980
 41
0.9
 72
     1
 11
0.0
 21
2046.477857
 31
0.0
100
AcDbText
  0
LINE
  5
6DB
330
147A
100
AcDbEntity
  8
SIZE
100
AcDbLine
 10
-481.0
 20
-20.0
 30
0.0
 11
-481.0
 21
-337.267131
 31
0.0
  0
LINE
  5
6DC
330
147A
100
AcDbEntity
  8
SIZE
100
AcDbLine
 10
481.0
 20
-20.0
 30
0.0
 11
481.0
 21
-337.267131
 31
0.0
  0
LINE
  5
6DD
330
147A
100
AcDbEntity
  8
SIZE
100
AcDbLine
 10
-471.0
 20
-307.267131
 30
0.0
 11
471.0
 21
-307.267131
 31
0.0
  0
CIRCLE
  5
6DE
330
147A
100
AcDbEntity
  8
SIZE
100
AcDbCircle
 10
-481.0
 20
-307.267131
 30
0.0
 40
5.0
  0
LINE
  5
6DF
330
147A
100
AcDbEntity
  8
SIZE
100
AcDbLine
 10
-476.0
 20
-307.267131
 30
0.0
 11
-471.0
 21
-307.267131
 31
0.0
  0
CIRCLE
  5
6E0
330
147A
100
AcDbEntity
  8
SIZE
100
AcDbCircle
 10
481.0
 20
-307.267131
 30
0.0
 40
5.0
  0
LINE
  5
6E1
330
147A
100
AcDbEntity
  8
SIZE
100
AcDbLine
 10
476.0
 20
-307.267131
 30
0.0
 11
471.0
 21
-307.267131
 31
0.0
  0
TEXT
  5
6E2
330
147A
100
AcDbEntity
  8
SIZE
100
AcDbText
 10
-74.05714285714285
 20
-287.267131
 30
0.0
 40
64.0
  1
962
 41
0.9
 72
     1
 11
0.0
 21
-287.267131
 31
0.0
100
AcDbText
  0
LINE
  5
6E6
330
147A
100
AcDbEntity
  8
SIZE
100
AcDbLine
 10
507.0
 20
-20.0
 30
0.0
 11
507.0
 21
-516.482856
 31
0.0
  0
LINE
  5
6E7
330
147A
100
AcDbEntity
  8
SIZE
100
AcDbLine
 10
-507.0
 20
-20.0
 30
0.0
 11
-507.0
 21
-516.482856
 31
0.0
  0
LINE
  5
6E8
330
147A
100
AcDbEntity
  8
SIZE
100
AcDbLine
 10
497.0
 20
-486.4828559999998
 30
0.0
 11
-497.0
 21
-486.4828559999998
 31
0.0
  0
CIRCLE
  5
6E9
330
147A
100
AcDbEntity
  8
SIZE
100
AcDbCircle
 10
507.0
 20
-486.4828559999998
 30
0.0
 40
5.0
  0
LINE
  5
6EA
330
147A
100
AcDbEntity
  8
SIZE
100
AcDbLine
 10
502.0
 20
-486.4828559999998
 30
0.0
 11
497.0
 21
-486.4828559999998
 31
0.0
  0
CIRCLE
  5
6EB
330
147A
100
AcDbEntity
  8
SIZE
100
AcDbCircle
 10
-507.0
 20
-486.4828559999998
 30
0.0
 40
5.0
  0
LINE
  5
6EC
330
147A
100
AcDbEntity
  8
SIZE
100
AcDbLine
 10
-502.0
 20
-486.4828559999998
 30
0.0
 11
-497.0
 21
-486.4828559999998
 31
0.0
  0
TEXT
  5
6ED
330
147A
100
AcDbEntity
  8
SIZE
100
AcDbText
 10
-91.88571428571426
 20
-466.482856
 30
0.0
 40
64.0
  1
1014
 41
0.9
 72
     1
 11
0.0
 21
-466.482856
 31
0.0
100
AcDbText
  0
LINE
  5
6F1
330
147A
100
AcDbEntity
  8
SIZE
100
AcDbLine
 10
-521.0
 20
-17.750703
 30
0.0
 11
-521.0
 21
-707.3997359999999
 31
0.0
  0
LINE
  5
6F2
330
147A
100
AcDbEntity
  8
SIZE
100
AcDbLine
 10
521.0
 20
-17.750703
 30
0.0
 11
521.0
 21
-707.3997359999999
 31
0.0
  0
LINE
  5
6F3
330
147A
100
AcDbEntity
  8
SIZE
100
AcDbLine
 10
-511.0
 20
-677.399736
 30
0.0
 11
511.0
 21
-677.399736
 31
0.0
  0
CIRCLE
  5
6F4
330
147A
100
AcDbEntity
  8
SIZE
100
AcDbCircle
 10
-521.0
 20
-677.399736
 30
0.0
 40
5.0
  0
LINE
  5
6F5
330
147A
100
AcDbEntity
  8
SIZE
100
AcDbLine
 10
-516.0
 20
-677.399736
 30
0.0
 11
-511.0
 21
-677.399736
 31
0.0
  0
CIRCLE
  5
6F6
330
147A
100
AcDbEntity
  8
SIZE
100
AcDbCircle
 10
521.0
 20
-677.399736
 30
0.0
 40
5.0
  0
LINE
  5
6F7
330
147A
100
AcDbEntity
  8
SIZE
100
AcDbLine
 10
516.0
 20
-677.399736
 30
0.0
 11
511.0
 21
-677.399736
 31
0.0
  0
TEXT
  5
6F8
330
147A
100
AcDbEntity
  8
SIZE
100
AcDbText
 10
-95.99999999999999
 20
-657.3997359999999
 30
0.0
 40
64.0
  1
1042
 41
0.9
 72
     1
 11
0.0
 21
-657.3997359999999
 31
0.0
100
AcDbText
  0
LINE
  5
6FC
330
147A
100
AcDbEntity
  8
SIZE
100
AcDbLine
 10
-510.0000239999998
 20
1850.0
 30
0.0
 11
-1298.555505
 21
1850.0
 31
0.0
  0
LINE
  5
6FD
330
147A
100
AcDbEntity
  8
SIZE
100
AcDbLine
 10
-497.8038349999998
 20
1650.0
 30
0.0
 11
-1298.555505
 21
1650.0
 31
0.0
  0
LINE
  5
6FE
330
147A
100
AcDbEntity
  8
SIZE
100
AcDbLine
 10
-1268.555505
 20
1840.0
 30
0.0
 11
-1268.555505
 21
1660.0
 31
0.0
  0
CIRCLE
  5
6FF
330
147A
100
AcDbEntity
  8
SIZE
100
AcDbCircle
 10
-1268.555505
 20
1850.0
 30
0.0
 40
5.0
  0
LINE
  5
700
330
147A
100
AcDbEntity
  8
SIZE
100
AcDbLine
 10
-1268.555505
 20
1845.0
 30
0.0
 11
-1268.555505
 21
1840.0
 31
0.0
  0
CIRCLE
  5
701
330
147A
100
AcDbEntity
  8
SIZE
100
AcDbCircle
 10
-1268.555505
 20
1650.0
 30
0.0
 40
5.0
  0
LINE
  5
702
330
147A
100
AcDbEntity
  8
SIZE
100
AcDbLine
 10
-1268.555505
 20
1655.0
 30
0.0
 11
-1268.555505
 21
1660.0
 31
0.0
  0
TEXT
  5
703
330
147A
100
AcDbEntity
  8
SIZE
100
AcDbText
 10
-1285.596088
 20
1677.316575142857
 30
0.0
 40
64.0
  1
200
 50
90.0
 41
0.9
 72
     1
 11
-1285.596088
 21
1751.373718
 31
0.0
100
AcDbText
  0
LINE
  5
707
330
147A
100
AcDbEntity
  8
SIZE
100
AcDbLine
 10
-510.0000239999998
 20
1850.0
 30
0.0
 11
-1921.894054
 21
1850.0
 31
0.0
  0
LINE
  5
708
330
147A
100
AcDbEntity
  8
SIZE
100
AcDbLine
 10
-490.6296509999998
 20
0.0
 30
0.0
 11
-1921.894054
 21
0.0
 31
0.0
  0
LINE
  5
709
330
147A
100
AcDbEntity
  8
SIZE
100
AcDbLine
 10
-1891.894053999999
 20
1840.0
 30
0.0
 11
-1891.894053999999
 21
10.0
 31
0.0
  0
CIRCLE
  5
70A
330
147A
100
AcDbEntity
  8
SIZE
100
AcDbCircle
 10
-1891.894053999999
 20
1850.0
 30
0.0
 40
5.0
  0
LINE
  5
70B
330
147A
100
AcDbEntity
  8
SIZE
100
AcDbLine
 10
-1891.894053999999
 20
1845.0
 30
0.0
 11
-1891.894053999999
 21
1840.0
 31
0.0
  0
CIRCLE
  5
70C
330
147A
100
AcDbEntity
  8
SIZE
100
AcDbCircle
 10
-1891.894053999999
 20
0.0
 30
0.0
 40
5.0
  0
LINE
  5
70D
330
147A
100
AcDbEntity
  8
SIZE
100
AcDbLine
 10
-1891.894053999999
 20
5.0
 30
0.0
 11
-1891.894053999999
 21
10.0
 31
0.0
  0
TEXT
  5
70E
330
147A
100
AcDbEntity
  8
SIZE
100
AcDbText
 10
-1911.894054
 20
831.4999999999999
 30
0.0
 40
64.0
  1
1850
 50
90.0
 41
0.9
 72
     1
 11
-1911.894054
 21
927.5
 31
0.0
100
AcDbText
  0
LINE
  5
712
330
147A
100
AcDbEntity
  8
SIZE
100
AcDbLine
 10
-541.0
 20
0.0
 30
0.0
 11
-1116.20836
 21
0.0
 31
0.0
  0
LINE
  5
713
330
147A
100
AcDbEntity
  8
SIZE
100
AcDbLine
 10
-569.134716
 20
30.0
 30
0.0
 11
-1116.20836
 21
30.0
 31
0.0
  0
LINE
  5
714
330
147A
100
AcDbEntity
  8
SIZE
100
AcDbLine
 10
-1086.20836
 20
40.0
 30
0.0
 11
-1086.20836
 21
50.0
 31
0.0
  0
LINE
  5
715
330
147A
100
AcDbEntity
  8
SIZE
100
AcDbLine
 10
-1086.20836
 20
-10.0
 30
0.0
 11
-1086.20836
 21
-153.257143
 31
0.0
  0
LINE
  5
716
330
147A
100
AcDbEntity
  8
SIZE
100
AcDbLine
 10
-1086.20836
 20
30.0
 30
0.0
 11
-1086.20836
 21
0.0
 31
0.0
  0
CIRCLE
  5
717
330
147A
100
AcDbEntity
  8
SIZE
100
AcDbCircle
 10
-1086.20836
 20
30.0
 30
0.0
 40
5.0
  0
LINE
  5
718
330
147A
100
AcDbEntity
  8
SIZE
100
AcDbLine
 10
-1086.20836
 20
35.0
 30
0.0
 11
-1086.20836
 21
40.0
 31
0.0
  0
CIRCLE
  5
719
330
147A
100
AcDbEntity
  8
SIZE
100
AcDbCircle
 10
-1086.20836
 20
0.0
 30
0.0
 40
5.0
  0
LINE
  5
71A
330
147A
100
AcDbEntity
  8
SIZE
100
AcDbLine
 10
-1086.20836
 20
-5.0
 30
0.0
 11
-1086.20836
 21
-10.0
 31
0.0
  0
TEXT
  5
71B
330
147A
100
AcDbEntity
  8
SIZE
100
AcDbText
 10
-1106.20836
 20
-133.2571424285714
 30
0.0
 40
64.0
  1
30
 50
90.0
 41
0.9
 72
     1
 11
-1106.20836
 21
-86.62857099999998
 31
0.0
100
AcDbText
  0
LINE
  5
71F
330
147A
100
AcDbEntity
  8
SIZE
100
AcDbLine
 10
-541.0
 20
0.0
 30
0.0
 11
-1284.668531
 21
0.0
 31
0.0
  0
LINE
  5
720
330
147A
100
AcDbEntity
  8
SIZE
100
AcDbLine
 10
-538.633936
 20
130.0
 30
0.0
 11
-1284.668531
 21
130.0
 31
0.0
  0
LINE
  5
721
330
147A
100
AcDbEntity
  8
SIZE
100
AcDbLine
 10
-1254.668531
 20
120.0
 30
0.0
 11
-1254.668531
 21
10.0
 31
0.0
  0
LINE
  5
722
330
147A
100
AcDbEntity
  8
SIZE
100
AcDbLine
 10
-1254.668531
 20
0.0
 30
0.0
 11
-1254.668531
 21
-187.142857
 31
0.0
  0
CIRCLE
  5
723
330
147A
100
AcDbEntity
  8
SIZE
100
AcDbCircle
 10
-1254.668531
 20
130.0
 30
0.0
 40
5.0
  0
LINE
  5
724
330
147A
100
AcDbEntity
  8
SIZE
100
AcDbLine
 10
-1254.668531
 20
125.0
 30
0.0
 11
-1254.668531
 21
120.0
 31
0.0
  0
CIRCLE
  5
725
330
147A
100
AcDbEntity
  8
SIZE
100
AcDbCircle
 10
-1254.668531
 20
0.0
 30
0.0
 40
5.0
  0
LINE
  5
726
330
147A
100
AcDbEntity
  8
SIZE
100
AcDbLine
 10
-1254.668531
 20
5.0
 30
0.0
 11
-1254.668531
 21
10.0
 31
0.0
  0
TEXT
  5
727
330
147A
100
AcDbEntity
  8
SIZE
100
AcDbText
 10
-1274.668531
 20
-167.1428575714286
 30
0.0
 40
64.0
  1
130
 50
90.0
 41
0.9
 72
     1
 11
-1274.668531
 21
-98.57142900000004
 31
0.0
100
AcDbText
  0
LINE
  5
72B
330
147A
100
AcDbEntity
  8
SIZE
100
AcDbLine
 10
-538.633936
 20
130.0
 30
0.0
 11
-1284.668531
 21
130.0
 31
0.0
  0
LINE
  5
72C
330
147A
100
AcDbEntity
  8
SIZE
100
AcDbLine
 10
-530.636434
 20
190.0
 30
0.0
 11
-1284.668531
 21
190.0
 31
0.0
  0
LINE
  5
72D
330
147A
100
AcDbEntity
  8
SIZE
100
AcDbLine
 10
-1254.668531
 20
120.0
 30
0.0
 11
-1254.668531
 21
110.0
 31
0.0
  0
LINE
  5
72E
330
147A
100
AcDbEntity
  8
SIZE
100
AcDbLine
 10
-1254.668531
 20
200.0
 30
0.0
 11
-1254.668531
 21
210.0
 31
0.0
  0
LINE
  5
72F
330
147A
100
AcDbEntity
  8
SIZE
100
AcDbLine
 10
-1254.668531
 20
160.0
 30
0.0
 11
-1121.289778
 21
274.419728
 31
0.0
  0
LINE
  5
730
330
147A
100
AcDbEntity
  8
SIZE
100
AcDbLine
 10
-1121.289778
 20
274.419728
 30
0.0
 11
-1121.289778
 21
407.676871
 31
0.0
  0
TEXT
  5
731
330
147A
100
AcDbEntity
  8
SIZE
100
AcDbText
 10
-1141.289777999999
 20
294.4197285714285
 30
0.0
 40
64.0
  1
60
 50
90.0
 41
0.9
 72
     1
 11
-1141.289777999999
 21
341.0483
 31
0.0
100
AcDbText
  0
LINE
  5
732
330
147A
100
AcDbEntity
  8
SIZE
100
AcDbLine
 10
-1254.668531
 20
130.0
 30
0.0
 11
-1254.668531
 21
190.0
 31
0.0
  0
LINE
  5
733
330
147A
100
AcDbEntity
  8
SIZE
100
AcDbLine
 10
-1254.668531
 20
130.0
 30
0.0
 11
-1254.668531
 21
190.0
 31
0.0
  0
CIRCLE
  5
734
330
147A
100
AcDbEntity
  8
SIZE
100
AcDbCircle
 10
-1254.668531
 20
130.0
 30
0.0
 40
5.0
  0
LINE
  5
735
330
147A
100
AcDbEntity
  8
SIZE
100
AcDbLine
 10
-1254.668531
 20
125.0
 30
0.0
 11
-1254.668531
 21
120.0
 31
0.0
  0
CIRCLE
  5
736
330
147A
100
AcDbEntity
  8
SIZE
100
AcDbCircle
 10
-1254.668531
 20
190.0
 30
0.0
 40
5.0
  0
LINE
  5
737
330
147A
100
AcDbEntity
  8
SIZE
100
AcDbLine
 10
-1254.668531
 20
195.0
 30
0.0
 11
-1254.668531
 21
200.0
 31
0.0
  0
LINE
  5
73B
330
147A
100
AcDbEntity
  8
SIZE
100
AcDbLine
 10
-530.636434
 20
190.0
 30
0.0
 11
-1284.668531
 21
190.0
 31
0.0
  0
LINE
  5
73C
330
147A
100
AcDbEntity
  8
SIZE
100
AcDbLine
 10
-530.636434
 20
250.0
 30
0.0
 11
-1284.668531
 21
250.0
 31
0.0
  0
LINE
  5
73D
330
147A
100
AcDbEntity
  8
SIZE
100
AcDbLine
 10
-1254.668531
 20
200.0
 30
0.0
 11
-1254.668531
 21
240.0
 31
0.0
  0
LINE
  5
73E
330
147A
100
AcDbEntity
  8
SIZE
100
AcDbLine
 10
-1254.668531
 20
407.4197029999998
 30
0.0
 11
-1254.668531
 21
250.0
 31
0.0
  0
TEXT
  5
73F
330
147A
100
AcDbEntity
  8
SIZE
100
AcDbText
 10
-1274.668531
 20
294.1625595714286
 30
0.0
 40
64.0
  1
60
 50
90.0
 41
0.9
 72
     1
 11
-1274.668531
 21
340.791131
 31
0.0
100
AcDbText
  0
CIRCLE
  5
740
330
147A
100
AcDbEntity
  8
SIZE
100
AcDbCircle
 10
-1254.668531
 20
190.0
 30
0.0
 40
5.0
  0
LINE
  5
741
330
147A
100
AcDbEntity
  8
SIZE
100
AcDbLine
 10
-1254.668531
 20
195.0
 30
0.0
 11
-1254.668531
 21
200.0
 31
0.0
  0
CIRCLE
  5
742
330
147A
100
AcDbEntity
  8
SIZE
100
AcDbCircle
 10
-1254.668531
 20
250.0
 30
0.0
 40
5.0
  0
LINE
  5
743
330
147A
100
AcDbEntity
  8
SIZE
100
AcDbLine
 10
-1254.668531
 20
245.0
 30
0.0
 11
-1254.668531
 21
240.0
 31
0.0
  0
LINE
  5
747
330
147A
100
AcDbEntity
  8
SIZE
100
AcDbLine
 10
-543.2753429999998
 20
505.0011809999999
 30
0.0
 11
-1498.075337
 21
505.0011809999999
 31
0.0
  0
LINE
  5
748
330
147A
100
AcDbEntity
  8
SIZE
100
AcDbLine
 10
-540.1387519999998
 20
0.0
 30
0.0
 11
-1498.075337
 21
0.0
 31
0.0
  0
LINE
  5
749
330
147A
100
AcDbEntity
  8
SIZE
100
AcDbLine
 10
-1468.075337
 20
495.0011809999998
 30
0.0
 11
-1468.075337
 21
10.0
 31
0.0
  0
CIRCLE
  5
74A
330
147A
100
AcDbEntity
  8
SIZE
100
AcDbCircle
 10
-1468.075337
 20
505.0011809999999
 30
0.0
 40
5.0
  0
LINE
  5
74B
330
147A
100
AcDbEntity
  8
SIZE
100
AcDbLine
 10
-1468.075337
 20
500.001181
 30
0.0
 11
-1468.075337
 21
495.0011809999998
 31
0.0
  0
CIRCLE
  5
74C
330
147A
100
AcDbEntity
  8
SIZE
100
AcDbCircle
 10
-1468.075337
 20
0.0
 30
0.0
 40
5.0
  0
LINE
  5
74D
330
147A
100
AcDbEntity
  8
SIZE
100
AcDbLine
 10
-1468.075337
 20
5.0
 30
0.0
 11
-1468.075337
 21
10.0
 31
0.0
  0
TEXT
  5
74E
330
147A
100
AcDbEntity
  8
SIZE
100
AcDbText
 10
-1488.075337
 20
178.4434481428571
 30
0.0
 40
64.0
  1
505
 50
90.0
 41
0.9
 72
     1
 11
-1488.075337
 21
252.500591
 31
0.0
100
AcDbText
  0
LINE
  5
752
330
147A
100
AcDbEntity
  8
SIZE
100
AcDbLine
 10
-541.0
 20
0.0
 30
0.0
 11
-1697.619629
 21
0.0
 31
0.0
  0
LINE
  5
753
330
147A
100
AcDbEntity
  8
SIZE
100
AcDbLine
 10
-510.0000239999998
 20
80.0
 30
0.0
 11
-1697.619629
 21
80.0
 31
0.0
  0
LINE
  5
754
330
147A
100
AcDbEntity
  8
SIZE
100
AcDbLine
 10
-1667.619629
 20
70.0
 30
0.0
 11
-1667.619629
 21
10.0
 31
0.0
  0
LINE
  5
755
330
147A
100
AcDbEntity
  8
SIZE
100
AcDbLine
 10
-1667.619629
 20
0.0
 30
0.0
 11
-1667.619629
 21
-143.257143
 31
0.0
  0
CIRCLE
  5
756
330
147A
100
AcDbEntity
  8
SIZE
100
AcDbCircle
 10
-1667.619629
 20
80.0
 30
0.0
 40
5.0
  0
LINE
  5
757
330
147A
100
AcDbEntity
  8
SIZE
100
AcDbLine
 10
-1667.619629
 20
75.0
 30
0.0
 11
-1667.619629
 21
70.0
 31
0.0
  0
CIRCLE
  5
758
330
147A
100
AcDbEntity
  8
SIZE
100
AcDbCircle
 10
-1667.619629
 20
0.0
 30
0.0
 40
5.0
  0
LINE
  5
759
330
147A
100
AcDbEntity
  8
SIZE
100
AcDbLine
 10
-1667.619629
 20
5.0
 30
0.0
 11
-1667.619629
 21
10.0
 31
0.0
  0
TEXT
  5
75A
330
147A
100
AcDbEntity
  8
SIZE
100
AcDbText
 10
-1687.619629
 20
-123.2571424285714
 30
0.0
 40
64.0
  1
80
 50
90.0
 41
0.9
 72
     1
 11
-1687.619629
 21
-76.62857099999998
 31
0.0
100
AcDbText
  0
LINE
  5
75E
330
147A
100
AcDbEntity
  8
SIZE
100
AcDbLine
 10
-510.0000239999998
 20
80.0
 30
0.0
 11
-1697.619629
 21
80.0
 31
0.0
  0
LINE
  5
75F
330
147A
100
AcDbEntity
  8
SIZE
100
AcDbLine
 10
-447.02694
 20
615.9976069999999
 30
0.0
 11
-1697.619629
 21
615.9976069999999
 31
0.0
  0
LINE
  5
760
330
147A
100
AcDbEntity
  8
SIZE
100
AcDbLine
 10
-1667.619629
 20
90.0
 30
0.0
 11
-1667.619629
 21
605.997607
 31
0.0
  0
CIRCLE
  5
761
330
147A
100
AcDbEntity
  8
SIZE
100
AcDbCircle
 10
-1667.619629
 20
80.0
 30
0.0
 40
5.0
  0
LINE
  5
762
330
147A
100
AcDbEntity
  8
SIZE
100
AcDbLine
 10
-1667.619629
 20
85.0
 30
0.0
 11
-1667.619629
 21
90.0
 31
0.0
  0
CIRCLE
  5
763
330
147A
100
AcDbEntity
  8
SIZE
100
AcDbCircle
 10
-1667.619629
 20
615.9976069999999
 30
0.0
 40
5.0
  0
LINE
  5
764
330
147A
100
AcDbEntity
  8
SIZE
100
AcDbLine
 10
-1667.619629
 20
610.997607
 30
0.0
 11
-1667.619629
 21
605.997607
 31
0.0
  0
TEXT
  5
765
330
147A
100
AcDbEntity
  8
SIZE
100
AcDbText
 10
-1687.619629
 20
275.3130897142857
 30
0.0
 40
64.0
  1
536
 50
90.0
 41
0.9
 72
     1
 11
-1687.619629
 21
347.998804
 31
0.0
100
AcDbText
  0
LINE
  5
769
330
147A
100
AcDbEntity
  8
SIZE
100
AcDbLine
 10
-447.02694
 20
615.9976069999999
 30
0.0
 11
-1697.619629
 21
615.9976069999999
 31
0.0
  0
LINE
  5
76A
330
147A
100
AcDbEntity
  8
SIZE
100
AcDbLine
 10
-437.030063
 20
1035.99643
 30
0.0
 11
-1697.619629
 21
1035.99643
 31
0.0
  0
LINE
  5
76B
330
147A
100
AcDbEntity
  8
SIZE
100
AcDbLine
 10
-1667.619629
 20
625.997607
 30
0.0
 11
-1667.619629
 21
1025.99643
 31
0.0
  0
CIRCLE
  5
76C
330
147A
100
AcDbEntity
  8
SIZE
100
AcDbCircle
 10
-1667.619629
 20
615.9976069999999
 30
0.0
 40
5.0
  0
LINE
  5
76D
330
147A
100
AcDbEntity
  8
SIZE
100
AcDbLine
 10
-1667.619629
 20
620.997607
 30
0.0
 11
-1667.619629
 21
625.997607
 31
0.0
  0
CIRCLE
  5
76E
330
147A
100
AcDbEntity
  8
SIZE
100
AcDbCircle
 10
-1667.619629
 20
1035.99643
 30
0.0
 40
5.0
  0
LINE
  5
76F
330
147A
100
AcDbEntity
  8
SIZE
100
AcDbLine
 10
-1667.619629
 20
1030.99643
 30
0.0
 11
-1667.619629
 21
1025.99643
 31
0.0
  0
TEXT
  5
770
330
147A
100
AcDbEntity
  8
SIZE
100
AcDbText
 10
-1687.619629
 20
751.9398761428572
 30
0.0
 40
64.0
  1
420
 50
90.0
 41
0.9
 72
     1
 11
-1687.619629
 21
825.997019
 31
0.0
100
AcDbText
  0
LINE
  5
774
330
147A
100
AcDbEntity
  8
SIZE
100
AcDbLine
 10
548.9307189999998
 20
30.0
 30
0.0
 11
694.727036
 21
30.0
 31
0.0
  0
LINE
  5
775
330
147A
100
AcDbEntity
  8
SIZE
100
AcDbLine
 10
540.1387519999998
 20
0.0
 30
0.0
 11
694.727036
 21
0.0
 31
0.0
  0
LINE
  5
776
330
147A
100
AcDbEntity
  8
SIZE
100
AcDbLine
 10
664.727036
 20
40.0
 30
0.0
 11
664.727036
 21
50.0
 31
0.0
  0
LINE
  5
777
330
147A
100
AcDbEntity
  8
SIZE
100
AcDbLine
 10
664.727036
 20
-10.0
 30
0.0
 11
664.727036
 21
-153.257143
 31
0.0
  0
LINE
  5
778
330
147A
100
AcDbEntity
  8
SIZE
100
AcDbLine
 10
664.727036
 20
30.0
 30
0.0
 11
664.727036
 21
0.0
 31
0.0
  0
CIRCLE
  5
779
330
147A
100
AcDbEntity
  8
SIZE
100
AcDbCircle
 10
664.727036
 20
30.0
 30
0.0
 40
5.0
  0
LINE
  5
77A
330
147A
100
AcDbEntity
  8
SIZE
100
AcDbLine
 10
664.727036
 20
35.0
 30
0.0
 11
664.727036
 21
40.0
 31
0.0
  0
CIRCLE
  5
77B
330
147A
100
AcDbEntity
  8
SIZE
100
AcDbCircle
 10
664.727036
 20
0.0
 30
0.0
 40
5.0
  0
LINE
  5
77C
330
147A
100
AcDbEntity
  8
SIZE
100
AcDbLine
 10
664.727036
 20
-5.0
 30
0.0
 11
664.727036
 21
-10.0
 31
0.0
  0
TEXT
  5
77D
330
147A
100
AcDbEntity
  8
SIZE
100
AcDbText
 10
644.727036
 20
-133.2571424285714
 30
0.0
 40
64.0
  1
30
 50
90.0
 41
0.9
 72
     1
 11
644.727036
 21
-86.62857099999998
 31
0.0
100
AcDbText
  0
LINE
  5
781
330
147A
100
AcDbEntity
  8
SIZE
100
AcDbLine
 10
541.0
 20
0.0
 30
0.0
 11
819.2461009999997
 21
0.0
 31
0.0
  0
LINE
  5
782
330
147A
100
AcDbEntity
  8
SIZE
100
AcDbLine
 10
584.7108059999998
 20
124.0
 30
0.0
 11
819.2461009999997
 21
124.0
 31
0.0
  0
LINE
  5
783
330
147A
100
AcDbEntity
  8
SIZE
100
AcDbLine
 10
789.2461009999997
 20
114.0
 30
0.0
 11
789.2461009999997
 21
10.0
 31
0.0
  0
LINE
  5
784
330
147A
100
AcDbEntity
  8
SIZE
100
AcDbLine
 10
789.2461009999997
 20
0.0
 30
0.0
 11
789.2461009999997
 21
-189.885714
 31
0.0
  0
CIRCLE
  5
785
330
147A
100
AcDbEntity
  8
SIZE
100
AcDbCircle
 10
789.2461009999997
 20
124.0
 30
0.0
 40
5.0
  0
LINE
  5
786
330
147A
100
AcDbEntity
  8
SIZE
100
AcDbLine
 10
789.2461009999997
 20
119.0
 30
0.0
 11
789.2461009999997
 21
114.0
 31
0.0
  0
CIRCLE
  5
787
330
147A
100
AcDbEntity
  8
SIZE
100
AcDbCircle
 10
789.2461009999997
 20
0.0
 30
0.0
 40
5.0
  0
LINE
  5
788
330
147A
100
AcDbEntity
  8
SIZE
100
AcDbLine
 10
789.2461009999997
 20
5.0
 30
0.0
 11
789.2461009999997
 21
10.0
 31
0.0
  0
TEXT
  5
789
330
147A
100
AcDbEntity
  8
SIZE
100
AcDbText
 10
769.2461009999997
 20
-169.8857141428571
 30
0.0
 40
64.0
  1
124
 50
90.0
 41
0.9
 72
     1
 11
769.2461009999997
 21
-99.94285699999997
 31
0.0
100
AcDbText
  0
LINE
  5
78D
330
147A
100
AcDbEntity
  8
SIZE
100
AcDbLine
 10
584.7108059999998
 20
124.0
 30
0.0
 11
819.2461009999997
 21
124.0
 31
0.0
  0
LINE
  5
78E
330
147A
100
AcDbEntity
  8
SIZE
100
AcDbLine
 10
584.636434
 20
199.0
 30
0.0
 11
819.2461009999997
 21
199.0
 31
0.0
  0
LINE
  5
78F
330
147A
100
AcDbEntity
  8
SIZE
100
AcDbLine
 10
789.2461009999997
 20
134.0
 30
0.0
 11
789.2461009999997
 21
189.0
 31
0.0
  0
LINE
  5
790
330
147A
100
AcDbEntity
  8
SIZE
100
AcDbLine
 10
789.2461009999997
 20
385.469009
 30
0.0
 11
789.2461009999997
 21
199.0
 31
0.0
  0
TEXT
  5
791
330
147A
100
AcDbEntity
  8
SIZE
100
AcDbText
 10
769.2461009999997
 20
272.2118655714286
 30
0.0
 40
64.0
  1
75
 50
90.0
 41
0.9
 72
     1
 11
769.2461009999997
 21
318.840437
 31
0.0
100
AcDbText
  0
CIRCLE
  5
792
330
147A
100
AcDbEntity
  8
SIZE
100
AcDbCircle
 10
789.2461009999997
 20
124.0
 30
0.0
 40
5.0
  0
LINE
  5
793
330
147A
100
AcDbEntity
  8
SIZE
100
AcDbLine
 10
789.2461009999997
 20
129.0
 30
0.0
 11
789.2461009999997
 21
134.0
 31
0.0
  0
CIRCLE
  5
794
330
147A
100
AcDbEntity
  8
SIZE
100
AcDbCircle
 10
789.2461009999997
 20
199.0
 30
0.0
 40
5.0
  0
LINE
  5
795
330
147A
100
AcDbEntity
  8
SIZE
100
AcDbLine
 10
789.2461009999997
 20
194.0
 30
0.0
 11
789.2461009999997
 21
189.0
 31
0.0
  0
LINE
  5
799
330
147A
100
AcDbEntity
  8
SIZE
100
AcDbLine
 10
-523.000024
 20
76.12532199999998
 30
0.0
 11
-523.000024
 21
318.647413
 31
0.0
  0
LINE
  5
79A
330
147A
100
AcDbEntity
  8
SIZE
100
AcDbLine
 10
-490.0023019999999
 20
270.0
 30
0.0
 11
-490.0023019999999
 21
318.647413
 31
0.0
  0
LINE
  5
79B
330
147A
100
AcDbEntity
  8
SIZE
100
AcDbLine
 10
-480.0023019999998
 20
288.647413
 30
0.0
 11
-470.0023019999998
 21
288.647413
 31
0.0
  0
LINE
  5
79C
330
147A
100
AcDbEntity
  8
SIZE
100
AcDbLine
 10
-533.000024
 20
288.647413
 30
0.0
 11
-956.5707939999999
 21
288.647413
 31
0.0
  0
LINE
  5
79D
330
147A
100
AcDbEntity
  8
SIZE
100
AcDbLine
 10
-490.0023019999999
 20
288.647413
 30
0.0
 11
-523.000024
 21
288.647413
 31
0.0
  0
CIRCLE
  5
79E
330
147A
100
AcDbEntity
  8
SIZE
100
AcDbCircle
 10
-490.0023019999999
 20
288.647413
 30
0.0
 40
5.0
  0
LINE
  5
79F
330
147A
100
AcDbEntity
  8
SIZE
100
AcDbLine
 10
-485.0023019999999
 20
288.647413
 30
0.0
 11
-480.0023019999998
 21
288.647413
 31
0.0
  0
CIRCLE
  5
7A0
330
147A
100
AcDbEntity
  8
SIZE
100
AcDbCircle
 10
-523.000024
 20
288.647413
 30
0.0
 40
5.0
  0
LINE
  5
7A1
330
147A
100
AcDbEntity
  8
SIZE
100
AcDbLine
 10
-528.000024
 20
288.647413
 30
0.0
 11
-533.000024
 21
288.647413
 31
0.0
  0
TEXT
  5
7A2
330
147A
100
AcDbEntity
  8
SIZE
100
AcDbText
 10
-936.5707938571425
 20
325.409317
 30
0.0
 40
64.0
  1
(33)
 41
0.9
 72
     1
 11
-852.9136509999997
 21
325.409317
 31
0.0
100
AcDbText
  0
LINE
  5
BA1
330
147A
100
AcDbEntity
  8
SIZE
100
AcDbLine
 10
605.0
 20
242.0
 30
0.0
 11
1129.863732
 21
242.0
 31
0.0
  0
LINE
  5
BA2
330
147A
100
AcDbEntity
  8
SIZE
100
AcDbLine
 10
605.0
 20
80.0
 30
0.0
 11
1129.863732
 21
80.0
 31
0.0
  0
LINE
  5
BA3
330
147A
100
AcDbEntity
  8
SIZE
100
AcDbLine
 10
1099.863732
 20
232.0
 30
0.0
 11
1099.863732
 21
90.0
 31
0.0
  0
CIRCLE
  5
BAA
330
147A
100
AcDbEntity
  8
SIZE
100
AcDbCircle
 10
1099.863732
 20
242.0
 30
0.0
 40
5.0
  0
LINE
  5
BAB
330
147A
100
AcDbEntity
  8
SIZE
100
AcDbLine
 10
1099.863732
 20
237.0
 30
0.0
 11
1099.863732
 21
232.0
 31
0.0
  0
CIRCLE
  5
BAC
330
147A
100
AcDbEntity
  8
SIZE
100
AcDbCircle
 10
1099.863732
 20
80.0
 30
0.0
 40
5.0
  0
LINE
  5
BAD
330
147A
100
AcDbEntity
  8
SIZE
100
AcDbLine
 10
1099.863732
 20
85.0
 30
0.0
 11
1099.863732
 21
90.0
 31
0.0
  0
TEXT
  5
BAE
330
147A
100
AcDbEntity
  8
SIZE
100
AcDbText
 10
1084.817876
 20
90.84741542857143
 30
0.0
 40
64.0
  1
162
 50
90.0
 41
0.9
 72
     1
 11
1084.817876
 21
159.418844
 31
0.0
100
AcDbText
  0
LINE
  5
C23
330
147A
100
AcDbEntity
  8
OUTLINE
100
AcDbLine
 10
-490.0000239999998
 20
1650.0
 30
0.0
 11
490.0000239999998
 21
1650.0
 31
0.0
  0
CIRCLE
  5
1506
330
147A
100
AcDbEntity
  8
ARRANGE
  6
Continuous
 62
     1
100
AcDbCircle
 10
0.0
 20
0.0
 30
0.0
 40
40.0
  0
LINE
  5
1507
330
147A
100
AcDbEntity
  8
ARRANGE
  6
Continuous
 62
     1
100
AcDbLine
 10
-39.59797974644789
 20
39.59797974644607
 30
0.0
 11
39.59797974644789
 21
-39.59797974644789
 31
0.0
  0
LINE
  5
1508
330
147A
100
AcDbEntity
  8
ARRANGE
  6
Continuous
 62
     1
100
AcDbLine
 10
39.59797974644789
 20
39.59797974644607
 30
0.0
 11
-39.59797974644789
 21
-39.59797974644789
 31
0.0
  0
ENDSEC
  0
SECTION
  2
OBJECTS
  0
DICTIONARY
  5
141B
330
0
100
AcDbDictionary
281
     1
  3
ACAD_CIP_PREVIOUS_PRODUCT_INFO
350
149B
  3
ACAD_COLOR
350
1471
  3
ACAD_GROUP
350
141C
  3
ACAD_LAYOUT
350
1470
  3
ACAD_MATERIAL
350
141F
  3
ACAD_MLEADERSTYLE
350
1474
  3
ACAD_MLINESTYLE
350
146D
  3
ACAD_PLOTSETTINGS
350
146F
  3
ACAD_PLOTSTYLENAME
350
141D
  3
ACAD_SCALELIST
350
1451
  3
ACAD_TABLESTYLE
350
1472
  3
ACAD_VISUALSTYLE
350
1438
  3
ACDB_RECOMPOSE_DATA
350
150B
  3
AcDbVariableDictionary
350
14B4
  3
DWGPROPS
350
150C
  0
DICTIONARY
  5
149E
330
1463
100
AcDbDictionary
280
     1
281
     1
  3
ADSK_XREC_LAYER_RECONCILED
360
149F
  0
DICTIONARY
  5
14A0
330
147E
100
AcDbDictionary
280
     1
281
     1
  3
ADSK_XREC_LAYER_RECONCILED
360
14A1
  0
DICTIONARY
  5
14A2
330
1481
100
AcDbDictionary
280
     1
281
     1
  3
ADSK_XREC_LAYER_RECONCILED
360
14A3
  0
DICTIONARY
  5
14A4
330
1482
100
AcDbDictionary
280
     1
281
     1
  3
ADSK_XREC_LAYER_RECONCILED
360
14A5
  0
DICTIONARY
  5
14A6
330
1483
100
AcDbDictionary
280
     1
281
     1
  3
ADSK_XREC_LAYER_RECONCILED
360
14A7
  0
DICTIONARY
  5
14A8
330
1484
100
AcDbDictionary
280
     1
281
     1
  3
ADSK_XREC_LAYER_RECONCILED
360
14A9
  0
DICTIONARY
  5
14AA
330
1485
100
AcDbDictionary
280
     1
281
     1
  3
ADSK_XREC_LAYER_RECONCILED
360
14AB
  0
DICTIONARY
  5
14AC
330
1486
100
AcDbDictionary
280
     1
281
     1
  3
ADSK_XREC_LAYER_RECONCILED
360
14AD
  0
DICTIONARY
  5
14AE
330
1487
100
AcDbDictionary
280
     1
281
     1
  3
ADSK_XREC_LAYER_RECONCILED
360
14AF
  0
DICTIONARY
  5
14B0
330
1488
100
AcDbDictionary
280
     1
281
     1
  3
ADSK_XREC_LAYER_RECONCILED
360
14B1
  0
DICTIONARY
  5
14B2
330
1489
100
AcDbDictionary
280
     1
281
     1
  3
ADSK_XREC_LAYER_RECONCILED
360
14B3
  0
XRECORD
  5
149B
102
{ACAD_REACTORS
330
141B
102
}
330
141B
100
AcDbXrecord
280
     1
300
ACD
300
2012
300
BDSPRM_F_S
  0
DICTIONARY
  5
1471
102
{ACAD_REACTORS
330
141B
102
}
330
141B
100
AcDbDictionary
281
     1
  0
DICTIONARY
  5
141C
102
{ACAD_REACTORS
330
141B
102
}
330
141B
100
AcDbDictionary
281
     1
  0
DICTIONARY
  5
1470
102
{ACAD_REACTORS
330
141B
102
}
330
141B
100
AcDbDictionary
281
     1
  3
Model
350
147D
  3
レイアウト1
350
1479
  0
DICTIONARY
  5
141F
102
{ACAD_REACTORS
330
141B
102
}
330
141B
100
AcDbDictionary
281
     1
  3
ByBlock
350
1428
  3
ByLayer
350
1420
  3
Global
350
1430
  0
DICTIONARY
  5
1474
102
{ACAD_REACTORS
330
141B
102
}
330
141B
100
AcDbDictionary
281
     1
  3
Standard
350
1475
  0
DICTIONARY
  5
146D
102
{ACAD_REACTORS
330
141B
102
}
330
141B
100
AcDbDictionary
281
     1
  3
Standard
350
146E
  0
DICTIONARY
  5
146F
102
{ACAD_REACTORS
330
141B
102
}
330
141B
100
AcDbDictionary
281
     1
  0
ACDBDICTIONARYWDFLT
  5
141D
102
{ACAD_REACTORS
330
141B
102
}
330
141B
100
AcDbDictionary
281
     1
  3
Normal
350
141E
100
AcDbDictionaryWithDefault
340
141E
  0
DICTIONARY
  5
1451
102
{ACAD_REACTORS
330
141B
102
}
330
141B
100
AcDbDictionary
281
     1
  3
A0
350
1452
  3
A1
350
1453
  3
A2
350
1454
  3
A3
350
1455
  3
A4
350
1456
  3
A5
350
1457
  3
A6
350
1458
  3
A7
350
1459
  3
A8
350
145A
  3
A9
350
145B
  3
B0
350
145C
  3
B1
350
145D
  3
B2
350
145E
  3
B3
350
145F
  3
B4
350
1460
  3
B5
350
1461
  3
B6
350
1462
  0
DICTIONARY
  5
1472
102
{ACAD_REACTORS
330
141B
102
}
330
141B
100
AcDbDictionary
281
     1
  3
Standard
350
1473
  0
DICTIONARY
  5
1438
102
{ACAD_REACTORS
330
141B
102
}
330
141B
100
AcDbDictionary
281
     1
  3
2dWireframe
350
143E
  3
Basic
350
143D
  3
Brighten
350
1444
  3
ColorChange
350
1448
  3
Conceptual
350
1441
  3
Dim
350
1443
  3
EdgeColorOff
350
1450
  3
Facepattern
350
1447
  3
Flat
350
1439
  3
FlatWithEdges
350
143A
  3
Gouraud
350
143B
  3
GouraudWithEdges
350
143C
  3
Hidden
350
1440
  3
JitterOff
350
144E
  3
Linepattern
350
1446
  3
OverhangOff
350
144F
  3
Realistic
350
1442
  3
Shaded
350
144D
  3
Shaded with edges
350
144C
  3
Shades of Gray
350
1449
  3
Sketchy
350
144A
  3
Thicken
350
1445
  3
Wireframe
350
143F
  3
X-Ray
350
144B
  0
XRECORD
  5
150B
102
{ACAD_REACTORS
330
141B
102
}
330
141B
100
AcDbXrecord
280
     1
 90
        1
330
1473
  0
DICTIONARY
  5
14B4
102
{ACAD_REACTORS
330
141B
102
}
330
141B
100
AcDbDictionary
281
     1
  3
CANNOSCALE
350
14B7
  3
CMLEADERSTYLE
350
14B6
  3
CTABLESTYLE
350
14B5
  3
DIMASSOC
350
14BA
  3
INDEXCTL
350
14B9
  3
SORTENTS
350
14B8
  3
XCLIPFRAME
350
1509
  0
XRECORD
  5
150C
102
{ACAD_REACTORS
330
141B
102
}
330
141B
100
AcDbXrecord
280
     1
  1
DWGPROPS COOKIE
  2

  3

  4

  6

  7

  8
prohiokamot
  9

300
=
301
=
302
=
303
=
304
=
305
=
306
=
307
=
308
=
309
=
 40
4.152633761574073
 41
2449761.493622998
 42
2458150.754109421
  1

 90
        0
  0
XRECORD
  5
149F
102
{ACAD_REACTORS
330
149E
102
}
330
149E
100
AcDbXrecord
280
     1
290
     1
  0
XRECORD
  5
14A1
102
{ACAD_REACTORS
330
14A0
102
}
330
14A0
100
AcDbXrecord
280
     1
290
     1
  0
XRECORD
  5
14A3
102
{ACAD_REACTORS
330
14A2
102
}
330
14A2
100
AcDbXrecord
280
     1
290
     1
  0
XRECORD
  5
14A5
102
{ACAD_REACTORS
330
14A4
102
}
330
14A4
100
AcDbXrecord
280
     1
290
     1
  0
XRECORD
  5
14A7
102
{ACAD_REACTORS
330
14A6
102
}
330
14A6
100
AcDbXrecord
280
     1
290
     1
  0
XRECORD
  5
14A9
102
{ACAD_REACTORS
330
14A8
102
}
330
14A8
100
AcDbXrecord
280
     1
290
     1
  0
XRECORD
  5
14AB
102
{ACAD_REACTORS
330
14AA
102
}
330
14AA
100
AcDbXrecord
280
     1
290
     1
  0
XRECORD
  5
14AD
102
{ACAD_REACTORS
330
14AC
102
}
330
14AC
100
AcDbXrecord
280
     1
290
     1
  0
XRECORD
  5
14AF
102
{ACAD_REACTORS
330
14AE
102
}
330
14AE
100
AcDbXrecord
280
     1
290
     1
  0
XRECORD
  5
14B1
102
{ACAD_REACTORS
330
14B0
102
}
330
14B0
100
AcDbXrecord
280
     1
290
     1
  0
XRECORD
  5
14B3
102
{ACAD_REACTORS
330
14B2
102
}
330
14B2
100
AcDbXrecord
280
     1
290
     1
  0
LAYOUT
  5
147D
102
{ACAD_XDICTIONARY
360
1540
102
}
102
{ACAD_REACTORS
330
1470
102
}
330
1470
100
AcDbPlotSettings
  1

  2
OKI C931(PS)
  4

  6

 40
0.0
 41
0.0
 42
0.0
 43
0.0
 44
0.0
 45
0.0
 46
0.0
 47
0.0
 48
0.0
 49
0.0
140
0.0
141
0.0
142
1.0
143
1.0
 70
  1712
 72
     0
 73
     0
 74
     0
  7
monochrome.ctb
 75
     0
147
1.0
148
0.0
149
0.0
100
AcDbLayout
  1
Model
 70
     1
 71
     0
 10
0.0
 20
0.0
 11
12.0
 21
9.0
 12
0.0
 22
0.0
 32
0.0
 14
0.0
 24
0.0
 34
0.0
 15
0.0
 25
0.0
 35
0.0
146
0.0
 13
0.0
 23
0.0
 33
0.0
 16
1.0
 26
0.0
 36
0.0
 17
0.0
 27
1.0
 37
0.0
 76
     0
330
147A
331
147F
  0
LAYOUT
  5
1479
102
{ACAD_XDICTIONARY
360
153E
102
}
102
{ACAD_REACTORS
330
1470
102
}
330
1470
100
AcDbPlotSettings
  1

  2
OKI C931(PS)
  4

  6

 40
0.0
 41
0.0
 42
0.0
 43
0.0
 44
0.0
 45
0.0
 46
0.0
 47
0.0
 48
0.0
 49
0.0
140
0.0
141
0.0
142
1.0
143
1.0
 70
   688
 72
     0
 73
     0
 74
     5
  7
monochrome.ctb
 75
    16
147
1.0
148
0.0
149
0.0
100
AcDbLayout
  1
レイアウト1
 70
     1
 71
     1
 10
0.0
 20
0.0
 11
12.0
 21
9.0
 12
0.0
 22
0.0
 32
0.0
 14
1.000000000000000E+20
 24
1.000000000000000E+20
 34
1.000000000000000E+20
 15
-1.000000000000000E+20
 25
-1.000000000000000E+20
 35
-1.000000000000000E+20
146
0.0
 13
0.0
 23
0.0
 33
0.0
 16
1.0
 26
0.0
 36
0.0
 17
0.0
 27
1.0
 37
0.0
 76
     0
330
1476
  0
MATERIAL
  5
1428
102
{ACAD_XDICTIONARY
360
1429
102
}
102
{ACAD_REACTORS
330
141F
102
}
330
141F
100
AcDbMaterial
  1
ByBlock
 72
     0
 43
0.0208333333333333
 43
0.0
 43
0.0
 43
0.0
 43
0.0
 43
0.0208333333333333
 43
0.0
 43
0.0
 43
0.0
 43
0.0
 43
1.0
 43
0.0
 43
0.0
 43
0.0
 43
0.0
 43
1.0
 77
     0
 47
0.0208333333333333
 47
0.0
 47
0.0
 47
0.0
 47
0.0
 47
0.0208333333333333
 47
0.0
 47
0.0
 47
0.0
 47
0.0
 47
1.0
 47
0.0
 47
0.0
 47
0.0
 47
0.0
 47
1.0
171
     0
 49
0.0208333333333333
 49
0.0
 49
0.0
 49
0.0
 49
0.0
 49
0.0208333333333333
 49
0.0
 49
0.0
 49
0.0
 49
0.0
 49
1.0
 49
0.0
 49
0.0
 49
0.0
 49
0.0
 49
1.0
175
     0
142
0.0208333333333333
142
0.0
142
0.0
142
0.0
142
0.0
142
0.0208333333333333
142
0.0
142
0.0
142
0.0
142
0.0
142
1.0
142
0.0
142
0.0
142
0.0
142
0.0
142
1.0
179
     0
144
0.0208333333333333
144
0.0
144
0.0
144
0.0
144
0.0
144
0.0208333333333333
144
0.0
144
0.0
144
0.0
144
0.0
144
1.0
144
0.0
144
0.0
144
0.0
144
0.0
144
1.0
147
0.0208333333333333
147
0.0
147
0.0
147
0.0
147
0.0
147
0.0208333333333333
147
0.0
147
0.0
147
0.0
147
0.0
147
1.0
147
0.0
147
0.0
147
0.0
147
0.0
147
1.0
  0
MATERIAL
  5
1420
102
{ACAD_XDICTIONARY
360
1421
102
}
102
{ACAD_REACTORS
330
141F
102
}
330
141F
100
AcDbMaterial
  1
ByLayer
 72
     0
 43
0.0208333333333333
 43
0.0
 43
0.0
 43
0.0
 43
0.0
 43
0.0208333333333333
 43
0.0
 43
0.0
 43
0.0
 43
0.0
 43
1.0
 43
0.0
 43
0.0
 43
0.0
 43
0.0
 43
1.0
 77
     0
 47
0.0208333333333333
 47
0.0
 47
0.0
 47
0.0
 47
0.0
 47
0.0208333333333333
 47
0.0
 47
0.0
 47
0.0
 47
0.0
 47
1.0
 47
0.0
 47
0.0
 47
0.0
 47
0.0
 47
1.0
171
     0
 49
0.0208333333333333
 49
0.0
 49
0.0
 49
0.0
 49
0.0
 49
0.0208333333333333
 49
0.0
 49
0.0
 49
0.0
 49
0.0
 49
1.0
 49
0.0
 49
0.0
 49
0.0
 49
0.0
 49
1.0
175
     0
142
0.0208333333333333
142
0.0
142
0.0
142
0.0
142
0.0
142
0.0208333333333333
142
0.0
142
0.0
142
0.0
142
0.0
142
1.0
142
0.0
142
0.0
142
0.0
142
0.0
142
1.0
179
     0
144
0.0208333333333333
144
0.0
144
0.0
144
0.0
144
0.0
144
0.0208333333333333
144
0.0
144
0.0
144
0.0
144
0.0
144
1.0
144
0.0
144
0.0
144
0.0
144
0.0
144
1.0
147
0.0208333333333333
147
0.0
147
0.0
147
0.0
147
0.0
147
0.0208333333333333
147
0.0
147
0.0
147
0.0
147
0.0
147
1.0
147
0.0
147
0.0
147
0.0
147
0.0
147
1.0
  0
MATERIAL
  5
1430
102
{ACAD_XDICTIONARY
360
1431
102
}
102
{ACAD_REACTORS
330
141F
102
}
330
141F
100
AcDbMaterial
  1
Global
 72
     0
 43
0.0208333333333333
 43
0.0
 43
0.0
 43
0.0
 43
0.0
 43
0.0208333333333333
 43
0.0
 43
0.0
 43
0.0
 43
0.0
 43
1.0
 43
0.0
 43
0.0
 43
0.0
 43
0.0
 43
1.0
 77
     0
 47
0.0208333333333333
 47
0.0
 47
0.0
 47
0.0
 47
0.0
 47
0.0208333333333333
 47
0.0
 47
0.0
 47
0.0
 47
0.0
 47
1.0
 47
0.0
 47
0.0
 47
0.0
 47
0.0
 47
1.0
171
     0
 49
0.0208333333333333
 49
0.0
 49
0.0
 49
0.0
 49
0.0
 49
0.0208333333333333
 49
0.0
 49
0.0
 49
0.0
 49
0.0
 49
1.0
 49
0.0
 49
0.0
 49
0.0
 49
0.0
 49
1.0
175
     0
142
0.0208333333333333
142
0.0
142
0.0
142
0.0
142
0.0
142
0.0208333333333333
142
0.0
142
0.0
142
0.0
142
0.0
142
1.0
142
0.0
142
0.0
142
0.0
142
0.0
142
1.0
179
     0
144
0.0208333333333333
144
0.0
144
0.0
144
0.0
144
0.0
144
0.0208333333333333
144
0.0
144
0.0
144
0.0
144
0.0
144
1.0
144
0.0
144
0.0
144
0.0
144
0.0
144
1.0
147
0.0208333333333333
147
0.0
147
0.0
147
0.0
147
0.0
147
0.0208333333333333
147
0.0
147
0.0
147
0.0
147
0.0
147
1.0
147
0.0
147
0.0
147
0.0
147
0.0
147
1.0
  0
MLEADERSTYLE
  5
1475
102
{ACAD_REACTORS
330
1474
102
}
330
1474
100
AcDbMLeaderStyle
170
     2
171
     1
172
     0
 90
        2
 40
0.0
 41
0.0
173
     1
 91
-1056964608
340
1469
 92
       -2
290
     1
 42
0.09
291
     1
 43
0.36
  3
Standard
 44
0.18
300

342
1464
174
     1
178
     6
175
     1
176
     0
 93
-1056964608
 45
0.18
292
     0
297
     0
 46
0.18
 94
-1056964608
 47
1.0
 49
1.0
140
1.0
293
     1
141
0.0
294
     1
177
     0
142
1.0
295
     0
296
     0
143
0.125
1001
ACAD_MLEADERVER
1070
     2
  0
MLINESTYLE
  5
146E
102
{ACAD_REACTORS
330
146D
102
}
330
146D
100
AcDbMlineStyle
  2
STANDARD
 70
     0
  3

 62
   256
 51
90.0
 52
90.0
 71
     2
 49
0.5
 62
   256
  6
BYLAYER
 49
-0.5
 62
   256
  6
BYLAYER
  0
ACDBPLACEHOLDER
  5
141E
102
{ACAD_REACTORS
330
141D
102
}
330
141D
  0
SCALE
  5
1452
102
{ACAD_REACTORS
330
1451
102
}
330
1451
100
AcDbScale
 70
     0
300
1:1
140
1.0
141
1.0
290
     1
  0
SCALE
  5
1453
102
{ACAD_REACTORS
330
1451
102
}
330
1451
100
AcDbScale
 70
     0
300
1/128" = 1'-0"
140
0.0078125
141
12.0
290
     0
  0
SCALE
  5
1454
102
{ACAD_REACTORS
330
1451
102
}
330
1451
100
AcDbScale
 70
     0
300
1/64" = 1'-0"
140
0.015625
141
12.0
290
     0
  0
SCALE
  5
1455
102
{ACAD_REACTORS
330
1451
102
}
330
1451
100
AcDbScale
 70
     0
300
1/32" = 1'-0"
140
0.03125
141
12.0
290
     0
  0
SCALE
  5
1456
102
{ACAD_REACTORS
330
1451
102
}
330
1451
100
AcDbScale
 70
     0
300
1/16" = 1'-0"
140
0.0625
141
12.0
290
     0
  0
SCALE
  5
1457
102
{ACAD_REACTORS
330
1451
102
}
330
1451
100
AcDbScale
 70
     0
300
3/32" = 1'-0"
140
0.09375
141
12.0
290
     0
  0
SCALE
  5
1458
102
{ACAD_REACTORS
330
1451
102
}
330
1451
100
AcDbScale
 70
     0
300
1/8" = 1'-0"
140
0.125
141
12.0
290
     0
  0
SCALE
  5
1459
102
{ACAD_REACTORS
330
1451
102
}
330
1451
100
AcDbScale
 70
     0
300
3/16" = 1'-0"
140
0.1875
141
12.0
290
     0
  0
SCALE
  5
145A
102
{ACAD_REACTORS
330
1451
102
}
330
1451
100
AcDbScale
 70
     0
300
1/4" = 1'-0"
140
0.25
141
12.0
290
     0
  0
SCALE
  5
145B
102
{ACAD_REACTORS
330
1451
102
}
330
1451
100
AcDbScale
 70
     0
300
3/8" = 1'-0"
140
0.375
141
12.0
290
     0
  0
SCALE
  5
145C
102
{ACAD_REACTORS
330
1451
102
}
330
1451
100
AcDbScale
 70
     0
300
1/2" = 1'-0"
140
0.5
141
12.0
290
     0
  0
SCALE
  5
145D
102
{ACAD_REACTORS
330
1451
102
}
330
1451
100
AcDbScale
 70
     0
300
3/4" = 1'-0"
140
0.75
141
12.0
290
     0
  0
SCALE
  5
145E
102
{ACAD_REACTORS
330
1451
102
}
330
1451
100
AcDbScale
 70
     0
300
1" = 1'-0"
140
1.0
141
12.0
290
     0
  0
SCALE
  5
145F
102
{ACAD_REACTORS
330
1451
102
}
330
1451
100
AcDbScale
 70
     0
300
1-1/2" = 1'-0"
140
1.5
141
12.0
290
     0
  0
SCALE
  5
1460
102
{ACAD_REACTORS
330
1451
102
}
330
1451
100
AcDbScale
 70
     0
300
3" = 1'-0"
140
3.0
141
12.0
290
     0
  0
SCALE
  5
1461
102
{ACAD_REACTORS
330
1451
102
}
330
1451
100
AcDbScale
 70
     0
300
6" = 1'-0"
140
6.0
141
12.0
290
     0
  0
SCALE
  5
1462
102
{ACAD_REACTORS
330
1451
102
}
330
1451
100
AcDbScale
 70
     0
300
1'-0" = 1'-0"
140
12.0
141
12.0
290
     0
  0
TABLESTYLE
  5
1473
102
{ACAD_XDICTIONARY
360
14BC
102
}
102
{ACAD_REACTORS
330
1472
102
}
330
1472
100
AcDbTableStyle
  3
Standard
 70
     0
 71
     0
 40
0.06
 41
0.06
280
     0
281
     0
  7
STANDARD
140
0.18
170
     2
 62
     0
 63
     7
283
     0
274
    -2
284
     1
 64
     0
275
    -2
285
     1
 65
     0
276
    -2
286
     1
 66
     0
277
    -2
287
     1
 67
     0
278
    -2
288
     1
 68
     0
279
    -2
289
     1
 69
     0
  7
STANDARD
140
0.25
170
     5
 62
     0
 63
     7
283
     0
274
    -2
284
     1
 64
     0
275
    -2
285
     1
 65
     0
276
    -2
286
     1
 66
     0
277
    -2
287
     1
 67
     0
278
    -2
288
     1
 68
     0
279
    -2
289
     1
 69
     0
  7
STANDARD
140
0.18
170
     5
 62
     0
 63
     7
283
     0
274
    -2
284
     1
 64
     0
275
    -2
285
     1
 65
     0
276
    -2
286
     1
 66
     0
277
    -2
287
     1
 67
     0
278
    -2
288
     1
 68
     0
279
    -2
289
     1
 69
     0
  0
VISUALSTYLE
  5
143E
102
{ACAD_XDICTIONARY
360
1517
102
}
102
{ACAD_REACTORS
330
1438
102
}
330
1438
100
AcDbVisualStyle
  2

 70
     4
 71
     0
 72
     2
 73
     0
 90
        0
 40
-0.6
 41
-30.0
 62
     5
 63
     7
 74
     1
 91
        4
 64
     7
 65
   257
 75
     1
175
     1
 42
1.0
 92
        0
 66
   257
 43
1.0
 76
     1
 77
     6
 78
     2
 67
     7
 79
     5
170
     0
171
     0
290
     0
174
     0
 93
        1
 44
0.0
173
     0
291
     0
 45
0.0
1001
ACAD
1000
AcDbSavedByObjectVersion
1070
     0
  0
VISUALSTYLE
  5
143D
102
{ACAD_XDICTIONARY
360
1515
102
}
102
{ACAD_REACTORS
330
1438
102
}
330
1438
100
AcDbVisualStyle
  2

 70
     7
 71
     1
 72
     0
 73
     1
 90
        0
 40
-0.6
 41
-30.0
 62
     5
 63
     7
 74
     0
 91
        4
 64
     7
 65
   257
 75
     1
175
     1
 42
1.0
 92
        8
 66
     7
 43
1.0
 76
     1
 77
     6
 78
     2
 67
     7
 79
     5
170
     0
171
     0
290
     0
174
     0
 93
        1
 44
0.0
173
     0
291
     1
 45
0.0
1001
ACAD
1000
AcDbSavedByObjectVersion
1070
     0
  0
VISUALSTYLE
  5
1444
102
{ACAD_XDICTIONARY
360
1523
102
}
102
{ACAD_REACTORS
330
1438
102
}
330
1438
100
AcDbVisualStyle
  2

 70
    12
 71
     2
 72
     2
 73
     0
 90
        0
 40
-0.6
 41
-30.0
 62
     5
 63
     7
 74
     1
 91
        4
 64
     7
 65
   257
 75
     1
175
     1
 42
1.0
 92
        8
 66
     7
 43
1.0
 76
     1
 77
     6
 78
     2
 67
     7
 79
     5
170
     0
171
     0
290
     0
174
     0
 93
        1
 44
50.0
173
     0
291
     1
 45
0.0
1001
ACAD
1000
AcDbSavedByObjectVersion
1070
     0
  0
VISUALSTYLE
  5
1448
102
{ACAD_XDICTIONARY
360
152B
102
}
102
{ACAD_REACTORS
330
1438
102
}
330
1438
100
AcDbVisualStyle
  2

 70
    16
 71
     2
 72
     2
 73
     3
 90
        0
 40
-0.6
 41
-30.0
 62
     5
 63
     8
 74
     1
 91
        4
 64
     7
 65
   257
 75
     1
175
     1
 42
1.0
 92
        8
 66
     8
 43
1.0
 76
     1
 77
     6
 78
     2
 67
     7
 79
     5
170
     0
171
     0
290
     0
174
     0
 93
        1
 44
0.0
173
     0
291
     1
 45
0.0
1001
ACAD
1000
AcDbSavedByObjectVersion
1070
     0
  0
VISUALSTYLE
  5
1441
102
{ACAD_XDICTIONARY
360
151D
102
}
102
{ACAD_REACTORS
330
1438
102
}
330
1438
100
AcDbVisualStyle
  2

 70
     9
 71
     3
 72
     2
 73
     0
 90
        0
 40
-0.6
 41
-30.0
 62
     5
 63
     7
 74
     2
 91
        2
 64
     7
 65
   257
 75
     1
175
     1
 42
179.0
 92
        8
 66
     7
 43
1.0
 76
     1
 77
     6
 78
     2
 67
     7
 79
     3
170
     0
171
     0
290
     0
174
     0
 93
        1
 44
0.0
173
     0
291
     0
 45
0.0
1001
ACAD
1000
AcDbSavedByObjectVersion
1070
     0
  0
VISUALSTYLE
  5
1443
102
{ACAD_XDICTIONARY
360
1521
102
}
102
{ACAD_REACTORS
330
1438
102
}
330
1438
100
AcDbVisualStyle
  2

 70
    11
 71
     2
 72
     2
 73
     0
 90
        0
 40
-0.6
 41
-30.0
 62
     5
 63
     7
 74
     1
 91
        4
 64
     7
 65
   257
 75
     1
175
     1
 42
1.0
 92
        8
 66
     7
 43
1.0
 76
     1
 77
     6
 78
     2
 67
     7
 79
     5
170
     0
171
     0
290
     0
174
     0
 93
        1
 44
-50.0
173
     0
291
     1
 45
0.0
1001
ACAD
1000
AcDbSavedByObjectVersion
1070
     0
  0
VISUALSTYLE
  5
1450
102
{ACAD_XDICTIONARY
360
153B
102
}
102
{ACAD_REACTORS
330
1438
102
}
330
1438
100
AcDbVisualStyle
  2

 70
    22
 71
     2
 72
     2
 73
     0
 90
        0
 40
-0.6
 41
-30.0
 62
     5
 63
     7
 74
     1
 91
        4
 64
     7
 65
   257
 75
     1
175
     1
 42
1.0
 92
        8
 66
     7
 43
1.0
 76
     1
 77
     6
 78
     2
 67
     7
 79
     5
170
     0
171
     0
290
     0
174
     0
 93
        1
 44
0.0
173
     0
291
     1
 45
0.0
1001
ACAD
1000
AcDbSavedByObjectVersion
1070
     0
  0
VISUALSTYLE
  5
1447
102
{ACAD_XDICTIONARY
360
1529
102
}
102
{ACAD_REACTORS
330
1438
102
}
330
1438
100
AcDbVisualStyle
  2

 70
    15
 71
     2
 72
     2
 73
     0
 90
        0
 40
-0.6
 41
-30.0
 62
     5
 63
     7
 74
     1
 91
        4
 64
     7
 65
   257
 75
     1
175
     1
 42
1.0
 92
        8
 66
     7
 43
1.0
 76
     1
 77
     6
 78
     2
 67
     7
 79
     5
170
     0
171
     0
290
     0
174
     0
 93
        1
 44
0.0
173
     0
291
     1
 45
0.0
1001
ACAD
1000
AcDbSavedByObjectVersion
1070
     0
  0
VISUALSTYLE
  5
1439
102
{ACAD_XDICTIONARY
360
150D
102
}
102
{ACAD_REACTORS
330
1438
102
}
330
1438
100
AcDbVisualStyle
  2

 70
     0
 71
     2
 72
     1
 73
     1
 90
        2
 40
-0.6
 41
30.0
 62
     5
 63
     7
 74
     0
 91
        0
 64
     7
 65
   257
 75
     1
175
     1
 42
1.0
 92
        8
 66
     7
 43
1.0
 76
     1
 77
     6
 78
     2
 67
     7
 79
     5
170
     0
171
     0
290
     0
174
     0
 93
       13
 44
0.0
173
     0
291
     1
 45
0.0
1001
ACAD
1000
AcDbSavedByObjectVersion
1070
     0
  0
VISUALSTYLE
  5
143A
102
{ACAD_XDICTIONARY
360
150F
102
}
102
{ACAD_REACTORS
330
1438
102
}
330
1438
100
AcDbVisualStyle
  2

 70
     1
 71
     2
 72
     1
 73
     1
 90
        2
 40
-0.6
 41
30.0
 62
     5
 63
     7
 74
     1
 91
        0
 64
     7
 65
   257
 75
     1
175
     1
 42
1.0
 92
        0
 66
   257
 43
1.0
 76
     1
 77
     6
 78
     2
 67
     7
 79
     5
170
     0
171
     0
290
     0
174
     0
 93
       13
 44
0.0
173
     0
291
     1
 45
0.0
1001
ACAD
1000
AcDbSavedByObjectVersion
1070
     0
  0
VISUALSTYLE
  5
143B
102
{ACAD_XDICTIONARY
360
1511
102
}
102
{ACAD_REACTORS
330
1438
102
}
330
1438
100
AcDbVisualStyle
  2

 70
     2
 71
     2
 72
     2
 73
     1
 90
        2
 40
-0.6
 41
30.0
 62
     5
 63
     7
 74
     0
 91
        0
 64
     7
 65
   257
 75
     1
175
     1
 42
1.0
 92
        0
 66
     7
 43
1.0
 76
     1
 77
     6
 78
     2
 67
     7
 79
     5
170
     0
171
     0
290
     0
174
     0
 93
       13
 44
0.0
173
     0
291
     1
 45
0.0
1001
ACAD
1000
AcDbSavedByObjectVersion
1070
     0
  0
VISUALSTYLE
  5
143C
102
{ACAD_XDICTIONARY
360
1513
102
}
102
{ACAD_REACTORS
330
1438
102
}
330
1438
100
AcDbVisualStyle
  2

 70
     3
 71
     2
 72
     2
 73
     1
 90
        2
 40
-0.6
 41
30.0
 62
     5
 63
     7
 74
     1
 91
        0
 64
     7
 65
   257
 75
     1
175
     1
 42
1.0
 92
        0
 66
   257
 43
1.0
 76
     1
 77
     6
 78
     2
 67
     7
 79
     5
170
     0
171
     0
290
     0
174
     0
 93
       13
 44
0.0
173
     0
291
     1
 45
0.0
1001
ACAD
1000
AcDbSavedByObjectVersion
1070
     0
  0
VISUALSTYLE
  5
1440
102
{ACAD_XDICTIONARY
360
151B
102
}
102
{ACAD_REACTORS
330
1438
102
}
330
1438
100
AcDbVisualStyle
  2

 70
     6
 71
     1
 72
     2
 73
     2
 90
        0
 40
-0.6
 41
-30.0
 62
     5
 63
     7
 74
     2
 91
        2
 64
     7
 65
   257
 75
     2
175
     1
 42
40.0
 92
        0
 66
   257
 43
1.0
 76
     1
 77
     6
 78
     2
 67
     7
 79
     3
170
     0
171
     0
290
     0
174
     0
 93
        1
 44
0.0
173
     0
291
     0
 45
0.0
1001
ACAD
1000
AcDbSavedByObjectVersion
1070
     0
  0
VISUALSTYLE
  5
144E
102
{ACAD_XDICTIONARY
360
1537
102
}
102
{ACAD_REACTORS
330
1438
102
}
330
1438
100
AcDbVisualStyle
  2

 70
    20
 71
     2
 72
     2
 73
     0
 90
        0
 40
-0.6
 41
-30.0
 62
     5
 63
     7
 74
     1
 91
        4
 64
     7
 65
   257
 75
     1
175
     1
 42
1.0
 92
       10
 66
     7
 43
1.0
 76
     1
 77
     6
 78
     2
 67
     7
 79
     5
170
     0
171
     0
290
     0
174
     0
 93
        1
 44
0.0
173
     0
291
     1
 45
0.0
1001
ACAD
1000
AcDbSavedByObjectVersion
1070
     0
  0
VISUALSTYLE
  5
1446
102
{ACAD_XDICTIONARY
360
1527
102
}
102
{ACAD_REACTORS
330
1438
102
}
330
1438
100
AcDbVisualStyle
  2

 70
    14
 71
     2
 72
     2
 73
     0
 90
        0
 40
-0.6
 41
-30.0
 62
     5
 63
     7
 74
     1
 91
        4
 64
     7
 65
   257
 75
     7
175
     7
 42
1.0
 92
        8
 66
     7
 43
1.0
 76
     1
 77
     6
 78
     2
 67
     7
 79
     5
170
     0
171
     0
290
     0
174
     0
 93
        1
 44
0.0
173
     0
291
     1
 45
0.0
1001
ACAD
1000
AcDbSavedByObjectVersion
1070
     0
  0
VISUALSTYLE
  5
144F
102
{ACAD_XDICTIONARY
360
1539
102
}
102
{ACAD_REACTORS
330
1438
102
}
330
1438
100
AcDbVisualStyle
  2

 70
    21
 71
     2
 72
     2
 73
     0
 90
        0
 40
-0.6
 41
-30.0
 62
     5
 63
     7
 74
     1
 91
        4
 64
     7
 65
   257
 75
     1
175
     1
 42
1.0
 92
        9
 66
     7
 43
1.0
 76
     1
 77
     6
 78
     2
 67
     7
 79
     5
170
     0
171
     0
290
     0
174
     0
 93
        1
 44
0.0
173
     0
291
     1
 45
0.0
1001
ACAD
1000
AcDbSavedByObjectVersion
1070
     0
  0
VISUALSTYLE
  5
1442
102
{ACAD_XDICTIONARY
360
151F
102
}
102
{ACAD_REACTORS
330
1438
102
}
330
1438
100
AcDbVisualStyle
  2

 70
     8
 71
     2
 72
     3
 73
     0
 90
        2
 40
-0.6
 41
30.0
 62
     5
 63
     7
 74
     0
 91
        0
 64
     7
 65
   257
 75
     1
175
     1
 42
1.0
 92
        8
 66
   257
 43
1.0
 76
     1
 77
     6
 78
     2
 67
     7
 79
     3
170
     0
171
     0
290
     0
174
     0
 93
       13
 44
0.0
173
     0
291
     0
 45
0.0
1001
ACAD
1000
AcDbSavedByObjectVersion
1070
     0
  0
VISUALSTYLE
  5
144D
102
{ACAD_XDICTIONARY
360
1535
102
}
102
{ACAD_REACTORS
330
1438
102
}
330
1438
100
AcDbVisualStyle
  2

 70
    27
 71
     2
 72
     2
 73
     1
 90
        2
 40
-0.6
 41
30.0
 62
     5
 63
     7
 74
     0
 91
        4
 64
     7
 65
   257
 75
     1
175
     1
 42
1.0
 92
        8
 66
   257
 43
1.0
 76
     1
 77
     6
 78
     2
 67
     8
 79
     3
170
     0
171
     0
290
     0
174
     0
 93
        5
 44
0.0
173
     0
291
     0
 45
0.0
1001
ACAD
1000
AcDbSavedByObjectVersion
1070
     0
  0
VISUALSTYLE
  5
144C
102
{ACAD_XDICTIONARY
360
1533
102
}
102
{ACAD_REACTORS
330
1438
102
}
330
1438
100
AcDbVisualStyle
  2

 70
    26
 71
     2
 72
     2
 73
     1
 90
        2
 40
-0.6
 41
30.0
 62
     5
 63
     7
 74
     1
 91
       10
 64
     7
 65
   257
 75
     2
175
     1
 42
1.0
 92
        8
 66
   257
 43
1.0
 76
     1
 77
     6
 78
     2
 67
     7
 79
     3
170
     0
171
     0
290
     0
174
     0
 93
        5
 44
0.0
173
     0
291
     0
 45
0.0
1001
ACAD
1000
AcDbSavedByObjectVersion
1070
     0
  0
VISUALSTYLE
  5
1449
102
{ACAD_XDICTIONARY
360
152D
102
}
102
{ACAD_REACTORS
330
1438
102
}
330
1438
100
AcDbVisualStyle
  2

 70
    23
 71
     2
 72
     2
 73
     3
 90
        0
 40
-0.6
 41
-30.0
 62
     5
 63
     7
 74
     2
 91
        2
 64
     7
 65
     7
 75
     1
175
     1
 42
40.0
 92
        8
 66
     7
 43
1.0
 76
     1
 77
     6
 78
     2
 67
     7
 79
     3
170
     0
171
     0
290
     0
174
     0
 93
        1
 44
0.0
173
     0
291
     0
 45
0.0
1001
ACAD
1000
AcDbSavedByObjectVersion
1070
     0
  0
VISUALSTYLE
  5
144A
102
{ACAD_XDICTIONARY
360
152F
102
}
102
{ACAD_REACTORS
330
1438
102
}
330
1438
100
AcDbVisualStyle
  2

 70
    24
 71
     1
 72
     2
 73
     2
 90
        0
 40
-0.6
 41
-30.0
 62
     5
 63
     7
 74
     2
 91
        2
 64
     7
 65
     7
 75
     1
175
     1
 42
40.0
 92
       11
 66
     7
 43
1.0
 76
     1
 77
     6
 78
     2
 67
     7
 79
     6
170
     0
171
     0
290
     0
174
     0
 93
        1
 44
0.0
173
     0
291
     0
 45
0.0
1001
ACAD
1000
AcDbSavedByObjectVersion
1070
     0
  0
VISUALSTYLE
  5
1445
102
{ACAD_XDICTIONARY
360
1525
102
}
102
{ACAD_REACTORS
330
1438
102
}
330
1438
100
AcDbVisualStyle
  2

 70
    13
 71
     2
 72
     2
 73
     0
 90
        0
 40
-0.6
 41
-30.0
 62
     5
 63
     7
 74
     1
 91
        4
 64
     7
 65
   257
 75
     1
175
     1
 42
1.0
 92
       12
 66
     7
 43
1.0
 76
     1
 77
     6
 78
     2
 67
     7
 79
     5
170
     0
171
     0
290
     0
174
     0
 93
        1
 44
0.0
173
     0
291
     1
 45
0.0
1001
ACAD
1000
AcDbSavedByObjectVersion
1070
     0
  0
VISUALSTYLE
  5
143F
102
{ACAD_XDICTIONARY
360
1519
102
}
102
{ACAD_REACTORS
330
1438
102
}
330
1438
100
AcDbVisualStyle
  2

 70
     5
 71
     0
 72
     2
 73
     0
 90
        0
 40
-0.6
 41
-30.0
 62
     5
 63
     7
 74
     1
 91
        4
 64
     7
 65
   257
 75
     1
175
     1
 42
1.0
 92
        0
 66
   257
 43
1.0
 76
     1
 77
     6
 78
     2
 67
     7
 79
     3
170
     0
171
     0
290
     0
174
     0
 93
        1
 44
0.0
173
     0
291
     0
 45
0.0
1001
ACAD
1000
AcDbSavedByObjectVersion
1070
     0
  0
VISUALSTYLE
  5
144B
102
{ACAD_XDICTIONARY
360
1531
102
}
102
{ACAD_REACTORS
330
1438
102
}
330
1438
100
AcDbVisualStyle
  2

 70
    25
 71
     2
 72
     2
 73
     1
 90
        1
 40
0.5
 41
-30.0
 62
     5
 63
     7
 74
     1
 91
        0
 64
     7
 65
   257
 75
     1
175
     1
 42
1.0
 92
        8
 66
     7
 43
1.0
 76
     1
 77
     6
 78
     2
 67
     7
 79
     3
170
     0
171
     0
290
     0
174
     0
 93
       13
 44
0.0
173
     0
291
     0
 45
0.0
1001
ACAD
1000
AcDbSavedByObjectVersion
1070
     0
  0
DICTIONARYVAR
  5
14B7
102
{ACAD_REACTORS
330
14B4
102
}
330
14B4
100
DictionaryVariables
280
     0
  1
1:1
  0
DICTIONARYVAR
  5
14B6
102
{ACAD_REACTORS
330
14B4
102
}
330
14B4
100
DictionaryVariables
280
     0
  1
STANDARD
  0
DICTIONARYVAR
  5
14B5
102
{ACAD_REACTORS
330
14B4
102
}
330
14B4
100
DictionaryVariables
280
     0
  1
STANDARD
  0
DICTIONARYVAR
  5
14BA
102
{ACAD_REACTORS
330
14B4
102
}
330
14B4
100
DictionaryVariables
280
     0
  1
1
  0
DICTIONARYVAR
  5
14B9
102
{ACAD_REACTORS
330
14B4
102
}
330
14B4
100
DictionaryVariables
280
     0
  1
0
  0
DICTIONARYVAR
  5
14B8
102
{ACAD_REACTORS
330
14B4
102
}
330
14B4
100
DictionaryVariables
280
     0
  1
127
  0
DICTIONARYVAR
  5
1509
102
{ACAD_REACTORS
330
14B4
102
}
330
14B4
100
DictionaryVariables
280
     0
  1
2
  0
DICTIONARY
  5
1540
330
147D
100
AcDbDictionary
280
     1
281
     1
  3
ACAD_XREC_ROUNDTRIP
360
1541
  0
DICTIONARY
  5
153E
330
1479
100
AcDbDictionary
280
     1
281
     1
  3
ACAD_XREC_ROUNDTRIP
360
153F
  0
DICTIONARY
  5
1429
330
1428
100
AcDbDictionary
280
     1
281
     1
  3
ACAD_XREC_ROUNDTRIP
360
14C1
  3
BUMPTILE
360
142B
  3
DIFFUSETILE
360
142A
  3
OPACITYTILE
360
142E
  3
REFLECTIONTILE
360
142D
  3
REFRACTIONTILE
360
142F
  3
SPECULARTILE
360
142C
  0
DICTIONARY
  5
1421
330
1420
100
AcDbDictionary
280
     1
281
     1
  3
ACAD_XREC_ROUNDTRIP
360
14C0
  3
BUMPTILE
360
1423
  3
DIFFUSETILE
360
1422
  3
OPACITYTILE
360
1426
  3
REFLECTIONTILE
360
1425
  3
REFRACTIONTILE
360
1427
  3
SPECULARTILE
360
1424
  0
DICTIONARY
  5
1431
330
1430
100
AcDbDictionary
280
     1
281
     1
  3
ACAD_XREC_ROUNDTRIP
360
14C2
  3
BUMPTILE
360
1433
  3
DIFFUSETILE
360
1432
  3
OPACITYTILE
360
1436
  3
REFLECTIONTILE
360
1435
  3
REFRACTIONTILE
360
1437
  3
SPECULARTILE
360
1434
  0
DICTIONARY
  5
14BC
330
1473
100
AcDbDictionary
280
     1
281
     1
  3
ACAD_ROUNDTRIP_2008_TABLESTYLE_CELLSTYLEMAP
360
150A
  3
ACAD_XREC_ROUNDTRIP
360
153D
  0
DICTIONARY
  5
1517
330
143E
100
AcDbDictionary
280
     1
281
     1
  3
ACAD_XREC_ROUNDTRIP
360
1518
  0
DICTIONARY
  5
1515
330
143D
100
AcDbDictionary
280
     1
281
     1
  3
ACAD_XREC_ROUNDTRIP
360
1516
  0
DICTIONARY
  5
1523
330
1444
100
AcDbDictionary
280
     1
281
     1
  3
ACAD_XREC_ROUNDTRIP
360
1524
  0
DICTIONARY
  5
152B
330
1448
100
AcDbDictionary
280
     1
281
     1
  3
ACAD_XREC_ROUNDTRIP
360
152C
  0
DICTIONARY
  5
151D
330
1441
100
AcDbDictionary
280
     1
281
     1
  3
ACAD_XREC_ROUNDTRIP
360
151E
  0
DICTIONARY
  5
1521
330
1443
100
AcDbDictionary
280
     1
281
     1
  3
ACAD_XREC_ROUNDTRIP
360
1522
  0
DICTIONARY
  5
153B
330
1450
100
AcDbDictionary
280
     1
281
     1
  3
ACAD_XREC_ROUNDTRIP
360
153C
  0
DICTIONARY
  5
1529
330
1447
100
AcDbDictionary
280
     1
281
     1
  3
ACAD_XREC_ROUNDTRIP
360
152A
  0
DICTIONARY
  5
150D
330
1439
100
AcDbDictionary
280
     1
281
     1
  3
ACAD_XREC_ROUNDTRIP
360
150E
  0
DICTIONARY
  5
150F
330
143A
100
AcDbDictionary
280
     1
281
     1
  3
ACAD_XREC_ROUNDTRIP
360
1510
  0
DICTIONARY
  5
1511
330
143B
100
AcDbDictionary
280
     1
281
     1
  3
ACAD_XREC_ROUNDTRIP
360
1512
  0
DICTIONARY
  5
1513
330
143C
100
AcDbDictionary
280
     1
281
     1
  3
ACAD_XREC_ROUNDTRIP
360
1514
  0
DICTIONARY
  5
151B
330
1440
100
AcDbDictionary
280
     1
281
     1
  3
ACAD_XREC_ROUNDTRIP
360
151C
  0
DICTIONARY
  5
1537
330
144E
100
AcDbDictionary
280
     1
281
     1
  3
ACAD_XREC_ROUNDTRIP
360
1538
  0
DICTIONARY
  5
1527
330
1446
100
AcDbDictionary
280
     1
281
     1
  3
ACAD_XREC_ROUNDTRIP
360
1528
  0
DICTIONARY
  5
1539
330
144F
100
AcDbDictionary
280
     1
281
     1
  3
ACAD_XREC_ROUNDTRIP
360
153A
  0
DICTIONARY
  5
151F
330
1442
100
AcDbDictionary
280
     1
281
     1
  3
ACAD_XREC_ROUNDTRIP
360
1520
  0
DICTIONARY
  5
1535
330
144D
100
AcDbDictionary
280
     1
281
     1
  3
ACAD_XREC_ROUNDTRIP
360
1536
  0
DICTIONARY
  5
1533
330
144C
100
AcDbDictionary
280
     1
281
     1
  3
ACAD_XREC_ROUNDTRIP
360
1534
  0
DICTIONARY
  5
152D
330
1449
100
AcDbDictionary
280
     1
281
     1
  3
ACAD_XREC_ROUNDTRIP
360
152E
  0
DICTIONARY
  5
152F
330
144A
100
AcDbDictionary
280
     1
281
     1
  3
ACAD_XREC_ROUNDTRIP
360
1530
  0
DICTIONARY
  5
1525
330
1445
100
AcDbDictionary
280
     1
281
     1
  3
ACAD_XREC_ROUNDTRIP
360
1526
  0
DICTIONARY
  5
1519
330
143F
100
AcDbDictionary
280
     1
281
     1
  3
ACAD_XREC_ROUNDTRIP
360
151A
  0
DICTIONARY
  5
1531
330
144B
100
AcDbDictionary
280
     1
281
     1
  3
ACAD_XREC_ROUNDTRIP
360
1532
  0
XRECORD
  5
1541
102
{ACAD_REACTORS
330
1540
102
}
330
1540
100
AcDbXrecord
280
     1
102
SHADEPLOT
 70
     0
102
SHADEPLOTRESLEVEL
 70
     2
102
SHADEPLOTCUSTOMDPI
 70
   300
  0
XRECORD
  5
153F
102
{ACAD_REACTORS
330
153E
102
}
330
153E
100
AcDbXrecord
280
     1
102
SHADEPLOT
 70
     0
102
SHADEPLOTRESLEVEL
 70
     2
102
SHADEPLOTCUSTOMDPI
 70
   300
  0
XRECORD
  5
14C1
102
{ACAD_REACTORS
330
1429
102
}
330
1429
100
AcDbXrecord
280
     1
102
MATERIAL
148
0.0
149
0.0
149
0.0
 93
        0
 94
      127
282
     0
 72
     0
 77
     0
171
     0
175
     0
179
     0
273
     0
  0
XRECORD
  5
142B
102
{ACAD_REACTORS
330
1429
102
}
330
1429
100
AcDbXrecord
280
     1
270
     1
271
     1
  0
XRECORD
  5
142A
102
{ACAD_REACTORS
330
1429
102
}
330
1429
100
AcDbXrecord
280
     1
270
     1
271
     1
  0
XRECORD
  5
142E
102
{ACAD_REACTORS
330
1429
102
}
330
1429
100
AcDbXrecord
280
     1
270
     1
271
     1
  0
XRECORD
  5
142D
102
{ACAD_REACTORS
330
1429
102
}
330
1429
100
AcDbXrecord
280
     1
270
     1
271
     1
  0
XRECORD
  5
142F
102
{ACAD_REACTORS
330
1429
102
}
330
1429
100
AcDbXrecord
280
     1
270
     1
271
     1
  0
XRECORD
  5
142C
102
{ACAD_REACTORS
330
1429
102
}
330
1429
100
AcDbXrecord
280
     1
270
     1
271
     1
  0
XRECORD
  5
14C0
102
{ACAD_REACTORS
330
1421
102
}
330
1421
100
AcDbXrecord
280
     1
102
MATERIAL
148
0.0
149
0.0
149
0.0
 93
        0
 94
      127
282
     0
 72
     0
 77
     0
171
     0
175
     0
179
     0
273
     0
  0
XRECORD
  5
1423
102
{ACAD_REACTORS
330
1421
102
}
330
1421
100
AcDbXrecord
280
     1
270
     1
271
     1
  0
XRECORD
  5
1422
102
{ACAD_REACTORS
330
1421
102
}
330
1421
100
AcDbXrecord
280
     1
270
     1
271
     1
  0
XRECORD
  5
1426
102
{ACAD_REACTORS
330
1421
102
}
330
1421
100
AcDbXrecord
280
     1
270
     1
271
     1
  0
XRECORD
  5
1425
102
{ACAD_REACTORS
330
1421
102
}
330
1421
100
AcDbXrecord
280
     1
270
     1
271
     1
  0
XRECORD
  5
1427
102
{ACAD_REACTORS
330
1421
102
}
330
1421
100
AcDbXrecord
280
     1
270
     1
271
     1
  0
XRECORD
  5
1424
102
{ACAD_REACTORS
330
1421
102
}
330
1421
100
AcDbXrecord
280
     1
270
     1
271
     1
  0
XRECORD
  5
14C2
102
{ACAD_REACTORS
330
1431
102
}
330
1431
100
AcDbXrecord
280
     1
102
MATERIAL
148
0.0
149
0.0
149
0.0
 93
        0
 94
      127
282
     0
 72
     0
 77
     0
171
     0
175
     0
179
     0
273
     0
  0
XRECORD
  5
1433
102
{ACAD_REACTORS
330
1431
102
}
330
1431
100
AcDbXrecord
280
     1
270
     1
271
     1
  0
XRECORD
  5
1432
102
{ACAD_REACTORS
330
1431
102
}
330
1431
100
AcDbXrecord
280
     1
270
     1
271
     1
  0
XRECORD
  5
1436
102
{ACAD_REACTORS
330
1431
102
}
330
1431
100
AcDbXrecord
280
     1
270
     1
271
     1
  0
XRECORD
  5
1435
102
{ACAD_REACTORS
330
1431
102
}
330
1431
100
AcDbXrecord
280
     1
270
     1
271
     1
  0
XRECORD
  5
1437
102
{ACAD_REACTORS
330
1431
102
}
330
1431
100
AcDbXrecord
280
     1
270
     1
271
     1
  0
XRECORD
  5
1434
102
{ACAD_REACTORS
330
1431
102
}
330
1431
100
AcDbXrecord
280
     1
270
     1
271
     1
  0
CELLSTYLEMAP
  5
150A
102
{ACAD_REACTORS
330
14BC
102
}
330
14BC
100
AcDbCellStyleMap
 90
        3
300
CELLSTYLE
  1
TABLEFORMAT_BEGIN
 90
        5
170
     1
 91
        0
 92
    32768
 62
   257
 93
        1
300
CONTENTFORMAT
  1
CONTENTFORMAT_BEGIN
 90
        0
 91
        0
 92
      512
 93
        0
300

 40
0.0
140
1.0
 94
        5
 62
     0
340
1464
144
0.25
309
CONTENTFORMAT_END
171
     1
301
MARGIN
  1
CELLMARGIN_BEGIN
 40
0.06
 40
0.06
 40
0.06
 40
0.06
 40
0.18
 40
0.18
309
CELLMARGIN_END
 94
        6
 95
        1
302
GRIDFORMAT
  1
GRIDFORMAT_BEGIN
 90
        0
 91
        1
 62
     0
 92
       -2
340
0
 93
        0
 40
0.045
309
GRIDFORMAT_END
 95
        2
302
GRIDFORMAT
  1
GRIDFORMAT_BEGIN
 90
        0
 91
        1
 62
     0
 92
       -2
340
0
 93
        0
 40
0.045
309
GRIDFORMAT_END
 95
        4
302
GRIDFORMAT
  1
GRIDFORMAT_BEGIN
 90
        0
 91
        1
 62
     0
 92
       -2
340
0
 93
        0
 40
0.045
309
GRIDFORMAT_END
 95
        8
302
GRIDFORMAT
  1
GRIDFORMAT_BEGIN
 90
        0
 91
        1
 62
     0
 92
       -2
340
0
 93
        0
 40
0.045
309
GRIDFORMAT_END
 95
       16
302
GRIDFORMAT
  1
GRIDFORMAT_BEGIN
 90
        0
 91
        1
 62
     0
 92
       -2
340
0
 93
        0
 40
0.045
309
GRIDFORMAT_END
 95
       32
302
GRIDFORMAT
  1
GRIDFORMAT_BEGIN
 90
        0
 91
        1
 62
     0
 92
       -2
340
0
 93
        0
 40
0.045
309
GRIDFORMAT_END
309
TABLEFORMAT_END
  1
CELLSTYLE_BEGIN
 90
        1
 91
        1
300
_TITLE
309
CELLSTYLE_END
300
CELLSTYLE
  1
TABLEFORMAT_BEGIN
 90
        5
170
     1
 91
        0
 92
        0
 62
   257
 93
        1
300
CONTENTFORMAT
  1
CONTENTFORMAT_BEGIN
 90
        0
 91
        0
 92
      512
 93
        0
300

 40
0.0
140
1.0
 94
        5
 62
     0
340
1464
144
0.18
309
CONTENTFORMAT_END
171
     1
301
MARGIN
  1
CELLMARGIN_BEGIN
 40
0.06
 40
0.06
 40
0.06
 40
0.06
 40
0.18
 40
0.18
309
CELLMARGIN_END
 94
        6
 95
        1
302
GRIDFORMAT
  1
GRIDFORMAT_BEGIN
 90
        0
 91
        1
 62
     0
 92
       -2
340
0
 93
        0
 40
0.045
309
GRIDFORMAT_END
 95
        2
302
GRIDFORMAT
  1
GRIDFORMAT_BEGIN
 90
        0
 91
        1
 62
     0
 92
       -2
340
0
 93
        0
 40
0.045
309
GRIDFORMAT_END
 95
        4
302
GRIDFORMAT
  1
GRIDFORMAT_BEGIN
 90
        0
 91
        1
 62
     0
 92
       -2
340
0
 93
        0
 40
0.045
309
GRIDFORMAT_END
 95
        8
302
GRIDFORMAT
  1
GRIDFORMAT_BEGIN
 90
        0
 91
        1
 62
     0
 92
       -2
340
0
 93
        0
 40
0.045
309
GRIDFORMAT_END
 95
       16
302
GRIDFORMAT
  1
GRIDFORMAT_BEGIN
 90
        0
 91
        1
 62
     0
 92
       -2
340
0
 93
        0
 40
0.045
309
GRIDFORMAT_END
 95
       32
302
GRIDFORMAT
  1
GRIDFORMAT_BEGIN
 90
        0
 91
        1
 62
     0
 92
       -2
340
0
 93
        0
 40
0.045
309
GRIDFORMAT_END
309
TABLEFORMAT_END
  1
CELLSTYLE_BEGIN
 90
        2
 91
        1
300
_HEADER
309
CELLSTYLE_END
300
CELLSTYLE
  1
TABLEFORMAT_BEGIN
 90
        5
170
     1
 91
        0
 92
        0
 62
   257
 93
        1
300
CONTENTFORMAT
  1
CONTENTFORMAT_BEGIN
 90
        0
 91
        0
 92
      512
 93
        0
300

 40
0.0
140
1.0
 94
        2
 62
     0
340
1464
144
0.18
309
CONTENTFORMAT_END
171
     1
301
MARGIN
  1
CELLMARGIN_BEGIN
 40
0.06
 40
0.06
 40
0.06
 40
0.06
 40
0.18
 40
0.18
309
CELLMARGIN_END
 94
        6
 95
        1
302
GRIDFORMAT
  1
GRIDFORMAT_BEGIN
 90
        0
 91
        1
 62
     0
 92
       -2
340
0
 93
        0
 40
0.045
309
GRIDFORMAT_END
 95
        2
302
GRIDFORMAT
  1
GRIDFORMAT_BEGIN
 90
        0
 91
        1
 62
     0
 92
       -2
340
0
 93
        0
 40
0.045
309
GRIDFORMAT_END
 95
        4
302
GRIDFORMAT
  1
GRIDFORMAT_BEGIN
 90
        0
 91
        1
 62
     0
 92
       -2
340
0
 93
        0
 40
0.045
309
GRIDFORMAT_END
 95
        8
302
GRIDFORMAT
  1
GRIDFORMAT_BEGIN
 90
        0
 91
        1
 62
     0
 92
       -2
340
0
 93
        0
 40
0.045
309
GRIDFORMAT_END
 95
       16
302
GRIDFORMAT
  1
GRIDFORMAT_BEGIN
 90
        0
 91
        1
 62
     0
 92
       -2
340
0
 93
        0
 40
0.045
309
GRIDFORMAT_END
 95
       32
302
GRIDFORMAT
  1
GRIDFORMAT_BEGIN
 90
        0
 91
        1
 62
     0
 92
       -2
340
0
 93
        0
 40
0.045
309
GRIDFORMAT_END
309
TABLEFORMAT_END
  1
CELLSTYLE_BEGIN
 90
        3
 91
        2
300
_DATA
309
CELLSTYLE_END
  0
XRECORD
  5
153D
102
{ACAD_REACTORS
330
14BC
102
}
330
14BC
100
AcDbXrecord
280
     1
102
ACAD_ROUNDTRIP_PRE2007_TABLESTYLE
 90
      512
 91
        0
  1

 92
      512
 93
        0
  2

 94
      512
 95
        0
  3

  0
XRECORD
  5
1518
102
{ACAD_REACTORS
330
1517
102
}
330
1517
100
AcDbXrecord
280
     1
102
RTVSPropertyOp0
 70
     1
102
RTVSPropertyOp1
 70
     1
102
RTVSPropertyOp2
 70
     1
102
RTVSPropertyOp3
 70
     1
102
RTVSPropertyOp4
 70
     1
102
RTVSPropertyOp5
 70
     1
102
RTVSPropertyOp6
 70
     1
102
RTVSPropertyOp7
 70
     1
102
RTVSPropertyOp8
 70
     1
102
RTVSPropertyOp9
 70
     1
102
RTVSPropertyOp10
 70
     1
102
RTVSPropertyOp11
 70
     1
102
RTVSPropertyOp12
 70
     1
102
RTVSPropertyOp13
 70
     1
102
RTVSPropertyOp14
 70
     1
102
RTVSPropertyOp15
 70
     1
102
RTVSPropertyOp16
 70
     1
102
RTVSPropertyOp17
 70
     1
102
RTVSPropertyOp18
 70
     1
102
RTVSPropertyOp19
 70
     1
102
RTVSPropertyOp20
 70
     1
102
RTVSPropertyOp21
 70
     1
102
RTVSPropertyOp22
 70
     1
102
RTVSPropertyOp23
 70
     1
102
RTVSPropertyOp24
 70
     1
102
RTVSPropertyOp25
 70
     1
102
RTVSPropertyOp26
 70
     1
102
RTVSPropertyOp27
 70
     1
102
RTVSPropertyOp28
 70
     1
102
RTVSPropertyOp29
 70
     1
102
RTVSPropertyOp30
 70
     1
102
RTVSPropertyOp31
 70
     1
102
RTVSPropertyOp32
 70
     1
  0
XRECORD
  5
1516
102
{ACAD_REACTORS
330
1515
102
}
330
1515
100
AcDbXrecord
280
     1
102
RTVSPropertyOp0
 70
     1
102
RTVSPropertyOp1
 70
     1
102
RTVSPropertyOp2
 70
     1
102
RTVSPropertyOp3
 70
     1
102
RTVSPropertyOp4
 70
     1
102
RTVSPropertyOp5
 70
     1
102
RTVSPropertyOp6
 70
     1
102
RTVSPropertyOp7
 70
     1
102
RTVSPropertyOp8
 70
     1
102
RTVSPropertyOp9
 70
     1
102
RTVSPropertyOp10
 70
     1
102
RTVSPropertyOp11
 70
     1
102
RTVSPropertyOp12
 70
     1
102
RTVSPropertyOp13
 70
     1
102
RTVSPropertyOp14
 70
     1
102
RTVSPropertyOp15
 70
     1
102
RTVSPropertyOp16
 70
     1
102
RTVSPropertyOp17
 70
     1
102
RTVSPropertyOp18
 70
     1
102
RTVSPropertyOp19
 70
     1
102
RTVSPropertyOp20
 70
     1
102
RTVSPropertyOp21
 70
     1
102
RTVSPropertyOp22
 70
     1
102
RTVSPropertyOp23
 70
     1
102
RTVSPropertyOp24
 70
     1
102
RTVSPropertyOp25
 70
     1
102
RTVSPropertyOp26
 70
     1
102
RTVSPropertyOp27
 70
     1
102
RTVSPropertyOp28
 70
     1
102
RTVSPropertyOp29
 70
     1
102
RTVSPropertyOp30
 70
     1
102
RTVSPropertyOp31
 70
     1
102
RTVSPropertyOp32
 70
     1
  0
XRECORD
  5
1524
102
{ACAD_REACTORS
330
1523
102
}
330
1523
100
AcDbXrecord
280
     1
102
RTVSPropertyOp0
 70
     1
102
RTVSPropertyOp1
 70
     1
102
RTVSPropertyOp2
 70
     1
102
RTVSPropertyOp3
 70
     1
102
RTVSPropertyOp4
 70
     1
102
RTVSPropertyOp5
 70
     1
102
RTVSPropertyOp6
 70
     1
102
RTVSPropertyOp7
 70
     1
102
RTVSPropertyOp8
 70
     1
102
RTVSPropertyOp9
 70
     1
102
RTVSPropertyOp10
 70
     1
102
RTVSPropertyOp11
 70
     1
102
RTVSPropertyOp12
 70
     1
102
RTVSPropertyOp13
 70
     1
102
RTVSPropertyOp14
 70
     1
102
RTVSPropertyOp15
 70
     1
102
RTVSPropertyOp16
 70
     1
102
RTVSPropertyOp17
 70
     1
102
RTVSPropertyOp18
 70
     1
102
RTVSPropertyOp19
 70
     1
102
RTVSPropertyOp20
 70
     1
102
RTVSPropertyOp21
 70
     1
102
RTVSPropertyOp22
 70
     1
102
RTVSPropertyOp23
 70
     1
102
RTVSPropertyOp24
 70
     1
102
RTVSPropertyOp25
 70
     1
102
RTVSPropertyOp26
 70
     1
102
RTVSPropertyOp27
 70
     1
102
RTVSPropertyOp28
 70
     1
102
RTVSPropertyOp29
 70
     1
102
RTVSPropertyOp30
 70
     1
102
RTVSPropertyOp31
 70
     1
102
RTVSPropertyOp32
 70
     1
  0
XRECORD
  5
152C
102
{ACAD_REACTORS
330
152B
102
}
330
152B
100
AcDbXrecord
280
     1
102
RTVSPropertyOp0
 70
     1
102
RTVSPropertyOp1
 70
     1
102
RTVSPropertyOp2
 70
     1
102
RTVSPropertyOp3
 70
     1
102
RTVSPropertyOp4
 70
     1
102
RTVSPropertyOp5
 70
     1
102
RTVSPropertyOp6
 70
     1
102
RTVSPropertyOp7
 70
     1
102
RTVSPropertyOp8
 70
     1
102
RTVSPropertyOp9
 70
     1
102
RTVSPropertyOp10
 70
     1
102
RTVSPropertyOp11
 70
     1
102
RTVSPropertyOp12
 70
     1
102
RTVSPropertyOp13
 70
     1
102
RTVSPropertyOp14
 70
     1
102
RTVSPropertyOp15
 70
     1
102
RTVSPropertyOp16
 70
     1
102
RTVSPropertyOp17
 70
     1
102
RTVSPropertyOp18
 70
     1
102
RTVSPropertyOp19
 70
     1
102
RTVSPropertyOp20
 70
     1
102
RTVSPropertyOp21
 70
     1
102
RTVSPropertyOp22
 70
     1
102
RTVSPropertyOp23
 70
     1
102
RTVSPropertyOp24
 70
     1
102
RTVSPropertyOp25
 70
     1
102
RTVSPropertyOp26
 70
     1
102
RTVSPropertyOp27
 70
     1
102
RTVSPropertyOp28
 70
     1
102
RTVSPropertyOp29
 70
     1
102
RTVSPropertyOp30
 70
     1
102
RTVSPropertyOp31
 70
     1
102
RTVSPropertyOp32
 70
     1
  0
XRECORD
  5
151E
102
{ACAD_REACTORS
330
151D
102
}
330
151D
100
AcDbXrecord
280
     1
102
RTVSPropertyOp0
 70
     1
102
RTVSPropertyOp1
 70
     1
102
RTVSPropertyOp2
 70
     1
102
RTVSPropertyOp3
 70
     1
102
RTVSPropertyOp4
 70
     1
102
RTVSPropertyOp5
 70
     1
102
RTVSPropertyOp6
 70
     1
102
RTVSPropertyOp7
 70
     1
102
RTVSPropertyOp8
 70
     1
102
RTVSPropertyOp9
 70
     1
102
RTVSPropertyOp10
 70
     1
102
RTVSPropertyOp11
 70
     1
102
RTVSPropertyOp12
 70
     1
102
RTVSPropertyOp13
 70
     1
102
RTVSPropertyOp14
 70
     1
102
RTVSPropertyOp15
 70
     1
102
RTVSPropertyOp16
 70
     1
102
RTVSPropertyOp17
 70
     1
102
RTVSPropertyOp18
 70
     1
102
RTVSPropertyOp19
 70
     1
102
RTVSPropertyOp20
 70
     1
102
RTVSPropertyOp21
 70
     1
102
RTVSPropertyOp22
 70
     1
102
RTVSPropertyOp23
 70
     1
102
RTVSPropertyOp24
 70
     1
102
RTVSPropertyOp25
 70
     1
102
RTVSPropertyOp26
 70
     1
102
RTVSPropertyOp27
 70
     1
102
RTVSPropertyOp28
 70
     1
102
RTVSPropertyOp29
 70
     1
102
RTVSPropertyOp30
 70
     1
102
RTVSPropertyOp31
 70
     1
102
RTVSPropertyOp32
 70
     1
  0
XRECORD
  5
1522
102
{ACAD_REACTORS
330
1521
102
}
330
1521
100
AcDbXrecord
280
     1
102
RTVSPropertyOp0
 70
     1
102
RTVSPropertyOp1
 70
     1
102
RTVSPropertyOp2
 70
     1
102
RTVSPropertyOp3
 70
     1
102
RTVSPropertyOp4
 70
     1
102
RTVSPropertyOp5
 70
     1
102
RTVSPropertyOp6
 70
     1
102
RTVSPropertyOp7
 70
     1
102
RTVSPropertyOp8
 70
     1
102
RTVSPropertyOp9
 70
     1
102
RTVSPropertyOp10
 70
     1
102
RTVSPropertyOp11
 70
     1
102
RTVSPropertyOp12
 70
     1
102
RTVSPropertyOp13
 70
     1
102
RTVSPropertyOp14
 70
     1
102
RTVSPropertyOp15
 70
     1
102
RTVSPropertyOp16
 70
     1
102
RTVSPropertyOp17
 70
     1
102
RTVSPropertyOp18
 70
     1
102
RTVSPropertyOp19
 70
     1
102
RTVSPropertyOp20
 70
     1
102
RTVSPropertyOp21
 70
     1
102
RTVSPropertyOp22
 70
     1
102
RTVSPropertyOp23
 70
     1
102
RTVSPropertyOp24
 70
     1
102
RTVSPropertyOp25
 70
     1
102
RTVSPropertyOp26
 70
     1
102
RTVSPropertyOp27
 70
     1
102
RTVSPropertyOp28
 70
     1
102
RTVSPropertyOp29
 70
     1
102
RTVSPropertyOp30
 70
     1
102
RTVSPropertyOp31
 70
     1
102
RTVSPropertyOp32
 70
     1
  0
XRECORD
  5
153C
102
{ACAD_REACTORS
330
153B
102
}
330
153B
100
AcDbXrecord
280
     1
102
RTVSPropertyOp0
 70
     0
102
RTVSPropertyOp1
 70
     0
102
RTVSPropertyOp2
 70
     0
102
RTVSPropertyOp3
 70
     0
102
RTVSPropertyOp4
 70
     0
102
RTVSPropertyOp5
 70
     0
102
RTVSPropertyOp6
 70
     0
102
RTVSPropertyOp7
 70
     0
102
RTVSPropertyOp8
 70
     0
102
RTVSPropertyOp9
 70
     0
102
RTVSPropertyOp10
 70
     0
102
RTVSPropertyOp11
 70
     0
102
RTVSPropertyOp12
 70
     0
102
RTVSPropertyOp13
 70
     0
102
RTVSPropertyOp14
 70
     2
102
RTVSPropertyOp15
 70
     0
102
RTVSPropertyOp16
 70
     0
102
RTVSPropertyOp17
 70
     0
102
RTVSPropertyOp18
 70
     0
102
RTVSPropertyOp19
 70
     0
102
RTVSPropertyOp20
 70
     0
102
RTVSPropertyOp21
 70
     0
102
RTVSPropertyOp22
 70
     0
102
RTVSPropertyOp23
 70
     0
102
RTVSPropertyOp24
 70
     0
102
RTVSPropertyOp25
 70
     0
102
RTVSPropertyOp26
 70
     0
102
RTVSPropertyOp27
 70
     0
102
RTVSPropertyOp28
 70
     0
102
RTVSPropertyOp29
 70
     0
102
RTVSPropertyOp30
 70
     0
102
RTVSPropertyOp31
 70
     0
102
RTVSPropertyOp32
 70
     0
  0
XRECORD
  5
152A
102
{ACAD_REACTORS
330
1529
102
}
330
1529
100
AcDbXrecord
280
     1
102
RTVSPropertyOp0
 70
     1
102
RTVSPropertyOp1
 70
     1
102
RTVSPropertyOp2
 70
     1
102
RTVSPropertyOp3
 70
     1
102
RTVSPropertyOp4
 70
     1
102
RTVSPropertyOp5
 70
     1
102
RTVSPropertyOp6
 70
     1
102
RTVSPropertyOp7
 70
     1
102
RTVSPropertyOp8
 70
     1
102
RTVSPropertyOp9
 70
     1
102
RTVSPropertyOp10
 70
     1
102
RTVSPropertyOp11
 70
     1
102
RTVSPropertyOp12
 70
     1
102
RTVSPropertyOp13
 70
     1
102
RTVSPropertyOp14
 70
     1
102
RTVSPropertyOp15
 70
     1
102
RTVSPropertyOp16
 70
     1
102
RTVSPropertyOp17
 70
     1
102
RTVSPropertyOp18
 70
     1
102
RTVSPropertyOp19
 70
     1
102
RTVSPropertyOp20
 70
     1
102
RTVSPropertyOp21
 70
     1
102
RTVSPropertyOp22
 70
     1
102
RTVSPropertyOp23
 70
     1
102
RTVSPropertyOp24
 70
     1
102
RTVSPropertyOp25
 70
     1
102
RTVSPropertyOp26
 70
     1
102
RTVSPropertyOp27
 70
     1
102
RTVSPropertyOp28
 70
     1
102
RTVSPropertyOp29
 70
     1
102
RTVSPropertyOp30
 70
     1
102
RTVSPropertyOp31
 70
     1
102
RTVSPropertyOp32
 70
     1
  0
XRECORD
  5
150E
102
{ACAD_REACTORS
330
150D
102
}
330
150D
100
AcDbXrecord
280
     1
102
RTVSPropertyOp0
 70
     1
102
RTVSPropertyOp1
 70
     1
102
RTVSPropertyOp2
 70
     1
102
RTVSPropertyOp3
 70
     1
102
RTVSPropertyOp4
 70
     1
102
RTVSPropertyOp5
 70
     1
102
RTVSPropertyOp6
 70
     1
102
RTVSPropertyOp7
 70
     1
102
RTVSPropertyOp8
 70
     1
102
RTVSPropertyOp9
 70
     1
102
RTVSPropertyOp10
 70
     1
102
RTVSPropertyOp11
 70
     1
102
RTVSPropertyOp12
 70
     1
102
RTVSPropertyOp13
 70
     1
102
RTVSPropertyOp14
 70
     1
102
RTVSPropertyOp15
 70
     1
102
RTVSPropertyOp16
 70
     1
102
RTVSPropertyOp17
 70
     1
102
RTVSPropertyOp18
 70
     1
102
RTVSPropertyOp19
 70
     1
102
RTVSPropertyOp20
 70
     1
102
RTVSPropertyOp21
 70
     1
102
RTVSPropertyOp22
 70
     1
102
RTVSPropertyOp23
 70
     1
102
RTVSPropertyOp24
 70
     1
102
RTVSPropertyOp25
 70
     1
102
RTVSPropertyOp26
 70
     1
102
RTVSPropertyOp27
 70
     1
102
RTVSPropertyOp28
 70
     1
102
RTVSPropertyOp29
 70
     1
102
RTVSPropertyOp30
 70
     1
102
RTVSPropertyOp31
 70
     1
102
RTVSPropertyOp32
 70
     1
  0
XRECORD
  5
1510
102
{ACAD_REACTORS
330
150F
102
}
330
150F
100
AcDbXrecord
280
     1
102
RTVSPropertyOp0
 70
     1
102
RTVSPropertyOp1
 70
     1
102
RTVSPropertyOp2
 70
     1
102
RTVSPropertyOp3
 70
     1
102
RTVSPropertyOp4
 70
     1
102
RTVSPropertyOp5
 70
     1
102
RTVSPropertyOp6
 70
     1
102
RTVSPropertyOp7
 70
     1
102
RTVSPropertyOp8
 70
     1
102
RTVSPropertyOp9
 70
     1
102
RTVSPropertyOp10
 70
     1
102
RTVSPropertyOp11
 70
     1
102
RTVSPropertyOp12
 70
     1
102
RTVSPropertyOp13
 70
     1
102
RTVSPropertyOp14
 70
     1
102
RTVSPropertyOp15
 70
     1
102
RTVSPropertyOp16
 70
     1
102
RTVSPropertyOp17
 70
     1
102
RTVSPropertyOp18
 70
     1
102
RTVSPropertyOp19
 70
     1
102
RTVSPropertyOp20
 70
     1
102
RTVSPropertyOp21
 70
     1
102
RTVSPropertyOp22
 70
     1
102
RTVSPropertyOp23
 70
     1
102
RTVSPropertyOp24
 70
     1
102
RTVSPropertyOp25
 70
     1
102
RTVSPropertyOp26
 70
     1
102
RTVSPropertyOp27
 70
     1
102
RTVSPropertyOp28
 70
     1
102
RTVSPropertyOp29
 70
     1
102
RTVSPropertyOp30
 70
     1
102
RTVSPropertyOp31
 70
     1
102
RTVSPropertyOp32
 70
     1
  0
XRECORD
  5
1512
102
{ACAD_REACTORS
330
1511
102
}
330
1511
100
AcDbXrecord
280
     1
102
RTVSPropertyOp0
 70
     1
102
RTVSPropertyOp1
 70
     1
102
RTVSPropertyOp2
 70
     1
102
RTVSPropertyOp3
 70
     1
102
RTVSPropertyOp4
 70
     1
102
RTVSPropertyOp5
 70
     1
102
RTVSPropertyOp6
 70
     1
102
RTVSPropertyOp7
 70
     1
102
RTVSPropertyOp8
 70
     1
102
RTVSPropertyOp9
 70
     1
102
RTVSPropertyOp10
 70
     1
102
RTVSPropertyOp11
 70
     1
102
RTVSPropertyOp12
 70
     1
102
RTVSPropertyOp13
 70
     1
102
RTVSPropertyOp14
 70
     1
102
RTVSPropertyOp15
 70
     1
102
RTVSPropertyOp16
 70
     1
102
RTVSPropertyOp17
 70
     1
102
RTVSPropertyOp18
 70
     1
102
RTVSPropertyOp19
 70
     1
102
RTVSPropertyOp20
 70
     1
102
RTVSPropertyOp21
 70
     1
102
RTVSPropertyOp22
 70
     1
102
RTVSPropertyOp23
 70
     1
102
RTVSPropertyOp24
 70
     1
102
RTVSPropertyOp25
 70
     1
102
RTVSPropertyOp26
 70
     1
102
RTVSPropertyOp27
 70
     1
102
RTVSPropertyOp28
 70
     1
102
RTVSPropertyOp29
 70
     1
102
RTVSPropertyOp30
 70
     1
102
RTVSPropertyOp31
 70
     1
102
RTVSPropertyOp32
 70
     1
  0
XRECORD
  5
1514
102
{ACAD_REACTORS
330
1513
102
}
330
1513
100
AcDbXrecord
280
     1
102
RTVSPropertyOp0
 70
     1
102
RTVSPropertyOp1
 70
     1
102
RTVSPropertyOp2
 70
     1
102
RTVSPropertyOp3
 70
     1
102
RTVSPropertyOp4
 70
     1
102
RTVSPropertyOp5
 70
     1
102
RTVSPropertyOp6
 70
     1
102
RTVSPropertyOp7
 70
     1
102
RTVSPropertyOp8
 70
     1
102
RTVSPropertyOp9
 70
     1
102
RTVSPropertyOp10
 70
     1
102
RTVSPropertyOp11
 70
     1
102
RTVSPropertyOp12
 70
     1
102
RTVSPropertyOp13
 70
     1
102
RTVSPropertyOp14
 70
     1
102
RTVSPropertyOp15
 70
     1
102
RTVSPropertyOp16
 70
     1
102
RTVSPropertyOp17
 70
     1
102
RTVSPropertyOp18
 70
     1
102
RTVSPropertyOp19
 70
     1
102
RTVSPropertyOp20
 70
     1
102
RTVSPropertyOp21
 70
     1
102
RTVSPropertyOp22
 70
     1
102
RTVSPropertyOp23
 70
     1
102
RTVSPropertyOp24
 70
     1
102
RTVSPropertyOp25
 70
     1
102
RTVSPropertyOp26
 70
     1
102
RTVSPropertyOp27
 70
     1
102
RTVSPropertyOp28
 70
     1
102
RTVSPropertyOp29
 70
     1
102
RTVSPropertyOp30
 70
     1
102
RTVSPropertyOp31
 70
     1
102
RTVSPropertyOp32
 70
     1
  0
XRECORD
  5
151C
102
{ACAD_REACTORS
330
151B
102
}
330
151B
100
AcDbXrecord
280
     1
102
RTVSPropertyOp0
 70
     1
102
RTVSPropertyOp1
 70
     1
102
RTVSPropertyOp2
 70
     1
102
RTVSPropertyOp3
 70
     1
102
RTVSPropertyOp4
 70
     1
102
RTVSPropertyOp5
 70
     1
102
RTVSPropertyOp6
 70
     1
102
RTVSPropertyOp7
 70
     1
102
RTVSPropertyOp8
 70
     1
102
RTVSPropertyOp9
 70
     1
102
RTVSPropertyOp10
 70
     1
102
RTVSPropertyOp11
 70
     1
102
RTVSPropertyOp12
 70
     1
102
RTVSPropertyOp13
 70
     1
102
RTVSPropertyOp14
 70
     1
102
RTVSPropertyOp15
 70
     1
102
RTVSPropertyOp16
 70
     1
102
RTVSPropertyOp17
 70
     1
102
RTVSPropertyOp18
 70
     1
102
RTVSPropertyOp19
 70
     1
102
RTVSPropertyOp20
 70
     1
102
RTVSPropertyOp21
 70
     1
102
RTVSPropertyOp22
 70
     1
102
RTVSPropertyOp23
 70
     1
102
RTVSPropertyOp24
 70
     1
102
RTVSPropertyOp25
 70
     1
102
RTVSPropertyOp26
 70
     1
102
RTVSPropertyOp27
 70
     1
102
RTVSPropertyOp28
 70
     1
102
RTVSPropertyOp29
 70
     1
102
RTVSPropertyOp30
 70
     1
102
RTVSPropertyOp31
 70
     1
102
RTVSPropertyOp32
 70
     1
  0
XRECORD
  5
1538
102
{ACAD_REACTORS
330
1537
102
}
330
1537
100
AcDbXrecord
280
     1
102
RTVSPropertyOp0
 70
     0
102
RTVSPropertyOp1
 70
     0
102
RTVSPropertyOp2
 70
     0
102
RTVSPropertyOp3
 70
     0
102
RTVSPropertyOp4
 70
     0
102
RTVSPropertyOp5
 70
     0
102
RTVSPropertyOp6
 70
     0
102
RTVSPropertyOp7
 70
     0
102
RTVSPropertyOp8
 70
     0
102
RTVSPropertyOp9
 70
     0
102
RTVSPropertyOp10
 70
     0
102
RTVSPropertyOp11
 70
     0
102
RTVSPropertyOp12
 70
     0
102
RTVSPropertyOp13
 70
     0
102
RTVSPropertyOp14
 70
     2
102
RTVSPropertyOp15
 70
     0
102
RTVSPropertyOp16
 70
     0
102
RTVSPropertyOp17
 70
     0
102
RTVSPropertyOp18
 70
     0
102
RTVSPropertyOp19
 70
     0
102
RTVSPropertyOp20
 70
     0
102
RTVSPropertyOp21
 70
     0
102
RTVSPropertyOp22
 70
     0
102
RTVSPropertyOp23
 70
     0
102
RTVSPropertyOp24
 70
     0
102
RTVSPropertyOp25
 70
     0
102
RTVSPropertyOp26
 70
     0
102
RTVSPropertyOp27
 70
     0
102
RTVSPropertyOp28
 70
     0
102
RTVSPropertyOp29
 70
     0
102
RTVSPropertyOp30
 70
     0
102
RTVSPropertyOp31
 70
     0
102
RTVSPropertyOp32
 70
     0
  0
XRECORD
  5
1528
102
{ACAD_REACTORS
330
1527
102
}
330
1527
100
AcDbXrecord
280
     1
102
RTVSPropertyOp0
 70
     1
102
RTVSPropertyOp1
 70
     1
102
RTVSPropertyOp2
 70
     1
102
RTVSPropertyOp3
 70
     1
102
RTVSPropertyOp4
 70
     1
102
RTVSPropertyOp5
 70
     1
102
RTVSPropertyOp6
 70
     1
102
RTVSPropertyOp7
 70
     1
102
RTVSPropertyOp8
 70
     1
102
RTVSPropertyOp9
 70
     1
102
RTVSPropertyOp10
 70
     1
102
RTVSPropertyOp11
 70
     1
102
RTVSPropertyOp12
 70
     1
102
RTVSPropertyOp13
 70
     1
102
RTVSPropertyOp14
 70
     1
102
RTVSPropertyOp15
 70
     1
102
RTVSPropertyOp16
 70
     1
102
RTVSPropertyOp17
 70
     1
102
RTVSPropertyOp18
 70
     1
102
RTVSPropertyOp19
 70
     1
102
RTVSPropertyOp20
 70
     1
102
RTVSPropertyOp21
 70
     1
102
RTVSPropertyOp22
 70
     1
102
RTVSPropertyOp23
 70
     1
102
RTVSPropertyOp24
 70
     1
102
RTVSPropertyOp25
 70
     1
102
RTVSPropertyOp26
 70
     1
102
RTVSPropertyOp27
 70
     1
102
RTVSPropertyOp28
 70
     1
102
RTVSPropertyOp29
 70
     1
102
RTVSPropertyOp30
 70
     1
102
RTVSPropertyOp31
 70
     1
102
RTVSPropertyOp32
 70
     1
  0
XRECORD
  5
153A
102
{ACAD_REACTORS
330
1539
102
}
330
1539
100
AcDbXrecord
280
     1
102
RTVSPropertyOp0
 70
     0
102
RTVSPropertyOp1
 70
     0
102
RTVSPropertyOp2
 70
     0
102
RTVSPropertyOp3
 70
     0
102
RTVSPropertyOp4
 70
     0
102
RTVSPropertyOp5
 70
     0
102
RTVSPropertyOp6
 70
     0
102
RTVSPropertyOp7
 70
     0
102
RTVSPropertyOp8
 70
     0
102
RTVSPropertyOp9
 70
     0
102
RTVSPropertyOp10
 70
     0
102
RTVSPropertyOp11
 70
     0
102
RTVSPropertyOp12
 70
     0
102
RTVSPropertyOp13
 70
     0
102
RTVSPropertyOp14
 70
     2
102
RTVSPropertyOp15
 70
     0
102
RTVSPropertyOp16
 70
     0
102
RTVSPropertyOp17
 70
     0
102
RTVSPropertyOp18
 70
     0
102
RTVSPropertyOp19
 70
     0
102
RTVSPropertyOp20
 70
     0
102
RTVSPropertyOp21
 70
     0
102
RTVSPropertyOp22
 70
     0
102
RTVSPropertyOp23
 70
     0
102
RTVSPropertyOp24
 70
     0
102
RTVSPropertyOp25
 70
     0
102
RTVSPropertyOp26
 70
     0
102
RTVSPropertyOp27
 70
     0
102
RTVSPropertyOp28
 70
     0
102
RTVSPropertyOp29
 70
     0
102
RTVSPropertyOp30
 70
     0
102
RTVSPropertyOp31
 70
     0
102
RTVSPropertyOp32
 70
     0
  0
XRECORD
  5
1520
102
{ACAD_REACTORS
330
151F
102
}
330
151F
100
AcDbXrecord
280
     1
102
RTVSPropertyOp0
 70
     1
102
RTVSPropertyOp1
 70
     1
102
RTVSPropertyOp2
 70
     1
102
RTVSPropertyOp3
 70
     1
102
RTVSPropertyOp4
 70
     1
102
RTVSPropertyOp5
 70
     1
102
RTVSPropertyOp6
 70
     1
102
RTVSPropertyOp7
 70
     1
102
RTVSPropertyOp8
 70
     1
102
RTVSPropertyOp9
 70
     1
102
RTVSPropertyOp10
 70
     1
102
RTVSPropertyOp11
 70
     1
102
RTVSPropertyOp12
 70
     1
102
RTVSPropertyOp13
 70
     1
102
RTVSPropertyOp14
 70
     1
102
RTVSPropertyOp15
 70
     1
102
RTVSPropertyOp16
 70
     1
102
RTVSPropertyOp17
 70
     1
102
RTVSPropertyOp18
 70
     1
102
RTVSPropertyOp19
 70
     1
102
RTVSPropertyOp20
 70
     1
102
RTVSPropertyOp21
 70
     1
102
RTVSPropertyOp22
 70
     1
102
RTVSPropertyOp23
 70
     1
102
RTVSPropertyOp24
 70
     1
102
RTVSPropertyOp25
 70
     1
102
RTVSPropertyOp26
 70
     1
102
RTVSPropertyOp27
 70
     1
102
RTVSPropertyOp28
 70
     1
102
RTVSPropertyOp29
 70
     1
102
RTVSPropertyOp30
 70
     1
102
RTVSPropertyOp31
 70
     1
102
RTVSPropertyOp32
 70
     1
  0
XRECORD
  5
1536
102
{ACAD_REACTORS
330
1535
102
}
330
1535
100
AcDbXrecord
280
     1
102
RTVSPropertyOp0
 70
     1
102
RTVSPropertyOp1
 70
     1
102
RTVSPropertyOp2
 70
     1
102
RTVSPropertyOp3
 70
     1
102
RTVSPropertyOp4
 70
     1
102
RTVSPropertyOp5
 70
     1
102
RTVSPropertyOp6
 70
     1
102
RTVSPropertyOp7
 70
     1
102
RTVSPropertyOp8
 70
     1
102
RTVSPropertyOp9
 70
     1
102
RTVSPropertyOp10
 70
     1
102
RTVSPropertyOp11
 70
     1
102
RTVSPropertyOp12
 70
     1
102
RTVSPropertyOp13
 70
     1
102
RTVSPropertyOp14
 70
     1
102
RTVSPropertyOp15
 70
     1
102
RTVSPropertyOp16
 70
     1
102
RTVSPropertyOp17
 70
     1
102
RTVSPropertyOp18
 70
     1
102
RTVSPropertyOp19
 70
     1
102
RTVSPropertyOp20
 70
     1
102
RTVSPropertyOp21
 70
     1
102
RTVSPropertyOp22
 70
     1
102
RTVSPropertyOp23
 70
     1
102
RTVSPropertyOp24
 70
     1
102
RTVSPropertyOp25
 70
     1
102
RTVSPropertyOp26
 70
     1
102
RTVSPropertyOp27
 70
     1
102
RTVSPropertyOp28
 70
     1
102
RTVSPropertyOp29
 70
     1
102
RTVSPropertyOp30
 70
     1
102
RTVSPropertyOp31
 70
     1
102
RTVSPropertyOp32
 70
     1
  0
XRECORD
  5
1534
102
{ACAD_REACTORS
330
1533
102
}
330
1533
100
AcDbXrecord
280
     1
102
RTVSPropertyOp0
 70
     1
102
RTVSPropertyOp1
 70
     1
102
RTVSPropertyOp2
 70
     1
102
RTVSPropertyOp3
 70
     1
102
RTVSPropertyOp4
 70
     1
102
RTVSPropertyOp5
 70
     1
102
RTVSPropertyOp6
 70
     1
102
RTVSPropertyOp7
 70
     1
102
RTVSPropertyOp8
 70
     1
102
RTVSPropertyOp9
 70
     1
102
RTVSPropertyOp10
 70
     1
102
RTVSPropertyOp11
 70
     1
102
RTVSPropertyOp12
 70
     1
102
RTVSPropertyOp13
 70
     1
102
RTVSPropertyOp14
 70
     1
102
RTVSPropertyOp15
 70
     1
102
RTVSPropertyOp16
 70
     1
102
RTVSPropertyOp17
 70
     1
102
RTVSPropertyOp18
 70
     1
102
RTVSPropertyOp19
 70
     1
102
RTVSPropertyOp20
 70
     1
102
RTVSPropertyOp21
 70
     1
102
RTVSPropertyOp22
 70
     1
102
RTVSPropertyOp23
 70
     1
102
RTVSPropertyOp24
 70
     1
102
RTVSPropertyOp25
 70
     1
102
RTVSPropertyOp26
 70
     1
102
RTVSPropertyOp27
 70
     1
102
RTVSPropertyOp28
 70
     1
102
RTVSPropertyOp29
 70
     1
102
RTVSPropertyOp30
 70
     1
102
RTVSPropertyOp31
 70
     1
102
RTVSPropertyOp32
 70
     1
  0
XRECORD
  5
152E
102
{ACAD_REACTORS
330
152D
102
}
330
152D
100
AcDbXrecord
280
     1
102
RTVSPropertyOp0
 70
     1
102
RTVSPropertyOp1
 70
     1
102
RTVSPropertyOp2
 70
     1
102
RTVSPropertyOp3
 70
     1
102
RTVSPropertyOp4
 70
     1
102
RTVSPropertyOp5
 70
     1
102
RTVSPropertyOp6
 70
     1
102
RTVSPropertyOp7
 70
     1
102
RTVSPropertyOp8
 70
     1
102
RTVSPropertyOp9
 70
     1
102
RTVSPropertyOp10
 70
     1
102
RTVSPropertyOp11
 70
     1
102
RTVSPropertyOp12
 70
     1
102
RTVSPropertyOp13
 70
     1
102
RTVSPropertyOp14
 70
     1
102
RTVSPropertyOp15
 70
     1
102
RTVSPropertyOp16
 70
     1
102
RTVSPropertyOp17
 70
     1
102
RTVSPropertyOp18
 70
     1
102
RTVSPropertyOp19
 70
     1
102
RTVSPropertyOp20
 70
     1
102
RTVSPropertyOp21
 70
     1
102
RTVSPropertyOp22
 70
     1
102
RTVSPropertyOp23
 70
     1
102
RTVSPropertyOp24
 70
     1
102
RTVSPropertyOp25
 70
     1
102
RTVSPropertyOp26
 70
     1
102
RTVSPropertyOp27
 70
     1
102
RTVSPropertyOp28
 70
     1
102
RTVSPropertyOp29
 70
     1
102
RTVSPropertyOp30
 70
     1
102
RTVSPropertyOp31
 70
     1
102
RTVSPropertyOp32
 70
     1
  0
XRECORD
  5
1530
102
{ACAD_REACTORS
330
152F
102
}
330
152F
100
AcDbXrecord
280
     1
102
RTVSPropertyOp0
 70
     1
102
RTVSPropertyOp1
 70
     1
102
RTVSPropertyOp2
 70
     1
102
RTVSPropertyOp3
 70
     1
102
RTVSPropertyOp4
 70
     1
102
RTVSPropertyOp5
 70
     1
102
RTVSPropertyOp6
 70
     1
102
RTVSPropertyOp7
 70
     1
102
RTVSPropertyOp8
 70
     1
102
RTVSPropertyOp9
 70
     1
102
RTVSPropertyOp10
 70
     1
102
RTVSPropertyOp11
 70
     1
102
RTVSPropertyOp12
 70
     1
102
RTVSPropertyOp13
 70
     1
102
RTVSPropertyOp14
 70
     1
102
RTVSPropertyOp15
 70
     1
102
RTVSPropertyOp16
 70
     1
102
RTVSPropertyOp17
 70
     1
102
RTVSPropertyOp18
 70
     1
102
RTVSPropertyOp19
 70
     1
102
RTVSPropertyOp20
 70
     1
102
RTVSPropertyOp21
 70
     1
102
RTVSPropertyOp22
 70
     1
102
RTVSPropertyOp23
 70
     1
102
RTVSPropertyOp24
 70
     1
102
RTVSPropertyOp25
 70
     1
102
RTVSPropertyOp26
 70
     1
102
RTVSPropertyOp27
 70
     1
102
RTVSPropertyOp28
 70
     1
102
RTVSPropertyOp29
 70
     1
102
RTVSPropertyOp30
 70
     1
102
RTVSPropertyOp31
 70
     1
102
RTVSPropertyOp32
 70
     1
  0
XRECORD
  5
1526
102
{ACAD_REACTORS
330
1525
102
}
330
1525
100
AcDbXrecord
280
     1
102
RTVSPropertyOp0
 70
     1
102
RTVSPropertyOp1
 70
     1
102
RTVSPropertyOp2
 70
     1
102
RTVSPropertyOp3
 70
     1
102
RTVSPropertyOp4
 70
     1
102
RTVSPropertyOp5
 70
     1
102
RTVSPropertyOp6
 70
     1
102
RTVSPropertyOp7
 70
     1
102
RTVSPropertyOp8
 70
     1
102
RTVSPropertyOp9
 70
     1
102
RTVSPropertyOp10
 70
     1
102
RTVSPropertyOp11
 70
     1
102
RTVSPropertyOp12
 70
     1
102
RTVSPropertyOp13
 70
     1
102
RTVSPropertyOp14
 70
     1
102
RTVSPropertyOp15
 70
     1
102
RTVSPropertyOp16
 70
     1
102
RTVSPropertyOp17
 70
     1
102
RTVSPropertyOp18
 70
     1
102
RTVSPropertyOp19
 70
     1
102
RTVSPropertyOp20
 70
     1
102
RTVSPropertyOp21
 70
     1
102
RTVSPropertyOp22
 70
     1
102
RTVSPropertyOp23
 70
     1
102
RTVSPropertyOp24
 70
     1
102
RTVSPropertyOp25
 70
     1
102
RTVSPropertyOp26
 70
     1
102
RTVSPropertyOp27
 70
     1
102
RTVSPropertyOp28
 70
     1
102
RTVSPropertyOp29
 70
     1
102
RTVSPropertyOp30
 70
     1
102
RTVSPropertyOp31
 70
     1
102
RTVSPropertyOp32
 70
     1
  0
XRECORD
  5
151A
102
{ACAD_REACTORS
330
1519
102
}
330
1519
100
AcDbXrecord
280
     1
102
RTVSPropertyOp0
 70
     1
102
RTVSPropertyOp1
 70
     1
102
RTVSPropertyOp2
 70
     1
102
RTVSPropertyOp3
 70
     1
102
RTVSPropertyOp4
 70
     1
102
RTVSPropertyOp5
 70
     1
102
RTVSPropertyOp6
 70
     1
102
RTVSPropertyOp7
 70
     1
102
RTVSPropertyOp8
 70
     1
102
RTVSPropertyOp9
 70
     1
102
RTVSPropertyOp10
 70
     1
102
RTVSPropertyOp11
 70
     1
102
RTVSPropertyOp12
 70
     1
102
RTVSPropertyOp13
 70
     1
102
RTVSPropertyOp14
 70
     1
102
RTVSPropertyOp15
 70
     1
102
RTVSPropertyOp16
 70
     1
102
RTVSPropertyOp17
 70
     1
102
RTVSPropertyOp18
 70
     1
102
RTVSPropertyOp19
 70
     1
102
RTVSPropertyOp20
 70
     1
102
RTVSPropertyOp21
 70
     1
102
RTVSPropertyOp22
 70
     1
102
RTVSPropertyOp23
 70
     1
102
RTVSPropertyOp24
 70
     1
102
RTVSPropertyOp25
 70
     1
102
RTVSPropertyOp26
 70
     1
102
RTVSPropertyOp27
 70
     1
102
RTVSPropertyOp28
 70
     1
102
RTVSPropertyOp29
 70
     1
102
RTVSPropertyOp30
 70
     1
102
RTVSPropertyOp31
 70
     1
102
RTVSPropertyOp32
 70
     1
  0
XRECORD
  5
1532
102
{ACAD_REACTORS
330
1531
102
}
330
1531
100
AcDbXrecord
280
     1
102
RTVSPropertyOp0
 70
     1
102
RTVSPropertyOp1
 70
     1
102
RTVSPropertyOp2
 70
     1
102
RTVSPropertyOp3
 70
     1
102
RTVSPropertyOp4
 70
     1
102
RTVSPropertyOp5
 70
     1
102
RTVSPropertyOp6
 70
     1
102
RTVSPropertyOp7
 70
     1
102
RTVSPropertyOp8
 70
     1
102
RTVSPropertyOp9
 70
     1
102
RTVSPropertyOp10
 70
     1
102
RTVSPropertyOp11
 70
     1
102
RTVSPropertyOp12
 70
     1
102
RTVSPropertyOp13
 70
     1
102
RTVSPropertyOp14
 70
     1
102
RTVSPropertyOp15
 70
     1
102
RTVSPropertyOp16
 70
     1
102
RTVSPropertyOp17
 70
     1
102
RTVSPropertyOp18
 70
     1
102
RTVSPropertyOp19
 70
     1
102
RTVSPropertyOp20
 70
     1
102
RTVSPropertyOp21
 70
     1
102
RTVSPropertyOp22
 70
     1
102
RTVSPropertyOp23
 70
     1
102
RTVSPropertyOp24
 70
     1
102
RTVSPropertyOp25
 70
     1
102
RTVSPropertyOp26
 70
     1
102
RTVSPropertyOp27
 70
     1
102
RTVSPropertyOp28
 70
     1
102
RTVSPropertyOp29
 70
     1
102
RTVSPropertyOp30
 70
     1
102
RTVSPropertyOp31
 70
     1
102
RTVSPropertyOp32
 70
     1
  0
ENDSEC
  0
EOF
