  0
SECTION
  2
HEADER
  9
$ACADVER
  1
AC1015
  9
$ACADMAINTVER
 70
    20
  9
$DWGCODEPAGE
  3
ANSI_932
  9
$INSBASE
 10
0.0
 20
0.0
 30
0.0
  9
$EXTMIN
 10
-1418.421442472043
 20
-964.8650149999999
 30
0.0
  9
$EXTMAX
 10
945.3095110000001
 20
2102.819789
 30
0.0
  9
$LIMMIN
 10
-4200.0
 20
-2970.0
  9
$LIMMAX
 10
4200.0
 20
2970.0
  9
$ORTHOMODE
 70
     0
  9
$REGENMODE
 70
     1
  9
$FILLMODE
 70
     1
  9
$QTEXTMODE
 70
     0
  9
$MIRRTEXT
 70
     0
  9
$LTSCALE
 40
20.0
  9
$ATTMODE
 70
     1
  9
$TEXTSIZE
 40
64.0
  9
$TRACEWID
 40
0.05
  9
$TEXTSTYLE
  7
STANDARD
  9
$CLAYER
  8
SIZE
  9
$CELTYPE
  6
CONTINUOUS
  9
$CECOLOR
 62
     7
  9
$CELTSCALE
 40
1.0
  9
$DISPSILH
 70
     0
  9
$DIMSCALE
 40
1.0
  9
$DIMASZ
 40
10.0
  9
$DIMEXO
 40
20.0
  9
$DIMDLI
 40
200.0
  9
$DIMRND
 40
0.0
  9
$DIMDLE
 40
0.0
  9
$DIMEXE
 40
30.0
  9
$DIMTP
 40
0.0
  9
$DIMTM
 40
0.0
  9
$DIMTXT
 40
64.0
  9
$DIMCEN
 40
0.0
  9
$DIMTSZ
 40
0.0
  9
$DIMTOL
 70
     0
  9
$DIMLIM
 70
     0
  9
$DIMTIH
 70
     0
  9
$DIMTOH
 70
     0
  9
$DIMSE1
 70
     0
  9
$DIMSE2
 70
     0
  9
$DIMTAD
 70
     1
  9
$DIMZIN
 70
     8
  9
$DIMBLK
  1
DOTBLANK
  9
$DIMASO
 70
     1
  9
$DIMSHO
 70
     0
  9
$DIMPOST
  1

  9
$DIMAPOST
  1

  9
$DIMALT
 70
     0
  9
$DIMALTD
 70
     2
  9
$DIMALTF
 40
25.4
  9
$DIMLFAC
 40
1.0
  9
$DIMTOFL
 70
     1
  9
$DIMTVP
 40
0.0
  9
$DIMTIX
 70
     1
  9
$DIMSOXD
 70
     0
  9
$DIMSAH
 70
     0
  9
$DIMBLK1
  1

  9
$DIMBLK2
  1

  9
$DIMSTYLE
  2
STANDARD
  9
$DIMCLRD
 70
     0
  9
$DIMCLRE
 70
     0
  9
$DIMCLRT
 70
     0
  9
$DIMTFAC
 40
1.0
  9
$DIMGAP
 40
0.09
  9
$DIMJUST
 70
     0
  9
$DIMSD1
 70
     0
  9
$DIMSD2
 70
     0
  9
$DIMTOLJ
 70
     1
  9
$DIMTZIN
 70
     0
  9
$DIMALTZ
 70
     0
  9
$DIMALTTZ
 70
     0
  9
$DIMUPT
 70
     0
  9
$DIMDEC
 70
     4
  9
$DIMTDEC
 70
     4
  9
$DIMALTU
 70
     2
  9
$DIMALTTD
 70
     2
  9
$DIMTXSTY
  7
STANDARD
  9
$DIMAUNIT
 70
     0
  9
$DIMADEC
 70
     0
  9
$DIMALTRND
 40
0.0
  9
$DIMAZIN
 70
     0
  9
$DIMDSEP
 70
    46
  9
$DIMATFIT
 70
     3
  9
$DIMFRAC
 70
     0
  9
$DIMLDRBLK
  1
DOTBLANK
  9
$DIMLUNIT
 70
     2
  9
$DIMLWD
 70
    -2
  9
$DIMLWE
 70
    -2
  9
$DIMTMOVE
 70
     0
  9
$LUNITS
 70
     2
  9
$LUPREC
 70
     4
  9
$SKETCHINC
 40
0.1
  9
$FILLETRAD
 40
0.0
  9
$AUNITS
 70
     1
  9
$AUPREC
 70
     3
  9
$MENU
  1
ACAD
  9
$ELEVATION
 40
0.0
  9
$PELEVATION
 40
0.0
  9
$THICKNESS
 40
0.0
  9
$LIMCHECK
 70
     0
  9
$CHAMFERA
 40
0.0
  9
$CHAMFERB
 40
0.0
  9
$CHAMFERC
 40
0.0
  9
$CHAMFERD
 40
0.0
  9
$SKPOLY
 70
     0
  9
$TDCREATE
 40
2449761.535289665
  9
$TDUCREATE
 40
2449761.160289664
  9
$TDUPDATE
 40
2458150.755792002
  9
$TDUUPDATE
 40
2458150.380792002
  9
$TDINDWG
 40
4.1520534722
  9
$TDUSRTIMER
 40
4.1520522801
  9
$USRTIMER
 70
     1
  9
$ANGBASE
 50
0.0
  9
$ANGDIR
 70
     0
  9
$PDMODE
 70
    35
  9
$PDSIZE
 40
100.0
  9
$PLINEWID
 40
0.0
  9
$SPLFRAME
 70
     0
  9
$SPLINETYPE
 70
     6
  9
$SPLINESEGS
 70
     8
  9
$HANDSEED
  5
45B
  9
$SURFTAB1
 70
     6
  9
$SURFTAB2
 70
     6
  9
$SURFTYPE
 70
     6
  9
$SURFU
 70
     6
  9
$SURFV
 70
     6
  9
$UCSBASE
  2

  9
$UCSNAME
  2

  9
$UCSORG
 10
0.0
 20
0.0
 30
0.0
  9
$UCSXDIR
 10
1.0
 20
0.0
 30
0.0
  9
$UCSYDIR
 10
0.0
 20
1.0
 30
0.0
  9
$UCSORTHOREF
  2

  9
$UCSORTHOVIEW
 70
     0
  9
$UCSORGTOP
 10
0.0
 20
0.0
 30
0.0
  9
$UCSORGBOTTOM
 10
0.0
 20
0.0
 30
0.0
  9
$UCSORGLEFT
 10
0.0
 20
0.0
 30
0.0
  9
$UCSORGRIGHT
 10
0.0
 20
0.0
 30
0.0
  9
$UCSORGFRONT
 10
0.0
 20
0.0
 30
0.0
  9
$UCSORGBACK
 10
0.0
 20
0.0
 30
0.0
  9
$PUCSBASE
  2

  9
$PUCSNAME
  2

  9
$PUCSORG
 10
0.0
 20
0.0
 30
0.0
  9
$PUCSXDIR
 10
1.0
 20
0.0
 30
0.0
  9
$PUCSYDIR
 10
0.0
 20
1.0
 30
0.0
  9
$PUCSORTHOREF
  2

  9
$PUCSORTHOVIEW
 70
     0
  9
$PUCSORGTOP
 10
0.0
 20
0.0
 30
0.0
  9
$PUCSORGBOTTOM
 10
0.0
 20
0.0
 30
0.0
  9
$PUCSORGLEFT
 10
0.0
 20
0.0
 30
0.0
  9
$PUCSORGRIGHT
 10
0.0
 20
0.0
 30
0.0
  9
$PUCSORGFRONT
 10
0.0
 20
0.0
 30
0.0
  9
$PUCSORGBACK
 10
0.0
 20
0.0
 30
0.0
  9
$USERI1
 70
     0
  9
$USERI2
 70
     0
  9
$USERI3
 70
     0
  9
$USERI4
 70
     0
  9
$USERI5
 70
     0
  9
$USERR1
 40
20.0
  9
$USERR2
 40
0.0
  9
$USERR3
 40
0.0
  9
$USERR4
 40
0.0
  9
$USERR5
 40
0.0
  9
$WORLDVIEW
 70
     1
  9
$SHADEDGE
 70
     3
  9
$SHADEDIF
 70
    70
  9
$TILEMODE
 70
     1
  9
$MAXACTVP
 70
    48
  9
$PINSBASE
 10
0.0
 20
0.0
 30
0.0
  9
$PLIMCHECK
 70
     0
  9
$PEXTMIN
 10
1.000000000000000E+20
 20
1.000000000000000E+20
 30
1.000000000000000E+20
  9
$PEXTMAX
 10
-1.000000000000000E+20
 20
-1.000000000000000E+20
 30
-1.000000000000000E+20
  9
$PLIMMIN
 10
0.0
 20
0.0
  9
$PLIMMAX
 10
12.0
 20
9.0
  9
$UNITMODE
 70
     0
  9
$VISRETAIN
 70
     1
  9
$PLINEGEN
 70
     0
  9
$PSLTSCALE
 70
     1
  9
$TREEDEPTH
 70
  3020
  9
$CMLSTYLE
  2
Standard
  9
$CMLJUST
 70
     0
  9
$CMLSCALE
 40
1.0
  9
$PROXYGRAPHICS
 70
     1
  9
$MEASUREMENT
 70
     0
  9
$CELWEIGHT
370
    -1
  9
$ENDCAPS
280
     0
  9
$JOINSTYLE
280
     0
  9
$LWDISPLAY
290
     0
  9
$INSUNITS
 70
     0
  9
$HYPERLINKBASE
  1

  9
$STYLESHEET
  1

  9
$XEDIT
290
     1
  9
$CEPSNTYPE
380
     0
  9
$PSTYLEMODE
290
     1
  9
$FINGERPRINTGUID
  2
{279CEAEB-4B86-4830-A9C0-49BF9488702A}
  9
$VERSIONGUID
  2
{2C430B99-5E4A-497E-9292-CF9E2D729A78}
  9
$EXTNAMES
290
     1
  9
$PSVPSCALE
 40
0.0
  9
$OLESTARTUP
290
     0
  0
ENDSEC
  0
SECTION
  2
CLASSES
  0
CLASS
  1
ACDBDICTIONARYWDFLT
  2
AcDbDictionaryWithDefault
  3
ObjectDBX Classes
 90
        0
280
     0
281
     0
  0
CLASS
  1
MATERIAL
  2
AcDbMaterial
  3
ObjectDBX Classes
 90
     1153
280
     0
281
     0
  0
CLASS
  1
VISUALSTYLE
  2
AcDbVisualStyle
  3
ObjectDBX Classes
 90
     4095
280
     0
281
     0
  0
CLASS
  1
SCALE
  2
AcDbScale
  3
ObjectDBX Classes
 90
     1153
280
     0
281
     0
  0
CLASS
  1
TABLESTYLE
  2
AcDbTableStyle
  3
ObjectDBX Classes
 90
     4095
280
     0
281
     0
  0
CLASS
  1
MLEADERSTYLE
  2
AcDbMLeaderStyle
  3
ACDB_MLEADERSTYLE_CLASS
 90
     4095
280
     0
281
     0
  0
CLASS
  1
DICTIONARYVAR
  2
AcDbDictionaryVar
  3
ObjectDBX Classes
 90
        0
280
     0
281
     0
  0
CLASS
  1
CELLSTYLEMAP
  2
AcDbCellStyleMap
  3
ObjectDBX Classes
 90
     1152
280
     0
281
     0
  0
CLASS
  1
ACDBPLACEHOLDER
  2
AcDbPlaceHolder
  3
ObjectDBX Classes
 90
        0
280
     0
281
     0
  0
CLASS
  1
LAYOUT
  2
AcDbLayout
  3
ObjectDBX Classes
 90
        0
280
     0
281
     0
  0
ENDSEC
  0
SECTION
  2
TABLES
  0
TABLE
  2
VPORT
  5
2E5
330
0
100
AcDbSymbolTable
 70
     1
  0
VPORT
  5
356
330
2E5
100
AcDbSymbolTableRecord
100
AcDbViewportTableRecord
  2
*ACTIVE
 70
     0
 10
0.0
 20
0.0
 11
1.0
 21
1.0
 12
-333.1737134583236
 22
738.2821262153184
 13
0.0
 23
0.0
 14
50.0
 24
50.0
 15
100.0
 25
100.0
 16
0.0
 26
0.0
 36
1.0
 17
0.0
 27
0.0
 37
0.0
 40
3851.022489308343
 41
1.127659574468085
 42
50.0
 43
0.0
 44
0.0
 50
0.0
 51
0.0
 71
     0
 72
  1000
 73
     1
 74
     0
 75
     0
 76
     0
 77
     0
 78
     0
281
     0
 65
     1
110
0.0
120
0.0
130
0.0
111
1.0
121
0.0
131
0.0
112
0.0
122
1.0
132
0.0
 79
     0
146
0.0
1001
ACAD_NAV_VCDISPLAY
1070
     3
  0
ENDTAB
  0
TABLE
  2
LTYPE
  5
2E2
330
0
100
AcDbSymbolTable
 70
     2
  0
LTYPE
  5
33F
330
2E2
100
AcDbSymbolTableRecord
100
AcDbLinetypeTableRecord
  2
ByBlock
 70
     0
  3

 72
    65
 73
     0
 40
0.0
  0
LTYPE
  5
340
330
2E2
100
AcDbSymbolTableRecord
100
AcDbLinetypeTableRecord
  2
ByLayer
 70
     0
  3

 72
    65
 73
     0
 40
0.0
  0
LTYPE
  5
341
330
2E2
100
AcDbSymbolTableRecord
100
AcDbLinetypeTableRecord
  2
CONTINUOUS
 70
     0
  3
実線
 72
    65
 73
     0
 40
0.0
  0
LTYPE
  5
357
330
2E2
100
AcDbSymbolTableRecord
100
AcDbLinetypeTableRecord
  2
DASHDOT
 70
     0
  3
____ _ ____ _ ____ _ ____ _ ____ _ ____ _ ____
 72
    65
 73
     4
 40
5.5
 49
4.0
 74
     0
 49
-0.6
 74
     0
 49
0.3
 74
     0
 49
-0.6
 74
     0
  0
ENDTAB
  0
TABLE
  2
LAYER
  5
2DF
330
0
100
AcDbSymbolTable
 70
    12
  0
LAYER
  5
339
102
{ACAD_XDICTIONARY
360
370
102
}
330
2DF
100
AcDbSymbolTableRecord
100
AcDbLayerTableRecord
  2
0
 70
     0
 62
     7
  6
CONTINUOUS
370
    -3
390
2EC
  0
LAYER
  5
355
102
{ACAD_XDICTIONARY
360
372
102
}
330
2DF
100
AcDbSymbolTableRecord
100
AcDbLayerTableRecord
  2
SIZE
 70
     0
 62
    30
  6
CONTINUOUS
370
    -3
390
2EC
  0
LAYER
  5
358
102
{ACAD_XDICTIONARY
360
374
102
}
330
2DF
100
AcDbSymbolTableRecord
100
AcDbLayerTableRecord
  2
OUTLINE
 70
     0
 62
     3
  6
CONTINUOUS
370
    -3
390
2EC
  0
LAYER
  5
359
102
{ACAD_XDICTIONARY
360
376
102
}
330
2DF
100
AcDbSymbolTableRecord
100
AcDbLayerTableRecord
  2
DETAIL
 70
     0
 62
     5
  6
CONTINUOUS
370
    -3
390
2EC
  0
LAYER
  5
35A
102
{ACAD_XDICTIONARY
360
378
102
}
330
2DF
100
AcDbSymbolTableRecord
100
AcDbLayerTableRecord
  2
BASIS
 70
     0
 62
     6
  6
DASHDOT
370
    -3
390
2EC
  0
LAYER
  5
35B
102
{ACAD_XDICTIONARY
360
37A
102
}
330
2DF
100
AcDbSymbolTableRecord
100
AcDbLayerTableRecord
  2
NOTE
 70
     0
 62
     4
  6
CONTINUOUS
370
    -3
390
2EC
  0
LAYER
  5
35C
102
{ACAD_XDICTIONARY
360
37C
102
}
330
2DF
100
AcDbSymbolTableRecord
100
AcDbLayerTableRecord
  2
ARRANGE
 70
     0
 62
     1
  6
CONTINUOUS
370
    -3
390
2EC
  0
LAYER
  5
35D
102
{ACAD_XDICTIONARY
360
37E
102
}
330
2DF
100
AcDbSymbolTableRecord
100
AcDbLayerTableRecord
  2
FIX
 70
     0
 62
    11
  6
CONTINUOUS
370
    -3
390
2EC
  0
LAYER
  5
35E
102
{ACAD_XDICTIONARY
360
380
102
}
330
2DF
100
AcDbSymbolTableRecord
100
AcDbLayerTableRecord
  2
SERVICESPACE
 70
     0
 62
     2
  6
DASHDOT
370
    -3
390
2EC
  0
LAYER
  5
35F
102
{ACAD_XDICTIONARY
360
382
102
}
330
2DF
100
AcDbSymbolTableRecord
100
AcDbLayerTableRecord
  2
ETC
 70
     0
 62
    61
  6
CONTINUOUS
370
    -3
390
2EC
  0
LAYER
  5
360
102
{ACAD_XDICTIONARY
360
384
102
}
330
2DF
100
AcDbSymbolTableRecord
100
AcDbLayerTableRecord
  2
SYMBOLLINE
 70
     0
 62
    15
  6
CONTINUOUS
370
    -3
390
2EC
  0
LAYER
  5
361
330
2DF
100
AcDbSymbolTableRecord
100
AcDbLayerTableRecord
  2
DEFPOINTS
 70
     0
 62
     7
  6
CONTINUOUS
290
     0
370
    -3
390
2EC
  0
ENDTAB
  0
TABLE
  2
STYLE
  5
2E0
330
0
100
AcDbSymbolTable
 70
     4
  0
STYLE
  5
33A
330
2E0
100
AcDbSymbolTableRecord
100
AcDbTextStyleTableRecord
  2
STANDARD
 70
     0
 40
0.0
 41
0.9
 50
0.0
 71
     0
 42
64.0
  3
SIMPLEX
  4
BIGFONT
  0
STYLE
  5
33E
330
2E0
100
AcDbSymbolTableRecord
100
AcDbTextStyleTableRecord
  2
Annotative
 70
     0
 40
0.0
 41
1.0
 50
0.0
 71
     0
 42
0.2
  3
txt
  4

1001
AcadAnnotative
1000
AnnotativeData
1002
{
1070
     1
1070
     1
1002
}
  0
STYLE
  5
362
330
2E0
100
AcDbSymbolTableRecord
100
AcDbTextStyleTableRecord
  2
STANDARD1
 70
     0
 40
0.0
 41
1.0
 50
0.0
 71
     0
 42
3.5
  3
MONOTXT
  4
BIGFONT
  0
STYLE
  5
413
330
2E0
100
AcDbSymbolTableRecord
100
AcDbTextStyleTableRecord
  2
KAIGAI_STANDARD_1
 70
     0
 40
53.0
 41
0.51
 50
0.0
 71
     0
 42
53.0
  3
MONOTXT.shx
  4
BIGFONT.shx
  0
ENDTAB
  0
TABLE
  2
VIEW
  5
2E3
330
0
100
AcDbSymbolTable
 70
     1
  0
VIEW
  5
363
330
2E3
100
AcDbSymbolTableRecord
100
AcDbViewTableRecord
  2
ALL
 70
     0
 40
6056.230032000001
 10
0.0
 20
58.115016
 41
8400.0
 11
0.0
 21
0.0
 31
1.0
 12
0.0
 22
0.0
 32
0.0
 42
50.0
 43
0.0
 44
0.0
 50
0.0
 71
     0
281
     0
 72
     1
110
0.0
120
0.0
130
0.0
111
1.0
121
0.0
131
0.0
112
0.0
122
1.0
132
0.0
 79
     0
146
0.0
  0
ENDTAB
  0
TABLE
  2
UCS
  5
2E4
330
0
100
AcDbSymbolTable
 70
     0
  0
ENDTAB
  0
TABLE
  2
APPID
  5
2E6
330
0
100
AcDbSymbolTable
 70
     5
  0
APPID
  5
33B
330
2E6
100
AcDbSymbolTableRecord
100
AcDbRegAppTableRecord
  2
ACAD
 70
     0
  0
APPID
  5
342
330
2E6
100
AcDbSymbolTableRecord
100
AcDbRegAppTableRecord
  2
AcadAnnotative
 70
     0
  0
APPID
  5
34C
330
2E6
100
AcDbSymbolTableRecord
100
AcDbRegAppTableRecord
  2
ACAD_MLEADERVER
 70
     0
  0
APPID
  5
36E
330
2E6
100
AcDbSymbolTableRecord
100
AcDbRegAppTableRecord
  2
ACAD_EXEMPT_FROM_CAD_STANDARDS
 70
     0
  0
APPID
  5
3CF
330
2E6
100
AcDbSymbolTableRecord
100
AcDbRegAppTableRecord
  2
ACAD_NAV_VCDISPLAY
 70
     0
  0
ENDTAB
  0
TABLE
  2
DIMSTYLE
  5
2E7
330
0
100
AcDbSymbolTable
 70
     2
100
AcDbDimStyleTable
 71
     0
  0
DIMSTYLE
105
33C
330
2E7
100
AcDbSymbolTableRecord
100
AcDbDimStyleTableRecord
  2
STANDARD
 70
     0
275
     1
279
     2
284
     8
285
     8
286
     8
340
33A
  0
DIMSTYLE
105
33D
330
2E7
100
AcDbSymbolTableRecord
100
AcDbDimStyleTableRecord
  2
Annotative
 70
     0
340
33A
1001
AcadAnnotative
1000
AnnotativeData
1002
{
1070
     1
1070
     1
1002
}
  0
ENDTAB
  0
TABLE
  2
BLOCK_RECORD
  5
2DE
330
0
100
AcDbSymbolTable
 70
     4
  0
BLOCK_RECORD
  5
351
330
2DE
100
AcDbSymbolTableRecord
100
AcDbBlockTableRecord
  2
*Model_Space
340
354
  0
BLOCK_RECORD
  5
34D
330
2DE
100
AcDbSymbolTableRecord
100
AcDbBlockTableRecord
  2
*Paper_Space
340
350
  0
BLOCK_RECORD
  5
368
330
2DE
100
AcDbSymbolTableRecord
100
AcDbBlockTableRecord
  2
$MODEL_SPACE
340
0
  0
BLOCK_RECORD
  5
36A
330
2DE
100
AcDbSymbolTableRecord
100
AcDbBlockTableRecord
  2
$PAPER_SPACE
340
0
  0
BLOCK_RECORD
  5
36C
330
2DE
100
AcDbSymbolTableRecord
100
AcDbBlockTableRecord
  2
_DOTBLANK
340
0
  0
ENDTAB
  0
ENDSEC
  0
SECTION
  2
BLOCKS
  0
BLOCK
  5
352
330
351
100
AcDbEntity
  8
0
100
AcDbBlockBegin
  2
*Model_Space
 70
     0
 10
0.0
 20
0.0
 30
0.0
  3
*Model_Space
  1

  0
ENDBLK
  5
353
330
351
100
AcDbEntity
  8
0
100
AcDbBlockEnd
  0
BLOCK
  5
34E
330
34D
100
AcDbEntity
 67
     1
  8
0
100
AcDbBlockBegin
  2
*Paper_Space
 70
     0
 10
0.0
 20
0.0
 30
0.0
  3
*Paper_Space
  1

  0
ENDBLK
  5
34F
330
34D
100
AcDbEntity
 67
     1
  8
0
100
AcDbBlockEnd
  0
BLOCK
  5
369
330
368
100
AcDbEntity
  8
0
100
AcDbBlockBegin
  2
$MODEL_SPACE
 70
     0
 10
0.0
 20
0.0
 30
0.0
  3
$MODEL_SPACE
  1

  0
ENDBLK
  5
2BE
330
368
100
AcDbEntity
  8
0
100
AcDbBlockEnd
  0
BLOCK
  5
36B
330
36A
100
AcDbEntity
  8
0
100
AcDbBlockBegin
  2
$PAPER_SPACE
 70
     0
 10
0.0
 20
0.0
 30
0.0
  3
$PAPER_SPACE
  1

  0
ENDBLK
  5
2BB
330
36A
100
AcDbEntity
  8
0
100
AcDbBlockEnd
  0
BLOCK
  5
36D
330
36C
100
AcDbEntity
  8
0
100
AcDbBlockBegin
  2
_DOTBLANK
 70
     0
 10
0.0
 20
0.0
 30
0.0
  3
_DOTBLANK
  1

  0
CIRCLE
  5
36
330
36C
100
AcDbEntity
  8
0
  6
Continuous
 62
     7
100
AcDbCircle
 10
0.0
 20
0.0
 30
0.0
 40
0.5
  0
LINE
  5
37
330
36C
100
AcDbEntity
  8
0
  6
Continuous
 62
     7
100
AcDbLine
 10
-0.5
 20
0.0
 30
0.0
 11
-1.0
 21
0.0
 31
0.0
  0
ENDBLK
  5
38
330
36C
100
AcDbEntity
  8
0
100
AcDbBlockEnd
  0
ENDSEC
  0
SECTION
  2
ENTITIES
  0
LINE
  5
39
330
351
100
AcDbEntity
  8
NOTE
100
AcDbLine
 10
142.497277
 20
190.0
 30
0.0
 11
164.056951
 21
208.734919
 31
0.0
  0
LINE
  5
3A
330
351
100
AcDbEntity
  8
NOTE
100
AcDbLine
 10
142.497277
 20
190.0
 30
0.0
 11
151.801042
 21
217.004752
 31
0.0
  0
LINE
  5
3B
330
351
100
AcDbEntity
  8
NOTE
100
AcDbLine
 10
361.533859
 20
514.612607
 30
0.0
 11
142.497277
 21
190.0
 31
0.0
  0
LINE
  5
3C
330
351
100
AcDbEntity
  8
NOTE
100
AcDbLine
 10
359.062251
 20
347.195675
 30
0.0
 11
142.497277
 21
130.0
 31
0.0
  0
LINE
  5
3D
330
351
100
AcDbEntity
  8
NOTE
100
AcDbLine
 10
539.921804
 20
-223.099429
 30
0.0
 11
257.338277
 21
-223.099429
 31
0.0
  0
LINE
  5
3E
330
351
100
AcDbEntity
  8
DETAIL
100
AcDbLine
 10
242.5
 20
80.0
 30
0.0
 11
-242.5
 21
80.0
 31
0.0
  0
LINE
  5
3F
330
351
100
AcDbEntity
  8
DETAIL
100
AcDbLine
 10
-210.134193
 20
0.0
 30
0.0
 11
195.13919
 21
0.0
 31
0.0
  0
LINE
  5
40
330
351
100
AcDbEntity
  8
DETAIL
100
AcDbLine
 10
-235.496353
 20
80.0
 30
0.0
 11
-235.496353
 21
0.0
 31
0.0
  0
LINE
  5
41
330
351
100
AcDbEntity
  8
DETAIL
100
AcDbLine
 10
-234.126853
 20
0.0
 30
0.0
 11
-210.734162
 21
0.0
 31
0.0
  0
LINE
  5
42
330
351
100
AcDbEntity
  8
NOTE
100
AcDbLine
 10
257.338277
 20
-223.099429
 30
0.0
 11
-7.497500999999997
 21
30.0
 31
0.0
  0
LINE
  5
43
330
351
100
AcDbEntity
  8
NOTE
100
AcDbLine
 10
18.637191
 20
30.0
 30
0.0
 11
-33.632193
 21
30.0
 31
0.0
  0
LINE
  5
44
330
351
100
AcDbEntity
  8
NOTE
100
AcDbLine
 10
-7.497500999999997
 20
56.125322
 30
0.0
 11
-7.497500999999997
 21
3.855937999999998
 31
0.0
  0
LINE
  5
45
330
351
100
AcDbEntity
  8
NOTE
100
AcDbLine
 10
-7.497500999999997
 20
30.0
 30
0.0
 11
7.429391999999999
 21
5.648315
 31
0.0
  0
LINE
  5
46
330
351
100
AcDbEntity
  8
NOTE
100
AcDbLine
 10
-7.497500999999997
 20
30.0
 30
0.0
 11
17.60541
 21
16.37427
 31
0.0
  0
CIRCLE
  5
47
330
351
100
AcDbEntity
  8
DETAIL
100
AcDbCircle
 10
-7.116767999999997
 20
29.609896
 30
0.0
 40
15.14077
  0
CIRCLE
  5
48
330
351
100
AcDbEntity
  8
DETAIL
100
AcDbCircle
 10
-7.116767999999997
 20
29.609896
 30
0.0
 40
18.994066
  0
LINE
  5
49
330
351
100
AcDbEntity
  8
DETAIL
100
AcDbLine
 10
0.000156
 20
37.488288
 30
0.0
 11
-14.995159
 21
37.488288
 31
0.0
  0
LINE
  5
4A
330
351
100
AcDbEntity
  8
DETAIL
100
AcDbLine
 10
0.000156
 20
22.492973
 30
0.0
 11
-14.995159
 21
22.492973
 31
0.0
  0
LINE
  5
4B
330
351
100
AcDbEntity
  8
DETAIL
100
AcDbLine
 10
0.000156
 20
37.488288
 30
0.0
 11
0.000156
 21
22.492973
 31
0.0
  0
LINE
  5
4C
330
351
100
AcDbEntity
  8
DETAIL
100
AcDbLine
 10
-14.995159
 20
37.488288
 30
0.0
 11
-14.995159
 21
22.492973
 31
0.0
  0
LINE
  5
4D
330
351
100
AcDbEntity
  8
DETAIL
100
AcDbLine
 10
-14.995159
 20
37.497658
 30
0.0
 11
0.000156
 21
22.502342
 31
0.0
  0
LINE
  5
4E
330
351
100
AcDbEntity
  8
DETAIL
100
AcDbLine
 10
0.000156
 20
37.497658
 30
0.0
 11
-14.995159
 21
22.502342
 31
0.0
  0
LINE
  5
4F
330
351
100
AcDbEntity
  8
DETAIL
100
AcDbLine
 10
220.503647
 20
80.0
 30
0.0
 11
220.503647
 21
0.0
 31
0.0
  0
LINE
  5
50
330
351
100
AcDbEntity
  8
DETAIL
100
AcDbLine
 10
218.13185
 20
0.0
 30
0.0
 11
194.739159
 21
0.0
 31
0.0
  0
LINE
  5
51
330
351
100
AcDbEntity
  8
NOTE
100
AcDbLine
 10
142.497277
 20
130.0
 30
0.0
 11
167.210067
 21
144.321129
 31
0.0
  0
LINE
  5
52
330
351
100
AcDbEntity
  8
NOTE
100
AcDbLine
 10
142.497277
 20
130.0
 30
0.0
 11
156.738616
 21
154.758856
 31
0.0
  0
LINE
  5
53
330
351
100
AcDbEntity
  8
DETAIL
100
AcDbLine
 10
-242.5
 20
1650.0
 30
0.0
 11
-242.5
 21
80.0
 31
0.0
  0
LINE
  5
54
330
351
100
AcDbEntity
  8
NOTE
100
AcDbLine
 10
657.225217
 20
711.061633
 30
0.0
 11
360.070344
 21
711.061633
 31
0.0
  0
LINE
  5
55
330
351
100
AcDbEntity
  8
NOTE
100
AcDbLine
 10
665.5451879999998
 20
514.612607
 30
0.0
 11
361.533859
 21
514.612607
 31
0.0
  0
LINE
  5
56
330
351
100
AcDbEntity
  8
NOTE
100
AcDbLine
 10
659.9985230000002
 20
347.195675
 30
0.0
 11
359.062251
 21
347.195675
 31
0.0
  0
TEXT
  5
57
330
351
100
AcDbEntity
  8
NOTE
100
AcDbText
 10
394.315427
 20
455.2753389999998
 30
0.0
 40
50.0
  1
ﾉｯｸｱｳﾄ\U+03C627
 50
0.000003
 41
0.6310000000000003
  7
STANDARD1
100
AcDbText
  0
TEXT
  5
58
330
351
100
AcDbEntity
  8
NOTE
100
AcDbText
 10
394.273223
 20
287.612415
 30
0.0
 40
50.0
  1
ﾉｯｸｱｳﾄ\U+03C643
 50
0.000003
 41
0.6310000000000003
  7
STANDARD1
100
AcDbText
  0
LINE
  5
59
330
351
100
AcDbEntity
  8
NOTE
100
AcDbLine
 10
-117.224682
 20
505.0011809999999
 30
0.0
 11
-183.775318
 21
505.0011809999999
 31
0.0
  0
LINE
  5
5A
330
351
100
AcDbEntity
  8
NOTE
100
AcDbLine
 10
-150.5
 20
505.0011809999999
 30
0.0
 11
-161.357554
 21
531.4195499999998
 31
0.0
  0
LINE
  5
5B
330
351
100
AcDbEntity
  8
NOTE
100
AcDbLine
 10
-150.5
 20
505.0011809999999
 30
0.0
 11
-173.112103
 21
522.4513820000002
 31
0.0
  0
LINE
  5
5C
330
351
100
AcDbEntity
  8
NOTE
100
AcDbLine
 10
-377.155286
 20
799.419618
 30
0.0
 11
-150.5
 21
505.0011809999999
 31
0.0
  0
ARC
  5
5D
330
351
100
AcDbEntity
  8
DETAIL
100
AcDbCircle
 10
-244.887145
 20
429.8657
 30
0.0
 40
7.612855
100
AcDbArc
 50
71.72563100000002
 51
288.274369
  0
LINE
  5
5E
330
351
100
AcDbEntity
  8
NOTE
100
AcDbLine
 10
-713.401095
 20
799.419618
 30
0.0
 11
-377.155286
 21
799.419618
 31
0.0
  0
TEXT
  5
5F
330
351
100
AcDbEntity
  8
NOTE
100
AcDbText
 10
-688.919612
 20
809.2263389999997
 30
0.0
 40
50.0
  1
※
 50
0.000003
 41
0.6310000000000003
  7
STANDARD1
100
AcDbText
  0
TEXT
  5
60
330
351
100
AcDbEntity
  8
NOTE
100
AcDbText
 10
-620.852645
 20
811.563386
 30
0.0
 40
50.0
  1
D1　Rc1
 50
0.000003
 41
0.6310000000000003
  7
STANDARD1
100
AcDbText
  0
ARC
  5
61
330
351
100
AcDbEntity
  8
DETAIL
100
AcDbCircle
 10
-150.119266
 20
509.618886
 30
0.0
 40
25.99188
100
AcDbArc
 50
0.0
 51
180.0
  0
CIRCLE
  5
62
330
351
100
AcDbEntity
  8
DETAIL
100
AcDbCircle
 10
-150.119266
 20
504.6204469999998
 30
0.0
 40
18.994066
  0
CIRCLE
  5
63
330
351
100
AcDbEntity
  8
DETAIL
100
AcDbCircle
 10
-150.119266
 20
504.6204469999998
 30
0.0
 40
18.994066
  0
CIRCLE
  5
64
330
351
100
AcDbEntity
  8
DETAIL
100
AcDbCircle
 10
-150.119266
 20
504.6204469999998
 30
0.0
 40
18.994066
  0
LINE
  5
65
330
351
100
AcDbEntity
  8
NOTE
100
AcDbLine
 10
-150.5
 20
538.276499
 30
0.0
 11
-150.5
 21
471.7258629999998
 31
0.0
  0
LINE
  5
66
330
351
100
AcDbEntity
  8
NOTE
100
AcDbLine
 10
360.070344
 20
711.061633
 30
0.0
 11
142.449646
 21
249.943764
 31
0.0
  0
LINE
  5
67
330
351
100
AcDbEntity
  8
DETAIL
100
AcDbLine
 10
-124.127387
 20
499.622009
 30
0.0
 11
-124.127387
 21
509.618886
 31
0.0
  0
LINE
  5
68
330
351
100
AcDbEntity
  8
DETAIL
100
AcDbLine
 10
-176.111146
 20
499.622009
 30
0.0
 11
-176.111146
 21
509.618886
 31
0.0
  0
ARC
  5
69
330
351
100
AcDbEntity
  8
DETAIL
100
AcDbCircle
 10
-150.119266
 20
499.622009
 30
0.0
 40
25.99188
100
AcDbArc
 50
180.0
 51
0.0
  0
LINE
  5
6A
330
351
100
AcDbEntity
  8
DETAIL
100
AcDbLine
 10
-167.945287
 20
511.17846
 30
0.0
 11
-176.012239
 21
511.884227
 31
0.0
  0
LINE
  5
6B
330
351
100
AcDbEntity
  8
DETAIL
100
AcDbLine
 10
-124.253675
 20
512.1779809999998
 30
0.0
 11
-131.71427
 21
509.3141269999998
 31
0.0
  0
CIRCLE
  5
6C
330
351
100
AcDbEntity
  8
DETAIL
100
AcDbCircle
 10
-150.119266
 20
504.6204469999998
 30
0.0
 40
13.995627
  0
LINE
  5
6D
330
351
100
AcDbEntity
  8
DETAIL
100
AcDbLine
 10
-143.002342
 20
512.4988389999998
 30
0.0
 11
-157.997658
 21
497.503523
 31
0.0
  0
LINE
  5
6E
330
351
100
AcDbEntity
  8
DETAIL
100
AcDbLine
 10
-157.997658
 20
512.4988389999998
 30
0.0
 11
-143.002342
 21
497.503523
 31
0.0
  0
LINE
  5
6F
330
351
100
AcDbEntity
  8
DETAIL
100
AcDbLine
 10
-143.002342
 20
512.4988389999998
 30
0.0
 11
-143.002342
 21
497.503523
 31
0.0
  0
LINE
  5
70
330
351
100
AcDbEntity
  8
DETAIL
100
AcDbLine
 10
-143.002342
 20
512.4988389999998
 30
0.0
 11
-157.997658
 21
512.4988389999998
 31
0.0
  0
LINE
  5
71
330
351
100
AcDbEntity
  8
DETAIL
100
AcDbLine
 10
-143.002342
 20
497.503523
 30
0.0
 11
-157.997658
 21
497.503523
 31
0.0
  0
LINE
  5
72
330
351
100
AcDbEntity
  8
DETAIL
100
AcDbLine
 10
-157.997658
 20
512.4988389999998
 30
0.0
 11
-157.997658
 21
497.503523
 31
0.0
  0
LINE
  5
73
330
351
100
AcDbEntity
  8
NOTE
100
AcDbLine
 10
142.449646
 20
249.943764
 30
0.0
 11
160.910109
 21
271.7389
 31
0.0
  0
LINE
  5
74
330
351
100
AcDbEntity
  8
NOTE
100
AcDbLine
 10
142.449646
 20
249.943764
 30
0.0
 11
147.539308
 21
278.049138
 31
0.0
  0
ARC
  5
75
330
351
100
AcDbEntity
  8
DETAIL
100
AcDbCircle
 10
-244.887145
 20
1045.473369
 30
0.0
 40
7.612855
100
AcDbArc
 50
71.72563100000002
 51
288.274369
  0
ARC
  5
76
330
351
100
AcDbEntity
  8
DETAIL
100
AcDbCircle
 10
-244.887145
 20
1225.417151
 30
0.0
 40
7.612855
100
AcDbArc
 50
71.72563100000002
 51
288.274369
  0
ARC
  5
77
330
351
100
AcDbEntity
  8
DETAIL
100
AcDbCircle
 10
-244.887145
 20
1405.360932
 30
0.0
 40
7.612855
100
AcDbArc
 50
71.72563100000002
 51
288.274369
  0
TEXT
  5
78
330
351
100
AcDbEntity
  8
NOTE
100
AcDbText
 10
468.166345
 20
361.476919
 30
0.0
 40
50.0
  1
EL2
 50
0.000003
 41
0.6310000000000003
  7
STANDARD1
100
AcDbText
  0
TEXT
  5
79
330
351
100
AcDbEntity
  8
NOTE
100
AcDbText
 10
394.563018
 20
651.3612829999997
 30
0.0
 40
50.0
  1
ﾉｯｸｱｳﾄ\U+03C627
 50
0.000003
 41
0.6310000000000003
  7
STANDARD1
100
AcDbText
  0
TEXT
  5
7A
330
351
100
AcDbEntity
  8
NOTE
100
AcDbText
 10
466.2996019999998
 20
524.511423
 30
0.0
 40
50.0
  1
EL1
 50
0.000003
 41
0.6310000000000003
  7
STANDARD1
100
AcDbText
  0
TEXT
  5
7B
330
351
100
AcDbEntity
  8
NOTE
100
AcDbText
 10
467.631655
 20
719.904085
 30
0.0
 40
50.0
  1
CL1
 50
0.000003
 41
0.6310000000000003
  7
STANDARD1
100
AcDbText
  0
LINE
  5
7C
330
351
100
AcDbEntity
  8
DETAIL
100
AcDbLine
 10
243.62373
 20
1650.0
 30
0.0
 11
-242.5
 21
1650.0
 31
0.0
  0
LINE
  5
7D
330
351
100
AcDbEntity
  8
DETAIL
100
AcDbLine
 10
-242.5
 20
1850.0
 30
0.0
 11
242.5
 21
1850.0
 31
0.0
  0
LINE
  5
7E
330
351
100
AcDbEntity
  8
DETAIL
100
AcDbLine
 10
-242.5
 20
1650.0
 30
0.0
 11
-242.5
 21
1850.0
 31
0.0
  0
ARC
  5
7F
330
351
100
AcDbEntity
  8
DETAIL
100
AcDbCircle
 10
161.649341
 20
1809.465922
 30
0.0
 40
19.993753
100
AcDbArc
 50
90.0
 51
180.0
  0
ARC
  5
80
330
351
100
AcDbEntity
  8
DETAIL
100
AcDbCircle
 10
176.644656
 20
1809.465922
 30
0.0
 40
14.995315
100
AcDbArc
 50
90.0
 51
180.0
  0
LINE
  5
81
330
351
100
AcDbEntity
  8
DETAIL
100
AcDbLine
 10
243.62373
 20
1829.459676
 30
0.0
 11
243.62373
 21
1824.461237
 31
0.0
  0
LINE
  5
82
330
351
100
AcDbEntity
  8
DETAIL
100
AcDbLine
 10
141.655587
 20
1669.509648
 30
0.0
 11
141.655587
 21
1809.465922
 31
0.0
  0
LINE
  5
83
330
351
100
AcDbEntity
  8
DETAIL
100
AcDbLine
 10
161.649341
 20
1809.465922
 30
0.0
 11
161.649341
 21
1669.509648
 31
0.0
  0
LINE
  5
84
330
351
100
AcDbEntity
  8
DETAIL
100
AcDbLine
 10
236.625916
 20
1824.461237
 30
0.0
 11
236.625916
 21
1654.514333
 31
0.0
  0
LINE
  5
85
330
351
100
AcDbEntity
  8
DETAIL
100
AcDbLine
 10
226.62904
 20
1690.503089
 30
0.0
 11
226.62904
 21
1655.514021
 31
0.0
  0
ARC
  5
86
330
351
100
AcDbEntity
  8
DETAIL
100
AcDbCircle
 10
160.846669
 20
1669.17717
 30
0.0
 40
19.193961
100
AcDbArc
 50
179.007473
 51
272.396751
  0
ARC
  5
87
330
351
100
AcDbEntity
  8
DETAIL
100
AcDbCircle
 10
176.644656
 20
1669.509648
 30
0.0
 40
14.995315
100
AcDbArc
 50
180.0
 51
270.0
  0
LINE
  5
88
330
351
100
AcDbEntity
  8
DETAIL
100
AcDbLine
 10
237.625604
 20
1654.514333
 30
0.0
 11
176.644656
 21
1654.514333
 31
0.0
  0
ARC
  5
89
330
351
100
AcDbEntity
  8
DETAIL
100
AcDbCircle
 10
227.628727
 20
1655.514021
 30
0.0
 40
0.9996879999999999
100
AcDbArc
 50
180.0
 51
270.0
  0
LINE
  5
8A
330
351
100
AcDbEntity
  8
DETAIL
100
AcDbLine
 10
243.62373
 20
1650.0
 30
0.0
 11
243.62373
 21
1654.514333
 31
0.0
  0
LINE
  5
8B
330
351
100
AcDbEntity
  8
DETAIL
100
AcDbLine
 10
243.62373
 20
1654.514333
 30
0.0
 11
237.625604
 21
1654.514333
 31
0.0
  0
LINE
  5
8C
330
351
100
AcDbEntity
  8
DETAIL
100
AcDbLine
 10
226.62904
 20
1735.489034
 30
0.0
 11
226.62904
 21
1698.500591
 31
0.0
  0
LINE
  5
8D
330
351
100
AcDbEntity
  8
DETAIL
100
AcDbLine
 10
232.627166
 20
1690.503089
 30
0.0
 11
161.649341
 21
1690.503089
 31
0.0
  0
LINE
  5
8E
330
351
100
AcDbEntity
  8
DETAIL
100
AcDbLine
 10
232.627166
 20
1698.500591
 30
0.0
 11
161.649341
 21
1698.500591
 31
0.0
  0
ARC
  5
8F
330
351
100
AcDbEntity
  8
DETAIL
100
AcDbCircle
 10
232.627166
 20
1694.50184
 30
0.0
 40
3.998751
100
AcDbArc
 50
270.0
 51
90.0
  0
LINE
  5
90
330
351
100
AcDbEntity
  8
DETAIL
100
AcDbLine
 10
237.625604
 20
1824.461237
 30
0.0
 11
176.644656
 21
1824.461237
 31
0.0
  0
LINE
  5
91
330
351
100
AcDbEntity
  8
DETAIL
100
AcDbLine
 10
226.62904
 20
1823.46155
 30
0.0
 11
226.62904
 21
1788.472481
 31
0.0
  0
ARC
  5
92
330
351
100
AcDbEntity
  8
DETAIL
100
AcDbCircle
 10
227.628727
 20
1823.46155
 30
0.0
 40
0.9996879999999999
100
AcDbArc
 50
90.0
 51
180.0
  0
LINE
  5
93
330
351
100
AcDbEntity
  8
DETAIL
100
AcDbLine
 10
232.627166
 20
1743.486536
 30
0.0
 11
161.649341
 21
1743.486536
 31
0.0
  0
LINE
  5
94
330
351
100
AcDbEntity
  8
DETAIL
100
AcDbLine
 10
232.627166
 20
1735.489034
 30
0.0
 11
161.649341
 21
1735.489034
 31
0.0
  0
ARC
  5
95
330
351
100
AcDbEntity
  8
DETAIL
100
AcDbCircle
 10
232.627166
 20
1739.487785
 30
0.0
 40
3.998751
100
AcDbArc
 50
270.0
 51
90.0
  0
LINE
  5
96
330
351
100
AcDbEntity
  8
DETAIL
100
AcDbLine
 10
232.627166
 20
1780.47498
 30
0.0
 11
161.649341
 21
1780.47498
 31
0.0
  0
LINE
  5
97
330
351
100
AcDbEntity
  8
DETAIL
100
AcDbLine
 10
232.627166
 20
1788.472481
 30
0.0
 11
161.649341
 21
1788.472481
 31
0.0
  0
ARC
  5
98
330
351
100
AcDbEntity
  8
DETAIL
100
AcDbCircle
 10
232.627166
 20
1784.47373
 30
0.0
 40
3.998751
100
AcDbArc
 50
270.0
 51
90.0
  0
LINE
  5
99
330
351
100
AcDbEntity
  8
DETAIL
100
AcDbLine
 10
226.62904
 20
1780.47498
 30
0.0
 11
226.62904
 21
1743.486536
 31
0.0
  0
LINE
  5
9A
330
351
100
AcDbEntity
  8
DETAIL
100
AcDbLine
 10
243.62373
 20
1824.461237
 30
0.0
 11
236.625916
 21
1824.461237
 31
0.0
  0
LINE
  5
9B
330
351
100
AcDbEntity
  8
DETAIL
100
AcDbLine
 10
243.62373
 20
1829.459676
 30
0.0
 11
161.649341
 21
1829.459676
 31
0.0
  0
LINE
  5
9C
330
351
100
AcDbEntity
  8
DETAIL
100
AcDbLine
 10
242.5
 20
80.0
 30
0.0
 11
242.5
 21
1650.0
 31
0.0
  0
LINE
  5
9D
330
351
100
AcDbEntity
  8
DETAIL
100
AcDbLine
 10
242.5
 20
1829.459676
 30
0.0
 11
242.5
 21
1850.0
 31
0.0
  0
CIRCLE
  5
9E
330
351
100
AcDbEntity
  8
DETAIL
100
AcDbCircle
 10
142.497277
 20
250.0
 30
0.0
 40
13.495784
  0
LINE
  5
9F
330
351
100
AcDbEntity
  8
NOTE
100
AcDbLine
 10
121.860868
 20
250.0
 30
0.0
 11
163.133687
 21
250.0
 31
0.0
  0
LINE
  5
A0
330
351
100
AcDbEntity
  8
NOTE
100
AcDbLine
 10
142.497277
 20
270.63641
 30
0.0
 11
142.497277
 21
229.36359
 31
0.0
  0
CIRCLE
  5
A1
330
351
100
AcDbEntity
  8
DETAIL
100
AcDbCircle
 10
142.497277
 20
190.0
 30
0.0
 40
13.495784
  0
LINE
  5
A2
330
351
100
AcDbEntity
  8
NOTE
100
AcDbLine
 10
121.860868
 20
190.0
 30
0.0
 11
163.133687
 21
190.0
 31
0.0
  0
LINE
  5
A3
330
351
100
AcDbEntity
  8
NOTE
100
AcDbLine
 10
142.497277
 20
210.63641
 30
0.0
 11
142.497277
 21
169.36359
 31
0.0
  0
LINE
  5
A4
330
351
100
AcDbEntity
  8
NOTE
100
AcDbLine
 10
113.8633659999999
 20
130.0
 30
0.0
 11
171.1311889999999
 21
130.0
 31
0.0
  0
CIRCLE
  5
A5
330
351
100
AcDbEntity
  8
DETAIL
100
AcDbCircle
 10
142.497277
 20
130.0
 30
0.0
 40
21.493285
  0
LINE
  5
A6
330
351
100
AcDbEntity
  8
NOTE
100
AcDbLine
 10
142.497277
 20
158.633911
 30
0.0
 11
142.497277
 21
101.366089
 31
0.0
  0
LINE
  5
A7
330
351
100
AcDbEntity
  8
OUTLINE
100
AcDbLine
 10
-242.5
 20
1850.0
 30
0.0
 11
-242.5
 21
80.0
 31
0.0
  0
LINE
  5
A8
330
351
100
AcDbEntity
  8
OUTLINE
100
AcDbLine
 10
242.5
 20
80.0
 30
0.0
 11
242.5
 21
1650.0
 31
0.0
  0
LINE
  5
A9
330
351
100
AcDbEntity
  8
OUTLINE
100
AcDbLine
 10
-235.496353
 20
0.0
 30
0.0
 11
212.507293
 21
0.0
 31
0.0
  0
LINE
  5
AB
330
351
100
AcDbEntity
  8
OUTLINE
100
AcDbLine
 10
-194.357558
 20
0.0
 30
0.0
 11
-134.376298
 21
0.0
 31
0.0
  0
LINE
  5
AC
330
351
100
AcDbEntity
  8
OUTLINE
100
AcDbLine
 10
-235.496353
 20
80.0
 30
0.0
 11
-235.496353
 21
0.0
 31
0.0
  0
LINE
  5
AD
330
351
100
AcDbEntity
  8
OUTLINE
100
AcDbLine
 10
-234.126853
 20
0.0
 30
0.0
 11
-210.734162
 21
0.0
 31
0.0
  0
LINE
  5
AE
330
351
100
AcDbEntity
  8
OUTLINE
100
AcDbLine
 10
220.503647
 20
80.0
 30
0.0
 11
220.503647
 21
0.0
 31
0.0
  0
LINE
  5
AF
330
351
100
AcDbEntity
  8
OUTLINE
100
AcDbLine
 10
218.13185
 20
0.0
 30
0.0
 11
194.739159
 21
0.0
 31
0.0
  0
LINE
  5
B0
330
351
100
AcDbEntity
  8
OUTLINE
100
AcDbLine
 10
242.5
 20
80.0
 30
0.0
 11
-242.5
 21
80.0
 31
0.0
  0
LINE
  5
B1
330
351
100
AcDbEntity
  8
OUTLINE
100
AcDbLine
 10
-242.5
 20
782.810438
 30
0.0
 11
-242.5
 21
437.0946059999998
 31
0.0
  0
LINE
  5
B2
330
351
100
AcDbEntity
  8
OUTLINE
100
AcDbLine
 10
-242.5
 20
1549.515895
 30
0.0
 11
-242.5
 21
1412.589839
 31
0.0
  0
LINE
  5
B3
330
351
100
AcDbEntity
  8
OUTLINE
100
AcDbLine
 10
-242.5
 20
1038.244463
 30
0.0
 11
-242.5
 21
810.7467039999997
 31
0.0
  0
LINE
  5
B4
330
351
100
AcDbEntity
  8
OUTLINE
100
AcDbLine
 10
-242.5
 20
1850.0
 30
0.0
 11
242.5
 21
1850.0
 31
0.0
  0
LINE
  5
B5
330
351
100
AcDbEntity
  8
OUTLINE
100
AcDbLine
 10
-242.5
 20
1549.515895
 30
0.0
 11
-242.5
 21
1755.0
 31
0.0
  0
LINE
  5
B6
330
351
100
AcDbEntity
  8
OUTLINE
100
AcDbLine
 10
236.625916
 20
1824.461237
 30
0.0
 11
236.625916
 21
1654.514333
 31
0.0
  0
LINE
  5
B7
330
351
100
AcDbEntity
  8
OUTLINE
100
AcDbLine
 10
243.62373
 20
1650.0
 30
0.0
 11
242.5
 21
1650.0
 31
0.0
  0
LINE
  5
B8
330
351
100
AcDbEntity
  8
OUTLINE
100
AcDbLine
 10
243.62373
 20
1650.0
 30
0.0
 11
243.62373
 21
1654.514333
 31
0.0
  0
LINE
  5
B9
330
351
100
AcDbEntity
  8
OUTLINE
100
AcDbLine
 10
243.62373
 20
1654.514333
 30
0.0
 11
236.625916
 21
1654.514333
 31
0.0
  0
LINE
  5
BA
330
351
100
AcDbEntity
  8
OUTLINE
100
AcDbLine
 10
243.62373
 20
1829.459676
 30
0.0
 11
243.62373
 21
1824.461237
 31
0.0
  0
LINE
  5
BB
330
351
100
AcDbEntity
  8
OUTLINE
100
AcDbLine
 10
243.62373
 20
1824.461237
 30
0.0
 11
236.625916
 21
1824.461237
 31
0.0
  0
LINE
  5
BC
330
351
100
AcDbEntity
  8
OUTLINE
100
AcDbLine
 10
243.62373
 20
1829.459676
 30
0.0
 11
242.5
 21
1829.459676
 31
0.0
  0
LINE
  5
BD
330
351
100
AcDbEntity
  8
OUTLINE
100
AcDbLine
 10
242.5
 20
1829.459676
 30
0.0
 11
242.5
 21
1850.0
 31
0.0
  0
CIRCLE
  5
BE
330
351
100
AcDbEntity
  8
FIX
100
AcDbCircle
 10
-157.496353
 20
0.0
 30
0.0
 40
9.858928999999999
  0
LINE
  5
BF
330
351
100
AcDbEntity
  8
NOTE
100
AcDbLine
 10
-157.496353
 20
13.138752
 30
0.0
 11
-157.496353
 21
-13.138752
 31
0.0
  0
LINE
  5
C0
330
351
100
AcDbEntity
  8
NOTE
100
AcDbLine
 10
-144.357601
 20
0.0
 30
0.0
 11
-170.635106
 21
0.0
 31
0.0
  0
CIRCLE
  5
C1
330
351
100
AcDbEntity
  8
FIX
100
AcDbCircle
 10
142.5
 20
0.0
 30
0.0
 40
9.858928999999999
  0
LINE
  5
C2
330
351
100
AcDbEntity
  8
NOTE
100
AcDbLine
 10
142.5
 20
13.138752
 30
0.0
 11
142.5
 21
-13.138752
 31
0.0
  0
CIRCLE
  5
C3
330
351
100
AcDbEntity
  8
DETAIL
100
AcDbCircle
 10
142.5
 20
19.993753
 30
0.0
 40
4.998438
  0
LINE
  5
C4
330
351
100
AcDbEntity
  8
DETAIL
100
AcDbLine
 10
112.50937
 20
34.989069
 30
0.0
 11
112.50937
 21
0.0
 31
0.0
  0
LINE
  5
C5
330
351
100
AcDbEntity
  8
DETAIL
100
AcDbLine
 10
172.49063
 20
34.989069
 30
0.0
 11
112.50937
 21
34.989069
 31
0.0
  0
LINE
  5
C6
330
351
100
AcDbEntity
  8
DETAIL
100
AcDbLine
 10
172.49063
 20
34.989069
 30
0.0
 11
172.49063
 21
0.0
 31
0.0
  0
LINE
  5
C7
330
351
100
AcDbEntity
  8
DETAIL
100
AcDbLine
 10
172.49063
 20
4.498594999999999
 30
0.0
 11
112.50937
 21
4.498594999999999
 31
0.0
  0
CIRCLE
  5
C8
330
351
100
AcDbEntity
  8
DETAIL
100
AcDbCircle
 10
-157.496353
 20
19.940941
 30
0.0
 40
4.998438
  0
LINE
  5
C9
330
351
100
AcDbEntity
  8
DETAIL
100
AcDbLine
 10
-127.505723
 20
34.936256
 30
0.0
 11
-127.505723
 21
-0.052812
 31
0.0
  0
LINE
  5
CA
330
351
100
AcDbEntity
  8
DETAIL
100
AcDbLine
 10
-187.486984
 20
34.936256
 30
0.0
 11
-127.505723
 21
34.936256
 31
0.0
  0
LINE
  5
CB
330
351
100
AcDbEntity
  8
DETAIL
100
AcDbLine
 10
-187.486984
 20
34.936256
 30
0.0
 11
-187.486984
 21
-0.052812
 31
0.0
  0
LINE
  5
CC
330
351
100
AcDbEntity
  8
DETAIL
100
AcDbLine
 10
-187.486984
 20
4.445782
 30
0.0
 11
-127.505723
 21
4.445782
 31
0.0
  0
TEXT
  5
CD
330
351
100
AcDbEntity
  8
NOTE
100
AcDbText
 10
-1010.010666
 20
-285.136757
 30
0.0
 40
50.0
  1
AH　2\U+00D72-\U+03C612（M10）
 50
0.000003
 41
0.6310000000000003
  7
STANDARD1
100
AcDbText
  0
LINE
  5
CE
330
351
100
AcDbEntity
  8
NOTE
100
AcDbLine
 10
-487.5070919999997
 20
-299.418062
 30
0.0
 11
-157.496353
 21
0.0
 31
0.0
  0
LINE
  5
CF
330
351
100
AcDbEntity
  8
NOTE
100
AcDbLine
 10
-1028.26089
 20
-299.418062
 30
0.0
 11
-487.5070919999997
 21
-299.418062
 31
0.0
  0
LINE
  5
D0
330
351
100
AcDbEntity
  8
NOTE
100
AcDbLine
 10
-157.496353
 20
0.0
 30
0.0
 11
-182.773268
 21
-13.30016
 31
0.0
  0
LINE
  5
D1
330
351
100
AcDbEntity
  8
NOTE
100
AcDbLine
 10
-157.496353
 20
0.0
 30
0.0
 11
-172.736723
 21
-24.156734
 31
0.0
  0
TEXT
  5
D2
330
351
100
AcDbEntity
  8
NOTE
100
AcDbText
 10
337.288023
 20
-211.566163
 30
0.0
 40
50.0
  1
D2　Rc1
 50
0.000003
 41
0.6310000000000003
  7
STANDARD1
100
AcDbText
  0
TEXT
  5
D3
330
351
100
AcDbEntity
  8
NOTE
100
AcDbText
 10
277.303969
 20
-214.227612
 30
0.0
 40
50.0
  1
※
 50
0.000003
 41
0.6310000000000003
  7
STANDARD1
100
AcDbText
  0
LINE
  5
D5
330
351
100
AcDbEntity
  8
SIZE
100
AcDbLine
 10
-170.5
 20
505.0011809999999
 30
0.0
 11
-923.3729229999999
 21
505.0011809999999
 31
0.0
  0
LINE
  5
D6
330
351
100
AcDbEntity
  8
SIZE
100
AcDbLine
 10
-230.234162
 20
0.0
 30
0.0
 11
-923.3729229999999
 21
0.0
 31
0.0
  0
LINE
  5
D7
330
351
100
AcDbEntity
  8
SIZE
100
AcDbLine
 10
-893.372923
 20
495.0011809999998
 30
0.0
 11
-893.372923
 21
10.0
 31
0.0
  0
CIRCLE
  5
D8
330
351
100
AcDbEntity
  8
SIZE
100
AcDbCircle
 10
-893.372923
 20
505.0011809999999
 30
0.0
 40
5.0
  0
LINE
  5
D9
330
351
100
AcDbEntity
  8
SIZE
100
AcDbLine
 10
-893.372923
 20
500.001181
 30
0.0
 11
-893.372923
 21
495.0011809999998
 31
0.0
  0
CIRCLE
  5
DA
330
351
100
AcDbEntity
  8
SIZE
100
AcDbCircle
 10
-893.372923
 20
0.0
 30
0.0
 40
5.0
  0
LINE
  5
DB
330
351
100
AcDbEntity
  8
SIZE
100
AcDbLine
 10
-893.372923
 20
5.0
 30
0.0
 11
-893.372923
 21
10.0
 31
0.0
  0
TEXT
  5
DC
330
351
100
AcDbEntity
  8
SIZE
100
AcDbText
 10
-913.372923
 20
178.4434481428571
 30
0.0
 40
64.0
  1
505
 50
90.0
 41
0.9
 72
     1
 11
-913.372923
 21
252.500591
 31
0.0
100
AcDbText
  0
LINE
  5
E0
330
351
100
AcDbEntity
  8
SIZE
100
AcDbLine
 10
-150.5
 20
525.001181
 30
0.0
 11
-150.5
 21
876.5402019999996
 31
0.0
  0
LINE
  5
E1
330
351
100
AcDbEntity
  8
SIZE
100
AcDbLine
 10
-242.5
 20
525.001181
 30
0.0
 11
-242.5
 21
876.5402019999996
 31
0.0
  0
LINE
  5
E2
330
351
100
AcDbEntity
  8
SIZE
100
AcDbLine
 10
-160.5
 20
846.5402019999997
 30
0.0
 11
-232.5
 21
846.5402019999997
 31
0.0
  0
LINE
  5
E3
330
351
100
AcDbEntity
  8
SIZE
100
AcDbLine
 10
-242.5
 20
846.5402019999997
 30
0.0
 11
-385.7571430000001
 21
846.5402019999997
 31
0.0
  0
CIRCLE
  5
E4
330
351
100
AcDbEntity
  8
SIZE
100
AcDbCircle
 10
-150.5
 20
846.5402019999997
 30
0.0
 40
5.0
  0
LINE
  5
E5
330
351
100
AcDbEntity
  8
SIZE
100
AcDbLine
 10
-155.5
 20
846.5402019999997
 30
0.0
 11
-160.5
 21
846.5402019999997
 31
0.0
  0
CIRCLE
  5
E6
330
351
100
AcDbEntity
  8
SIZE
100
AcDbCircle
 10
-242.5
 20
846.5402019999997
 30
0.0
 40
5.0
  0
LINE
  5
E7
330
351
100
AcDbEntity
  8
SIZE
100
AcDbLine
 10
-237.5
 20
846.5402019999997
 30
0.0
 11
-232.5
 21
846.5402019999997
 31
0.0
  0
TEXT
  5
E8
330
351
100
AcDbEntity
  8
SIZE
100
AcDbText
 10
-365.7571424285714
 20
866.540202
 30
0.0
 40
64.0
  1
92
 41
0.9
 72
     1
 11
-319.128571
 21
866.540202
 31
0.0
100
AcDbText
  0
LINE
  5
EC
330
351
100
AcDbEntity
  8
SIZE
100
AcDbLine
 10
-242.5
 20
60.0
 30
0.0
 11
-242.5
 21
-964.8650149999999
 31
0.0
  0
LINE
  5
ED
330
351
100
AcDbEntity
  8
SIZE
100
AcDbLine
 10
-235.496353
 20
-20.0
 30
0.0
 11
-235.496353
 21
-964.8650149999999
 31
0.0
  0
LINE
  5
EE
330
351
100
AcDbEntity
  8
SIZE
100
AcDbLine
 10
-225.496353
 20
-934.865015
 30
0.0
 11
-215.496353
 21
-934.865015
 31
0.0
  0
LINE
  5
EF
330
351
100
AcDbEntity
  8
SIZE
100
AcDbLine
 10
-252.5
 20
-934.865015
 30
0.0
 11
-355.915465
 21
-934.865015
 31
0.0
  0
LINE
  5
F0
330
351
100
AcDbEntity
  8
SIZE
100
AcDbLine
 10
-235.496353
 20
-934.865015
 30
0.0
 11
-242.5
 21
-934.865015
 31
0.0
  0
CIRCLE
  5
F1
330
351
100
AcDbEntity
  8
SIZE
100
AcDbCircle
 10
-235.496353
 20
-934.865015
 30
0.0
 40
5.0
  0
LINE
  5
F2
330
351
100
AcDbEntity
  8
SIZE
100
AcDbLine
 10
-230.496353
 20
-934.865015
 30
0.0
 11
-225.496353
 21
-934.865015
 31
0.0
  0
CIRCLE
  5
F3
330
351
100
AcDbEntity
  8
SIZE
100
AcDbCircle
 10
-242.5
 20
-934.865015
 30
0.0
 40
5.0
  0
LINE
  5
F4
330
351
100
AcDbEntity
  8
SIZE
100
AcDbLine
 10
-247.5
 20
-934.865015
 30
0.0
 11
-252.5
 21
-934.865015
 31
0.0
  0
TEXT
  5
F5
330
351
100
AcDbEntity
  8
SIZE
100
AcDbText
 10
-335.915465
 20
-914.8650149999999
 30
0.0
 40
64.0
  1
7
 41
0.9
 72
     1
 11
-316.715465
 21
-914.8650149999999
 31
0.0
100
AcDbText
  0
LINE
  5
F9
330
351
100
AcDbEntity
  8
SIZE
100
AcDbLine
 10
-235.996353
 20
-20.0
 30
0.0
 11
-235.996353
 21
-964.8650149999999
 31
0.0
  0
LINE
  5
FA
330
351
100
AcDbEntity
  8
SIZE
100
AcDbLine
 10
220.003647
 20
-20.0
 30
0.0
 11
220.003647
 21
-964.8650149999999
 31
0.0
  0
LINE
  5
FB
330
351
100
AcDbEntity
  8
SIZE
100
AcDbLine
 10
-225.996353
 20
-934.865015
 30
0.0
 11
210.003647
 21
-934.865015
 31
0.0
  0
CIRCLE
  5
FC
330
351
100
AcDbEntity
  8
SIZE
100
AcDbCircle
 10
-235.996353
 20
-934.865015
 30
0.0
 40
5.0
  0
LINE
  5
FD
330
351
100
AcDbEntity
  8
SIZE
100
AcDbLine
 10
-230.996353
 20
-934.865015
 30
0.0
 11
-225.996353
 21
-934.865015
 31
0.0
  0
CIRCLE
  5
FE
330
351
100
AcDbEntity
  8
SIZE
100
AcDbCircle
 10
220.003647
 20
-934.865015
 30
0.0
 40
5.0
  0
LINE
  5
FF
330
351
100
AcDbEntity
  8
SIZE
100
AcDbLine
 10
215.003647
 20
-934.865015
 30
0.0
 11
210.003647
 21
-934.865015
 31
0.0
  0
TEXT
  5
100
330
351
100
AcDbEntity
  8
SIZE
100
AcDbText
 10
-80.68206728571428
 20
-914.8650149999999
 30
0.0
 40
64.0
  1
456
 41
0.9
 72
     1
 11
-7.996353
 21
-914.8650149999999
 31
0.0
100
AcDbText
  0
LINE
  5
104
330
351
100
AcDbEntity
  8
SIZE
100
AcDbLine
 10
240.543647
 20
0.0
 30
0.0
 11
830.3768939999999
 21
0.0
 31
0.0
  0
LINE
  5
105
330
351
100
AcDbEntity
  8
SIZE
100
AcDbLine
 10
191.131189
 20
130.0
 30
0.0
 11
830.3768939999999
 21
130.0
 31
0.0
  0
LINE
  5
106
330
351
100
AcDbEntity
  8
SIZE
100
AcDbLine
 10
800.376894
 20
120.0
 30
0.0
 11
800.376894
 21
10.0
 31
0.0
  0
LINE
  5
107
330
351
100
AcDbEntity
  8
SIZE
100
AcDbLine
 10
800.376894
 20
0.0
 30
0.0
 11
800.376894
 21
-187.142857
 31
0.0
  0
CIRCLE
  5
108
330
351
100
AcDbEntity
  8
SIZE
100
AcDbCircle
 10
800.376894
 20
130.0
 30
0.0
 40
5.0
  0
LINE
  5
109
330
351
100
AcDbEntity
  8
SIZE
100
AcDbLine
 10
800.376894
 20
125.0
 30
0.0
 11
800.376894
 21
120.0
 31
0.0
  0
CIRCLE
  5
10A
330
351
100
AcDbEntity
  8
SIZE
100
AcDbCircle
 10
800.376894
 20
0.0
 30
0.0
 40
5.0
  0
LINE
  5
10B
330
351
100
AcDbEntity
  8
SIZE
100
AcDbLine
 10
800.376894
 20
5.0
 30
0.0
 11
800.376894
 21
10.0
 31
0.0
  0
TEXT
  5
10C
330
351
100
AcDbEntity
  8
SIZE
100
AcDbText
 10
780.376894
 20
-167.1428575714285
 30
0.0
 40
64.0
  1
130
 50
90.0
 41
0.9
 72
     1
 11
780.376894
 21
-98.57142899999999
 31
0.0
100
AcDbText
  0
LINE
  5
110
330
351
100
AcDbEntity
  8
SIZE
100
AcDbLine
 10
191.131189
 20
130.0
 30
0.0
 11
830.3768939999999
 21
130.0
 31
0.0
  0
LINE
  5
111
330
351
100
AcDbEntity
  8
SIZE
100
AcDbLine
 10
183.133687
 20
190.0
 30
0.0
 11
830.3768939999999
 21
190.0
 31
0.0
  0
LINE
  5
112
330
351
100
AcDbEntity
  8
SIZE
100
AcDbLine
 10
800.376894
 20
120.0
 30
0.0
 11
800.376894
 21
110.0
 31
0.0
  0
LINE
  5
113
330
351
100
AcDbEntity
  8
SIZE
100
AcDbLine
 10
800.376894
 20
200.0
 30
0.0
 11
800.376894
 21
210.0
 31
0.0
  0
LINE
  5
114
330
351
100
AcDbEntity
  8
SIZE
100
AcDbLine
 10
800.376894
 20
160.0
 30
0.0
 11
945.3095110000001
 21
195.786498
 31
0.0
  0
LINE
  5
115
330
351
100
AcDbEntity
  8
SIZE
100
AcDbLine
 10
945.3095110000001
 20
195.786498
 30
0.0
 11
945.3095110000001
 21
329.043641
 31
0.0
  0
TEXT
  5
116
330
351
100
AcDbEntity
  8
SIZE
100
AcDbText
 10
925.309511
 20
215.7864985714286
 30
0.0
 40
64.0
  1
60
 50
90.0
 41
0.9
 72
     1
 11
925.309511
 21
262.41507
 31
0.0
100
AcDbText
  0
LINE
  5
117
330
351
100
AcDbEntity
  8
SIZE
100
AcDbLine
 10
800.376894
 20
130.0
 30
0.0
 11
800.376894
 21
190.0
 31
0.0
  0
LINE
  5
118
330
351
100
AcDbEntity
  8
SIZE
100
AcDbLine
 10
800.376894
 20
130.0
 30
0.0
 11
800.376894
 21
190.0
 31
0.0
  0
CIRCLE
  5
119
330
351
100
AcDbEntity
  8
SIZE
100
AcDbCircle
 10
800.376894
 20
130.0
 30
0.0
 40
5.0
  0
LINE
  5
11A
330
351
100
AcDbEntity
  8
SIZE
100
AcDbLine
 10
800.376894
 20
125.0
 30
0.0
 11
800.376894
 21
120.0
 31
0.0
  0
CIRCLE
  5
11B
330
351
100
AcDbEntity
  8
SIZE
100
AcDbCircle
 10
800.376894
 20
190.0
 30
0.0
 40
5.0
  0
LINE
  5
11C
330
351
100
AcDbEntity
  8
SIZE
100
AcDbLine
 10
800.376894
 20
195.0
 30
0.0
 11
800.376894
 21
200.0
 31
0.0
  0
LINE
  5
120
330
351
100
AcDbEntity
  8
SIZE
100
AcDbLine
 10
183.133687
 20
190.0
 30
0.0
 11
830.3768939999999
 21
190.0
 31
0.0
  0
LINE
  5
121
330
351
100
AcDbEntity
  8
SIZE
100
AcDbLine
 10
183.133687
 20
250.0
 30
0.0
 11
830.3768939999999
 21
250.0
 31
0.0
  0
LINE
  5
122
330
351
100
AcDbEntity
  8
SIZE
100
AcDbLine
 10
800.376894
 20
200.0
 30
0.0
 11
800.376894
 21
240.0
 31
0.0
  0
LINE
  5
123
330
351
100
AcDbEntity
  8
SIZE
100
AcDbLine
 10
800.376894
 20
394.243578
 30
0.0
 11
800.376894
 21
250.0
 31
0.0
  0
TEXT
  5
124
330
351
100
AcDbEntity
  8
SIZE
100
AcDbText
 10
780.376894
 20
280.9864355714286
 30
0.0
 40
64.0
  1
60
 50
90.0
 41
0.9
 72
     1
 11
780.376894
 21
327.615007
 31
0.0
100
AcDbText
  0
CIRCLE
  5
125
330
351
100
AcDbEntity
  8
SIZE
100
AcDbCircle
 10
800.376894
 20
190.0
 30
0.0
 40
5.0
  0
LINE
  5
126
330
351
100
AcDbEntity
  8
SIZE
100
AcDbLine
 10
800.376894
 20
195.0
 30
0.0
 11
800.376894
 21
200.0
 31
0.0
  0
CIRCLE
  5
127
330
351
100
AcDbEntity
  8
SIZE
100
AcDbCircle
 10
800.376894
 20
250.0
 30
0.0
 40
5.0
  0
LINE
  5
128
330
351
100
AcDbEntity
  8
SIZE
100
AcDbLine
 10
800.376894
 20
245.0
 30
0.0
 11
800.376894
 21
240.0
 31
0.0
  0
LINE
  5
12C
330
351
100
AcDbEntity
  8
SIZE
100
AcDbLine
 10
142.5
 20
21.76067
 30
0.0
 11
142.5
 21
-23.781261
 31
0.0
  0
LINE
  5
12D
330
351
100
AcDbEntity
  8
SIZE
100
AcDbLine
 10
-242.5
 20
60.0
 30
0.0
 11
-242.5
 21
-651.414053
 31
0.0
  0
LINE
  5
12E
330
351
100
AcDbEntity
  8
SIZE
100
AcDbLine
 10
-7.497500999999997
 20
9.990629999999999
 30
0.0
 11
-7.497500999999997
 21
-651.414053
 31
0.0
  0
LINE
  5
12F
330
351
100
AcDbEntity
  8
SIZE
100
AcDbLine
 10
-232.5
 20
-621.414053
 30
0.0
 11
-17.497501
 21
-621.414053
 31
0.0
  0
LINE
  5
130
330
351
100
AcDbEntity
  8
SIZE
100
AcDbLine
 10
-445.7915579999998
 20
-621.414053
 30
0.0
 11
-242.5
 21
-621.414053
 31
0.0
  0
TEXT
  5
131
330
351
100
AcDbEntity
  8
SIZE
100
AcDbText
 10
-425.7915578571428
 20
-601.414053
 30
0.0
 40
64.0
  1
235
 41
0.9
 72
     1
 11
-351.734415
 21
-601.414053
 31
0.0
100
AcDbText
  0
CIRCLE
  5
132
330
351
100
AcDbEntity
  8
SIZE
100
AcDbCircle
 10
-242.5
 20
-621.414053
 30
0.0
 40
5.0
  0
LINE
  5
133
330
351
100
AcDbEntity
  8
SIZE
100
AcDbLine
 10
-237.5
 20
-621.414053
 30
0.0
 11
-232.5
 21
-621.414053
 31
0.0
  0
CIRCLE
  5
134
330
351
100
AcDbEntity
  8
SIZE
100
AcDbCircle
 10
-7.497500999999997
 20
-621.414053
 30
0.0
 40
5.0
  0
LINE
  5
135
330
351
100
AcDbEntity
  8
SIZE
100
AcDbLine
 10
-12.497501
 20
-621.414053
 30
0.0
 11
-17.497501
 21
-621.414053
 31
0.0
  0
LINE
  5
139
330
351
100
AcDbEntity
  8
SIZE
100
AcDbLine
 10
-262.5
 20
80.0
 30
0.0
 11
-559.245387
 21
80.0
 31
0.0
  0
LINE
  5
13A
330
351
100
AcDbEntity
  8
SIZE
100
AcDbLine
 10
-270.234162
 20
0.0
 30
0.0
 11
-559.245387
 21
0.0
 31
0.0
  0
LINE
  5
13B
330
351
100
AcDbEntity
  8
SIZE
100
AcDbLine
 10
-529.2453870000001
 20
70.0
 30
0.0
 11
-529.2453870000001
 21
10.0
 31
0.0
  0
LINE
  5
13C
330
351
100
AcDbEntity
  8
SIZE
100
AcDbLine
 10
-529.2453870000001
 20
-143.503013
 30
0.0
 11
-529.2453870000001
 21
0.0
 31
0.0
  0
TEXT
  5
13D
330
351
100
AcDbEntity
  8
SIZE
100
AcDbText
 10
-549.245387
 20
-123.5030124285714
 30
0.0
 40
64.0
  1
80
 50
90.0
 41
0.9
 72
     1
 11
-549.245387
 21
-76.874441
 31
0.0
100
AcDbText
  0
CIRCLE
  5
13E
330
351
100
AcDbEntity
  8
SIZE
100
AcDbCircle
 10
-529.2453870000001
 20
80.0
 30
0.0
 40
5.0
  0
LINE
  5
13F
330
351
100
AcDbEntity
  8
SIZE
100
AcDbLine
 10
-529.2453870000001
 20
75.0
 30
0.0
 11
-529.2453870000001
 21
70.0
 31
0.0
  0
CIRCLE
  5
140
330
351
100
AcDbEntity
  8
SIZE
100
AcDbCircle
 10
-529.2453870000001
 20
0.0
 30
0.0
 40
5.0
  0
LINE
  5
141
330
351
100
AcDbEntity
  8
SIZE
100
AcDbLine
 10
-529.2453870000001
 20
5.0
 30
0.0
 11
-529.2453870000001
 21
10.0
 31
0.0
  0
LINE
  5
145
330
351
100
AcDbEntity
  8
BASIS
100
AcDbLine
 10
0.0
 20
1868.004526
 30
0.0
 11
0.0
 21
-97.727388
 31
0.0
  0
TEXT
  5
146
330
351
100
AcDbEntity
  8
ETC
100
AcDbText
 10
-1418.421442472043
 20
1994.647093559901
 30
0.0
 40
90.0
  1
RF-P5A1_PLENUM_5
 50
359.999997
 41
0.6030590000000001
  7
STANDARD1
100
AcDbText
  0
TEXT
  5
147
330
351
100
AcDbEntity
  8
NOTE
100
AcDbText
 10
342.835496
 20
1635.698561
 30
0.0
 40
50.0
  1
空気吹出
 50
359.999997
 41
0.6310000000000003
  7
STANDARD1
100
AcDbText
  0
LINE
  5
148
330
351
100
AcDbEntity
  8
NOTE
100
AcDbLine
 10
347.847189
 20
1764.846696
 30
0.0
 11
347.847189
 21
1724.85919
 31
0.0
  0
LINE
  5
149
330
351
100
AcDbEntity
  8
NOTE
100
AcDbLine
 10
459.812208
 20
1744.852943
 30
0.0
 11
411.8272
 21
1788.839201
 31
0.0
  0
LINE
  5
14A
330
351
100
AcDbEntity
  8
NOTE
100
AcDbLine
 10
459.812208
 20
1744.852943
 30
0.0
 11
411.8272
 21
1700.866685
 31
0.0
  0
LINE
  5
14B
330
351
100
AcDbEntity
  8
NOTE
100
AcDbLine
 10
411.8272
 20
1788.839201
 30
0.0
 11
411.8272
 21
1764.846696
 31
0.0
  0
LINE
  5
14C
330
351
100
AcDbEntity
  8
NOTE
100
AcDbLine
 10
411.8272
 20
1724.85919
 30
0.0
 11
411.8272
 21
1700.866685
 31
0.0
  0
LINE
  5
14D
330
351
100
AcDbEntity
  8
NOTE
100
AcDbLine
 10
411.8272
 20
1764.846696
 30
0.0
 11
347.847189
 21
1764.846696
 31
0.0
  0
LINE
  5
14E
330
351
100
AcDbEntity
  8
NOTE
100
AcDbLine
 10
411.8272
 20
1724.85919
 30
0.0
 11
347.847189
 21
1724.85919
 31
0.0
  0
LINE
  5
14F
330
351
100
AcDbEntity
  8
NOTE
100
AcDbLine
 10
458.163624
 20
955.2369119999999
 30
0.0
 11
458.163624
 21
931.2444069999999
 31
0.0
  0
LINE
  5
150
330
351
100
AcDbEntity
  8
NOTE
100
AcDbLine
 10
410.178616
 20
911.250654
 30
0.0
 11
458.163624
 21
955.2369119999999
 31
0.0
  0
TEXT
  5
151
330
351
100
AcDbEntity
  8
NOTE
100
AcDbText
 10
436.089853
 20
809.021294
 30
0.0
 40
50.0
  1
吸込口
 50
359.999997
 41
0.6310000000000003
  7
STANDARD1
100
AcDbText
  0
LINE
  5
152
330
351
100
AcDbEntity
  8
NOTE
100
AcDbLine
 10
458.163624
 20
931.2444069999999
 30
0.0
 11
522.143635
 21
931.2444069999999
 31
0.0
  0
LINE
  5
153
330
351
100
AcDbEntity
  8
NOTE
100
AcDbLine
 10
458.163624
 20
891.2568999999999
 30
0.0
 11
522.143635
 21
891.2568999999999
 31
0.0
  0
LINE
  5
154
330
351
100
AcDbEntity
  8
NOTE
100
AcDbLine
 10
522.143635
 20
931.2444069999999
 30
0.0
 11
522.143635
 21
891.2568999999999
 31
0.0
  0
LINE
  5
155
330
351
100
AcDbEntity
  8
NOTE
100
AcDbLine
 10
410.178616
 20
911.250654
 30
0.0
 11
458.163624
 21
867.264396
 31
0.0
  0
LINE
  5
156
330
351
100
AcDbEntity
  8
NOTE
100
AcDbLine
 10
458.163624
 20
891.2568999999999
 30
0.0
 11
458.163624
 21
867.264396
 31
0.0
  0
LINE
  5
157
330
351
100
AcDbEntity
  8
NOTE
100
AcDbLine
 10
-346.791641
 20
670.05824
 30
0.0
 11
-394.776649
 21
714.0444969999999
 31
0.0
  0
TEXT
  5
158
330
351
100
AcDbEntity
  8
NOTE
100
AcDbText
 10
-477.075515
 20
567.828889
 30
0.0
 40
50.0
  1
後吸込口
 50
359.999997
 41
0.6310000000000003
  7
STANDARD1
100
AcDbText
  0
LINE
  5
159
330
351
100
AcDbEntity
  8
NOTE
100
AcDbLine
 10
-346.791641
 20
670.05824
 30
0.0
 11
-394.776649
 21
626.071982
 31
0.0
  0
LINE
  5
15A
330
351
100
AcDbEntity
  8
NOTE
100
AcDbLine
 10
-394.776649
 20
650.064486
 30
0.0
 11
-394.776649
 21
626.071982
 31
0.0
  0
LINE
  5
15B
330
351
100
AcDbEntity
  8
NOTE
100
AcDbLine
 10
-394.776649
 20
690.0519929999997
 30
0.0
 11
-458.7566599999998
 21
690.0519929999997
 31
0.0
  0
LINE
  5
15C
330
351
100
AcDbEntity
  8
NOTE
100
AcDbLine
 10
-394.776649
 20
650.064486
 30
0.0
 11
-458.7566599999998
 21
650.064486
 31
0.0
  0
LINE
  5
15D
330
351
100
AcDbEntity
  8
NOTE
100
AcDbLine
 10
-394.776649
 20
714.0444969999999
 30
0.0
 11
-394.776649
 21
690.0519929999997
 31
0.0
  0
LINE
  5
15E
330
351
100
AcDbEntity
  8
NOTE
100
AcDbLine
 10
-458.7566599999998
 20
690.0519929999997
 30
0.0
 11
-458.7566599999998
 21
650.064486
 31
0.0
  0
TEXT
  5
15F
330
351
100
AcDbEntity
  8
NOTE
100
AcDbText
 10
-723.219916
 20
729.349415
 30
0.0
 40
50.0
  1
【※はプラグ付】
 50
359.999997
 41
0.6310000000000003
  7
STANDARD1
100
AcDbText
  0
LINE
  5
160
330
351
100
AcDbEntity
  8
NOTE
100
AcDbLine
 10
-138.5
 20
189.077603
 30
0.0
 11
-138.5
 21
209.009192
 31
0.0
  0
LINE
  5
161
330
351
100
AcDbEntity
  8
NOTE
100
AcDbLine
 10
-148.842954
 20
199.0
 30
0.0
 11
-128.157046
 21
199.0
 31
0.0
  0
LINE
  5
162
330
351
100
AcDbEntity
  8
NOTE
100
AcDbLine
 10
-139.5
 20
116.042147
 30
0.0
 11
-139.5
 21
131.957853
 31
0.0
  0
LINE
  5
163
330
351
100
AcDbEntity
  8
NOTE
100
AcDbLine
 10
-148.098965
 20
124.0
 30
0.0
 11
-130.901035
 21
124.0
 31
0.0
  0
LINE
  5
164
330
351
100
AcDbEntity
  8
NOTE
100
AcDbLine
 10
-309.605452
 20
302.622315
 30
0.0
 11
-674.7648759999997
 21
302.622315
 31
0.0
  0
TEXT
  5
165
330
351
100
AcDbEntity
  8
NOTE
100
AcDbText
 10
-662.5274879999997
 20
313.58633
 30
0.0
 40
50.0
  1
RG　\U+03C615.88ﾌﾚｱ
 50
0.000003
 41
0.6310000000000003
  7
STANDARD1
100
AcDbText
  0
TEXT
  5
166
330
351
100
AcDbEntity
  8
NOTE
100
AcDbText
 10
-642.1980269999997
 20
223.130654
 30
0.0
 40
50.0
  1
RL　\U+03C612.7ﾌﾚｱ
 50
0.000003
 41
0.6310000000000003
  7
STANDARD1
100
AcDbText
  0
LINE
  5
167
330
351
100
AcDbEntity
  8
NOTE
100
AcDbLine
 10
-286.097744
 20
211.068082
 30
0.0
 11
-678.098554
 21
211.068082
 31
0.0
  0
LINE
  5
168
330
351
100
AcDbEntity
  8
NOTE
100
AcDbLine
 10
-309.605452
 20
302.622315
 30
0.0
 11
-138.5
 21
199.0
 31
0.0
  0
LINE
  5
169
330
351
100
AcDbEntity
  8
NOTE
100
AcDbLine
 10
-138.5
 20
199.0
 30
0.0
 11
-165.929654
 21
206.964344
 31
0.0
  0
LINE
  5
16A
330
351
100
AcDbEntity
  8
NOTE
100
AcDbLine
 10
-138.5
 20
199.0
 30
0.0
 11
-158.272605
 21
219.612152
 31
0.0
  0
LINE
  5
16B
330
351
100
AcDbEntity
  8
NOTE
100
AcDbLine
 10
-286.097744
 20
211.068082
 30
0.0
 11
-139.5
 21
124.0
 31
0.0
  0
LINE
  5
16C
330
351
100
AcDbEntity
  8
NOTE
100
AcDbLine
 10
-139.5
 20
124.0
 30
0.0
 11
-166.997054
 21
131.728435
 31
0.0
  0
LINE
  5
16D
330
351
100
AcDbEntity
  8
NOTE
100
AcDbLine
 10
-139.5
 20
124.0
 30
0.0
 11
-159.44893
 21
144.441548
 31
0.0
  0
LINE
  5
16E
330
351
100
AcDbEntity
  8
SIZE
100
AcDbLine
 10
-242.5
 20
60.0
 30
0.0
 11
-242.5
 21
-802.693578
 31
0.0
  0
LINE
  5
16F
330
351
100
AcDbEntity
  8
SIZE
100
AcDbLine
 10
-157.496353
 20
-0.059059
 30
0.0
 11
-157.496353
 21
-802.693578
 31
0.0
  0
LINE
  5
170
330
351
100
AcDbEntity
  8
SIZE
100
AcDbLine
 10
-232.5
 20
-772.6935779999997
 30
0.0
 11
-167.496353
 21
-772.6935779999997
 31
0.0
  0
LINE
  5
171
330
351
100
AcDbEntity
  8
SIZE
100
AcDbLine
 10
-402.1760409999997
 20
-772.6935779999997
 30
0.0
 11
-242.5
 21
-772.6935779999997
 31
0.0
  0
TEXT
  5
172
330
351
100
AcDbEntity
  8
SIZE
100
AcDbText
 10
-382.1760414285715
 20
-752.693578
 30
0.0
 40
64.0
  1
85
 41
0.9
 72
     1
 11
-335.54747
 21
-752.693578
 31
0.0
100
AcDbText
  0
CIRCLE
  5
173
330
351
100
AcDbEntity
  8
SIZE
100
AcDbCircle
 10
-242.5
 20
-772.6935779999997
 30
0.0
 40
5.0
  0
LINE
  5
174
330
351
100
AcDbEntity
  8
SIZE
100
AcDbLine
 10
-237.5
 20
-772.6935779999997
 30
0.0
 11
-232.5
 21
-772.6935779999997
 31
0.0
  0
CIRCLE
  5
175
330
351
100
AcDbEntity
  8
SIZE
100
AcDbCircle
 10
-157.496353
 20
-772.6935779999997
 30
0.0
 40
5.0
  0
LINE
  5
176
330
351
100
AcDbEntity
  8
SIZE
100
AcDbLine
 10
-162.496353
 20
-772.6935779999997
 30
0.0
 11
-167.496353
 21
-772.6935779999997
 31
0.0
  0
LINE
  5
17A
330
351
100
AcDbEntity
  8
SIZE
100
AcDbLine
 10
-157.496353
 20
-0.059059
 30
0.0
 11
-157.496353
 21
-802.693578
 31
0.0
  0
LINE
  5
17B
330
351
100
AcDbEntity
  8
SIZE
100
AcDbLine
 10
142.5
 20
-0.006247
 30
0.0
 11
142.5
 21
-802.693578
 31
0.0
  0
LINE
  5
17C
330
351
100
AcDbEntity
  8
SIZE
100
AcDbLine
 10
-147.496353
 20
-772.6935779999997
 30
0.0
 11
132.5
 21
-772.6935779999997
 31
0.0
  0
CIRCLE
  5
17D
330
351
100
AcDbEntity
  8
SIZE
100
AcDbCircle
 10
-157.496353
 20
-772.6935779999997
 30
0.0
 40
5.0
  0
LINE
  5
17E
330
351
100
AcDbEntity
  8
SIZE
100
AcDbLine
 10
-152.496353
 20
-772.6935779999997
 30
0.0
 11
-147.496353
 21
-772.6935779999997
 31
0.0
  0
CIRCLE
  5
17F
330
351
100
AcDbEntity
  8
SIZE
100
AcDbCircle
 10
142.5
 20
-772.6935779999997
 30
0.0
 40
5.0
  0
LINE
  5
180
330
351
100
AcDbEntity
  8
SIZE
100
AcDbLine
 10
137.5
 20
-772.6935779999997
 30
0.0
 11
132.5
 21
-772.6935779999997
 31
0.0
  0
TEXT
  5
181
330
351
100
AcDbEntity
  8
SIZE
100
AcDbText
 10
-81.55531985714285
 20
-752.693578
 30
0.0
 40
64.0
  1
300
 41
0.9
 72
     1
 11
-7.498177
 21
-752.693578
 31
0.0
100
AcDbText
  0
TEXT
  5
185
330
351
100
AcDbEntity
  8
NOTE
100
AcDbText
 10
254.073196
 20
-288.013876
 30
0.0
 40
50.0
  1
【※はプラグ付】
 50
359.999997
 41
0.6310000000000003
  7
STANDARD1
100
AcDbText
  0
LINE
  5
186
330
351
100
AcDbEntity
  8
SIZE
100
AcDbLine
 10
-242.5
 20
1875.0
 30
0.0
 11
-242.5
 21
2048.819789
 31
0.0
  0
LINE
  5
187
330
351
100
AcDbEntity
  8
SIZE
100
AcDbLine
 10
-252.498685
 20
1418.153476
 30
0.0
 11
-252.498685
 21
2048.819789
 31
0.0
  0
LINE
  5
188
330
351
100
AcDbEntity
  8
SIZE
100
AcDbLine
 10
-233.0
 20
2018.819789
 30
0.0
 11
-223.0
 21
2018.819789
 31
0.0
  0
LINE
  5
189
330
351
100
AcDbEntity
  8
SIZE
100
AcDbLine
 10
-262.998685
 20
2018.819789
 30
0.0
 11
-272.998685
 21
2018.819789
 31
0.0
  0
LINE
  5
18A
330
351
100
AcDbEntity
  8
SIZE
100
AcDbLine
 10
-444.0291099999998
 20
2018.819789
 30
0.0
 11
-252.998685
 21
2018.819789
 31
0.0
  0
TEXT
  5
18B
330
351
100
AcDbEntity
  8
SIZE
100
AcDbText
 10
-483.0107095714286
 20
2038.819789
 30
0.0
 40
64.0
  1
（10）
 41
0.9
 72
     1
 11
-374.119281
 21
2038.819789
 31
0.0
100
AcDbText
  0
LINE
  5
18C
330
351
100
AcDbEntity
  8
SIZE
100
AcDbLine
 10
-243.0
 20
2018.819789
 30
0.0
 11
-252.998685
 21
2018.819789
 31
0.0
  0
LINE
  5
18D
330
351
100
AcDbEntity
  8
SIZE
100
AcDbLine
 10
-243.0
 20
2018.819789
 30
0.0
 11
-252.998685
 21
2018.819789
 31
0.0
  0
CIRCLE
  5
18E
330
351
100
AcDbEntity
  8
SIZE
100
AcDbCircle
 10
-252.998685
 20
2018.819789
 30
0.0
 40
5.0
  0
LINE
  5
18F
330
351
100
AcDbEntity
  8
SIZE
100
AcDbLine
 10
-257.998685
 20
2018.819789
 30
0.0
 11
-262.998685
 21
2018.819789
 31
0.0
  0
LINE
  5
190
330
351
100
AcDbEntity
  8
SIZE
100
AcDbLine
 10
-139.5
 20
104.0
 30
0.0
 11
-139.5
 21
-342.686409
 31
0.0
  0
LINE
  5
191
330
351
100
AcDbEntity
  8
SIZE
100
AcDbLine
 10
-242.5
 20
104.0
 30
0.0
 11
-242.5
 21
-342.686409
 31
0.0
  0
LINE
  5
192
330
351
100
AcDbEntity
  8
SIZE
100
AcDbLine
 10
-149.5
 20
-312.686409
 30
0.0
 11
-232.5
 21
-312.686409
 31
0.0
  0
LINE
  5
193
330
351
100
AcDbEntity
  8
SIZE
100
AcDbLine
 10
-432.344717
 20
-312.686409
 30
0.0
 11
-242.5
 21
-312.686409
 31
0.0
  0
TEXT
  5
194
330
351
100
AcDbEntity
  8
SIZE
100
AcDbText
 10
-412.3447165714285
 20
-292.686409
 30
0.0
 40
64.0
  1
103
 41
0.9
 72
     1
 11
-343.773288
 21
-292.686409
 31
0.0
100
AcDbText
  0
CIRCLE
  5
195
330
351
100
AcDbEntity
  8
SIZE
100
AcDbCircle
 10
-139.5
 20
-312.686409
 30
0.0
 40
5.0
  0
LINE
  5
196
330
351
100
AcDbEntity
  8
SIZE
100
AcDbLine
 10
-144.5
 20
-312.686409
 30
0.0
 11
-149.5
 21
-312.686409
 31
0.0
  0
CIRCLE
  5
197
330
351
100
AcDbEntity
  8
SIZE
100
AcDbCircle
 10
-242.5
 20
-312.686409
 30
0.0
 40
5.0
  0
LINE
  5
198
330
351
100
AcDbEntity
  8
SIZE
100
AcDbLine
 10
-237.5
 20
-312.686409
 30
0.0
 11
-232.5
 21
-312.686409
 31
0.0
  0
LINE
  5
19C
330
351
100
AcDbEntity
  8
SIZE
100
AcDbLine
 10
-138.5
 20
219.043398
 30
0.0
 11
-138.5
 21
425.446096
 31
0.0
  0
LINE
  5
19D
330
351
100
AcDbEntity
  8
SIZE
100
AcDbLine
 10
-242.5
 20
219.043398
 30
0.0
 11
-242.5
 21
425.446096
 31
0.0
  0
LINE
  5
19E
330
351
100
AcDbEntity
  8
SIZE
100
AcDbLine
 10
-148.5
 20
395.446096
 30
0.0
 11
-232.5
 21
395.446096
 31
0.0
  0
LINE
  5
19F
330
351
100
AcDbEntity
  8
SIZE
100
AcDbLine
 10
-444.799174
 20
395.446096
 30
0.0
 11
-242.5
 21
395.446096
 31
0.0
  0
TEXT
  5
1A0
330
351
100
AcDbEntity
  8
SIZE
100
AcDbText
 10
-424.799174142857
 20
415.4460959999998
 30
0.0
 40
64.0
  1
104
 41
0.9
 72
     1
 11
-354.856317
 21
415.4460959999998
 31
0.0
100
AcDbText
  0
CIRCLE
  5
1A1
330
351
100
AcDbEntity
  8
SIZE
100
AcDbCircle
 10
-138.5
 20
395.446096
 30
0.0
 40
5.0
  0
LINE
  5
1A2
330
351
100
AcDbEntity
  8
SIZE
100
AcDbLine
 10
-143.5
 20
395.446096
 30
0.0
 11
-148.5
 21
395.446096
 31
0.0
  0
CIRCLE
  5
1A3
330
351
100
AcDbEntity
  8
SIZE
100
AcDbCircle
 10
-242.5
 20
395.446096
 30
0.0
 40
5.0
  0
LINE
  5
1A4
330
351
100
AcDbEntity
  8
SIZE
100
AcDbLine
 10
-237.5
 20
395.446096
 30
0.0
 11
-232.5
 21
395.446096
 31
0.0
  0
LINE
  5
1A8
330
351
100
AcDbEntity
  8
SIZE
100
AcDbLine
 10
-262.5
 20
0.0
 30
0.0
 11
-764.436848
 21
0.0
 31
0.0
  0
LINE
  5
1A9
330
351
100
AcDbEntity
  8
SIZE
100
AcDbLine
 10
-159.5
 20
124.0
 30
0.0
 11
-764.436848
 21
124.0
 31
0.0
  0
LINE
  5
1AA
330
351
100
AcDbEntity
  8
SIZE
100
AcDbLine
 10
-734.436848
 20
10.0
 30
0.0
 11
-734.436848
 21
114.0
 31
0.0
  0
LINE
  5
1AB
330
351
100
AcDbEntity
  8
SIZE
100
AcDbLine
 10
-734.436848
 20
-190.253171
 30
0.0
 11
-734.436848
 21
0.0
 31
0.0
  0
TEXT
  5
1AC
330
351
100
AcDbEntity
  8
SIZE
100
AcDbText
 10
-754.4368480000001
 20
-170.2531711428571
 30
0.0
 40
64.0
  1
124
 50
90.0
 41
0.9
 72
     1
 11
-754.4368480000001
 21
-100.310314
 31
0.0
100
AcDbText
  0
CIRCLE
  5
1AD
330
351
100
AcDbEntity
  8
SIZE
100
AcDbCircle
 10
-734.436848
 20
0.0
 30
0.0
 40
5.0
  0
LINE
  5
1AE
330
351
100
AcDbEntity
  8
SIZE
100
AcDbLine
 10
-734.436848
 20
5.0
 30
0.0
 11
-734.436848
 21
10.0
 31
0.0
  0
CIRCLE
  5
1AF
330
351
100
AcDbEntity
  8
SIZE
100
AcDbCircle
 10
-734.436848
 20
124.0
 30
0.0
 40
5.0
  0
LINE
  5
1B0
330
351
100
AcDbEntity
  8
SIZE
100
AcDbLine
 10
-734.436848
 20
119.0
 30
0.0
 11
-734.436848
 21
114.0
 31
0.0
  0
LINE
  5
1B4
330
351
100
AcDbEntity
  8
SIZE
100
AcDbLine
 10
-159.5
 20
124.0
 30
0.0
 11
-764.436848
 21
124.0
 31
0.0
  0
LINE
  5
1B5
330
351
100
AcDbEntity
  8
SIZE
100
AcDbLine
 10
-158.5
 20
199.0
 30
0.0
 11
-764.436848
 21
199.0
 31
0.0
  0
LINE
  5
1B6
330
351
100
AcDbEntity
  8
SIZE
100
AcDbLine
 10
-734.436848
 20
134.0
 30
0.0
 11
-734.436848
 21
189.0
 31
0.0
  0
LINE
  5
1B7
330
351
100
AcDbEntity
  8
SIZE
100
AcDbLine
 10
-734.436848
 20
353.603303
 30
0.0
 11
-734.436848
 21
199.0
 31
0.0
  0
TEXT
  5
1B8
330
351
100
AcDbEntity
  8
SIZE
100
AcDbText
 10
-754.4368480000001
 20
240.3461595714286
 30
0.0
 40
64.0
  1
75
 50
90.0
 41
0.9
 72
     1
 11
-754.4368480000001
 21
286.974731
 31
0.0
100
AcDbText
  0
CIRCLE
  5
1B9
330
351
100
AcDbEntity
  8
SIZE
100
AcDbCircle
 10
-734.436848
 20
124.0
 30
0.0
 40
5.0
  0
LINE
  5
1BA
330
351
100
AcDbEntity
  8
SIZE
100
AcDbLine
 10
-734.436848
 20
129.0
 30
0.0
 11
-734.436848
 21
134.0
 31
0.0
  0
CIRCLE
  5
1BB
330
351
100
AcDbEntity
  8
SIZE
100
AcDbCircle
 10
-734.436848
 20
199.0
 30
0.0
 40
5.0
  0
LINE
  5
1BC
330
351
100
AcDbEntity
  8
SIZE
100
AcDbLine
 10
-734.436848
 20
194.0
 30
0.0
 11
-734.436848
 21
189.0
 31
0.0
  0
LINE
  5
1C0
330
351
100
AcDbEntity
  8
NOTE
100
AcDbLine
 10
155.138752
 20
0.0
 30
0.0
 11
128.861248
 21
0.0
 31
0.0
  0
LINE
  5
1C1
330
351
100
AcDbEntity
  8
SIZE
100
AcDbLine
 10
242.5
 20
1875.0
 30
0.0
 11
242.5
 21
2048.819789
 31
0.0
  0
LINE
  5
1C2
330
351
100
AcDbEntity
  8
SIZE
100
AcDbLine
 10
-242.5
 20
1875.0
 30
0.0
 11
-242.5
 21
2048.819789
 31
0.0
  0
LINE
  5
1C3
330
351
100
AcDbEntity
  8
SIZE
100
AcDbLine
 10
232.5
 20
2018.819789
 30
0.0
 11
-232.5
 21
2018.819789
 31
0.0
  0
CIRCLE
  5
1C4
330
351
100
AcDbEntity
  8
SIZE
100
AcDbCircle
 10
242.5
 20
2018.819789
 30
0.0
 40
5.0
  0
LINE
  5
1C5
330
351
100
AcDbEntity
  8
SIZE
100
AcDbLine
 10
237.5
 20
2018.819789
 30
0.0
 11
232.5
 21
2018.819789
 31
0.0
  0
CIRCLE
  5
1C6
330
351
100
AcDbEntity
  8
SIZE
100
AcDbCircle
 10
-242.5
 20
2018.819789
 30
0.0
 40
5.0
  0
LINE
  5
1C7
330
351
100
AcDbEntity
  8
SIZE
100
AcDbLine
 10
-237.5
 20
2018.819789
 30
0.0
 11
-232.5
 21
2018.819789
 31
0.0
  0
TEXT
  5
1C8
330
351
100
AcDbEntity
  8
SIZE
100
AcDbText
 10
-74.05714285714282
 20
2038.819789
 30
0.0
 40
64.0
  1
485
 41
0.9
 72
     1
 11
0.0
 21
2038.819789
 31
0.0
100
AcDbText
  0
LINE
  5
1CC
330
351
100
AcDbEntity
  8
SIZE
100
AcDbLine
 10
-265.0
 20
1850.0
 30
0.0
 11
-926.1948179999999
 21
1850.0
 31
0.0
  0
LINE
  5
1CD
330
351
100
AcDbEntity
  8
SIZE
100
AcDbLine
 10
-265.0
 20
1650.0
 30
0.0
 11
-926.1948179999999
 21
1650.0
 31
0.0
  0
LINE
  5
1CE
330
351
100
AcDbEntity
  8
SIZE
100
AcDbLine
 10
-896.194818
 20
1840.0
 30
0.0
 11
-896.194818
 21
1660.0
 31
0.0
  0
CIRCLE
  5
1CF
330
351
100
AcDbEntity
  8
SIZE
100
AcDbCircle
 10
-896.194818
 20
1850.0
 30
0.0
 40
5.0
  0
LINE
  5
1D0
330
351
100
AcDbEntity
  8
SIZE
100
AcDbLine
 10
-896.194818
 20
1845.0
 30
0.0
 11
-896.194818
 21
1840.0
 31
0.0
  0
CIRCLE
  5
1D1
330
351
100
AcDbEntity
  8
SIZE
100
AcDbCircle
 10
-896.194818
 20
1650.0
 30
0.0
 40
5.0
  0
LINE
  5
1D2
330
351
100
AcDbEntity
  8
SIZE
100
AcDbLine
 10
-896.194818
 20
1655.0
 30
0.0
 11
-896.194818
 21
1660.0
 31
0.0
  0
TEXT
  5
1D3
330
351
100
AcDbEntity
  8
SIZE
100
AcDbText
 10
-916.1948180000001
 20
1678.442857142857
 30
0.0
 40
64.0
  1
200
 50
90.0
 41
0.9
 72
     1
 11
-916.1948180000001
 21
1752.5
 31
0.0
100
AcDbText
  0
LINE
  5
1D7
330
351
100
AcDbEntity
  8
SIZE
100
AcDbLine
 10
-265.0
 20
1850.0
 30
0.0
 11
-1126.194818
 21
1850.0
 31
0.0
  0
LINE
  5
1D8
330
351
100
AcDbEntity
  8
SIZE
100
AcDbLine
 10
-230.734162
 20
0.0
 30
0.0
 11
-1126.194818
 21
0.0
 31
0.0
  0
LINE
  5
1D9
330
351
100
AcDbEntity
  8
SIZE
100
AcDbLine
 10
-1096.194818
 20
1840.0
 30
0.0
 11
-1096.194818
 21
10.0
 31
0.0
  0
CIRCLE
  5
1DA
330
351
100
AcDbEntity
  8
SIZE
100
AcDbCircle
 10
-1096.194818
 20
1850.0
 30
0.0
 40
5.0
  0
LINE
  5
1DB
330
351
100
AcDbEntity
  8
SIZE
100
AcDbLine
 10
-1096.194818
 20
1845.0
 30
0.0
 11
-1096.194818
 21
1840.0
 31
0.0
  0
CIRCLE
  5
1DC
330
351
100
AcDbEntity
  8
SIZE
100
AcDbCircle
 10
-1096.194818
 20
0.0
 30
0.0
 40
5.0
  0
LINE
  5
1DD
330
351
100
AcDbEntity
  8
SIZE
100
AcDbLine
 10
-1096.194818
 20
5.0
 30
0.0
 11
-1096.194818
 21
10.0
 31
0.0
  0
TEXT
  5
1DE
330
351
100
AcDbEntity
  8
SIZE
100
AcDbText
 10
-1116.194818
 20
831.4999999999999
 30
0.0
 40
64.0
  1
1850
 50
90.0
 41
0.9
 72
     1
 11
-1116.194818
 21
927.5
 31
0.0
100
AcDbText
  0
LINE
  5
1E2
330
351
100
AcDbEntity
  8
SIZE
100
AcDbLine
 10
142.497277
 20
270.206789
 30
0.0
 11
142.497277
 21
989.5197279999999
 31
0.0
  0
LINE
  5
1E3
330
351
100
AcDbEntity
  8
SIZE
100
AcDbLine
 10
-242.5
 20
361.313216
 30
0.0
 11
-242.5
 21
989.5197279999999
 31
0.0
  0
LINE
  5
1E4
330
351
100
AcDbEntity
  8
SIZE
100
AcDbLine
 10
132.497277
 20
959.519728
 30
0.0
 11
-232.5
 21
959.519728
 31
0.0
  0
TEXT
  5
1E5
330
351
100
AcDbEntity
  8
SIZE
100
AcDbText
 10
-162.2292628571427
 20
983.675146
 30
0.0
 40
64.0
  1
385
 41
0.9
 72
     1
 11
-88.17211999999996
 21
983.675146
 31
0.0
100
AcDbText
  0
CIRCLE
  5
1E6
330
351
100
AcDbEntity
  8
SIZE
100
AcDbCircle
 10
142.497277
 20
959.519728
 30
0.0
 40
5.0
  0
LINE
  5
1E7
330
351
100
AcDbEntity
  8
SIZE
100
AcDbLine
 10
137.497277
 20
959.519728
 30
0.0
 11
132.497277
 21
959.519728
 31
0.0
  0
CIRCLE
  5
1E8
330
351
100
AcDbEntity
  8
SIZE
100
AcDbCircle
 10
-242.5
 20
959.519728
 30
0.0
 40
5.0
  0
LINE
  5
1E9
330
351
100
AcDbEntity
  8
SIZE
100
AcDbLine
 10
-237.5
 20
959.519728
 30
0.0
 11
-232.5
 21
959.519728
 31
0.0
  0
LINE
  5
1ED
330
351
100
AcDbEntity
  8
SIZE
100
AcDbLine
 10
38.63719099999999
 20
30.0
 30
0.0
 11
566.732969
 21
30.0
 31
0.0
  0
LINE
  5
1EE
330
351
100
AcDbEntity
  8
SIZE
100
AcDbLine
 10
240.503647
 20
0.0
 30
0.0
 11
566.732969
 21
0.0
 31
0.0
  0
LINE
  5
1EF
330
351
100
AcDbEntity
  8
SIZE
100
AcDbLine
 10
536.732969
 20
40.0
 30
0.0
 11
536.732969
 21
50.0
 31
0.0
  0
LINE
  5
1F0
330
351
100
AcDbEntity
  8
SIZE
100
AcDbLine
 10
536.732969
 20
-10.0
 30
0.0
 11
536.732969
 21
-153.257143
 31
0.0
  0
LINE
  5
1F1
330
351
100
AcDbEntity
  8
SIZE
100
AcDbLine
 10
536.732969
 20
30.0
 30
0.0
 11
536.732969
 21
0.0
 31
0.0
  0
CIRCLE
  5
1F2
330
351
100
AcDbEntity
  8
SIZE
100
AcDbCircle
 10
536.732969
 20
30.0
 30
0.0
 40
5.0
  0
LINE
  5
1F3
330
351
100
AcDbEntity
  8
SIZE
100
AcDbLine
 10
536.732969
 20
35.0
 30
0.0
 11
536.732969
 21
40.0
 31
0.0
  0
CIRCLE
  5
1F4
330
351
100
AcDbEntity
  8
SIZE
100
AcDbCircle
 10
536.732969
 20
0.0
 30
0.0
 40
5.0
  0
LINE
  5
1F5
330
351
100
AcDbEntity
  8
SIZE
100
AcDbLine
 10
536.732969
 20
-5.0
 30
0.0
 11
536.732969
 21
-10.0
 31
0.0
  0
TEXT
  5
1F6
330
351
100
AcDbEntity
  8
SIZE
100
AcDbText
 10
516.732969
 20
-133.2571424285714
 30
0.0
 40
64.0
  1
30
 50
90.0
 41
0.9
 72
     1
 11
516.732969
 21
-86.628571
 31
0.0
100
AcDbText
  0
LINE
  5
2DB
330
351
100
AcDbEntity
  8
OUTLINE
100
AcDbLine
 10
-242.5
 20
1650.0
 30
0.0
 11
242.5
 21
1650.0
 31
0.0
  0
CIRCLE
  5
41B
330
351
100
AcDbEntity
  8
ARRANGE
  6
Continuous
 62
     1
100
AcDbCircle
 10
0.0
 20
0.0
 30
0.0
 40
40.0
  0
LINE
  5
41C
330
351
100
AcDbEntity
  8
ARRANGE
  6
Continuous
 62
     1
100
AcDbLine
 10
-39.59797974644789
 20
39.59797974644607
 30
0.0
 11
39.59797974644789
 21
-39.59797974644789
 31
0.0
  0
LINE
  5
41D
330
351
100
AcDbEntity
  8
ARRANGE
  6
Continuous
 62
     1
100
AcDbLine
 10
39.59797974644789
 20
39.59797974644607
 30
0.0
 11
-39.59797974644789
 21
-39.59797974644789
 31
0.0
  0
ENDSEC
  0
SECTION
  2
OBJECTS
  0
DICTIONARY
  5
2E9
330
0
100
AcDbDictionary
281
     1
  3
ACAD_CIP_PREVIOUS_PRODUCT_INFO
350
3CD
  3
ACAD_COLOR
350
347
  3
ACAD_GROUP
350
2EA
  3
ACAD_LAYOUT
350
346
  3
ACAD_MATERIAL
350
2ED
  3
ACAD_MLEADERSTYLE
350
34A
  3
ACAD_MLINESTYLE
350
343
  3
ACAD_PLOTSETTINGS
350
345
  3
ACAD_PLOTSTYLENAME
350
2EB
  3
ACAD_SCALELIST
350
317
  3
ACAD_TABLESTYLE
350
348
  3
ACAD_VISUALSTYLE
350
306
  3
ACDB_RECOMPOSE_DATA
350
420
  3
AcDbVariableDictionary
350
386
  3
DWGPROPS
350
421
  0
DICTIONARY
  5
370
330
339
100
AcDbDictionary
280
     1
281
     1
  3
ADSK_XREC_LAYER_RECONCILED
360
371
  0
DICTIONARY
  5
372
330
355
100
AcDbDictionary
280
     1
281
     1
  3
ADSK_XREC_LAYER_RECONCILED
360
373
  0
DICTIONARY
  5
374
330
358
100
AcDbDictionary
280
     1
281
     1
  3
ADSK_XREC_LAYER_RECONCILED
360
375
  0
DICTIONARY
  5
376
330
359
100
AcDbDictionary
280
     1
281
     1
  3
ADSK_XREC_LAYER_RECONCILED
360
377
  0
DICTIONARY
  5
378
330
35A
100
AcDbDictionary
280
     1
281
     1
  3
ADSK_XREC_LAYER_RECONCILED
360
379
  0
DICTIONARY
  5
37A
330
35B
100
AcDbDictionary
280
     1
281
     1
  3
ADSK_XREC_LAYER_RECONCILED
360
37B
  0
DICTIONARY
  5
37C
330
35C
100
AcDbDictionary
280
     1
281
     1
  3
ADSK_XREC_LAYER_RECONCILED
360
37D
  0
DICTIONARY
  5
37E
330
35D
100
AcDbDictionary
280
     1
281
     1
  3
ADSK_XREC_LAYER_RECONCILED
360
37F
  0
DICTIONARY
  5
380
330
35E
100
AcDbDictionary
280
     1
281
     1
  3
ADSK_XREC_LAYER_RECONCILED
360
381
  0
DICTIONARY
  5
382
330
35F
100
AcDbDictionary
280
     1
281
     1
  3
ADSK_XREC_LAYER_RECONCILED
360
383
  0
DICTIONARY
  5
384
330
360
100
AcDbDictionary
280
     1
281
     1
  3
ADSK_XREC_LAYER_RECONCILED
360
385
  0
XRECORD
  5
3CD
102
{ACAD_REACTORS
330
2E9
102
}
330
2E9
100
AcDbXrecord
280
     1
300
ACD
300
2012
300
BDSPRM_F_S
  0
DICTIONARY
  5
347
102
{ACAD_REACTORS
330
2E9
102
}
330
2E9
100
AcDbDictionary
281
     1
  0
DICTIONARY
  5
2EA
102
{ACAD_REACTORS
330
2E9
102
}
330
2E9
100
AcDbDictionary
281
     1
  0
DICTIONARY
  5
346
102
{ACAD_REACTORS
330
2E9
102
}
330
2E9
100
AcDbDictionary
281
     1
  3
Layout1
350
350
  3
Model
350
354
  0
DICTIONARY
  5
2ED
102
{ACAD_REACTORS
330
2E9
102
}
330
2E9
100
AcDbDictionary
281
     1
  3
ByBlock
350
2F6
  3
ByLayer
350
2EE
  3
Global
350
2FE
  0
DICTIONARY
  5
34A
102
{ACAD_REACTORS
330
2E9
102
}
330
2E9
100
AcDbDictionary
281
     1
  3
Standard
350
34B
  0
DICTIONARY
  5
343
102
{ACAD_REACTORS
330
2E9
102
}
330
2E9
100
AcDbDictionary
281
     1
  3
Standard
350
344
  0
DICTIONARY
  5
345
102
{ACAD_REACTORS
330
2E9
102
}
330
2E9
100
AcDbDictionary
281
     1
  0
ACDBDICTIONARYWDFLT
  5
2EB
102
{ACAD_REACTORS
330
2E9
102
}
330
2E9
100
AcDbDictionary
281
     1
  3
Normal
350
2EC
100
AcDbDictionaryWithDefault
340
2EC
  0
DICTIONARY
  5
317
102
{ACAD_REACTORS
330
2E9
102
}
330
2E9
100
AcDbDictionary
281
     1
  3
A0
350
318
  3
A1
350
319
  3
A2
350
31A
  3
A3
350
31B
  3
A4
350
31C
  3
A5
350
31D
  3
A6
350
31E
  3
A7
350
31F
  3
A8
350
320
  3
A9
350
321
  3
B0
350
322
  3
B1
350
323
  3
B2
350
324
  3
B3
350
325
  3
B4
350
326
  3
B5
350
327
  3
B6
350
328
  3
B7
350
329
  3
B8
350
32A
  3
B9
350
32B
  3
C0
350
32C
  3
C1
350
32D
  3
C2
350
32E
  3
C3
350
32F
  3
C4
350
330
  3
C5
350
331
  3
C6
350
332
  3
C7
350
333
  3
C8
350
334
  3
C9
350
335
  3
D0
350
336
  3
D1
350
337
  3
D2
350
338
  0
DICTIONARY
  5
348
102
{ACAD_REACTORS
330
2E9
102
}
330
2E9
100
AcDbDictionary
281
     1
  3
Standard
350
349
  0
DICTIONARY
  5
306
102
{ACAD_REACTORS
330
2E9
102
}
330
2E9
100
AcDbDictionary
281
     1
  3
2dWireframe
350
30C
  3
3D Hidden
350
30E
  3
3dWireframe
350
30D
  3
Basic
350
30B
  3
Brighten
350
312
  3
ColorChange
350
316
  3
Conceptual
350
30F
  3
Dim
350
311
  3
EdgeColorOff
350
3CB
  3
Facepattern
350
315
  3
Flat
350
307
  3
FlatWithEdges
350
308
  3
Gouraud
350
309
  3
GouraudWithEdges
350
30A
  3
Hidden
350
3C3
  3
JitterOff
350
3C9
  3
Linepattern
350
314
  3
OverhangOff
350
3CA
  3
Realistic
350
310
  3
Shaded
350
3C8
  3
Shaded with edges
350
3C7
  3
Shades of Gray
350
3C4
  3
Sketchy
350
3C5
  3
Thicken
350
313
  3
Wireframe
350
3C2
  3
X-Ray
350
3C6
  0
XRECORD
  5
420
102
{ACAD_REACTORS
330
2E9
102
}
330
2E9
100
AcDbXrecord
280
     1
 90
        1
330
349
  0
DICTIONARY
  5
386
102
{ACAD_REACTORS
330
2E9
102
}
330
2E9
100
AcDbDictionary
281
     1
  3
CANNOSCALE
350
389
  3
CMLEADERSTYLE
350
388
  3
CTABLESTYLE
350
387
  3
DIMASSOC
350
38C
  3
INDEXCTL
350
38B
  3
SORTENTS
350
38A
  3
XCLIPFRAME
350
41E
  0
XRECORD
  5
421
102
{ACAD_REACTORS
330
2E9
102
}
330
2E9
100
AcDbXrecord
280
     1
  1
DWGPROPS COOKIE
  2

  3

  4

  6

  7

  8
prohiokamot
  9

300
=
301
=
302
=
303
=
304
=
305
=
306
=
307
=
308
=
309
=
 40
4.152052858796296
 41
2449761.535289665
 42
2458150.755792002
  1

 90
        0
  0
XRECORD
  5
371
102
{ACAD_REACTORS
330
370
102
}
330
370
100
AcDbXrecord
280
     1
290
     1
  0
XRECORD
  5
373
102
{ACAD_REACTORS
330
372
102
}
330
372
100
AcDbXrecord
280
     1
290
     1
  0
XRECORD
  5
375
102
{ACAD_REACTORS
330
374
102
}
330
374
100
AcDbXrecord
280
     1
290
     1
  0
XRECORD
  5
377
102
{ACAD_REACTORS
330
376
102
}
330
376
100
AcDbXrecord
280
     1
290
     1
  0
XRECORD
  5
379
102
{ACAD_REACTORS
330
378
102
}
330
378
100
AcDbXrecord
280
     1
290
     1
  0
XRECORD
  5
37B
102
{ACAD_REACTORS
330
37A
102
}
330
37A
100
AcDbXrecord
280
     1
290
     1
  0
XRECORD
  5
37D
102
{ACAD_REACTORS
330
37C
102
}
330
37C
100
AcDbXrecord
280
     1
290
     1
  0
XRECORD
  5
37F
102
{ACAD_REACTORS
330
37E
102
}
330
37E
100
AcDbXrecord
280
     1
290
     1
  0
XRECORD
  5
381
102
{ACAD_REACTORS
330
380
102
}
330
380
100
AcDbXrecord
280
     1
290
     1
  0
XRECORD
  5
383
102
{ACAD_REACTORS
330
382
102
}
330
382
100
AcDbXrecord
280
     1
290
     1
  0
XRECORD
  5
385
102
{ACAD_REACTORS
330
384
102
}
330
384
100
AcDbXrecord
280
     1
290
     1
  0
LAYOUT
  5
350
102
{ACAD_XDICTIONARY
360
443
102
}
102
{ACAD_REACTORS
330
346
102
}
330
346
100
AcDbPlotSettings
  1

  2
FX DocuWide 2050
  4

  6

 40
0.0
 41
0.0
 42
0.0
 43
0.0
 44
0.0
 45
0.0
 46
0.0
 47
0.0
 48
0.0
 49
0.0
140
0.0
141
0.0
142
1.0
143
1.0
 70
   688
 72
     0
 73
     0
 74
     5
  7

 75
    16
147
1.0
148
0.0
149
0.0
100
AcDbLayout
  1
Layout1
 70
     1
 71
     1
 10
0.0
 20
0.0
 11
12.0
 21
9.0
 12
0.0
 22
0.0
 32
0.0
 14
1.000000000000000E+20
 24
1.000000000000000E+20
 34
1.000000000000000E+20
 15
-1.000000000000000E+20
 25
-1.000000000000000E+20
 35
-1.000000000000000E+20
146
0.0
 13
0.0
 23
0.0
 33
0.0
 16
1.0
 26
0.0
 36
0.0
 17
0.0
 27
1.0
 37
0.0
 76
     0
330
34D
  0
LAYOUT
  5
354
102
{ACAD_XDICTIONARY
360
445
102
}
102
{ACAD_REACTORS
330
346
102
}
330
346
100
AcDbPlotSettings
  1

  2
FX DocuWide 2050
  4

  6

 40
0.0
 41
0.0
 42
0.0
 43
0.0
 44
0.0
 45
0.0
 46
0.0
 47
0.0
 48
0.0
 49
0.0
140
0.0
141
0.0
142
1.0
143
1.0
 70
  1712
 72
     0
 73
     0
 74
     0
  7

 75
     0
147
1.0
148
0.0
149
0.0
100
AcDbLayout
  1
Model
 70
     1
 71
     0
 10
0.0
 20
0.0
 11
12.0
 21
9.0
 12
0.0
 22
0.0
 32
0.0
 14
0.0
 24
0.0
 34
0.0
 15
0.0
 25
0.0
 35
0.0
146
0.0
 13
0.0
 23
0.0
 33
0.0
 16
1.0
 26
0.0
 36
0.0
 17
0.0
 27
1.0
 37
0.0
 76
     0
330
351
331
356
  0
MATERIAL
  5
2F6
102
{ACAD_XDICTIONARY
360
2F7
102
}
102
{ACAD_REACTORS
330
2ED
102
}
330
2ED
100
AcDbMaterial
  1
ByBlock
 72
     0
 43
0.0208333333333333
 43
0.0
 43
0.0
 43
0.0
 43
0.0
 43
0.0208333333333333
 43
0.0
 43
0.0
 43
0.0
 43
0.0
 43
1.0
 43
0.0
 43
0.0
 43
0.0
 43
0.0
 43
1.0
 77
     0
 47
0.0208333333333333
 47
0.0
 47
0.0
 47
0.0
 47
0.0
 47
0.0208333333333333
 47
0.0
 47
0.0
 47
0.0
 47
0.0
 47
1.0
 47
0.0
 47
0.0
 47
0.0
 47
0.0
 47
1.0
171
     0
 49
0.0208333333333333
 49
0.0
 49
0.0
 49
0.0
 49
0.0
 49
0.0208333333333333
 49
0.0
 49
0.0
 49
0.0
 49
0.0
 49
1.0
 49
0.0
 49
0.0
 49
0.0
 49
0.0
 49
1.0
175
     0
142
0.0208333333333333
142
0.0
142
0.0
142
0.0
142
0.0
142
0.0208333333333333
142
0.0
142
0.0
142
0.0
142
0.0
142
1.0
142
0.0
142
0.0
142
0.0
142
0.0
142
1.0
179
     0
144
0.0208333333333333
144
0.0
144
0.0
144
0.0
144
0.0
144
0.0208333333333333
144
0.0
144
0.0
144
0.0
144
0.0
144
1.0
144
0.0
144
0.0
144
0.0
144
0.0
144
1.0
147
0.0208333333333333
147
0.0
147
0.0
147
0.0
147
0.0
147
0.0208333333333333
147
0.0
147
0.0
147
0.0
147
0.0
147
1.0
147
0.0
147
0.0
147
0.0
147
0.0
147
1.0
  0
MATERIAL
  5
2EE
102
{ACAD_XDICTIONARY
360
2EF
102
}
102
{ACAD_REACTORS
330
2ED
102
}
330
2ED
100
AcDbMaterial
  1
ByLayer
 72
     0
 43
0.0208333333333333
 43
0.0
 43
0.0
 43
0.0
 43
0.0
 43
0.0208333333333333
 43
0.0
 43
0.0
 43
0.0
 43
0.0
 43
1.0
 43
0.0
 43
0.0
 43
0.0
 43
0.0
 43
1.0
 77
     0
 47
0.0208333333333333
 47
0.0
 47
0.0
 47
0.0
 47
0.0
 47
0.0208333333333333
 47
0.0
 47
0.0
 47
0.0
 47
0.0
 47
1.0
 47
0.0
 47
0.0
 47
0.0
 47
0.0
 47
1.0
171
     0
 49
0.0208333333333333
 49
0.0
 49
0.0
 49
0.0
 49
0.0
 49
0.0208333333333333
 49
0.0
 49
0.0
 49
0.0
 49
0.0
 49
1.0
 49
0.0
 49
0.0
 49
0.0
 49
0.0
 49
1.0
175
     0
142
0.0208333333333333
142
0.0
142
0.0
142
0.0
142
0.0
142
0.0208333333333333
142
0.0
142
0.0
142
0.0
142
0.0
142
1.0
142
0.0
142
0.0
142
0.0
142
0.0
142
1.0
179
     0
144
0.0208333333333333
144
0.0
144
0.0
144
0.0
144
0.0
144
0.0208333333333333
144
0.0
144
0.0
144
0.0
144
0.0
144
1.0
144
0.0
144
0.0
144
0.0
144
0.0
144
1.0
147
0.0208333333333333
147
0.0
147
0.0
147
0.0
147
0.0
147
0.0208333333333333
147
0.0
147
0.0
147
0.0
147
0.0
147
1.0
147
0.0
147
0.0
147
0.0
147
0.0
147
1.0
  0
MATERIAL
  5
2FE
102
{ACAD_XDICTIONARY
360
2FF
102
}
102
{ACAD_REACTORS
330
2ED
102
}
330
2ED
100
AcDbMaterial
  1
Global
 72
     0
 43
0.0208333333333333
 43
0.0
 43
0.0
 43
0.0
 43
0.0
 43
0.0208333333333333
 43
0.0
 43
0.0
 43
0.0
 43
0.0
 43
1.0
 43
0.0
 43
0.0
 43
0.0
 43
0.0
 43
1.0
 77
     0
 47
0.0208333333333333
 47
0.0
 47
0.0
 47
0.0
 47
0.0
 47
0.0208333333333333
 47
0.0
 47
0.0
 47
0.0
 47
0.0
 47
1.0
 47
0.0
 47
0.0
 47
0.0
 47
0.0
 47
1.0
171
     0
 49
0.0208333333333333
 49
0.0
 49
0.0
 49
0.0
 49
0.0
 49
0.0208333333333333
 49
0.0
 49
0.0
 49
0.0
 49
0.0
 49
1.0
 49
0.0
 49
0.0
 49
0.0
 49
0.0
 49
1.0
175
     0
142
0.0208333333333333
142
0.0
142
0.0
142
0.0
142
0.0
142
0.0208333333333333
142
0.0
142
0.0
142
0.0
142
0.0
142
1.0
142
0.0
142
0.0
142
0.0
142
0.0
142
1.0
179
     0
144
0.0208333333333333
144
0.0
144
0.0
144
0.0
144
0.0
144
0.0208333333333333
144
0.0
144
0.0
144
0.0
144
0.0
144
1.0
144
0.0
144
0.0
144
0.0
144
0.0
144
1.0
147
0.0208333333333333
147
0.0
147
0.0
147
0.0
147
0.0
147
0.0208333333333333
147
0.0
147
0.0
147
0.0
147
0.0
147
1.0
147
0.0
147
0.0
147
0.0
147
0.0
147
1.0
  0
MLEADERSTYLE
  5
34B
102
{ACAD_REACTORS
330
34A
102
}
330
34A
100
AcDbMLeaderStyle
170
     2
171
     1
172
     0
 90
        2
 40
0.0
 41
0.0
173
     1
 91
-1056964608
340
33F
 92
       -2
290
     1
 42
0.09
291
     1
 43
0.36
  3
Standard
 44
0.18
300

342
33A
174
     1
178
     6
175
     1
176
     0
 93
-1056964608
 45
0.18
292
     0
297
     0
 46
0.18
 94
-1056964608
 47
1.0
 49
1.0
140
1.0
293
     1
141
0.0
294
     1
177
     0
142
1.0
295
     0
296
     0
143
0.125
1001
ACAD_MLEADERVER
1070
     2
  0
MLINESTYLE
  5
344
102
{ACAD_REACTORS
330
343
102
}
330
343
100
AcDbMlineStyle
  2
STANDARD
 70
     0
  3

 62
   256
 51
90.0
 52
90.0
 71
     2
 49
0.5
 62
   256
  6
BYLAYER
 49
-0.5
 62
   256
  6
BYLAYER
  0
ACDBPLACEHOLDER
  5
2EC
102
{ACAD_REACTORS
330
2EB
102
}
330
2EB
  0
SCALE
  5
318
102
{ACAD_REACTORS
330
317
102
}
330
317
100
AcDbScale
 70
     0
300
1:1
140
1.0
141
1.0
290
     1
  0
SCALE
  5
319
102
{ACAD_REACTORS
330
317
102
}
330
317
100
AcDbScale
 70
     0
300
1:2
140
1.0
141
2.0
290
     0
  0
SCALE
  5
31A
102
{ACAD_REACTORS
330
317
102
}
330
317
100
AcDbScale
 70
     0
300
1:4
140
1.0
141
4.0
290
     0
  0
SCALE
  5
31B
102
{ACAD_REACTORS
330
317
102
}
330
317
100
AcDbScale
 70
     0
300
1:5
140
1.0
141
5.0
290
     0
  0
SCALE
  5
31C
102
{ACAD_REACTORS
330
317
102
}
330
317
100
AcDbScale
 70
     0
300
1:8
140
1.0
141
8.0
290
     0
  0
SCALE
  5
31D
102
{ACAD_REACTORS
330
317
102
}
330
317
100
AcDbScale
 70
     0
300
1:10
140
1.0
141
10.0
290
     0
  0
SCALE
  5
31E
102
{ACAD_REACTORS
330
317
102
}
330
317
100
AcDbScale
 70
     0
300
1:16
140
1.0
141
16.0
290
     0
  0
SCALE
  5
31F
102
{ACAD_REACTORS
330
317
102
}
330
317
100
AcDbScale
 70
     0
300
1:20
140
1.0
141
20.0
290
     0
  0
SCALE
  5
320
102
{ACAD_REACTORS
330
317
102
}
330
317
100
AcDbScale
 70
     0
300
1:30
140
1.0
141
30.0
290
     0
  0
SCALE
  5
321
102
{ACAD_REACTORS
330
317
102
}
330
317
100
AcDbScale
 70
     0
300
1:40
140
1.0
141
40.0
290
     0
  0
SCALE
  5
322
102
{ACAD_REACTORS
330
317
102
}
330
317
100
AcDbScale
 70
     0
300
1:50
140
1.0
141
50.0
290
     0
  0
SCALE
  5
323
102
{ACAD_REACTORS
330
317
102
}
330
317
100
AcDbScale
 70
     0
300
1:100
140
1.0
141
100.0
290
     0
  0
SCALE
  5
324
102
{ACAD_REACTORS
330
317
102
}
330
317
100
AcDbScale
 70
     0
300
2:1
140
2.0
141
1.0
290
     0
  0
SCALE
  5
325
102
{ACAD_REACTORS
330
317
102
}
330
317
100
AcDbScale
 70
     0
300
4:1
140
4.0
141
1.0
290
     0
  0
SCALE
  5
326
102
{ACAD_REACTORS
330
317
102
}
330
317
100
AcDbScale
 70
     0
300
8:1
140
8.0
141
1.0
290
     0
  0
SCALE
  5
327
102
{ACAD_REACTORS
330
317
102
}
330
317
100
AcDbScale
 70
     0
300
10:1
140
10.0
141
1.0
290
     0
  0
SCALE
  5
328
102
{ACAD_REACTORS
330
317
102
}
330
317
100
AcDbScale
 70
     0
300
100:1
140
100.0
141
1.0
290
     0
  0
SCALE
  5
329
102
{ACAD_REACTORS
330
317
102
}
330
317
100
AcDbScale
 70
     0
300
1/128" = 1'-0"
140
0.0078125
141
12.0
290
     0
  0
SCALE
  5
32A
102
{ACAD_REACTORS
330
317
102
}
330
317
100
AcDbScale
 70
     0
300
1/64" = 1'-0"
140
0.015625
141
12.0
290
     0
  0
SCALE
  5
32B
102
{ACAD_REACTORS
330
317
102
}
330
317
100
AcDbScale
 70
     0
300
1/32" = 1'-0"
140
0.03125
141
12.0
290
     0
  0
SCALE
  5
32C
102
{ACAD_REACTORS
330
317
102
}
330
317
100
AcDbScale
 70
     0
300
1/16" = 1'-0"
140
0.0625
141
12.0
290
     0
  0
SCALE
  5
32D
102
{ACAD_REACTORS
330
317
102
}
330
317
100
AcDbScale
 70
     0
300
3/32" = 1'-0"
140
0.09375
141
12.0
290
     0
  0
SCALE
  5
32E
102
{ACAD_REACTORS
330
317
102
}
330
317
100
AcDbScale
 70
     0
300
1/8" = 1'-0"
140
0.125
141
12.0
290
     0
  0
SCALE
  5
32F
102
{ACAD_REACTORS
330
317
102
}
330
317
100
AcDbScale
 70
     0
300
3/16" = 1'-0"
140
0.1875
141
12.0
290
     0
  0
SCALE
  5
330
102
{ACAD_REACTORS
330
317
102
}
330
317
100
AcDbScale
 70
     0
300
1/4" = 1'-0"
140
0.25
141
12.0
290
     0
  0
SCALE
  5
331
102
{ACAD_REACTORS
330
317
102
}
330
317
100
AcDbScale
 70
     0
300
3/8" = 1'-0"
140
0.375
141
12.0
290
     0
  0
SCALE
  5
332
102
{ACAD_REACTORS
330
317
102
}
330
317
100
AcDbScale
 70
     0
300
1/2" = 1'-0"
140
0.5
141
12.0
290
     0
  0
SCALE
  5
333
102
{ACAD_REACTORS
330
317
102
}
330
317
100
AcDbScale
 70
     0
300
3/4" = 1'-0"
140
0.75
141
12.0
290
     0
  0
SCALE
  5
334
102
{ACAD_REACTORS
330
317
102
}
330
317
100
AcDbScale
 70
     0
300
1" = 1'-0"
140
1.0
141
12.0
290
     0
  0
SCALE
  5
335
102
{ACAD_REACTORS
330
317
102
}
330
317
100
AcDbScale
 70
     0
300
1-1/2" = 1'-0"
140
1.5
141
12.0
290
     0
  0
SCALE
  5
336
102
{ACAD_REACTORS
330
317
102
}
330
317
100
AcDbScale
 70
     0
300
3" = 1'-0"
140
3.0
141
12.0
290
     0
  0
SCALE
  5
337
102
{ACAD_REACTORS
330
317
102
}
330
317
100
AcDbScale
 70
     0
300
6" = 1'-0"
140
6.0
141
12.0
290
     0
  0
SCALE
  5
338
102
{ACAD_REACTORS
330
317
102
}
330
317
100
AcDbScale
 70
     0
300
1'-0" = 1'-0"
140
12.0
141
12.0
290
     0
  0
TABLESTYLE
  5
349
102
{ACAD_XDICTIONARY
360
3B1
102
}
102
{ACAD_REACTORS
330
348
102
}
330
348
100
AcDbTableStyle
  3
Standard
 70
     0
 71
     0
 40
0.06
 41
0.06
280
     0
281
     0
  7
STANDARD
140
0.18
170
     2
 62
     0
 63
     7
283
     0
274
    -2
284
     1
 64
     0
275
    -2
285
     1
 65
     0
276
    -2
286
     1
 66
     0
277
    -2
287
     1
 67
     0
278
    -2
288
     1
 68
     0
279
    -2
289
     1
 69
     0
  7
STANDARD
140
0.25
170
     5
 62
     0
 63
     7
283
     0
274
    -2
284
     1
 64
     0
275
    -2
285
     1
 65
     0
276
    -2
286
     1
 66
     0
277
    -2
287
     1
 67
     0
278
    -2
288
     1
 68
     0
279
    -2
289
     1
 69
     0
  7
STANDARD
140
0.18
170
     5
 62
     0
 63
     7
283
     0
274
    -2
284
     1
 64
     0
275
    -2
285
     1
 65
     0
276
    -2
286
     1
 66
     0
277
    -2
287
     1
 67
     0
278
    -2
288
     1
 68
     0
279
    -2
289
     1
 69
     0
  0
VISUALSTYLE
  5
30C
102
{ACAD_XDICTIONARY
360
42C
102
}
102
{ACAD_REACTORS
330
306
102
}
330
306
100
AcDbVisualStyle
  2

 70
     4
 71
     0
 72
     2
 73
     0
 90
        0
 40
-0.6
 41
-30.0
 62
     5
 63
     7
 74
     1
 91
        4
 64
     7
 65
   257
 75
     1
175
     1
 42
1.0
 92
        0
 66
   257
 43
1.0
 76
     1
 77
     6
 78
     2
 67
     7
 79
     5
170
     0
171
     0
290
     0
174
     0
 93
        1
 44
0.0
173
     0
291
     0
 45
0.0
1001
ACAD
1000
AcDbSavedByObjectVersion
1070
     0
  0
VISUALSTYLE
  5
30E
102
{ACAD_XDICTIONARY
360
430
102
}
102
{ACAD_REACTORS
330
306
102
}
330
306
100
AcDbVisualStyle
  2

 70
     6
 71
     1
 72
     2
 73
     2
 90
        0
 40
-0.6
 41
-30.0
 62
     5
 63
     7
 74
     2
 91
        2
 64
     7
 65
   257
 75
     2
175
     1
 42
40.0
 92
        0
 66
   257
 43
1.0
 76
     1
 77
     6
 78
     2
 67
     7
 79
     3
170
     0
171
     0
290
     0
174
     0
 93
        1
 44
0.0
173
     0
291
     0
 45
0.0
1001
ACAD
1000
AcDbSavedByObjectVersion
1070
     0
  0
VISUALSTYLE
  5
30D
102
{ACAD_XDICTIONARY
360
42E
102
}
102
{ACAD_REACTORS
330
306
102
}
330
306
100
AcDbVisualStyle
  2

 70
     5
 71
     0
 72
     2
 73
     0
 90
        0
 40
-0.6
 41
-30.0
 62
     5
 63
     7
 74
     1
 91
        4
 64
     7
 65
   257
 75
     1
175
     1
 42
1.0
 92
        0
 66
   257
 43
1.0
 76
     1
 77
     6
 78
     2
 67
     7
 79
     5
170
     0
171
     0
290
     0
174
     0
 93
        1
 44
0.0
173
     0
291
     0
 45
0.0
1001
ACAD
1000
AcDbSavedByObjectVersion
1070
     0
  0
VISUALSTYLE
  5
30B
102
{ACAD_XDICTIONARY
360
42A
102
}
102
{ACAD_REACTORS
330
306
102
}
330
306
100
AcDbVisualStyle
  2

 70
     7
 71
     1
 72
     0
 73
     1
 90
        0
 40
-0.6
 41
-30.0
 62
     5
 63
     7
 74
     0
 91
        4
 64
     7
 65
   257
 75
     1
175
     1
 42
1.0
 92
        8
 66
     7
 43
1.0
 76
     1
 77
     6
 78
     2
 67
     7
 79
     5
170
     0
171
     0
290
     0
174
     0
 93
        1
 44
0.0
173
     0
291
     1
 45
0.0
1001
ACAD
1000
AcDbSavedByObjectVersion
1070
     0
  0
VISUALSTYLE
  5
312
102
{ACAD_XDICTIONARY
360
438
102
}
102
{ACAD_REACTORS
330
306
102
}
330
306
100
AcDbVisualStyle
  2

 70
    12
 71
     2
 72
     2
 73
     0
 90
        0
 40
-0.6
 41
-30.0
 62
     5
 63
     7
 74
     1
 91
        4
 64
     7
 65
   257
 75
     1
175
     1
 42
1.0
 92
        8
 66
     7
 43
1.0
 76
     1
 77
     6
 78
     2
 67
     7
 79
     5
170
     0
171
     0
290
     0
174
     0
 93
        1
 44
50.0
173
     0
291
     1
 45
0.0
1001
ACAD
1000
AcDbSavedByObjectVersion
1070
     0
  0
VISUALSTYLE
  5
316
102
{ACAD_XDICTIONARY
360
440
102
}
102
{ACAD_REACTORS
330
306
102
}
330
306
100
AcDbVisualStyle
  2

 70
    16
 71
     2
 72
     2
 73
     3
 90
        0
 40
-0.6
 41
-30.0
 62
     5
 63
     8
 74
     1
 91
        4
 64
     7
 65
   257
 75
     1
175
     1
 42
1.0
 92
        8
 66
     8
 43
1.0
 76
     1
 77
     6
 78
     2
 67
     7
 79
     5
170
     0
171
     0
290
     0
174
     0
 93
        1
 44
0.0
173
     0
291
     1
 45
0.0
1001
ACAD
1000
AcDbSavedByObjectVersion
1070
     0
  0
VISUALSTYLE
  5
30F
102
{ACAD_XDICTIONARY
360
432
102
}
102
{ACAD_REACTORS
330
306
102
}
330
306
100
AcDbVisualStyle
  2

 70
     9
 71
     3
 72
     2
 73
     0
 90
        0
 40
-0.6
 41
-30.0
 62
     5
 63
     7
 74
     2
 91
        2
 64
     7
 65
   257
 75
     1
175
     1
 42
40.0
 92
        8
 66
     7
 43
1.0
 76
     1
 77
     6
 78
     2
 67
     7
 79
     3
170
     0
171
     0
290
     0
174
     0
 93
        1
 44
0.0
173
     0
291
     0
 45
0.0
1001
ACAD
1000
AcDbSavedByObjectVersion
1070
     0
  0
VISUALSTYLE
  5
311
102
{ACAD_XDICTIONARY
360
436
102
}
102
{ACAD_REACTORS
330
306
102
}
330
306
100
AcDbVisualStyle
  2

 70
    11
 71
     2
 72
     2
 73
     0
 90
        0
 40
-0.6
 41
-30.0
 62
     5
 63
     7
 74
     1
 91
        4
 64
     7
 65
   257
 75
     1
175
     1
 42
1.0
 92
        8
 66
     7
 43
1.0
 76
     1
 77
     6
 78
     2
 67
     7
 79
     5
170
     0
171
     0
290
     0
174
     0
 93
        1
 44
-50.0
173
     0
291
     1
 45
0.0
1001
ACAD
1000
AcDbSavedByObjectVersion
1070
     0
  0
VISUALSTYLE
  5
3CB
102
{ACAD_XDICTIONARY
360
459
102
}
102
{ACAD_REACTORS
330
306
102
}
330
306
100
AcDbVisualStyle
  2

 70
    22
 71
     2
 72
     2
 73
     0
 90
        0
 40
-0.6
 41
-30.0
 62
     5
 63
     7
 74
     1
 91
        4
 64
     7
 65
   257
 75
     1
175
     1
 42
1.0
 92
        8
 66
     7
 43
1.0
 76
     1
 77
     6
 78
     2
 67
     7
 79
     5
170
     0
171
     0
290
     0
174
     0
 93
        1
 44
0.0
173
     0
291
     1
 45
0.0
1001
ACAD
1000
AcDbSavedByObjectVersion
1070
     0
  0
VISUALSTYLE
  5
315
102
{ACAD_XDICTIONARY
360
43E
102
}
102
{ACAD_REACTORS
330
306
102
}
330
306
100
AcDbVisualStyle
  2

 70
    15
 71
     2
 72
     2
 73
     0
 90
        0
 40
-0.6
 41
-30.0
 62
     5
 63
     7
 74
     1
 91
        4
 64
     7
 65
   257
 75
     1
175
     1
 42
1.0
 92
        8
 66
     7
 43
1.0
 76
     1
 77
     6
 78
     2
 67
     7
 79
     5
170
     0
171
     0
290
     0
174
     0
 93
        1
 44
0.0
173
     0
291
     1
 45
0.0
1001
ACAD
1000
AcDbSavedByObjectVersion
1070
     0
  0
VISUALSTYLE
  5
307
102
{ACAD_XDICTIONARY
360
422
102
}
102
{ACAD_REACTORS
330
306
102
}
330
306
100
AcDbVisualStyle
  2

 70
     0
 71
     2
 72
     1
 73
     1
 90
        2
 40
-0.6
 41
30.0
 62
     5
 63
     7
 74
     0
 91
        4
 64
     7
 65
   257
 75
     1
175
     1
 42
1.0
 92
        8
 66
     7
 43
1.0
 76
     1
 77
     6
 78
     2
 67
     7
 79
     5
170
     0
171
     0
290
     0
174
     0
 93
       13
 44
0.0
173
     0
291
     1
 45
0.0
1001
ACAD
1000
AcDbSavedByObjectVersion
1070
     0
  0
VISUALSTYLE
  5
308
102
{ACAD_XDICTIONARY
360
424
102
}
102
{ACAD_REACTORS
330
306
102
}
330
306
100
AcDbVisualStyle
  2

 70
     1
 71
     2
 72
     1
 73
     1
 90
        2
 40
-0.6
 41
30.0
 62
     5
 63
     7
 74
     1
 91
        4
 64
     7
 65
   257
 75
     1
175
     1
 42
1.0
 92
        0
 66
   257
 43
1.0
 76
     1
 77
     6
 78
     2
 67
     7
 79
     5
170
     0
171
     0
290
     0
174
     0
 93
       13
 44
0.0
173
     0
291
     1
 45
0.0
1001
ACAD
1000
AcDbSavedByObjectVersion
1070
     0
  0
VISUALSTYLE
  5
309
102
{ACAD_XDICTIONARY
360
426
102
}
102
{ACAD_REACTORS
330
306
102
}
330
306
100
AcDbVisualStyle
  2

 70
     2
 71
     2
 72
     2
 73
     1
 90
        2
 40
-0.6
 41
30.0
 62
     5
 63
     7
 74
     0
 91
        4
 64
     7
 65
   257
 75
     1
175
     1
 42
1.0
 92
        0
 66
     7
 43
1.0
 76
     1
 77
     6
 78
     2
 67
     7
 79
     5
170
     0
171
     0
290
     0
174
     0
 93
       13
 44
0.0
173
     0
291
     1
 45
0.0
1001
ACAD
1000
AcDbSavedByObjectVersion
1070
     0
  0
VISUALSTYLE
  5
30A
102
{ACAD_XDICTIONARY
360
428
102
}
102
{ACAD_REACTORS
330
306
102
}
330
306
100
AcDbVisualStyle
  2

 70
     3
 71
     2
 72
     2
 73
     1
 90
        2
 40
-0.6
 41
30.0
 62
     5
 63
     7
 74
     1
 91
        4
 64
     7
 65
   257
 75
     1
175
     1
 42
1.0
 92
        0
 66
   257
 43
1.0
 76
     1
 77
     6
 78
     2
 67
     7
 79
     5
170
     0
171
     0
290
     0
174
     0
 93
       13
 44
0.0
173
     0
291
     1
 45
0.0
1001
ACAD
1000
AcDbSavedByObjectVersion
1070
     0
  0
VISUALSTYLE
  5
3C3
102
{ACAD_XDICTIONARY
360
449
102
}
102
{ACAD_REACTORS
330
306
102
}
330
306
100
AcDbVisualStyle
  2

 70
     6
 71
     1
 72
     2
 73
     2
 90
        0
 40
-0.6
 41
-30.0
 62
     5
 63
     7
 74
     2
 91
        2
 64
     7
 65
   257
 75
     2
175
     1
 42
40.0
 92
        0
 66
   257
 43
1.0
 76
     1
 77
     6
 78
     2
 67
     7
 79
     3
170
     0
171
     0
290
     0
174
     0
 93
        1
 44
0.0
173
     0
291
     0
 45
0.0
1001
ACAD
1000
AcDbSavedByObjectVersion
1070
     0
  0
VISUALSTYLE
  5
3C9
102
{ACAD_XDICTIONARY
360
455
102
}
102
{ACAD_REACTORS
330
306
102
}
330
306
100
AcDbVisualStyle
  2

 70
    20
 71
     2
 72
     2
 73
     0
 90
        0
 40
-0.6
 41
-30.0
 62
     5
 63
     7
 74
     1
 91
        4
 64
     7
 65
   257
 75
     1
175
     1
 42
1.0
 92
       10
 66
     7
 43
1.0
 76
     1
 77
     6
 78
     2
 67
     7
 79
     5
170
     0
171
     0
290
     0
174
     0
 93
        1
 44
0.0
173
     0
291
     1
 45
0.0
1001
ACAD
1000
AcDbSavedByObjectVersion
1070
     0
  0
VISUALSTYLE
  5
314
102
{ACAD_XDICTIONARY
360
43C
102
}
102
{ACAD_REACTORS
330
306
102
}
330
306
100
AcDbVisualStyle
  2

 70
    14
 71
     2
 72
     2
 73
     0
 90
        0
 40
-0.6
 41
-30.0
 62
     5
 63
     7
 74
     1
 91
        4
 64
     7
 65
   257
 75
     7
175
     7
 42
1.0
 92
        8
 66
     7
 43
1.0
 76
     1
 77
     6
 78
     2
 67
     7
 79
     5
170
     0
171
     0
290
     0
174
     0
 93
        1
 44
0.0
173
     0
291
     1
 45
0.0
1001
ACAD
1000
AcDbSavedByObjectVersion
1070
     0
  0
VISUALSTYLE
  5
3CA
102
{ACAD_XDICTIONARY
360
457
102
}
102
{ACAD_REACTORS
330
306
102
}
330
306
100
AcDbVisualStyle
  2

 70
    21
 71
     2
 72
     2
 73
     0
 90
        0
 40
-0.6
 41
-30.0
 62
     5
 63
     7
 74
     1
 91
        4
 64
     7
 65
   257
 75
     1
175
     1
 42
1.0
 92
        9
 66
     7
 43
1.0
 76
     1
 77
     6
 78
     2
 67
     7
 79
     5
170
     0
171
     0
290
     0
174
     0
 93
        1
 44
0.0
173
     0
291
     1
 45
0.0
1001
ACAD
1000
AcDbSavedByObjectVersion
1070
     0
  0
VISUALSTYLE
  5
310
102
{ACAD_XDICTIONARY
360
434
102
}
102
{ACAD_REACTORS
330
306
102
}
330
306
100
AcDbVisualStyle
  2

 70
     8
 71
     2
 72
     2
 73
     0
 90
        0
 40
-0.6
 41
-30.0
 62
     5
 63
     7
 74
     1
 91
        0
 64
     7
 65
   257
 75
     1
175
     1
 42
1.0
 92
        8
 66
     8
 43
1.0
 76
     1
 77
     6
 78
     2
 67
     7
 79
     5
170
     0
171
     0
290
     0
174
     0
 93
       13
 44
0.0
173
     0
291
     0
 45
0.0
1001
ACAD
1000
AcDbSavedByObjectVersion
1070
     0
  0
VISUALSTYLE
  5
3C8
102
{ACAD_XDICTIONARY
360
453
102
}
102
{ACAD_REACTORS
330
306
102
}
330
306
100
AcDbVisualStyle
  2

 70
    27
 71
     2
 72
     2
 73
     1
 90
        2
 40
-0.6
 41
30.0
 62
     5
 63
     7
 74
     0
 91
        4
 64
     7
 65
   257
 75
     1
175
     1
 42
1.0
 92
        8
 66
   257
 43
1.0
 76
     1
 77
     6
 78
     2
 67
     8
 79
     3
170
     0
171
     0
290
     0
174
     0
 93
        5
 44
0.0
173
     0
291
     0
 45
0.0
1001
ACAD
1000
AcDbSavedByObjectVersion
1070
     0
  0
VISUALSTYLE
  5
3C7
102
{ACAD_XDICTIONARY
360
451
102
}
102
{ACAD_REACTORS
330
306
102
}
330
306
100
AcDbVisualStyle
  2

 70
    26
 71
     2
 72
     2
 73
     1
 90
        2
 40
-0.6
 41
30.0
 62
     5
 63
     7
 74
     1
 91
       10
 64
     7
 65
   257
 75
     2
175
     1
 42
1.0
 92
        8
 66
   257
 43
1.0
 76
     1
 77
     6
 78
     2
 67
     7
 79
     3
170
     0
171
     0
290
     0
174
     0
 93
        5
 44
0.0
173
     0
291
     0
 45
0.0
1001
ACAD
1000
AcDbSavedByObjectVersion
1070
     0
  0
VISUALSTYLE
  5
3C4
102
{ACAD_XDICTIONARY
360
44B
102
}
102
{ACAD_REACTORS
330
306
102
}
330
306
100
AcDbVisualStyle
  2

 70
    23
 71
     2
 72
     2
 73
     3
 90
        0
 40
-0.6
 41
-30.0
 62
     5
 63
     7
 74
     2
 91
        2
 64
     7
 65
     7
 75
     1
175
     1
 42
40.0
 92
        8
 66
     7
 43
1.0
 76
     1
 77
     6
 78
     2
 67
     7
 79
     3
170
     0
171
     0
290
     0
174
     0
 93
        1
 44
0.0
173
     0
291
     0
 45
0.0
1001
ACAD
1000
AcDbSavedByObjectVersion
1070
     0
  0
VISUALSTYLE
  5
3C5
102
{ACAD_XDICTIONARY
360
44D
102
}
102
{ACAD_REACTORS
330
306
102
}
330
306
100
AcDbVisualStyle
  2

 70
    24
 71
     1
 72
     2
 73
     2
 90
        0
 40
-0.6
 41
-30.0
 62
     5
 63
     7
 74
     2
 91
        2
 64
     7
 65
     7
 75
     1
175
     1
 42
40.0
 92
       11
 66
     7
 43
1.0
 76
     1
 77
     6
 78
     2
 67
     7
 79
     6
170
     0
171
     0
290
     0
174
     0
 93
        1
 44
0.0
173
     0
291
     0
 45
0.0
1001
ACAD
1000
AcDbSavedByObjectVersion
1070
     0
  0
VISUALSTYLE
  5
313
102
{ACAD_XDICTIONARY
360
43A
102
}
102
{ACAD_REACTORS
330
306
102
}
330
306
100
AcDbVisualStyle
  2

 70
    13
 71
     2
 72
     2
 73
     0
 90
        0
 40
-0.6
 41
-30.0
 62
     5
 63
     7
 74
     1
 91
        4
 64
     7
 65
   257
 75
     1
175
     1
 42
1.0
 92
       12
 66
     7
 43
1.0
 76
     1
 77
     6
 78
     2
 67
     7
 79
     5
170
     0
171
     0
290
     0
174
     0
 93
        1
 44
0.0
173
     0
291
     1
 45
0.0
1001
ACAD
1000
AcDbSavedByObjectVersion
1070
     0
  0
VISUALSTYLE
  5
3C2
102
{ACAD_XDICTIONARY
360
447
102
}
102
{ACAD_REACTORS
330
306
102
}
330
306
100
AcDbVisualStyle
  2

 70
     5
 71
     0
 72
     2
 73
     0
 90
        0
 40
-0.6
 41
-30.0
 62
     5
 63
     7
 74
     1
 91
        4
 64
     7
 65
   257
 75
     1
175
     1
 42
1.0
 92
        0
 66
   257
 43
1.0
 76
     1
 77
     6
 78
     2
 67
     7
 79
     3
170
     0
171
     0
290
     0
174
     0
 93
        1
 44
0.0
173
     0
291
     0
 45
0.0
1001
ACAD
1000
AcDbSavedByObjectVersion
1070
     0
  0
VISUALSTYLE
  5
3C6
102
{ACAD_XDICTIONARY
360
44F
102
}
102
{ACAD_REACTORS
330
306
102
}
330
306
100
AcDbVisualStyle
  2

 70
    25
 71
     2
 72
     2
 73
     1
 90
        1
 40
0.5
 41
-30.0
 62
     5
 63
     7
 74
     1
 91
        0
 64
     7
 65
   257
 75
     1
175
     1
 42
1.0
 92
        8
 66
     7
 43
1.0
 76
     1
 77
     6
 78
     2
 67
     7
 79
     3
170
     0
171
     0
290
     0
174
     0
 93
       13
 44
0.0
173
     0
291
     0
 45
0.0
1001
ACAD
1000
AcDbSavedByObjectVersion
1070
     0
  0
DICTIONARYVAR
  5
389
102
{ACAD_REACTORS
330
386
102
}
330
386
100
DictionaryVariables
280
     0
  1
1:1
  0
DICTIONARYVAR
  5
388
102
{ACAD_REACTORS
330
386
102
}
330
386
100
DictionaryVariables
280
     0
  1
STANDARD
  0
DICTIONARYVAR
  5
387
102
{ACAD_REACTORS
330
386
102
}
330
386
100
DictionaryVariables
280
     0
  1
STANDARD
  0
DICTIONARYVAR
  5
38C
102
{ACAD_REACTORS
330
386
102
}
330
386
100
DictionaryVariables
280
     0
  1
1
  0
DICTIONARYVAR
  5
38B
102
{ACAD_REACTORS
330
386
102
}
330
386
100
DictionaryVariables
280
     0
  1
0
  0
DICTIONARYVAR
  5
38A
102
{ACAD_REACTORS
330
386
102
}
330
386
100
DictionaryVariables
280
     0
  1
127
  0
DICTIONARYVAR
  5
41E
102
{ACAD_REACTORS
330
386
102
}
330
386
100
DictionaryVariables
280
     0
  1
2
  0
DICTIONARY
  5
443
330
350
100
AcDbDictionary
280
     1
281
     1
  3
ACAD_XREC_ROUNDTRIP
360
444
  0
DICTIONARY
  5
445
330
354
100
AcDbDictionary
280
     1
281
     1
  3
ACAD_XREC_ROUNDTRIP
360
446
  0
DICTIONARY
  5
2F7
330
2F6
100
AcDbDictionary
280
     1
281
     1
  3
ACAD_XREC_ROUNDTRIP
360
3B6
  3
BUMPTILE
360
2F9
  3
DIFFUSETILE
360
2F8
  3
OPACITYTILE
360
2FC
  3
REFLECTIONTILE
360
2FB
  3
REFRACTIONTILE
360
2FD
  3
SPECULARTILE
360
2FA
  0
DICTIONARY
  5
2EF
330
2EE
100
AcDbDictionary
280
     1
281
     1
  3
ACAD_XREC_ROUNDTRIP
360
3B5
  3
BUMPTILE
360
2F1
  3
DIFFUSETILE
360
2F0
  3
OPACITYTILE
360
2F4
  3
REFLECTIONTILE
360
2F3
  3
REFRACTIONTILE
360
2F5
  3
SPECULARTILE
360
2F2
  0
DICTIONARY
  5
2FF
330
2FE
100
AcDbDictionary
280
     1
281
     1
  3
ACAD_XREC_ROUNDTRIP
360
3B7
  3
BUMPTILE
360
301
  3
DIFFUSETILE
360
300
  3
OPACITYTILE
360
304
  3
REFLECTIONTILE
360
303
  3
REFRACTIONTILE
360
305
  3
SPECULARTILE
360
302
  0
DICTIONARY
  5
3B1
330
349
100
AcDbDictionary
280
     1
281
     1
  3
ACAD_ROUNDTRIP_2008_TABLESTYLE_CELLSTYLEMAP
360
41F
  3
ACAD_XREC_ROUNDTRIP
360
442
  0
DICTIONARY
  5
42C
330
30C
100
AcDbDictionary
280
     1
281
     1
  3
ACAD_XREC_ROUNDTRIP
360
42D
  0
DICTIONARY
  5
430
330
30E
100
AcDbDictionary
280
     1
281
     1
  3
ACAD_XREC_ROUNDTRIP
360
431
  0
DICTIONARY
  5
42E
330
30D
100
AcDbDictionary
280
     1
281
     1
  3
ACAD_XREC_ROUNDTRIP
360
42F
  0
DICTIONARY
  5
42A
330
30B
100
AcDbDictionary
280
     1
281
     1
  3
ACAD_XREC_ROUNDTRIP
360
42B
  0
DICTIONARY
  5
438
330
312
100
AcDbDictionary
280
     1
281
     1
  3
ACAD_XREC_ROUNDTRIP
360
439
  0
DICTIONARY
  5
440
330
316
100
AcDbDictionary
280
     1
281
     1
  3
ACAD_XREC_ROUNDTRIP
360
441
  0
DICTIONARY
  5
432
330
30F
100
AcDbDictionary
280
     1
281
     1
  3
ACAD_XREC_ROUNDTRIP
360
433
  0
DICTIONARY
  5
436
330
311
100
AcDbDictionary
280
     1
281
     1
  3
ACAD_XREC_ROUNDTRIP
360
437
  0
DICTIONARY
  5
459
330
3CB
100
AcDbDictionary
280
     1
281
     1
  3
ACAD_XREC_ROUNDTRIP
360
45A
  0
DICTIONARY
  5
43E
330
315
100
AcDbDictionary
280
     1
281
     1
  3
ACAD_XREC_ROUNDTRIP
360
43F
  0
DICTIONARY
  5
422
330
307
100
AcDbDictionary
280
     1
281
     1
  3
ACAD_XREC_ROUNDTRIP
360
423
  0
DICTIONARY
  5
424
330
308
100
AcDbDictionary
280
     1
281
     1
  3
ACAD_XREC_ROUNDTRIP
360
425
  0
DICTIONARY
  5
426
330
309
100
AcDbDictionary
280
     1
281
     1
  3
ACAD_XREC_ROUNDTRIP
360
427
  0
DICTIONARY
  5
428
330
30A
100
AcDbDictionary
280
     1
281
     1
  3
ACAD_XREC_ROUNDTRIP
360
429
  0
DICTIONARY
  5
449
330
3C3
100
AcDbDictionary
280
     1
281
     1
  3
ACAD_XREC_ROUNDTRIP
360
44A
  0
DICTIONARY
  5
455
330
3C9
100
AcDbDictionary
280
     1
281
     1
  3
ACAD_XREC_ROUNDTRIP
360
456
  0
DICTIONARY
  5
43C
330
314
100
AcDbDictionary
280
     1
281
     1
  3
ACAD_XREC_ROUNDTRIP
360
43D
  0
DICTIONARY
  5
457
330
3CA
100
AcDbDictionary
280
     1
281
     1
  3
ACAD_XREC_ROUNDTRIP
360
458
  0
DICTIONARY
  5
434
330
310
100
AcDbDictionary
280
     1
281
     1
  3
ACAD_XREC_ROUNDTRIP
360
435
  0
DICTIONARY
  5
453
330
3C8
100
AcDbDictionary
280
     1
281
     1
  3
ACAD_XREC_ROUNDTRIP
360
454
  0
DICTIONARY
  5
451
330
3C7
100
AcDbDictionary
280
     1
281
     1
  3
ACAD_XREC_ROUNDTRIP
360
452
  0
DICTIONARY
  5
44B
330
3C4
100
AcDbDictionary
280
     1
281
     1
  3
ACAD_XREC_ROUNDTRIP
360
44C
  0
DICTIONARY
  5
44D
330
3C5
100
AcDbDictionary
280
     1
281
     1
  3
ACAD_XREC_ROUNDTRIP
360
44E
  0
DICTIONARY
  5
43A
330
313
100
AcDbDictionary
280
     1
281
     1
  3
ACAD_XREC_ROUNDTRIP
360
43B
  0
DICTIONARY
  5
447
330
3C2
100
AcDbDictionary
280
     1
281
     1
  3
ACAD_XREC_ROUNDTRIP
360
448
  0
DICTIONARY
  5
44F
330
3C6
100
AcDbDictionary
280
     1
281
     1
  3
ACAD_XREC_ROUNDTRIP
360
450
  0
XRECORD
  5
444
102
{ACAD_REACTORS
330
443
102
}
330
443
100
AcDbXrecord
280
     1
102
SHADEPLOT
 70
     0
102
SHADEPLOTRESLEVEL
 70
     2
102
SHADEPLOTCUSTOMDPI
 70
   300
  0
XRECORD
  5
446
102
{ACAD_REACTORS
330
445
102
}
330
445
100
AcDbXrecord
280
     1
102
SHADEPLOT
 70
     0
102
SHADEPLOTRESLEVEL
 70
     2
102
SHADEPLOTCUSTOMDPI
 70
   300
  0
XRECORD
  5
3B6
102
{ACAD_REACTORS
330
2F7
102
}
330
2F7
100
AcDbXrecord
280
     1
102
MATERIAL
148
0.0
149
0.0
149
0.0
 93
        0
 94
      127
282
     0
 72
     0
 77
     0
171
     0
175
     0
179
     0
273
     0
  0
XRECORD
  5
2F9
102
{ACAD_REACTORS
330
2F7
102
}
330
2F7
100
AcDbXrecord
280
     1
270
     1
271
     1
  0
XRECORD
  5
2F8
102
{ACAD_REACTORS
330
2F7
102
}
330
2F7
100
AcDbXrecord
280
     1
270
     1
271
     1
  0
XRECORD
  5
2FC
102
{ACAD_REACTORS
330
2F7
102
}
330
2F7
100
AcDbXrecord
280
     1
270
     1
271
     1
  0
XRECORD
  5
2FB
102
{ACAD_REACTORS
330
2F7
102
}
330
2F7
100
AcDbXrecord
280
     1
270
     1
271
     1
  0
XRECORD
  5
2FD
102
{ACAD_REACTORS
330
2F7
102
}
330
2F7
100
AcDbXrecord
280
     1
270
     1
271
     1
  0
XRECORD
  5
2FA
102
{ACAD_REACTORS
330
2F7
102
}
330
2F7
100
AcDbXrecord
280
     1
270
     1
271
     1
  0
XRECORD
  5
3B5
102
{ACAD_REACTORS
330
2EF
102
}
330
2EF
100
AcDbXrecord
280
     1
102
MATERIAL
148
0.0
149
0.0
149
0.0
 93
        0
 94
      127
282
     0
 72
     0
 77
     0
171
     0
175
     0
179
     0
273
     0
  0
XRECORD
  5
2F1
102
{ACAD_REACTORS
330
2EF
102
}
330
2EF
100
AcDbXrecord
280
     1
270
     1
271
     1
  0
XRECORD
  5
2F0
102
{ACAD_REACTORS
330
2EF
102
}
330
2EF
100
AcDbXrecord
280
     1
270
     1
271
     1
  0
XRECORD
  5
2F4
102
{ACAD_REACTORS
330
2EF
102
}
330
2EF
100
AcDbXrecord
280
     1
270
     1
271
     1
  0
XRECORD
  5
2F3
102
{ACAD_REACTORS
330
2EF
102
}
330
2EF
100
AcDbXrecord
280
     1
270
     1
271
     1
  0
XRECORD
  5
2F5
102
{ACAD_REACTORS
330
2EF
102
}
330
2EF
100
AcDbXrecord
280
     1
270
     1
271
     1
  0
XRECORD
  5
2F2
102
{ACAD_REACTORS
330
2EF
102
}
330
2EF
100
AcDbXrecord
280
     1
270
     1
271
     1
  0
XRECORD
  5
3B7
102
{ACAD_REACTORS
330
2FF
102
}
330
2FF
100
AcDbXrecord
280
     1
102
MATERIAL
148
0.0
149
0.0
149
0.0
 93
        0
 94
      127
282
     0
 72
     0
 77
     0
171
     0
175
     0
179
     0
273
     0
  0
XRECORD
  5
301
102
{ACAD_REACTORS
330
2FF
102
}
330
2FF
100
AcDbXrecord
280
     1
270
     1
271
     1
  0
XRECORD
  5
300
102
{ACAD_REACTORS
330
2FF
102
}
330
2FF
100
AcDbXrecord
280
     1
270
     1
271
     1
  0
XRECORD
  5
304
102
{ACAD_REACTORS
330
2FF
102
}
330
2FF
100
AcDbXrecord
280
     1
270
     1
271
     1
  0
XRECORD
  5
303
102
{ACAD_REACTORS
330
2FF
102
}
330
2FF
100
AcDbXrecord
280
     1
270
     1
271
     1
  0
XRECORD
  5
305
102
{ACAD_REACTORS
330
2FF
102
}
330
2FF
100
AcDbXrecord
280
     1
270
     1
271
     1
  0
XRECORD
  5
302
102
{ACAD_REACTORS
330
2FF
102
}
330
2FF
100
AcDbXrecord
280
     1
270
     1
271
     1
  0
CELLSTYLEMAP
  5
41F
102
{ACAD_REACTORS
330
3B1
102
}
330
3B1
100
AcDbCellStyleMap
 90
        3
300
CELLSTYLE
  1
TABLEFORMAT_BEGIN
 90
        5
170
     1
 91
        0
 92
    32768
 62
   257
 93
        1
300
CONTENTFORMAT
  1
CONTENTFORMAT_BEGIN
 90
        0
 91
        0
 92
      512
 93
        0
300

 40
0.0
140
1.0
 94
        5
 62
     0
340
33A
144
0.25
309
CONTENTFORMAT_END
171
     1
301
MARGIN
  1
CELLMARGIN_BEGIN
 40
0.06
 40
0.06
 40
0.06
 40
0.06
 40
0.18
 40
0.18
309
CELLMARGIN_END
 94
        6
 95
        1
302
GRIDFORMAT
  1
GRIDFORMAT_BEGIN
 90
        0
 91
        1
 62
     0
 92
       -2
340
0
 93
        0
 40
0.045
309
GRIDFORMAT_END
 95
        2
302
GRIDFORMAT
  1
GRIDFORMAT_BEGIN
 90
        0
 91
        1
 62
     0
 92
       -2
340
0
 93
        0
 40
0.045
309
GRIDFORMAT_END
 95
        4
302
GRIDFORMAT
  1
GRIDFORMAT_BEGIN
 90
        0
 91
        1
 62
     0
 92
       -2
340
0
 93
        0
 40
0.045
309
GRIDFORMAT_END
 95
        8
302
GRIDFORMAT
  1
GRIDFORMAT_BEGIN
 90
        0
 91
        1
 62
     0
 92
       -2
340
0
 93
        0
 40
0.045
309
GRIDFORMAT_END
 95
       16
302
GRIDFORMAT
  1
GRIDFORMAT_BEGIN
 90
        0
 91
        1
 62
     0
 92
       -2
340
0
 93
        0
 40
0.045
309
GRIDFORMAT_END
 95
       32
302
GRIDFORMAT
  1
GRIDFORMAT_BEGIN
 90
        0
 91
        1
 62
     0
 92
       -2
340
0
 93
        0
 40
0.045
309
GRIDFORMAT_END
309
TABLEFORMAT_END
  1
CELLSTYLE_BEGIN
 90
        1
 91
        1
300
_TITLE
309
CELLSTYLE_END
300
CELLSTYLE
  1
TABLEFORMAT_BEGIN
 90
        5
170
     1
 91
        0
 92
        0
 62
   257
 93
        1
300
CONTENTFORMAT
  1
CONTENTFORMAT_BEGIN
 90
        0
 91
        0
 92
      512
 93
        0
300

 40
0.0
140
1.0
 94
        5
 62
     0
340
33A
144
0.18
309
CONTENTFORMAT_END
171
     1
301
MARGIN
  1
CELLMARGIN_BEGIN
 40
0.06
 40
0.06
 40
0.06
 40
0.06
 40
0.18
 40
0.18
309
CELLMARGIN_END
 94
        6
 95
        1
302
GRIDFORMAT
  1
GRIDFORMAT_BEGIN
 90
        0
 91
        1
 62
     0
 92
       -2
340
0
 93
        0
 40
0.045
309
GRIDFORMAT_END
 95
        2
302
GRIDFORMAT
  1
GRIDFORMAT_BEGIN
 90
        0
 91
        1
 62
     0
 92
       -2
340
0
 93
        0
 40
0.045
309
GRIDFORMAT_END
 95
        4
302
GRIDFORMAT
  1
GRIDFORMAT_BEGIN
 90
        0
 91
        1
 62
     0
 92
       -2
340
0
 93
        0
 40
0.045
309
GRIDFORMAT_END
 95
        8
302
GRIDFORMAT
  1
GRIDFORMAT_BEGIN
 90
        0
 91
        1
 62
     0
 92
       -2
340
0
 93
        0
 40
0.045
309
GRIDFORMAT_END
 95
       16
302
GRIDFORMAT
  1
GRIDFORMAT_BEGIN
 90
        0
 91
        1
 62
     0
 92
       -2
340
0
 93
        0
 40
0.045
309
GRIDFORMAT_END
 95
       32
302
GRIDFORMAT
  1
GRIDFORMAT_BEGIN
 90
        0
 91
        1
 62
     0
 92
       -2
340
0
 93
        0
 40
0.045
309
GRIDFORMAT_END
309
TABLEFORMAT_END
  1
CELLSTYLE_BEGIN
 90
        2
 91
        1
300
_HEADER
309
CELLSTYLE_END
300
CELLSTYLE
  1
TABLEFORMAT_BEGIN
 90
        5
170
     1
 91
        0
 92
        0
 62
   257
 93
        1
300
CONTENTFORMAT
  1
CONTENTFORMAT_BEGIN
 90
        0
 91
        0
 92
      512
 93
        0
300

 40
0.0
140
1.0
 94
        2
 62
     0
340
33A
144
0.18
309
CONTENTFORMAT_END
171
     1
301
MARGIN
  1
CELLMARGIN_BEGIN
 40
0.06
 40
0.06
 40
0.06
 40
0.06
 40
0.18
 40
0.18
309
CELLMARGIN_END
 94
        6
 95
        1
302
GRIDFORMAT
  1
GRIDFORMAT_BEGIN
 90
        0
 91
        1
 62
     0
 92
       -2
340
0
 93
        0
 40
0.045
309
GRIDFORMAT_END
 95
        2
302
GRIDFORMAT
  1
GRIDFORMAT_BEGIN
 90
        0
 91
        1
 62
     0
 92
       -2
340
0
 93
        0
 40
0.045
309
GRIDFORMAT_END
 95
        4
302
GRIDFORMAT
  1
GRIDFORMAT_BEGIN
 90
        0
 91
        1
 62
     0
 92
       -2
340
0
 93
        0
 40
0.045
309
GRIDFORMAT_END
 95
        8
302
GRIDFORMAT
  1
GRIDFORMAT_BEGIN
 90
        0
 91
        1
 62
     0
 92
       -2
340
0
 93
        0
 40
0.045
309
GRIDFORMAT_END
 95
       16
302
GRIDFORMAT
  1
GRIDFORMAT_BEGIN
 90
        0
 91
        1
 62
     0
 92
       -2
340
0
 93
        0
 40
0.045
309
GRIDFORMAT_END
 95
       32
302
GRIDFORMAT
  1
GRIDFORMAT_BEGIN
 90
        0
 91
        1
 62
     0
 92
       -2
340
0
 93
        0
 40
0.045
309
GRIDFORMAT_END
309
TABLEFORMAT_END
  1
CELLSTYLE_BEGIN
 90
        3
 91
        2
300
_DATA
309
CELLSTYLE_END
  0
XRECORD
  5
442
102
{ACAD_REACTORS
330
3B1
102
}
330
3B1
100
AcDbXrecord
280
     1
102
ACAD_ROUNDTRIP_PRE2007_TABLESTYLE
 90
      512
 91
        0
  1

 92
      512
 93
        0
  2

 94
      512
 95
        0
  3

  0
XRECORD
  5
42D
102
{ACAD_REACTORS
330
42C
102
}
330
42C
100
AcDbXrecord
280
     1
102
RTVSPropertyOp0
 70
     1
102
RTVSPropertyOp1
 70
     1
102
RTVSPropertyOp2
 70
     1
102
RTVSPropertyOp3
 70
     1
102
RTVSPropertyOp4
 70
     1
102
RTVSPropertyOp5
 70
     1
102
RTVSPropertyOp6
 70
     1
102
RTVSPropertyOp7
 70
     1
102
RTVSPropertyOp8
 70
     1
102
RTVSPropertyOp9
 70
     1
102
RTVSPropertyOp10
 70
     1
102
RTVSPropertyOp11
 70
     1
102
RTVSPropertyOp12
 70
     1
102
RTVSPropertyOp13
 70
     1
102
RTVSPropertyOp14
 70
     1
102
RTVSPropertyOp15
 70
     1
102
RTVSPropertyOp16
 70
     1
102
RTVSPropertyOp17
 70
     1
102
RTVSPropertyOp18
 70
     1
102
RTVSPropertyOp19
 70
     1
102
RTVSPropertyOp20
 70
     1
102
RTVSPropertyOp21
 70
     1
102
RTVSPropertyOp22
 70
     1
102
RTVSPropertyOp23
 70
     1
102
RTVSPropertyOp24
 70
     1
102
RTVSPropertyOp25
 70
     1
102
RTVSPropertyOp26
 70
     1
102
RTVSPropertyOp27
 70
     1
102
RTVSPropertyOp28
 70
     1
102
RTVSPropertyOp29
 70
     1
102
RTVSPropertyOp30
 70
     1
102
RTVSPropertyOp31
 70
     1
102
RTVSPropertyOp32
 70
     1
  0
XRECORD
  5
431
102
{ACAD_REACTORS
330
430
102
}
330
430
100
AcDbXrecord
280
     1
102
RTVSPropertyOp0
 70
     1
102
RTVSPropertyOp1
 70
     1
102
RTVSPropertyOp2
 70
     1
102
RTVSPropertyOp3
 70
     1
102
RTVSPropertyOp4
 70
     1
102
RTVSPropertyOp5
 70
     1
102
RTVSPropertyOp6
 70
     1
102
RTVSPropertyOp7
 70
     1
102
RTVSPropertyOp8
 70
     1
102
RTVSPropertyOp9
 70
     1
102
RTVSPropertyOp10
 70
     1
102
RTVSPropertyOp11
 70
     1
102
RTVSPropertyOp12
 70
     1
102
RTVSPropertyOp13
 70
     1
102
RTVSPropertyOp14
 70
     1
102
RTVSPropertyOp15
 70
     1
102
RTVSPropertyOp16
 70
     1
102
RTVSPropertyOp17
 70
     1
102
RTVSPropertyOp18
 70
     1
102
RTVSPropertyOp19
 70
     1
102
RTVSPropertyOp20
 70
     1
102
RTVSPropertyOp21
 70
     1
102
RTVSPropertyOp22
 70
     1
102
RTVSPropertyOp23
 70
     1
102
RTVSPropertyOp24
 70
     1
102
RTVSPropertyOp25
 70
     1
102
RTVSPropertyOp26
 70
     1
102
RTVSPropertyOp27
 70
     1
102
RTVSPropertyOp28
 70
     1
102
RTVSPropertyOp29
 70
     1
102
RTVSPropertyOp30
 70
     1
102
RTVSPropertyOp31
 70
     1
102
RTVSPropertyOp32
 70
     1
  0
XRECORD
  5
42F
102
{ACAD_REACTORS
330
42E
102
}
330
42E
100
AcDbXrecord
280
     1
102
RTVSPropertyOp0
 70
     1
102
RTVSPropertyOp1
 70
     1
102
RTVSPropertyOp2
 70
     1
102
RTVSPropertyOp3
 70
     1
102
RTVSPropertyOp4
 70
     1
102
RTVSPropertyOp5
 70
     1
102
RTVSPropertyOp6
 70
     1
102
RTVSPropertyOp7
 70
     1
102
RTVSPropertyOp8
 70
     1
102
RTVSPropertyOp9
 70
     1
102
RTVSPropertyOp10
 70
     1
102
RTVSPropertyOp11
 70
     1
102
RTVSPropertyOp12
 70
     1
102
RTVSPropertyOp13
 70
     1
102
RTVSPropertyOp14
 70
     1
102
RTVSPropertyOp15
 70
     1
102
RTVSPropertyOp16
 70
     1
102
RTVSPropertyOp17
 70
     1
102
RTVSPropertyOp18
 70
     1
102
RTVSPropertyOp19
 70
     1
102
RTVSPropertyOp20
 70
     1
102
RTVSPropertyOp21
 70
     1
102
RTVSPropertyOp22
 70
     1
102
RTVSPropertyOp23
 70
     1
102
RTVSPropertyOp24
 70
     1
102
RTVSPropertyOp25
 70
     1
102
RTVSPropertyOp26
 70
     1
102
RTVSPropertyOp27
 70
     1
102
RTVSPropertyOp28
 70
     1
102
RTVSPropertyOp29
 70
     1
102
RTVSPropertyOp30
 70
     1
102
RTVSPropertyOp31
 70
     1
102
RTVSPropertyOp32
 70
     1
  0
XRECORD
  5
42B
102
{ACAD_REACTORS
330
42A
102
}
330
42A
100
AcDbXrecord
280
     1
102
RTVSPropertyOp0
 70
     1
102
RTVSPropertyOp1
 70
     1
102
RTVSPropertyOp2
 70
     1
102
RTVSPropertyOp3
 70
     1
102
RTVSPropertyOp4
 70
     1
102
RTVSPropertyOp5
 70
     1
102
RTVSPropertyOp6
 70
     1
102
RTVSPropertyOp7
 70
     1
102
RTVSPropertyOp8
 70
     1
102
RTVSPropertyOp9
 70
     1
102
RTVSPropertyOp10
 70
     1
102
RTVSPropertyOp11
 70
     1
102
RTVSPropertyOp12
 70
     1
102
RTVSPropertyOp13
 70
     1
102
RTVSPropertyOp14
 70
     1
102
RTVSPropertyOp15
 70
     1
102
RTVSPropertyOp16
 70
     1
102
RTVSPropertyOp17
 70
     1
102
RTVSPropertyOp18
 70
     1
102
RTVSPropertyOp19
 70
     1
102
RTVSPropertyOp20
 70
     1
102
RTVSPropertyOp21
 70
     1
102
RTVSPropertyOp22
 70
     1
102
RTVSPropertyOp23
 70
     1
102
RTVSPropertyOp24
 70
     1
102
RTVSPropertyOp25
 70
     1
102
RTVSPropertyOp26
 70
     1
102
RTVSPropertyOp27
 70
     1
102
RTVSPropertyOp28
 70
     1
102
RTVSPropertyOp29
 70
     1
102
RTVSPropertyOp30
 70
     1
102
RTVSPropertyOp31
 70
     1
102
RTVSPropertyOp32
 70
     1
  0
XRECORD
  5
439
102
{ACAD_REACTORS
330
438
102
}
330
438
100
AcDbXrecord
280
     1
102
RTVSPropertyOp0
 70
     1
102
RTVSPropertyOp1
 70
     1
102
RTVSPropertyOp2
 70
     1
102
RTVSPropertyOp3
 70
     1
102
RTVSPropertyOp4
 70
     1
102
RTVSPropertyOp5
 70
     1
102
RTVSPropertyOp6
 70
     1
102
RTVSPropertyOp7
 70
     1
102
RTVSPropertyOp8
 70
     1
102
RTVSPropertyOp9
 70
     1
102
RTVSPropertyOp10
 70
     1
102
RTVSPropertyOp11
 70
     1
102
RTVSPropertyOp12
 70
     1
102
RTVSPropertyOp13
 70
     1
102
RTVSPropertyOp14
 70
     1
102
RTVSPropertyOp15
 70
     1
102
RTVSPropertyOp16
 70
     1
102
RTVSPropertyOp17
 70
     1
102
RTVSPropertyOp18
 70
     1
102
RTVSPropertyOp19
 70
     1
102
RTVSPropertyOp20
 70
     1
102
RTVSPropertyOp21
 70
     1
102
RTVSPropertyOp22
 70
     1
102
RTVSPropertyOp23
 70
     1
102
RTVSPropertyOp24
 70
     1
102
RTVSPropertyOp25
 70
     1
102
RTVSPropertyOp26
 70
     1
102
RTVSPropertyOp27
 70
     1
102
RTVSPropertyOp28
 70
     1
102
RTVSPropertyOp29
 70
     1
102
RTVSPropertyOp30
 70
     1
102
RTVSPropertyOp31
 70
     1
102
RTVSPropertyOp32
 70
     1
  0
XRECORD
  5
441
102
{ACAD_REACTORS
330
440
102
}
330
440
100
AcDbXrecord
280
     1
102
RTVSPropertyOp0
 70
     1
102
RTVSPropertyOp1
 70
     1
102
RTVSPropertyOp2
 70
     1
102
RTVSPropertyOp3
 70
     1
102
RTVSPropertyOp4
 70
     1
102
RTVSPropertyOp5
 70
     1
102
RTVSPropertyOp6
 70
     1
102
RTVSPropertyOp7
 70
     1
102
RTVSPropertyOp8
 70
     1
102
RTVSPropertyOp9
 70
     1
102
RTVSPropertyOp10
 70
     1
102
RTVSPropertyOp11
 70
     1
102
RTVSPropertyOp12
 70
     1
102
RTVSPropertyOp13
 70
     1
102
RTVSPropertyOp14
 70
     1
102
RTVSPropertyOp15
 70
     1
102
RTVSPropertyOp16
 70
     1
102
RTVSPropertyOp17
 70
     1
102
RTVSPropertyOp18
 70
     1
102
RTVSPropertyOp19
 70
     1
102
RTVSPropertyOp20
 70
     1
102
RTVSPropertyOp21
 70
     1
102
RTVSPropertyOp22
 70
     1
102
RTVSPropertyOp23
 70
     1
102
RTVSPropertyOp24
 70
     1
102
RTVSPropertyOp25
 70
     1
102
RTVSPropertyOp26
 70
     1
102
RTVSPropertyOp27
 70
     1
102
RTVSPropertyOp28
 70
     1
102
RTVSPropertyOp29
 70
     1
102
RTVSPropertyOp30
 70
     1
102
RTVSPropertyOp31
 70
     1
102
RTVSPropertyOp32
 70
     1
  0
XRECORD
  5
433
102
{ACAD_REACTORS
330
432
102
}
330
432
100
AcDbXrecord
280
     1
102
RTVSPropertyOp0
 70
     1
102
RTVSPropertyOp1
 70
     1
102
RTVSPropertyOp2
 70
     1
102
RTVSPropertyOp3
 70
     1
102
RTVSPropertyOp4
 70
     1
102
RTVSPropertyOp5
 70
     1
102
RTVSPropertyOp6
 70
     1
102
RTVSPropertyOp7
 70
     1
102
RTVSPropertyOp8
 70
     1
102
RTVSPropertyOp9
 70
     1
102
RTVSPropertyOp10
 70
     1
102
RTVSPropertyOp11
 70
     1
102
RTVSPropertyOp12
 70
     1
102
RTVSPropertyOp13
 70
     1
102
RTVSPropertyOp14
 70
     1
102
RTVSPropertyOp15
 70
     1
102
RTVSPropertyOp16
 70
     1
102
RTVSPropertyOp17
 70
     1
102
RTVSPropertyOp18
 70
     1
102
RTVSPropertyOp19
 70
     1
102
RTVSPropertyOp20
 70
     1
102
RTVSPropertyOp21
 70
     1
102
RTVSPropertyOp22
 70
     1
102
RTVSPropertyOp23
 70
     1
102
RTVSPropertyOp24
 70
     1
102
RTVSPropertyOp25
 70
     1
102
RTVSPropertyOp26
 70
     1
102
RTVSPropertyOp27
 70
     1
102
RTVSPropertyOp28
 70
     1
102
RTVSPropertyOp29
 70
     1
102
RTVSPropertyOp30
 70
     1
102
RTVSPropertyOp31
 70
     1
102
RTVSPropertyOp32
 70
     1
  0
XRECORD
  5
437
102
{ACAD_REACTORS
330
436
102
}
330
436
100
AcDbXrecord
280
     1
102
RTVSPropertyOp0
 70
     1
102
RTVSPropertyOp1
 70
     1
102
RTVSPropertyOp2
 70
     1
102
RTVSPropertyOp3
 70
     1
102
RTVSPropertyOp4
 70
     1
102
RTVSPropertyOp5
 70
     1
102
RTVSPropertyOp6
 70
     1
102
RTVSPropertyOp7
 70
     1
102
RTVSPropertyOp8
 70
     1
102
RTVSPropertyOp9
 70
     1
102
RTVSPropertyOp10
 70
     1
102
RTVSPropertyOp11
 70
     1
102
RTVSPropertyOp12
 70
     1
102
RTVSPropertyOp13
 70
     1
102
RTVSPropertyOp14
 70
     1
102
RTVSPropertyOp15
 70
     1
102
RTVSPropertyOp16
 70
     1
102
RTVSPropertyOp17
 70
     1
102
RTVSPropertyOp18
 70
     1
102
RTVSPropertyOp19
 70
     1
102
RTVSPropertyOp20
 70
     1
102
RTVSPropertyOp21
 70
     1
102
RTVSPropertyOp22
 70
     1
102
RTVSPropertyOp23
 70
     1
102
RTVSPropertyOp24
 70
     1
102
RTVSPropertyOp25
 70
     1
102
RTVSPropertyOp26
 70
     1
102
RTVSPropertyOp27
 70
     1
102
RTVSPropertyOp28
 70
     1
102
RTVSPropertyOp29
 70
     1
102
RTVSPropertyOp30
 70
     1
102
RTVSPropertyOp31
 70
     1
102
RTVSPropertyOp32
 70
     1
  0
XRECORD
  5
45A
102
{ACAD_REACTORS
330
459
102
}
330
459
100
AcDbXrecord
280
     1
102
RTVSPropertyOp0
 70
     0
102
RTVSPropertyOp1
 70
     0
102
RTVSPropertyOp2
 70
     0
102
RTVSPropertyOp3
 70
     0
102
RTVSPropertyOp4
 70
     0
102
RTVSPropertyOp5
 70
     0
102
RTVSPropertyOp6
 70
     0
102
RTVSPropertyOp7
 70
     0
102
RTVSPropertyOp8
 70
     0
102
RTVSPropertyOp9
 70
     0
102
RTVSPropertyOp10
 70
     0
102
RTVSPropertyOp11
 70
     0
102
RTVSPropertyOp12
 70
     0
102
RTVSPropertyOp13
 70
     0
102
RTVSPropertyOp14
 70
     2
102
RTVSPropertyOp15
 70
     0
102
RTVSPropertyOp16
 70
     0
102
RTVSPropertyOp17
 70
     0
102
RTVSPropertyOp18
 70
     0
102
RTVSPropertyOp19
 70
     0
102
RTVSPropertyOp20
 70
     0
102
RTVSPropertyOp21
 70
     0
102
RTVSPropertyOp22
 70
     0
102
RTVSPropertyOp23
 70
     0
102
RTVSPropertyOp24
 70
     0
102
RTVSPropertyOp25
 70
     0
102
RTVSPropertyOp26
 70
     0
102
RTVSPropertyOp27
 70
     0
102
RTVSPropertyOp28
 70
     0
102
RTVSPropertyOp29
 70
     0
102
RTVSPropertyOp30
 70
     0
102
RTVSPropertyOp31
 70
     0
102
RTVSPropertyOp32
 70
     0
  0
XRECORD
  5
43F
102
{ACAD_REACTORS
330
43E
102
}
330
43E
100
AcDbXrecord
280
     1
102
RTVSPropertyOp0
 70
     1
102
RTVSPropertyOp1
 70
     1
102
RTVSPropertyOp2
 70
     1
102
RTVSPropertyOp3
 70
     1
102
RTVSPropertyOp4
 70
     1
102
RTVSPropertyOp5
 70
     1
102
RTVSPropertyOp6
 70
     1
102
RTVSPropertyOp7
 70
     1
102
RTVSPropertyOp8
 70
     1
102
RTVSPropertyOp9
 70
     1
102
RTVSPropertyOp10
 70
     1
102
RTVSPropertyOp11
 70
     1
102
RTVSPropertyOp12
 70
     1
102
RTVSPropertyOp13
 70
     1
102
RTVSPropertyOp14
 70
     1
102
RTVSPropertyOp15
 70
     1
102
RTVSPropertyOp16
 70
     1
102
RTVSPropertyOp17
 70
     1
102
RTVSPropertyOp18
 70
     1
102
RTVSPropertyOp19
 70
     1
102
RTVSPropertyOp20
 70
     1
102
RTVSPropertyOp21
 70
     1
102
RTVSPropertyOp22
 70
     1
102
RTVSPropertyOp23
 70
     1
102
RTVSPropertyOp24
 70
     1
102
RTVSPropertyOp25
 70
     1
102
RTVSPropertyOp26
 70
     1
102
RTVSPropertyOp27
 70
     1
102
RTVSPropertyOp28
 70
     1
102
RTVSPropertyOp29
 70
     1
102
RTVSPropertyOp30
 70
     1
102
RTVSPropertyOp31
 70
     1
102
RTVSPropertyOp32
 70
     1
  0
XRECORD
  5
423
102
{ACAD_REACTORS
330
422
102
}
330
422
100
AcDbXrecord
280
     1
102
RTVSPropertyOp0
 70
     1
102
RTVSPropertyOp1
 70
     1
102
RTVSPropertyOp2
 70
     1
102
RTVSPropertyOp3
 70
     1
102
RTVSPropertyOp4
 70
     1
102
RTVSPropertyOp5
 70
     1
102
RTVSPropertyOp6
 70
     1
102
RTVSPropertyOp7
 70
     1
102
RTVSPropertyOp8
 70
     1
102
RTVSPropertyOp9
 70
     1
102
RTVSPropertyOp10
 70
     1
102
RTVSPropertyOp11
 70
     1
102
RTVSPropertyOp12
 70
     1
102
RTVSPropertyOp13
 70
     1
102
RTVSPropertyOp14
 70
     1
102
RTVSPropertyOp15
 70
     1
102
RTVSPropertyOp16
 70
     1
102
RTVSPropertyOp17
 70
     1
102
RTVSPropertyOp18
 70
     1
102
RTVSPropertyOp19
 70
     1
102
RTVSPropertyOp20
 70
     1
102
RTVSPropertyOp21
 70
     1
102
RTVSPropertyOp22
 70
     1
102
RTVSPropertyOp23
 70
     1
102
RTVSPropertyOp24
 70
     1
102
RTVSPropertyOp25
 70
     1
102
RTVSPropertyOp26
 70
     1
102
RTVSPropertyOp27
 70
     1
102
RTVSPropertyOp28
 70
     1
102
RTVSPropertyOp29
 70
     1
102
RTVSPropertyOp30
 70
     1
102
RTVSPropertyOp31
 70
     1
102
RTVSPropertyOp32
 70
     1
  0
XRECORD
  5
425
102
{ACAD_REACTORS
330
424
102
}
330
424
100
AcDbXrecord
280
     1
102
RTVSPropertyOp0
 70
     1
102
RTVSPropertyOp1
 70
     1
102
RTVSPropertyOp2
 70
     1
102
RTVSPropertyOp3
 70
     1
102
RTVSPropertyOp4
 70
     1
102
RTVSPropertyOp5
 70
     1
102
RTVSPropertyOp6
 70
     1
102
RTVSPropertyOp7
 70
     1
102
RTVSPropertyOp8
 70
     1
102
RTVSPropertyOp9
 70
     1
102
RTVSPropertyOp10
 70
     1
102
RTVSPropertyOp11
 70
     1
102
RTVSPropertyOp12
 70
     1
102
RTVSPropertyOp13
 70
     1
102
RTVSPropertyOp14
 70
     1
102
RTVSPropertyOp15
 70
     1
102
RTVSPropertyOp16
 70
     1
102
RTVSPropertyOp17
 70
     1
102
RTVSPropertyOp18
 70
     1
102
RTVSPropertyOp19
 70
     1
102
RTVSPropertyOp20
 70
     1
102
RTVSPropertyOp21
 70
     1
102
RTVSPropertyOp22
 70
     1
102
RTVSPropertyOp23
 70
     1
102
RTVSPropertyOp24
 70
     1
102
RTVSPropertyOp25
 70
     1
102
RTVSPropertyOp26
 70
     1
102
RTVSPropertyOp27
 70
     1
102
RTVSPropertyOp28
 70
     1
102
RTVSPropertyOp29
 70
     1
102
RTVSPropertyOp30
 70
     1
102
RTVSPropertyOp31
 70
     1
102
RTVSPropertyOp32
 70
     1
  0
XRECORD
  5
427
102
{ACAD_REACTORS
330
426
102
}
330
426
100
AcDbXrecord
280
     1
102
RTVSPropertyOp0
 70
     1
102
RTVSPropertyOp1
 70
     1
102
RTVSPropertyOp2
 70
     1
102
RTVSPropertyOp3
 70
     1
102
RTVSPropertyOp4
 70
     1
102
RTVSPropertyOp5
 70
     1
102
RTVSPropertyOp6
 70
     1
102
RTVSPropertyOp7
 70
     1
102
RTVSPropertyOp8
 70
     1
102
RTVSPropertyOp9
 70
     1
102
RTVSPropertyOp10
 70
     1
102
RTVSPropertyOp11
 70
     1
102
RTVSPropertyOp12
 70
     1
102
RTVSPropertyOp13
 70
     1
102
RTVSPropertyOp14
 70
     1
102
RTVSPropertyOp15
 70
     1
102
RTVSPropertyOp16
 70
     1
102
RTVSPropertyOp17
 70
     1
102
RTVSPropertyOp18
 70
     1
102
RTVSPropertyOp19
 70
     1
102
RTVSPropertyOp20
 70
     1
102
RTVSPropertyOp21
 70
     1
102
RTVSPropertyOp22
 70
     1
102
RTVSPropertyOp23
 70
     1
102
RTVSPropertyOp24
 70
     1
102
RTVSPropertyOp25
 70
     1
102
RTVSPropertyOp26
 70
     1
102
RTVSPropertyOp27
 70
     1
102
RTVSPropertyOp28
 70
     1
102
RTVSPropertyOp29
 70
     1
102
RTVSPropertyOp30
 70
     1
102
RTVSPropertyOp31
 70
     1
102
RTVSPropertyOp32
 70
     1
  0
XRECORD
  5
429
102
{ACAD_REACTORS
330
428
102
}
330
428
100
AcDbXrecord
280
     1
102
RTVSPropertyOp0
 70
     1
102
RTVSPropertyOp1
 70
     1
102
RTVSPropertyOp2
 70
     1
102
RTVSPropertyOp3
 70
     1
102
RTVSPropertyOp4
 70
     1
102
RTVSPropertyOp5
 70
     1
102
RTVSPropertyOp6
 70
     1
102
RTVSPropertyOp7
 70
     1
102
RTVSPropertyOp8
 70
     1
102
RTVSPropertyOp9
 70
     1
102
RTVSPropertyOp10
 70
     1
102
RTVSPropertyOp11
 70
     1
102
RTVSPropertyOp12
 70
     1
102
RTVSPropertyOp13
 70
     1
102
RTVSPropertyOp14
 70
     1
102
RTVSPropertyOp15
 70
     1
102
RTVSPropertyOp16
 70
     1
102
RTVSPropertyOp17
 70
     1
102
RTVSPropertyOp18
 70
     1
102
RTVSPropertyOp19
 70
     1
102
RTVSPropertyOp20
 70
     1
102
RTVSPropertyOp21
 70
     1
102
RTVSPropertyOp22
 70
     1
102
RTVSPropertyOp23
 70
     1
102
RTVSPropertyOp24
 70
     1
102
RTVSPropertyOp25
 70
     1
102
RTVSPropertyOp26
 70
     1
102
RTVSPropertyOp27
 70
     1
102
RTVSPropertyOp28
 70
     1
102
RTVSPropertyOp29
 70
     1
102
RTVSPropertyOp30
 70
     1
102
RTVSPropertyOp31
 70
     1
102
RTVSPropertyOp32
 70
     1
  0
XRECORD
  5
44A
102
{ACAD_REACTORS
330
449
102
}
330
449
100
AcDbXrecord
280
     1
102
RTVSPropertyOp0
 70
     1
102
RTVSPropertyOp1
 70
     1
102
RTVSPropertyOp2
 70
     1
102
RTVSPropertyOp3
 70
     1
102
RTVSPropertyOp4
 70
     1
102
RTVSPropertyOp5
 70
     1
102
RTVSPropertyOp6
 70
     1
102
RTVSPropertyOp7
 70
     1
102
RTVSPropertyOp8
 70
     1
102
RTVSPropertyOp9
 70
     1
102
RTVSPropertyOp10
 70
     1
102
RTVSPropertyOp11
 70
     1
102
RTVSPropertyOp12
 70
     1
102
RTVSPropertyOp13
 70
     1
102
RTVSPropertyOp14
 70
     1
102
RTVSPropertyOp15
 70
     1
102
RTVSPropertyOp16
 70
     1
102
RTVSPropertyOp17
 70
     1
102
RTVSPropertyOp18
 70
     1
102
RTVSPropertyOp19
 70
     1
102
RTVSPropertyOp20
 70
     1
102
RTVSPropertyOp21
 70
     1
102
RTVSPropertyOp22
 70
     1
102
RTVSPropertyOp23
 70
     1
102
RTVSPropertyOp24
 70
     1
102
RTVSPropertyOp25
 70
     1
102
RTVSPropertyOp26
 70
     1
102
RTVSPropertyOp27
 70
     1
102
RTVSPropertyOp28
 70
     1
102
RTVSPropertyOp29
 70
     1
102
RTVSPropertyOp30
 70
     1
102
RTVSPropertyOp31
 70
     1
102
RTVSPropertyOp32
 70
     1
  0
XRECORD
  5
456
102
{ACAD_REACTORS
330
455
102
}
330
455
100
AcDbXrecord
280
     1
102
RTVSPropertyOp0
 70
     0
102
RTVSPropertyOp1
 70
     0
102
RTVSPropertyOp2
 70
     0
102
RTVSPropertyOp3
 70
     0
102
RTVSPropertyOp4
 70
     0
102
RTVSPropertyOp5
 70
     0
102
RTVSPropertyOp6
 70
     0
102
RTVSPropertyOp7
 70
     0
102
RTVSPropertyOp8
 70
     0
102
RTVSPropertyOp9
 70
     0
102
RTVSPropertyOp10
 70
     0
102
RTVSPropertyOp11
 70
     0
102
RTVSPropertyOp12
 70
     0
102
RTVSPropertyOp13
 70
     0
102
RTVSPropertyOp14
 70
     2
102
RTVSPropertyOp15
 70
     0
102
RTVSPropertyOp16
 70
     0
102
RTVSPropertyOp17
 70
     0
102
RTVSPropertyOp18
 70
     0
102
RTVSPropertyOp19
 70
     0
102
RTVSPropertyOp20
 70
     0
102
RTVSPropertyOp21
 70
     0
102
RTVSPropertyOp22
 70
     0
102
RTVSPropertyOp23
 70
     0
102
RTVSPropertyOp24
 70
     0
102
RTVSPropertyOp25
 70
     0
102
RTVSPropertyOp26
 70
     0
102
RTVSPropertyOp27
 70
     0
102
RTVSPropertyOp28
 70
     0
102
RTVSPropertyOp29
 70
     0
102
RTVSPropertyOp30
 70
     0
102
RTVSPropertyOp31
 70
     0
102
RTVSPropertyOp32
 70
     0
  0
XRECORD
  5
43D
102
{ACAD_REACTORS
330
43C
102
}
330
43C
100
AcDbXrecord
280
     1
102
RTVSPropertyOp0
 70
     1
102
RTVSPropertyOp1
 70
     1
102
RTVSPropertyOp2
 70
     1
102
RTVSPropertyOp3
 70
     1
102
RTVSPropertyOp4
 70
     1
102
RTVSPropertyOp5
 70
     1
102
RTVSPropertyOp6
 70
     1
102
RTVSPropertyOp7
 70
     1
102
RTVSPropertyOp8
 70
     1
102
RTVSPropertyOp9
 70
     1
102
RTVSPropertyOp10
 70
     1
102
RTVSPropertyOp11
 70
     1
102
RTVSPropertyOp12
 70
     1
102
RTVSPropertyOp13
 70
     1
102
RTVSPropertyOp14
 70
     1
102
RTVSPropertyOp15
 70
     1
102
RTVSPropertyOp16
 70
     1
102
RTVSPropertyOp17
 70
     1
102
RTVSPropertyOp18
 70
     1
102
RTVSPropertyOp19
 70
     1
102
RTVSPropertyOp20
 70
     1
102
RTVSPropertyOp21
 70
     1
102
RTVSPropertyOp22
 70
     1
102
RTVSPropertyOp23
 70
     1
102
RTVSPropertyOp24
 70
     1
102
RTVSPropertyOp25
 70
     1
102
RTVSPropertyOp26
 70
     1
102
RTVSPropertyOp27
 70
     1
102
RTVSPropertyOp28
 70
     1
102
RTVSPropertyOp29
 70
     1
102
RTVSPropertyOp30
 70
     1
102
RTVSPropertyOp31
 70
     1
102
RTVSPropertyOp32
 70
     1
  0
XRECORD
  5
458
102
{ACAD_REACTORS
330
457
102
}
330
457
100
AcDbXrecord
280
     1
102
RTVSPropertyOp0
 70
     0
102
RTVSPropertyOp1
 70
     0
102
RTVSPropertyOp2
 70
     0
102
RTVSPropertyOp3
 70
     0
102
RTVSPropertyOp4
 70
     0
102
RTVSPropertyOp5
 70
     0
102
RTVSPropertyOp6
 70
     0
102
RTVSPropertyOp7
 70
     0
102
RTVSPropertyOp8
 70
     0
102
RTVSPropertyOp9
 70
     0
102
RTVSPropertyOp10
 70
     0
102
RTVSPropertyOp11
 70
     0
102
RTVSPropertyOp12
 70
     0
102
RTVSPropertyOp13
 70
     0
102
RTVSPropertyOp14
 70
     2
102
RTVSPropertyOp15
 70
     0
102
RTVSPropertyOp16
 70
     0
102
RTVSPropertyOp17
 70
     0
102
RTVSPropertyOp18
 70
     0
102
RTVSPropertyOp19
 70
     0
102
RTVSPropertyOp20
 70
     0
102
RTVSPropertyOp21
 70
     0
102
RTVSPropertyOp22
 70
     0
102
RTVSPropertyOp23
 70
     0
102
RTVSPropertyOp24
 70
     0
102
RTVSPropertyOp25
 70
     0
102
RTVSPropertyOp26
 70
     0
102
RTVSPropertyOp27
 70
     0
102
RTVSPropertyOp28
 70
     0
102
RTVSPropertyOp29
 70
     0
102
RTVSPropertyOp30
 70
     0
102
RTVSPropertyOp31
 70
     0
102
RTVSPropertyOp32
 70
     0
  0
XRECORD
  5
435
102
{ACAD_REACTORS
330
434
102
}
330
434
100
AcDbXrecord
280
     1
102
RTVSPropertyOp0
 70
     1
102
RTVSPropertyOp1
 70
     1
102
RTVSPropertyOp2
 70
     1
102
RTVSPropertyOp3
 70
     1
102
RTVSPropertyOp4
 70
     1
102
RTVSPropertyOp5
 70
     1
102
RTVSPropertyOp6
 70
     1
102
RTVSPropertyOp7
 70
     1
102
RTVSPropertyOp8
 70
     1
102
RTVSPropertyOp9
 70
     1
102
RTVSPropertyOp10
 70
     1
102
RTVSPropertyOp11
 70
     1
102
RTVSPropertyOp12
 70
     1
102
RTVSPropertyOp13
 70
     1
102
RTVSPropertyOp14
 70
     1
102
RTVSPropertyOp15
 70
     1
102
RTVSPropertyOp16
 70
     1
102
RTVSPropertyOp17
 70
     1
102
RTVSPropertyOp18
 70
     1
102
RTVSPropertyOp19
 70
     1
102
RTVSPropertyOp20
 70
     1
102
RTVSPropertyOp21
 70
     1
102
RTVSPropertyOp22
 70
     1
102
RTVSPropertyOp23
 70
     1
102
RTVSPropertyOp24
 70
     1
102
RTVSPropertyOp25
 70
     1
102
RTVSPropertyOp26
 70
     1
102
RTVSPropertyOp27
 70
     1
102
RTVSPropertyOp28
 70
     1
102
RTVSPropertyOp29
 70
     1
102
RTVSPropertyOp30
 70
     1
102
RTVSPropertyOp31
 70
     1
102
RTVSPropertyOp32
 70
     1
  0
XRECORD
  5
454
102
{ACAD_REACTORS
330
453
102
}
330
453
100
AcDbXrecord
280
     1
102
RTVSPropertyOp0
 70
     1
102
RTVSPropertyOp1
 70
     1
102
RTVSPropertyOp2
 70
     1
102
RTVSPropertyOp3
 70
     1
102
RTVSPropertyOp4
 70
     1
102
RTVSPropertyOp5
 70
     1
102
RTVSPropertyOp6
 70
     1
102
RTVSPropertyOp7
 70
     1
102
RTVSPropertyOp8
 70
     1
102
RTVSPropertyOp9
 70
     1
102
RTVSPropertyOp10
 70
     1
102
RTVSPropertyOp11
 70
     1
102
RTVSPropertyOp12
 70
     1
102
RTVSPropertyOp13
 70
     1
102
RTVSPropertyOp14
 70
     1
102
RTVSPropertyOp15
 70
     1
102
RTVSPropertyOp16
 70
     1
102
RTVSPropertyOp17
 70
     1
102
RTVSPropertyOp18
 70
     1
102
RTVSPropertyOp19
 70
     1
102
RTVSPropertyOp20
 70
     1
102
RTVSPropertyOp21
 70
     1
102
RTVSPropertyOp22
 70
     1
102
RTVSPropertyOp23
 70
     1
102
RTVSPropertyOp24
 70
     1
102
RTVSPropertyOp25
 70
     1
102
RTVSPropertyOp26
 70
     1
102
RTVSPropertyOp27
 70
     1
102
RTVSPropertyOp28
 70
     1
102
RTVSPropertyOp29
 70
     1
102
RTVSPropertyOp30
 70
     1
102
RTVSPropertyOp31
 70
     1
102
RTVSPropertyOp32
 70
     1
  0
XRECORD
  5
452
102
{ACAD_REACTORS
330
451
102
}
330
451
100
AcDbXrecord
280
     1
102
RTVSPropertyOp0
 70
     1
102
RTVSPropertyOp1
 70
     1
102
RTVSPropertyOp2
 70
     1
102
RTVSPropertyOp3
 70
     1
102
RTVSPropertyOp4
 70
     1
102
RTVSPropertyOp5
 70
     1
102
RTVSPropertyOp6
 70
     1
102
RTVSPropertyOp7
 70
     1
102
RTVSPropertyOp8
 70
     1
102
RTVSPropertyOp9
 70
     1
102
RTVSPropertyOp10
 70
     1
102
RTVSPropertyOp11
 70
     1
102
RTVSPropertyOp12
 70
     1
102
RTVSPropertyOp13
 70
     1
102
RTVSPropertyOp14
 70
     1
102
RTVSPropertyOp15
 70
     1
102
RTVSPropertyOp16
 70
     1
102
RTVSPropertyOp17
 70
     1
102
RTVSPropertyOp18
 70
     1
102
RTVSPropertyOp19
 70
     1
102
RTVSPropertyOp20
 70
     1
102
RTVSPropertyOp21
 70
     1
102
RTVSPropertyOp22
 70
     1
102
RTVSPropertyOp23
 70
     1
102
RTVSPropertyOp24
 70
     1
102
RTVSPropertyOp25
 70
     1
102
RTVSPropertyOp26
 70
     1
102
RTVSPropertyOp27
 70
     1
102
RTVSPropertyOp28
 70
     1
102
RTVSPropertyOp29
 70
     1
102
RTVSPropertyOp30
 70
     1
102
RTVSPropertyOp31
 70
     1
102
RTVSPropertyOp32
 70
     1
  0
XRECORD
  5
44C
102
{ACAD_REACTORS
330
44B
102
}
330
44B
100
AcDbXrecord
280
     1
102
RTVSPropertyOp0
 70
     1
102
RTVSPropertyOp1
 70
     1
102
RTVSPropertyOp2
 70
     1
102
RTVSPropertyOp3
 70
     1
102
RTVSPropertyOp4
 70
     1
102
RTVSPropertyOp5
 70
     1
102
RTVSPropertyOp6
 70
     1
102
RTVSPropertyOp7
 70
     1
102
RTVSPropertyOp8
 70
     1
102
RTVSPropertyOp9
 70
     1
102
RTVSPropertyOp10
 70
     1
102
RTVSPropertyOp11
 70
     1
102
RTVSPropertyOp12
 70
     1
102
RTVSPropertyOp13
 70
     1
102
RTVSPropertyOp14
 70
     1
102
RTVSPropertyOp15
 70
     1
102
RTVSPropertyOp16
 70
     1
102
RTVSPropertyOp17
 70
     1
102
RTVSPropertyOp18
 70
     1
102
RTVSPropertyOp19
 70
     1
102
RTVSPropertyOp20
 70
     1
102
RTVSPropertyOp21
 70
     1
102
RTVSPropertyOp22
 70
     1
102
RTVSPropertyOp23
 70
     1
102
RTVSPropertyOp24
 70
     1
102
RTVSPropertyOp25
 70
     1
102
RTVSPropertyOp26
 70
     1
102
RTVSPropertyOp27
 70
     1
102
RTVSPropertyOp28
 70
     1
102
RTVSPropertyOp29
 70
     1
102
RTVSPropertyOp30
 70
     1
102
RTVSPropertyOp31
 70
     1
102
RTVSPropertyOp32
 70
     1
  0
XRECORD
  5
44E
102
{ACAD_REACTORS
330
44D
102
}
330
44D
100
AcDbXrecord
280
     1
102
RTVSPropertyOp0
 70
     1
102
RTVSPropertyOp1
 70
     1
102
RTVSPropertyOp2
 70
     1
102
RTVSPropertyOp3
 70
     1
102
RTVSPropertyOp4
 70
     1
102
RTVSPropertyOp5
 70
     1
102
RTVSPropertyOp6
 70
     1
102
RTVSPropertyOp7
 70
     1
102
RTVSPropertyOp8
 70
     1
102
RTVSPropertyOp9
 70
     1
102
RTVSPropertyOp10
 70
     1
102
RTVSPropertyOp11
 70
     1
102
RTVSPropertyOp12
 70
     1
102
RTVSPropertyOp13
 70
     1
102
RTVSPropertyOp14
 70
     1
102
RTVSPropertyOp15
 70
     1
102
RTVSPropertyOp16
 70
     1
102
RTVSPropertyOp17
 70
     1
102
RTVSPropertyOp18
 70
     1
102
RTVSPropertyOp19
 70
     1
102
RTVSPropertyOp20
 70
     1
102
RTVSPropertyOp21
 70
     1
102
RTVSPropertyOp22
 70
     1
102
RTVSPropertyOp23
 70
     1
102
RTVSPropertyOp24
 70
     1
102
RTVSPropertyOp25
 70
     1
102
RTVSPropertyOp26
 70
     1
102
RTVSPropertyOp27
 70
     1
102
RTVSPropertyOp28
 70
     1
102
RTVSPropertyOp29
 70
     1
102
RTVSPropertyOp30
 70
     1
102
RTVSPropertyOp31
 70
     1
102
RTVSPropertyOp32
 70
     1
  0
XRECORD
  5
43B
102
{ACAD_REACTORS
330
43A
102
}
330
43A
100
AcDbXrecord
280
     1
102
RTVSPropertyOp0
 70
     1
102
RTVSPropertyOp1
 70
     1
102
RTVSPropertyOp2
 70
     1
102
RTVSPropertyOp3
 70
     1
102
RTVSPropertyOp4
 70
     1
102
RTVSPropertyOp5
 70
     1
102
RTVSPropertyOp6
 70
     1
102
RTVSPropertyOp7
 70
     1
102
RTVSPropertyOp8
 70
     1
102
RTVSPropertyOp9
 70
     1
102
RTVSPropertyOp10
 70
     1
102
RTVSPropertyOp11
 70
     1
102
RTVSPropertyOp12
 70
     1
102
RTVSPropertyOp13
 70
     1
102
RTVSPropertyOp14
 70
     1
102
RTVSPropertyOp15
 70
     1
102
RTVSPropertyOp16
 70
     1
102
RTVSPropertyOp17
 70
     1
102
RTVSPropertyOp18
 70
     1
102
RTVSPropertyOp19
 70
     1
102
RTVSPropertyOp20
 70
     1
102
RTVSPropertyOp21
 70
     1
102
RTVSPropertyOp22
 70
     1
102
RTVSPropertyOp23
 70
     1
102
RTVSPropertyOp24
 70
     1
102
RTVSPropertyOp25
 70
     1
102
RTVSPropertyOp26
 70
     1
102
RTVSPropertyOp27
 70
     1
102
RTVSPropertyOp28
 70
     1
102
RTVSPropertyOp29
 70
     1
102
RTVSPropertyOp30
 70
     1
102
RTVSPropertyOp31
 70
     1
102
RTVSPropertyOp32
 70
     1
  0
XRECORD
  5
448
102
{ACAD_REACTORS
330
447
102
}
330
447
100
AcDbXrecord
280
     1
102
RTVSPropertyOp0
 70
     1
102
RTVSPropertyOp1
 70
     1
102
RTVSPropertyOp2
 70
     1
102
RTVSPropertyOp3
 70
     1
102
RTVSPropertyOp4
 70
     1
102
RTVSPropertyOp5
 70
     1
102
RTVSPropertyOp6
 70
     1
102
RTVSPropertyOp7
 70
     1
102
RTVSPropertyOp8
 70
     1
102
RTVSPropertyOp9
 70
     1
102
RTVSPropertyOp10
 70
     1
102
RTVSPropertyOp11
 70
     1
102
RTVSPropertyOp12
 70
     1
102
RTVSPropertyOp13
 70
     1
102
RTVSPropertyOp14
 70
     1
102
RTVSPropertyOp15
 70
     1
102
RTVSPropertyOp16
 70
     1
102
RTVSPropertyOp17
 70
     1
102
RTVSPropertyOp18
 70
     1
102
RTVSPropertyOp19
 70
     1
102
RTVSPropertyOp20
 70
     1
102
RTVSPropertyOp21
 70
     1
102
RTVSPropertyOp22
 70
     1
102
RTVSPropertyOp23
 70
     1
102
RTVSPropertyOp24
 70
     1
102
RTVSPropertyOp25
 70
     1
102
RTVSPropertyOp26
 70
     1
102
RTVSPropertyOp27
 70
     1
102
RTVSPropertyOp28
 70
     1
102
RTVSPropertyOp29
 70
     1
102
RTVSPropertyOp30
 70
     1
102
RTVSPropertyOp31
 70
     1
102
RTVSPropertyOp32
 70
     1
  0
XRECORD
  5
450
102
{ACAD_REACTORS
330
44F
102
}
330
44F
100
AcDbXrecord
280
     1
102
RTVSPropertyOp0
 70
     1
102
RTVSPropertyOp1
 70
     1
102
RTVSPropertyOp2
 70
     1
102
RTVSPropertyOp3
 70
     1
102
RTVSPropertyOp4
 70
     1
102
RTVSPropertyOp5
 70
     1
102
RTVSPropertyOp6
 70
     1
102
RTVSPropertyOp7
 70
     1
102
RTVSPropertyOp8
 70
     1
102
RTVSPropertyOp9
 70
     1
102
RTVSPropertyOp10
 70
     1
102
RTVSPropertyOp11
 70
     1
102
RTVSPropertyOp12
 70
     1
102
RTVSPropertyOp13
 70
     1
102
RTVSPropertyOp14
 70
     1
102
RTVSPropertyOp15
 70
     1
102
RTVSPropertyOp16
 70
     1
102
RTVSPropertyOp17
 70
     1
102
RTVSPropertyOp18
 70
     1
102
RTVSPropertyOp19
 70
     1
102
RTVSPropertyOp20
 70
     1
102
RTVSPropertyOp21
 70
     1
102
RTVSPropertyOp22
 70
     1
102
RTVSPropertyOp23
 70
     1
102
RTVSPropertyOp24
 70
     1
102
RTVSPropertyOp25
 70
     1
102
RTVSPropertyOp26
 70
     1
102
RTVSPropertyOp27
 70
     1
102
RTVSPropertyOp28
 70
     1
102
RTVSPropertyOp29
 70
     1
102
RTVSPropertyOp30
 70
     1
102
RTVSPropertyOp31
 70
     1
102
RTVSPropertyOp32
 70
     1
  0
ENDSEC
  0
EOF
