  0
SECTION
  2
HEADER
  9
$ACADVER
  1
AC1015
  9
$ACADMAINTVER
 70
    20
  9
$DWGCODEPAGE
  3
ANSI_932
  9
$INSBASE
 10
0.0
 20
0.0
 30
0.0
  9
$EXTMIN
 10
-1366.099325544654
 20
-872.0933593029677
 30
-0.0000000000112498
  9
$EXTMAX
 10
1260.339355848027
 20
800.0183817817269
 30
0.0000000000002956
  9
$LIMMIN
 10
-2315.603488828317
 20
-1835.772995356514
  9
$LIMMAX
 10
4822.123476460285
 20
2155.613463965039
  9
$ORTHOMODE
 70
     0
  9
$REGENMODE
 70
     1
  9
$FILLMODE
 70
     1
  9
$QTEXTMODE
 70
     0
  9
$MIRRTEXT
 70
     0
  9
$LTSCALE
 40
20.0
  9
$ATTMODE
 70
     1
  9
$TEXTSIZE
 40
64.0
  9
$TRACEWID
 40
0.05
  9
$TEXTSTYLE
  7
STANDARD
  9
$CLAYER
  8
SYMBOLLINE
  9
$CELTYPE
  6
CONTINUOUS
  9
$CECOLOR
 62
     7
  9
$CELTSCALE
 40
1.0
  9
$DISPSILH
 70
     0
  9
$DIMSCALE
 40
1.0
  9
$DIMASZ
 40
10.0
  9
$DIMEXO
 40
20.0
  9
$DIMDLI
 40
200.0
  9
$DIMRND
 40
0.0
  9
$DIMDLE
 40
0.0
  9
$DIMEXE
 40
30.0
  9
$DIMTP
 40
0.0
  9
$DIMTM
 40
0.0
  9
$DIMTXT
 40
64.0
  9
$DIMCEN
 40
0.0
  9
$DIMTSZ
 40
0.0
  9
$DIMTOL
 70
     0
  9
$DIMLIM
 70
     0
  9
$DIMTIH
 70
     0
  9
$DIMTOH
 70
     0
  9
$DIMSE1
 70
     0
  9
$DIMSE2
 70
     0
  9
$DIMTAD
 70
     1
  9
$DIMZIN
 70
     8
  9
$DIMBLK
  1

  9
$DIMASO
 70
     1
  9
$DIMSHO
 70
     0
  9
$DIMPOST
  1

  9
$DIMAPOST
  1

  9
$DIMALT
 70
     0
  9
$DIMALTD
 70
     2
  9
$DIMALTF
 40
25.4
  9
$DIMLFAC
 40
1.0
  9
$DIMTOFL
 70
     1
  9
$DIMTVP
 40
0.0
  9
$DIMTIX
 70
     1
  9
$DIMSOXD
 70
     0
  9
$DIMSAH
 70
     1
  9
$DIMBLK1
  1
DOTBLANK
  9
$DIMBLK2
  1
DOTBLANK
  9
$DIMSTYLE
  2
STANDARD
  9
$DIMCLRD
 70
     0
  9
$DIMCLRE
 70
     0
  9
$DIMCLRT
 70
     0
  9
$DIMTFAC
 40
1.0
  9
$DIMGAP
 40
0.09
  9
$DIMJUST
 70
     0
  9
$DIMSD1
 70
     0
  9
$DIMSD2
 70
     0
  9
$DIMTOLJ
 70
     1
  9
$DIMTZIN
 70
     0
  9
$DIMALTZ
 70
     0
  9
$DIMALTTZ
 70
     0
  9
$DIMUPT
 70
     0
  9
$DIMDEC
 70
     4
  9
$DIMTDEC
 70
     4
  9
$DIMALTU
 70
     2
  9
$DIMALTTD
 70
     2
  9
$DIMTXSTY
  7
STANDARD
  9
$DIMAUNIT
 70
     0
  9
$DIMADEC
 70
     0
  9
$DIMALTRND
 40
0.0
  9
$DIMAZIN
 70
     0
  9
$DIMDSEP
 70
    46
  9
$DIMATFIT
 70
     3
  9
$DIMFRAC
 70
     0
  9
$DIMLDRBLK
  1
DOTBLANK
  9
$DIMLUNIT
 70
     2
  9
$DIMLWD
 70
    -2
  9
$DIMLWE
 70
    -2
  9
$DIMTMOVE
 70
     0
  9
$LUNITS
 70
     2
  9
$LUPREC
 70
     4
  9
$SKETCHINC
 40
0.1
  9
$FILLETRAD
 40
20.0
  9
$AUNITS
 70
     1
  9
$AUPREC
 70
     3
  9
$MENU
  1
ACAD
  9
$ELEVATION
 40
0.0
  9
$PELEVATION
 40
0.0
  9
$THICKNESS
 40
0.0
  9
$LIMCHECK
 70
     0
  9
$CHAMFERA
 40
0.0
  9
$CHAMFERB
 40
0.0
  9
$CHAMFERC
 40
0.0
  9
$CHAMFERD
 40
0.0
  9
$SKPOLY
 70
     0
  9
$TDCREATE
 40
2449761.739988426
  9
$TDUCREATE
 40
2449761.406655093
  9
$TDUPDATE
 40
2457983.372970533
  9
$TDUUPDATE
 40
2457983.039637199
  9
$TDINDWG
 40
0.4687355208
  9
$TDUSRTIMER
 40
0.4687335185
  9
$USRTIMER
 70
     1
  9
$ANGBASE
 50
0.0
  9
$ANGDIR
 70
     0
  9
$PDMODE
 70
     3
  9
$PDSIZE
 40
-2.0
  9
$PLINEWID
 40
0.0
  9
$SPLFRAME
 70
     0
  9
$SPLINETYPE
 70
     6
  9
$SPLINESEGS
 70
     8
  9
$HANDSEED
  5
40A
  9
$SURFTAB1
 70
     6
  9
$SURFTAB2
 70
     6
  9
$SURFTYPE
 70
     6
  9
$SURFU
 70
     6
  9
$SURFV
 70
     6
  9
$UCSBASE
  2

  9
$UCSNAME
  2

  9
$UCSORG
 10
0.0
 20
0.0
 30
0.0
  9
$UCSXDIR
 10
1.0
 20
0.0
 30
0.0
  9
$UCSYDIR
 10
0.0
 20
1.0
 30
0.0
  9
$UCSORTHOREF
  2

  9
$UCSORTHOVIEW
 70
     0
  9
$UCSORGTOP
 10
0.0
 20
0.0
 30
0.0
  9
$UCSORGBOTTOM
 10
0.0
 20
0.0
 30
0.0
  9
$UCSORGLEFT
 10
0.0
 20
0.0
 30
0.0
  9
$UCSORGRIGHT
 10
0.0
 20
0.0
 30
0.0
  9
$UCSORGFRONT
 10
0.0
 20
0.0
 30
0.0
  9
$UCSORGBACK
 10
0.0
 20
0.0
 30
0.0
  9
$PUCSBASE
  2

  9
$PUCSNAME
  2

  9
$PUCSORG
 10
0.0
 20
0.0
 30
0.0
  9
$PUCSXDIR
 10
1.0
 20
0.0
 30
0.0
  9
$PUCSYDIR
 10
0.0
 20
1.0
 30
0.0
  9
$PUCSORTHOREF
  2

  9
$PUCSORTHOVIEW
 70
     0
  9
$PUCSORGTOP
 10
0.0
 20
0.0
 30
0.0
  9
$PUCSORGBOTTOM
 10
0.0
 20
0.0
 30
0.0
  9
$PUCSORGLEFT
 10
0.0
 20
0.0
 30
0.0
  9
$PUCSORGRIGHT
 10
0.0
 20
0.0
 30
0.0
  9
$PUCSORGFRONT
 10
0.0
 20
0.0
 30
0.0
  9
$PUCSORGBACK
 10
0.0
 20
0.0
 30
0.0
  9
$USERI1
 70
     0
  9
$USERI2
 70
     0
  9
$USERI3
 70
     0
  9
$USERI4
 70
     0
  9
$USERI5
 70
     0
  9
$USERR1
 40
20.0
  9
$USERR2
 40
0.0
  9
$USERR3
 40
0.0
  9
$USERR4
 40
0.0
  9
$USERR5
 40
0.0
  9
$WORLDVIEW
 70
     1
  9
$SHADEDGE
 70
     3
  9
$SHADEDIF
 70
    70
  9
$TILEMODE
 70
     1
  9
$MAXACTVP
 70
    64
  9
$PINSBASE
 10
0.0
 20
0.0
 30
0.0
  9
$PLIMCHECK
 70
     0
  9
$PEXTMIN
 10
1.000000000000000E+20
 20
1.000000000000000E+20
 30
1.000000000000000E+20
  9
$PEXTMAX
 10
-1.000000000000000E+20
 20
-1.000000000000000E+20
 30
-1.000000000000000E+20
  9
$PLIMMIN
 10
0.0
 20
0.0
  9
$PLIMMAX
 10
12.0
 20
9.0
  9
$UNITMODE
 70
     0
  9
$VISRETAIN
 70
     1
  9
$PLINEGEN
 70
     0
  9
$PSLTSCALE
 70
     1
  9
$TREEDEPTH
 70
  3020
  9
$CMLSTYLE
  2
Standard
  9
$CMLJUST
 70
     0
  9
$CMLSCALE
 40
1.0
  9
$PROXYGRAPHICS
 70
     1
  9
$MEASUREMENT
 70
     0
  9
$CELWEIGHT
370
    -1
  9
$ENDCAPS
280
     0
  9
$JOINSTYLE
280
     0
  9
$LWDISPLAY
290
     0
  9
$INSUNITS
 70
     0
  9
$HYPERLINKBASE
  1

  9
$STYLESHEET
  1

  9
$XEDIT
290
     1
  9
$CEPSNTYPE
380
     0
  9
$PSTYLEMODE
290
     1
  9
$FINGERPRINTGUID
  2
{9281C222-A946-46A1-A0BE-4208790AC7C1}
  9
$VERSIONGUID
  2
{5367301B-8E90-4E37-BBDE-F7D1334E1058}
  9
$EXTNAMES
290
     1
  9
$PSVPSCALE
 40
0.0
  9
$OLESTARTUP
290
     0
  0
ENDSEC
  0
SECTION
  2
CLASSES
  0
CLASS
  1
ACDBDICTIONARYWDFLT
  2
AcDbDictionaryWithDefault
  3
ObjectDBX Classes
 90
        0
280
     0
281
     0
  0
CLASS
  1
MATERIAL
  2
AcDbMaterial
  3
ObjectDBX Classes
 90
     1153
280
     0
281
     0
  0
CLASS
  1
VISUALSTYLE
  2
AcDbVisualStyle
  3
ObjectDBX Classes
 90
     4095
280
     0
281
     0
  0
CLASS
  1
SCALE
  2
AcDbScale
  3
ObjectDBX Classes
 90
     1153
280
     0
281
     0
  0
CLASS
  1
TABLESTYLE
  2
AcDbTableStyle
  3
ObjectDBX Classes
 90
     4095
280
     0
281
     0
  0
CLASS
  1
MLEADERSTYLE
  2
AcDbMLeaderStyle
  3
ACDB_MLEADERSTYLE_CLASS
 90
     4095
280
     0
281
     0
  0
CLASS
  1
DICTIONARYVAR
  2
AcDbDictionaryVar
  3
ObjectDBX Classes
 90
        0
280
     0
281
     0
  0
CLASS
  1
CELLSTYLEMAP
  2
AcDbCellStyleMap
  3
ObjectDBX Classes
 90
     1152
280
     0
281
     0
  0
CLASS
  1
ACDBPLACEHOLDER
  2
AcDbPlaceHolder
  3
ObjectDBX Classes
 90
        0
280
     0
281
     0
  0
CLASS
  1
LAYOUT
  2
AcDbLayout
  3
ObjectDBX Classes
 90
        0
280
     0
281
     0
  0
ENDSEC
  0
SECTION
  2
TABLES
  0
TABLE
  2
VPORT
  5
34A
330
0
100
AcDbSymbolTable
 70
     1
  0
VPORT
  5
3BB
330
34A
100
AcDbSymbolTableRecord
100
AcDbViewportTableRecord
  2
*ACTIVE
 70
     0
 10
0.0
 20
0.0
 11
1.0
 21
1.0
 12
-52.87998484831303
 22
-36.03748876062037
 13
0.0
 23
0.0
 14
50.0
 24
50.0
 15
100.0
 25
100.0
 16
0.0
 26
0.0
 36
1.0
 17
0.0
 27
0.0
 37
0.0
 40
1683.956688483169
 41
1.802600472813238
 42
50.0
 43
0.0
 44
0.0
 50
0.0
 51
0.0
 71
     0
 72
  1000
 73
     1
 74
     0
 75
     0
 76
     0
 77
     0
 78
     0
281
     0
 65
     1
110
0.0
120
0.0
130
0.0
111
1.0
121
0.0
131
0.0
112
0.0
122
1.0
132
0.0
 79
     0
146
0.0
  0
ENDTAB
  0
TABLE
  2
LTYPE
  5
347
330
0
100
AcDbSymbolTable
 70
     3
  0
LTYPE
  5
3A4
330
347
100
AcDbSymbolTableRecord
100
AcDbLinetypeTableRecord
  2
ByBlock
 70
     0
  3

 72
    65
 73
     0
 40
0.0
  0
LTYPE
  5
3A5
330
347
100
AcDbSymbolTableRecord
100
AcDbLinetypeTableRecord
  2
ByLayer
 70
     0
  3

 72
    65
 73
     0
 40
0.0
  0
LTYPE
  5
3A6
330
347
100
AcDbSymbolTableRecord
100
AcDbLinetypeTableRecord
  2
CONTINUOUS
 70
     0
  3
実線
 72
    65
 73
     0
 40
0.0
  0
LTYPE
  5
3BC
330
347
100
AcDbSymbolTableRecord
100
AcDbLinetypeTableRecord
  2
DASHDOT
 70
     0
  3
____ _ ____ _ ____ _ ____ _ ____ _ ____ _ ____
 72
    65
 73
     4
 40
5.5
 49
4.0
 74
     0
 49
-0.6
 74
     0
 49
0.3
 74
     0
 49
-0.6
 74
     0
  0
ENDTAB
  0
TABLE
  2
LAYER
  5
344
330
0
100
AcDbSymbolTable
 70
    12
  0
LAYER
  5
39E
102
{ACAD_XDICTIONARY
360
3D5
102
}
330
344
100
AcDbSymbolTableRecord
100
AcDbLayerTableRecord
  2
0
 70
     0
 62
     7
  6
CONTINUOUS
370
    -3
390
351
  0
LAYER
  5
3BA
102
{ACAD_XDICTIONARY
360
3D7
102
}
330
344
100
AcDbSymbolTableRecord
100
AcDbLayerTableRecord
  2
SYMBOLLINE
 70
     0
 62
    15
  6
CONTINUOUS
370
    -3
390
351
  0
LAYER
  5
3BD
102
{ACAD_XDICTIONARY
360
3D9
102
}
330
344
100
AcDbSymbolTableRecord
100
AcDbLayerTableRecord
  2
OUTLINE
 70
     0
 62
     3
  6
CONTINUOUS
370
    -3
390
351
  0
LAYER
  5
3BE
102
{ACAD_XDICTIONARY
360
3DB
102
}
330
344
100
AcDbSymbolTableRecord
100
AcDbLayerTableRecord
  2
DETAIL
 70
     0
 62
     5
  6
CONTINUOUS
370
    -3
390
351
  0
LAYER
  5
3BF
102
{ACAD_XDICTIONARY
360
3DD
102
}
330
344
100
AcDbSymbolTableRecord
100
AcDbLayerTableRecord
  2
BASIS
 70
     0
 62
     6
  6
DASHDOT
370
    -3
390
351
  0
LAYER
  5
3C0
102
{ACAD_XDICTIONARY
360
3DF
102
}
330
344
100
AcDbSymbolTableRecord
100
AcDbLayerTableRecord
  2
SIZE
 70
     0
 62
    30
  6
CONTINUOUS
370
    -3
390
351
  0
LAYER
  5
3C1
102
{ACAD_XDICTIONARY
360
3E1
102
}
330
344
100
AcDbSymbolTableRecord
100
AcDbLayerTableRecord
  2
NOTE
 70
     0
 62
     4
  6
CONTINUOUS
370
    -3
390
351
  0
LAYER
  5
3C2
102
{ACAD_XDICTIONARY
360
3E3
102
}
330
344
100
AcDbSymbolTableRecord
100
AcDbLayerTableRecord
  2
ARRANGE
 70
     0
 62
     1
  6
CONTINUOUS
370
    -3
390
351
  0
LAYER
  5
3C3
102
{ACAD_XDICTIONARY
360
3E5
102
}
330
344
100
AcDbSymbolTableRecord
100
AcDbLayerTableRecord
  2
FIX
 70
     0
 62
    11
  6
CONTINUOUS
370
    -3
390
351
  0
LAYER
  5
3C4
102
{ACAD_XDICTIONARY
360
3E7
102
}
330
344
100
AcDbSymbolTableRecord
100
AcDbLayerTableRecord
  2
SERVICESPACE
 70
     0
 62
     2
  6
DASHDOT
370
    -3
390
351
  0
LAYER
  5
3C5
102
{ACAD_XDICTIONARY
360
3E9
102
}
330
344
100
AcDbSymbolTableRecord
100
AcDbLayerTableRecord
  2
ETC
 70
     0
 62
    61
  6
CONTINUOUS
370
    -3
390
351
  0
LAYER
  5
3C6
330
344
100
AcDbSymbolTableRecord
100
AcDbLayerTableRecord
  2
DEFPOINTS
 70
     0
 62
     7
  6
CONTINUOUS
290
     0
370
    -3
390
351
  0
ENDTAB
  0
TABLE
  2
STYLE
  5
345
330
0
100
AcDbSymbolTable
 70
     3
  0
STYLE
  5
39F
330
345
100
AcDbSymbolTableRecord
100
AcDbTextStyleTableRecord
  2
STANDARD
 70
     0
 40
0.0
 41
0.9
 50
0.0
 71
     0
 42
64.0
  3
SIMPLEX
  4
BIGFONT
  0
STYLE
  5
3A3
330
345
100
AcDbSymbolTableRecord
100
AcDbTextStyleTableRecord
  2
ANNOTATIVE
 70
     0
 40
0.0
 41
1.0
 50
0.0
 71
     0
 42
0.2
  3
txt
  4

1001
ACADANNOTATIVE
1000
AnnotativeData
1002
{
1070
     1
1070
     1
1002
}
  0
STYLE
  5
3C7
330
345
100
AcDbSymbolTableRecord
100
AcDbTextStyleTableRecord
  2
STANDARD1
 70
     0
 40
0.0
 41
1.0
 50
0.0
 71
     0
 42
64.0
  3
MONOTXT
  4
BIGFONT
  0
ENDTAB
  0
TABLE
  2
VIEW
  5
348
330
0
100
AcDbSymbolTable
 70
     1
  0
VIEW
  5
3C8
330
348
100
AcDbSymbolTableRecord
100
AcDbViewTableRecord
  2
ALL
 70
     0
 40
4282.619807999997
 10
0.0
 20
41.30990399999999
 41
5940.0
 11
0.0
 21
0.0
 31
1.0
 12
0.0
 22
0.0
 32
0.0
 42
50.0
 43
0.0
 44
0.0
 50
0.0
 71
     0
281
     0
 72
     1
110
0.0
120
0.0
130
0.0
111
1.0
121
0.0
131
0.0
112
0.0
122
1.0
132
0.0
 79
     0
146
0.0
  0
ENDTAB
  0
TABLE
  2
UCS
  5
349
330
0
100
AcDbSymbolTable
 70
     0
  0
ENDTAB
  0
TABLE
  2
APPID
  5
34B
330
0
100
AcDbSymbolTable
 70
     4
  0
APPID
  5
3A0
330
34B
100
AcDbSymbolTableRecord
100
AcDbRegAppTableRecord
  2
ACAD
 70
     0
  0
APPID
  5
3A7
330
34B
100
AcDbSymbolTableRecord
100
AcDbRegAppTableRecord
  2
ACADANNOTATIVE
 70
     0
  0
APPID
  5
3B1
330
34B
100
AcDbSymbolTableRecord
100
AcDbRegAppTableRecord
  2
ACAD_MLEADERVER
 70
     0
  0
APPID
  5
3C9
330
34B
100
AcDbSymbolTableRecord
100
AcDbRegAppTableRecord
  2
ACAD_EXEMPT_FROM_CAD_STANDARDS
 70
     0
  0
ENDTAB
  0
TABLE
  2
DIMSTYLE
  5
34C
330
0
100
AcDbSymbolTable
 70
     2
100
AcDbDimStyleTable
 71
     0
  0
DIMSTYLE
105
3A1
330
34C
100
AcDbSymbolTableRecord
100
AcDbDimStyleTableRecord
  2
STANDARD
 70
     0
275
     1
279
     2
284
     8
285
     8
286
     8
340
39F
  0
DIMSTYLE
105
3A2
330
34C
100
AcDbSymbolTableRecord
100
AcDbDimStyleTableRecord
  2
ANNOTATIVE
 70
     0
275
     1
279
     2
284
     8
285
     8
286
     8
340
39F
1001
ACADANNOTATIVE
1000
AnnotativeData
1002
{
1070
     1
1070
     1
1002
}
  0
ENDTAB
  0
TABLE
  2
BLOCK_RECORD
  5
343
330
0
100
AcDbSymbolTable
 70
     3
  0
BLOCK_RECORD
  5
3B6
330
343
100
AcDbSymbolTableRecord
100
AcDbBlockTableRecord
  2
*Model_Space
340
3B9
  0
BLOCK_RECORD
  5
3B2
330
343
100
AcDbSymbolTableRecord
100
AcDbBlockTableRecord
  2
*Paper_Space
340
3B5
  0
BLOCK_RECORD
  5
3CE
330
343
100
AcDbSymbolTableRecord
100
AcDbBlockTableRecord
  2
$MODEL_SPACE
340
0
  0
BLOCK_RECORD
  5
3D0
330
343
100
AcDbSymbolTableRecord
100
AcDbBlockTableRecord
  2
$PAPER_SPACE
340
0
  0
BLOCK_RECORD
  5
3D2
330
343
100
AcDbSymbolTableRecord
100
AcDbBlockTableRecord
  2
_DOTBLANK
340
0
  0
ENDTAB
  0
ENDSEC
  0
SECTION
  2
BLOCKS
  0
BLOCK
  5
3B7
330
3B6
100
AcDbEntity
  8
0
100
AcDbBlockBegin
  2
*Model_Space
 70
     0
 10
0.0
 20
0.0
 30
0.0
  3
*Model_Space
  1

  0
ENDBLK
  5
3B8
330
3B6
100
AcDbEntity
  8
0
100
AcDbBlockEnd
  0
BLOCK
  5
3B3
330
3B2
100
AcDbEntity
 67
     1
  8
0
100
AcDbBlockBegin
  2
*Paper_Space
 70
     0
 10
0.0
 20
0.0
 30
0.0
  3
*Paper_Space
  1

  0
ENDBLK
  5
3B4
330
3B2
100
AcDbEntity
 67
     1
  8
0
100
AcDbBlockEnd
  0
BLOCK
  5
3CF
330
3CE
100
AcDbEntity
  8
0
100
AcDbBlockBegin
  2
$MODEL_SPACE
 70
     0
 10
0.0
 20
0.0
 30
0.0
  3
$MODEL_SPACE
  1

  0
ENDBLK
  5
2E0
330
3CE
100
AcDbEntity
  8
0
100
AcDbBlockEnd
  0
BLOCK
  5
3D1
330
3D0
100
AcDbEntity
  8
0
100
AcDbBlockBegin
  2
$PAPER_SPACE
 70
     0
 10
0.0
 20
0.0
 30
0.0
  3
$PAPER_SPACE
  1

  0
ENDBLK
  5
2DC
330
3D0
100
AcDbEntity
  8
0
100
AcDbBlockEnd
  0
BLOCK
  5
3D3
330
3D2
100
AcDbEntity
  8
0
100
AcDbBlockBegin
  2
_DOTBLANK
 70
     0
 10
0.0
 20
0.0
 30
0.0
  3
_DOTBLANK
  1

  0
CIRCLE
  5
8C
330
3D2
100
AcDbEntity
  8
0
  6
Continuous
 62
     7
100
AcDbCircle
 10
0.0
 20
0.0
 30
0.0
 40
0.5
  0
LINE
  5
8D
330
3D2
100
AcDbEntity
  8
0
  6
Continuous
 62
     7
100
AcDbLine
 10
-0.5
 20
0.0
 30
0.0
 11
-1.0
 21
0.0
 31
0.0
  0
ENDBLK
  5
8E
330
3D2
100
AcDbEntity
  8
0
100
AcDbBlockEnd
  0
ENDSEC
  0
SECTION
  2
ENTITIES
  0
TEXT
  5
90
330
3B6
100
AcDbEntity
  8
ETC
100
AcDbText
 10
656.7675423565724
 20
735.7369135461724
 30
0.0
 40
64.0
  1
RUH-P5B1_1
 50
0.000003
 41
0.638021
  7
STANDARD1
100
AcDbText
  0
LINE
  5
91
330
3B6
100
AcDbEntity
  8
BASIS
100
AcDbLine
 10
-630.0
 20
0.0
 30
0.0
 11
630.0
 21
0.0
 31
0.0
  0
LINE
  5
92
330
3B6
100
AcDbEntity
  8
ARRANGE
100
AcDbLine
 10
28.28427124746189
 20
-28.28427124746189
 30
0.0
 11
-28.28427124746188
 21
28.28427124746189
 31
0.0
  0
LINE
  5
93
330
3B6
100
AcDbEntity
  8
ARRANGE
100
AcDbLine
 10
-28.28427124746189
 20
-28.28427124746189
 30
0.0
 11
28.28427124746189
 21
28.28427124746189
 31
0.0
  0
CIRCLE
  5
94
330
3B6
100
AcDbEntity
  8
ARRANGE
100
AcDbCircle
 10
0.0
 20
0.0
 30
0.0
 40
40.0
  0
LINE
  5
95
330
3B6
100
AcDbEntity
  8
BASIS
100
AcDbLine
 10
0.0
 20
350.0
 30
0.0
 11
0.0
 21
-350.0
 31
0.0
  0
LINE
  5
96
330
3B6
100
AcDbEntity
  8
DETAIL
100
AcDbLine
 10
-595.0
 20
209.9999999999999
 30
0.0
 11
-595.0
 21
-209.9999999999999
 31
0.0
  0
LINE
  5
97
330
3B6
100
AcDbEntity
  8
DETAIL
100
AcDbLine
 10
585.0
 20
310.0000000000008
 30
0.0
 11
585.0000000000001
 21
210.0000000000009
 31
0.0
  0
LINE
  5
98
330
3B6
100
AcDbEntity
  8
DETAIL
100
AcDbLine
 10
20.11765110612793
 20
-284.9999999999997
 30
0.0
 11
564.8823488938721
 21
-284.9999999999995
 31
0.0
  0
LINE
  5
99
330
3B6
100
AcDbEntity
  8
DETAIL
100
AcDbLine
 10
-297.9999999999999
 20
310.0000000000005
 30
0.0
 11
585.0
 21
310.0000000000005
 31
0.0
  0
LINE
  5
9A
330
3B6
100
AcDbEntity
  8
SIZE
100
AcDbLine
 10
-615.0
 20
209.9999999999999
 30
0.0
 11
-1064.537536450869
 21
209.9999999999999
 31
0.0
  0
LINE
  5
9B
330
3B6
100
AcDbEntity
  8
SIZE
100
AcDbLine
 10
-615.0
 20
-209.9999999999999
 30
0.0
 11
-1064.537536450869
 21
-209.9999999999998
 31
0.0
  0
LINE
  5
9C
330
3B6
100
AcDbEntity
  8
SIZE
100
AcDbLine
 10
-1034.537536450869
 20
199.9999999999999
 30
0.0
 11
-1034.537536450869
 21
-199.9999999999998
 31
0.0
  0
CIRCLE
  5
9D
330
3B6
100
AcDbEntity
  8
SIZE
100
AcDbCircle
 10
-1034.537536450869
 20
209.9999999999999
 30
0.0
 40
5.0
  0
LINE
  5
9E
330
3B6
100
AcDbEntity
  8
SIZE
100
AcDbLine
 10
-1034.537536450869
 20
205.0
 30
0.0
 11
-1034.537536450869
 21
199.9999999999999
 31
0.0
  0
CIRCLE
  5
9F
330
3B6
100
AcDbEntity
  8
SIZE
100
AcDbCircle
 10
-1034.537536450869
 20
-209.9999999999998
 30
0.0
 40
5.0
  0
LINE
  5
A0
330
3B6
100
AcDbEntity
  8
SIZE
100
AcDbLine
 10
-1034.537536450869
 20
-204.9999999999998
 30
0.0
 11
-1034.537536450869
 21
-199.9999999999998
 31
0.0
  0
TEXT
  5
A1
330
3B6
100
AcDbEntity
  8
SIZE
100
AcDbText
 10
-1054.537536450869
 20
-74.05714285714283
 30
0.0
 40
64.0
  1
420
 50
90.0
 41
0.9
 72
     1
 11
-1054.537536450869
 21
0.0000000000000213
 31
0.0
100
AcDbText
  0
LINE
  5
A2
330
3B6
100
AcDbEntity
  8
SIZE
100
AcDbLine
 10
-594.9999999999999
 20
-229.9999999999999
 30
0.0
 11
-594.9999999999999
 21
-872.0445433833331
 31
0.0
  0
LINE
  5
A3
330
3B6
100
AcDbEntity
  8
SIZE
100
AcDbLine
 10
595.0000000000001
 20
-229.9999999999997
 30
0.0
 11
595.0000000000001
 21
-872.0445433833331
 31
0.0
  0
LINE
  5
A4
330
3B6
100
AcDbEntity
  8
SIZE
100
AcDbLine
 10
-584.9999999999996
 20
-842.0445433833327
 30
0.0
 11
585.0000000000001
 21
-842.0445433833327
 31
0.0
  0
CIRCLE
  5
A5
330
3B6
100
AcDbEntity
  8
SIZE
100
AcDbCircle
 10
-594.9999999999999
 20
-842.0445433833327
 30
0.0
 40
5.0
  0
LINE
  5
A6
330
3B6
100
AcDbEntity
  8
SIZE
100
AcDbLine
 10
-589.9999999999996
 20
-842.0445433833327
 30
0.0
 11
-584.9999999999996
 21
-842.0445433833327
 31
0.0
  0
CIRCLE
  5
A7
330
3B6
100
AcDbEntity
  8
SIZE
100
AcDbCircle
 10
595.0000000000001
 20
-842.0445433833327
 30
0.0
 40
5.0
  0
LINE
  5
A8
330
3B6
100
AcDbEntity
  8
SIZE
100
AcDbLine
 10
590.0000000000001
 20
-842.0445433833327
 30
0.0
 11
585.0000000000001
 21
-842.0445433833327
 31
0.0
  0
TEXT
  5
A9
330
3B6
100
AcDbEntity
  8
SIZE
100
AcDbText
 10
-90.51428571428559
 20
-822.0445433833331
 30
0.0
 40
64.0
  1
1190
 41
0.9
 72
     1
 11
0.0000000000001137
 21
-822.0445433833331
 31
0.0
100
AcDbText
  0
LINE
  5
AA
330
3B6
100
AcDbEntity
  8
SIZE
100
AcDbLine
 10
615.0
 20
310.0000000000008
 30
0.0
 11
1070.983560702093
 21
310.0000000000008
 31
0.0
  0
LINE
  5
AB
330
3B6
100
AcDbEntity
  8
SIZE
100
AcDbLine
 10
615.0
 20
-284.9999999999995
 30
0.0
 11
1070.983560702093
 21
-284.9999999999995
 31
0.0
  0
LINE
  5
AC
330
3B6
100
AcDbEntity
  8
SIZE
100
AcDbLine
 10
1040.983560702094
 20
300.0000000000008
 30
0.0
 11
1040.983560702094
 21
-274.9999999999995
 31
0.0
  0
CIRCLE
  5
AD
330
3B6
100
AcDbEntity
  8
SIZE
100
AcDbCircle
 10
1040.983560702094
 20
310.0000000000008
 30
0.0
 40
5.0
  0
LINE
  5
AE
330
3B6
100
AcDbEntity
  8
SIZE
100
AcDbLine
 10
1040.983560702094
 20
305.0000000000008
 30
0.0
 11
1040.983560702094
 21
300.0000000000008
 31
0.0
  0
CIRCLE
  5
AF
330
3B6
100
AcDbEntity
  8
SIZE
100
AcDbCircle
 10
1040.983560702094
 20
-284.9999999999995
 30
0.0
 40
5.0
  0
LINE
  5
B0
330
3B6
100
AcDbEntity
  8
SIZE
100
AcDbLine
 10
1040.983560702094
 20
-279.9999999999995
 30
0.0
 11
1040.983560702094
 21
-274.9999999999995
 31
0.0
  0
TEXT
  5
B1
330
3B6
100
AcDbEntity
  8
SIZE
100
AcDbText
 10
1020.983560702094
 20
-61.55714285714206
 30
0.0
 40
64.0
  1
595
 50
90.0
 41
0.9
 72
     1
 11
1020.983560702094
 21
12.50000000000079
 31
0.0
100
AcDbText
  0
LINE
  5
B2
330
3B6
100
AcDbEntity
  8
DETAIL
100
AcDbLine
 10
-595.0
 20
209.9999999999999
 30
0.0
 11
595.0
 21
210.0000000000004
 31
0.0
  0
LINE
  5
B3
330
3B6
100
AcDbEntity
  8
SIZE
100
AcDbLine
 10
635.0
 20
310.0000000000005
 30
0.0
 11
865.2206902560719
 21
310.0000000000003
 31
0.0
  0
LINE
  5
B4
330
3B6
100
AcDbEntity
  8
SIZE
100
AcDbLine
 10
615.0
 20
210.0000000000004
 30
0.0
 11
865.2206902560719
 21
210.0000000000003
 31
0.0
  0
LINE
  5
B5
330
3B6
100
AcDbEntity
  8
SIZE
100
AcDbLine
 10
835.220690256072
 20
320.0000000000003
 30
0.0
 11
835.220690256072
 21
330.0000000000003
 31
0.0
  0
LINE
  5
B6
330
3B6
100
AcDbEntity
  8
SIZE
100
AcDbLine
 10
835.220690256072
 20
200.0000000000003
 30
0.0
 11
835.220690256072
 21
190.0000000000003
 31
0.0
  0
LINE
  5
B7
330
3B6
100
AcDbEntity
  8
SIZE
100
AcDbLine
 10
835.220690256072
 20
310.0000000000003
 30
0.0
 11
835.220690256072
 21
210.0000000000003
 31
0.0
  0
CIRCLE
  5
B8
330
3B6
100
AcDbEntity
  8
SIZE
100
AcDbCircle
 10
835.220690256072
 20
310.0000000000003
 30
0.0
 40
5.0
  0
LINE
  5
B9
330
3B6
100
AcDbEntity
  8
SIZE
100
AcDbLine
 10
835.220690256072
 20
315.0000000000004
 30
0.0
 11
835.220690256072
 21
320.0000000000003
 31
0.0
  0
CIRCLE
  5
BA
330
3B6
100
AcDbEntity
  8
SIZE
100
AcDbCircle
 10
835.220690256072
 20
210.0000000000003
 30
0.0
 40
5.0
  0
LINE
  5
BB
330
3B6
100
AcDbEntity
  8
SIZE
100
AcDbLine
 10
835.220690256072
 20
205.0000000000003
 30
0.0
 11
835.220690256072
 21
200.0000000000003
 31
0.0
  0
TEXT
  5
BC
330
3B6
100
AcDbEntity
  8
SIZE
100
AcDbText
 10
815.2206902560719
 20
191.4285714285719
 30
0.0
 40
64.0
  1
100
 50
90.0
 41
0.9
 72
     1
 11
815.2206902560719
 21
260.0000000000004
 31
0.0
100
AcDbText
  0
LINE
  5
BD
330
3B6
100
AcDbEntity
  8
SIZE
100
AcDbLine
 10
615.0
 20
210.0000000000004
 30
0.0
 11
865.2206902560719
 21
210.0000000000003
 31
0.0
  0
LINE
  5
BE
330
3B6
100
AcDbEntity
  8
SIZE
100
AcDbLine
 10
584.8823488938721
 20
-284.9999999999995
 30
0.0
 11
865.2206902560719
 21
-284.9999999999995
 31
0.0
  0
LINE
  5
BF
330
3B6
100
AcDbEntity
  8
SIZE
100
AcDbLine
 10
835.220690256072
 20
200.0000000000003
 30
0.0
 11
835.2206902560716
 21
-274.9999999999995
 31
0.0
  0
CIRCLE
  5
C0
330
3B6
100
AcDbEntity
  8
SIZE
100
AcDbCircle
 10
835.220690256072
 20
210.0000000000003
 30
0.0
 40
5.0
  0
LINE
  5
C1
330
3B6
100
AcDbEntity
  8
SIZE
100
AcDbLine
 10
835.220690256072
 20
205.0000000000003
 30
0.0
 11
835.220690256072
 21
200.0000000000003
 31
0.0
  0
CIRCLE
  5
C2
330
3B6
100
AcDbEntity
  8
SIZE
100
AcDbCircle
 10
835.2206902560716
 20
-284.9999999999995
 30
0.0
 40
5.0
  0
LINE
  5
C3
330
3B6
100
AcDbEntity
  8
SIZE
100
AcDbLine
 10
835.2206902560716
 20
-279.9999999999995
 30
0.0
 11
835.2206902560716
 21
-274.9999999999995
 31
0.0
  0
TEXT
  5
C4
330
3B6
100
AcDbEntity
  8
SIZE
100
AcDbText
 10
815.2206902560719
 20
-111.5571428571423
 30
0.0
 40
64.0
  1
495
 50
90.0
 41
0.9
 72
     1
 11
815.2206902560719
 21
-37.49999999999943
 31
0.0
100
AcDbText
  0
LINE
  5
C5
330
3B6
100
AcDbEntity
  8
DETAIL
100
AcDbLine
 10
-298.0
 20
310.0000000000008
 30
0.0
 11
-297.9999999999999
 21
210.0000000000004
 31
0.0
  0
LINE
  5
C6
330
3B6
100
AcDbEntity
  8
DETAIL
100
AcDbLine
 10
-594.9999999999999
 20
-209.9999999999999
 30
0.0
 11
595.0000000000001
 21
-209.9999999999995
 31
0.0
  0
LINE
  5
C7
330
3B6
100
AcDbEntity
  8
SIZE
100
AcDbLine
 10
615.0
 20
210.0000000000004
 30
0.0
 11
753.9329309263153
 21
210.0000000000003
 31
0.0
  0
LINE
  5
C8
330
3B6
100
AcDbEntity
  8
SIZE
100
AcDbLine
 10
464.9999999999984
 20
185.0000000000017
 30
0.0
 11
753.9329309263153
 21
185.0000000000017
 31
0.0
  0
LINE
  5
C9
330
3B6
100
AcDbEntity
  8
SIZE
100
AcDbLine
 10
723.9329309263153
 20
220.0000000000003
 30
0.0
 11
723.9329309263153
 21
230.0000000000003
 31
0.0
  0
LINE
  5
CA
330
3B6
100
AcDbEntity
  8
SIZE
100
AcDbLine
 10
723.9329309263153
 20
175.0000000000016
 30
0.0
 11
723.9329309263153
 21
165.0000000000016
 31
0.0
  0
LINE
  5
CB
330
3B6
100
AcDbEntity
  8
SIZE
100
AcDbLine
 10
723.9329309263153
 20
210.0000000000003
 30
0.0
 11
723.9329309263153
 21
185.0000000000017
 31
0.0
  0
CIRCLE
  5
CC
330
3B6
100
AcDbEntity
  8
SIZE
100
AcDbCircle
 10
723.9329309263153
 20
210.0000000000003
 30
0.0
 40
5.0
  0
LINE
  5
CD
330
3B6
100
AcDbEntity
  8
SIZE
100
AcDbLine
 10
723.9329309263153
 20
215.0000000000004
 30
0.0
 11
723.9329309263153
 21
220.0000000000003
 31
0.0
  0
CIRCLE
  5
CE
330
3B6
100
AcDbEntity
  8
SIZE
100
AcDbCircle
 10
723.9329309263153
 20
185.0000000000017
 30
0.0
 40
5.0
  0
LINE
  5
CF
330
3B6
100
AcDbEntity
  8
SIZE
100
AcDbLine
 10
723.9329309263153
 20
180.0000000000017
 30
0.0
 11
723.9329309263153
 21
175.0000000000016
 31
0.0
  0
TEXT
  5
D0
330
3B6
100
AcDbEntity
  8
SIZE
100
AcDbText
 10
703.9329309263157
 20
150.8714285714297
 30
0.0
 40
64.0
  1
25
 50
90.0
 41
0.9
 72
     1
 11
703.9329309263157
 21
197.5000000000012
 31
0.0
100
AcDbText
  0
LINE
  5
D1
330
3B6
100
AcDbEntity
  8
NOTE
100
AcDbLine
 10
-425.0
 20
204.9999999999994
 30
0.0
 11
-425.0
 21
164.9999999999996
 31
0.0
  0
LINE
  5
D2
330
3B6
100
AcDbEntity
  8
NOTE
100
AcDbLine
 10
-445.0
 20
184.9999999999994
 30
0.0
 11
-405.0
 21
184.9999999999994
 31
0.0
  0
LWPOLYLINE
  5
D4
330
3B6
100
AcDbEntity
  8
NOTE
100
AcDbPolyline
 90
        3
 70
     0
 43
0.0
 10
-462.1078091534545
 20
199.9335355470934
 10
-424.9999999999991
 20
184.9999999999985
 10
-449.6695377782343
 20
216.4867253200868
  0
LINE
  5
D9
330
3B6
100
AcDbEntity
  8
NOTE
100
AcDbLine
 10
-0.0000000000009095
 20
205.0000000000013
 30
0.0
 11
-0.0000000000009095
 21
165.0000000000014
 31
0.0
  0
LINE
  5
DA
330
3B6
100
AcDbEntity
  8
NOTE
100
AcDbLine
 10
-20.0000000000009
 20
185.0000000000013
 30
0.0
 11
19.99999999999905
 21
185.0000000000013
 31
0.0
  0
LINE
  5
DC
330
3B6
100
AcDbEntity
  8
NOTE
100
AcDbLine
 10
424.9999999999984
 20
205.0000000000018
 30
0.0
 11
424.9999999999984
 21
165.0000000000017
 31
0.0
  0
LINE
  5
DD
330
3B6
100
AcDbEntity
  8
NOTE
100
AcDbLine
 10
404.9999999999982
 20
185.0000000000017
 30
0.0
 11
444.9999999999985
 21
185.0000000000017
 31
0.0
  0
LINE
  5
DF
330
3B6
100
AcDbEntity
  8
DETAIL
100
AcDbLine
 10
-277.9999999999997
 20
290.0000000000004
 30
0.0
 11
-277.9999999999997
 21
210.0000000000004
 31
0.0
  0
LINE
  5
E0
330
3B6
100
AcDbEntity
  8
DETAIL
100
AcDbLine
 10
-297.9999999999999
 20
290.0000000000004
 30
0.0
 11
585.0
 21
290.0000000000004
 31
0.0
  0
LINE
  5
E1
330
3B6
100
AcDbEntity
  8
DETAIL
100
AcDbLine
 10
565.0
 20
290.0000000000004
 30
0.0
 11
565.0000000000001
 21
210.0000000000009
 31
0.0
  0
LINE
  5
E2
330
3B6
100
AcDbEntity
  8
DETAIL
100
AcDbLine
 10
595.0
 20
210.0000000000004
 30
0.0
 11
595.0000000000001
 21
-209.9999999999996
 31
0.0
  0
TEXT
  5
E3
330
3B6
100
AcDbEntity
  8
NOTE
100
AcDbText
 10
-688.4633095426878
 20
523.7264420131049
 30
0.0
 40
64.0
  1
後吹込口
 41
0.9
100
AcDbText
  0
LINE
  5
E4
330
3B6
100
AcDbEntity
  8
NOTE
100
AcDbLine
 10
-417.1612695273815
 20
387.3291219416972
 30
0.0
 11
-483.0068631716368
 21
462.5910498842877
 31
0.0
  0
LINE
  5
E5
330
3B6
100
AcDbEntity
  8
NOTE
100
AcDbLine
 10
-478.8757363880316
 20
333.3360099132896
 30
0.0
 11
-456.2971580052548
 21
353.0896880065661
 31
0.0
  0
LINE
  5
E6
330
3B6
100
AcDbEntity
  8
NOTE
100
AcDbLine
 10
-384.0525818247771
 20
310.0000000000005
 30
0.0
 11
-394.5826911446047
 21
407.0828000349742
 31
0.0
  0
LINE
  5
E7
330
3B6
100
AcDbEntity
  8
NOTE
100
AcDbLine
 10
-384.0525818247771
 20
310.0000000000005
 30
0.0
 11
-478.8757363880316
 21
333.3360099132896
 31
0.0
  0
LINE
  5
E8
330
3B6
100
AcDbEntity
  8
NOTE
100
AcDbLine
 10
-417.1612695273815
 20
387.3291219416972
 30
0.0
 11
-394.5826911446047
 21
407.0828000349742
 31
0.0
  0
LINE
  5
E9
330
3B6
100
AcDbEntity
  8
NOTE
100
AcDbLine
 10
-522.1427516495102
 20
428.351615949156
 30
0.0
 11
-483.0068631716373
 21
462.5910498842872
 31
0.0
  0
LINE
  5
EA
330
3B6
100
AcDbEntity
  8
NOTE
100
AcDbLine
 10
-522.1427516495102
 20
428.351615949156
 30
0.0
 11
-456.2971580052548
 21
353.0896880065661
 31
0.0
  0
TEXT
  5
EB
330
3B6
100
AcDbEntity
  8
NOTE
100
AcDbText
 10
811.6212545985685
 20
576.4518906622709
 30
0.0
 40
64.0
  1
後吹込口
 41
0.9
100
AcDbText
  0
LINE
  5
EC
330
3B6
100
AcDbEntity
  8
NOTE
100
AcDbLine
 10
797.5992145832622
 20
440.054570590863
 30
0.0
 11
863.4448082275177
 21
515.3164985334532
 31
0.0
  0
LINE
  5
ED
330
3B6
100
AcDbEntity
  8
NOTE
100
AcDbLine
 10
859.3136814439123
 20
386.0614585624554
 30
0.0
 11
836.7351030611356
 21
405.8151366557318
 31
0.0
  0
LINE
  5
EE
330
3B6
100
AcDbEntity
  8
NOTE
100
AcDbLine
 10
764.4905268806578
 20
362.725448649166
 30
0.0
 11
775.0206362004855
 21
459.8082486841398
 31
0.0
  0
LINE
  5
EF
330
3B6
100
AcDbEntity
  8
NOTE
100
AcDbLine
 10
764.4905268806578
 20
362.725448649166
 30
0.0
 11
859.3136814439123
 21
386.0614585624554
 31
0.0
  0
LINE
  5
F0
330
3B6
100
AcDbEntity
  8
NOTE
100
AcDbLine
 10
797.5992145832622
 20
440.054570590863
 30
0.0
 11
775.0206362004855
 21
459.8082486841398
 31
0.0
  0
LINE
  5
F1
330
3B6
100
AcDbEntity
  8
NOTE
100
AcDbLine
 10
902.5806967053908
 20
481.0770645983216
 30
0.0
 11
863.4448082275181
 21
515.3164985334528
 31
0.0
  0
LINE
  5
F2
330
3B6
100
AcDbEntity
  8
NOTE
100
AcDbLine
 10
902.5806967053908
 20
481.0770645983216
 30
0.0
 11
836.7351030611356
 21
405.8151366557318
 31
0.0
  0
LINE
  5
F3
330
3B6
100
AcDbEntity
  8
NOTE
100
AcDbLine
 10
-527.0
 20
-82.65000000000004
 30
0.0
 11
-527.0
 21
-95.3499999999998
 31
0.0
  0
LINE
  5
F4
330
3B6
100
AcDbEntity
  8
NOTE
100
AcDbLine
 10
-533.3499999999999
 20
-88.99999999999979
 30
0.0
 11
-520.65
 21
-88.99999999999979
 31
0.0
  0
LINE
  5
F5
330
3B6
100
AcDbEntity
  8
NOTE
100
AcDbLine
 10
-472.0
 20
-118.2999999999999
 30
0.0
 11
-472.0
 21
-143.6999999999998
 31
0.0
  0
LINE
  5
F6
330
3B6
100
AcDbEntity
  8
NOTE
100
AcDbLine
 10
-484.7
 20
-130.9999999999998
 30
0.0
 11
-459.2999999999998
 21
-130.9999999999998
 31
0.0
  0
CIRCLE
  5
F7
330
3B6
100
AcDbEntity
  8
DETAIL
100
AcDbCircle
 10
-472.0
 20
-130.9999999999998
 30
0.0
 40
12.7
  0
CIRCLE
  5
F8
330
3B6
100
AcDbEntity
  8
DETAIL
100
AcDbCircle
 10
-527.0
 20
-88.99999999999979
 30
0.0
 40
6.349999999999997
  0
LINE
  5
F9
330
3B6
100
AcDbEntity
  8
SIZE
100
AcDbLine
 10
-553.35
 20
-88.99999999999979
 30
0.0
 11
-887.2890773688215
 21
-88.99999999999979
 31
0.0
  0
LINE
  5
FA
330
3B6
100
AcDbEntity
  8
SIZE
100
AcDbLine
 10
-614.9999999999996
 20
-209.9999999999999
 30
0.0
 11
-887.2890773688215
 21
-209.9999999999998
 31
0.0
  0
LINE
  5
FB
330
3B6
100
AcDbEntity
  8
SIZE
100
AcDbLine
 10
-857.2890773688216
 20
-78.99999999999987
 30
0.0
 11
-857.2890773688216
 21
-68.99999999999986
 31
0.0
  0
LINE
  5
FC
330
3B6
100
AcDbEntity
  8
SIZE
100
AcDbLine
 10
-857.2890773688216
 20
-219.9999999999998
 30
0.0
 11
-857.2890773688216
 21
-229.9999999999998
 31
0.0
  0
LINE
  5
FD
330
3B6
100
AcDbEntity
  8
SIZE
100
AcDbLine
 10
-857.2890773688216
 20
-88.99999999999979
 30
0.0
 11
-857.2890773688216
 21
-209.9999999999998
 31
0.0
  0
CIRCLE
  5
FE
330
3B6
100
AcDbEntity
  8
SIZE
100
AcDbCircle
 10
-857.2890773688216
 20
-88.99999999999979
 30
0.0
 40
5.0
  0
LINE
  5
FF
330
3B6
100
AcDbEntity
  8
SIZE
100
AcDbLine
 10
-857.2890773688216
 20
-83.99999999999979
 30
0.0
 11
-857.2890773688216
 21
-78.99999999999979
 31
0.0
  0
CIRCLE
  5
100
330
3B6
100
AcDbEntity
  8
SIZE
100
AcDbCircle
 10
-857.2890773688216
 20
-209.9999999999998
 30
0.0
 40
5.0
  0
LINE
  5
101
330
3B6
100
AcDbEntity
  8
SIZE
100
AcDbLine
 10
-857.2890773688216
 20
-214.9999999999998
 30
0.0
 11
-857.2890773688216
 21
-219.9999999999998
 31
0.0
  0
TEXT
  5
102
330
3B6
100
AcDbEntity
  8
SIZE
100
AcDbText
 10
-877.2890773688216
 20
-205.7285714285714
 30
0.0
 40
64.0
  1
121
 50
90.0
 41
0.9
 72
     1
 11
-877.2890773688216
 21
-149.5
 31
0.0
100
AcDbText
  0
LINE
  5
103
330
3B6
100
AcDbEntity
  8
SIZE
100
AcDbLine
 10
-504.6999999999999
 20
-130.9999999999998
 30
0.0
 11
-736.3855658046993
 21
-130.9999999999998
 31
0.0
  0
LINE
  5
104
330
3B6
100
AcDbEntity
  8
SIZE
100
AcDbLine
 10
-614.9999999999996
 20
-209.9999999999999
 30
0.0
 11
-736.3855658046993
 21
-209.9999999999999
 31
0.0
  0
LINE
  5
105
330
3B6
100
AcDbEntity
  8
SIZE
100
AcDbLine
 10
-706.3855658046995
 20
-120.9999999999998
 30
0.0
 11
-706.3855658046995
 21
-110.9999999999999
 31
0.0
  0
LINE
  5
106
330
3B6
100
AcDbEntity
  8
SIZE
100
AcDbLine
 10
-706.3855658046995
 20
-219.9999999999999
 30
0.0
 11
-706.3855658046995
 21
-229.9999999999999
 31
0.0
  0
LINE
  5
107
330
3B6
100
AcDbEntity
  8
SIZE
100
AcDbLine
 10
-706.3855658046995
 20
-130.9999999999998
 30
0.0
 11
-706.3855658046995
 21
-209.9999999999999
 31
0.0
  0
CIRCLE
  5
108
330
3B6
100
AcDbEntity
  8
SIZE
100
AcDbCircle
 10
-706.3855658046995
 20
-130.9999999999998
 30
0.0
 40
5.0
  0
LINE
  5
109
330
3B6
100
AcDbEntity
  8
SIZE
100
AcDbLine
 10
-706.3855658046995
 20
-125.9999999999999
 30
0.0
 11
-706.3855658046995
 21
-120.9999999999998
 31
0.0
  0
CIRCLE
  5
10A
330
3B6
100
AcDbEntity
  8
SIZE
100
AcDbCircle
 10
-706.3855658046995
 20
-209.9999999999999
 30
0.0
 40
5.0
  0
LINE
  5
10B
330
3B6
100
AcDbEntity
  8
SIZE
100
AcDbLine
 10
-706.3855658046995
 20
-214.9999999999999
 30
0.0
 11
-706.3855658046995
 21
-219.9999999999999
 31
0.0
  0
TEXT
  5
10C
330
3B6
100
AcDbEntity
  8
SIZE
100
AcDbText
 10
-726.3855658046993
 20
-215.7571428571427
 30
0.0
 40
64.0
  1
79
 50
90.0
 41
0.9
 72
     1
 11
-726.3855658046993
 21
-170.4999999999998
 31
0.0
100
AcDbText
  0
LINE
  5
10D
330
3B6
100
AcDbEntity
  8
SIZE
100
AcDbLine
 10
-527.0
 20
-115.3499999999998
 30
0.0
 11
-527.0
 21
-418.4450104882865
 31
0.0
  0
LINE
  5
10E
330
3B6
100
AcDbEntity
  8
SIZE
100
AcDbLine
 10
-594.9999999999999
 20
-229.9999999999999
 30
0.0
 11
-594.9999999999999
 21
-418.4450104882865
 31
0.0
  0
LINE
  5
10F
330
3B6
100
AcDbEntity
  8
SIZE
100
AcDbLine
 10
-517.0
 20
-388.4450104882867
 30
0.0
 11
-507.0
 21
-388.4450104882867
 31
0.0
  0
LINE
  5
110
330
3B6
100
AcDbEntity
  8
SIZE
100
AcDbLine
 10
-604.9999999999998
 20
-388.4450104882867
 30
0.0
 11
-614.9999999999996
 21
-388.4450104882867
 31
0.0
  0
LINE
  5
111
330
3B6
100
AcDbEntity
  8
SIZE
100
AcDbLine
 10
-527.0
 20
-388.4450104882867
 30
0.0
 11
-594.9999999999999
 21
-388.4450104882867
 31
0.0
  0
CIRCLE
  5
112
330
3B6
100
AcDbEntity
  8
SIZE
100
AcDbCircle
 10
-527.0
 20
-388.4450104882867
 30
0.0
 40
5.0
  0
LINE
  5
113
330
3B6
100
AcDbEntity
  8
SIZE
100
AcDbLine
 10
-522.0
 20
-388.4450104882867
 30
0.0
 11
-517.0
 21
-388.4450104882867
 31
0.0
  0
CIRCLE
  5
114
330
3B6
100
AcDbEntity
  8
SIZE
100
AcDbCircle
 10
-594.9999999999999
 20
-388.4450104882867
 30
0.0
 40
5.0
  0
LINE
  5
115
330
3B6
100
AcDbEntity
  8
SIZE
100
AcDbLine
 10
-599.9999999999999
 20
-388.4450104882867
 30
0.0
 11
-604.9999999999998
 21
-388.4450104882867
 31
0.0
  0
TEXT
  5
116
330
3B6
100
AcDbEntity
  8
SIZE
100
AcDbText
 10
-607.6285714285713
 20
-368.4450104882866
 30
0.0
 40
64.0
  1
68
 41
0.9
 72
     1
 11
-561.0
 21
-368.4450104882866
 31
0.0
100
AcDbText
  0
LINE
  5
117
330
3B6
100
AcDbEntity
  8
SIZE
100
AcDbLine
 10
-472.0
 20
-163.7
 30
0.0
 11
-472.0
 21
-563.6959086715083
 31
0.0
  0
LINE
  5
118
330
3B6
100
AcDbEntity
  8
SIZE
100
AcDbLine
 10
-594.9999999999999
 20
-229.9999999999999
 30
0.0
 11
-594.9999999999999
 21
-563.6959086715083
 31
0.0
  0
LINE
  5
119
330
3B6
100
AcDbEntity
  8
SIZE
100
AcDbLine
 10
-462.0
 20
-533.6959086715081
 30
0.0
 11
-452.0
 21
-533.6959086715081
 31
0.0
  0
LINE
  5
11A
330
3B6
100
AcDbEntity
  8
SIZE
100
AcDbLine
 10
-604.9999999999998
 20
-533.6959086715081
 30
0.0
 11
-614.9999999999996
 21
-533.6959086715081
 31
0.0
  0
LINE
  5
11B
330
3B6
100
AcDbEntity
  8
SIZE
100
AcDbLine
 10
-472.0
 20
-533.6959086715081
 30
0.0
 11
-594.9999999999999
 21
-533.6959086715081
 31
0.0
  0
CIRCLE
  5
11C
330
3B6
100
AcDbEntity
  8
SIZE
100
AcDbCircle
 10
-472.0
 20
-533.6959086715081
 30
0.0
 40
5.0
  0
LINE
  5
11D
330
3B6
100
AcDbEntity
  8
SIZE
100
AcDbLine
 10
-467.0
 20
-533.6959086715081
 30
0.0
 11
-462.0
 21
-533.6959086715081
 31
0.0
  0
CIRCLE
  5
11E
330
3B6
100
AcDbEntity
  8
SIZE
100
AcDbCircle
 10
-594.9999999999999
 20
-533.6959086715081
 30
0.0
 40
5.0
  0
LINE
  5
11F
330
3B6
100
AcDbEntity
  8
SIZE
100
AcDbLine
 10
-599.9999999999999
 20
-533.6959086715081
 30
0.0
 11
-604.9999999999998
 21
-533.6959086715081
 31
0.0
  0
TEXT
  5
120
330
3B6
100
AcDbEntity
  8
SIZE
100
AcDbText
 10
-602.0714285714284
 20
-513.6959086715083
 30
0.0
 40
64.0
  1
123
 41
0.9
 72
     1
 11
-533.4999999999999
 21
-513.6959086715083
 31
0.0
100
AcDbText
  0
LINE
  5
121
330
3B6
100
AcDbEntity
  8
NOTE
100
AcDbLine
 10
-526.9999999997613
 20
-89.00000000012466
 30
0.0
 11
-880.1215204735795
 21
232.3034375349193
 31
0.0
  0
LWPOLYLINE
  5
122
330
3B6
100
AcDbEntity
  8
NOTE
100
AcDbPolyline
 90
        3
 70
     0
 43
0.0
 10
-562.4356326989441
 20
-70.44424834964812
 10
-526.9999999997613
 20
-89.00000000012502
 10
-548.4102824772848
 20
-55.21243172705993
  0
LINE
  5
127
330
3B6
100
AcDbEntity
  8
NOTE
100
AcDbLine
 10
-1365.717109522416
 20
232.3034375349193
 30
0.0
 11
-880.1215204735795
 21
232.3034375349193
 31
0.0
  0
TEXT
  5
128
330
3B6
100
AcDbEntity
  8
NOTE
100
AcDbText
 10
-1325.144278545272
 20
249.3538797000797
 30
0.0
 40
64.0
  1
RL %%C12.7
 50
0.0000029999976964
 41
0.659722
  7
STANDARD1
100
AcDbText
  0
LINE
  5
129
330
3B6
100
AcDbEntity
  8
NOTE
100
AcDbLine
 10
-472.0000000000017
 20
-131.0000000000006
 30
0.0
 11
-822.8877934875736
 21
-454.7413528961056
 31
0.0
  0
LWPOLYLINE
  5
12A
330
3B6
100
AcDbEntity
  8
NOTE
100
AcDbPolyline
 90
        3
 70
     0
 43
0.0
 10
-493.576727593362
 20
-164.6815203111069
 10
-472.0000000000015
 20
-131.0000000000008
 10
-507.5267540075197
 20
-149.3806886504208
  0
LINE
  5
12F
330
3B6
100
AcDbEntity
  8
NOTE
100
AcDbLine
 10
-1308.48338253641
 20
-454.7413528961056
 30
0.0
 11
-822.8877934875736
 21
-454.7413528961056
 31
0.0
  0
TEXT
  5
130
330
3B6
100
AcDbEntity
  8
NOTE
100
AcDbText
 10
-1267.910551559268
 20
-437.6909107309455
 30
0.0
 40
64.0
  1
RG %%C25.4
 50
0.0000029999976964
 41
0.659722
  7
STANDARD1
100
AcDbText
  0
LINE
  5
131
330
3B6
100
AcDbEntity
  8
DETAIL
100
AcDbLine
 10
585.0000000000001
 20
-209.9999999999983
 30
0.0
 11
574.7660658703783
 21
-276.520571842539
 31
0.0
  0
ARC
  5
132
330
3B6
100
AcDbEntity
  8
DETAIL
100
AcDbCircle
 10
564.8823488938721
 20
-274.9999999999995
 30
0.0
 40
10.0
100
AcDbArc
 50
270.0
 51
351.2538377374446
  0
LINE
  5
133
330
3B6
100
AcDbEntity
  8
DETAIL
100
AcDbLine
 10
-0.0000000000001137
 20
-209.9999999999991
 30
0.0
 11
10.23393412962184
 21
-276.5205718425396
 31
0.0
  0
ARC
  5
134
330
3B6
100
AcDbEntity
  8
DETAIL
100
AcDbCircle
 10
20.11765110612793
 20
-275.0000000000003
 30
0.0
 40
10.0
100
AcDbArc
 50
188.7461622625554
 51
270.0
  0
LINE
  5
135
330
3B6
100
AcDbEntity
  8
NOTE
100
AcDbLine
 10
205.4260237067078
 20
-424.5386460614603
 30
0.0
 11
205.4260237067078
 21
-324.5386460614604
 31
0.0
  0
LINE
  5
136
330
3B6
100
AcDbEntity
  8
NOTE
100
AcDbLine
 10
123.4264409857787
 20
-424.5386460614603
 30
0.0
 11
153.4264409857787
 21
-424.5386460614603
 31
0.0
  0
LINE
  5
137
330
3B6
100
AcDbEntity
  8
NOTE
100
AcDbLine
 10
179.4264409857786
 20
-504.5386460614603
 30
0.0
 11
235.4260237067077
 21
-424.5386460614603
 31
0.0
  0
LINE
  5
138
330
3B6
100
AcDbEntity
  8
NOTE
100
AcDbLine
 10
179.4264409857786
 20
-504.5386460614603
 30
0.0
 11
123.4264409857787
 21
-424.5386460614603
 31
0.0
  0
LINE
  5
139
330
3B6
100
AcDbEntity
  8
NOTE
100
AcDbLine
 10
205.4260237067075
 20
-424.5386460614603
 30
0.0
 11
235.4260237067077
 21
-424.5386460614603
 31
0.0
  0
LINE
  5
13A
330
3B6
100
AcDbEntity
  8
NOTE
100
AcDbLine
 10
153.4264409857787
 20
-324.5386460614604
 30
0.0
 11
205.4260237067075
 21
-324.5386460614604
 31
0.0
  0
LINE
  5
13B
330
3B6
100
AcDbEntity
  8
NOTE
100
AcDbLine
 10
153.4264409857787
 20
-324.5386460614604
 30
0.0
 11
153.4264409857787
 21
-424.5386460614603
 31
0.0
  0
TEXT
  5
13C
330
3B6
100
AcDbEntity
  8
NOTE
100
AcDbText
 10
242.1439808930244
 20
-404.1886964017884
 30
0.0
 40
64.0
  1
空気吹出口
 41
0.9
100
AcDbText
  0
LINE
  5
13D
330
3B6
100
AcDbEntity
  8
NOTE
100
AcDbLine
 10
-425.0
 20
-204.9999999999979
 30
0.0
 11
-425.0
 21
-164.9999999999979
 31
0.0
  0
LINE
  5
13E
330
3B6
100
AcDbEntity
  8
NOTE
100
AcDbLine
 10
-445.0
 20
-184.9999999999979
 30
0.0
 11
-405.0
 21
-184.9999999999979
 31
0.0
  0
LINE
  5
140
330
3B6
100
AcDbEntity
  8
NOTE
100
AcDbLine
 10
-0.0000000000009095
 20
-204.9999999999997
 30
0.0
 11
-0.0000000000009095
 21
-164.9999999999996
 31
0.0
  0
LINE
  5
141
330
3B6
100
AcDbEntity
  8
NOTE
100
AcDbLine
 10
-20.0000000000009
 20
-184.9999999999997
 30
0.0
 11
19.99999999999905
 21
-184.9999999999997
 31
0.0
  0
LINE
  5
143
330
3B6
100
AcDbEntity
  8
NOTE
100
AcDbLine
 10
424.9999999999984
 20
-205.0000000000001
 30
0.0
 11
424.9999999999984
 21
-165.0
 31
0.0
  0
LINE
  5
144
330
3B6
100
AcDbEntity
  8
NOTE
100
AcDbLine
 10
404.9999999999982
 20
-185.0000000000001
 30
0.0
 11
444.9999999999985
 21
-185.0000000000001
 31
0.0
  0
LINE
  5
146
330
3B6
100
AcDbEntity
  8
NOTE
100
AcDbLine
 10
-424.9999999997625
 20
184.9999999996229
 30
0.0
 11
-778.1215204735806
 21
506.3034375346672
 31
0.0
  0
LINE
  5
147
330
3B6
100
AcDbEntity
  8
NOTE
100
AcDbLine
 10
-1263.717109522417
 20
506.3034375346672
 30
0.0
 11
-778.1215204735806
 21
506.3034375346672
 31
0.0
  0
TEXT
  5
148
330
3B6
100
AcDbEntity
  8
NOTE
100
AcDbText
 10
-1282.938634721165
 20
523.3538796998276
 30
0.0
 40
64.0
  1
AH 6-15×22長穴
 50
0.0000029999976964
 41
0.659722
  7
STANDARD1
100
AcDbText
  0
LINE
  5
149
330
3B6
100
AcDbEntity
  8
SIZE
100
AcDbLine
 10
464.9999999999984
 20
-185.0000000000002
 30
0.0
 11
768.356849129519
 21
-185.0000000000003
 31
0.0
  0
LINE
  5
14A
330
3B6
100
AcDbEntity
  8
SIZE
100
AcDbLine
 10
615.0000000000001
 20
-209.9999999999995
 30
0.0
 11
768.356849129519
 21
-209.9999999999995
 31
0.0
  0
LINE
  5
14B
330
3B6
100
AcDbEntity
  8
SIZE
100
AcDbLine
 10
738.3568491295184
 20
-175.0000000000002
 30
0.0
 11
738.3568491295184
 21
-165.0000000000002
 31
0.0
  0
LINE
  5
14C
330
3B6
100
AcDbEntity
  8
SIZE
100
AcDbLine
 10
738.3568491295184
 20
-219.9999999999995
 30
0.0
 11
738.3568491295184
 21
-229.9999999999994
 31
0.0
  0
LINE
  5
14D
330
3B6
100
AcDbEntity
  8
SIZE
100
AcDbLine
 10
738.3568491295184
 20
-185.0000000000003
 30
0.0
 11
738.3568491295184
 21
-209.9999999999995
 31
0.0
  0
CIRCLE
  5
14E
330
3B6
100
AcDbEntity
  8
SIZE
100
AcDbCircle
 10
738.3568491295184
 20
-185.0000000000003
 30
0.0
 40
5.0
  0
LINE
  5
14F
330
3B6
100
AcDbEntity
  8
SIZE
100
AcDbLine
 10
738.3568491295184
 20
-180.0000000000002
 30
0.0
 11
738.3568491295184
 21
-175.0000000000002
 31
0.0
  0
CIRCLE
  5
150
330
3B6
100
AcDbEntity
  8
SIZE
100
AcDbCircle
 10
738.3568491295184
 20
-209.9999999999995
 30
0.0
 40
5.0
  0
LINE
  5
151
330
3B6
100
AcDbEntity
  8
SIZE
100
AcDbLine
 10
738.3568491295184
 20
-214.9999999999994
 30
0.0
 11
738.3568491295184
 21
-219.9999999999995
 31
0.0
  0
TEXT
  5
152
330
3B6
100
AcDbEntity
  8
SIZE
100
AcDbText
 10
718.3568491295192
 20
-244.128571428571
 30
0.0
 40
64.0
  1
25
 50
90.0
 41
0.9
 72
     1
 11
718.3568491295192
 21
-197.4999999999996
 31
0.0
100
AcDbText
  0
LINE
  5
153
330
3B6
100
AcDbEntity
  8
SIZE
100
AcDbLine
 10
464.9999999999984
 20
185.0000000000017
 30
0.0
 11
753.9329309263153
 21
185.0000000000017
 31
0.0
  0
LINE
  5
154
330
3B6
100
AcDbEntity
  8
SIZE
100
AcDbLine
 10
464.9999999999984
 20
-185.0000000000002
 30
0.0
 11
753.9329309263153
 21
-185.0000000000003
 31
0.0
  0
LINE
  5
155
330
3B6
100
AcDbEntity
  8
SIZE
100
AcDbLine
 10
723.9329309263153
 20
175.0000000000016
 30
0.0
 11
723.9329309263153
 21
-175.0000000000002
 31
0.0
  0
CIRCLE
  5
156
330
3B6
100
AcDbEntity
  8
SIZE
100
AcDbCircle
 10
723.9329309263153
 20
185.0000000000017
 30
0.0
 40
5.0
  0
LINE
  5
157
330
3B6
100
AcDbEntity
  8
SIZE
100
AcDbLine
 10
723.9329309263153
 20
180.0000000000017
 30
0.0
 11
723.9329309263153
 21
175.0000000000016
 31
0.0
  0
CIRCLE
  5
158
330
3B6
100
AcDbEntity
  8
SIZE
100
AcDbCircle
 10
723.9329309263153
 20
-185.0000000000003
 30
0.0
 40
5.0
  0
LINE
  5
159
330
3B6
100
AcDbEntity
  8
SIZE
100
AcDbLine
 10
723.9329309263153
 20
-180.0000000000002
 30
0.0
 11
723.9329309263153
 21
-175.0000000000002
 31
0.0
  0
TEXT
  5
15A
330
3B6
100
AcDbEntity
  8
SIZE
100
AcDbText
 10
703.9329309263156
 20
-74.05714285714198
 30
0.0
 40
64.0
  1
370
 50
90.0
 41
0.9
 72
     1
 11
703.9329309263156
 21
0.0000000000008722
 31
0.0
100
AcDbText
  0
LINE
  5
15B
330
3B6
100
AcDbEntity
  8
SIZE
100
AcDbLine
 10
-595.0
 20
-229.9999999999999
 30
0.0
 11
-595.0
 21
-708.8082365100558
 31
0.0
  0
LINE
  5
15C
330
3B6
100
AcDbEntity
  8
SIZE
100
AcDbLine
 10
-425.0
 20
-224.9999999999979
 30
0.0
 11
-425.0
 21
-708.8082365100558
 31
0.0
  0
LINE
  5
15D
330
3B6
100
AcDbEntity
  8
SIZE
100
AcDbLine
 10
-605.0
 20
-678.8082365100558
 30
0.0
 11
-615.0
 21
-678.8082365100558
 31
0.0
  0
LINE
  5
15E
330
3B6
100
AcDbEntity
  8
SIZE
100
AcDbLine
 10
-415.0
 20
-678.8082365100558
 30
0.0
 11
-405.0
 21
-678.8082365100558
 31
0.0
  0
LINE
  5
15F
330
3B6
100
AcDbEntity
  8
SIZE
100
AcDbLine
 10
-595.0
 20
-678.8082365100558
 30
0.0
 11
-425.0
 21
-678.8082365100558
 31
0.0
  0
CIRCLE
  5
160
330
3B6
100
AcDbEntity
  8
SIZE
100
AcDbCircle
 10
-595.0
 20
-678.8082365100558
 30
0.0
 40
5.0
  0
LINE
  5
161
330
3B6
100
AcDbEntity
  8
SIZE
100
AcDbLine
 10
-600.0
 20
-678.8082365100558
 30
0.0
 11
-605.0
 21
-678.8082365100558
 31
0.0
  0
CIRCLE
  5
162
330
3B6
100
AcDbEntity
  8
SIZE
100
AcDbCircle
 10
-425.0
 20
-678.8082365100558
 30
0.0
 40
5.0
  0
LINE
  5
163
330
3B6
100
AcDbEntity
  8
SIZE
100
AcDbLine
 10
-420.0
 20
-678.8082365100558
 30
0.0
 11
-415.0
 21
-678.8082365100558
 31
0.0
  0
TEXT
  5
164
330
3B6
100
AcDbEntity
  8
SIZE
100
AcDbText
 10
-578.5714285714285
 20
-658.8082365100556
 30
0.0
 40
64.0
  1
170
 41
0.9
 72
     1
 11
-510.0
 21
-658.8082365100556
 31
0.0
100
AcDbText
  0
LINE
  5
165
330
3B6
100
AcDbEntity
  8
SIZE
100
AcDbLine
 10
-425.0
 20
-224.9999999999979
 30
0.0
 11
-425.0
 21
-708.8082365100558
 31
0.0
  0
LINE
  5
166
330
3B6
100
AcDbEntity
  8
SIZE
100
AcDbLine
 10
-0.0000000000000012
 20
-364.9999999999995
 30
0.0
 11
-0.0000000000000223
 21
-708.8082365100558
 31
0.0
  0
LINE
  5
167
330
3B6
100
AcDbEntity
  8
SIZE
100
AcDbLine
 10
-415.0
 20
-678.8082365100558
 30
0.0
 11
-10.00000000000001
 21
-678.8082365100558
 31
0.0
  0
CIRCLE
  5
168
330
3B6
100
AcDbEntity
  8
SIZE
100
AcDbCircle
 10
-425.0
 20
-678.8082365100558
 30
0.0
 40
5.0
  0
LINE
  5
169
330
3B6
100
AcDbEntity
  8
SIZE
100
AcDbLine
 10
-420.0
 20
-678.8082365100558
 30
0.0
 11
-415.0
 21
-678.8082365100558
 31
0.0
  0
CIRCLE
  5
16A
330
3B6
100
AcDbEntity
  8
SIZE
100
AcDbCircle
 10
-0.0000000000000204
 20
-678.8082365100558
 30
0.0
 40
5.0
  0
LINE
  5
16B
330
3B6
100
AcDbEntity
  8
SIZE
100
AcDbLine
 10
-5.00000000000002
 20
-678.8082365100558
 30
0.0
 11
-10.00000000000001
 21
-678.8082365100558
 31
0.0
  0
TEXT
  5
16C
330
3B6
100
AcDbEntity
  8
SIZE
100
AcDbText
 10
-286.5571428571428
 20
-658.8082365100556
 30
0.0
 40
64.0
  1
425
 41
0.9
 72
     1
 11
-212.5
 21
-658.8082365100556
 31
0.0
100
AcDbText
  0
LINE
  5
16D
330
3B6
100
AcDbEntity
  8
SIZE
100
AcDbLine
 10
-0.0000000000000012
 20
-364.9999999999995
 30
0.0
 11
-0.0000000000000223
 21
-708.8082365100558
 31
0.0
  0
LINE
  5
16E
330
3B6
100
AcDbEntity
  8
SIZE
100
AcDbLine
 10
424.9999999999984
 20
-225.0000000000001
 30
0.0
 11
424.9999999999984
 21
-708.8082365100558
 31
0.0
  0
LINE
  5
16F
330
3B6
100
AcDbEntity
  8
SIZE
100
AcDbLine
 10
9.999999999999975
 20
-678.8082365100558
 30
0.0
 11
414.9999999999984
 21
-678.8082365100558
 31
0.0
  0
CIRCLE
  5
170
330
3B6
100
AcDbEntity
  8
SIZE
100
AcDbCircle
 10
-0.0000000000000204
 20
-678.8082365100558
 30
0.0
 40
5.0
  0
LINE
  5
171
330
3B6
100
AcDbEntity
  8
SIZE
100
AcDbLine
 10
4.999999999999976
 20
-678.8082365100558
 30
0.0
 11
9.99999999999998
 21
-678.8082365100558
 31
0.0
  0
CIRCLE
  5
172
330
3B6
100
AcDbEntity
  8
SIZE
100
AcDbCircle
 10
424.9999999999984
 20
-678.8082365100558
 30
0.0
 40
5.0
  0
LINE
  5
173
330
3B6
100
AcDbEntity
  8
SIZE
100
AcDbLine
 10
419.9999999999984
 20
-678.8082365100558
 30
0.0
 11
414.9999999999984
 21
-678.8082365100558
 31
0.0
  0
TEXT
  5
174
330
3B6
100
AcDbEntity
  8
SIZE
100
AcDbText
 10
138.4428571428563
 20
-658.8082365100556
 30
0.0
 40
64.0
  1
425
 41
0.9
 72
     1
 11
212.4999999999992
 21
-658.8082365100556
 31
0.0
100
AcDbText
  0
LINE
  5
175
330
3B6
100
AcDbEntity
  8
SIZE
100
AcDbLine
 10
424.9999999999984
 20
-225.0000000000001
 30
0.0
 11
424.9999999999984
 21
-708.8082365100558
 31
0.0
  0
LINE
  5
176
330
3B6
100
AcDbEntity
  8
SIZE
100
AcDbLine
 10
595.0000000000001
 20
-229.9999999999994
 30
0.0
 11
595.0000000000001
 21
-708.8082365100558
 31
0.0
  0
LINE
  5
177
330
3B6
100
AcDbEntity
  8
SIZE
100
AcDbLine
 10
414.9999999999984
 20
-678.8082365100558
 30
0.0
 11
404.9999999999982
 21
-678.8082365100558
 31
0.0
  0
LINE
  5
178
330
3B6
100
AcDbEntity
  8
SIZE
100
AcDbLine
 10
605.0000000000001
 20
-678.8082365100558
 30
0.0
 11
615.0000000000001
 21
-678.8082365100558
 31
0.0
  0
LINE
  5
179
330
3B6
100
AcDbEntity
  8
SIZE
100
AcDbLine
 10
424.9999999999984
 20
-678.8082365100558
 30
0.0
 11
595.0000000000001
 21
-678.8082365100558
 31
0.0
  0
CIRCLE
  5
17A
330
3B6
100
AcDbEntity
  8
SIZE
100
AcDbCircle
 10
424.9999999999984
 20
-678.8082365100558
 30
0.0
 40
5.0
  0
LINE
  5
17B
330
3B6
100
AcDbEntity
  8
SIZE
100
AcDbLine
 10
419.9999999999984
 20
-678.8082365100558
 30
0.0
 11
414.9999999999984
 21
-678.8082365100558
 31
0.0
  0
CIRCLE
  5
17C
330
3B6
100
AcDbEntity
  8
SIZE
100
AcDbCircle
 10
595.0000000000001
 20
-678.8082365100558
 30
0.0
 40
5.0
  0
LINE
  5
17D
330
3B6
100
AcDbEntity
  8
SIZE
100
AcDbLine
 10
600.0
 20
-678.8082365100558
 30
0.0
 11
605.0000000000001
 21
-678.8082365100558
 31
0.0
  0
TEXT
  5
17E
330
3B6
100
AcDbEntity
  8
SIZE
100
AcDbText
 10
441.4285714285705
 20
-658.8082365100556
 30
0.0
 40
64.0
  1
170
 41
0.9
 72
     1
 11
509.9999999999991
 21
-658.8082365100556
 31
0.0
100
AcDbText
  0
LWPOLYLINE
  5
17F
330
3B6
100
AcDbEntity
  8
SERVICESPACE
100
AcDbPolyline
 90
        4
 70
     1
 43
0.0
 10
-594.9999999999996
 20
-709.9999999999996
 10
595.0000000000001
 20
-709.9999999999996
 10
595.0000000000001
 20
-209.9999999999995
 10
-594.9999999999996
 20
-209.9999999999995
  0
LINE
  5
185
330
3B6
100
AcDbEntity
  8
SIZE
100
AcDbLine
 10
615.0000000000001
 20
-209.9999999999995
 30
0.0
 11
1260.077520239673
 21
-209.9999999999995
 31
0.0
  0
LINE
  5
186
330
3B6
100
AcDbEntity
  8
SIZE
100
AcDbLine
 10
615.0000000000003
 20
-709.9999999999996
 30
0.0
 11
1260.077520239671
 21
-709.9999999999996
 31
0.0
  0
LINE
  5
187
330
3B6
100
AcDbEntity
  8
SIZE
100
AcDbLine
 10
1230.077520239672
 20
-219.9999999999996
 30
0.0
 11
1230.077520239672
 21
-700.0
 31
0.0
  0
CIRCLE
  5
188
330
3B6
100
AcDbEntity
  8
SIZE
100
AcDbCircle
 10
1230.077520239672
 20
-209.9999999999995
 30
0.0
 40
5.0
  0
LINE
  5
189
330
3B6
100
AcDbEntity
  8
SIZE
100
AcDbLine
 10
1230.077520239672
 20
-214.9999999999995
 30
0.0
 11
1230.077520239672
 21
-219.9999999999996
 31
0.0
  0
CIRCLE
  5
18A
330
3B6
100
AcDbEntity
  8
SIZE
100
AcDbCircle
 10
1230.077520239672
 20
-709.9999999999996
 30
0.0
 40
5.0
  0
LINE
  5
18B
330
3B6
100
AcDbEntity
  8
SIZE
100
AcDbLine
 10
1230.077520239672
 20
-705.0
 30
0.0
 11
1230.077520239672
 21
-700.0
 31
0.0
  0
TEXT
  5
18C
330
3B6
100
AcDbEntity
  8
SIZE
100
AcDbText
 10
1210.077520239671
 20
-603.7257142857137
 30
0.0
 40
64.0
  1
500以上
 50
90.0
 41
0.9
 72
     1
 11
1210.077520239671
 21
-459.9999999999995
 31
0.0
100
AcDbText
  0
LINE
  5
193
330
3B6
100
AcDbEntity
  8
SIZE
100
AcDbLine
 10
615.0
 20
390.0
 30
0.0
 11
1243.69347892937
 21
389.9999999999997
 31
0.0
  0
LINE
  5
194
330
3B6
100
AcDbEntity
  8
SIZE
100
AcDbLine
 10
615.0
 20
209.9999999999999
 30
0.0
 11
1243.69347892937
 21
209.9999999999997
 31
0.0
  0
LINE
  5
195
330
3B6
100
AcDbEntity
  8
SIZE
100
AcDbLine
 10
1213.69347892937
 20
399.9999999999997
 30
0.0
 11
1213.69347892937
 21
409.9999999999996
 31
0.0
  0
LINE
  5
196
330
3B6
100
AcDbEntity
  8
SIZE
100
AcDbLine
 10
1213.69347892937
 20
199.9999999999997
 30
0.0
 11
1213.69347892937
 21
189.9999999999998
 31
0.0
  0
LINE
  5
197
330
3B6
100
AcDbEntity
  8
SIZE
100
AcDbLine
 10
1213.69347892937
 20
389.9999999999997
 30
0.0
 11
1213.69347892937
 21
209.9999999999999
 31
0.0
  0
CIRCLE
  5
198
330
3B6
100
AcDbEntity
  8
SIZE
100
AcDbCircle
 10
1213.69347892937
 20
389.9999999999997
 30
0.0
 40
5.0
  0
LINE
  5
199
330
3B6
100
AcDbEntity
  8
SIZE
100
AcDbLine
 10
1213.69347892937
 20
394.9999999999997
 30
0.0
 11
1213.69347892937
 21
399.9999999999997
 31
0.0
  0
CIRCLE
  5
19A
330
3B6
100
AcDbEntity
  8
SIZE
100
AcDbCircle
 10
1213.69347892937
 20
209.9999999999999
 30
0.0
 40
5.0
  0
LINE
  5
19B
330
3B6
100
AcDbEntity
  8
SIZE
100
AcDbLine
 10
1213.69347892937
 20
204.9999999999997
 30
0.0
 11
1213.69347892937
 21
199.9999999999997
 31
0.0
  0
TEXT
  5
19C
330
3B6
100
AcDbEntity
  8
SIZE
100
AcDbText
 10
1193.69347892937
 20
161.76
 30
0.0
 40
64.0
  1
180以上
 50
90.0
 41
0.9
 72
     1
 11
1193.69347892937
 21
300.0
 31
0.0
100
AcDbText
  0
TEXT
  5
19D
330
3B6
100
AcDbEntity
  8
SERVICESPACE
100
AcDbText
 10
-117.535437136572
 20
-356.3528231676636
 30
0.0
 40
64.0
  1
ｻｰﾋﾞｽｽﾍﾟｰｽ
 50
359.9999970000022
 41
0.659722
  7
STANDARD1
100
AcDbText
  0
TEXT
  5
19E
330
3B6
100
AcDbEntity
  8
SERVICESPACE
100
AcDbText
 10
-118.3371045757048
 20
328.9111954996148
 30
0.0
 40
64.0
  1
ｻｰﾋﾞｽｽﾍﾟｰｽ
 50
359.9999969999891
 41
0.659722
  7
STANDARD1
100
AcDbText
  0
LINE
  5
19F
330
3B6
100
AcDbEntity
  8
OUTLINE
100
AcDbLine
 10
-298.0
 20
310.0000000000005
 30
0.0
 11
585.0
 21
310.0000000000005
 31
0.0
  0
LINE
  5
1A0
330
3B6
100
AcDbEntity
  8
OUTLINE
100
AcDbLine
 10
-595.0
 20
209.9999999999999
 30
0.0
 11
-595.0
 21
-209.9999999999999
 31
0.0
  0
LINE
  5
1A1
330
3B6
100
AcDbEntity
  8
OUTLINE
100
AcDbLine
 10
585.0
 20
310.0000000000008
 30
0.0
 11
585.0
 21
210.0000000000009
 31
0.0
  0
LINE
  5
1A2
330
3B6
100
AcDbEntity
  8
OUTLINE
100
AcDbLine
 10
20.11765110612804
 20
-284.9999999999997
 30
0.0
 11
564.8823488938724
 21
-284.9999999999995
 31
0.0
  0
LINE
  5
1A3
330
3B6
100
AcDbEntity
  8
OUTLINE
100
AcDbLine
 10
-595.0
 20
209.9999999999999
 30
0.0
 11
595.0
 21
210.0000000000022
 31
0.0
  0
LINE
  5
1A4
330
3B6
100
AcDbEntity
  8
OUTLINE
100
AcDbLine
 10
-298.0
 20
310.0000000000008
 30
0.0
 11
-298.0
 21
210.0000000000004
 31
0.0
  0
LINE
  5
1A5
330
3B6
100
AcDbEntity
  8
OUTLINE
100
AcDbLine
 10
-595.0
 20
-209.9999999999999
 30
0.0
 11
595.0000000000001
 21
-209.9999999999995
 31
0.0
  0
LINE
  5
1A6
330
3B6
100
AcDbEntity
  8
OUTLINE
100
AcDbLine
 10
595.0
 20
210.0000000000004
 30
0.0
 11
595.0
 21
-209.9999999999996
 31
0.0
  0
LINE
  5
1A7
330
3B6
100
AcDbEntity
  8
OUTLINE
100
AcDbLine
 10
585.0
 20
-209.9999999999983
 30
0.0
 11
574.7660658703785
 21
-276.520571842539
 31
0.0
  0
ARC
  5
1A8
330
3B6
100
AcDbEntity
  8
OUTLINE
100
AcDbCircle
 10
564.8823488938724
 20
-274.9999999999995
 30
0.0
 40
10.0
100
AcDbArc
 50
270.0
 51
351.2538377374446
  0
LINE
  5
1A9
330
3B6
100
AcDbEntity
  8
OUTLINE
100
AcDbLine
 10
0.0
 20
-209.9999999999991
 30
0.0
 11
10.23393412962194
 21
-276.5205718425396
 31
0.0
  0
ARC
  5
1AA
330
3B6
100
AcDbEntity
  8
OUTLINE
100
AcDbCircle
 10
20.11765110612804
 20
-275.0000000000003
 30
0.0
 40
10.0
100
AcDbArc
 50
188.7461622625554
 51
270.0
  0
LINE
  5
1CE
330
3B6
100
AcDbEntity
  8
SERVICESPACE
100
AcDbLine
 10
-595.0
 20
209.9999999999999
 30
0.0
 11
595.0
 21
209.9999999999999
 31
0.0
  0
LINE
  5
1CF
330
3B6
100
AcDbEntity
  8
SERVICESPACE
100
AcDbLine
 10
595.0
 20
209.9999999999999
 30
0.0
 11
595.0
 21
390.0
 31
0.0
  0
LINE
  5
1D0
330
3B6
100
AcDbEntity
  8
SERVICESPACE
100
AcDbLine
 10
595.0
 20
390.0
 30
0.0
 11
-595.0
 21
390.0
 31
0.0
  0
LINE
  5
1D1
330
3B6
100
AcDbEntity
  8
SERVICESPACE
100
AcDbLine
 10
-595.0
 20
390.0
 30
0.0
 11
-595.0
 21
209.9999999999999
 31
0.0
  0
LINE
  5
1DB
330
3B6
100
AcDbEntity
  8
SERVICESPACE
100
AcDbLine
 10
595.0
 20
210.0000000000021
 30
0.0
 11
-595.0
 21
390.0
 31
0.0
  0
LINE
  5
1E3
330
3B6
100
AcDbEntity
  8
SERVICESPACE
100
AcDbLine
 10
595.0
 20
390.0
 30
0.0
 11
-595.0
 21
209.9999999999999
 31
0.0
  0
LINE
  5
204
330
3B6
100
AcDbEntity
  8
SERVICESPACE
100
AcDbLine
 10
594.9999967454512
 20
-708.80823632751
 30
0.0
 11
-594.9999999999996
 21
-209.9999999999999
 31
0.0
  0
LINE
  5
205
330
3B6
100
AcDbEntity
  8
SERVICESPACE
100
AcDbLine
 10
594.9999967454512
 20
-209.9999999999995
 30
0.0
 11
-595.0000032545483
 21
-708.8082363275125
 31
0.0
  0
ENDSEC
  0
SECTION
  2
OBJECTS
  0
DICTIONARY
  5
34E
330
0
100
AcDbDictionary
281
     1
  3
ACAD_COLOR
350
3AC
  3
ACAD_GROUP
350
34F
  3
ACAD_LAYOUT
350
3AB
  3
ACAD_MATERIAL
350
352
  3
ACAD_MLEADERSTYLE
350
3AF
  3
ACAD_MLINESTYLE
350
3A8
  3
ACAD_PLOTSETTINGS
350
3AA
  3
ACAD_PLOTSTYLENAME
350
350
  3
ACAD_SCALELIST
350
37C
  3
ACAD_TABLESTYLE
350
3AD
  3
ACAD_VISUALSTYLE
350
36B
  3
ACDB_RECOMPOSE_DATA
350
400
  3
AcDbVariableDictionary
350
3EB
  3
DWGPROPS
350
401
  0
DICTIONARY
  5
3D5
330
39E
100
AcDbDictionary
280
     1
281
     1
  3
ADSK_XREC_LAYER_RECONCILED
360
3D6
  0
DICTIONARY
  5
3D7
330
3BA
100
AcDbDictionary
280
     1
281
     1
  3
ADSK_XREC_LAYER_RECONCILED
360
3D8
  0
DICTIONARY
  5
3D9
330
3BD
100
AcDbDictionary
280
     1
281
     1
  3
ADSK_XREC_LAYER_RECONCILED
360
3DA
  0
DICTIONARY
  5
3DB
330
3BE
100
AcDbDictionary
280
     1
281
     1
  3
ADSK_XREC_LAYER_RECONCILED
360
3DC
  0
DICTIONARY
  5
3DD
330
3BF
100
AcDbDictionary
280
     1
281
     1
  3
ADSK_XREC_LAYER_RECONCILED
360
3DE
  0
DICTIONARY
  5
3DF
330
3C0
100
AcDbDictionary
280
     1
281
     1
  3
ADSK_XREC_LAYER_RECONCILED
360
3E0
  0
DICTIONARY
  5
3E1
330
3C1
100
AcDbDictionary
280
     1
281
     1
  3
ADSK_XREC_LAYER_RECONCILED
360
3E2
  0
DICTIONARY
  5
3E3
330
3C2
100
AcDbDictionary
280
     1
281
     1
  3
ADSK_XREC_LAYER_RECONCILED
360
3E4
  0
DICTIONARY
  5
3E5
330
3C3
100
AcDbDictionary
280
     1
281
     1
  3
ADSK_XREC_LAYER_RECONCILED
360
3E6
  0
DICTIONARY
  5
3E7
330
3C4
100
AcDbDictionary
280
     1
281
     1
  3
ADSK_XREC_LAYER_RECONCILED
360
3E8
  0
DICTIONARY
  5
3E9
330
3C5
100
AcDbDictionary
280
     1
281
     1
  3
ADSK_XREC_LAYER_RECONCILED
360
3EA
  0
DICTIONARY
  5
3AC
102
{ACAD_REACTORS
330
34E
102
}
330
34E
100
AcDbDictionary
281
     1
  0
DICTIONARY
  5
34F
102
{ACAD_REACTORS
330
34E
102
}
330
34E
100
AcDbDictionary
281
     1
  0
DICTIONARY
  5
3AB
102
{ACAD_REACTORS
330
34E
102
}
330
34E
100
AcDbDictionary
281
     1
  3
Layout1
350
3B5
  3
Model
350
3B9
  0
DICTIONARY
  5
352
102
{ACAD_REACTORS
330
34E
102
}
330
34E
100
AcDbDictionary
281
     1
  3
ByBlock
350
35B
  3
ByLayer
350
353
  3
Global
350
363
  0
DICTIONARY
  5
3AF
102
{ACAD_REACTORS
330
34E
102
}
330
34E
100
AcDbDictionary
281
     1
  3
Standard
350
3B0
  0
DICTIONARY
  5
3A8
102
{ACAD_REACTORS
330
34E
102
}
330
34E
100
AcDbDictionary
281
     1
  3
Standard
350
3A9
  0
DICTIONARY
  5
3AA
102
{ACAD_REACTORS
330
34E
102
}
330
34E
100
AcDbDictionary
281
     1
  0
ACDBDICTIONARYWDFLT
  5
350
102
{ACAD_REACTORS
330
34E
102
}
330
34E
100
AcDbDictionary
281
     1
  3
Normal
350
351
100
AcDbDictionaryWithDefault
340
351
  0
DICTIONARY
  5
37C
102
{ACAD_REACTORS
330
34E
102
}
330
34E
100
AcDbDictionary
281
     1
  3
A0
350
37D
  3
A1
350
37E
  3
A2
350
37F
  3
A3
350
380
  3
A4
350
381
  3
A5
350
382
  3
A6
350
383
  3
A7
350
384
  3
A8
350
385
  3
A9
350
386
  3
B0
350
387
  3
B1
350
388
  3
B2
350
389
  3
B3
350
38A
  3
B4
350
38B
  3
B5
350
38C
  3
B6
350
38D
  3
B7
350
38E
  3
B8
350
38F
  3
B9
350
390
  3
C0
350
391
  3
C1
350
392
  3
C2
350
393
  3
C3
350
394
  3
C4
350
395
  3
C5
350
396
  3
C6
350
397
  3
C7
350
398
  3
C8
350
399
  3
C9
350
39A
  3
D0
350
39B
  3
D1
350
39C
  3
D2
350
39D
  0
DICTIONARY
  5
3AD
102
{ACAD_REACTORS
330
34E
102
}
330
34E
100
AcDbDictionary
281
     1
  3
Standard
350
3AE
  0
DICTIONARY
  5
36B
102
{ACAD_REACTORS
330
34E
102
}
330
34E
100
AcDbDictionary
281
     1
  3
2dWireframe
350
371
  3
3D Hidden
350
373
  3
3dWireframe
350
372
  3
Basic
350
370
  3
Brighten
350
377
  3
ColorChange
350
37B
  3
Conceptual
350
374
  3
Dim
350
376
  3
Facepattern
350
37A
  3
Flat
350
36C
  3
FlatWithEdges
350
36D
  3
Gouraud
350
36E
  3
GouraudWithEdges
350
36F
  3
Linepattern
350
379
  3
Realistic
350
375
  3
Thicken
350
378
  0
XRECORD
  5
400
102
{ACAD_REACTORS
330
34E
102
}
330
34E
100
AcDbXrecord
280
     1
 90
        1
330
3AE
  0
DICTIONARY
  5
3EB
102
{ACAD_REACTORS
330
34E
102
}
330
34E
100
AcDbDictionary
281
     1
  3
CANNOSCALE
350
3EE
  3
CMLEADERSTYLE
350
3ED
  3
CTABLESTYLE
350
3EC
  3
DIMASSOC
350
3F1
  3
INDEXCTL
350
3F0
  3
SORTENTS
350
3EF
  0
XRECORD
  5
401
102
{ACAD_REACTORS
330
34E
102
}
330
34E
100
AcDbXrecord
280
     1
  1
DWGPROPS COOKIE
  2

  3

  4

  6

  7

  8
lijl
  9

300
=
301
=
302
=
303
=
304
=
305
=
306
=
307
=
308
=
309
=
 40
0.4687353472222222
 41
2449761.739988426
 42
2457983.372970533
  1

 90
        0
  0
XRECORD
  5
3D6
102
{ACAD_REACTORS
330
3D5
102
}
330
3D5
100
AcDbXrecord
280
     1
290
     1
  0
XRECORD
  5
3D8
102
{ACAD_REACTORS
330
3D7
102
}
330
3D7
100
AcDbXrecord
280
     1
290
     1
  0
XRECORD
  5
3DA
102
{ACAD_REACTORS
330
3D9
102
}
330
3D9
100
AcDbXrecord
280
     1
290
     1
  0
XRECORD
  5
3DC
102
{ACAD_REACTORS
330
3DB
102
}
330
3DB
100
AcDbXrecord
280
     1
290
     1
  0
XRECORD
  5
3DE
102
{ACAD_REACTORS
330
3DD
102
}
330
3DD
100
AcDbXrecord
280
     1
290
     1
  0
XRECORD
  5
3E0
102
{ACAD_REACTORS
330
3DF
102
}
330
3DF
100
AcDbXrecord
280
     1
290
     1
  0
XRECORD
  5
3E2
102
{ACAD_REACTORS
330
3E1
102
}
330
3E1
100
AcDbXrecord
280
     1
290
     1
  0
XRECORD
  5
3E4
102
{ACAD_REACTORS
330
3E3
102
}
330
3E3
100
AcDbXrecord
280
     1
290
     1
  0
XRECORD
  5
3E6
102
{ACAD_REACTORS
330
3E5
102
}
330
3E5
100
AcDbXrecord
280
     1
290
     1
  0
XRECORD
  5
3E8
102
{ACAD_REACTORS
330
3E7
102
}
330
3E7
100
AcDbXrecord
280
     1
290
     1
  0
XRECORD
  5
3EA
102
{ACAD_REACTORS
330
3E9
102
}
330
3E9
100
AcDbXrecord
280
     1
290
     1
  0
LAYOUT
  5
3B5
102
{ACAD_XDICTIONARY
360
406
102
}
102
{ACAD_REACTORS
330
3AB
102
}
330
3AB
100
AcDbPlotSettings
  1

  2
FX DocuWide 2050
  4

  6

 40
0.0
 41
0.0
 42
0.0
 43
0.0
 44
0.0
 45
0.0
 46
0.0
 47
0.0
 48
0.0
 49
0.0
140
0.0
141
0.0
142
1.0
143
1.0
 70
   688
 72
     0
 73
     0
 74
     5
  7

 75
    16
147
1.0
148
0.0
149
0.0
100
AcDbLayout
  1
Layout1
 70
     1
 71
     1
 10
0.0
 20
0.0
 11
12.0
 21
9.0
 12
0.0
 22
0.0
 32
0.0
 14
1.000000000000000E+20
 24
1.000000000000000E+20
 34
1.000000000000000E+20
 15
-1.000000000000000E+20
 25
-1.000000000000000E+20
 35
-1.000000000000000E+20
146
0.0
 13
0.0
 23
0.0
 33
0.0
 16
1.0
 26
0.0
 36
0.0
 17
0.0
 27
1.0
 37
0.0
 76
     0
330
3B2
  0
LAYOUT
  5
3B9
102
{ACAD_XDICTIONARY
360
408
102
}
102
{ACAD_REACTORS
330
3AB
102
}
330
3AB
100
AcDbPlotSettings
  1

  2
FX DocuWide 2050
  4

  6

 40
0.0
 41
0.0
 42
0.0
 43
0.0
 44
0.0
 45
0.0
 46
0.0
 47
0.0
 48
0.0
 49
0.0
140
0.0
141
0.0
142
1.0
143
1.0
 70
  1712
 72
     0
 73
     0
 74
     0
  7

 75
     0
147
1.0
148
0.0
149
0.0
100
AcDbLayout
  1
Model
 70
     1
 71
     0
 10
0.0
 20
0.0
 11
12.0
 21
9.0
 12
0.0
 22
0.0
 32
0.0
 14
0.0
 24
0.0
 34
0.0
 15
0.0
 25
0.0
 35
0.0
146
0.0
 13
0.0
 23
0.0
 33
0.0
 16
1.0
 26
0.0
 36
0.0
 17
0.0
 27
1.0
 37
0.0
 76
     0
330
3B6
331
3BB
  0
MATERIAL
  5
35B
102
{ACAD_XDICTIONARY
360
35C
102
}
102
{ACAD_REACTORS
330
352
102
}
330
352
100
AcDbMaterial
  1
ByBlock
 72
     0
 43
0.0208333333333333
 43
0.0
 43
0.0
 43
0.0
 43
0.0
 43
0.0208333333333333
 43
0.0
 43
0.0
 43
0.0
 43
0.0
 43
1.0
 43
0.0
 43
0.0
 43
0.0
 43
0.0
 43
1.0
 77
     0
 47
0.0208333333333333
 47
0.0
 47
0.0
 47
0.0
 47
0.0
 47
0.0208333333333333
 47
0.0
 47
0.0
 47
0.0
 47
0.0
 47
1.0
 47
0.0
 47
0.0
 47
0.0
 47
0.0
 47
1.0
171
     0
 49
0.0208333333333333
 49
0.0
 49
0.0
 49
0.0
 49
0.0
 49
0.0208333333333333
 49
0.0
 49
0.0
 49
0.0
 49
0.0
 49
1.0
 49
0.0
 49
0.0
 49
0.0
 49
0.0
 49
1.0
175
     0
142
0.0208333333333333
142
0.0
142
0.0
142
0.0
142
0.0
142
0.0208333333333333
142
0.0
142
0.0
142
0.0
142
0.0
142
1.0
142
0.0
142
0.0
142
0.0
142
0.0
142
1.0
179
     0
144
0.0208333333333333
144
0.0
144
0.0
144
0.0
144
0.0
144
0.0208333333333333
144
0.0
144
0.0
144
0.0
144
0.0
144
1.0
144
0.0
144
0.0
144
0.0
144
0.0
144
1.0
147
0.0208333333333333
147
0.0
147
0.0
147
0.0
147
0.0
147
0.0208333333333333
147
0.0
147
0.0
147
0.0
147
0.0
147
1.0
147
0.0
147
0.0
147
0.0
147
0.0
147
1.0
  0
MATERIAL
  5
353
102
{ACAD_XDICTIONARY
360
354
102
}
102
{ACAD_REACTORS
330
352
102
}
330
352
100
AcDbMaterial
  1
ByLayer
 72
     0
 43
0.0208333333333333
 43
0.0
 43
0.0
 43
0.0
 43
0.0
 43
0.0208333333333333
 43
0.0
 43
0.0
 43
0.0
 43
0.0
 43
1.0
 43
0.0
 43
0.0
 43
0.0
 43
0.0
 43
1.0
 77
     0
 47
0.0208333333333333
 47
0.0
 47
0.0
 47
0.0
 47
0.0
 47
0.0208333333333333
 47
0.0
 47
0.0
 47
0.0
 47
0.0
 47
1.0
 47
0.0
 47
0.0
 47
0.0
 47
0.0
 47
1.0
171
     0
 49
0.0208333333333333
 49
0.0
 49
0.0
 49
0.0
 49
0.0
 49
0.0208333333333333
 49
0.0
 49
0.0
 49
0.0
 49
0.0
 49
1.0
 49
0.0
 49
0.0
 49
0.0
 49
0.0
 49
1.0
175
     0
142
0.0208333333333333
142
0.0
142
0.0
142
0.0
142
0.0
142
0.0208333333333333
142
0.0
142
0.0
142
0.0
142
0.0
142
1.0
142
0.0
142
0.0
142
0.0
142
0.0
142
1.0
179
     0
144
0.0208333333333333
144
0.0
144
0.0
144
0.0
144
0.0
144
0.0208333333333333
144
0.0
144
0.0
144
0.0
144
0.0
144
1.0
144
0.0
144
0.0
144
0.0
144
0.0
144
1.0
147
0.0208333333333333
147
0.0
147
0.0
147
0.0
147
0.0
147
0.0208333333333333
147
0.0
147
0.0
147
0.0
147
0.0
147
1.0
147
0.0
147
0.0
147
0.0
147
0.0
147
1.0
  0
MATERIAL
  5
363
102
{ACAD_XDICTIONARY
360
364
102
}
102
{ACAD_REACTORS
330
352
102
}
330
352
100
AcDbMaterial
  1
Global
 72
     0
 43
0.0208333333333333
 43
0.0
 43
0.0
 43
0.0
 43
0.0
 43
0.0208333333333333
 43
0.0
 43
0.0
 43
0.0
 43
0.0
 43
1.0
 43
0.0
 43
0.0
 43
0.0
 43
0.0
 43
1.0
 77
     0
 47
0.0208333333333333
 47
0.0
 47
0.0
 47
0.0
 47
0.0
 47
0.0208333333333333
 47
0.0
 47
0.0
 47
0.0
 47
0.0
 47
1.0
 47
0.0
 47
0.0
 47
0.0
 47
0.0
 47
1.0
171
     0
 49
0.0208333333333333
 49
0.0
 49
0.0
 49
0.0
 49
0.0
 49
0.0208333333333333
 49
0.0
 49
0.0
 49
0.0
 49
0.0
 49
1.0
 49
0.0
 49
0.0
 49
0.0
 49
0.0
 49
1.0
175
     0
142
0.0208333333333333
142
0.0
142
0.0
142
0.0
142
0.0
142
0.0208333333333333
142
0.0
142
0.0
142
0.0
142
0.0
142
1.0
142
0.0
142
0.0
142
0.0
142
0.0
142
1.0
179
     0
144
0.0208333333333333
144
0.0
144
0.0
144
0.0
144
0.0
144
0.0208333333333333
144
0.0
144
0.0
144
0.0
144
0.0
144
1.0
144
0.0
144
0.0
144
0.0
144
0.0
144
1.0
147
0.0208333333333333
147
0.0
147
0.0
147
0.0
147
0.0
147
0.0208333333333333
147
0.0
147
0.0
147
0.0
147
0.0
147
1.0
147
0.0
147
0.0
147
0.0
147
0.0
147
1.0
  0
MLEADERSTYLE
  5
3B0
102
{ACAD_REACTORS
330
3AF
102
}
330
3AF
100
AcDbMLeaderStyle
170
     2
171
     1
172
     0
 90
        2
 40
0.0
 41
0.0
173
     1
 91
-1056964608
340
3A4
 92
       -2
290
     1
 42
0.09
291
     1
 43
0.36
  3
Standard
 44
0.18
300

342
39F
174
     1
178
     6
175
     1
176
     0
 93
-1056964608
 45
0.18
292
     0
297
     0
 46
0.18
 94
-1056964608
 47
1.0
 49
1.0
140
1.0
293
     1
141
0.0
294
     1
177
     0
142
1.0
295
     0
296
     0
143
0.125
1001
ACAD_MLEADERVER
1070
     2
  0
MLINESTYLE
  5
3A9
102
{ACAD_REACTORS
330
3A8
102
}
330
3A8
100
AcDbMlineStyle
  2
STANDARD
 70
     0
  3

 62
   256
 51
90.0
 52
90.0
 71
     2
 49
0.5
 62
   256
  6
BYLAYER
 49
-0.5
 62
   256
  6
BYLAYER
  0
ACDBPLACEHOLDER
  5
351
102
{ACAD_REACTORS
330
350
102
}
330
350
  0
SCALE
  5
37D
102
{ACAD_REACTORS
330
37C
102
}
330
37C
100
AcDbScale
 70
     0
300
1:1
140
1.0
141
1.0
290
     1
  0
SCALE
  5
37E
102
{ACAD_REACTORS
330
37C
102
}
330
37C
100
AcDbScale
 70
     0
300
1:2
140
1.0
141
2.0
290
     0
  0
SCALE
  5
37F
102
{ACAD_REACTORS
330
37C
102
}
330
37C
100
AcDbScale
 70
     0
300
1:4
140
1.0
141
4.0
290
     0
  0
SCALE
  5
380
102
{ACAD_REACTORS
330
37C
102
}
330
37C
100
AcDbScale
 70
     0
300
1:5
140
1.0
141
5.0
290
     0
  0
SCALE
  5
381
102
{ACAD_REACTORS
330
37C
102
}
330
37C
100
AcDbScale
 70
     0
300
1:8
140
1.0
141
8.0
290
     0
  0
SCALE
  5
382
102
{ACAD_REACTORS
330
37C
102
}
330
37C
100
AcDbScale
 70
     0
300
1:10
140
1.0
141
10.0
290
     0
  0
SCALE
  5
383
102
{ACAD_REACTORS
330
37C
102
}
330
37C
100
AcDbScale
 70
     0
300
1:16
140
1.0
141
16.0
290
     0
  0
SCALE
  5
384
102
{ACAD_REACTORS
330
37C
102
}
330
37C
100
AcDbScale
 70
     0
300
1:20
140
1.0
141
20.0
290
     0
  0
SCALE
  5
385
102
{ACAD_REACTORS
330
37C
102
}
330
37C
100
AcDbScale
 70
     0
300
1:30
140
1.0
141
30.0
290
     0
  0
SCALE
  5
386
102
{ACAD_REACTORS
330
37C
102
}
330
37C
100
AcDbScale
 70
     0
300
1:40
140
1.0
141
40.0
290
     0
  0
SCALE
  5
387
102
{ACAD_REACTORS
330
37C
102
}
330
37C
100
AcDbScale
 70
     0
300
1:50
140
1.0
141
50.0
290
     0
  0
SCALE
  5
388
102
{ACAD_REACTORS
330
37C
102
}
330
37C
100
AcDbScale
 70
     0
300
1:100
140
1.0
141
100.0
290
     0
  0
SCALE
  5
389
102
{ACAD_REACTORS
330
37C
102
}
330
37C
100
AcDbScale
 70
     0
300
2:1
140
2.0
141
1.0
290
     0
  0
SCALE
  5
38A
102
{ACAD_REACTORS
330
37C
102
}
330
37C
100
AcDbScale
 70
     0
300
4:1
140
4.0
141
1.0
290
     0
  0
SCALE
  5
38B
102
{ACAD_REACTORS
330
37C
102
}
330
37C
100
AcDbScale
 70
     0
300
8:1
140
8.0
141
1.0
290
     0
  0
SCALE
  5
38C
102
{ACAD_REACTORS
330
37C
102
}
330
37C
100
AcDbScale
 70
     0
300
10:1
140
10.0
141
1.0
290
     0
  0
SCALE
  5
38D
102
{ACAD_REACTORS
330
37C
102
}
330
37C
100
AcDbScale
 70
     0
300
100:1
140
100.0
141
1.0
290
     0
  0
SCALE
  5
38E
102
{ACAD_REACTORS
330
37C
102
}
330
37C
100
AcDbScale
 70
     0
300
1/128" = 1'-0"
140
0.0078125
141
12.0
290
     0
  0
SCALE
  5
38F
102
{ACAD_REACTORS
330
37C
102
}
330
37C
100
AcDbScale
 70
     0
300
1/64" = 1'-0"
140
0.015625
141
12.0
290
     0
  0
SCALE
  5
390
102
{ACAD_REACTORS
330
37C
102
}
330
37C
100
AcDbScale
 70
     0
300
1/32" = 1'-0"
140
0.03125
141
12.0
290
     0
  0
SCALE
  5
391
102
{ACAD_REACTORS
330
37C
102
}
330
37C
100
AcDbScale
 70
     0
300
1/16" = 1'-0"
140
0.0625
141
12.0
290
     0
  0
SCALE
  5
392
102
{ACAD_REACTORS
330
37C
102
}
330
37C
100
AcDbScale
 70
     0
300
3/32" = 1'-0"
140
0.09375
141
12.0
290
     0
  0
SCALE
  5
393
102
{ACAD_REACTORS
330
37C
102
}
330
37C
100
AcDbScale
 70
     0
300
1/8" = 1'-0"
140
0.125
141
12.0
290
     0
  0
SCALE
  5
394
102
{ACAD_REACTORS
330
37C
102
}
330
37C
100
AcDbScale
 70
     0
300
3/16" = 1'-0"
140
0.1875
141
12.0
290
     0
  0
SCALE
  5
395
102
{ACAD_REACTORS
330
37C
102
}
330
37C
100
AcDbScale
 70
     0
300
1/4" = 1'-0"
140
0.25
141
12.0
290
     0
  0
SCALE
  5
396
102
{ACAD_REACTORS
330
37C
102
}
330
37C
100
AcDbScale
 70
     0
300
3/8" = 1'-0"
140
0.375
141
12.0
290
     0
  0
SCALE
  5
397
102
{ACAD_REACTORS
330
37C
102
}
330
37C
100
AcDbScale
 70
     0
300
1/2" = 1'-0"
140
0.5
141
12.0
290
     0
  0
SCALE
  5
398
102
{ACAD_REACTORS
330
37C
102
}
330
37C
100
AcDbScale
 70
     0
300
3/4" = 1'-0"
140
0.75
141
12.0
290
     0
  0
SCALE
  5
399
102
{ACAD_REACTORS
330
37C
102
}
330
37C
100
AcDbScale
 70
     0
300
1" = 1'-0"
140
1.0
141
12.0
290
     0
  0
SCALE
  5
39A
102
{ACAD_REACTORS
330
37C
102
}
330
37C
100
AcDbScale
 70
     0
300
1-1/2" = 1'-0"
140
1.5
141
12.0
290
     0
  0
SCALE
  5
39B
102
{ACAD_REACTORS
330
37C
102
}
330
37C
100
AcDbScale
 70
     0
300
3" = 1'-0"
140
3.0
141
12.0
290
     0
  0
SCALE
  5
39C
102
{ACAD_REACTORS
330
37C
102
}
330
37C
100
AcDbScale
 70
     0
300
6" = 1'-0"
140
6.0
141
12.0
290
     0
  0
SCALE
  5
39D
102
{ACAD_REACTORS
330
37C
102
}
330
37C
100
AcDbScale
 70
     0
300
1'-0" = 1'-0"
140
12.0
141
12.0
290
     0
  0
TABLESTYLE
  5
3AE
102
{ACAD_XDICTIONARY
360
3FE
102
}
102
{ACAD_REACTORS
330
3AD
102
}
330
3AD
100
AcDbTableStyle
  3
Standard
 70
     0
 71
     0
 40
0.06
 41
0.06
280
     0
281
     0
  7
STANDARD
140
0.18
170
     2
 62
     0
 63
     7
283
     0
274
    -2
284
     1
 64
     0
275
    -2
285
     1
 65
     0
276
    -2
286
     1
 66
     0
277
    -2
287
     1
 67
     0
278
    -2
288
     1
 68
     0
279
    -2
289
     1
 69
     0
  7
STANDARD
140
0.25
170
     5
 62
     0
 63
     7
283
     0
274
    -2
284
     1
 64
     0
275
    -2
285
     1
 65
     0
276
    -2
286
     1
 66
     0
277
    -2
287
     1
 67
     0
278
    -2
288
     1
 68
     0
279
    -2
289
     1
 69
     0
  7
STANDARD
140
0.18
170
     5
 62
     0
 63
     7
283
     0
274
    -2
284
     1
 64
     0
275
    -2
285
     1
 65
     0
276
    -2
286
     1
 66
     0
277
    -2
287
     1
 67
     0
278
    -2
288
     1
 68
     0
279
    -2
289
     1
 69
     0
  0
VISUALSTYLE
  5
371
102
{ACAD_REACTORS
330
36B
102
}
330
36B
100
AcDbVisualStyle
  2
2dWireframe
 70
     4
 71
     0
 72
     2
 73
     0
 90
        0
 40
-0.6
 41
-30.0
 62
     5
 63
     7
 74
     1
 91
        4
 64
     7
 65
   257
 75
     1
175
     1
 42
1.0
 92
        0
 66
   257
 43
1.0
 76
     1
 77
     6
 78
     2
 67
     7
 79
     5
170
     0
171
     0
290
     0
174
     0
 93
        1
 44
0.0
173
     0
291
     0
 45
0.0
1001
ACAD
1000
AcDbSavedByObjectVersion
1070
     0
  0
VISUALSTYLE
  5
373
102
{ACAD_REACTORS
330
36B
102
}
330
36B
100
AcDbVisualStyle
  2
3D Hidden
 70
     6
 71
     1
 72
     2
 73
     2
 90
        0
 40
-0.6
 41
-30.0
 62
     5
 63
     7
 74
     2
 91
        2
 64
     7
 65
   257
 75
     2
175
     1
 42
40.0
 92
        0
 66
   257
 43
1.0
 76
     1
 77
     6
 78
     2
 67
     7
 79
     3
170
     0
171
     0
290
     0
174
     0
 93
        1
 44
0.0
173
     0
291
     0
 45
0.0
1001
ACAD
1000
AcDbSavedByObjectVersion
1070
     0
  0
VISUALSTYLE
  5
372
102
{ACAD_REACTORS
330
36B
102
}
330
36B
100
AcDbVisualStyle
  2
3dWireframe
 70
     5
 71
     0
 72
     2
 73
     0
 90
        0
 40
-0.6
 41
-30.0
 62
     5
 63
     7
 74
     1
 91
        4
 64
     7
 65
   257
 75
     1
175
     1
 42
1.0
 92
        0
 66
   257
 43
1.0
 76
     1
 77
     6
 78
     2
 67
     7
 79
     5
170
     0
171
     0
290
     0
174
     0
 93
        1
 44
0.0
173
     0
291
     0
 45
0.0
1001
ACAD
1000
AcDbSavedByObjectVersion
1070
     0
  0
VISUALSTYLE
  5
370
102
{ACAD_REACTORS
330
36B
102
}
330
36B
100
AcDbVisualStyle
  2
Basic
 70
     7
 71
     1
 72
     0
 73
     1
 90
        0
 40
-0.6
 41
-30.0
 62
     5
 63
     7
 74
     0
 91
        4
 64
     7
 65
   257
 75
     1
175
     1
 42
1.0
 92
        8
 66
     7
 43
1.0
 76
     1
 77
     6
 78
     2
 67
     7
 79
     5
170
     0
171
     0
290
     0
174
     0
 93
        1
 44
0.0
173
     0
291
     1
 45
0.0
1001
ACAD
1000
AcDbSavedByObjectVersion
1070
     0
  0
VISUALSTYLE
  5
377
102
{ACAD_REACTORS
330
36B
102
}
330
36B
100
AcDbVisualStyle
  2
Brighten
 70
    12
 71
     2
 72
     2
 73
     0
 90
        0
 40
-0.6
 41
-30.0
 62
     5
 63
     7
 74
     1
 91
        4
 64
     7
 65
   257
 75
     1
175
     1
 42
1.0
 92
        8
 66
     7
 43
1.0
 76
     1
 77
     6
 78
     2
 67
     7
 79
     5
170
     0
171
     0
290
     0
174
     0
 93
        1
 44
50.0
173
     0
291
     1
 45
0.0
1001
ACAD
1000
AcDbSavedByObjectVersion
1070
     0
  0
VISUALSTYLE
  5
37B
102
{ACAD_REACTORS
330
36B
102
}
330
36B
100
AcDbVisualStyle
  2
ColorChange
 70
    16
 71
     2
 72
     2
 73
     3
 90
        0
 40
-0.6
 41
-30.0
 62
     5
 63
     8
 74
     1
 91
        4
 64
     7
 65
   257
 75
     1
175
     1
 42
1.0
 92
        8
 66
     8
 43
1.0
 76
     1
 77
     6
 78
     2
 67
     7
 79
     5
170
     0
171
     0
290
     0
174
     0
 93
        1
 44
0.0
173
     0
291
     1
 45
0.0
1001
ACAD
1000
AcDbSavedByObjectVersion
1070
     0
  0
VISUALSTYLE
  5
374
102
{ACAD_REACTORS
330
36B
102
}
330
36B
100
AcDbVisualStyle
  2
Conceptual
 70
     9
 71
     3
 72
     2
 73
     0
 90
        0
 40
-0.6
 41
-30.0
 62
     5
 63
     7
 74
     2
 91
        2
 64
     7
 65
   257
 75
     1
175
     1
 42
40.0
 92
        8
 66
     7
 43
1.0
 76
     1
 77
     6
 78
     2
 67
     7
 79
     3
170
     0
171
     0
290
     0
174
     0
 93
        1
 44
0.0
173
     0
291
     0
 45
0.0
1001
ACAD
1000
AcDbSavedByObjectVersion
1070
     0
  0
VISUALSTYLE
  5
376
102
{ACAD_REACTORS
330
36B
102
}
330
36B
100
AcDbVisualStyle
  2
Dim
 70
    11
 71
     2
 72
     2
 73
     0
 90
        0
 40
-0.6
 41
-30.0
 62
     5
 63
     7
 74
     1
 91
        4
 64
     7
 65
   257
 75
     1
175
     1
 42
1.0
 92
        8
 66
     7
 43
1.0
 76
     1
 77
     6
 78
     2
 67
     7
 79
     5
170
     0
171
     0
290
     0
174
     0
 93
        1
 44
-50.0
173
     0
291
     1
 45
0.0
1001
ACAD
1000
AcDbSavedByObjectVersion
1070
     0
  0
VISUALSTYLE
  5
37A
102
{ACAD_REACTORS
330
36B
102
}
330
36B
100
AcDbVisualStyle
  2
Facepattern
 70
    15
 71
     2
 72
     2
 73
     0
 90
        0
 40
-0.6
 41
-30.0
 62
     5
 63
     7
 74
     1
 91
        4
 64
     7
 65
   257
 75
     1
175
     1
 42
1.0
 92
        8
 66
     7
 43
1.0
 76
     1
 77
     6
 78
     2
 67
     7
 79
     5
170
     0
171
     0
290
     0
174
     0
 93
        1
 44
0.0
173
     0
291
     1
 45
0.0
1001
ACAD
1000
AcDbSavedByObjectVersion
1070
     0
  0
VISUALSTYLE
  5
36C
102
{ACAD_REACTORS
330
36B
102
}
330
36B
100
AcDbVisualStyle
  2
Flat
 70
     0
 71
     2
 72
     1
 73
     1
 90
        2
 40
-0.6
 41
30.0
 62
     5
 63
     7
 74
     0
 91
        4
 64
     7
 65
   257
 75
     1
175
     1
 42
1.0
 92
        8
 66
     7
 43
1.0
 76
     1
 77
     6
 78
     2
 67
     7
 79
     5
170
     0
171
     0
290
     0
174
     0
 93
       13
 44
0.0
173
     0
291
     1
 45
0.0
1001
ACAD
1000
AcDbSavedByObjectVersion
1070
     0
  0
VISUALSTYLE
  5
36D
102
{ACAD_REACTORS
330
36B
102
}
330
36B
100
AcDbVisualStyle
  2
FlatWithEdges
 70
     1
 71
     2
 72
     1
 73
     1
 90
        2
 40
-0.6
 41
30.0
 62
     5
 63
     7
 74
     1
 91
        4
 64
     7
 65
   257
 75
     1
175
     1
 42
1.0
 92
        0
 66
   257
 43
1.0
 76
     1
 77
     6
 78
     2
 67
     7
 79
     5
170
     0
171
     0
290
     0
174
     0
 93
       13
 44
0.0
173
     0
291
     1
 45
0.0
1001
ACAD
1000
AcDbSavedByObjectVersion
1070
     0
  0
VISUALSTYLE
  5
36E
102
{ACAD_REACTORS
330
36B
102
}
330
36B
100
AcDbVisualStyle
  2
Gouraud
 70
     2
 71
     2
 72
     2
 73
     1
 90
        2
 40
-0.6
 41
30.0
 62
     5
 63
     7
 74
     0
 91
        4
 64
     7
 65
   257
 75
     1
175
     1
 42
1.0
 92
        0
 66
     7
 43
1.0
 76
     1
 77
     6
 78
     2
 67
     7
 79
     5
170
     0
171
     0
290
     0
174
     0
 93
       13
 44
0.0
173
     0
291
     1
 45
0.0
1001
ACAD
1000
AcDbSavedByObjectVersion
1070
     0
  0
VISUALSTYLE
  5
36F
102
{ACAD_REACTORS
330
36B
102
}
330
36B
100
AcDbVisualStyle
  2
GouraudWithEdges
 70
     3
 71
     2
 72
     2
 73
     1
 90
        2
 40
-0.6
 41
30.0
 62
     5
 63
     7
 74
     1
 91
        4
 64
     7
 65
   257
 75
     1
175
     1
 42
1.0
 92
        0
 66
   257
 43
1.0
 76
     1
 77
     6
 78
     2
 67
     7
 79
     5
170
     0
171
     0
290
     0
174
     0
 93
       13
 44
0.0
173
     0
291
     1
 45
0.0
1001
ACAD
1000
AcDbSavedByObjectVersion
1070
     0
  0
VISUALSTYLE
  5
379
102
{ACAD_REACTORS
330
36B
102
}
330
36B
100
AcDbVisualStyle
  2
Linepattern
 70
    14
 71
     2
 72
     2
 73
     0
 90
        0
 40
-0.6
 41
-30.0
 62
     5
 63
     7
 74
     1
 91
        4
 64
     7
 65
   257
 75
     7
175
     7
 42
1.0
 92
        8
 66
     7
 43
1.0
 76
     1
 77
     6
 78
     2
 67
     7
 79
     5
170
     0
171
     0
290
     0
174
     0
 93
        1
 44
0.0
173
     0
291
     1
 45
0.0
1001
ACAD
1000
AcDbSavedByObjectVersion
1070
     0
  0
VISUALSTYLE
  5
375
102
{ACAD_REACTORS
330
36B
102
}
330
36B
100
AcDbVisualStyle
  2
Realistic
 70
     8
 71
     2
 72
     2
 73
     0
 90
        0
 40
-0.6
 41
-30.0
 62
     5
 63
     7
 74
     1
 91
        0
 64
     7
 65
   257
 75
     1
175
     1
 42
1.0
 92
        8
 66
     8
 43
1.0
 76
     1
 77
     6
 78
     2
 67
     7
 79
     5
170
     0
171
     0
290
     0
174
     0
 93
       13
 44
0.0
173
     0
291
     0
 45
0.0
1001
ACAD
1000
AcDbSavedByObjectVersion
1070
     0
  0
VISUALSTYLE
  5
378
102
{ACAD_REACTORS
330
36B
102
}
330
36B
100
AcDbVisualStyle
  2
Thicken
 70
    13
 71
     2
 72
     2
 73
     0
 90
        0
 40
-0.6
 41
-30.0
 62
     5
 63
     7
 74
     1
 91
        4
 64
     7
 65
   257
 75
     1
175
     1
 42
1.0
 92
       12
 66
     7
 43
1.0
 76
     1
 77
     6
 78
     2
 67
     7
 79
     5
170
     0
171
     0
290
     0
174
     0
 93
        1
 44
0.0
173
     0
291
     1
 45
0.0
1001
ACAD
1000
AcDbSavedByObjectVersion
1070
     0
  0
DICTIONARYVAR
  5
3EE
102
{ACAD_REACTORS
330
3EB
102
}
330
3EB
100
DictionaryVariables
280
     0
  1
1:1
  0
DICTIONARYVAR
  5
3ED
102
{ACAD_REACTORS
330
3EB
102
}
330
3EB
100
DictionaryVariables
280
     0
  1
STANDARD
  0
DICTIONARYVAR
  5
3EC
102
{ACAD_REACTORS
330
3EB
102
}
330
3EB
100
DictionaryVariables
280
     0
  1
STANDARD
  0
DICTIONARYVAR
  5
3F1
102
{ACAD_REACTORS
330
3EB
102
}
330
3EB
100
DictionaryVariables
280
     0
  1
1
  0
DICTIONARYVAR
  5
3F0
102
{ACAD_REACTORS
330
3EB
102
}
330
3EB
100
DictionaryVariables
280
     0
  1
0
  0
DICTIONARYVAR
  5
3EF
102
{ACAD_REACTORS
330
3EB
102
}
330
3EB
100
DictionaryVariables
280
     0
  1
127
  0
DICTIONARY
  5
406
330
3B5
100
AcDbDictionary
280
     1
281
     1
  3
ACAD_XREC_ROUNDTRIP
360
407
  0
DICTIONARY
  5
408
330
3B9
100
AcDbDictionary
280
     1
281
     1
  3
ACAD_XREC_ROUNDTRIP
360
409
  0
DICTIONARY
  5
35C
330
35B
100
AcDbDictionary
280
     1
281
     1
  3
ACAD_XREC_ROUNDTRIP
360
403
  3
BUMPTILE
360
35E
  3
DIFFUSETILE
360
35D
  3
OPACITYTILE
360
361
  3
REFLECTIONTILE
360
360
  3
REFRACTIONTILE
360
362
  3
SPECULARTILE
360
35F
  0
DICTIONARY
  5
354
330
353
100
AcDbDictionary
280
     1
281
     1
  3
ACAD_XREC_ROUNDTRIP
360
402
  3
BUMPTILE
360
356
  3
DIFFUSETILE
360
355
  3
OPACITYTILE
360
359
  3
REFLECTIONTILE
360
358
  3
REFRACTIONTILE
360
35A
  3
SPECULARTILE
360
357
  0
DICTIONARY
  5
364
330
363
100
AcDbDictionary
280
     1
281
     1
  3
ACAD_XREC_ROUNDTRIP
360
404
  3
BUMPTILE
360
366
  3
DIFFUSETILE
360
365
  3
OPACITYTILE
360
369
  3
REFLECTIONTILE
360
368
  3
REFRACTIONTILE
360
36A
  3
SPECULARTILE
360
367
  0
DICTIONARY
  5
3FE
330
3AE
100
AcDbDictionary
280
     1
281
     1
  3
ACAD_ROUNDTRIP_2008_TABLESTYLE_CELLSTYLEMAP
360
3FF
  3
ACAD_XREC_ROUNDTRIP
360
405
  0
XRECORD
  5
407
102
{ACAD_REACTORS
330
406
102
}
330
406
100
AcDbXrecord
280
     1
102
SHADEPLOT
 70
     0
102
SHADEPLOTRESLEVEL
 70
     2
102
SHADEPLOTCUSTOMDPI
 70
   300
  0
XRECORD
  5
409
102
{ACAD_REACTORS
330
408
102
}
330
408
100
AcDbXrecord
280
     1
102
SHADEPLOT
 70
     0
102
SHADEPLOTRESLEVEL
 70
     2
102
SHADEPLOTCUSTOMDPI
 70
   300
  0
XRECORD
  5
403
102
{ACAD_REACTORS
330
35C
102
}
330
35C
100
AcDbXrecord
280
     1
102
MATERIAL
148
0.0
149
0.0
149
0.0
 93
        0
 94
      127
282
     0
 72
     0
 77
     0
171
     0
175
     0
179
     0
273
     0
  0
XRECORD
  5
35E
102
{ACAD_REACTORS
330
35C
102
}
330
35C
100
AcDbXrecord
280
     1
270
     1
271
     1
  0
XRECORD
  5
35D
102
{ACAD_REACTORS
330
35C
102
}
330
35C
100
AcDbXrecord
280
     1
270
     1
271
     1
  0
XRECORD
  5
361
102
{ACAD_REACTORS
330
35C
102
}
330
35C
100
AcDbXrecord
280
     1
270
     1
271
     1
  0
XRECORD
  5
360
102
{ACAD_REACTORS
330
35C
102
}
330
35C
100
AcDbXrecord
280
     1
270
     1
271
     1
  0
XRECORD
  5
362
102
{ACAD_REACTORS
330
35C
102
}
330
35C
100
AcDbXrecord
280
     1
270
     1
271
     1
  0
XRECORD
  5
35F
102
{ACAD_REACTORS
330
35C
102
}
330
35C
100
AcDbXrecord
280
     1
270
     1
271
     1
  0
XRECORD
  5
402
102
{ACAD_REACTORS
330
354
102
}
330
354
100
AcDbXrecord
280
     1
102
MATERIAL
148
0.0
149
0.0
149
0.0
 93
        0
 94
      127
282
     0
 72
     0
 77
     0
171
     0
175
     0
179
     0
273
     0
  0
XRECORD
  5
356
102
{ACAD_REACTORS
330
354
102
}
330
354
100
AcDbXrecord
280
     1
270
     1
271
     1
  0
XRECORD
  5
355
102
{ACAD_REACTORS
330
354
102
}
330
354
100
AcDbXrecord
280
     1
270
     1
271
     1
  0
XRECORD
  5
359
102
{ACAD_REACTORS
330
354
102
}
330
354
100
AcDbXrecord
280
     1
270
     1
271
     1
  0
XRECORD
  5
358
102
{ACAD_REACTORS
330
354
102
}
330
354
100
AcDbXrecord
280
     1
270
     1
271
     1
  0
XRECORD
  5
35A
102
{ACAD_REACTORS
330
354
102
}
330
354
100
AcDbXrecord
280
     1
270
     1
271
     1
  0
XRECORD
  5
357
102
{ACAD_REACTORS
330
354
102
}
330
354
100
AcDbXrecord
280
     1
270
     1
271
     1
  0
XRECORD
  5
404
102
{ACAD_REACTORS
330
364
102
}
330
364
100
AcDbXrecord
280
     1
102
MATERIAL
148
0.0
149
0.0
149
0.0
 93
        0
 94
      127
282
     0
 72
     0
 77
     0
171
     0
175
     0
179
     0
273
     0
  0
XRECORD
  5
366
102
{ACAD_REACTORS
330
364
102
}
330
364
100
AcDbXrecord
280
     1
270
     1
271
     1
  0
XRECORD
  5
365
102
{ACAD_REACTORS
330
364
102
}
330
364
100
AcDbXrecord
280
     1
270
     1
271
     1
  0
XRECORD
  5
369
102
{ACAD_REACTORS
330
364
102
}
330
364
100
AcDbXrecord
280
     1
270
     1
271
     1
  0
XRECORD
  5
368
102
{ACAD_REACTORS
330
364
102
}
330
364
100
AcDbXrecord
280
     1
270
     1
271
     1
  0
XRECORD
  5
36A
102
{ACAD_REACTORS
330
364
102
}
330
364
100
AcDbXrecord
280
     1
270
     1
271
     1
  0
XRECORD
  5
367
102
{ACAD_REACTORS
330
364
102
}
330
364
100
AcDbXrecord
280
     1
270
     1
271
     1
  0
CELLSTYLEMAP
  5
3FF
102
{ACAD_REACTORS
330
3FE
102
}
330
3FE
100
AcDbCellStyleMap
 90
        3
300
CELLSTYLE
  1
TABLEFORMAT_BEGIN
 90
        5
170
     1
 91
        0
 92
    32768
 62
   257
 93
        1
300
CONTENTFORMAT
  1
CONTENTFORMAT_BEGIN
 90
        0
 91
        0
 92
      512
 93
        0
300

 40
0.0
140
1.0
 94
        5
 62
     0
340
39F
144
0.25
309
CONTENTFORMAT_END
171
     0
 94
        0
309
TABLEFORMAT_END
  1
CELLSTYLE_BEGIN
 90
        1
 91
        1
300
_TITLE
309
CELLSTYLE_END
300
CELLSTYLE
  1
TABLEFORMAT_BEGIN
 90
        5
170
     1
 91
        0
 92
        0
 62
   257
 93
        1
300
CONTENTFORMAT
  1
CONTENTFORMAT_BEGIN
 90
        0
 91
        0
 92
      512
 93
        0
300

 40
0.0
140
1.0
 94
        5
 62
     0
340
39F
144
0.18
309
CONTENTFORMAT_END
171
     0
 94
        0
309
TABLEFORMAT_END
  1
CELLSTYLE_BEGIN
 90
        2
 91
        1
300
_HEADER
309
CELLSTYLE_END
300
CELLSTYLE
  1
TABLEFORMAT_BEGIN
 90
        5
170
     1
 91
        0
 92
        0
 62
   257
 93
        1
300
CONTENTFORMAT
  1
CONTENTFORMAT_BEGIN
 90
        0
 91
        0
 92
      512
 93
        0
300

 40
0.0
140
1.0
 94
        2
 62
     0
340
39F
144
0.18
309
CONTENTFORMAT_END
171
     0
 94
        0
309
TABLEFORMAT_END
  1
CELLSTYLE_BEGIN
 90
        3
 91
        2
300
_DATA
309
CELLSTYLE_END
  0
XRECORD
  5
405
102
{ACAD_REACTORS
330
3FE
102
}
330
3FE
100
AcDbXrecord
280
     1
102
ACAD_ROUNDTRIP_PRE2007_TABLESTYLE
 90
      512
 91
        0
  1

 92
      512
 93
        0
  2

 94
      512
 95
        0
  3

  0
ENDSEC
  0
EOF
