  0
SECTION
  2
HEADER
  9
$ACADVER
  1
AC1015
  9
$ACADMAINTVER
 70
    20
  9
$DWGCODEPAGE
  3
ANSI_932
  9
$INSBASE
 10
0.0
 20
0.0
 30
0.0
  9
$EXTMIN
 10
-1314.365617163625
 20
-593.4588214511877
 30
-0.0000000349181948
  9
$EXTMAX
 10
1302.270887904229
 20
1680.077195324507
 30
0.0000000814935747
  9
$LIMMIN
 10
-2315.603488828317
 20
-1835.772995356514
  9
$LIMMAX
 10
4822.123476460285
 20
2155.613463965039
  9
$ORTHOMODE
 70
     1
  9
$REGENMODE
 70
     1
  9
$FILLMODE
 70
     1
  9
$QTEXTMODE
 70
     0
  9
$MIRRTEXT
 70
     0
  9
$LTSCALE
 40
20.0
  9
$ATTMODE
 70
     1
  9
$TEXTSIZE
 40
64.0
  9
$TRACEWID
 40
0.05
  9
$TEXTSTYLE
  7
STANDARD
  9
$CLAYER
  8
0
  9
$CELTYPE
  6
CONTINUOUS
  9
$CECOLOR
 62
     7
  9
$CELTSCALE
 40
1.0
  9
$DISPSILH
 70
     0
  9
$DIMSCALE
 40
1.0
  9
$DIMASZ
 40
10.0
  9
$DIMEXO
 40
20.0
  9
$DIMDLI
 40
200.0
  9
$DIMRND
 40
0.0
  9
$DIMDLE
 40
0.0
  9
$DIMEXE
 40
30.0
  9
$DIMTP
 40
0.0
  9
$DIMTM
 40
0.0
  9
$DIMTXT
 40
64.0
  9
$DIMCEN
 40
0.0
  9
$DIMTSZ
 40
0.0
  9
$DIMTOL
 70
     0
  9
$DIMLIM
 70
     0
  9
$DIMTIH
 70
     0
  9
$DIMTOH
 70
     0
  9
$DIMSE1
 70
     0
  9
$DIMSE2
 70
     0
  9
$DIMTAD
 70
     1
  9
$DIMZIN
 70
     8
  9
$DIMBLK
  1

  9
$DIMASO
 70
     1
  9
$DIMSHO
 70
     0
  9
$DIMPOST
  1

  9
$DIMAPOST
  1

  9
$DIMALT
 70
     0
  9
$DIMALTD
 70
     2
  9
$DIMALTF
 40
25.4
  9
$DIMLFAC
 40
1.0
  9
$DIMTOFL
 70
     1
  9
$DIMTVP
 40
0.0
  9
$DIMTIX
 70
     1
  9
$DIMSOXD
 70
     0
  9
$DIMSAH
 70
     1
  9
$DIMBLK1
  1
DOTBLANK
  9
$DIMBLK2
  1
DOTBLANK
  9
$DIMSTYLE
  2
STANDARD
  9
$DIMCLRD
 70
     0
  9
$DIMCLRE
 70
     0
  9
$DIMCLRT
 70
     0
  9
$DIMTFAC
 40
1.0
  9
$DIMGAP
 40
0.09
  9
$DIMJUST
 70
     0
  9
$DIMSD1
 70
     0
  9
$DIMSD2
 70
     0
  9
$DIMTOLJ
 70
     1
  9
$DIMTZIN
 70
     0
  9
$DIMALTZ
 70
     0
  9
$DIMALTTZ
 70
     0
  9
$DIMUPT
 70
     0
  9
$DIMDEC
 70
     4
  9
$DIMTDEC
 70
     4
  9
$DIMALTU
 70
     2
  9
$DIMALTTD
 70
     2
  9
$DIMTXSTY
  7
STANDARD
  9
$DIMAUNIT
 70
     0
  9
$DIMADEC
 70
     0
  9
$DIMALTRND
 40
0.0
  9
$DIMAZIN
 70
     0
  9
$DIMDSEP
 70
    46
  9
$DIMATFIT
 70
     3
  9
$DIMFRAC
 70
     0
  9
$DIMLDRBLK
  1
DOTBLANK
  9
$DIMLUNIT
 70
     2
  9
$DIMLWD
 70
    -2
  9
$DIMLWE
 70
    -2
  9
$DIMTMOVE
 70
     0
  9
$LUNITS
 70
     2
  9
$LUPREC
 70
     4
  9
$SKETCHINC
 40
0.1
  9
$FILLETRAD
 40
20.0
  9
$AUNITS
 70
     1
  9
$AUPREC
 70
     3
  9
$MENU
  1
ACAD
  9
$ELEVATION
 40
0.0
  9
$PELEVATION
 40
0.0
  9
$THICKNESS
 40
0.0
  9
$LIMCHECK
 70
     0
  9
$CHAMFERA
 40
0.0
  9
$CHAMFERB
 40
0.0
  9
$CHAMFERC
 40
0.0
  9
$CHAMFERD
 40
0.0
  9
$SKPOLY
 70
     0
  9
$TDCREATE
 40
2449761.739988426
  9
$TDUCREATE
 40
2449761.406655093
  9
$TDUPDATE
 40
2457983.372789641
  9
$TDUUPDATE
 40
2457983.039456308
  9
$TDINDWG
 40
0.4442865394
  9
$TDUSRTIMER
 40
0.4442834491
  9
$USRTIMER
 70
     1
  9
$ANGBASE
 50
0.0
  9
$ANGDIR
 70
     0
  9
$PDMODE
 70
     3
  9
$PDSIZE
 40
-2.0
  9
$PLINEWID
 40
0.0
  9
$SPLFRAME
 70
     0
  9
$SPLINETYPE
 70
     6
  9
$SPLINESEGS
 70
     8
  9
$HANDSEED
  5
3B5
  9
$SURFTAB1
 70
     6
  9
$SURFTAB2
 70
     6
  9
$SURFTYPE
 70
     6
  9
$SURFU
 70
     6
  9
$SURFV
 70
     6
  9
$UCSBASE
  2

  9
$UCSNAME
  2

  9
$UCSORG
 10
0.0
 20
0.0
 30
0.0
  9
$UCSXDIR
 10
1.0
 20
0.0
 30
0.0
  9
$UCSYDIR
 10
0.0
 20
1.0
 30
0.0
  9
$UCSORTHOREF
  2

  9
$UCSORTHOVIEW
 70
     0
  9
$UCSORGTOP
 10
0.0
 20
0.0
 30
0.0
  9
$UCSORGBOTTOM
 10
0.0
 20
0.0
 30
0.0
  9
$UCSORGLEFT
 10
0.0
 20
0.0
 30
0.0
  9
$UCSORGRIGHT
 10
0.0
 20
0.0
 30
0.0
  9
$UCSORGFRONT
 10
0.0
 20
0.0
 30
0.0
  9
$UCSORGBACK
 10
0.0
 20
0.0
 30
0.0
  9
$PUCSBASE
  2

  9
$PUCSNAME
  2

  9
$PUCSORG
 10
0.0
 20
0.0
 30
0.0
  9
$PUCSXDIR
 10
1.0
 20
0.0
 30
0.0
  9
$PUCSYDIR
 10
0.0
 20
1.0
 30
0.0
  9
$PUCSORTHOREF
  2

  9
$PUCSORTHOVIEW
 70
     0
  9
$PUCSORGTOP
 10
0.0
 20
0.0
 30
0.0
  9
$PUCSORGBOTTOM
 10
0.0
 20
0.0
 30
0.0
  9
$PUCSORGLEFT
 10
0.0
 20
0.0
 30
0.0
  9
$PUCSORGRIGHT
 10
0.0
 20
0.0
 30
0.0
  9
$PUCSORGFRONT
 10
0.0
 20
0.0
 30
0.0
  9
$PUCSORGBACK
 10
0.0
 20
0.0
 30
0.0
  9
$USERI1
 70
     0
  9
$USERI2
 70
     0
  9
$USERI3
 70
     0
  9
$USERI4
 70
     0
  9
$USERI5
 70
     0
  9
$USERR1
 40
20.0
  9
$USERR2
 40
0.0
  9
$USERR3
 40
0.0
  9
$USERR4
 40
0.0
  9
$USERR5
 40
0.0
  9
$WORLDVIEW
 70
     1
  9
$SHADEDGE
 70
     3
  9
$SHADEDIF
 70
    70
  9
$TILEMODE
 70
     1
  9
$MAXACTVP
 70
    64
  9
$PINSBASE
 10
0.0
 20
0.0
 30
0.0
  9
$PLIMCHECK
 70
     0
  9
$PEXTMIN
 10
1.000000000000000E+20
 20
1.000000000000000E+20
 30
1.000000000000000E+20
  9
$PEXTMAX
 10
-1.000000000000000E+20
 20
-1.000000000000000E+20
 30
-1.000000000000000E+20
  9
$PLIMMIN
 10
0.0
 20
0.0
  9
$PLIMMAX
 10
12.0
 20
9.0
  9
$UNITMODE
 70
     0
  9
$VISRETAIN
 70
     1
  9
$PLINEGEN
 70
     0
  9
$PSLTSCALE
 70
     1
  9
$TREEDEPTH
 70
  3020
  9
$CMLSTYLE
  2
Standard
  9
$CMLJUST
 70
     0
  9
$CMLSCALE
 40
1.0
  9
$PROXYGRAPHICS
 70
     1
  9
$MEASUREMENT
 70
     0
  9
$CELWEIGHT
370
    -1
  9
$ENDCAPS
280
     0
  9
$JOINSTYLE
280
     0
  9
$LWDISPLAY
290
     0
  9
$INSUNITS
 70
     0
  9
$HYPERLINKBASE
  1

  9
$STYLESHEET
  1

  9
$XEDIT
290
     1
  9
$CEPSNTYPE
380
     0
  9
$PSTYLEMODE
290
     1
  9
$FINGERPRINTGUID
  2
{78D3A913-3B7B-42D3-9A8F-B8C560E561E3}
  9
$VERSIONGUID
  2
{0D154B1B-AAF8-447A-9AC6-72737430A39B}
  9
$EXTNAMES
290
     1
  9
$PSVPSCALE
 40
0.0
  9
$OLESTARTUP
290
     0
  0
ENDSEC
  0
SECTION
  2
CLASSES
  0
CLASS
  1
ACDBDICTIONARYWDFLT
  2
AcDbDictionaryWithDefault
  3
ObjectDBX Classes
 90
        0
280
     0
281
     0
  0
CLASS
  1
MATERIAL
  2
AcDbMaterial
  3
ObjectDBX Classes
 90
     1153
280
     0
281
     0
  0
CLASS
  1
VISUALSTYLE
  2
AcDbVisualStyle
  3
ObjectDBX Classes
 90
     4095
280
     0
281
     0
  0
CLASS
  1
SCALE
  2
AcDbScale
  3
ObjectDBX Classes
 90
     1153
280
     0
281
     0
  0
CLASS
  1
TABLESTYLE
  2
AcDbTableStyle
  3
ObjectDBX Classes
 90
     4095
280
     0
281
     0
  0
CLASS
  1
MLEADERSTYLE
  2
AcDbMLeaderStyle
  3
ACDB_MLEADERSTYLE_CLASS
 90
     4095
280
     0
281
     0
  0
CLASS
  1
DICTIONARYVAR
  2
AcDbDictionaryVar
  3
ObjectDBX Classes
 90
        0
280
     0
281
     0
  0
CLASS
  1
CELLSTYLEMAP
  2
AcDbCellStyleMap
  3
ObjectDBX Classes
 90
     1152
280
     0
281
     0
  0
CLASS
  1
ACDBPLACEHOLDER
  2
AcDbPlaceHolder
  3
ObjectDBX Classes
 90
        0
280
     0
281
     0
  0
CLASS
  1
LAYOUT
  2
AcDbLayout
  3
ObjectDBX Classes
 90
        0
280
     0
281
     0
  0
ENDSEC
  0
SECTION
  2
TABLES
  0
TABLE
  2
VPORT
  5
2E3
330
0
100
AcDbSymbolTable
 70
     1
  0
VPORT
  5
353
330
2E3
100
AcDbSymbolTableRecord
100
AcDbViewportTableRecord
  2
*ACTIVE
 70
     0
 10
0.0
 20
0.0
 11
1.0
 21
1.0
 12
-6.047364629697767
 22
543.3091869366598
 13
0.0
 23
0.0
 14
50.0
 24
50.0
 15
100.0
 25
100.0
 16
0.0
 26
0.0
 36
1.0
 17
0.0
 27
0.0
 37
0.0
 40
2289.641348653681
 41
1.802600472813238
 42
50.0
 43
0.0
 44
0.0
 50
0.0
 51
0.0
 71
     0
 72
  1000
 73
     1
 74
     0
 75
     0
 76
     0
 77
     0
 78
     0
281
     0
 65
     1
110
0.0
120
0.0
130
0.0
111
1.0
121
0.0
131
0.0
112
0.0
122
1.0
132
0.0
 79
     0
146
0.0
  0
ENDTAB
  0
TABLE
  2
LTYPE
  5
2E0
330
0
100
AcDbSymbolTable
 70
     4
  0
LTYPE
  5
33D
330
2E0
100
AcDbSymbolTableRecord
100
AcDbLinetypeTableRecord
  2
ByBlock
 70
     0
  3

 72
    65
 73
     0
 40
0.0
  0
LTYPE
  5
33E
330
2E0
100
AcDbSymbolTableRecord
100
AcDbLinetypeTableRecord
  2
ByLayer
 70
     0
  3

 72
    65
 73
     0
 40
0.0
  0
LTYPE
  5
33F
330
2E0
100
AcDbSymbolTableRecord
100
AcDbLinetypeTableRecord
  2
CONTINUOUS
 70
     0
  3
実線
 72
    65
 73
     0
 40
0.0
  0
LTYPE
  5
354
330
2E0
100
AcDbSymbolTableRecord
100
AcDbLinetypeTableRecord
  2
DASHDOT
 70
     0
  3
____ _ ____ _ ____ _ ____ _ ____ _ ____ _ ____
 72
    65
 73
     4
 40
5.5
 49
4.0
 74
     0
 49
-0.6
 74
     0
 49
0.3
 74
     0
 49
-0.6
 74
     0
  0
ENDTAB
  0
TABLE
  2
LAYER
  5
2DD
330
0
100
AcDbSymbolTable
 70
    12
  0
LAYER
  5
337
102
{ACAD_XDICTIONARY
360
36E
102
}
330
2DD
100
AcDbSymbolTableRecord
100
AcDbLayerTableRecord
  2
0
 70
     0
 62
     7
  6
CONTINUOUS
370
    -3
390
2EA
  0
LAYER
  5
355
102
{ACAD_XDICTIONARY
360
370
102
}
330
2DD
100
AcDbSymbolTableRecord
100
AcDbLayerTableRecord
  2
OUTLINE
 70
     0
 62
     3
  6
CONTINUOUS
370
    -3
390
2EA
  0
LAYER
  5
356
102
{ACAD_XDICTIONARY
360
372
102
}
330
2DD
100
AcDbSymbolTableRecord
100
AcDbLayerTableRecord
  2
DETAIL
 70
     0
 62
     5
  6
CONTINUOUS
370
    -3
390
2EA
  0
LAYER
  5
357
102
{ACAD_XDICTIONARY
360
374
102
}
330
2DD
100
AcDbSymbolTableRecord
100
AcDbLayerTableRecord
  2
BASIS
 70
     0
 62
     6
  6
DASHDOT
370
    -3
390
2EA
  0
LAYER
  5
358
102
{ACAD_XDICTIONARY
360
376
102
}
330
2DD
100
AcDbSymbolTableRecord
100
AcDbLayerTableRecord
  2
SIZE
 70
     0
 62
    30
  6
CONTINUOUS
370
    -3
390
2EA
  0
LAYER
  5
359
102
{ACAD_XDICTIONARY
360
378
102
}
330
2DD
100
AcDbSymbolTableRecord
100
AcDbLayerTableRecord
  2
NOTE
 70
     0
 62
     4
  6
CONTINUOUS
370
    -3
390
2EA
  0
LAYER
  5
35A
102
{ACAD_XDICTIONARY
360
37A
102
}
330
2DD
100
AcDbSymbolTableRecord
100
AcDbLayerTableRecord
  2
ARRANGE
 70
     0
 62
     1
  6
CONTINUOUS
370
    -3
390
2EA
  0
LAYER
  5
35B
102
{ACAD_XDICTIONARY
360
37C
102
}
330
2DD
100
AcDbSymbolTableRecord
100
AcDbLayerTableRecord
  2
FIX
 70
     0
 62
    11
  6
CONTINUOUS
370
    -3
390
2EA
  0
LAYER
  5
35C
102
{ACAD_XDICTIONARY
360
37E
102
}
330
2DD
100
AcDbSymbolTableRecord
100
AcDbLayerTableRecord
  2
SERVICESPACE
 70
     0
 62
     2
  6
DASHDOT
370
    -3
390
2EA
  0
LAYER
  5
35D
102
{ACAD_XDICTIONARY
360
380
102
}
330
2DD
100
AcDbSymbolTableRecord
100
AcDbLayerTableRecord
  2
ETC
 70
     0
 62
    61
  6
CONTINUOUS
370
    -3
390
2EA
  0
LAYER
  5
35E
102
{ACAD_XDICTIONARY
360
382
102
}
330
2DD
100
AcDbSymbolTableRecord
100
AcDbLayerTableRecord
  2
SYMBOLLINE
 70
     0
 62
    15
  6
CONTINUOUS
370
    -3
390
2EA
  0
LAYER
  5
35F
330
2DD
100
AcDbSymbolTableRecord
100
AcDbLayerTableRecord
  2
DEFPOINTS
 70
     0
 62
     7
  6
CONTINUOUS
290
     0
370
    -3
390
2EA
  0
ENDTAB
  0
TABLE
  2
STYLE
  5
2DE
330
0
100
AcDbSymbolTable
 70
     3
  0
STYLE
  5
338
330
2DE
100
AcDbSymbolTableRecord
100
AcDbTextStyleTableRecord
  2
STANDARD
 70
     0
 40
0.0
 41
0.9
 50
0.0
 71
     0
 42
64.0
  3
SIMPLEX
  4
BIGFONT
  0
STYLE
  5
33C
330
2DE
100
AcDbSymbolTableRecord
100
AcDbTextStyleTableRecord
  2
ANNOTATIVE
 70
     0
 40
0.0
 41
1.0
 50
0.0
 71
     0
 42
0.2
  3
txt
  4

1001
ACADANNOTATIVE
1000
AnnotativeData
1002
{
1070
     1
1070
     1
1002
}
  0
STYLE
  5
360
330
2DE
100
AcDbSymbolTableRecord
100
AcDbTextStyleTableRecord
  2
STANDARD1
 70
     0
 40
0.0
 41
1.0
 50
0.0
 71
     0
 42
64.0
  3
MONOTXT
  4
BIGFONT
  0
ENDTAB
  0
TABLE
  2
VIEW
  5
2E1
330
0
100
AcDbSymbolTable
 70
     1
  0
VIEW
  5
361
330
2E1
100
AcDbSymbolTableRecord
100
AcDbViewTableRecord
  2
ALL
 70
     0
 40
4282.619807999997
 10
0.0
 20
41.30990399999999
 41
5940.0
 11
0.0
 21
0.0
 31
1.0
 12
0.0
 22
0.0
 32
0.0
 42
50.0
 43
0.0
 44
0.0
 50
0.0
 71
     0
281
     0
 72
     1
110
0.0
120
0.0
130
0.0
111
1.0
121
0.0
131
0.0
112
0.0
122
1.0
132
0.0
 79
     0
146
0.0
  0
ENDTAB
  0
TABLE
  2
UCS
  5
2E2
330
0
100
AcDbSymbolTable
 70
     0
  0
ENDTAB
  0
TABLE
  2
APPID
  5
2E4
330
0
100
AcDbSymbolTable
 70
     4
  0
APPID
  5
339
330
2E4
100
AcDbSymbolTableRecord
100
AcDbRegAppTableRecord
  2
ACAD
 70
     0
  0
APPID
  5
340
330
2E4
100
AcDbSymbolTableRecord
100
AcDbRegAppTableRecord
  2
ACADANNOTATIVE
 70
     0
  0
APPID
  5
34A
330
2E4
100
AcDbSymbolTableRecord
100
AcDbRegAppTableRecord
  2
ACAD_MLEADERVER
 70
     0
  0
APPID
  5
36C
330
2E4
100
AcDbSymbolTableRecord
100
AcDbRegAppTableRecord
  2
ACAD_EXEMPT_FROM_CAD_STANDARDS
 70
     0
  0
ENDTAB
  0
TABLE
  2
DIMSTYLE
  5
2E5
330
0
100
AcDbSymbolTable
 70
     3
100
AcDbDimStyleTable
 71
     1
340
33A
  0
DIMSTYLE
105
33A
330
2E5
100
AcDbSymbolTableRecord
100
AcDbDimStyleTableRecord
  2
STANDARD
 70
     0
275
     1
279
     2
284
     8
285
     8
286
     8
340
338
  0
DIMSTYLE
105
33B
330
2E5
100
AcDbSymbolTableRecord
100
AcDbDimStyleTableRecord
  2
ANNOTATIVE
 70
     0
275
     1
279
     2
284
     8
285
     8
286
     8
340
338
1001
ACADANNOTATIVE
1000
AnnotativeData
1002
{
1070
     1
1070
     1
1002
}
  0
ENDTAB
  0
TABLE
  2
BLOCK_RECORD
  5
2DC
330
0
100
AcDbSymbolTable
 70
     4
  0
BLOCK_RECORD
  5
34F
330
2DC
100
AcDbSymbolTableRecord
100
AcDbBlockTableRecord
  2
*Model_Space
340
352
  0
BLOCK_RECORD
  5
34B
330
2DC
100
AcDbSymbolTableRecord
100
AcDbBlockTableRecord
  2
*Paper_Space
340
34E
  0
BLOCK_RECORD
  5
366
330
2DC
100
AcDbSymbolTableRecord
100
AcDbBlockTableRecord
  2
$MODEL_SPACE
340
0
  0
BLOCK_RECORD
  5
368
330
2DC
100
AcDbSymbolTableRecord
100
AcDbBlockTableRecord
  2
$PAPER_SPACE
340
0
  0
BLOCK_RECORD
  5
36A
330
2DC
100
AcDbSymbolTableRecord
100
AcDbBlockTableRecord
  2
_DOTBLANK
340
0
  0
ENDTAB
  0
ENDSEC
  0
SECTION
  2
BLOCKS
  0
BLOCK
  5
350
330
34F
100
AcDbEntity
  8
0
100
AcDbBlockBegin
  2
*Model_Space
 70
     0
 10
0.0
 20
0.0
 30
0.0
  3
*Model_Space
  1

  0
ENDBLK
  5
351
330
34F
100
AcDbEntity
  8
0
100
AcDbBlockEnd
  0
BLOCK
  5
34C
330
34B
100
AcDbEntity
 67
     1
  8
0
100
AcDbBlockBegin
  2
*Paper_Space
 70
     0
 10
0.0
 20
0.0
 30
0.0
  3
*Paper_Space
  1

  0
ENDBLK
  5
34D
330
34B
100
AcDbEntity
 67
     1
  8
0
100
AcDbBlockEnd
  0
BLOCK
  5
367
330
366
100
AcDbEntity
  8
0
100
AcDbBlockBegin
  2
$MODEL_SPACE
 70
     0
 10
0.0
 20
0.0
 30
0.0
  3
$MODEL_SPACE
  1

  0
ENDBLK
  5
76
330
366
100
AcDbEntity
  8
0
100
AcDbBlockEnd
  0
BLOCK
  5
369
330
368
100
AcDbEntity
  8
0
100
AcDbBlockBegin
  2
$PAPER_SPACE
 70
     0
 10
0.0
 20
0.0
 30
0.0
  3
$PAPER_SPACE
  1

  0
ENDBLK
  5
72
330
368
100
AcDbEntity
  8
0
100
AcDbBlockEnd
  0
BLOCK
  5
36B
330
36A
100
AcDbEntity
  8
0
100
AcDbBlockBegin
  2
_DOTBLANK
 70
     0
 10
0.0
 20
0.0
 30
0.0
  3
_DOTBLANK
  1

  0
CIRCLE
  5
8C
330
36A
100
AcDbEntity
  8
0
  6
Continuous
 62
     7
100
AcDbCircle
 10
0.0
 20
0.0
 30
0.0
 40
0.5
  0
LINE
  5
8D
330
36A
100
AcDbEntity
  8
0
  6
Continuous
 62
     7
100
AcDbLine
 10
-0.5
 20
0.0
 30
0.0
 11
-1.0
 21
0.0
 31
0.0
  0
ENDBLK
  5
8E
330
36A
100
AcDbEntity
  8
0
100
AcDbBlockEnd
  0
ENDSEC
  0
SECTION
  2
ENTITIES
  0
POINT
  5
8F
330
34F
100
AcDbEntity
  8
ARRANGE
100
AcDbPoint
 10
-0.0000000000009095
 20
0.0
 30
0.0
  0
LINE
  5
90
330
34F
100
AcDbEntity
  8
BASIS
100
AcDbLine
 10
0.0000000000009095
 20
1465.0
 30
0.0
 11
-0.0000000000009095
 21
-133.2376920000001
 31
0.0
  0
TEXT
  5
92
330
34F
100
AcDbEntity
  8
ETC
100
AcDbText
 10
907.405228237727
 20
1610.806216905604
 30
0.0
 40
64.0
  1
RUH-P5B1_3
 50
359.9999969999998
 41
0.638021
  7
STANDARD1
100
AcDbText
  0
CIRCLE
  5
93
330
34F
100
AcDbEntity
  8
ARRANGE
100
AcDbCircle
 10
-0.0000000000009095
 20
0.0
 30
0.0
 40
40.0
  0
LINE
  5
94
330
34F
100
AcDbEntity
  8
DETAIL
100
AcDbLine
 10
-595.0000000000008
 20
0.0000000000009095
 30
0.0
 11
594.9999999999992
 21
-0.0000000000009095
 31
0.0
  0
LINE
  5
95
330
34F
100
AcDbEntity
  8
DETAIL
100
AcDbLine
 10
595.0000000000008
 20
1374.999999999999
 30
0.0
 11
594.9999999999992
 21
119.999999999999
 31
0.0
  0
LINE
  5
96
330
34F
100
AcDbEntity
  8
DETAIL
100
AcDbLine
 10
-594.9999999999992
 20
1375.0
 30
0.0
 11
-595.0000000000008
 21
120.0000000000003
 31
0.0
  0
LINE
  5
97
330
34F
100
AcDbEntity
  8
DETAIL
100
AcDbLine
 10
-594.9999999999992
 20
1375.0
 30
0.0
 11
595.0000000000008
 21
1374.999999999999
 31
0.0
  0
LINE
  5
98
330
34F
100
AcDbEntity
  8
SIZE
100
AcDbLine
 10
-614.9999999999992
 20
1375.0
 30
0.0
 11
-1034.571940193812
 21
1375.0
 31
0.0
  0
LINE
  5
99
330
34F
100
AcDbEntity
  8
SIZE
100
AcDbLine
 10
-615.0000000000008
 20
0.0000000000008015
 30
0.0
 11
-1034.571940193812
 21
0.0000000000009203
 31
0.0
  0
LINE
  5
9A
330
34F
100
AcDbEntity
  8
SIZE
100
AcDbLine
 10
-1004.571940193811
 20
1365.0
 30
0.0
 11
-1004.571940193812
 21
10.0000000000009
 31
0.0
  0
CIRCLE
  5
9B
330
34F
100
AcDbEntity
  8
SIZE
100
AcDbCircle
 10
-1004.571940193811
 20
1375.0
 30
0.0
 40
5.0
  0
LINE
  5
9C
330
34F
100
AcDbEntity
  8
SIZE
100
AcDbLine
 10
-1004.571940193811
 20
1370.0
 30
0.0
 11
-1004.571940193811
 21
1365.0
 31
0.0
  0
CIRCLE
  5
9D
330
34F
100
AcDbEntity
  8
SIZE
100
AcDbCircle
 10
-1004.571940193812
 20
0.0000000000009118
 30
0.0
 40
5.0
  0
LINE
  5
9E
330
34F
100
AcDbEntity
  8
SIZE
100
AcDbLine
 10
-1004.571940193812
 20
5.000000000000912
 30
0.0
 11
-1004.571940193812
 21
10.00000000000091
 31
0.0
  0
TEXT
  5
9F
330
34F
100
AcDbEntity
  8
SIZE
100
AcDbText
 10
-1024.571940193812
 20
591.5000000000008
 30
0.0
 40
64.0
  1
1375
 50
90.0
 41
0.9
 72
     1
 11
-1024.571940193812
 21
687.5000000000007
 31
0.0
100
AcDbText
  0
LINE
  5
A0
330
34F
100
AcDbEntity
  8
NOTE
100
AcDbLine
 10
424.9999999999991
 20
-19.99999999999863
 30
0.0
 11
424.9999999999991
 21
20.00000000000136
 31
0.0
  0
LINE
  5
A1
330
34F
100
AcDbEntity
  8
NOTE
100
AcDbLine
 10
444.9999999999991
 20
0.0000000000013642
 30
0.0
 11
404.9999999999988
 21
0.0000000000013642
 31
0.0
  0
CIRCLE
  5
A2
330
34F
100
AcDbEntity
  8
FIX
100
AcDbCircle
 10
424.9999999999991
 20
0.0000000000013642
 30
0.0
 40
10.0
  0
LINE
  5
A3
330
34F
100
AcDbEntity
  8
NOTE
100
AcDbLine
 10
0.0
 20
-20.0
 30
0.0
 11
0.0
 21
20.0
 31
0.0
  0
LINE
  5
A4
330
34F
100
AcDbEntity
  8
NOTE
100
AcDbLine
 10
20.0
 20
0.0
 30
0.0
 11
-20.0
 21
0.0
 31
0.0
  0
CIRCLE
  5
A5
330
34F
100
AcDbEntity
  8
FIX
100
AcDbCircle
 10
0.0
 20
0.0
 30
0.0
 40
10.0
  0
LINE
  5
A6
330
34F
100
AcDbEntity
  8
NOTE
100
AcDbLine
 10
-425.0
 20
-20.0
 30
0.0
 11
-425.0
 21
20.0
 31
0.0
  0
LINE
  5
A7
330
34F
100
AcDbEntity
  8
NOTE
100
AcDbLine
 10
-405.0
 20
0.0
 30
0.0
 11
-445.0
 21
0.0
 31
0.0
  0
CIRCLE
  5
A8
330
34F
100
AcDbEntity
  8
FIX
100
AcDbCircle
 10
-425.0
 20
0.0
 30
0.0
 40
10.0
  0
LWPOLYLINE
  5
A9
330
34F
100
AcDbEntity
  8
NOTE
100
AcDbPolyline
 90
        3
 70
     0
 43
0.0
 10
-462.8522733284862
 20
-12.93079223992015
 10
-424.9999999990739
 20
-0.0000000019698518
 10
-451.315634298433
 20
-30.12453081983937
  0
LINE
  5
AE
330
34F
100
AcDbEntity
  8
NOTE
100
AcDbLine
 10
-424.9999999988175
 20
-0.0000000016070771
 30
0.0
 11
-700.8982175396583
 21
-225.3221950762152
 31
0.0
  0
LINE
  5
AF
330
34F
100
AcDbEntity
  8
NOTE
100
AcDbLine
 10
-700.8982175396583
 20
-225.3221950762152
 30
0.0
 11
-1237.357747223095
 21
-225.3221950762142
 31
0.0
  0
TEXT
  5
B0
330
34F
100
AcDbEntity
  8
NOTE
100
AcDbText
 10
-1236.392315108844
 20
-208.2717265294621
 30
0.0
 40
64.0
  1
AH 6-15×22長穴
 50
359.9999970000022
 41
0.659722
  7
STANDARD1
100
AcDbText
  0
LINE
  5
B1
330
34F
100
AcDbEntity
  8
NOTE
100
AcDbLine
 10
527.0
 20
722.000000000001
 30
0.0
 11
527.0
 21
762.000000000001
 31
0.0
  0
LINE
  5
B2
330
34F
100
AcDbEntity
  8
NOTE
100
AcDbLine
 10
547.0
 20
742.000000000001
 30
0.0
 11
507.0
 21
742.000000000001
 31
0.0
  0
LINE
  5
B3
330
34F
100
AcDbEntity
  8
NOTE
100
AcDbLine
 10
472.0
 20
684.0000000000011
 30
0.0
 11
472.0
 21
724.0000000000009
 31
0.0
  0
LINE
  5
B4
330
34F
100
AcDbEntity
  8
NOTE
100
AcDbLine
 10
492.0
 20
704.000000000001
 30
0.0
 11
452.0
 21
704.000000000001
 31
0.0
  0
LINE
  5
B5
330
34F
100
AcDbEntity
  8
NOTE
100
AcDbLine
 10
527.0
 20
742.0000000000016
 30
0.0
 11
874.6056656518701
 21
1058.28458987926
 31
0.0
  0
LWPOLYLINE
  5
B6
330
34F
100
AcDbEntity
  8
NOTE
100
AcDbPolyline
 90
        3
 70
     0
 43
0.0
 10
562.4356326991828
 20
760.5557516504781
 10
527.0
 20
742.0000000000012
 10
548.4102824775236
 20
775.7875682730662
  0
LINE
  5
BB
330
34F
100
AcDbEntity
  8
NOTE
100
AcDbLine
 10
1256.86621549351
 20
1058.28458987926
 30
0.0
 11
874.6056656518701
 21
1058.28458987926
 31
0.0
  0
TEXT
  5
BC
330
34F
100
AcDbEntity
  8
NOTE
100
AcDbText
 10
909.4786730497016
 20
1075.33504810919
 30
0.0
 40
64.0
  1
RL %%C12.7
 50
359.9999970000022
 41
0.659722
  7
STANDARD1
100
AcDbText
  0
LINE
  5
BD
330
34F
100
AcDbEntity
  8
NOTE
100
AcDbLine
 10
472.0000000000008
 20
704.0000000000016
 30
0.0
 11
771.2706264446742
 21
1332.59128985452
 31
0.0
  0
LWPOLYLINE
  5
BE
330
34F
100
AcDbEntity
  8
NOTE
100
AcDbPolyline
 90
        3
 70
     0
 43
0.0
 10
497.4752969873725
 20
734.838437501127
 10
472.0000000000008
 20
704.0000000000016
 10
478.643035932983
 20
743.4445184932915
  0
LINE
  5
C3
330
34F
100
AcDbEntity
  8
NOTE
100
AcDbLine
 10
1256.86621549351
 20
1332.591289854518
 30
0.0
 11
771.2706264446742
 21
1332.59128985452
 31
0.0
  0
TEXT
  5
C4
330
34F
100
AcDbEntity
  8
NOTE
100
AcDbText
 10
909.4786730497016
 20
1349.641748084448
 30
0.0
 40
64.0
  1
RG %%C25.4
 50
359.9999970000022
 41
0.659722
  7
STANDARD1
100
AcDbText
  0
LINE
  5
C5
330
34F
100
AcDbEntity
  8
SIZE
100
AcDbLine
 10
512.0
 20
704.000000000001
 30
0.0
 11
875.2284655782416
 21
704.000000000001
 31
0.0
  0
LINE
  5
C6
330
34F
100
AcDbEntity
  8
SIZE
100
AcDbLine
 10
614.9999999999992
 20
-0.0000000000008015
 30
0.0
 11
875.2284655782414
 21
-0.0000000000008752
 31
0.0
  0
LINE
  5
C7
330
34F
100
AcDbEntity
  8
SIZE
100
AcDbLine
 10
845.2284655782413
 20
694.000000000001
 30
0.0
 11
845.2284655782413
 21
9.999999999999133
 31
0.0
  0
CIRCLE
  5
C8
330
34F
100
AcDbEntity
  8
SIZE
100
AcDbCircle
 10
845.2284655782413
 20
704.000000000001
 30
0.0
 40
5.0
  0
LINE
  5
C9
330
34F
100
AcDbEntity
  8
SIZE
100
AcDbLine
 10
845.2284655782413
 20
699.0000000000009
 30
0.0
 11
845.2284655782413
 21
694.000000000001
 31
0.0
  0
CIRCLE
  5
CA
330
34F
100
AcDbEntity
  8
SIZE
100
AcDbCircle
 10
845.2284655782413
 20
-0.0000000000008667
 30
0.0
 40
5.0
  0
LINE
  5
CB
330
34F
100
AcDbEntity
  8
SIZE
100
AcDbLine
 10
845.2284655782413
 20
4.999999999999133
 30
0.0
 11
845.2284655782413
 21
9.999999999999133
 31
0.0
  0
TEXT
  5
CC
330
34F
100
AcDbEntity
  8
SIZE
100
AcDbText
 10
825.2284655782414
 20
276.5714285714288
 30
0.0
 40
64.0
  1
704
 50
90.0
 41
0.9
 72
     1
 11
825.2284655782414
 21
352.0000000000002
 31
0.0
100
AcDbText
  0
LINE
  5
CD
330
34F
100
AcDbEntity
  8
SIZE
100
AcDbLine
 10
614.9999999999992
 20
-0.0000000000008015
 30
0.0
 11
1032.754164835525
 21
-0.0000000000009198
 31
0.0
  0
LINE
  5
CE
330
34F
100
AcDbEntity
  8
SIZE
100
AcDbLine
 10
567.0
 20
742.000000000001
 30
0.0
 11
1032.754164835525
 21
742.0000000000004
 31
0.0
  0
LINE
  5
CF
330
34F
100
AcDbEntity
  8
SIZE
100
AcDbLine
 10
1002.754164835525
 20
9.999999999999088
 30
0.0
 11
1002.754164835525
 21
732.000000000001
 31
0.0
  0
CIRCLE
  5
D0
330
34F
100
AcDbEntity
  8
SIZE
100
AcDbCircle
 10
1002.754164835525
 20
-0.0000000000009113
 30
0.0
 40
5.0
  0
LINE
  5
D1
330
34F
100
AcDbEntity
  8
SIZE
100
AcDbLine
 10
1002.754164835525
 20
4.999999999999086
 30
0.0
 11
1002.754164835525
 21
9.999999999999088
 31
0.0
  0
CIRCLE
  5
D2
330
34F
100
AcDbEntity
  8
SIZE
100
AcDbCircle
 10
1002.754164835525
 20
742.0000000000004
 30
0.0
 40
5.0
  0
LINE
  5
D3
330
34F
100
AcDbEntity
  8
SIZE
100
AcDbLine
 10
1002.754164835525
 20
737.0000000000008
 30
0.0
 11
1002.754164835525
 21
732.0000000000008
 31
0.0
  0
TEXT
  5
D4
330
34F
100
AcDbEntity
  8
SIZE
100
AcDbText
 10
982.754164835525
 20
296.9428571428572
 30
0.0
 40
64.0
  1
742
 50
90.0
 41
0.9
 72
     1
 11
982.754164835525
 21
371.0
 31
0.0
100
AcDbText
  0
LINE
  5
D5
330
34F
100
AcDbEntity
  8
SIZE
100
AcDbLine
 10
595.0000000000008
 20
1394.999999999999
 30
0.0
 11
595.0000000000008
 21
1489.701474758037
 31
0.0
  0
LINE
  5
D6
330
34F
100
AcDbEntity
  8
SIZE
100
AcDbLine
 10
527.0
 20
782.000000000001
 30
0.0
 11
527.0
 21
1489.701474758037
 31
0.0
  0
LINE
  5
D7
330
34F
100
AcDbEntity
  8
SIZE
100
AcDbLine
 10
752.5553453506691
 20
1459.701474758037
 30
0.0
 11
537.0
 21
1459.701474758037
 31
0.0
  0
CIRCLE
  5
D8
330
34F
100
AcDbEntity
  8
SIZE
100
AcDbCircle
 10
595.0000000000008
 20
1459.701474758037
 30
0.0
 40
5.0
  0
LINE
  5
D9
330
34F
100
AcDbEntity
  8
SIZE
100
AcDbLine
 10
590.0000000000008
 20
1459.701474758037
 30
0.0
 11
585.0000000000007
 21
1459.701474758037
 31
0.0
  0
CIRCLE
  5
DA
330
34F
100
AcDbEntity
  8
SIZE
100
AcDbCircle
 10
527.0
 20
1459.701474758037
 30
0.0
 40
5.0
  0
LINE
  5
DB
330
34F
100
AcDbEntity
  8
SIZE
100
AcDbLine
 10
532.0
 20
1459.701474758037
 30
0.0
 11
537.0
 21
1459.701474758037
 31
0.0
  0
TEXT
  5
DC
330
34F
100
AcDbEntity
  8
SIZE
100
AcDbText
 10
634.8950940859467
 20
1479.701474758037
 30
0.0
 40
64.0
  1
68
 41
0.9
 72
     1
 11
681.5236655145181
 21
1479.701474758037
 31
0.0
100
AcDbText
  0
LINE
  5
DD
330
34F
100
AcDbEntity
  8
SIZE
100
AcDbLine
 10
472.0
 20
744.000000000001
 30
0.0
 11
472.0
 21
1625.97781535543
 31
0.0
  0
LINE
  5
DE
330
34F
100
AcDbEntity
  8
SIZE
100
AcDbLine
 10
595.0000000000008
 20
1394.999999999999
 30
0.0
 11
595.0000000000008
 21
1625.97781535543
 31
0.0
  0
LINE
  5
DF
330
34F
100
AcDbEntity
  8
SIZE
100
AcDbLine
 10
482.0
 20
1595.97781535543
 30
0.0
 11
778.9612051851145
 21
1595.977815355429
 31
0.0
  0
CIRCLE
  5
E0
330
34F
100
AcDbEntity
  8
SIZE
100
AcDbCircle
 10
472.0
 20
1595.97781535543
 30
0.0
 40
5.0
  0
LINE
  5
E1
330
34F
100
AcDbEntity
  8
SIZE
100
AcDbLine
 10
477.0
 20
1595.97781535543
 30
0.0
 11
482.0
 21
1595.97781535543
 31
0.0
  0
CIRCLE
  5
E2
330
34F
100
AcDbEntity
  8
SIZE
100
AcDbCircle
 10
595.0000000000008
 20
1595.97781535543
 30
0.0
 40
5.0
  0
LINE
  5
E3
330
34F
100
AcDbEntity
  8
SIZE
100
AcDbLine
 10
590.0000000000008
 20
1595.97781535543
 30
0.0
 11
585.0000000000007
 21
1595.97781535543
 31
0.0
  0
TEXT
  5
E4
330
34F
100
AcDbEntity
  8
SIZE
100
AcDbText
 10
620.4146808214063
 20
1615.97781535543
 30
0.0
 40
64.0
  1
123
 41
0.9
 72
     1
 11
688.9861093928349
 21
1615.97781535543
 31
0.0
100
AcDbText
  0
LINE
  5
E5
330
34F
100
AcDbEntity
  8
SIZE
100
AcDbLine
 10
594.9999999999992
 20
-20.00000000000079
 30
0.0
 11
594.9999999999992
 21
-437.8542995308067
 31
0.0
  0
LINE
  5
E6
330
34F
100
AcDbEntity
  8
SIZE
100
AcDbLine
 10
424.9999999999991
 20
-39.99999999999874
 30
0.0
 11
424.9999999999991
 21
-437.8542995308067
 31
0.0
  0
LINE
  5
E7
330
34F
100
AcDbEntity
  8
SIZE
100
AcDbLine
 10
604.999999999999
 20
-407.8542995308067
 30
0.0
 11
614.9999999999992
 21
-407.8542995308067
 31
0.0
  0
LINE
  5
E8
330
34F
100
AcDbEntity
  8
SIZE
100
AcDbLine
 10
414.9999999999987
 20
-407.8542995308067
 30
0.0
 11
404.9999999999988
 21
-407.8542995308067
 31
0.0
  0
LINE
  5
E9
330
34F
100
AcDbEntity
  8
SIZE
100
AcDbLine
 10
594.9999999999992
 20
-407.8542995308067
 30
0.0
 11
424.9999999999991
 21
-407.8542995308067
 31
0.0
  0
CIRCLE
  5
EA
330
34F
100
AcDbEntity
  8
SIZE
100
AcDbCircle
 10
594.9999999999992
 20
-407.8542995308067
 30
0.0
 40
5.0
  0
LINE
  5
EB
330
34F
100
AcDbEntity
  8
SIZE
100
AcDbLine
 10
599.9999999999992
 20
-407.8542995308067
 30
0.0
 11
604.9999999999991
 21
-407.8542995308067
 31
0.0
  0
CIRCLE
  5
EC
330
34F
100
AcDbEntity
  8
SIZE
100
AcDbCircle
 10
424.9999999999991
 20
-407.8542995308067
 30
0.0
 40
5.0
  0
LINE
  5
ED
330
34F
100
AcDbEntity
  8
SIZE
100
AcDbLine
 10
419.9999999999991
 20
-407.8542995308067
 30
0.0
 11
414.9999999999991
 21
-407.8542995308067
 31
0.0
  0
TEXT
  5
EE
330
34F
100
AcDbEntity
  8
SIZE
100
AcDbText
 10
441.4285714285703
 20
-387.8542995308066
 30
0.0
 40
64.0
  1
170
 41
0.9
 72
     1
 11
509.9999999999988
 21
-387.8542995308066
 31
0.0
100
AcDbText
  0
LINE
  5
EF
330
34F
100
AcDbEntity
  8
SIZE
100
AcDbLine
 10
424.9999999999991
 20
-39.99999999999874
 30
0.0
 11
424.9999999999991
 21
-437.8542995308063
 31
0.0
  0
LINE
  5
F0
330
34F
100
AcDbEntity
  8
SIZE
100
AcDbLine
 10
-0.0000000000009107
 20
-143.237692
 30
0.0
 11
-0.0000000000009288
 21
-437.8542995308063
 31
0.0
  0
LINE
  5
F1
330
34F
100
AcDbEntity
  8
SIZE
100
AcDbLine
 10
414.9999999999987
 20
-407.8542995308062
 30
0.0
 11
9.999999999999072
 21
-407.8542995308062
 31
0.0
  0
CIRCLE
  5
F2
330
34F
100
AcDbEntity
  8
SIZE
100
AcDbCircle
 10
424.9999999999991
 20
-407.8542995308062
 30
0.0
 40
5.0
  0
LINE
  5
F3
330
34F
100
AcDbEntity
  8
SIZE
100
AcDbLine
 10
419.9999999999991
 20
-407.8542995308062
 30
0.0
 11
414.9999999999991
 21
-407.8542995308062
 31
0.0
  0
CIRCLE
  5
F4
330
34F
100
AcDbEntity
  8
SIZE
100
AcDbCircle
 10
-0.0000000000009269
 20
-407.8542995308062
 30
0.0
 40
5.0
  0
LINE
  5
F5
330
34F
100
AcDbEntity
  8
SIZE
100
AcDbLine
 10
4.99999999999907
 20
-407.8542995308062
 30
0.0
 11
9.999999999999072
 21
-407.8542995308062
 31
0.0
  0
TEXT
  5
F6
330
34F
100
AcDbEntity
  8
SIZE
100
AcDbText
 10
138.4428571428562
 20
-387.8542995308062
 30
0.0
 40
64.0
  1
425
 41
0.9
 72
     1
 11
212.4999999999991
 21
-387.8542995308062
 31
0.0
100
AcDbText
  0
LINE
  5
F7
330
34F
100
AcDbEntity
  8
SIZE
100
AcDbLine
 10
-0.0000000000009107
 20
-143.237692
 30
0.0
 11
-0.0000000000009288
 21
-437.8542995308055
 31
0.0
  0
LINE
  5
F8
330
34F
100
AcDbEntity
  8
SIZE
100
AcDbLine
 10
-425.0
 20
-39.99999999999987
 30
0.0
 11
-425.0
 21
-437.8542995308055
 31
0.0
  0
LINE
  5
F9
330
34F
100
AcDbEntity
  8
SIZE
100
AcDbLine
 10
-10.00000000000092
 20
-407.8542995308056
 30
0.0
 11
-415.0
 21
-407.8542995308056
 31
0.0
  0
CIRCLE
  5
FA
330
34F
100
AcDbEntity
  8
SIZE
100
AcDbCircle
 10
-0.0000000000009269
 20
-407.8542995308056
 30
0.0
 40
5.0
  0
LINE
  5
FB
330
34F
100
AcDbEntity
  8
SIZE
100
AcDbLine
 10
-5.000000000000927
 20
-407.8542995308056
 30
0.0
 11
-10.00000000000092
 21
-407.8542995308056
 31
0.0
  0
CIRCLE
  5
FC
330
34F
100
AcDbEntity
  8
SIZE
100
AcDbCircle
 10
-425.0
 20
-407.8542995308056
 30
0.0
 40
5.0
  0
LINE
  5
FD
330
34F
100
AcDbEntity
  8
SIZE
100
AcDbLine
 10
-420.0
 20
-407.8542995308056
 30
0.0
 11
-415.0
 21
-407.8542995308056
 31
0.0
  0
TEXT
  5
FE
330
34F
100
AcDbEntity
  8
SIZE
100
AcDbText
 10
-286.5571428571433
 20
-387.8542995308055
 30
0.0
 40
64.0
  1
425
 41
0.9
 72
     1
 11
-212.5000000000004
 21
-387.8542995308055
 31
0.0
100
AcDbText
  0
LINE
  5
FF
330
34F
100
AcDbEntity
  8
SIZE
100
AcDbLine
 10
-425.0
 20
-39.99999999999987
 30
0.0
 11
-425.0
 21
-437.8542995308055
 31
0.0
  0
LINE
  5
100
330
34F
100
AcDbEntity
  8
SIZE
100
AcDbLine
 10
-595.0000000000008
 20
-19.9999999999992
 30
0.0
 11
-595.0000000000008
 21
-437.8542995308055
 31
0.0
  0
LINE
  5
101
330
34F
100
AcDbEntity
  8
SIZE
100
AcDbLine
 10
-415.0
 20
-407.8542995308054
 30
0.0
 11
-405.0
 21
-407.8542995308054
 31
0.0
  0
LINE
  5
102
330
34F
100
AcDbEntity
  8
SIZE
100
AcDbLine
 10
-605.0000000000007
 20
-407.8542995308054
 30
0.0
 11
-615.0000000000008
 21
-407.8542995308054
 31
0.0
  0
LINE
  5
103
330
34F
100
AcDbEntity
  8
SIZE
100
AcDbLine
 10
-425.0
 20
-407.8542995308054
 30
0.0
 11
-595.0000000000008
 21
-407.8542995308054
 31
0.0
  0
CIRCLE
  5
104
330
34F
100
AcDbEntity
  8
SIZE
100
AcDbCircle
 10
-425.0
 20
-407.8542995308054
 30
0.0
 40
5.0
  0
LINE
  5
105
330
34F
100
AcDbEntity
  8
SIZE
100
AcDbLine
 10
-420.0
 20
-407.8542995308054
 30
0.0
 11
-415.0
 21
-407.8542995308054
 31
0.0
  0
CIRCLE
  5
106
330
34F
100
AcDbEntity
  8
SIZE
100
AcDbCircle
 10
-595.0000000000008
 20
-407.8542995308054
 30
0.0
 40
5.0
  0
LINE
  5
107
330
34F
100
AcDbEntity
  8
SIZE
100
AcDbLine
 10
-600.0000000000007
 20
-407.8542995308054
 30
0.0
 11
-605.0000000000007
 21
-407.8542995308054
 31
0.0
  0
TEXT
  5
108
330
34F
100
AcDbEntity
  8
SIZE
100
AcDbText
 10
-578.5714285714288
 20
-387.8542995308055
 30
0.0
 40
64.0
  1
170
 41
0.9
 72
     1
 11
-510.0000000000001
 21
-387.8542995308055
 31
0.0
100
AcDbText
  0
LINE
  5
109
330
34F
100
AcDbEntity
  8
SIZE
100
AcDbLine
 10
594.9999999999992
 20
-20.00000000000079
 30
0.0
 11
594.9999999999992
 21
-593.4190976904813
 31
0.0
  0
LINE
  5
10A
330
34F
100
AcDbEntity
  8
SIZE
100
AcDbLine
 10
-595.0000000000008
 20
-19.9999999999992
 30
0.0
 11
-595.0000000000008
 21
-593.4190976904813
 31
0.0
  0
LINE
  5
10B
330
34F
100
AcDbEntity
  8
SIZE
100
AcDbLine
 10
584.9999999999987
 20
-563.419097690481
 30
0.0
 11
-585.0000000000007
 21
-563.419097690481
 31
0.0
  0
CIRCLE
  5
10C
330
34F
100
AcDbEntity
  8
SIZE
100
AcDbCircle
 10
594.9999999999992
 20
-563.419097690481
 30
0.0
 40
5.0
  0
LINE
  5
10D
330
34F
100
AcDbEntity
  8
SIZE
100
AcDbLine
 10
589.9999999999992
 20
-563.419097690481
 30
0.0
 11
584.9999999999992
 21
-563.419097690481
 31
0.0
  0
CIRCLE
  5
10E
330
34F
100
AcDbEntity
  8
SIZE
100
AcDbCircle
 10
-595.0000000000008
 20
-563.419097690481
 30
0.0
 40
5.0
  0
LINE
  5
10F
330
34F
100
AcDbEntity
  8
SIZE
100
AcDbLine
 10
-590.0000000000008
 20
-563.419097690481
 30
0.0
 11
-585.0000000000007
 21
-563.419097690481
 31
0.0
  0
TEXT
  5
110
330
34F
100
AcDbEntity
  8
SIZE
100
AcDbText
 10
-90.51428571428662
 20
-543.4190976904809
 30
0.0
 40
64.0
  1
1190
 41
0.9
 72
     1
 11
-0.0000000000009095
 21
-543.4190976904809
 31
0.0
100
AcDbText
  0
LINE
  5
111
330
34F
100
AcDbEntity
  8
DETAIL
100
AcDbLine
 10
-595.0000000000008
 20
120.0000000000009
 30
0.0
 11
594.9999999999992
 21
119.999999999999
 31
0.0
  0
LINE
  5
112
330
34F
100
AcDbEntity
  8
DETAIL
100
AcDbLine
 10
464.9999999999987
 20
99.99999999999955
 30
0.0
 11
574.9999999999992
 21
99.99999999999909
 31
0.0
  0
LINE
  5
113
330
34F
100
AcDbEntity
  8
DETAIL
100
AcDbLine
 10
464.9999999999987
 20
19.99999999999954
 30
0.0
 11
574.9999999999992
 21
19.99999999999906
 31
0.0
  0
ARC
  5
114
330
34F
100
AcDbEntity
  8
DETAIL
100
AcDbCircle
 10
464.9999999999987
 20
59.99999999999954
 30
0.0
 40
40.0
100
AcDbArc
 50
89.99999999999991
 51
269.9999999999997
  0
ARC
  5
115
330
34F
100
AcDbEntity
  8
DETAIL
100
AcDbCircle
 10
574.9999999999992
 20
119.999999999999
 30
0.0
 40
20.0
100
AcDbArc
 50
269.9999999999997
 51
0.0
  0
LINE
  5
116
330
34F
100
AcDbEntity
  8
DETAIL
100
AcDbLine
 10
594.9999999999992
 20
-0.0000000000009095
 30
0.0
 11
594.9999999999992
 21
-0.0000000000009095
 31
0.0
  0
ARC
  5
117
330
34F
100
AcDbEntity
  8
DETAIL
100
AcDbCircle
 10
574.9999999999992
 20
-0.0000000000009095
 30
0.0
 40
20.0
100
AcDbArc
 50
0.0
 51
89.99999999999991
  0
LINE
  5
118
330
34F
100
AcDbEntity
  8
DETAIL
100
AcDbLine
 10
-465.0000000000008
 20
100.0000000000003
 30
0.0
 11
-575.0000000000007
 21
100.0000000000003
 31
0.0
  0
LINE
  5
119
330
34F
100
AcDbEntity
  8
DETAIL
100
AcDbLine
 10
-465.0000000000008
 20
20.00000000000044
 30
0.0
 11
-575.0000000000007
 21
20.00000000000044
 31
0.0
  0
ARC
  5
11A
330
34F
100
AcDbEntity
  8
DETAIL
100
AcDbCircle
 10
-465.0000000000008
 20
60.00000000000046
 30
0.0
 40
40.0
100
AcDbArc
 50
269.9999999999997
 51
89.99999999999994
  0
ARC
  5
11B
330
34F
100
AcDbEntity
  8
DETAIL
100
AcDbCircle
 10
-575.0000000000007
 20
120.0000000000003
 30
0.0
 40
20.0
100
AcDbArc
 50
179.9999999999998
 51
269.9999999999997
  0
ARC
  5
11C
330
34F
100
AcDbEntity
  8
DETAIL
100
AcDbCircle
 10
-575.0000000000007
 20
0.0000000000004547
 30
0.0
 40
20.0
100
AcDbArc
 50
89.99999999999994
 51
179.9999999999998
  0
LINE
  5
11D
330
34F
100
AcDbEntity
  8
DETAIL
100
AcDbLine
 10
-60.00000000000182
 20
98.99837822903283
 30
0.0
 11
-0.0000000000009095
 21
98.99837822903283
 31
0.0
  0
LINE
  5
11E
330
34F
100
AcDbEntity
  8
DETAIL
100
AcDbLine
 10
-60.00000000000182
 20
18.99837822903282
 30
0.0
 11
-0.0000000000009095
 21
18.99837822903282
 31
0.0
  0
LINE
  5
11F
330
34F
100
AcDbEntity
  8
DETAIL
100
AcDbLine
 10
59.99999999999909
 20
98.99837822903421
 30
0.0
 11
-0.0000000000009095
 21
98.99837822903283
 31
0.0
  0
LINE
  5
120
330
34F
100
AcDbEntity
  8
DETAIL
100
AcDbLine
 10
60.00000000000088
 20
18.99837822903418
 30
0.0
 11
0.0000000000009095
 21
18.99837822903282
 31
0.0
  0
ARC
  5
121
330
34F
100
AcDbEntity
  8
DETAIL
100
AcDbCircle
 10
60.0
 20
58.9983782290351
 30
0.0
 40
40.0
100
AcDbArc
 50
270.0000000000012
 51
90.00000000000124
  0
ARC
  5
122
330
34F
100
AcDbEntity
  8
DETAIL
100
AcDbCircle
 10
-60.00000000000182
 20
58.99837822903555
 30
0.0
 40
40.0
100
AcDbArc
 50
89.99999999999859
 51
269.9999999999985
  0
LINE
  5
123
330
34F
100
AcDbEntity
  8
DETAIL
100
AcDbLine
 10
202.499999999998
 20
19.80738042865687
 30
0.0
 11
262.4999999999991
 21
19.80738042865687
 31
0.0
  0
LINE
  5
124
330
34F
100
AcDbEntity
  8
DETAIL
100
AcDbLine
 10
322.5000000000008
 20
19.80738042865823
 30
0.0
 11
262.5000000000008
 21
19.80738042865687
 31
0.0
  0
ARC
  5
125
330
34F
100
AcDbEntity
  8
DETAIL
100
AcDbCircle
 10
322.5
 20
59.8073804286596
 30
0.0
 40
40.0
100
AcDbArc
 50
270.0000000000012
 51
90.00000000000124
  0
ARC
  5
126
330
34F
100
AcDbEntity
  8
DETAIL
100
AcDbCircle
 10
202.499999999998
 20
59.8073804286596
 30
0.0
 40
40.0
100
AcDbArc
 50
89.99999999999859
 51
269.9999999999985
  0
LINE
  5
127
330
34F
100
AcDbEntity
  8
DETAIL
100
AcDbLine
 10
-202.5000000000008
 20
99.8073804286578
 30
0.0
 11
-262.5000000000018
 21
99.8073804286578
 31
0.0
  0
LINE
  5
128
330
34F
100
AcDbEntity
  8
DETAIL
100
AcDbLine
 10
-202.5000000000008
 20
19.80738042865778
 30
0.0
 11
-262.5000000000018
 21
19.80738042865778
 31
0.0
  0
LINE
  5
129
330
34F
100
AcDbEntity
  8
DETAIL
100
AcDbLine
 10
-322.5000000000018
 20
99.80738042865914
 30
0.0
 11
-262.5000000000018
 21
99.8073804286578
 31
0.0
  0
LINE
  5
12A
330
34F
100
AcDbEntity
  8
DETAIL
100
AcDbLine
 10
-322.5000000000036
 20
19.80738042865914
 30
0.0
 11
-262.5000000000035
 21
19.80738042865778
 31
0.0
  0
ARC
  5
12B
330
34F
100
AcDbEntity
  8
DETAIL
100
AcDbCircle
 10
-322.5000000000026
 20
59.8073804286605
 30
0.0
 40
40.0
100
AcDbArc
 50
89.99999999999859
 51
269.9999999999985
  0
ARC
  5
12C
330
34F
100
AcDbEntity
  8
DETAIL
100
AcDbCircle
 10
-202.5000000000008
 20
59.80738042866004
 30
0.0
 40
40.0
100
AcDbArc
 50
270.0000000000012
 51
90.00000000000124
  0
LINE
  5
12D
330
34F
100
AcDbEntity
  8
DETAIL
100
AcDbLine
 10
202.499999999998
 20
99.80738042865688
 30
0.0
 11
262.4999999999991
 21
99.80738042865688
 31
0.0
  0
LINE
  5
12E
330
34F
100
AcDbEntity
  8
DETAIL
100
AcDbLine
 10
322.4999999999989
 20
99.80738042865823
 30
0.0
 11
262.4999999999991
 21
99.80738042865688
 31
0.0
  0
ARC
  5
12F
330
34F
100
AcDbEntity
  8
DETAIL
100
AcDbCircle
 10
-374.8540342899687
 20
1203.497941965235
 30
0.0
 40
399.6062105541522
100
AcDbArc
 50
236.5707223721898
 51
303.42927762781
  0
ARC
  5
130
330
34F
100
AcDbEntity
  8
DETAIL
100
AcDbCircle
 10
75.14596571002858
 20
490.9716021954628
 30
0.0
 40
443.2780204585482
100
AcDbArc
 50
59.81849075363117
 51
121.2338619748001
  0
LINE
  5
131
330
34F
100
AcDbEntity
  8
DETAIL
100
AcDbLine
 10
205.0
 20
1347.735300000004
 30
0.0
 11
205.0
 21
914.8033296537409
 31
0.0
  0
LINE
  5
132
330
34F
100
AcDbEntity
  8
DETAIL
100
AcDbLine
 10
-594.9999999999992
 20
1347.735300000006
 30
0.0
 11
595.0000000000008
 21
1347.735300000004
 31
0.0
  0
LINE
  5
133
330
34F
100
AcDbEntity
  8
DETAIL
100
AcDbLine
 10
-575.0
 20
1347.735300000005
 30
0.0
 11
-575.0
 21
857.6269892625715
 31
0.0
  0
LINE
  5
134
330
34F
100
AcDbEntity
  8
NOTE
100
AcDbLine
 10
-758.0213520189253
 20
1455.860505618959
 30
0.0
 11
-414.1606268616915
 21
1053.685635250981
 31
0.0
  0
CIRCLE
  5
135
330
34F
100
AcDbEntity
  8
NOTE
100
AcDbCircle
 10
-414.1606268616915
 20
1053.685635250981
 30
0.0
 40
10.0
  0
LINE
  5
136
330
34F
100
AcDbEntity
  8
NOTE
100
AcDbLine
 10
-408.1978490011543
 20
1045.657853478543
 30
0.0
 11
-406.1328450892531
 21
1047.722857390444
 31
0.0
  0
LINE
  5
137
330
34F
100
AcDbEntity
  8
NOTE
100
AcDbLine
 10
-408.768611703867
 20
1045.263867471126
 30
0.0
 11
-405.7388590818371
 21
1048.293620093156
 31
0.0
  0
LINE
  5
138
330
34F
100
AcDbEntity
  8
NOTE
100
AcDbLine
 10
-409.2150933575274
 20
1044.994162512762
 30
0.0
 11
-405.4691541234729
 21
1048.740101746816
 31
0.0
  0
LINE
  5
139
330
34F
100
AcDbEntity
  8
NOTE
100
AcDbLine
 10
-409.5997412450016
 20
1044.786291320585
 30
0.0
 11
-405.2612829312954
 21
1049.124749634291
 31
0.0
  0
LINE
  5
13A
330
34F
100
AcDbEntity
  8
NOTE
100
AcDbLine
 10
-409.9453113827668
 20
1044.617497878116
 30
0.0
 11
-405.0924894888271
 21
1049.470319772056
 31
0.0
  0
LINE
  5
13B
330
34F
100
AcDbEntity
  8
NOTE
100
AcDbLine
 10
-410.2631803535604
 20
1044.476405602619
 30
0.0
 11
-404.9513972133301
 21
1049.78818874285
 31
0.0
  0
LINE
  5
13C
330
34F
100
AcDbEntity
  8
NOTE
100
AcDbLine
 10
-410.5600138747123
 20
1044.356348776764
 30
0.0
 11
-404.8313403874749
 21
1050.085022264001
 31
0.0
  0
LINE
  5
13D
330
34F
100
AcDbEntity
  8
NOTE
100
AcDbLine
 10
-410.8401192952636
 20
1044.253020051509
 30
0.0
 11
-404.72801166222
 21
1050.365127684553
 31
0.0
  0
LINE
  5
13E
330
34F
100
AcDbEntity
  8
NOTE
100
AcDbLine
 10
-411.1064729787937
 20
1044.163443063276
 30
0.0
 11
-404.6384346739868
 21
1050.631481368083
 31
0.0
  0
LINE
  5
13F
330
34F
100
AcDbEntity
  8
NOTE
100
AcDbLine
 10
-411.3612347729519
 20
1044.085457964414
 30
0.0
 11
-404.5604495751251
 21
1050.886243162241
 31
0.0
  0
LINE
  5
140
330
34F
100
AcDbEntity
  8
NOTE
100
AcDbLine
 10
-411.6060317215544
 20
1044.017437711108
 30
0.0
 11
-404.4924293218191
 21
1051.131040110844
 31
0.0
  0
LINE
  5
141
330
34F
100
AcDbEntity
  8
NOTE
100
AcDbLine
 10
-411.8421262217387
 20
1043.958119906221
 30
0.0
 11
-404.4331115169311
 21
1051.367134611028
 31
0.0
  0
LINE
  5
142
330
34F
100
AcDbEntity
  8
NOTE
100
AcDbLine
 10
-412.0705214480207
 20
1043.906501375235
 30
0.0
 11
-404.3814929859463
 21
1051.59552983731
 31
0.0
  0
LINE
  5
143
330
34F
100
AcDbEntity
  8
NOTE
100
AcDbLine
 10
-412.2920304927369
 20
1043.861769025816
 30
0.0
 11
-404.3367606365268
 21
1051.817038882026
 31
0.0
  0
LINE
  5
144
330
34F
100
AcDbEntity
  8
NOTE
100
AcDbLine
 10
-412.5073234199367
 20
1043.823252793913
 30
0.0
 11
-404.2982444046232
 21
1052.032331809226
 31
0.0
  0
LINE
  5
145
330
34F
100
AcDbEntity
  8
NOTE
100
AcDbLine
 10
-412.7169602951415
 20
1043.790392614005
 30
0.0
 11
-404.2653842247156
 21
1052.241968684431
 31
0.0
  0
LINE
  5
146
330
34F
100
AcDbEntity
  8
NOTE
100
AcDbLine
 10
-412.9214149887351
 20
1043.762714615708
 30
0.0
 11
-404.2377062264185
 21
1052.446423378024
 31
0.0
  0
LINE
  5
147
330
34F
100
AcDbEntity
  8
NOTE
100
AcDbLine
 10
-413.1210927229266
 20
1043.739813576813
 30
0.0
 11
-404.2148051875239
 21
1052.646101112216
 31
0.0
  0
LINE
  5
148
330
34F
100
AcDbEntity
  8
NOTE
100
AcDbLine
 10
-413.316343263884
 20
1043.721339731152
 30
0.0
 11
-404.1963313418627
 21
1052.841351653173
 31
0.0
  0
LINE
  5
149
330
34F
100
AcDbEntity
  8
NOTE
100
AcDbLine
 10
-413.5074710127609
 20
1043.706988677572
 30
0.0
 11
-404.1819802882823
 21
1053.03247940205
 31
0.0
  0
LINE
  5
14A
330
34F
100
AcDbEntity
  8
NOTE
100
AcDbLine
 10
-413.6947428436092
 20
1043.69649354202
 30
0.0
 11
-404.1714851527308
 21
1053.219751232898
 31
0.0
  0
LINE
  5
14B
330
34F
100
AcDbEntity
  8
NOTE
100
AcDbLine
 10
-413.8783942748563
 20
1043.68961880607
 30
0.0
 11
-404.1646104167805
 21
1053.403402664145
 31
0.0
  0
LINE
  5
14C
330
34F
100
AcDbEntity
  8
NOTE
100
AcDbLine
 10
-414.0586343884853
 20
1043.686155387737
 30
0.0
 11
-404.161146998448
 21
1053.583642777774
 31
0.0
  0
LINE
  5
14D
330
34F
100
AcDbEntity
  8
NOTE
100
AcDbLine
 10
-414.2356497945559
 20
1043.685916676963
 30
0.0
 11
-404.1609082876743
 21
1053.760658183845
 31
0.0
  0
LINE
  5
14E
330
34F
100
AcDbEntity
  8
NOTE
100
AcDbLine
 10
-414.4096078584794
 20
1043.688735308337
 30
0.0
 11
-404.1637269190474
 21
1053.934616247769
 31
0.0
  0
LINE
  5
14F
330
34F
100
AcDbEntity
  8
NOTE
100
AcDbLine
 10
-414.5806593522177
 20
1043.694460509895
 30
0.0
 11
-404.1694521206061
 21
1054.105667741507
 31
0.0
  0
LINE
  5
150
330
34F
100
AcDbEntity
  8
NOTE
100
AcDbLine
 10
-414.7489406504688
 20
1043.70295590694
 30
0.0
 11
-404.1779475176509
 21
1054.273949039758
 31
0.0
  0
LINE
  5
151
330
34F
100
AcDbEntity
  8
NOTE
100
AcDbLine
 10
-414.9145755639268
 20
1043.714097688779
 30
0.0
 11
-404.1890892994898
 21
1054.439583953216
 31
0.0
  0
LINE
  5
152
330
34F
100
AcDbEntity
  8
NOTE
100
AcDbLine
 10
-415.0776768804016
 20
1043.727773067601
 30
0.0
 11
-404.2027646783114
 21
1054.602685269691
 31
0.0
  0
LINE
  5
153
330
34F
100
AcDbEntity
  8
NOTE
100
AcDbLine
 10
-415.2383476688439
 20
1043.743878974455
 30
0.0
 11
-404.2188705851661
 21
1054.763356058133
 31
0.0
  0
LINE
  5
154
330
34F
100
AcDbEntity
  8
NOTE
100
AcDbLine
 10
-415.3966823894185
 20
1043.762320949176
 30
0.0
 11
-404.2373125598881
 21
1054.921690778708
 31
0.0
  0
LINE
  5
155
330
34F
100
AcDbEntity
  8
NOTE
100
AcDbLine
 10
-415.5527678437954
 20
1043.783012190097
 30
0.0
 11
-404.2580038008077
 21
1055.077776233084
 31
0.0
  0
LINE
  5
156
330
34F
100
AcDbEntity
  8
NOTE
100
AcDbLine
 10
-415.7066839929146
 20
1043.805872736274
 30
0.0
 11
-404.280864346985
 21
1055.231692382204
 31
0.0
  0
LINE
  5
157
330
34F
100
AcDbEntity
  8
NOTE
100
AcDbLine
 10
-415.8585046641438
 20
1043.830828760342
 30
0.0
 11
-404.3058203710524
 21
1055.383513053433
 31
0.0
  0
LINE
  5
158
330
34F
100
AcDbEntity
  8
NOTE
100
AcDbLine
 10
-416.0082981655837
 20
1043.857811954199
 30
0.0
 11
-404.3328035649093
 21
1055.533306554873
 31
0.0
  0
LINE
  5
159
330
34F
100
AcDbEntity
  8
NOTE
100
AcDbLine
 10
-416.1561278219888
 20
1043.88675899309
 30
0.0
 11
-404.3617506038009
 21
1055.681136211278
 31
0.0
  0
LINE
  5
15A
330
34F
100
AcDbEntity
  8
NOTE
100
AcDbLine
 10
-416.3020524441848
 20
1043.917611066191
 30
0.0
 11
-404.3926026769012
 21
1055.827060833474
 31
0.0
  0
LINE
  5
15B
330
34F
100
AcDbEntity
  8
NOTE
100
AcDbLine
 10
-416.4461267417782
 20
1043.950313463894
 30
0.0
 11
-404.4253050746048
 21
1055.971135131067
 31
0.0
  0
LINE
  5
15C
330
34F
100
AcDbEntity
  8
NOTE
100
AcDbLine
 10
-416.5884016872928
 20
1043.984815213676
 30
0.0
 11
-404.4598068243866
 21
1056.113410076582
 31
0.0
  0
LINE
  5
15D
330
34F
100
AcDbEntity
  8
NOTE
100
AcDbLine
 10
-416.7289248385223
 20
1044.021068757743
 30
0.0
 11
-404.4960603684542
 21
1056.253933227812
 31
0.0
  0
LINE
  5
15E
330
34F
100
AcDbEntity
  8
NOTE
100
AcDbLine
 10
-416.8677406247791
 20
1044.059029666783
 30
0.0
 11
-404.534021277494
 21
1056.392749014068
 31
0.0
  0
LINE
  5
15F
330
34F
100
AcDbEntity
  8
NOTE
100
AcDbLine
 10
-417.0048906018428
 20
1044.098656385016
 30
0.0
 11
-404.5736479957263
 21
1056.529898991132
 31
0.0
  0
LINE
  5
160
330
34F
100
AcDbEntity
  8
NOTE
100
AcDbLine
 10
-417.1404136796557
 20
1044.1399100025
 30
0.0
 11
-404.6149016132105
 21
1056.665422068945
 31
0.0
  0
LINE
  5
161
330
34F
100
AcDbEntity
  8
NOTE
100
AcDbLine
 10
-417.2743463262071
 20
1044.182754051244
 30
0.0
 11
-404.6577456619555
 21
1056.799354715497
 31
0.0
  0
LINE
  5
162
330
34F
100
AcDbEntity
  8
NOTE
100
AcDbLine
 10
-417.4067227505581
 20
1044.22715432219
 30
0.0
 11
-404.7021459329015
 21
1056.931731139847
 31
0.0
  0
LINE
  5
163
330
34F
100
AcDbEntity
  8
NOTE
100
AcDbLine
 10
-417.5375750675057
 20
1044.27307870054
 30
0.0
 11
-404.7480703112505
 21
1057.062583456795
 31
0.0
  0
LINE
  5
164
330
34F
100
AcDbEntity
  8
NOTE
100
AcDbLine
 10
-417.6669334460648
 20
1044.320497017277
 30
0.0
 11
-404.7954886279878
 21
1057.191941835354
 31
0.0
  0
LINE
  5
165
330
34F
100
AcDbEntity
  8
NOTE
100
AcDbLine
 10
-417.7948262436221
 20
1044.369380915016
 30
0.0
 11
-404.8443725257271
 21
1057.31983463291
 31
0.0
  0
LINE
  5
166
330
34F
100
AcDbEntity
  8
NOTE
100
AcDbLine
 10
-417.9212801273767
 20
1044.419703726558
 30
0.0
 11
-404.8946953372689
 21
1057.446288516666
 31
0.0
  0
LINE
  5
167
330
34F
100
AcDbEntity
  8
NOTE
100
AcDbLine
 10
-418.0463201844736
 20
1044.471440364758
 30
0.0
 11
-404.9464319754688
 21
1057.571328573763
 31
0.0
  0
LINE
  5
168
330
34F
100
AcDbEntity
  8
NOTE
100
AcDbLine
 10
-418.1699700220367
 20
1044.524567222492
 30
0.0
 11
-404.9995588332031
 21
1057.694978411326
 31
0.0
  0
LINE
  5
169
330
34F
100
AcDbEntity
  8
NOTE
100
AcDbLine
 10
-418.292251858177
 20
1044.579062081647
 30
0.0
 11
-405.0540536923584
 21
1057.817260247466
 31
0.0
  0
LINE
  5
16A
330
34F
100
AcDbEntity
  8
NOTE
100
AcDbLine
 10
-418.4131866049009
 20
1044.63490403022
 30
0.0
 11
-405.1098956409317
 21
1057.93819499419
 31
0.0
  0
LINE
  5
16B
330
34F
100
AcDbEntity
  8
NOTE
100
AcDbLine
 10
-418.5327939437256
 20
1044.692073386693
 30
0.0
 11
-405.1670649974034
 21
1058.057802333014
 31
0.0
  0
LINE
  5
16C
330
34F
100
AcDbEntity
  8
NOTE
100
AcDbLine
 10
-418.6510923947405
 20
1044.750551630974
 30
0.0
 11
-405.2255432416854
 21
1058.17610078403
 31
0.0
  0
LINE
  5
16D
330
34F
100
AcDbEntity
  8
NOTE
100
AcDbLine
 10
-418.7680993797234
 20
1044.810321341288
 30
0.0
 11
-405.285312951999
 21
1058.293107769013
 31
0.0
  0
LINE
  5
16E
330
34F
100
AcDbEntity
  8
NOTE
100
AcDbLine
 10
-418.8838312798892
 20
1044.871366136419
 30
0.0
 11
-405.3463577471296
 21
1058.408839669179
 31
0.0
  0
LINE
  5
16F
330
34F
100
AcDbEntity
  8
NOTE
100
AcDbLine
 10
-418.9983034887516
 20
1044.933670622853
 30
0.0
 11
-405.4086622335638
 21
1058.523311878041
 31
0.0
  0
LINE
  5
170
330
34F
100
AcDbEntity
  8
NOTE
100
AcDbLine
 10
-419.1115304605435
 20
1044.997220346358
 30
0.0
 11
-405.4722119570688
 21
1058.636538849833
 31
0.0
  0
LINE
  5
171
330
34F
100
AcDbEntity
  8
NOTE
100
AcDbLine
 10
-419.2235257545824
 20
1045.062001747615
 30
0.0
 11
-405.5369933583263
 21
1058.748534143872
 31
0.0
  0
LINE
  5
172
330
34F
100
AcDbEntity
  8
NOTE
100
AcDbLine
 10
-419.3343020759263
 20
1045.128002121568
 30
0.0
 11
-405.6029937322793
 21
1058.859310465216
 31
0.0
  0
LINE
  5
173
330
34F
100
AcDbEntity
  8
NOTE
100
AcDbLine
 10
-419.4438713126272
 20
1045.195209580164
 30
0.0
 11
-405.6702011908749
 21
1058.968879701916
 31
0.0
  0
LINE
  5
174
330
34F
100
AcDbEntity
  8
NOTE
100
AcDbLine
 10
-419.5522445698596
 20
1045.263613018229
 30
0.0
 11
-405.7386046289395
 21
1059.077252959149
 31
0.0
  0
LINE
  5
175
330
34F
100
AcDbEntity
  8
NOTE
100
AcDbLine
 10
-419.6594322011636
 20
1045.333202082221
 30
0.0
 11
-405.8081936929319
 21
1059.184440590453
 31
0.0
  0
LINE
  5
176
330
34F
100
AcDbEntity
  8
NOTE
100
AcDbLine
 10
-419.7654438370255
 20
1045.403967141656
 30
0.0
 11
-405.8789587523667
 21
1059.290452226315
 31
0.0
  0
LINE
  5
177
330
34F
100
AcDbEntity
  8
NOTE
100
AcDbLine
 10
-419.8702884109868
 20
1045.475899262991
 30
0.0
 11
-405.9508908737017
 21
1059.395296800276
 31
0.0
  0
LINE
  5
178
330
34F
100
AcDbEntity
  8
NOTE
100
AcDbLine
 10
-419.9739741834599
 20
1045.548990185815
 30
0.0
 11
-406.0239817965256
 21
1059.498982572748
 31
0.0
  0
LINE
  5
179
330
34F
100
AcDbEntity
  8
NOTE
100
AcDbLine
 10
-420.0765087633977
 20
1045.623232301172
 30
0.0
 11
-406.0982239118841
 21
1059.601517152686
 31
0.0
  0
LINE
  5
17A
330
34F
100
AcDbEntity
  8
NOTE
100
AcDbLine
 10
-420.177899127969
 20
1045.698618631899
 30
0.0
 11
-406.1736102426098
 21
1059.702907517258
 31
0.0
  0
LINE
  5
17B
330
34F
100
AcDbEntity
  8
NOTE
100
AcDbLine
 10
-420.2781516403448
 20
1045.77514281482
 30
0.0
 11
-406.2501344255304
 21
1059.803160029634
 31
0.0
  0
LINE
  5
17C
330
34F
100
AcDbEntity
  8
NOTE
100
AcDbLine
 10
-420.3772720657227
 20
1045.852799084738
 30
0.0
 11
-406.3277906954492
 21
1059.902280455012
 31
0.0
  0
LINE
  5
17D
330
34F
100
AcDbEntity
  8
NOTE
100
AcDbLine
 10
-420.475265585672
 20
1045.931582260086
 30
0.0
 11
-406.4065738707967
 21
1060.00027397496
 31
0.0
  0
LINE
  5
17E
330
34F
100
AcDbEntity
  8
NOTE
100
AcDbLine
 10
-420.5721368108927
 20
1046.011487730162
 30
0.0
 11
-406.4864793408725
 21
1060.097145200182
 31
0.0
  0
LINE
  5
17F
330
34F
100
AcDbEntity
  8
NOTE
100
AcDbLine
 10
-420.667889792462
 20
1046.092511443889
 30
0.0
 11
-406.5675030546
 21
1060.19289818175
 31
0.0
  0
LINE
  5
180
330
34F
100
AcDbEntity
  8
NOTE
100
AcDbLine
 10
-420.7625280316293
 20
1046.174649900018
 30
0.0
 11
-406.6496415107292
 21
1060.287536420918
 31
0.0
  0
LINE
  5
181
330
34F
100
AcDbEntity
  8
NOTE
100
AcDbLine
 10
-420.8560544882228
 20
1046.257900138722
 30
0.0
 11
-406.7328917494327
 21
1060.381062877512
 31
0.0
  0
LINE
  5
182
330
34F
100
AcDbEntity
  8
NOTE
100
AcDbLine
 10
-420.9484715877055
 20
1046.342259734535
 30
0.0
 11
-406.8172513452465
 21
1060.473479976994
 31
0.0
  0
LINE
  5
183
330
34F
100
AcDbEntity
  8
NOTE
100
AcDbLine
 10
-421.0397812269322
 20
1046.427726790605
 30
0.0
 11
-406.9027184013162
 21
1060.564789616222
 31
0.0
  0
LINE
  5
184
330
34F
100
AcDbEntity
  8
NOTE
100
AcDbLine
 10
-421.1299847786288
 20
1046.514299934204
 30
0.0
 11
-406.9892915449162
 21
1060.654993167918
 31
0.0
  0
LINE
  5
185
330
34F
100
AcDbEntity
  8
NOTE
100
AcDbLine
 10
-421.2190830946223
 20
1046.601978313508
 30
0.0
 11
-407.0769699242192
 21
1060.744091483912
 31
0.0
  0
LINE
  5
186
330
34F
100
AcDbEntity
  8
NOTE
100
AcDbLine
 10
-421.3070765078454
 20
1046.690761595582
 30
0.0
 11
-407.1657532062928
 21
1060.832084897135
 31
0.0
  0
LINE
  5
187
330
34F
100
AcDbEntity
  8
NOTE
100
AcDbLine
 10
-421.3939648331137
 20
1046.78064996561
 30
0.0
 11
-407.2556415763211
 21
1060.918973222403
 31
0.0
  0
LINE
  5
188
330
34F
100
AcDbEntity
  8
NOTE
100
AcDbLine
 10
-421.4797473666947
 20
1046.871644127326
 30
0.0
 11
-407.3466357380367
 21
1061.004755755984
 31
0.0
  0
LINE
  5
189
330
34F
100
AcDbEntity
  8
NOTE
100
AcDbLine
 10
-421.5644228846527
 20
1046.963745304665
 30
0.0
 11
-407.4387369153756
 21
1061.089431273942
 31
0.0
  0
LINE
  5
18A
330
34F
100
AcDbEntity
  8
NOTE
100
AcDbLine
 10
-421.6479896399716
 20
1047.056955244642
 30
0.0
 11
-407.5319468553534
 21
1061.172998029261
 31
0.0
  0
LINE
  5
18B
330
34F
100
AcDbEntity
  8
NOTE
100
AcDbLine
 10
-421.7304453584309
 20
1047.15127622148
 30
0.0
 11
-407.6262678321905
 21
1061.25545374772
 31
0.0
  0
LINE
  5
18C
330
34F
100
AcDbEntity
  8
NOTE
100
AcDbLine
 10
-421.8117872332197
 20
1047.246711041988
 30
0.0
 11
-407.7217026526985
 21
1061.336795622509
 31
0.0
  0
LINE
  5
18D
330
34F
100
AcDbEntity
  8
NOTE
100
AcDbLine
 10
-421.8920119182515
 20
1047.343263052253
 30
0.0
 11
-407.8182546629633
 21
1061.417020307541
 31
0.0
  0
LINE
  5
18E
330
34F
100
AcDbEntity
  8
NOTE
100
AcDbLine
 10
-421.9711155201491
 20
1047.440936145652
 30
0.0
 11
-407.9159277563619
 21
1061.496123909439
 31
0.0
  0
LINE
  5
18F
330
34F
100
AcDbEntity
  8
NOTE
100
AcDbLine
 10
-422.0490935888505
 20
1047.539734772247
 30
0.0
 11
-408.0147263829575
 21
1061.57410197814
 31
0.0
  0
LINE
  5
190
330
34F
100
AcDbEntity
  8
NOTE
100
AcDbLine
 10
-422.1259411067814
 20
1047.639663949612
 30
0.0
 11
-408.1146555603234
 21
1061.650949496071
 31
0.0
  0
LINE
  5
191
330
34F
100
AcDbEntity
  8
NOTE
100
AcDbLine
 10
-422.201652476536
 20
1047.740729275155
 30
0.0
 11
-408.2157208858651
 21
1061.726660865824
 31
0.0
  0
LINE
  5
192
330
34F
100
AcDbEntity
  8
NOTE
100
AcDbLine
 10
-422.2762215069911
 20
1047.842936939996
 30
0.0
 11
-408.3179285507068
 21
1061.80122989628
 31
0.0
  0
LINE
  5
193
330
34F
100
AcDbEntity
  8
NOTE
100
AcDbLine
 10
-422.3496413977716
 20
1047.946293744512
 30
0.0
 11
-408.4212853552231
 21
1061.874649787061
 31
0.0
  0
LINE
  5
194
330
34F
100
AcDbEntity
  8
NOTE
100
AcDbLine
 10
-422.421904721974
 20
1048.050807115606
 30
0.0
 11
-408.5257987263172
 21
1061.946913111263
 31
0.0
  0
LINE
  5
195
330
34F
100
AcDbEntity
  8
NOTE
100
AcDbLine
 10
-422.4930034070454
 20
1048.156485125832
 30
0.0
 11
-408.6314767365425
 21
1062.018011796335
 31
0.0
  0
LINE
  5
196
330
34F
100
AcDbEntity
  8
NOTE
100
AcDbLine
 10
-422.5629287136931
 20
1048.26333651448
 30
0.0
 11
-408.7383281251913
 21
1062.087937102982
 31
0.0
  0
LINE
  5
197
330
34F
100
AcDbEntity
  8
NOTE
100
AcDbLine
 10
-422.6316712126968
 20
1048.371370710772
 30
0.0
 11
-408.8463623214845
 21
1062.156679601986
 31
0.0
  0
LINE
  5
198
330
34F
100
AcDbEntity
  8
NOTE
100
AcDbLine
 10
-422.6992207594696
 20
1048.480597859297
 30
0.0
 11
-408.955589470008
 21
1062.224229148759
 31
0.0
  0
LINE
  5
199
330
34F
100
AcDbEntity
  8
NOTE
100
AcDbLine
 10
-422.7655664662028
 20
1048.591028847861
 30
0.0
 11
-409.0660204585716
 21
1062.290574855492
 31
0.0
  0
LINE
  5
19A
330
34F
100
AcDbEntity
  8
NOTE
100
AcDbLine
 10
-422.8306966714005
 20
1048.70267533796
 30
0.0
 11
-409.1776669486709
 21
1062.35570506069
 31
0.0
  0
LINE
  5
19B
330
34F
100
AcDbEntity
  8
NOTE
100
AcDbLine
 10
-422.8945989065991
 20
1048.815549798058
 30
0.0
 11
-409.2905414087685
 21
1062.419607295889
 31
0.0
  0
LINE
  5
19C
330
34F
100
AcDbEntity
  8
NOTE
100
AcDbLine
 10
-422.9572598600316
 20
1048.929665539922
 30
0.0
 11
-409.4046571506326
 21
1062.48226824932
 31
0.0
  0
LINE
  5
19D
330
34F
100
AcDbEntity
  8
NOTE
100
AcDbLine
 10
-423.0186653369711
 20
1049.045036758279
 30
0.0
 11
-409.5200283689896
 21
1062.54367372626
 31
0.0
  0
LINE
  5
19E
330
34F
100
AcDbEntity
  8
NOTE
100
AcDbLine
 10
-423.0788002164556
 20
1049.161678574091
 30
0.0
 11
-409.636670184802
 21
1062.603808605744
 31
0.0
  0
LINE
  5
19F
330
34F
100
AcDbEntity
  8
NOTE
100
AcDbLine
 10
-423.1376484040635
 20
1049.27960708178
 30
0.0
 11
-409.7545986924908
 21
1062.662656793353
 31
0.0
  0
LINE
  5
1A0
330
34F
100
AcDbEntity
  8
NOTE
100
AcDbLine
 10
-423.1951927803576
 20
1049.398839400782
 30
0.0
 11
-409.8738310114931
 21
1062.720201169647
 31
0.0
  0
LINE
  5
1A1
330
34F
100
AcDbEntity
  8
NOTE
100
AcDbLine
 10
-423.2514151445808
 20
1049.519393731856
 30
0.0
 11
-409.9943853425667
 21
1062.77642353387
 31
0.0
  0
LINE
  5
1A2
330
34F
100
AcDbEntity
  8
NOTE
100
AcDbLine
 10
-423.3062961531214
 20
1049.641289418612
 30
0.0
 11
-410.116281029323
 21
1062.83130454241
 31
0.0
  0
LINE
  5
1A3
330
34F
100
AcDbEntity
  8
NOTE
100
AcDbLine
 10
-423.3598152522096
 20
1049.76454701482
 30
0.0
 11
-410.2395386255311
 21
1062.884823641499
 31
0.0
  0
LINE
  5
1A4
330
34F
100
AcDbEntity
  8
NOTE
100
AcDbLine
 10
-423.4119506042397
 20
1049.889188358087
 30
0.0
 11
-410.3641799687975
 21
1062.936958993529
 31
0.0
  0
LINE
  5
1A5
330
34F
100
AcDbEntity
  8
NOTE
100
AcDbLine
 10
-423.4626790070175
 20
1050.015236650606
 30
0.0
 11
-410.4902282613165
 21
1062.987687396306
 31
0.0
  0
LINE
  5
1A6
330
34F
100
AcDbEntity
  8
NOTE
100
AcDbLine
 10
-423.5119758051545
 20
1050.142716547765
 30
0.0
 11
-410.617708158476
 21
1063.036984194444
 31
0.0
  0
LINE
  5
1A7
330
34F
100
AcDbEntity
  8
NOTE
100
AcDbLine
 10
-423.5598147927076
 20
1050.271654255509
 30
0.0
 11
-410.7466458662199
 21
1063.084823181997
 31
0.0
  0
LINE
  5
1A8
330
34F
100
AcDbEntity
  8
NOTE
100
AcDbLine
 10
-423.6061681060435
 20
1050.40207763747
 30
0.0
 11
-410.8770692481805
 21
1063.131176495333
 31
0.0
  0
LINE
  5
1A9
330
34F
100
AcDbEntity
  8
NOTE
100
AcDbLine
 10
-423.6510061057559
 20
1050.534016333054
 30
0.0
 11
-411.0090079437648
 21
1063.176014495044
 31
0.0
  0
LINE
  5
1AA
330
34F
100
AcDbEntity
  8
NOTE
100
AcDbLine
 10
-423.6942972462895
 20
1050.667501887817
 30
0.0
 11
-411.1424934985281
 21
1063.219305635579
 31
0.0
  0
LINE
  5
1AB
330
34F
100
AcDbEntity
  8
NOTE
100
AcDbLine
 10
-423.7360079317234
 20
1050.80256789768
 30
0.0
 11
-411.2775595083904
 21
1063.261016321012
 31
0.0
  0
LINE
  5
1AC
330
34F
100
AcDbEntity
  8
NOTE
100
AcDbLine
 10
-423.7761023559261
 20
1050.939250168773
 30
0.0
 11
-411.4142417794843
 21
1063.301110745216
 31
0.0
  0
LINE
  5
1AD
330
34F
100
AcDbEntity
  8
NOTE
100
AcDbLine
 10
-423.8145423250057
 20
1051.077586894991
 30
0.0
 11
-411.5525785057015
 21
1063.339550714295
 31
0.0
  0
LINE
  5
1AE
330
34F
100
AcDbEntity
  8
NOTE
100
AcDbLine
 10
-423.851287059652
 20
1051.217618855641
 30
0.0
 11
-411.6926104663519
 21
1063.37629544894
 31
0.0
  0
LINE
  5
1AF
330
34F
100
AcDbEntity
  8
NOTE
100
AcDbLine
 10
-423.8862929745567
 20
1051.359389636033
 30
0.0
 11
-411.8343812467436
 21
1063.411301363846
 31
0.0
  0
LINE
  5
1B0
330
34F
100
AcDbEntity
  8
NOTE
100
AcDbLine
 10
-423.9195134316219
 20
1051.502945874264
 30
0.0
 11
-411.9779374849752
 21
1063.44452182091
 31
0.0
  0
LINE
  5
1B1
330
34F
100
AcDbEntity
  8
NOTE
100
AcDbLine
 10
-423.9508984630863
 20
1051.648337538097
 30
0.0
 11
-412.1233291488076
 21
1063.475906852374
 31
0.0
  0
LINE
  5
1B2
330
34F
100
AcDbEntity
  8
NOTE
100
AcDbLine
 10
-423.9803944600045
 20
1051.795618236475
 30
0.0
 11
-412.2706098471856
 21
1063.505402849294
 31
0.0
  0
LINE
  5
1B3
330
34F
100
AcDbEntity
  8
NOTE
100
AcDbLine
 10
-424.0079438206639
 20
1051.944845571113
 30
0.0
 11
-412.4198371818236
 21
1063.532952209953
 31
0.0
  0
LINE
  5
1B4
330
34F
100
AcDbEntity
  8
NOTE
100
AcDbLine
 10
-424.0334845524868
 20
1052.096081534586
 30
0.0
 11
-412.5710731452968
 21
1063.558492941776
 31
0.0
  0
LINE
  5
1B5
330
34F
100
AcDbEntity
  8
NOTE
100
AcDbLine
 10
-424.0569498197025
 20
1052.249392962667
 30
0.0
 11
-412.7243845733777
 21
1063.581958208992
 31
0.0
  0
LINE
  5
1B6
330
34F
100
AcDbEntity
  8
NOTE
100
AcDbLine
 10
-424.0782674274973
 20
1052.404852050169
 30
0.0
 11
-412.8798436608794
 21
1063.603275816787
 31
0.0
  0
LINE
  5
1B7
330
34F
100
AcDbEntity
  8
NOTE
100
AcDbLine
 10
-424.0973592314077
 20
1052.562536941555
 30
0.0
 11
-413.0375285522661
 21
1063.622367620697
 31
0.0
  0
LINE
  5
1B8
330
34F
100
AcDbEntity
  8
NOTE
100
AcDbLine
 10
-424.1141404582883
 20
1052.722532409971
 30
0.0
 11
-413.197524020682
 21
1063.639148847577
 31
0.0
  0
LINE
  5
1B9
330
34F
100
AcDbEntity
  8
NOTE
100
AcDbLine
 10
-424.1285189221152
 20
1052.884930641441
 30
0.0
 11
-413.3599222521517
 21
1063.653527311405
 31
0.0
  0
LINE
  5
1BA
330
34F
100
AcDbEntity
  8
NOTE
100
AcDbLine
 10
-424.1403941139991
 20
1053.049832144853
 30
0.0
 11
-413.5248237555639
 21
1063.665402503289
 31
0.0
  0
LINE
  5
1BB
330
34F
100
AcDbEntity
  8
NOTE
100
AcDbLine
 10
-424.149656140814
 20
1053.217346813335
 30
0.0
 11
-413.6923384240462
 21
1063.674664530103
 31
0.0
  0
LINE
  5
1BC
330
34F
100
AcDbEntity
  8
NOTE
100
AcDbLine
 10
-424.1561844804309
 20
1053.387595169015
 30
0.0
 11
-413.8625867797258
 21
1063.68119286972
 31
0.0
  0
LINE
  5
1BD
330
34F
100
AcDbEntity
  8
NOTE
100
AcDbLine
 10
-424.1598465132228
 20
1053.56070983152
 30
0.0
 11
-414.0357014422304
 21
1063.684854902512
 31
0.0
  0
LINE
  5
1BE
330
34F
100
AcDbEntity
  8
NOTE
100
AcDbLine
 10
-424.1604957785383
 20
1053.736837261501
 30
0.0
 11
-414.2118288722119
 21
1063.685504167827
 31
0.0
  0
LINE
  5
1BF
330
34F
100
AcDbEntity
  8
NOTE
100
AcDbLine
 10
-424.1579698903231
 20
1053.916139845013
 30
0.0
 11
-414.3911314557237
 21
1063.682978279612
 31
0.0
  0
LINE
  5
1C0
330
34F
100
AcDbEntity
  8
NOTE
100
AcDbLine
 10
-424.1520880265523
 20
1054.09879840408
 30
0.0
 11
-414.5737900147912
 21
1063.677096415841
 31
0.0
  0
LINE
  5
1C1
330
34F
100
AcDbEntity
  8
NOTE
100
AcDbLine
 10
-424.1426478806237
 20
1054.285015245306
 30
0.0
 11
-414.7600068560164
 21
1063.667656269913
 31
0.0
  0
LINE
  5
1C2
330
34F
100
AcDbEntity
  8
NOTE
100
AcDbLine
 10
-424.1294219263691
 20
1054.475017894856
 30
0.0
 11
-414.9500095055669
 21
1063.654430315659
 31
0.0
  0
LINE
  5
1C3
330
34F
100
AcDbEntity
  8
NOTE
100
AcDbLine
 10
-424.1121527973422
 20
1054.66906371918
 30
0.0
 11
-415.1440553298908
 21
1063.637161186631
 31
0.0
  0
LINE
  5
1C4
330
34F
100
AcDbEntity
  8
NOTE
100
AcDbLine
 10
-424.0905475086616
 20
1054.867445703157
 30
0.0
 11
-415.342437313868
 21
1063.615555897951
 31
0.0
  0
LINE
  5
1C5
330
34F
100
AcDbEntity
  8
NOTE
100
AcDbLine
 10
-424.0642701451628
 20
1055.070499761953
 30
0.0
 11
-415.5454913726636
 21
1063.589278534452
 31
0.0
  0
LINE
  5
1C6
330
34F
100
AcDbEntity
  8
NOTE
100
AcDbLine
 10
-424.0329324856698
 20
1055.278614116743
 30
0.0
 11
-415.7536057274531
 21
1063.557940874959
 31
0.0
  0
LINE
  5
1C7
330
34F
100
AcDbEntity
  8
NOTE
100
AcDbLine
 10
-423.9960818016056
 20
1055.492241496102
 30
0.0
 11
-415.9672331068142
 21
1063.521090190894
 31
0.0
  0
LINE
  5
1C8
330
34F
100
AcDbEntity
  8
NOTE
100
AcDbLine
 10
-423.9531847112456
 20
1055.71191528176
 30
0.0
 11
-416.1869068924706
 21
1063.478193100535
 31
0.0
  0
LINE
  5
1C9
330
34F
100
AcDbEntity
  8
NOTE
100
AcDbLine
 10
-423.9036054057018
 20
1055.9382712826
 30
0.0
 11
-416.4132628933112
 21
1063.428613794991
 31
0.0
  0
LINE
  5
1CA
330
34F
100
AcDbEntity
  8
NOTE
100
AcDbLine
 10
-423.8465756396447
 20
1056.172077743954
 30
0.0
 11
-416.6470693546648
 21
1063.371584028934
 31
0.0
  0
LINE
  5
1CB
330
34F
100
AcDbEntity
  8
NOTE
100
AcDbLine
 10
-423.7811523178262
 20
1056.414277761068
 30
0.0
 11
-416.8892693717801
 21
1063.306160707115
 31
0.0
  0
LINE
  5
1CC
330
34F
100
AcDbEntity
  8
NOTE
100
AcDbLine
 10
-423.7061557546652
 20
1056.666051019527
 30
0.0
 11
-417.1410426302379
 21
1063.231164143954
 31
0.0
  0
LINE
  5
1CD
330
34F
100
AcDbEntity
  8
NOTE
100
AcDbLine
 10
-423.6200765884971
 20
1056.928906880991
 30
0.0
 11
-417.4038984917023
 21
1063.145084977786
 31
0.0
  0
LINE
  5
1CE
330
34F
100
AcDbEntity
  8
NOTE
100
AcDbLine
 10
-423.5209293423868
 20
1057.204830822398
 30
0.0
 11
-417.6798224331093
 21
1063.045937731676
 31
0.0
  0
LINE
  5
1CF
330
34F
100
AcDbEntity
  8
NOTE
100
AcDbLine
 10
-423.4060096107786
 20
1057.496527249304
 30
0.0
 11
-417.9715188600143
 21
1062.931018000068
 31
0.0
  0
LINE
  5
1D0
330
34F
100
AcDbEntity
  8
NOTE
100
AcDbLine
 10
-423.2714635858409
 20
1057.807849969538
 30
0.0
 11
-418.2828415802488
 21
1062.79647197513
 31
0.0
  0
LINE
  5
1D1
330
34F
100
AcDbEntity
  8
NOTE
100
AcDbLine
 10
-423.1114544034928
 20
1058.144635847183
 30
0.0
 11
-418.6196274578931
 21
1062.636462792782
 31
0.0
  0
LINE
  5
1D2
330
34F
100
AcDbEntity
  8
NOTE
100
AcDbLine
 10
-422.9163365439052
 20
1058.516530402067
 30
0.0
 11
-418.9915220127776
 21
1062.441344933194
 31
0.0
  0
LINE
  5
1D3
330
34F
100
AcDbEntity
  8
NOTE
100
AcDbLine
 10
-422.6678428409808
 20
1058.941800800288
 30
0.0
 11
-419.4167924109987
 21
1062.19285123027
 31
0.0
  0
LINE
  5
1D4
330
34F
100
AcDbEntity
  8
NOTE
100
AcDbLine
 10
-422.3215028384328
 20
1059.464917498132
 30
0.0
 11
-419.9399091088431
 21
1061.846511227723
 31
0.0
  0
LINE
  5
1D5
330
34F
100
AcDbEntity
  8
NOTE
100
AcDbLine
 10
-421.6410387747862
 20
1060.322158257075
 30
0.0
 11
-420.7971498677864
 21
1061.166047164076
 31
0.0
  0
LINE
  5
1D6
330
34F
100
AcDbEntity
  8
NOTE
100
AcDbLine
 10
-1032.762887565487
 20
1455.860505618959
 30
0.0
 11
-758.0213520189253
 21
1455.860505618959
 31
0.0
  0
TEXT
  5
1D7
330
34F
100
AcDbEntity
  8
NOTE
100
AcDbText
 10
-994.1749408828576
 20
1472.910947784118
 30
0.0
 40
64.0
  1
後吸込口
 50
0.0000029999976964
 41
0.659722
  7
STANDARD1
100
AcDbText
  0
LINE
  5
1D8
330
34F
100
AcDbEntity
  8
DETAIL
100
AcDbLine
 10
298.0000000000008
 20
874.1575659550099
 30
0.0
 11
298.0000000000008
 21
119.9999999999995
 31
0.0
  0
LINE
  5
1D9
330
34F
100
AcDbEntity
  8
OUTLINE
100
AcDbLine
 10
595.0000000000008
 20
-0.0000000000007958
 30
0.0
 11
-594.9999999999992
 21
-0.0000000000007958
 31
0.0
  0
LINE
  5
1DA
330
34F
100
AcDbEntity
  8
OUTLINE
100
AcDbLine
 10
-594.9999999999992
 20
1374.999999999999
 30
0.0
 11
-594.9999999999992
 21
119.999999999999
 31
0.0
  0
LINE
  5
1DB
330
34F
100
AcDbEntity
  8
OUTLINE
100
AcDbLine
 10
595.0000000000008
 20
1374.999999999999
 30
0.0
 11
595.0000000000008
 21
119.999999999999
 31
0.0
  0
LINE
  5
1DC
330
34F
100
AcDbEntity
  8
OUTLINE
100
AcDbLine
 10
595.0000000000008
 20
1374.999999999999
 30
0.0
 11
-594.9999999999992
 21
1374.999999999999
 31
0.0
  0
LINE
  5
1DD
330
34F
100
AcDbEntity
  8
OUTLINE
100
AcDbLine
 10
-464.9999999999987
 20
99.99999999999921
 30
0.0
 11
-574.9999999999992
 21
99.99999999999921
 31
0.0
  0
LINE
  5
1DE
330
34F
100
AcDbEntity
  8
OUTLINE
100
AcDbLine
 10
-464.9999999999987
 20
19.9999999999992
 30
0.0
 11
-574.9999999999992
 21
19.9999999999992
 31
0.0
  0
ARC
  5
1DF
330
34F
100
AcDbEntity
  8
OUTLINE
100
AcDbCircle
 10
-464.9999999999987
 20
59.9999999999992
 30
0.0
 40
40.0
100
AcDbArc
 50
270.0
 51
90.0
  0
ARC
  5
1E0
330
34F
100
AcDbEntity
  8
OUTLINE
100
AcDbCircle
 10
-574.9999999999992
 20
119.999999999999
 30
0.0
 40
20.0
100
AcDbArc
 50
180.0
 51
270.0
  0
LINE
  5
1E1
330
34F
100
AcDbEntity
  8
OUTLINE
100
AcDbLine
 10
-594.9999999999992
 20
-0.0000000000007958
 30
0.0
 11
-594.9999999999992
 21
-0.0000000000007958
 31
0.0
  0
ARC
  5
1E2
330
34F
100
AcDbEntity
  8
OUTLINE
100
AcDbCircle
 10
-574.9999999999992
 20
-0.0000000000007958
 30
0.0
 40
20.0
100
AcDbArc
 50
90.0
 51
180.0
  0
LINE
  5
1E3
330
34F
100
AcDbEntity
  8
OUTLINE
100
AcDbLine
 10
465.0000000000008
 20
99.99999999999921
 30
0.0
 11
575.0000000000007
 21
99.99999999999921
 31
0.0
  0
LINE
  5
1E4
330
34F
100
AcDbEntity
  8
OUTLINE
100
AcDbLine
 10
465.0000000000008
 20
19.9999999999992
 30
0.0
 11
575.0000000000007
 21
19.9999999999992
 31
0.0
  0
ARC
  5
1E5
330
34F
100
AcDbEntity
  8
OUTLINE
100
AcDbCircle
 10
465.0000000000008
 20
59.9999999999992
 30
0.0
 40
40.0
100
AcDbArc
 50
89.99999999999998
 51
270.0
  0
ARC
  5
1E6
330
34F
100
AcDbEntity
  8
OUTLINE
100
AcDbCircle
 10
575.0000000000007
 20
119.999999999999
 30
0.0
 40
20.0
100
AcDbArc
 50
270.0
 51
0.0
  0
ARC
  5
1E7
330
34F
100
AcDbEntity
  8
OUTLINE
100
AcDbCircle
 10
575.0000000000007
 20
-0.0000000000007958
 30
0.0
 40
20.0
100
AcDbArc
 50
0.0
 51
89.99999999999998
  0
LINE
  5
1E8
330
34F
100
AcDbEntity
  8
NOTE
100
AcDbLine
 10
-758.0213520189253
 20
954.0830133673919
 30
0.0
 11
-414.1606268616915
 21
551.9081429994148
 31
0.0
  0
CIRCLE
  5
1E9
330
34F
100
AcDbEntity
  8
NOTE
100
AcDbCircle
 10
-414.1606268616915
 20
551.9081429994148
 30
0.0
 40
10.0
  0
LINE
  5
1EA
330
34F
100
AcDbEntity
  8
NOTE
100
AcDbLine
 10
-408.1978490011541
 20
543.8803612269771
 30
0.0
 11
-406.1328450892537
 21
545.9453651388773
 31
0.0
  0
LINE
  5
1EB
330
34F
100
AcDbEntity
  8
NOTE
100
AcDbLine
 10
-408.7686117038672
 20
543.4863752195605
 30
0.0
 11
-405.7388590818371
 21
546.5161278415908
 31
0.0
  0
LINE
  5
1EC
330
34F
100
AcDbEntity
  8
NOTE
100
AcDbLine
 10
-409.2150933575285
 20
543.216670261196
 30
0.0
 11
-405.4691541234727
 21
546.9626094952519
 31
0.0
  0
LINE
  5
1ED
330
34F
100
AcDbEntity
  8
NOTE
100
AcDbLine
 10
-409.5997412450023
 20
543.0087990690187
 30
0.0
 11
-405.2612829312954
 21
547.3472573827259
 31
0.0
  0
LINE
  5
1EE
330
34F
100
AcDbEntity
  8
NOTE
100
AcDbLine
 10
-409.9453113827673
 20
542.8400056265503
 30
0.0
 11
-405.0924894888271
 21
547.6928275204905
 31
0.0
  0
LINE
  5
1EF
330
34F
100
AcDbEntity
  8
NOTE
100
AcDbLine
 10
-410.2631803535611
 20
542.6989133510532
 30
0.0
 11
-404.95139721333
 21
548.0106964912847
 31
0.0
  0
LINE
  5
1F0
330
34F
100
AcDbEntity
  8
NOTE
100
AcDbLine
 10
-410.5600138747129
 20
542.5788565251982
 30
0.0
 11
-404.8313403874749
 21
548.3075300124362
 31
0.0
  0
LINE
  5
1F1
330
34F
100
AcDbEntity
  8
NOTE
100
AcDbLine
 10
-410.8401192952642
 20
542.4755277999435
 30
0.0
 11
-404.72801166222
 21
548.5876354329875
 31
0.0
  0
LINE
  5
1F2
330
34F
100
AcDbEntity
  8
NOTE
100
AcDbLine
 10
-411.106472978794
 20
542.3859508117102
 30
0.0
 11
-404.6384346739868
 21
548.8539891165173
 31
0.0
  0
LINE
  5
1F3
330
34F
100
AcDbEntity
  8
NOTE
100
AcDbLine
 10
-411.3612347729527
 20
542.3079657128485
 30
0.0
 11
-404.5604495751251
 21
549.108750910676
 31
0.0
  0
LINE
  5
1F4
330
34F
100
AcDbEntity
  8
NOTE
100
AcDbLine
 10
-411.6060317215548
 20
542.2399454595427
 30
0.0
 11
-404.4924293218191
 21
549.3535478592783
 31
0.0
  0
LINE
  5
1F5
330
34F
100
AcDbEntity
  8
NOTE
100
AcDbLine
 10
-411.8421262217394
 20
542.1806276546548
 30
0.0
 11
-404.4331115169316
 21
549.5896423594627
 31
0.0
  0
LINE
  5
1F6
330
34F
100
AcDbEntity
  8
NOTE
100
AcDbLine
 10
-412.0705214480211
 20
542.1290091236698
 30
0.0
 11
-404.3814929859465
 21
549.8180375857446
 31
0.0
  0
LINE
  5
1F7
330
34F
100
AcDbEntity
  8
NOTE
100
AcDbLine
 10
-412.2920304927375
 20
542.0842767742503
 30
0.0
 11
-404.3367606365269
 21
550.0395466304608
 31
0.0
  0
LINE
  5
1F8
330
34F
100
AcDbEntity
  8
NOTE
100
AcDbLine
 10
-412.5073234199373
 20
542.0457605423469
 30
0.0
 11
-404.2982444046235
 21
550.2548395576608
 31
0.0
  0
LINE
  5
1F9
330
34F
100
AcDbEntity
  8
NOTE
100
AcDbLine
 10
-412.7169602951417
 20
542.0129003624388
 30
0.0
 11
-404.2653842247156
 21
550.4644764328651
 31
0.0
  0
LINE
  5
1FA
330
34F
100
AcDbEntity
  8
NOTE
100
AcDbLine
 10
-412.9214149887356
 20
541.985222364142
 30
0.0
 11
-404.2377062264187
 21
550.6689311264588
 31
0.0
  0
LINE
  5
1FB
330
34F
100
AcDbEntity
  8
NOTE
100
AcDbLine
 10
-413.1210927229267
 20
541.9623213252472
 30
0.0
 11
-404.2148051875239
 21
550.86860886065
 31
0.0
  0
LINE
  5
1FC
330
34F
100
AcDbEntity
  8
NOTE
100
AcDbLine
 10
-413.3163432638842
 20
541.9438474795864
 30
0.0
 11
-404.196331341863
 21
551.0638594016076
 31
0.0
  0
LINE
  5
1FD
330
34F
100
AcDbEntity
  8
NOTE
100
AcDbLine
 10
-413.5074710127615
 20
541.9294964260058
 30
0.0
 11
-404.1819802882825
 21
551.2549871504847
 31
0.0
  0
LINE
  5
1FE
330
34F
100
AcDbEntity
  8
NOTE
100
AcDbLine
 10
-413.6947428436098
 20
541.919001290454
 30
0.0
 11
-404.1714851527311
 21
551.4422589813331
 31
0.0
  0
LINE
  5
1FF
330
34F
100
AcDbEntity
  8
NOTE
100
AcDbLine
 10
-413.8783942748568
 20
541.9121265545039
 30
0.0
 11
-404.1646104167805
 21
551.6259104125801
 31
0.0
  0
LINE
  5
200
330
34F
100
AcDbEntity
  8
NOTE
100
AcDbLine
 10
-414.0586343884857
 20
541.9086631361713
 30
0.0
 11
-404.1611469984482
 21
551.8061505262088
 31
0.0
  0
LINE
  5
201
330
34F
100
AcDbEntity
  8
NOTE
100
AcDbLine
 10
-414.2356497945561
 20
541.9084244253976
 30
0.0
 11
-404.1609082876744
 21
551.9831659322797
 31
0.0
  0
LINE
  5
202
330
34F
100
AcDbEntity
  8
NOTE
100
AcDbLine
 10
-414.40960785848
 20
541.9112430567706
 30
0.0
 11
-404.1637269190474
 21
552.1571239962033
 31
0.0
  0
LINE
  5
203
330
34F
100
AcDbEntity
  8
NOTE
100
AcDbLine
 10
-414.5806593522177
 20
541.9169682583294
 30
0.0
 11
-404.1694521206061
 21
552.3281754899409
 31
0.0
  0
LINE
  5
204
330
34F
100
AcDbEntity
  8
NOTE
100
AcDbLine
 10
-414.7489406504694
 20
541.9254636553743
 30
0.0
 11
-404.1779475176511
 21
552.4964567881928
 31
0.0
  0
LINE
  5
205
330
34F
100
AcDbEntity
  8
NOTE
100
AcDbLine
 10
-414.9145755639271
 20
541.936605437213
 30
0.0
 11
-404.1890892994899
 21
552.6620917016503
 31
0.0
  0
LINE
  5
206
330
34F
100
AcDbEntity
  8
NOTE
100
AcDbLine
 10
-415.077676880402
 20
541.9502808160351
 30
0.0
 11
-404.202764678312
 21
552.8251930181251
 31
0.0
  0
LINE
  5
207
330
34F
100
AcDbEntity
  8
NOTE
100
AcDbLine
 10
-415.2383476688441
 20
541.9663867228895
 30
0.0
 11
-404.2188705851661
 21
552.9858638065674
 31
0.0
  0
LINE
  5
208
330
34F
100
AcDbEntity
  8
NOTE
100
AcDbLine
 10
-415.3966823894188
 20
541.9848286976116
 30
0.0
 11
-404.2373125598881
 21
553.144198527142
 31
0.0
  0
LINE
  5
209
330
34F
100
AcDbEntity
  8
NOTE
100
AcDbLine
 10
-415.552767843796
 20
542.0055199385311
 30
0.0
 11
-404.2580038008079
 21
553.3002839815192
 31
0.0
  0
LINE
  5
20A
330
34F
100
AcDbEntity
  8
NOTE
100
AcDbLine
 10
-415.7066839929146
 20
542.0283804847088
 30
0.0
 11
-404.2808643469855
 21
553.4542001306382
 31
0.0
  0
LINE
  5
20B
330
34F
100
AcDbEntity
  8
NOTE
100
AcDbLine
 10
-415.8585046641443
 20
542.053336508776
 30
0.0
 11
-404.3058203710527
 21
553.6060208018675
 31
0.0
  0
LINE
  5
20C
330
34F
100
AcDbEntity
  8
NOTE
100
AcDbLine
 10
-416.0082981655842
 20
542.0803197026327
 30
0.0
 11
-404.3328035649095
 21
553.7558143033074
 31
0.0
  0
LINE
  5
20D
330
34F
100
AcDbEntity
  8
NOTE
100
AcDbLine
 10
-416.1561278219892
 20
542.1092667415241
 30
0.0
 11
-404.3617506038009
 21
553.9036439597127
 31
0.0
  0
LINE
  5
20E
330
34F
100
AcDbEntity
  8
NOTE
100
AcDbLine
 10
-416.3020524441852
 20
542.140118814625
 30
0.0
 11
-404.3926026769016
 21
554.0495685819085
 31
0.0
  0
LINE
  5
20F
330
34F
100
AcDbEntity
  8
NOTE
100
AcDbLine
 10
-416.4461267417784
 20
542.172821212328
 30
0.0
 11
-404.4253050746048
 21
554.193642879502
 31
0.0
  0
LINE
  5
210
330
34F
100
AcDbEntity
  8
NOTE
100
AcDbLine
 10
-416.5884016872935
 20
542.20732296211
 30
0.0
 11
-404.4598068243868
 21
554.3359178250167
 31
0.0
  0
LINE
  5
211
330
34F
100
AcDbEntity
  8
NOTE
100
AcDbLine
 10
-416.7289248385225
 20
542.2435765061775
 30
0.0
 11
-404.4960603684542
 21
554.4764409762461
 31
0.0
  0
LINE
  5
212
330
34F
100
AcDbEntity
  8
NOTE
100
AcDbLine
 10
-416.8677406247793
 20
542.2815374152174
 30
0.0
 11
-404.5340212774942
 21
554.6152567625025
 31
0.0
  0
LINE
  5
213
330
34F
100
AcDbEntity
  8
NOTE
100
AcDbLine
 10
-417.0048906018433
 20
542.3211641334501
 30
0.0
 11
-404.5736479957268
 21
554.7524067395668
 31
0.0
  0
LINE
  5
214
330
34F
100
AcDbEntity
  8
NOTE
100
AcDbLine
 10
-417.1404136796562
 20
542.3624177509338
 30
0.0
 11
-404.6149016132105
 21
554.8879298173791
 31
0.0
  0
LINE
  5
215
330
34F
100
AcDbEntity
  8
NOTE
100
AcDbLine
 10
-417.2743463262076
 20
542.405261799679
 30
0.0
 11
-404.6577456619557
 21
555.021862463931
 31
0.0
  0
LINE
  5
216
330
34F
100
AcDbEntity
  8
NOTE
100
AcDbLine
 10
-417.4067227505584
 20
542.4496620706252
 30
0.0
 11
-404.7021459329017
 21
555.1542388882817
 31
0.0
  0
LINE
  5
217
330
34F
100
AcDbEntity
  8
NOTE
100
AcDbLine
 10
-417.537575067506
 20
542.4955864489739
 30
0.0
 11
-404.7480703112505
 21
555.2850912052291
 31
0.0
  0
LINE
  5
218
330
34F
100
AcDbEntity
  8
NOTE
100
AcDbLine
 10
-417.6669334460652
 20
542.5430047657112
 30
0.0
 11
-404.795488627988
 21
555.4144495837887
 31
0.0
  0
LINE
  5
219
330
34F
100
AcDbEntity
  8
NOTE
100
AcDbLine
 10
-417.7948262436226
 20
542.5918886634502
 30
0.0
 11
-404.8443725257271
 21
555.5423423813457
 31
0.0
  0
LINE
  5
21A
330
34F
100
AcDbEntity
  8
NOTE
100
AcDbLine
 10
-417.9212801273775
 20
542.6422114749925
 30
0.0
 11
-404.8946953372689
 21
555.6687962651007
 31
0.0
  0
LINE
  5
21B
330
34F
100
AcDbEntity
  8
NOTE
100
AcDbLine
 10
-418.046320184474
 20
542.6939481131927
 30
0.0
 11
-404.9464319754693
 21
555.7938363221973
 31
0.0
  0
LINE
  5
21C
330
34F
100
AcDbEntity
  8
NOTE
100
AcDbLine
 10
-418.1699700220366
 20
542.7470749709264
 30
0.0
 11
-404.9995588332031
 21
555.9174861597598
 31
0.0
  0
LINE
  5
21D
330
34F
100
AcDbEntity
  8
NOTE
100
AcDbLine
 10
-418.2922518581776
 20
542.8015698300821
 30
0.0
 11
-405.0540536923588
 21
556.039767995901
 31
0.0
  0
LINE
  5
21E
330
34F
100
AcDbEntity
  8
NOTE
100
AcDbLine
 10
-418.4131866049012
 20
542.8574117786552
 30
0.0
 11
-405.109895640932
 21
556.1607027426246
 31
0.0
  0
LINE
  5
21F
330
34F
100
AcDbEntity
  8
NOTE
100
AcDbLine
 10
-418.5327939437262
 20
542.914581135127
 30
0.0
 11
-405.1670649974036
 21
556.2803100814494
 31
0.0
  0
LINE
  5
220
330
34F
100
AcDbEntity
  8
NOTE
100
AcDbLine
 10
-418.6510923947407
 20
542.9730593794089
 30
0.0
 11
-405.2255432416854
 21
556.3986085324637
 31
0.0
  0
LINE
  5
221
330
34F
100
AcDbEntity
  8
NOTE
100
AcDbLine
 10
-418.7680993797238
 20
543.0328290897225
 30
0.0
 11
-405.2853129519992
 21
556.5156155174472
 31
0.0
  0
LINE
  5
222
330
34F
100
AcDbEntity
  8
NOTE
100
AcDbLine
 10
-418.8838312798897
 20
543.0938738848533
 30
0.0
 11
-405.3463577471299
 21
556.6313474176127
 31
0.0
  0
LINE
  5
223
330
34F
100
AcDbEntity
  8
NOTE
100
AcDbLine
 10
-418.9983034887521
 20
543.1561783712875
 30
0.0
 11
-405.4086622335642
 21
556.7458196264754
 31
0.0
  0
LINE
  5
224
330
34F
100
AcDbEntity
  8
NOTE
100
AcDbLine
 10
-419.1115304605439
 20
543.2197280947922
 30
0.0
 11
-405.4722119570688
 21
556.8590465982673
 31
0.0
  0
LINE
  5
225
330
34F
100
AcDbEntity
  8
NOTE
100
AcDbLine
 10
-419.2235257545831
 20
543.2845094960501
 30
0.0
 11
-405.5369933583263
 21
556.9710418923063
 31
0.0
  0
LINE
  5
226
330
34F
100
AcDbEntity
  8
NOTE
100
AcDbLine
 10
-419.3343020759265
 20
543.3505098700029
 30
0.0
 11
-405.6029937322796
 21
557.0818182136498
 31
0.0
  0
LINE
  5
227
330
34F
100
AcDbEntity
  8
NOTE
100
AcDbLine
 10
-419.4438713126274
 20
543.4177173285986
 30
0.0
 11
-405.670201190875
 21
557.1913874503507
 31
0.0
  0
LINE
  5
228
330
34F
100
AcDbEntity
  8
NOTE
100
AcDbLine
 10
-419.5522445698599
 20
543.486120766663
 30
0.0
 11
-405.7386046289395
 21
557.2997607075831
 31
0.0
  0
LINE
  5
229
330
34F
100
AcDbEntity
  8
NOTE
100
AcDbLine
 10
-419.6594322011637
 20
543.5557098306555
 30
0.0
 11
-405.8081936929323
 21
557.4069483388872
 31
0.0
  0
LINE
  5
22A
330
34F
100
AcDbEntity
  8
NOTE
100
AcDbLine
 10
-419.7654438370256
 20
543.6264748900903
 30
0.0
 11
-405.8789587523667
 21
557.5129599747493
 31
0.0
  0
LINE
  5
22B
330
34F
100
AcDbEntity
  8
NOTE
100
AcDbLine
 10
-419.8702884109874
 20
543.698407011425
 30
0.0
 11
-405.9508908737018
 21
557.6178045487107
 31
0.0
  0
LINE
  5
22C
330
34F
100
AcDbEntity
  8
NOTE
100
AcDbLine
 10
-419.97397418346
 20
543.7714979342492
 30
0.0
 11
-406.0239817965259
 21
557.7214903211835
 31
0.0
  0
LINE
  5
22D
330
34F
100
AcDbEntity
  8
NOTE
100
AcDbLine
 10
-420.0765087633983
 20
543.8457400496075
 30
0.0
 11
-406.0982239118845
 21
557.8240249011217
 31
0.0
  0
LINE
  5
22E
330
34F
100
AcDbEntity
  8
NOTE
100
AcDbLine
 10
-420.1778991279693
 20
543.9211263803334
 30
0.0
 11
-406.1736102426101
 21
557.9254152656925
 31
0.0
  0
LINE
  5
22F
330
34F
100
AcDbEntity
  8
NOTE
100
AcDbLine
 10
-420.2781516403453
 20
543.997650563254
 30
0.0
 11
-406.2501344255306
 21
558.0256677780686
 31
0.0
  0
LINE
  5
230
330
34F
100
AcDbEntity
  8
NOTE
100
AcDbLine
 10
-420.3772720657232
 20
544.0753068331728
 30
0.0
 11
-406.3277906954495
 21
558.1247882034465
 31
0.0
  0
LINE
  5
231
330
34F
100
AcDbEntity
  8
NOTE
100
AcDbLine
 10
-420.4752655856721
 20
544.1540900085202
 30
0.0
 11
-406.4065738707967
 21
558.2227817233956
 31
0.0
  0
LINE
  5
232
330
34F
100
AcDbEntity
  8
NOTE
100
AcDbLine
 10
-420.5721368108928
 20
544.2339954785959
 30
0.0
 11
-406.4864793408727
 21
558.3196529486164
 31
0.0
  0
LINE
  5
233
330
34F
100
AcDbEntity
  8
NOTE
100
AcDbLine
 10
-420.6678897924621
 20
544.3150191923233
 30
0.0
 11
-406.5675030546
 21
558.4154059301856
 31
0.0
  0
LINE
  5
234
330
34F
100
AcDbEntity
  8
NOTE
100
AcDbLine
 10
-420.7625280316297
 20
544.3971576484528
 30
0.0
 11
-406.6496415107294
 21
558.5100441693531
 31
0.0
  0
LINE
  5
235
330
34F
100
AcDbEntity
  8
NOTE
100
AcDbLine
 10
-420.8560544882228
 20
544.4804078871563
 30
0.0
 11
-406.7328917494328
 21
558.6035706259462
 31
0.0
  0
LINE
  5
236
330
34F
100
AcDbEntity
  8
NOTE
100
AcDbLine
 10
-420.9484715877056
 20
544.5647674829699
 30
0.0
 11
-406.8172513452465
 21
558.6959877254289
 31
0.0
  0
LINE
  5
237
330
34F
100
AcDbEntity
  8
NOTE
100
AcDbLine
 10
-421.0397812269327
 20
544.6502345390398
 30
0.0
 11
-406.9027184013162
 21
558.7872973646559
 31
0.0
  0
LINE
  5
238
330
34F
100
AcDbEntity
  8
NOTE
100
AcDbLine
 10
-421.1299847786288
 20
544.7368076826401
 30
0.0
 11
-406.9892915449168
 21
558.8775009163523
 31
0.0
  0
LINE
  5
239
330
34F
100
AcDbEntity
  8
NOTE
100
AcDbLine
 10
-421.2190830946226
 20
544.8244860619428
 30
0.0
 11
-407.0769699242196
 21
558.9665992323459
 31
0.0
  0
LINE
  5
23A
330
34F
100
AcDbEntity
  8
NOTE
100
AcDbLine
 10
-421.3070765078456
 20
544.9132693440167
 30
0.0
 11
-407.1657532062934
 21
559.0545926455688
 31
0.0
  0
LINE
  5
23B
330
34F
100
AcDbEntity
  8
NOTE
100
AcDbLine
 10
-421.3939648331139
 20
545.0031577140448
 30
0.0
 11
-407.2556415763216
 21
559.1414809708374
 31
0.0
  0
LINE
  5
23C
330
34F
100
AcDbEntity
  8
NOTE
100
AcDbLine
 10
-421.4797473666949
 20
545.0941518757605
 30
0.0
 11
-407.3466357380373
 21
559.2272635044181
 31
0.0
  0
LINE
  5
23D
330
34F
100
AcDbEntity
  8
NOTE
100
AcDbLine
 10
-421.5644228846527
 20
545.1862530530989
 30
0.0
 11
-407.4387369153757
 21
559.3119390223761
 31
0.0
  0
LINE
  5
23E
330
34F
100
AcDbEntity
  8
NOTE
100
AcDbLine
 10
-421.6479896399719
 20
545.279462993077
 30
0.0
 11
-407.5319468553535
 21
559.3955057776951
 31
0.0
  0
LINE
  5
23F
330
34F
100
AcDbEntity
  8
NOTE
100
AcDbLine
 10
-421.730445358431
 20
545.3737839699143
 30
0.0
 11
-407.6262678321907
 21
559.4779614961546
 31
0.0
  0
LINE
  5
240
330
34F
100
AcDbEntity
  8
NOTE
100
AcDbLine
 10
-421.8117872332197
 20
545.469218790422
 30
0.0
 11
-407.7217026526986
 21
559.5593033709432
 31
0.0
  0
LINE
  5
241
330
34F
100
AcDbEntity
  8
NOTE
100
AcDbLine
 10
-421.8920119182519
 20
545.565770800687
 30
0.0
 11
-407.8182546629637
 21
559.6395280559752
 31
0.0
  0
LINE
  5
242
330
34F
100
AcDbEntity
  8
NOTE
100
AcDbLine
 10
-421.9711155201497
 20
545.6634438940857
 30
0.0
 11
-407.9159277563625
 21
559.7186316578729
 31
0.0
  0
LINE
  5
243
330
34F
100
AcDbEntity
  8
NOTE
100
AcDbLine
 10
-422.0490935888507
 20
545.7622425206809
 30
0.0
 11
-408.0147263829578
 21
559.796609726574
 31
0.0
  0
LINE
  5
244
330
34F
100
AcDbEntity
  8
NOTE
100
AcDbLine
 10
-422.1259411067816
 20
545.8621716980469
 30
0.0
 11
-408.1146555603236
 21
559.8734572445049
 31
0.0
  0
LINE
  5
245
330
34F
100
AcDbEntity
  8
NOTE
100
AcDbLine
 10
-422.2016524765364
 20
545.9632370235888
 30
0.0
 11
-408.2157208858657
 21
559.9491686142597
 31
0.0
  0
LINE
  5
246
330
34F
100
AcDbEntity
  8
NOTE
100
AcDbLine
 10
-422.2762215069912
 20
546.0654446884303
 30
0.0
 11
-408.3179285507069
 21
560.0237376447147
 31
0.0
  0
LINE
  5
247
330
34F
100
AcDbEntity
  8
NOTE
100
AcDbLine
 10
-422.3496413977716
 20
546.1688014929468
 30
0.0
 11
-408.4212853552234
 21
560.0971575354951
 31
0.0
  0
LINE
  5
248
330
34F
100
AcDbEntity
  8
NOTE
100
AcDbLine
 10
-422.4219047219743
 20
546.2733148640409
 30
0.0
 11
-408.5257987263175
 21
560.1694208596978
 31
0.0
  0
LINE
  5
249
330
34F
100
AcDbEntity
  8
NOTE
100
AcDbLine
 10
-422.4930034070458
 20
546.3789928742662
 30
0.0
 11
-408.6314767365427
 21
560.2405195447688
 31
0.0
  0
LINE
  5
24A
330
34F
100
AcDbEntity
  8
NOTE
100
AcDbLine
 10
-422.5629287136934
 20
546.4858442629149
 30
0.0
 11
-408.7383281251919
 21
560.3104448514168
 31
0.0
  0
LINE
  5
24B
330
34F
100
AcDbEntity
  8
NOTE
100
AcDbLine
 10
-422.6316712126968
 20
546.5938784592081
 30
0.0
 11
-408.8463623214848
 21
560.3791873504203
 31
0.0
  0
LINE
  5
24C
330
34F
100
AcDbEntity
  8
NOTE
100
AcDbLine
 10
-422.6992207594697
 20
546.7031056077318
 30
0.0
 11
-408.9555894700084
 21
560.4467368971934
 31
0.0
  0
LINE
  5
24D
330
34F
100
AcDbEntity
  8
NOTE
100
AcDbLine
 10
-422.7655664662031
 20
546.8135365962949
 30
0.0
 11
-409.0660204585719
 21
560.5130826039263
 31
0.0
  0
LINE
  5
24E
330
34F
100
AcDbEntity
  8
NOTE
100
AcDbLine
 10
-422.8306966714007
 20
546.9251830863943
 30
0.0
 11
-409.1776669486709
 21
560.578212809124
 31
0.0
  0
LINE
  5
24F
330
34F
100
AcDbEntity
  8
NOTE
100
AcDbLine
 10
-422.8945989065993
 20
547.0380575464921
 30
0.0
 11
-409.2905414087688
 21
560.6421150443227
 31
0.0
  0
LINE
  5
250
330
34F
100
AcDbEntity
  8
NOTE
100
AcDbLine
 10
-422.9572598600319
 20
547.1521732883561
 30
0.0
 11
-409.4046571506329
 21
560.7047759977554
 31
0.0
  0
LINE
  5
251
330
34F
100
AcDbEntity
  8
NOTE
100
AcDbLine
 10
-423.0186653369712
 20
547.2675445067135
 30
0.0
 11
-409.5200283689903
 21
560.7661814746948
 31
0.0
  0
LINE
  5
252
330
34F
100
AcDbEntity
  8
NOTE
100
AcDbLine
 10
-423.0788002164559
 20
547.3841863225255
 30
0.0
 11
-409.6366701848021
 21
560.8263163541791
 31
0.0
  0
LINE
  5
253
330
34F
100
AcDbEntity
  8
NOTE
100
AcDbLine
 10
-423.1376484040636
 20
547.5021148302145
 30
0.0
 11
-409.7545986924911
 21
560.8851645417871
 31
0.0
  0
LINE
  5
254
330
34F
100
AcDbEntity
  8
NOTE
100
AcDbLine
 10
-423.1951927803576
 20
547.6213471492171
 30
0.0
 11
-409.8738310114937
 21
560.9427089180813
 31
0.0
  0
LINE
  5
255
330
34F
100
AcDbEntity
  8
NOTE
100
AcDbLine
 10
-423.2514151445808
 20
547.7419014802903
 30
0.0
 11
-409.9943853425669
 21
560.9989312823045
 31
0.0
  0
LINE
  5
256
330
34F
100
AcDbEntity
  8
NOTE
100
AcDbLine
 10
-423.3062961531214
 20
547.8637971670463
 30
0.0
 11
-410.1162810293232
 21
561.0538122908449
 31
0.0
  0
LINE
  5
257
330
34F
100
AcDbEntity
  8
NOTE
100
AcDbLine
 10
-423.35981525221
 20
547.9870547632549
 30
0.0
 11
-410.2395386255316
 21
561.107331389933
 31
0.0
  0
LINE
  5
258
330
34F
100
AcDbEntity
  8
NOTE
100
AcDbLine
 10
-423.41195060424
 20
548.1116961065216
 30
0.0
 11
-410.3641799687982
 21
561.1594667419633
 31
0.0
  0
LINE
  5
259
330
34F
100
AcDbEntity
  8
NOTE
100
AcDbLine
 10
-423.4626790070175
 20
548.2377443990402
 30
0.0
 11
-410.4902282613169
 21
561.2101951447408
 31
0.0
  0
LINE
  5
25A
330
34F
100
AcDbEntity
  8
NOTE
100
AcDbLine
 10
-423.5119758051546
 20
548.3652242962
 30
0.0
 11
-410.6177081584767
 21
561.259491942878
 31
0.0
  0
LINE
  5
25B
330
34F
100
AcDbEntity
  8
NOTE
100
AcDbLine
 10
-423.5598147927078
 20
548.4941620039437
 30
0.0
 11
-410.7466458662201
 21
561.3073309304312
 31
0.0
  0
LINE
  5
25C
330
34F
100
AcDbEntity
  8
NOTE
100
AcDbLine
 10
-423.6061681060436
 20
548.6245853859043
 30
0.0
 11
-410.8770692481808
 21
561.3536842437671
 31
0.0
  0
LINE
  5
25D
330
34F
100
AcDbEntity
  8
NOTE
100
AcDbLine
 10
-423.6510061057559
 20
548.7565240814886
 30
0.0
 11
-411.0090079437652
 21
561.3985222434791
 31
0.0
  0
LINE
  5
25E
330
34F
100
AcDbEntity
  8
NOTE
100
AcDbLine
 10
-423.6942972462895
 20
548.8900096362518
 30
0.0
 11
-411.1424934985282
 21
561.4418133840128
 31
0.0
  0
LINE
  5
25F
330
34F
100
AcDbEntity
  8
NOTE
100
AcDbLine
 10
-423.7360079317237
 20
549.0250756461141
 30
0.0
 11
-411.2775595083908
 21
561.4835240694469
 31
0.0
  0
LINE
  5
260
330
34F
100
AcDbEntity
  8
NOTE
100
AcDbLine
 10
-423.7761023559261
 20
549.1617579172079
 30
0.0
 11
-411.4142417794846
 21
561.5236184936498
 31
0.0
  0
LINE
  5
261
330
34F
100
AcDbEntity
  8
NOTE
100
AcDbLine
 10
-423.814542325006
 20
549.3000946434253
 30
0.0
 11
-411.552578505702
 21
561.5620584627293
 31
0.0
  0
LINE
  5
262
330
34F
100
AcDbEntity
  8
NOTE
100
AcDbLine
 10
-423.8512870596521
 20
549.4401266040754
 30
0.0
 11
-411.6926104663521
 21
561.5988031973754
 31
0.0
  0
LINE
  5
263
330
34F
100
AcDbEntity
  8
NOTE
100
AcDbLine
 10
-423.8862929745569
 20
549.5818973844674
 30
0.0
 11
-411.8343812467442
 21
561.6338091122803
 31
0.0
  0
LINE
  5
264
330
34F
100
AcDbEntity
  8
NOTE
100
AcDbLine
 10
-423.9195134316219
 20
549.7254536226988
 30
0.0
 11
-411.9779374849754
 21
561.6670295693453
 31
0.0
  0
LINE
  5
265
330
34F
100
AcDbEntity
  8
NOTE
100
AcDbLine
 10
-423.9508984630863
 20
549.8708452865312
 30
0.0
 11
-412.123329148808
 21
561.6984146008096
 31
0.0
  0
LINE
  5
266
330
34F
100
AcDbEntity
  8
NOTE
100
AcDbLine
 10
-423.9803944600047
 20
550.0181259849097
 30
0.0
 11
-412.2706098471862
 21
561.7279105977281
 31
0.0
  0
LINE
  5
267
330
34F
100
AcDbEntity
  8
NOTE
100
AcDbLine
 10
-424.0079438206639
 20
550.1673533195469
 30
0.0
 11
-412.4198371818236
 21
561.7554599583871
 31
0.0
  0
LINE
  5
268
330
34F
100
AcDbEntity
  8
NOTE
100
AcDbLine
 10
-424.0334845524868
 20
550.3185892830206
 30
0.0
 11
-412.5710731452969
 21
561.7810006902103
 31
0.0
  0
LINE
  5
269
330
34F
100
AcDbEntity
  8
NOTE
100
AcDbLine
 10
-424.0569498197028
 20
550.4719007111015
 30
0.0
 11
-412.7243845733782
 21
561.8044659574263
 31
0.0
  0
LINE
  5
26A
330
34F
100
AcDbEntity
  8
NOTE
100
AcDbLine
 10
-424.0782674274973
 20
550.6273597986035
 30
0.0
 11
-412.87984366088
 21
561.8257835652208
 31
0.0
  0
LINE
  5
26B
330
34F
100
AcDbEntity
  8
NOTE
100
AcDbLine
 10
-424.0973592314078
 20
550.7850446899896
 30
0.0
 11
-413.0375285522663
 21
561.844875369131
 31
0.0
  0
LINE
  5
26C
330
34F
100
AcDbEntity
  8
NOTE
100
AcDbLine
 10
-424.1141404582887
 20
550.9450401584057
 30
0.0
 11
-413.1975240206823
 21
561.8616565960118
 31
0.0
  0
LINE
  5
26D
330
34F
100
AcDbEntity
  8
NOTE
100
AcDbLine
 10
-424.1285189221152
 20
551.1074383898752
 30
0.0
 11
-413.359922252152
 21
561.8760350598388
 31
0.0
  0
LINE
  5
26E
330
34F
100
AcDbEntity
  8
NOTE
100
AcDbLine
 10
-424.1403941139997
 20
551.2723398932876
 30
0.0
 11
-413.5248237555645
 21
561.8879102517228
 31
0.0
  0
LINE
  5
26F
330
34F
100
AcDbEntity
  8
NOTE
100
AcDbLine
 10
-424.1496561408141
 20
551.4398545617697
 30
0.0
 11
-413.6923384240463
 21
561.8971722785373
 31
0.0
  0
LINE
  5
270
330
34F
100
AcDbEntity
  8
NOTE
100
AcDbLine
 10
-424.1561844804311
 20
551.6101029174497
 30
0.0
 11
-413.8625867797263
 21
561.9037006181542
 31
0.0
  0
LINE
  5
271
330
34F
100
AcDbEntity
  8
NOTE
100
AcDbLine
 10
-424.159846513223
 20
551.7832175799543
 30
0.0
 11
-414.0357014422311
 21
561.9073626509463
 31
0.0
  0
LINE
  5
272
330
34F
100
AcDbEntity
  8
NOTE
100
AcDbLine
 10
-424.1604957785383
 20
551.9593450099355
 30
0.0
 11
-414.2118288722121
 21
561.9080119162616
 31
0.0
  0
LINE
  5
273
330
34F
100
AcDbEntity
  8
NOTE
100
AcDbLine
 10
-424.1579698903231
 20
552.1386475934471
 30
0.0
 11
-414.3911314557239
 21
561.9054860280465
 31
0.0
  0
LINE
  5
274
330
34F
100
AcDbEntity
  8
NOTE
100
AcDbLine
 10
-424.1520880265523
 20
552.3213061525149
 30
0.0
 11
-414.5737900147917
 21
561.8996041642756
 31
0.0
  0
LINE
  5
275
330
34F
100
AcDbEntity
  8
NOTE
100
AcDbLine
 10
-424.1426478806237
 20
552.50752299374
 30
0.0
 11
-414.7600068560168
 21
561.890164018347
 31
0.0
  0
LINE
  5
276
330
34F
100
AcDbEntity
  8
NOTE
100
AcDbLine
 10
-424.1294219263695
 20
552.6975256432906
 30
0.0
 11
-414.9500095055675
 21
561.8769380640928
 31
0.0
  0
LINE
  5
277
330
34F
100
AcDbEntity
  8
NOTE
100
AcDbLine
 10
-424.1121527973422
 20
552.8915714676145
 30
0.0
 11
-415.1440553298912
 21
561.8596689350659
 31
0.0
  0
LINE
  5
278
330
34F
100
AcDbEntity
  8
NOTE
100
AcDbLine
 10
-424.0905475086616
 20
553.089953451592
 30
0.0
 11
-415.3424373138688
 21
561.8380636463848
 31
0.0
  0
LINE
  5
279
330
34F
100
AcDbEntity
  8
NOTE
100
AcDbLine
 10
-424.0642701451631
 20
553.2930075103871
 30
0.0
 11
-415.545491372664
 21
561.8117862828864
 31
0.0
  0
LINE
  5
27A
330
34F
100
AcDbEntity
  8
NOTE
100
AcDbLine
 10
-424.0329324856698
 20
553.5011218651772
 30
0.0
 11
-415.7536057274537
 21
561.7804486233932
 31
0.0
  0
LINE
  5
27B
330
34F
100
AcDbEntity
  8
NOTE
100
AcDbLine
 10
-423.9960818016056
 20
553.7147492445377
 30
0.0
 11
-415.9672331068146
 21
561.7435979393291
 31
0.0
  0
LINE
  5
27C
330
34F
100
AcDbEntity
  8
NOTE
100
AcDbLine
 10
-423.9531847112456
 20
553.9344230301946
 30
0.0
 11
-416.1869068924715
 21
561.7007008489689
 31
0.0
  0
LINE
  5
27D
330
34F
100
AcDbEntity
  8
NOTE
100
AcDbLine
 10
-423.9036054057018
 20
554.1607790310348
 30
0.0
 11
-416.4132628933113
 21
561.6511215434253
 31
0.0
  0
LINE
  5
27E
330
34F
100
AcDbEntity
  8
NOTE
100
AcDbLine
 10
-423.8465756396447
 20
554.3945854923888
 30
0.0
 11
-416.6470693546656
 21
561.5940917773681
 31
0.0
  0
LINE
  5
27F
330
34F
100
AcDbEntity
  8
NOTE
100
AcDbLine
 10
-423.7811523178262
 20
554.6367855095041
 30
0.0
 11
-416.8892693717807
 21
561.5286684555494
 31
0.0
  0
LINE
  5
280
330
34F
100
AcDbEntity
  8
NOTE
100
AcDbLine
 10
-423.7061557546655
 20
554.8885587679611
 30
0.0
 11
-417.1410426302379
 21
561.4536718923887
 31
0.0
  0
LINE
  5
281
330
34F
100
AcDbEntity
  8
NOTE
100
AcDbLine
 10
-423.6200765884971
 20
555.1514146294261
 30
0.0
 11
-417.4038984917029
 21
561.3675927262205
 31
0.0
  0
LINE
  5
282
330
34F
100
AcDbEntity
  8
NOTE
100
AcDbLine
 10
-423.5209293423868
 20
555.4273385708333
 30
0.0
 11
-417.6798224331099
 21
561.2684454801101
 31
0.0
  0
LINE
  5
283
330
34F
100
AcDbEntity
  8
NOTE
100
AcDbLine
 10
-423.4060096107786
 20
555.7190349977384
 30
0.0
 11
-417.971518860015
 21
561.1535257485017
 31
0.0
  0
LINE
  5
284
330
34F
100
AcDbEntity
  8
NOTE
100
AcDbLine
 10
-423.2714635858409
 20
556.0303577179722
 30
0.0
 11
-418.2828415802489
 21
561.0189797235642
 31
0.0
  0
LINE
  5
285
330
34F
100
AcDbEntity
  8
NOTE
100
AcDbLine
 10
-423.1114544034926
 20
556.3671435956175
 30
0.0
 11
-418.6196274578938
 21
560.858970541216
 31
0.0
  0
LINE
  5
286
330
34F
100
AcDbEntity
  8
NOTE
100
AcDbLine
 10
-422.9163365439047
 20
556.7390381505017
 30
0.0
 11
-418.9915220127785
 21
560.6638526816282
 31
0.0
  0
LINE
  5
287
330
34F
100
AcDbEntity
  8
NOTE
100
AcDbLine
 10
-422.6678428409806
 20
557.1643085487226
 30
0.0
 11
-419.4167924109992
 21
560.4153589787038
 31
0.0
  0
LINE
  5
288
330
34F
100
AcDbEntity
  8
NOTE
100
AcDbLine
 10
-422.3215028384328
 20
557.6874252465671
 30
0.0
 11
-419.9399091088436
 21
560.0690189761561
 31
0.0
  0
LINE
  5
289
330
34F
100
AcDbEntity
  8
NOTE
100
AcDbLine
 10
-421.641038774784
 20
558.5446660055128
 30
0.0
 11
-420.7971498677893
 21
559.3885549125074
 31
0.0
  0
LINE
  5
28A
330
34F
100
AcDbEntity
  8
NOTE
100
AcDbLine
 10
-1314.16574429557
 20
954.0830133673919
 30
0.0
 11
-758.0213520189253
 21
954.0830133673919
 31
0.0
  0
TEXT
  5
28B
330
34F
100
AcDbEntity
  8
NOTE
100
AcDbText
 10
-1254.820774278693
 20
971.1334555325526
 30
0.0
 40
64.0
  1
防風カバー（付属品）
 50
0.0000029999976964
 41
0.659722
  7
STANDARD1
100
AcDbText
  0
ENDSEC
  0
SECTION
  2
OBJECTS
  0
DICTIONARY
  5
2E7
330
0
100
AcDbDictionary
281
     1
  3
ACAD_COLOR
350
345
  3
ACAD_GROUP
350
2E8
  3
ACAD_LAYOUT
350
344
  3
ACAD_MATERIAL
350
2EB
  3
ACAD_MLEADERSTYLE
350
348
  3
ACAD_MLINESTYLE
350
341
  3
ACAD_PLOTSETTINGS
350
343
  3
ACAD_PLOTSTYLENAME
350
2E9
  3
ACAD_SCALELIST
350
315
  3
ACAD_TABLESTYLE
350
346
  3
ACAD_VISUALSTYLE
350
304
  3
ACDB_RECOMPOSE_DATA
350
3AB
  3
AcDbVariableDictionary
350
384
  3
DWGPROPS
350
3AC
  0
DICTIONARY
  5
36E
330
337
100
AcDbDictionary
280
     1
281
     1
  3
ADSK_XREC_LAYER_RECONCILED
360
36F
  0
DICTIONARY
  5
370
330
355
100
AcDbDictionary
280
     1
281
     1
  3
ADSK_XREC_LAYER_RECONCILED
360
371
  0
DICTIONARY
  5
372
330
356
100
AcDbDictionary
280
     1
281
     1
  3
ADSK_XREC_LAYER_RECONCILED
360
373
  0
DICTIONARY
  5
374
330
357
100
AcDbDictionary
280
     1
281
     1
  3
ADSK_XREC_LAYER_RECONCILED
360
375
  0
DICTIONARY
  5
376
330
358
100
AcDbDictionary
280
     1
281
     1
  3
ADSK_XREC_LAYER_RECONCILED
360
377
  0
DICTIONARY
  5
378
330
359
100
AcDbDictionary
280
     1
281
     1
  3
ADSK_XREC_LAYER_RECONCILED
360
379
  0
DICTIONARY
  5
37A
330
35A
100
AcDbDictionary
280
     1
281
     1
  3
ADSK_XREC_LAYER_RECONCILED
360
37B
  0
DICTIONARY
  5
37C
330
35B
100
AcDbDictionary
280
     1
281
     1
  3
ADSK_XREC_LAYER_RECONCILED
360
37D
  0
DICTIONARY
  5
37E
330
35C
100
AcDbDictionary
280
     1
281
     1
  3
ADSK_XREC_LAYER_RECONCILED
360
37F
  0
DICTIONARY
  5
380
330
35D
100
AcDbDictionary
280
     1
281
     1
  3
ADSK_XREC_LAYER_RECONCILED
360
381
  0
DICTIONARY
  5
382
330
35E
100
AcDbDictionary
280
     1
281
     1
  3
ADSK_XREC_LAYER_RECONCILED
360
383
  0
DICTIONARY
  5
345
102
{ACAD_REACTORS
330
2E7
102
}
330
2E7
100
AcDbDictionary
281
     1
  0
DICTIONARY
  5
2E8
102
{ACAD_REACTORS
330
2E7
102
}
330
2E7
100
AcDbDictionary
281
     1
  0
DICTIONARY
  5
344
102
{ACAD_REACTORS
330
2E7
102
}
330
2E7
100
AcDbDictionary
281
     1
  3
Layout1
350
34E
  3
Model
350
352
  0
DICTIONARY
  5
2EB
102
{ACAD_REACTORS
330
2E7
102
}
330
2E7
100
AcDbDictionary
281
     1
  3
ByBlock
350
2F4
  3
ByLayer
350
2EC
  3
Global
350
2FC
  0
DICTIONARY
  5
348
102
{ACAD_REACTORS
330
2E7
102
}
330
2E7
100
AcDbDictionary
281
     1
  3
Standard
350
349
  0
DICTIONARY
  5
341
102
{ACAD_REACTORS
330
2E7
102
}
330
2E7
100
AcDbDictionary
281
     1
  3
Standard
350
342
  0
DICTIONARY
  5
343
102
{ACAD_REACTORS
330
2E7
102
}
330
2E7
100
AcDbDictionary
281
     1
  0
ACDBDICTIONARYWDFLT
  5
2E9
102
{ACAD_REACTORS
330
2E7
102
}
330
2E7
100
AcDbDictionary
281
     1
  3
Normal
350
2EA
100
AcDbDictionaryWithDefault
340
2EA
  0
DICTIONARY
  5
315
102
{ACAD_REACTORS
330
2E7
102
}
330
2E7
100
AcDbDictionary
281
     1
  3
A0
350
316
  3
A1
350
317
  3
A2
350
318
  3
A3
350
319
  3
A4
350
31A
  3
A5
350
31B
  3
A6
350
31C
  3
A7
350
31D
  3
A8
350
31E
  3
A9
350
31F
  3
B0
350
320
  3
B1
350
321
  3
B2
350
322
  3
B3
350
323
  3
B4
350
324
  3
B5
350
325
  3
B6
350
326
  3
B7
350
327
  3
B8
350
328
  3
B9
350
329
  3
C0
350
32A
  3
C1
350
32B
  3
C2
350
32C
  3
C3
350
32D
  3
C4
350
32E
  3
C5
350
32F
  3
C6
350
330
  3
C7
350
331
  3
C8
350
332
  3
C9
350
333
  3
D0
350
334
  3
D1
350
335
  3
D2
350
336
  0
DICTIONARY
  5
346
102
{ACAD_REACTORS
330
2E7
102
}
330
2E7
100
AcDbDictionary
281
     1
  3
Standard
350
347
  0
DICTIONARY
  5
304
102
{ACAD_REACTORS
330
2E7
102
}
330
2E7
100
AcDbDictionary
281
     1
  3
2dWireframe
350
30A
  3
3D Hidden
350
30C
  3
3dWireframe
350
30B
  3
Basic
350
309
  3
Brighten
350
310
  3
ColorChange
350
314
  3
Conceptual
350
30D
  3
Dim
350
30F
  3
Facepattern
350
313
  3
Flat
350
305
  3
FlatWithEdges
350
306
  3
Gouraud
350
307
  3
GouraudWithEdges
350
308
  3
Linepattern
350
312
  3
Realistic
350
30E
  3
Thicken
350
311
  0
XRECORD
  5
3AB
102
{ACAD_REACTORS
330
2E7
102
}
330
2E7
100
AcDbXrecord
280
     1
 90
        1
330
347
  0
DICTIONARY
  5
384
102
{ACAD_REACTORS
330
2E7
102
}
330
2E7
100
AcDbDictionary
281
     1
  3
CANNOSCALE
350
387
  3
CMLEADERSTYLE
350
386
  3
CTABLESTYLE
350
385
  3
DIMASSOC
350
38A
  3
INDEXCTL
350
389
  3
SORTENTS
350
388
  0
XRECORD
  5
3AC
102
{ACAD_REACTORS
330
2E7
102
}
330
2E7
100
AcDbXrecord
280
     1
  1
DWGPROPS COOKIE
  2

  3

  4

  6

  7

  8
lijl
  9

300
=
301
=
302
=
303
=
304
=
305
=
306
=
307
=
308
=
309
=
 40
0.4442865393518519
 41
2449761.739988426
 42
2457983.372789641
  1

 90
        0
  0
XRECORD
  5
36F
102
{ACAD_REACTORS
330
36E
102
}
330
36E
100
AcDbXrecord
280
     1
290
     1
  0
XRECORD
  5
371
102
{ACAD_REACTORS
330
370
102
}
330
370
100
AcDbXrecord
280
     1
290
     1
  0
XRECORD
  5
373
102
{ACAD_REACTORS
330
372
102
}
330
372
100
AcDbXrecord
280
     1
290
     1
  0
XRECORD
  5
375
102
{ACAD_REACTORS
330
374
102
}
330
374
100
AcDbXrecord
280
     1
290
     1
  0
XRECORD
  5
377
102
{ACAD_REACTORS
330
376
102
}
330
376
100
AcDbXrecord
280
     1
290
     1
  0
XRECORD
  5
379
102
{ACAD_REACTORS
330
378
102
}
330
378
100
AcDbXrecord
280
     1
290
     1
  0
XRECORD
  5
37B
102
{ACAD_REACTORS
330
37A
102
}
330
37A
100
AcDbXrecord
280
     1
290
     1
  0
XRECORD
  5
37D
102
{ACAD_REACTORS
330
37C
102
}
330
37C
100
AcDbXrecord
280
     1
290
     1
  0
XRECORD
  5
37F
102
{ACAD_REACTORS
330
37E
102
}
330
37E
100
AcDbXrecord
280
     1
290
     1
  0
XRECORD
  5
381
102
{ACAD_REACTORS
330
380
102
}
330
380
100
AcDbXrecord
280
     1
290
     1
  0
XRECORD
  5
383
102
{ACAD_REACTORS
330
382
102
}
330
382
100
AcDbXrecord
280
     1
290
     1
  0
LAYOUT
  5
34E
102
{ACAD_XDICTIONARY
360
3B1
102
}
102
{ACAD_REACTORS
330
344
102
}
330
344
100
AcDbPlotSettings
  1

  2
FX DocuWide 2050
  4

  6

 40
0.0
 41
0.0
 42
0.0
 43
0.0
 44
0.0
 45
0.0
 46
0.0
 47
0.0
 48
0.0
 49
0.0
140
0.0
141
0.0
142
1.0
143
1.0
 70
   688
 72
     0
 73
     0
 74
     5
  7

 75
    16
147
1.0
148
0.0
149
0.0
100
AcDbLayout
  1
Layout1
 70
     1
 71
     1
 10
0.0
 20
0.0
 11
12.0
 21
9.0
 12
0.0
 22
0.0
 32
0.0
 14
1.000000000000000E+20
 24
1.000000000000000E+20
 34
1.000000000000000E+20
 15
-1.000000000000000E+20
 25
-1.000000000000000E+20
 35
-1.000000000000000E+20
146
0.0
 13
0.0
 23
0.0
 33
0.0
 16
1.0
 26
0.0
 36
0.0
 17
0.0
 27
1.0
 37
0.0
 76
     0
330
34B
  0
LAYOUT
  5
352
102
{ACAD_XDICTIONARY
360
3B3
102
}
102
{ACAD_REACTORS
330
344
102
}
330
344
100
AcDbPlotSettings
  1

  2
FX DocuWide 2050
  4

  6

 40
0.0
 41
0.0
 42
0.0
 43
0.0
 44
0.0
 45
0.0
 46
0.0
 47
0.0
 48
0.0
 49
0.0
140
0.0
141
0.0
142
1.0
143
1.0
 70
  1712
 72
     0
 73
     0
 74
     0
  7

 75
     0
147
1.0
148
0.0
149
0.0
100
AcDbLayout
  1
Model
 70
     1
 71
     0
 10
0.0
 20
0.0
 11
12.0
 21
9.0
 12
0.0
 22
0.0
 32
0.0
 14
0.0
 24
0.0
 34
0.0
 15
0.0
 25
0.0
 35
0.0
146
0.0
 13
0.0
 23
0.0
 33
0.0
 16
1.0
 26
0.0
 36
0.0
 17
0.0
 27
1.0
 37
0.0
 76
     0
330
34F
331
353
  0
MATERIAL
  5
2F4
102
{ACAD_XDICTIONARY
360
2F5
102
}
102
{ACAD_REACTORS
330
2EB
102
}
330
2EB
100
AcDbMaterial
  1
ByBlock
 72
     0
 43
0.0208333333333333
 43
0.0
 43
0.0
 43
0.0
 43
0.0
 43
0.0208333333333333
 43
0.0
 43
0.0
 43
0.0
 43
0.0
 43
1.0
 43
0.0
 43
0.0
 43
0.0
 43
0.0
 43
1.0
 77
     0
 47
0.0208333333333333
 47
0.0
 47
0.0
 47
0.0
 47
0.0
 47
0.0208333333333333
 47
0.0
 47
0.0
 47
0.0
 47
0.0
 47
1.0
 47
0.0
 47
0.0
 47
0.0
 47
0.0
 47
1.0
171
     0
 49
0.0208333333333333
 49
0.0
 49
0.0
 49
0.0
 49
0.0
 49
0.0208333333333333
 49
0.0
 49
0.0
 49
0.0
 49
0.0
 49
1.0
 49
0.0
 49
0.0
 49
0.0
 49
0.0
 49
1.0
175
     0
142
0.0208333333333333
142
0.0
142
0.0
142
0.0
142
0.0
142
0.0208333333333333
142
0.0
142
0.0
142
0.0
142
0.0
142
1.0
142
0.0
142
0.0
142
0.0
142
0.0
142
1.0
179
     0
144
0.0208333333333333
144
0.0
144
0.0
144
0.0
144
0.0
144
0.0208333333333333
144
0.0
144
0.0
144
0.0
144
0.0
144
1.0
144
0.0
144
0.0
144
0.0
144
0.0
144
1.0
147
0.0208333333333333
147
0.0
147
0.0
147
0.0
147
0.0
147
0.0208333333333333
147
0.0
147
0.0
147
0.0
147
0.0
147
1.0
147
0.0
147
0.0
147
0.0
147
0.0
147
1.0
  0
MATERIAL
  5
2EC
102
{ACAD_XDICTIONARY
360
2ED
102
}
102
{ACAD_REACTORS
330
2EB
102
}
330
2EB
100
AcDbMaterial
  1
ByLayer
 72
     0
 43
0.0208333333333333
 43
0.0
 43
0.0
 43
0.0
 43
0.0
 43
0.0208333333333333
 43
0.0
 43
0.0
 43
0.0
 43
0.0
 43
1.0
 43
0.0
 43
0.0
 43
0.0
 43
0.0
 43
1.0
 77
     0
 47
0.0208333333333333
 47
0.0
 47
0.0
 47
0.0
 47
0.0
 47
0.0208333333333333
 47
0.0
 47
0.0
 47
0.0
 47
0.0
 47
1.0
 47
0.0
 47
0.0
 47
0.0
 47
0.0
 47
1.0
171
     0
 49
0.0208333333333333
 49
0.0
 49
0.0
 49
0.0
 49
0.0
 49
0.0208333333333333
 49
0.0
 49
0.0
 49
0.0
 49
0.0
 49
1.0
 49
0.0
 49
0.0
 49
0.0
 49
0.0
 49
1.0
175
     0
142
0.0208333333333333
142
0.0
142
0.0
142
0.0
142
0.0
142
0.0208333333333333
142
0.0
142
0.0
142
0.0
142
0.0
142
1.0
142
0.0
142
0.0
142
0.0
142
0.0
142
1.0
179
     0
144
0.0208333333333333
144
0.0
144
0.0
144
0.0
144
0.0
144
0.0208333333333333
144
0.0
144
0.0
144
0.0
144
0.0
144
1.0
144
0.0
144
0.0
144
0.0
144
0.0
144
1.0
147
0.0208333333333333
147
0.0
147
0.0
147
0.0
147
0.0
147
0.0208333333333333
147
0.0
147
0.0
147
0.0
147
0.0
147
1.0
147
0.0
147
0.0
147
0.0
147
0.0
147
1.0
  0
MATERIAL
  5
2FC
102
{ACAD_XDICTIONARY
360
2FD
102
}
102
{ACAD_REACTORS
330
2EB
102
}
330
2EB
100
AcDbMaterial
  1
Global
 72
     0
 43
0.0208333333333333
 43
0.0
 43
0.0
 43
0.0
 43
0.0
 43
0.0208333333333333
 43
0.0
 43
0.0
 43
0.0
 43
0.0
 43
1.0
 43
0.0
 43
0.0
 43
0.0
 43
0.0
 43
1.0
 77
     0
 47
0.0208333333333333
 47
0.0
 47
0.0
 47
0.0
 47
0.0
 47
0.0208333333333333
 47
0.0
 47
0.0
 47
0.0
 47
0.0
 47
1.0
 47
0.0
 47
0.0
 47
0.0
 47
0.0
 47
1.0
171
     0
 49
0.0208333333333333
 49
0.0
 49
0.0
 49
0.0
 49
0.0
 49
0.0208333333333333
 49
0.0
 49
0.0
 49
0.0
 49
0.0
 49
1.0
 49
0.0
 49
0.0
 49
0.0
 49
0.0
 49
1.0
175
     0
142
0.0208333333333333
142
0.0
142
0.0
142
0.0
142
0.0
142
0.0208333333333333
142
0.0
142
0.0
142
0.0
142
0.0
142
1.0
142
0.0
142
0.0
142
0.0
142
0.0
142
1.0
179
     0
144
0.0208333333333333
144
0.0
144
0.0
144
0.0
144
0.0
144
0.0208333333333333
144
0.0
144
0.0
144
0.0
144
0.0
144
1.0
144
0.0
144
0.0
144
0.0
144
0.0
144
1.0
147
0.0208333333333333
147
0.0
147
0.0
147
0.0
147
0.0
147
0.0208333333333333
147
0.0
147
0.0
147
0.0
147
0.0
147
1.0
147
0.0
147
0.0
147
0.0
147
0.0
147
1.0
  0
MLEADERSTYLE
  5
349
102
{ACAD_REACTORS
330
348
102
}
330
348
100
AcDbMLeaderStyle
170
     2
171
     1
172
     0
 90
        2
 40
0.0
 41
0.0
173
     1
 91
-1056964608
340
33D
 92
       -2
290
     1
 42
0.09
291
     1
 43
0.36
  3
Standard
 44
0.18
300

342
338
174
     1
178
     6
175
     1
176
     0
 93
-1056964608
 45
0.18
292
     0
297
     0
 46
0.18
 94
-1056964608
 47
1.0
 49
1.0
140
1.0
293
     1
141
0.0
294
     1
177
     0
142
1.0
295
     0
296
     0
143
0.125
1001
ACAD_MLEADERVER
1070
     2
  0
MLINESTYLE
  5
342
102
{ACAD_REACTORS
330
341
102
}
330
341
100
AcDbMlineStyle
  2
STANDARD
 70
     0
  3

 62
   256
 51
90.0
 52
90.0
 71
     2
 49
0.5
 62
   256
  6
BYLAYER
 49
-0.5
 62
   256
  6
BYLAYER
  0
ACDBPLACEHOLDER
  5
2EA
102
{ACAD_REACTORS
330
2E9
102
}
330
2E9
  0
SCALE
  5
316
102
{ACAD_REACTORS
330
315
102
}
330
315
100
AcDbScale
 70
     0
300
1:1
140
1.0
141
1.0
290
     1
  0
SCALE
  5
317
102
{ACAD_REACTORS
330
315
102
}
330
315
100
AcDbScale
 70
     0
300
1:2
140
1.0
141
2.0
290
     0
  0
SCALE
  5
318
102
{ACAD_REACTORS
330
315
102
}
330
315
100
AcDbScale
 70
     0
300
1:4
140
1.0
141
4.0
290
     0
  0
SCALE
  5
319
102
{ACAD_REACTORS
330
315
102
}
330
315
100
AcDbScale
 70
     0
300
1:5
140
1.0
141
5.0
290
     0
  0
SCALE
  5
31A
102
{ACAD_REACTORS
330
315
102
}
330
315
100
AcDbScale
 70
     0
300
1:8
140
1.0
141
8.0
290
     0
  0
SCALE
  5
31B
102
{ACAD_REACTORS
330
315
102
}
330
315
100
AcDbScale
 70
     0
300
1:10
140
1.0
141
10.0
290
     0
  0
SCALE
  5
31C
102
{ACAD_REACTORS
330
315
102
}
330
315
100
AcDbScale
 70
     0
300
1:16
140
1.0
141
16.0
290
     0
  0
SCALE
  5
31D
102
{ACAD_REACTORS
330
315
102
}
330
315
100
AcDbScale
 70
     0
300
1:20
140
1.0
141
20.0
290
     0
  0
SCALE
  5
31E
102
{ACAD_REACTORS
330
315
102
}
330
315
100
AcDbScale
 70
     0
300
1:30
140
1.0
141
30.0
290
     0
  0
SCALE
  5
31F
102
{ACAD_REACTORS
330
315
102
}
330
315
100
AcDbScale
 70
     0
300
1:40
140
1.0
141
40.0
290
     0
  0
SCALE
  5
320
102
{ACAD_REACTORS
330
315
102
}
330
315
100
AcDbScale
 70
     0
300
1:50
140
1.0
141
50.0
290
     0
  0
SCALE
  5
321
102
{ACAD_REACTORS
330
315
102
}
330
315
100
AcDbScale
 70
     0
300
1:100
140
1.0
141
100.0
290
     0
  0
SCALE
  5
322
102
{ACAD_REACTORS
330
315
102
}
330
315
100
AcDbScale
 70
     0
300
2:1
140
2.0
141
1.0
290
     0
  0
SCALE
  5
323
102
{ACAD_REACTORS
330
315
102
}
330
315
100
AcDbScale
 70
     0
300
4:1
140
4.0
141
1.0
290
     0
  0
SCALE
  5
324
102
{ACAD_REACTORS
330
315
102
}
330
315
100
AcDbScale
 70
     0
300
8:1
140
8.0
141
1.0
290
     0
  0
SCALE
  5
325
102
{ACAD_REACTORS
330
315
102
}
330
315
100
AcDbScale
 70
     0
300
10:1
140
10.0
141
1.0
290
     0
  0
SCALE
  5
326
102
{ACAD_REACTORS
330
315
102
}
330
315
100
AcDbScale
 70
     0
300
100:1
140
100.0
141
1.0
290
     0
  0
SCALE
  5
327
102
{ACAD_REACTORS
330
315
102
}
330
315
100
AcDbScale
 70
     0
300
1/128" = 1'-0"
140
0.0078125
141
12.0
290
     0
  0
SCALE
  5
328
102
{ACAD_REACTORS
330
315
102
}
330
315
100
AcDbScale
 70
     0
300
1/64" = 1'-0"
140
0.015625
141
12.0
290
     0
  0
SCALE
  5
329
102
{ACAD_REACTORS
330
315
102
}
330
315
100
AcDbScale
 70
     0
300
1/32" = 1'-0"
140
0.03125
141
12.0
290
     0
  0
SCALE
  5
32A
102
{ACAD_REACTORS
330
315
102
}
330
315
100
AcDbScale
 70
     0
300
1/16" = 1'-0"
140
0.0625
141
12.0
290
     0
  0
SCALE
  5
32B
102
{ACAD_REACTORS
330
315
102
}
330
315
100
AcDbScale
 70
     0
300
3/32" = 1'-0"
140
0.09375
141
12.0
290
     0
  0
SCALE
  5
32C
102
{ACAD_REACTORS
330
315
102
}
330
315
100
AcDbScale
 70
     0
300
1/8" = 1'-0"
140
0.125
141
12.0
290
     0
  0
SCALE
  5
32D
102
{ACAD_REACTORS
330
315
102
}
330
315
100
AcDbScale
 70
     0
300
3/16" = 1'-0"
140
0.1875
141
12.0
290
     0
  0
SCALE
  5
32E
102
{ACAD_REACTORS
330
315
102
}
330
315
100
AcDbScale
 70
     0
300
1/4" = 1'-0"
140
0.25
141
12.0
290
     0
  0
SCALE
  5
32F
102
{ACAD_REACTORS
330
315
102
}
330
315
100
AcDbScale
 70
     0
300
3/8" = 1'-0"
140
0.375
141
12.0
290
     0
  0
SCALE
  5
330
102
{ACAD_REACTORS
330
315
102
}
330
315
100
AcDbScale
 70
     0
300
1/2" = 1'-0"
140
0.5
141
12.0
290
     0
  0
SCALE
  5
331
102
{ACAD_REACTORS
330
315
102
}
330
315
100
AcDbScale
 70
     0
300
3/4" = 1'-0"
140
0.75
141
12.0
290
     0
  0
SCALE
  5
332
102
{ACAD_REACTORS
330
315
102
}
330
315
100
AcDbScale
 70
     0
300
1" = 1'-0"
140
1.0
141
12.0
290
     0
  0
SCALE
  5
333
102
{ACAD_REACTORS
330
315
102
}
330
315
100
AcDbScale
 70
     0
300
1-1/2" = 1'-0"
140
1.5
141
12.0
290
     0
  0
SCALE
  5
334
102
{ACAD_REACTORS
330
315
102
}
330
315
100
AcDbScale
 70
     0
300
3" = 1'-0"
140
3.0
141
12.0
290
     0
  0
SCALE
  5
335
102
{ACAD_REACTORS
330
315
102
}
330
315
100
AcDbScale
 70
     0
300
6" = 1'-0"
140
6.0
141
12.0
290
     0
  0
SCALE
  5
336
102
{ACAD_REACTORS
330
315
102
}
330
315
100
AcDbScale
 70
     0
300
1'-0" = 1'-0"
140
12.0
141
12.0
290
     0
  0
TABLESTYLE
  5
347
102
{ACAD_XDICTIONARY
360
3A9
102
}
102
{ACAD_REACTORS
330
346
102
}
330
346
100
AcDbTableStyle
  3
Standard
 70
     0
 71
     0
 40
0.06
 41
0.06
280
     0
281
     0
  7
STANDARD
140
0.18
170
     2
 62
     0
 63
     7
283
     0
274
    -2
284
     1
 64
     0
275
    -2
285
     1
 65
     0
276
    -2
286
     1
 66
     0
277
    -2
287
     1
 67
     0
278
    -2
288
     1
 68
     0
279
    -2
289
     1
 69
     0
  7
STANDARD
140
0.25
170
     5
 62
     0
 63
     7
283
     0
274
    -2
284
     1
 64
     0
275
    -2
285
     1
 65
     0
276
    -2
286
     1
 66
     0
277
    -2
287
     1
 67
     0
278
    -2
288
     1
 68
     0
279
    -2
289
     1
 69
     0
  7
STANDARD
140
0.18
170
     5
 62
     0
 63
     7
283
     0
274
    -2
284
     1
 64
     0
275
    -2
285
     1
 65
     0
276
    -2
286
     1
 66
     0
277
    -2
287
     1
 67
     0
278
    -2
288
     1
 68
     0
279
    -2
289
     1
 69
     0
  0
VISUALSTYLE
  5
30A
102
{ACAD_REACTORS
330
304
102
}
330
304
100
AcDbVisualStyle
  2
2dWireframe
 70
     4
 71
     0
 72
     2
 73
     0
 90
        0
 40
-0.6
 41
-30.0
 62
     5
 63
     7
 74
     1
 91
        4
 64
     7
 65
   257
 75
     1
175
     1
 42
1.0
 92
        0
 66
   257
 43
1.0
 76
     1
 77
     6
 78
     2
 67
     7
 79
     5
170
     0
171
     0
290
     0
174
     0
 93
        1
 44
0.0
173
     0
291
     0
 45
0.0
1001
ACAD
1000
AcDbSavedByObjectVersion
1070
     0
  0
VISUALSTYLE
  5
30C
102
{ACAD_REACTORS
330
304
102
}
330
304
100
AcDbVisualStyle
  2
3D Hidden
 70
     6
 71
     1
 72
     2
 73
     2
 90
        0
 40
-0.6
 41
-30.0
 62
     5
 63
     7
 74
     2
 91
        2
 64
     7
 65
   257
 75
     2
175
     1
 42
40.0
 92
        0
 66
   257
 43
1.0
 76
     1
 77
     6
 78
     2
 67
     7
 79
     3
170
     0
171
     0
290
     0
174
     0
 93
        1
 44
0.0
173
     0
291
     0
 45
0.0
1001
ACAD
1000
AcDbSavedByObjectVersion
1070
     0
  0
VISUALSTYLE
  5
30B
102
{ACAD_REACTORS
330
304
102
}
330
304
100
AcDbVisualStyle
  2
3dWireframe
 70
     5
 71
     0
 72
     2
 73
     0
 90
        0
 40
-0.6
 41
-30.0
 62
     5
 63
     7
 74
     1
 91
        4
 64
     7
 65
   257
 75
     1
175
     1
 42
1.0
 92
        0
 66
   257
 43
1.0
 76
     1
 77
     6
 78
     2
 67
     7
 79
     5
170
     0
171
     0
290
     0
174
     0
 93
        1
 44
0.0
173
     0
291
     0
 45
0.0
1001
ACAD
1000
AcDbSavedByObjectVersion
1070
     0
  0
VISUALSTYLE
  5
309
102
{ACAD_REACTORS
330
304
102
}
330
304
100
AcDbVisualStyle
  2
Basic
 70
     7
 71
     1
 72
     0
 73
     1
 90
        0
 40
-0.6
 41
-30.0
 62
     5
 63
     7
 74
     0
 91
        4
 64
     7
 65
   257
 75
     1
175
     1
 42
1.0
 92
        8
 66
     7
 43
1.0
 76
     1
 77
     6
 78
     2
 67
     7
 79
     5
170
     0
171
     0
290
     0
174
     0
 93
        1
 44
0.0
173
     0
291
     1
 45
0.0
1001
ACAD
1000
AcDbSavedByObjectVersion
1070
     0
  0
VISUALSTYLE
  5
310
102
{ACAD_REACTORS
330
304
102
}
330
304
100
AcDbVisualStyle
  2
Brighten
 70
    12
 71
     2
 72
     2
 73
     0
 90
        0
 40
-0.6
 41
-30.0
 62
     5
 63
     7
 74
     1
 91
        4
 64
     7
 65
   257
 75
     1
175
     1
 42
1.0
 92
        8
 66
     7
 43
1.0
 76
     1
 77
     6
 78
     2
 67
     7
 79
     5
170
     0
171
     0
290
     0
174
     0
 93
        1
 44
50.0
173
     0
291
     1
 45
0.0
1001
ACAD
1000
AcDbSavedByObjectVersion
1070
     0
  0
VISUALSTYLE
  5
314
102
{ACAD_REACTORS
330
304
102
}
330
304
100
AcDbVisualStyle
  2
ColorChange
 70
    16
 71
     2
 72
     2
 73
     3
 90
        0
 40
-0.6
 41
-30.0
 62
     5
 63
     8
 74
     1
 91
        4
 64
     7
 65
   257
 75
     1
175
     1
 42
1.0
 92
        8
 66
     8
 43
1.0
 76
     1
 77
     6
 78
     2
 67
     7
 79
     5
170
     0
171
     0
290
     0
174
     0
 93
        1
 44
0.0
173
     0
291
     1
 45
0.0
1001
ACAD
1000
AcDbSavedByObjectVersion
1070
     0
  0
VISUALSTYLE
  5
30D
102
{ACAD_REACTORS
330
304
102
}
330
304
100
AcDbVisualStyle
  2
Conceptual
 70
     9
 71
     3
 72
     2
 73
     0
 90
        0
 40
-0.6
 41
-30.0
 62
     5
 63
     7
 74
     2
 91
        2
 64
     7
 65
   257
 75
     1
175
     1
 42
40.0
 92
        8
 66
     7
 43
1.0
 76
     1
 77
     6
 78
     2
 67
     7
 79
     3
170
     0
171
     0
290
     0
174
     0
 93
        1
 44
0.0
173
     0
291
     0
 45
0.0
1001
ACAD
1000
AcDbSavedByObjectVersion
1070
     0
  0
VISUALSTYLE
  5
30F
102
{ACAD_REACTORS
330
304
102
}
330
304
100
AcDbVisualStyle
  2
Dim
 70
    11
 71
     2
 72
     2
 73
     0
 90
        0
 40
-0.6
 41
-30.0
 62
     5
 63
     7
 74
     1
 91
        4
 64
     7
 65
   257
 75
     1
175
     1
 42
1.0
 92
        8
 66
     7
 43
1.0
 76
     1
 77
     6
 78
     2
 67
     7
 79
     5
170
     0
171
     0
290
     0
174
     0
 93
        1
 44
-50.0
173
     0
291
     1
 45
0.0
1001
ACAD
1000
AcDbSavedByObjectVersion
1070
     0
  0
VISUALSTYLE
  5
313
102
{ACAD_REACTORS
330
304
102
}
330
304
100
AcDbVisualStyle
  2
Facepattern
 70
    15
 71
     2
 72
     2
 73
     0
 90
        0
 40
-0.6
 41
-30.0
 62
     5
 63
     7
 74
     1
 91
        4
 64
     7
 65
   257
 75
     1
175
     1
 42
1.0
 92
        8
 66
     7
 43
1.0
 76
     1
 77
     6
 78
     2
 67
     7
 79
     5
170
     0
171
     0
290
     0
174
     0
 93
        1
 44
0.0
173
     0
291
     1
 45
0.0
1001
ACAD
1000
AcDbSavedByObjectVersion
1070
     0
  0
VISUALSTYLE
  5
305
102
{ACAD_REACTORS
330
304
102
}
330
304
100
AcDbVisualStyle
  2
Flat
 70
     0
 71
     2
 72
     1
 73
     1
 90
        2
 40
-0.6
 41
30.0
 62
     5
 63
     7
 74
     0
 91
        4
 64
     7
 65
   257
 75
     1
175
     1
 42
1.0
 92
        8
 66
     7
 43
1.0
 76
     1
 77
     6
 78
     2
 67
     7
 79
     5
170
     0
171
     0
290
     0
174
     0
 93
       13
 44
0.0
173
     0
291
     1
 45
0.0
1001
ACAD
1000
AcDbSavedByObjectVersion
1070
     0
  0
VISUALSTYLE
  5
306
102
{ACAD_REACTORS
330
304
102
}
330
304
100
AcDbVisualStyle
  2
FlatWithEdges
 70
     1
 71
     2
 72
     1
 73
     1
 90
        2
 40
-0.6
 41
30.0
 62
     5
 63
     7
 74
     1
 91
        4
 64
     7
 65
   257
 75
     1
175
     1
 42
1.0
 92
        0
 66
   257
 43
1.0
 76
     1
 77
     6
 78
     2
 67
     7
 79
     5
170
     0
171
     0
290
     0
174
     0
 93
       13
 44
0.0
173
     0
291
     1
 45
0.0
1001
ACAD
1000
AcDbSavedByObjectVersion
1070
     0
  0
VISUALSTYLE
  5
307
102
{ACAD_REACTORS
330
304
102
}
330
304
100
AcDbVisualStyle
  2
Gouraud
 70
     2
 71
     2
 72
     2
 73
     1
 90
        2
 40
-0.6
 41
30.0
 62
     5
 63
     7
 74
     0
 91
        4
 64
     7
 65
   257
 75
     1
175
     1
 42
1.0
 92
        0
 66
     7
 43
1.0
 76
     1
 77
     6
 78
     2
 67
     7
 79
     5
170
     0
171
     0
290
     0
174
     0
 93
       13
 44
0.0
173
     0
291
     1
 45
0.0
1001
ACAD
1000
AcDbSavedByObjectVersion
1070
     0
  0
VISUALSTYLE
  5
308
102
{ACAD_REACTORS
330
304
102
}
330
304
100
AcDbVisualStyle
  2
GouraudWithEdges
 70
     3
 71
     2
 72
     2
 73
     1
 90
        2
 40
-0.6
 41
30.0
 62
     5
 63
     7
 74
     1
 91
        4
 64
     7
 65
   257
 75
     1
175
     1
 42
1.0
 92
        0
 66
   257
 43
1.0
 76
     1
 77
     6
 78
     2
 67
     7
 79
     5
170
     0
171
     0
290
     0
174
     0
 93
       13
 44
0.0
173
     0
291
     1
 45
0.0
1001
ACAD
1000
AcDbSavedByObjectVersion
1070
     0
  0
VISUALSTYLE
  5
312
102
{ACAD_REACTORS
330
304
102
}
330
304
100
AcDbVisualStyle
  2
Linepattern
 70
    14
 71
     2
 72
     2
 73
     0
 90
        0
 40
-0.6
 41
-30.0
 62
     5
 63
     7
 74
     1
 91
        4
 64
     7
 65
   257
 75
     7
175
     7
 42
1.0
 92
        8
 66
     7
 43
1.0
 76
     1
 77
     6
 78
     2
 67
     7
 79
     5
170
     0
171
     0
290
     0
174
     0
 93
        1
 44
0.0
173
     0
291
     1
 45
0.0
1001
ACAD
1000
AcDbSavedByObjectVersion
1070
     0
  0
VISUALSTYLE
  5
30E
102
{ACAD_REACTORS
330
304
102
}
330
304
100
AcDbVisualStyle
  2
Realistic
 70
     8
 71
     2
 72
     2
 73
     0
 90
        0
 40
-0.6
 41
-30.0
 62
     5
 63
     7
 74
     1
 91
        0
 64
     7
 65
   257
 75
     1
175
     1
 42
1.0
 92
        8
 66
     8
 43
1.0
 76
     1
 77
     6
 78
     2
 67
     7
 79
     5
170
     0
171
     0
290
     0
174
     0
 93
       13
 44
0.0
173
     0
291
     0
 45
0.0
1001
ACAD
1000
AcDbSavedByObjectVersion
1070
     0
  0
VISUALSTYLE
  5
311
102
{ACAD_REACTORS
330
304
102
}
330
304
100
AcDbVisualStyle
  2
Thicken
 70
    13
 71
     2
 72
     2
 73
     0
 90
        0
 40
-0.6
 41
-30.0
 62
     5
 63
     7
 74
     1
 91
        4
 64
     7
 65
   257
 75
     1
175
     1
 42
1.0
 92
       12
 66
     7
 43
1.0
 76
     1
 77
     6
 78
     2
 67
     7
 79
     5
170
     0
171
     0
290
     0
174
     0
 93
        1
 44
0.0
173
     0
291
     1
 45
0.0
1001
ACAD
1000
AcDbSavedByObjectVersion
1070
     0
  0
DICTIONARYVAR
  5
387
102
{ACAD_REACTORS
330
384
102
}
330
384
100
DictionaryVariables
280
     0
  1
1:1
  0
DICTIONARYVAR
  5
386
102
{ACAD_REACTORS
330
384
102
}
330
384
100
DictionaryVariables
280
     0
  1
STANDARD
  0
DICTIONARYVAR
  5
385
102
{ACAD_REACTORS
330
384
102
}
330
384
100
DictionaryVariables
280
     0
  1
STANDARD
  0
DICTIONARYVAR
  5
38A
102
{ACAD_REACTORS
330
384
102
}
330
384
100
DictionaryVariables
280
     0
  1
1
  0
DICTIONARYVAR
  5
389
102
{ACAD_REACTORS
330
384
102
}
330
384
100
DictionaryVariables
280
     0
  1
0
  0
DICTIONARYVAR
  5
388
102
{ACAD_REACTORS
330
384
102
}
330
384
100
DictionaryVariables
280
     0
  1
127
  0
DICTIONARY
  5
3B1
330
34E
100
AcDbDictionary
280
     1
281
     1
  3
ACAD_XREC_ROUNDTRIP
360
3B2
  0
DICTIONARY
  5
3B3
330
352
100
AcDbDictionary
280
     1
281
     1
  3
ACAD_XREC_ROUNDTRIP
360
3B4
  0
DICTIONARY
  5
2F5
330
2F4
100
AcDbDictionary
280
     1
281
     1
  3
ACAD_XREC_ROUNDTRIP
360
3AE
  3
BUMPTILE
360
2F7
  3
DIFFUSETILE
360
2F6
  3
OPACITYTILE
360
2FA
  3
REFLECTIONTILE
360
2F9
  3
REFRACTIONTILE
360
2FB
  3
SPECULARTILE
360
2F8
  0
DICTIONARY
  5
2ED
330
2EC
100
AcDbDictionary
280
     1
281
     1
  3
ACAD_XREC_ROUNDTRIP
360
3AD
  3
BUMPTILE
360
2EF
  3
DIFFUSETILE
360
2EE
  3
OPACITYTILE
360
2F2
  3
REFLECTIONTILE
360
2F1
  3
REFRACTIONTILE
360
2F3
  3
SPECULARTILE
360
2F0
  0
DICTIONARY
  5
2FD
330
2FC
100
AcDbDictionary
280
     1
281
     1
  3
ACAD_XREC_ROUNDTRIP
360
3AF
  3
BUMPTILE
360
2FF
  3
DIFFUSETILE
360
2FE
  3
OPACITYTILE
360
302
  3
REFLECTIONTILE
360
301
  3
REFRACTIONTILE
360
303
  3
SPECULARTILE
360
300
  0
DICTIONARY
  5
3A9
330
347
100
AcDbDictionary
280
     1
281
     1
  3
ACAD_ROUNDTRIP_2008_TABLESTYLE_CELLSTYLEMAP
360
3AA
  3
ACAD_XREC_ROUNDTRIP
360
3B0
  0
XRECORD
  5
3B2
102
{ACAD_REACTORS
330
3B1
102
}
330
3B1
100
AcDbXrecord
280
     1
102
SHADEPLOT
 70
     0
102
SHADEPLOTRESLEVEL
 70
     2
102
SHADEPLOTCUSTOMDPI
 70
   300
  0
XRECORD
  5
3B4
102
{ACAD_REACTORS
330
3B3
102
}
330
3B3
100
AcDbXrecord
280
     1
102
SHADEPLOT
 70
     0
102
SHADEPLOTRESLEVEL
 70
     2
102
SHADEPLOTCUSTOMDPI
 70
   300
  0
XRECORD
  5
3AE
102
{ACAD_REACTORS
330
2F5
102
}
330
2F5
100
AcDbXrecord
280
     1
102
MATERIAL
148
0.0
149
0.0
149
0.0
 93
        0
 94
      127
282
     0
 72
     0
 77
     0
171
     0
175
     0
179
     0
273
     0
  0
XRECORD
  5
2F7
102
{ACAD_REACTORS
330
2F5
102
}
330
2F5
100
AcDbXrecord
280
     1
270
     1
271
     1
  0
XRECORD
  5
2F6
102
{ACAD_REACTORS
330
2F5
102
}
330
2F5
100
AcDbXrecord
280
     1
270
     1
271
     1
  0
XRECORD
  5
2FA
102
{ACAD_REACTORS
330
2F5
102
}
330
2F5
100
AcDbXrecord
280
     1
270
     1
271
     1
  0
XRECORD
  5
2F9
102
{ACAD_REACTORS
330
2F5
102
}
330
2F5
100
AcDbXrecord
280
     1
270
     1
271
     1
  0
XRECORD
  5
2FB
102
{ACAD_REACTORS
330
2F5
102
}
330
2F5
100
AcDbXrecord
280
     1
270
     1
271
     1
  0
XRECORD
  5
2F8
102
{ACAD_REACTORS
330
2F5
102
}
330
2F5
100
AcDbXrecord
280
     1
270
     1
271
     1
  0
XRECORD
  5
3AD
102
{ACAD_REACTORS
330
2ED
102
}
330
2ED
100
AcDbXrecord
280
     1
102
MATERIAL
148
0.0
149
0.0
149
0.0
 93
        0
 94
      127
282
     0
 72
     0
 77
     0
171
     0
175
     0
179
     0
273
     0
  0
XRECORD
  5
2EF
102
{ACAD_REACTORS
330
2ED
102
}
330
2ED
100
AcDbXrecord
280
     1
270
     1
271
     1
  0
XRECORD
  5
2EE
102
{ACAD_REACTORS
330
2ED
102
}
330
2ED
100
AcDbXrecord
280
     1
270
     1
271
     1
  0
XRECORD
  5
2F2
102
{ACAD_REACTORS
330
2ED
102
}
330
2ED
100
AcDbXrecord
280
     1
270
     1
271
     1
  0
XRECORD
  5
2F1
102
{ACAD_REACTORS
330
2ED
102
}
330
2ED
100
AcDbXrecord
280
     1
270
     1
271
     1
  0
XRECORD
  5
2F3
102
{ACAD_REACTORS
330
2ED
102
}
330
2ED
100
AcDbXrecord
280
     1
270
     1
271
     1
  0
XRECORD
  5
2F0
102
{ACAD_REACTORS
330
2ED
102
}
330
2ED
100
AcDbXrecord
280
     1
270
     1
271
     1
  0
XRECORD
  5
3AF
102
{ACAD_REACTORS
330
2FD
102
}
330
2FD
100
AcDbXrecord
280
     1
102
MATERIAL
148
0.0
149
0.0
149
0.0
 93
        0
 94
      127
282
     0
 72
     0
 77
     0
171
     0
175
     0
179
     0
273
     0
  0
XRECORD
  5
2FF
102
{ACAD_REACTORS
330
2FD
102
}
330
2FD
100
AcDbXrecord
280
     1
270
     1
271
     1
  0
XRECORD
  5
2FE
102
{ACAD_REACTORS
330
2FD
102
}
330
2FD
100
AcDbXrecord
280
     1
270
     1
271
     1
  0
XRECORD
  5
302
102
{ACAD_REACTORS
330
2FD
102
}
330
2FD
100
AcDbXrecord
280
     1
270
     1
271
     1
  0
XRECORD
  5
301
102
{ACAD_REACTORS
330
2FD
102
}
330
2FD
100
AcDbXrecord
280
     1
270
     1
271
     1
  0
XRECORD
  5
303
102
{ACAD_REACTORS
330
2FD
102
}
330
2FD
100
AcDbXrecord
280
     1
270
     1
271
     1
  0
XRECORD
  5
300
102
{ACAD_REACTORS
330
2FD
102
}
330
2FD
100
AcDbXrecord
280
     1
270
     1
271
     1
  0
CELLSTYLEMAP
  5
3AA
102
{ACAD_REACTORS
330
3A9
102
}
330
3A9
100
AcDbCellStyleMap
 90
        3
300
CELLSTYLE
  1
TABLEFORMAT_BEGIN
 90
        5
170
     1
 91
        0
 92
    32768
 62
   257
 93
        1
300
CONTENTFORMAT
  1
CONTENTFORMAT_BEGIN
 90
        0
 91
        0
 92
      512
 93
        0
300

 40
0.0
140
1.0
 94
        5
 62
     0
340
338
144
0.25
309
CONTENTFORMAT_END
171
     0
 94
        0
309
TABLEFORMAT_END
  1
CELLSTYLE_BEGIN
 90
        1
 91
        1
300
_TITLE
309
CELLSTYLE_END
300
CELLSTYLE
  1
TABLEFORMAT_BEGIN
 90
        5
170
     1
 91
        0
 92
        0
 62
   257
 93
        1
300
CONTENTFORMAT
  1
CONTENTFORMAT_BEGIN
 90
        0
 91
        0
 92
      512
 93
        0
300

 40
0.0
140
1.0
 94
        5
 62
     0
340
338
144
0.18
309
CONTENTFORMAT_END
171
     0
 94
        0
309
TABLEFORMAT_END
  1
CELLSTYLE_BEGIN
 90
        2
 91
        1
300
_HEADER
309
CELLSTYLE_END
300
CELLSTYLE
  1
TABLEFORMAT_BEGIN
 90
        5
170
     1
 91
        0
 92
        0
 62
   257
 93
        1
300
CONTENTFORMAT
  1
CONTENTFORMAT_BEGIN
 90
        0
 91
        0
 92
      512
 93
        0
300

 40
0.0
140
1.0
 94
        2
 62
     0
340
338
144
0.18
309
CONTENTFORMAT_END
171
     0
 94
        0
309
TABLEFORMAT_END
  1
CELLSTYLE_BEGIN
 90
        3
 91
        2
300
_DATA
309
CELLSTYLE_END
  0
XRECORD
  5
3B0
102
{ACAD_REACTORS
330
3A9
102
}
330
3A9
100
AcDbXrecord
280
     1
102
ACAD_ROUNDTRIP_PRE2007_TABLESTYLE
 90
      512
 91
        0
  1

 92
      512
 93
        0
  2

 94
      512
 95
        0
  3

  0
ENDSEC
  0
EOF
