  0
SECTION
  2
HEADER
  9
$ACADVER
  1
AC1009
  9
$INSBASE
 10
0.0
 20
0.0
 30
0.0
  9
$EXTMIN
 10
-1314.3656171636251
 20
-593.45882145118765
 30
-0.0015258207003583
  9
$EXTMAX
 10
1257.0719637397519
 20
1680.0771953245071
 30
0.0000000349246037
  9
$LIMMIN
 10
-2315.603488828317
 20
-1835.772995356514
  9
$LIMMAX
 10
4822.123476460285
 20
2155.613463965039
  9
$ORTHOMODE
 70
     1
  9
$REGENMODE
 70
     1
  9
$FILLMODE
 70
     1
  9
$QTEXTMODE
 70
     0
  9
$MIRRTEXT
 70
     0
  9
$DRAGMODE
 70
     2
  9
$LTSCALE
 40
20.0
  9
$OSMODE
 70
   431
  9
$ATTMODE
 70
     1
  9
$TEXTSIZE
 40
64.0
  9
$TRACEWID
 40
0.05
  9
$TEXTSTYLE
  7
STANDARD
  9
$CLAYER
  8
0
  9
$CELTYPE
  6
CONTINUOUS
  9
$CECOLOR
 62
     7
  9
$DIMSCALE
 40
1.0
  9
$DIMASZ
 40
10.0
  9
$DIMEXO
 40
20.0
  9
$DIMDLI
 40
200.0
  9
$DIMRND
 40
0.0
  9
$DIMDLE
 40
0.0
  9
$DIMEXE
 40
30.0
  9
$DIMTP
 40
0.0
  9
$DIMTM
 40
0.0
  9
$DIMTXT
 40
64.0
  9
$DIMCEN
 40
0.0
  9
$DIMTSZ
 40
0.0
  9
$DIMTOL
 70
     0
  9
$DIMLIM
 70
     0
  9
$DIMTIH
 70
     0
  9
$DIMTOH
 70
     0
  9
$DIMSE1
 70
     0
  9
$DIMSE2
 70
     0
  9
$DIMTAD
 70
     1
  9
$DIMZIN
 70
     8
  9
$DIMBLK
  1

  9
$DIMASO
 70
     1
  9
$DIMSHO
 70
     0
  9
$DIMPOST
  1

  9
$DIMAPOST
  1

  9
$DIMALT
 70
     0
  9
$DIMALTD
 70
     2
  9
$DIMALTF
 40
25.399999999999999
  9
$DIMLFAC
 40
1.0
  9
$DIMTOFL
 70
     1
  9
$DIMTVP
 40
0.0
  9
$DIMTIX
 70
     1
  9
$DIMSOXD
 70
     0
  9
$DIMSAH
 70
     1
  9
$DIMBLK1
  1
DOTBLANK
  9
$DIMBLK2
  1
DOTBLANK
  9
$DIMSTYLE
  2
STANDARD
  9
$DIMCLRD
 70
     0
  9
$DIMCLRE
 70
     0
  9
$DIMCLRT
 70
     0
  9
$DIMTFAC
 40
1.0
  9
$DIMGAP
 40
0.09
  9
$LUNITS
 70
     2
  9
$LUPREC
 70
     4
  9
$SKETCHINC
 40
0.1
  9
$FILLETRAD
 40
20.0
  9
$AUNITS
 70
     1
  9
$AUPREC
 70
     3
  9
$MENU
  1
ACAD
  9
$ELEVATION
 40
0.0
  9
$PELEVATION
 40
0.0
  9
$THICKNESS
 40
0.0
  9
$LIMCHECK
 70
     0
  9
$BLIPMODE
 70
     0
  9
$CHAMFERA
 40
0.0
  9
$CHAMFERB
 40
0.0
  9
$SKPOLY
 70
     0
  9
$TDCREATE
 40
2449761.7399884262
  9
$TDUPDATE
 40
2455286.565662859
  9
$TDINDWG
 40
0.4333898495
  9
$TDUSRTIMER
 40
0.4333867593
  9
$USRTIMER
 70
     1
  9
$ANGBASE
 50
0.0
  9
$ANGDIR
 70
     0
  9
$PDMODE
 70
     3
  9
$PDSIZE
 40
-2.0
  9
$PLINEWID
 40
0.0
  9
$COORDS
 70
     0
  9
$SPLFRAME
 70
     0
  9
$SPLINETYPE
 70
     6
  9
$SPLINESEGS
 70
     8
  9
$ATTDIA
 70
     0
  9
$ATTREQ
 70
     1
  9
$HANDLING
 70
     1
  9
$HANDSEED
  5
2DC
  9
$SURFTAB1
 70
     6
  9
$SURFTAB2
 70
     6
  9
$SURFTYPE
 70
     6
  9
$SURFU
 70
     6
  9
$SURFV
 70
     6
  9
$UCSNAME
  2

  9
$UCSORG
 10
0.0
 20
0.0
 30
0.0
  9
$UCSXDIR
 10
1.0
 20
0.0
 30
0.0
  9
$UCSYDIR
 10
0.0
 20
1.0
 30
0.0
  9
$PUCSNAME
  2

  9
$PUCSORG
 10
0.0
 20
0.0
 30
0.0
  9
$PUCSXDIR
 10
1.0
 20
0.0
 30
0.0
  9
$PUCSYDIR
 10
0.0
 20
1.0
 30
0.0
  9
$USERI1
 70
     0
  9
$USERI2
 70
     0
  9
$USERI3
 70
     0
  9
$USERI4
 70
     0
  9
$USERI5
 70
     0
  9
$USERR1
 40
20.0
  9
$USERR2
 40
0.0
  9
$USERR3
 40
0.0
  9
$USERR4
 40
0.0
  9
$USERR5
 40
0.0
  9
$WORLDVIEW
 70
     1
  9
$SHADEDGE
 70
     3
  9
$SHADEDIF
 70
    70
  9
$TILEMODE
 70
     1
  9
$MAXACTVP
 70
    64
  9
$PLIMCHECK
 70
     0
  9
$PEXTMIN
 10
1.0000000000000000E+020
 20
1.0000000000000000E+020
 30
1.0000000000000000E+020
  9
$PEXTMAX
 10
-1.0000000000000000E+020
 20
-1.0000000000000000E+020
 30
-1.0000000000000000E+020
  9
$PLIMMIN
 10
0.0
 20
0.0
  9
$PLIMMAX
 10
12.0
 20
9.0
  9
$UNITMODE
 70
     0
  9
$VISRETAIN
 70
     1
  9
$PLINEGEN
 70
     0
  9
$PSLTSCALE
 70
     1
  0
ENDSEC
  0
SECTION
  2
TABLES
  0
TABLE
  2
VPORT
 70
     1
  0
VPORT
  2
*ACTIVE
 70
     0
 10
0.0
 20
0.0
 11
1.0
 21
1.0
 12
1253.259993815984
 22
159.92023430426229
 13
0.0
 23
0.0
 14
50.0
 24
50.0
 15
100.0
 25
100.0
 16
0.0
 26
0.0
 36
1.0
 17
0.0
 27
0.0
 37
0.0
 40
4633.2241439783647
 41
1.548101265822784
 42
50.0
 43
0.0
 44
0.0
 50
0.0
 51
0.0
 71
     0
 72
  1000
 73
     1
 74
     0
 75
     0
 76
     0
 77
     0
 78
     0
  0
ENDTAB
  0
TABLE
  2
LTYPE
 70
     2
  0
LTYPE
  2
CONTINUOUS
 70
     0
  3
実線
 72
    65
 73
     0
 40
0.0
  0
LTYPE
  2
DASHDOT
 70
     0
  3
____ _ ____ _ ____ _ ____ _ ____ _ ____ _ ____
 72
    65
 73
     4
 40
5.5
 49
4.0
 49
-0.6
 49
0.3
 49
-0.6
  0
ENDTAB
  0
TABLE
  2
LAYER
 70
    12
  0
LAYER
  2
0
 70
     0
 62
     7
  6
CONTINUOUS
  0
LAYER
  2
OUTLINE
 70
     0
 62
     3
  6
CONTINUOUS
  0
LAYER
  2
DETAIL
 70
     0
 62
     5
  6
CONTINUOUS
  0
LAYER
  2
BASIS
 70
     0
 62
     6
  6
DASHDOT
  0
LAYER
  2
SIZE
 70
     0
 62
    30
  6
CONTINUOUS
  0
LAYER
  2
NOTE
 70
     0
 62
     4
  6
CONTINUOUS
  0
LAYER
  2
ARRANGE
 70
     0
 62
     1
  6
CONTINUOUS
  0
LAYER
  2
FIX
 70
     0
 62
    11
  6
CONTINUOUS
  0
LAYER
  2
SERVICESPACE
 70
     0
 62
     2
  6
DASHDOT
  0
LAYER
  2
ETC
 70
     0
 62
    61
  6
CONTINUOUS
  0
LAYER
  2
SYMBOLLINE
 70
     0
 62
    15
  6
CONTINUOUS
  0
LAYER
  2
DEFPOINTS
 70
     0
 62
     7
  6
CONTINUOUS
  0
ENDTAB
  0
TABLE
  2
STYLE
 70
     3
  0
STYLE
  2
STANDARD
 70
     0
 40
0.0
 41
0.9
 50
0.0
 71
     0
 42
64.0
  3
SIMPLEX
  4
BIGFONT
  0
STYLE
  2
ANNOTATIVE
 70
     0
 40
0.0
 41
1.0
 50
0.0
 71
     0
 42
0.2
  3
txt
  4

  0
STYLE
  2
STANDARD1
 70
     0
 40
0.0
 41
1.0
 50
0.0
 71
     0
 42
64.0
  3
MONOTXT
  4
BIGFONT
  0
ENDTAB
  0
TABLE
  2
VIEW
 70
     4
  0
VIEW
  2
ALL
 70
     0
 40
4282.6198079999967
 10
0.0
 20
41.309903999999989
 41
5940.0
 11
0.0
 21
0.0
 31
1.0
 12
0.0
 22
0.0
 32
0.0
 42
50.0
 43
0.0
 44
0.0
 50
0.0
 71
     0
  0
ENDTAB
  0
TABLE
  2
UCS
 70
     0
  0
ENDTAB
  0
TABLE
  2
APPID
 70
     3
  0
APPID
  2
ACAD
 70
     0
  0
APPID
  2
ACADANNOTATIVE
 70
     0
  0
APPID
  2
ACAD_MLEADERVER
 70
     0
  0
ENDTAB
  0
TABLE
  2
DIMSTYLE
 70
     2
  0
DIMSTYLE
  2
STANDARD
 70
     0
  3

  4

  5

  6

  7

 40
1.0
 41
0.18
 42
0.0625
 43
0.38
 44
0.18
 45
0.0
 46
0.0
 47
0.0
 48
0.0
140
0.18
141
0.09
142
0.0
143
25.399999999999999
144
1.0
145
0.0
146
1.0
147
0.09
 71
     0
 72
     0
 73
     1
 74
     1
 75
     0
 76
     0
 77
     0
 78
     0
170
     0
171
     2
172
     0
173
     0
174
     0
175
     0
176
     0
177
     0
178
     0
  0
DIMSTYLE
  2
ANNOTATIVE
 70
     0
  3

  4

  5

  6

  7

 40
1.0
 41
0.18
 42
0.0625
 43
0.38
 44
0.18
 45
0.0
 46
0.0
 47
0.0
 48
0.0
140
0.18
141
0.09
142
0.0
143
25.399999999999999
144
1.0
145
0.0
146
1.0
147
0.09
 71
     0
 72
     0
 73
     1
 74
     1
 75
     0
 76
     0
 77
     0
 78
     0
170
     0
171
     2
172
     0
173
     0
174
     0
175
     0
176
     0
177
     0
178
     0
  0
ENDTAB
  0
ENDSEC
  0
SECTION
  2
BLOCKS
  0
BLOCK
  8
0
  2
$MODEL_SPACE
 70
     0
 10
0.0
 20
0.0
 30
0.0
  3
$MODEL_SPACE
  1

  0
ENDBLK
  5
76
  8
0
  0
BLOCK
 67
     1
  8
0
  2
$PAPER_SPACE
 70
     0
 10
0.0
 20
0.0
 30
0.0
  3
$PAPER_SPACE
  1

  0
ENDBLK
  5
72
 67
     1
  8
0
  0
BLOCK
  8
0
  2
_DOTBLANK
 70
     0
 10
0.0
 20
0.0
 30
0.0
  3
_DOTBLANK
  1

  0
CIRCLE
  5
8C
  8
0
  6
CONTINUOUS
 62
     7
 10
0.0
 20
0.0
 30
0.0
 40
0.5
  0
LINE
  5
8D
  8
0
  6
CONTINUOUS
 62
     7
 10
-0.5
 20
0.0
 30
0.0
 11
-1.0
 21
0.0
 31
0.0
  0
ENDBLK
  5
8E
  8
0
  0
ENDSEC
  0
SECTION
  2
ENTITIES
  0
POINT
  5
8F
  8
ARRANGE
  6
CONTINUOUS
 62
     1
 10
-0.0000000000009095
 20
0.0
 30
0.0
  0
LINE
  5
90
  8
BASIS
  6
DASHDOT
 62
     6
 10
0.0000000000009095
 20
1465.0
 30
0.0
 11
-0.0000000000009095
 21
-133.2376920000001
 31
0.0
  0
TEXT
  5
92
  8
ETC
  6
CONTINUOUS
 62
    61
 10
691.8659576550798
 20
1508.76780327764
 30
0.0
 40
64.0
  1
RUH-P5B_3
 50
359.99999699999978
 41
0.638021
  7
STANDARD1
  0
CIRCLE
  5
93
  8
ARRANGE
  6
CONTINUOUS
 62
     1
 10
-0.0000000000009095
 20
0.0
 30
0.0
 40
40.0
  0
LINE
  5
94
  8
DETAIL
  6
CONTINUOUS
 62
     5
 10
-595.0000000000008
 20
0.0000000000009095
 30
0.0
 11
594.9999999999992
 21
-0.0000000000009095
 31
0.0
  0
LINE
  5
95
  8
DETAIL
  6
CONTINUOUS
 62
     5
 10
595.0000000000008
 20
1374.9999999999991
 30
0.0
 11
594.9999999999992
 21
119.99999999999901
 31
0.0
  0
LINE
  5
96
  8
DETAIL
  6
CONTINUOUS
 62
     5
 10
-594.9999999999992
 20
1375.0
 30
0.0
 11
-595.0000000000008
 21
120.0000000000003
 31
0.0
  0
LINE
  5
97
  8
DETAIL
  6
CONTINUOUS
 62
     5
 10
-594.9999999999992
 20
1375.0
 30
0.0
 11
595.0000000000008
 21
1374.9999999999991
 31
0.0
  0
LINE
  5
98
  8
SIZE
  6
CONTINUOUS
 62
    30
 10
-614.9999999999992
 20
1375.0
 30
0.0
 11
-1034.571940193812
 21
1375.0
 31
0.0
  0
LINE
  5
99
  8
SIZE
  6
CONTINUOUS
 62
    30
 10
-615.0000000000008
 20
0.0000000000008015
 30
0.0
 11
-1034.571940193812
 21
0.0000000000009203
 31
0.0
  0
LINE
  5
9A
  8
SIZE
  6
CONTINUOUS
 62
    30
 10
-1004.571940193811
 20
1365.0
 30
0.0
 11
-1004.571940193812
 21
10.000000000000901
 31
0.0
  0
CIRCLE
  5
9B
  8
SIZE
  6
CONTINUOUS
 62
    30
 10
-1004.571940193811
 20
1375.0
 30
0.0
 40
5.0
  0
LINE
  5
9C
  8
SIZE
  6
CONTINUOUS
 62
    30
 10
-1004.571940193811
 20
1370.0
 30
0.0
 11
-1004.571940193811
 21
1365.0
 31
0.0
  0
CIRCLE
  5
9D
  8
SIZE
  6
CONTINUOUS
 62
    30
 10
-1004.571940193812
 20
0.0000000000009118
 30
0.0
 40
5.0
  0
LINE
  5
9E
  8
SIZE
  6
CONTINUOUS
 62
    30
 10
-1004.571940193812
 20
5.0000000000009122
 30
0.0
 11
-1004.571940193812
 21
10.000000000000909
 31
0.0
  0
TEXT
  5
9F
  8
SIZE
  6
CONTINUOUS
 62
    30
 10
-1024.571940193812
 20
591.5000000000008
 30
0.0
 40
64.0
  1
1375
 50
90.0
 41
0.9
 72
     1
 11
-1024.571940193812
 21
687.50000000000068
 31
0.0
  0
LINE
  5
A0
  8
NOTE
  6
CONTINUOUS
 62
     4
 10
424.99999999999909
 20
-19.999999999998629
 30
0.0
 11
424.99999999999909
 21
20.000000000001361
 31
0.0
  0
LINE
  5
A1
  8
NOTE
  6
CONTINUOUS
 62
     4
 10
444.99999999999909
 20
0.0000000000013642
 30
0.0
 11
404.99999999999881
 21
0.0000000000013642
 31
0.0
  0
CIRCLE
  5
A2
  8
FIX
  6
CONTINUOUS
 62
    11
 10
424.99999999999909
 20
0.0000000000013642
 30
0.0
 40
10.0
  0
LINE
  5
A3
  8
NOTE
  6
CONTINUOUS
 62
     4
 10
0.0
 20
-20.0
 30
0.0
 11
0.0
 21
20.0
 31
0.0
  0
LINE
  5
A4
  8
NOTE
  6
CONTINUOUS
 62
     4
 10
20.0
 20
0.0
 30
0.0
 11
-20.0
 21
0.0
 31
0.0
  0
CIRCLE
  5
A5
  8
FIX
  6
CONTINUOUS
 62
    11
 10
0.0
 20
0.0
 30
0.0
 40
10.0
  0
LINE
  5
A6
  8
NOTE
  6
CONTINUOUS
 62
     4
 10
-425.0
 20
-20.0
 30
0.0
 11
-425.0
 21
20.0
 31
0.0
  0
LINE
  5
A7
  8
NOTE
  6
CONTINUOUS
 62
     4
 10
-405.0
 20
0.0
 30
0.0
 11
-445.0
 21
0.0
 31
0.0
  0
CIRCLE
  5
A8
  8
FIX
  6
CONTINUOUS
 62
    11
 10
-425.0
 20
0.0
 30
0.0
 40
10.0
  0
POLYLINE
  5
A9
  8
NOTE
  6
CONTINUOUS
 62
     4
 66
     1
 10
0.0
 20
0.0
 30
0.0
  0
VERTEX
  5
2D0
  8
NOTE
  6
CONTINUOUS
 62
     4
 10
-462.85227332848621
 20
-12.93079223992015
 30
0.0
  0
VERTEX
  5
2D1
  8
NOTE
  6
CONTINUOUS
 62
     4
 10
-424.99999999907391
 20
-0.0000000019698518
 30
0.0
  0
VERTEX
  5
2D2
  8
NOTE
  6
CONTINUOUS
 62
     4
 10
-451.315634298433
 20
-30.124530819839372
 30
0.0
  0
SEQEND
  5
2D3
  8
NOTE
  6
CONTINUOUS
 62
     4
  0
LINE
  5
AE
  8
NOTE
  6
CONTINUOUS
 62
     4
 10
-424.99999999881749
 20
-0.0000000016070771
 30
0.0
 11
-700.89821753965828
 21
-225.32219507621519
 31
0.0
  0
LINE
  5
AF
  8
NOTE
  6
CONTINUOUS
 62
     4
 10
-700.89821753965828
 20
-225.32219507621519
 30
0.0
 11
-1237.357747223095
 21
-225.3221950762142
 31
0.0
  0
TEXT
  5
B0
  8
NOTE
  6
CONTINUOUS
 62
     4
 10
-1236.3923151088441
 20
-208.27172652946209
 30
0.0
 40
64.0
  1
AH 6-15×22長穴
 50
359.99999700000222
 41
0.659722
  7
STANDARD1
  0
LINE
  5
B1
  8
NOTE
  6
CONTINUOUS
 62
     4
 10
527.0
 20
722.00000000000102
 30
0.0
 11
527.0
 21
762.00000000000102
 31
0.0
  0
LINE
  5
B2
  8
NOTE
  6
CONTINUOUS
 62
     4
 10
547.0
 20
742.00000000000102
 30
0.0
 11
507.0
 21
742.00000000000102
 31
0.0
  0
LINE
  5
B3
  8
NOTE
  6
CONTINUOUS
 62
     4
 10
472.0
 20
684.00000000000114
 30
0.0
 11
472.0
 21
724.00000000000091
 31
0.0
  0
LINE
  5
B4
  8
NOTE
  6
CONTINUOUS
 62
     4
 10
492.0
 20
704.00000000000102
 30
0.0
 11
452.0
 21
704.00000000000102
 31
0.0
  0
LINE
  5
B5
  8
NOTE
  6
CONTINUOUS
 62
     4
 10
527.0
 20
742.00000000000159
 30
0.0
 11
874.60566565187014
 21
1058.28458987926
 31
0.0
  0
POLYLINE
  5
B6
  8
NOTE
  6
CONTINUOUS
 62
     4
 66
     1
 10
0.0
 20
0.0
 30
0.0
  0
VERTEX
  5
2D4
  8
NOTE
  6
CONTINUOUS
 62
     4
 10
562.43563269918275
 20
760.5557516504781
 30
0.0
  0
VERTEX
  5
2D5
  8
NOTE
  6
CONTINUOUS
 62
     4
 10
527.0
 20
742.00000000000125
 30
0.0
  0
VERTEX
  5
2D6
  8
NOTE
  6
CONTINUOUS
 62
     4
 10
548.41028247752365
 20
775.7875682730662
 30
0.0
  0
SEQEND
  5
2D7
  8
NOTE
  6
CONTINUOUS
 62
     4
  0
LINE
  5
BB
  8
NOTE
  6
CONTINUOUS
 62
     4
 10
1256.86621549351
 20
1058.28458987926
 30
0.0
 11
874.60566565187014
 21
1058.28458987926
 31
0.0
  0
TEXT
  5
BC
  8
NOTE
  6
CONTINUOUS
 62
     4
 10
909.47867304970157
 20
1075.33504810919
 30
0.0
 40
64.0
  1
RL %%C12.7
 50
359.99999700000222
 41
0.659722
  7
STANDARD1
  0
LINE
  5
BD
  8
NOTE
  6
CONTINUOUS
 62
     4
 10
472.0000000000008
 20
704.00000000000159
 30
0.0
 11
771.27062644467424
 21
1332.59128985452
 31
0.0
  0
POLYLINE
  5
BE
  8
NOTE
  6
CONTINUOUS
 62
     4
 66
     1
 10
0.0
 20
0.0
 30
0.0
  0
VERTEX
  5
2D8
  8
NOTE
  6
CONTINUOUS
 62
     4
 10
497.47529698737247
 20
734.83843750112703
 30
0.0
  0
VERTEX
  5
2D9
  8
NOTE
  6
CONTINUOUS
 62
     4
 10
472.0000000000008
 20
704.00000000000159
 30
0.0
  0
VERTEX
  5
2DA
  8
NOTE
  6
CONTINUOUS
 62
     4
 10
478.64303593298308
 20
743.44451849329153
 30
0.0
  0
SEQEND
  5
2DB
  8
NOTE
  6
CONTINUOUS
 62
     4
  0
LINE
  5
C3
  8
NOTE
  6
CONTINUOUS
 62
     4
 10
1256.86621549351
 20
1332.591289854518
 30
0.0
 11
771.27062644467424
 21
1332.59128985452
 31
0.0
  0
TEXT
  5
C4
  8
NOTE
  6
CONTINUOUS
 62
     4
 10
909.47867304970157
 20
1349.641748084448
 30
0.0
 40
64.0
  1
RG %%C25.4
 50
359.99999700000222
 41
0.659722
  7
STANDARD1
  0
LINE
  5
C5
  8
SIZE
  6
CONTINUOUS
 62
    30
 10
512.0
 20
704.00000000000102
 30
0.0
 11
875.22846557824164
 21
704.00000000000102
 31
0.0
  0
LINE
  5
C6
  8
SIZE
  6
CONTINUOUS
 62
    30
 10
614.9999999999992
 20
-0.0000000000008015
 30
0.0
 11
875.22846557824141
 21
-0.0000000000008752
 31
0.0
  0
LINE
  5
C7
  8
SIZE
  6
CONTINUOUS
 62
    30
 10
845.2284655782413
 20
694.00000000000102
 30
0.0
 11
845.2284655782413
 21
9.9999999999991331
 31
0.0
  0
CIRCLE
  5
C8
  8
SIZE
  6
CONTINUOUS
 62
    30
 10
845.2284655782413
 20
704.00000000000102
 30
0.0
 40
5.0
  0
LINE
  5
C9
  8
SIZE
  6
CONTINUOUS
 62
    30
 10
845.2284655782413
 20
699.00000000000091
 30
0.0
 11
845.2284655782413
 21
694.00000000000102
 31
0.0
  0
CIRCLE
  5
CA
  8
SIZE
  6
CONTINUOUS
 62
    30
 10
845.2284655782413
 20
-0.0000000000008667
 30
0.0
 40
5.0
  0
LINE
  5
CB
  8
SIZE
  6
CONTINUOUS
 62
    30
 10
845.2284655782413
 20
4.9999999999991331
 30
0.0
 11
845.2284655782413
 21
9.9999999999991331
 31
0.0
  0
TEXT
  5
CC
  8
SIZE
  6
CONTINUOUS
 62
    30
 10
825.22846557824141
 20
276.57142857142878
 30
0.0
 40
64.0
  1
704
 50
90.0
 41
0.9
 72
     1
 11
825.22846557824141
 21
352.00000000000023
 31
0.0
  0
LINE
  5
CD
  8
SIZE
  6
CONTINUOUS
 62
    30
 10
614.9999999999992
 20
-0.0000000000008015
 30
0.0
 11
1032.754164835525
 21
-0.0000000000009198
 31
0.0
  0
LINE
  5
CE
  8
SIZE
  6
CONTINUOUS
 62
    30
 10
567.0
 20
742.00000000000102
 30
0.0
 11
1032.754164835525
 21
742.00000000000057
 31
0.0
  0
LINE
  5
CF
  8
SIZE
  6
CONTINUOUS
 62
    30
 10
1002.754164835525
 20
9.9999999999990887
 30
0.0
 11
1002.754164835525
 21
732.00000000000102
 31
0.0
  0
CIRCLE
  5
D0
  8
SIZE
  6
CONTINUOUS
 62
    30
 10
1002.754164835525
 20
-0.0000000000009113
 30
0.0
 40
5.0
  0
LINE
  5
D1
  8
SIZE
  6
CONTINUOUS
 62
    30
 10
1002.754164835525
 20
4.999999999999087
 30
0.0
 11
1002.754164835525
 21
9.9999999999990887
 31
0.0
  0
CIRCLE
  5
D2
  8
SIZE
  6
CONTINUOUS
 62
    30
 10
1002.754164835525
 20
742.00000000000057
 30
0.0
 40
5.0
  0
LINE
  5
D3
  8
SIZE
  6
CONTINUOUS
 62
    30
 10
1002.754164835525
 20
737.0000000000008
 30
0.0
 11
1002.754164835525
 21
732.0000000000008
 31
0.0
  0
TEXT
  5
D4
  8
SIZE
  6
CONTINUOUS
 62
    30
 10
982.75416483552499
 20
296.94285714285718
 30
0.0
 40
64.0
  1
742
 50
90.0
 41
0.9
 72
     1
 11
982.75416483552499
 21
371.0
 31
0.0
  0
LINE
  5
D5
  8
SIZE
  6
CONTINUOUS
 62
    30
 10
595.0000000000008
 20
1394.9999999999991
 30
0.0
 11
595.0000000000008
 21
1489.701474758037
 31
0.0
  0
LINE
  5
D6
  8
SIZE
  6
CONTINUOUS
 62
    30
 10
527.0
 20
782.00000000000102
 30
0.0
 11
527.0
 21
1489.701474758037
 31
0.0
  0
LINE
  5
D7
  8
SIZE
  6
CONTINUOUS
 62
    30
 10
585.00000000000068
 20
1459.701474758037
 30
0.0
 11
537.0
 21
1459.701474758037
 31
0.0
  0
CIRCLE
  5
D8
  8
SIZE
  6
CONTINUOUS
 62
    30
 10
595.0000000000008
 20
1459.701474758037
 30
0.0
 40
5.0
  0
LINE
  5
D9
  8
SIZE
  6
CONTINUOUS
 62
    30
 10
590.0000000000008
 20
1459.701474758037
 30
0.0
 11
585.00000000000068
 21
1459.701474758037
 31
0.0
  0
CIRCLE
  5
DA
  8
SIZE
  6
CONTINUOUS
 62
    30
 10
527.0
 20
1459.701474758037
 30
0.0
 40
5.0
  0
LINE
  5
DB
  8
SIZE
  6
CONTINUOUS
 62
    30
 10
532.0
 20
1459.701474758037
 30
0.0
 11
537.0
 21
1459.701474758037
 31
0.0
  0
TEXT
  5
DC
  8
SIZE
  6
CONTINUOUS
 62
    30
 10
514.37142857142919
 20
1479.701474758037
 30
0.0
 40
64.0
  1
68
 41
0.9
 72
     1
 11
561.00000000000045
 21
1479.701474758037
 31
0.0
  0
LINE
  5
DD
  8
SIZE
  6
CONTINUOUS
 62
    30
 10
472.0
 20
744.00000000000102
 30
0.0
 11
472.0
 21
1625.97781535543
 31
0.0
  0
LINE
  5
DE
  8
SIZE
  6
CONTINUOUS
 62
    30
 10
595.0000000000008
 20
1394.9999999999991
 30
0.0
 11
595.0000000000008
 21
1625.97781535543
 31
0.0
  0
LINE
  5
DF
  8
SIZE
  6
CONTINUOUS
 62
    30
 10
482.0
 20
1595.97781535543
 30
0.0
 11
585.00000000000068
 21
1595.97781535543
 31
0.0
  0
CIRCLE
  5
E0
  8
SIZE
  6
CONTINUOUS
 62
    30
 10
472.0
 20
1595.97781535543
 30
0.0
 40
5.0
  0
LINE
  5
E1
  8
SIZE
  6
CONTINUOUS
 62
    30
 10
477.0
 20
1595.97781535543
 30
0.0
 11
482.0
 21
1595.97781535543
 31
0.0
  0
CIRCLE
  5
E2
  8
SIZE
  6
CONTINUOUS
 62
    30
 10
595.0000000000008
 20
1595.97781535543
 30
0.0
 40
5.0
  0
LINE
  5
E3
  8
SIZE
  6
CONTINUOUS
 62
    30
 10
590.0000000000008
 20
1595.97781535543
 30
0.0
 11
585.00000000000068
 21
1595.97781535543
 31
0.0
  0
TEXT
  5
E4
  8
SIZE
  6
CONTINUOUS
 62
    30
 10
464.92857142857201
 20
1615.97781535543
 30
0.0
 40
64.0
  1
123
 41
0.9
 72
     1
 11
533.50000000000057
 21
1615.97781535543
 31
0.0
  0
LINE
  5
E5
  8
SIZE
  6
CONTINUOUS
 62
    30
 10
594.9999999999992
 20
-20.000000000000789
 30
0.0
 11
594.9999999999992
 21
-437.85429953080671
 31
0.0
  0
LINE
  5
E6
  8
SIZE
  6
CONTINUOUS
 62
    30
 10
424.99999999999909
 20
-39.999999999998742
 30
0.0
 11
424.99999999999909
 21
-437.85429953080671
 31
0.0
  0
LINE
  5
E7
  8
SIZE
  6
CONTINUOUS
 62
    30
 10
604.99999999999898
 20
-407.85429953080671
 30
0.0
 11
614.9999999999992
 21
-407.85429953080671
 31
0.0
  0
LINE
  5
E8
  8
SIZE
  6
CONTINUOUS
 62
    30
 10
414.99999999999881
 20
-407.85429953080671
 30
0.0
 11
404.99999999999881
 21
-407.85429953080671
 31
0.0
  0
LINE
  5
E9
  8
SIZE
  6
CONTINUOUS
 62
    30
 10
594.9999999999992
 20
-407.85429953080671
 30
0.0
 11
424.99999999999909
 21
-407.85429953080671
 31
0.0
  0
CIRCLE
  5
EA
  8
SIZE
  6
CONTINUOUS
 62
    30
 10
594.9999999999992
 20
-407.85429953080671
 30
0.0
 40
5.0
  0
LINE
  5
EB
  8
SIZE
  6
CONTINUOUS
 62
    30
 10
599.9999999999992
 20
-407.85429953080671
 30
0.0
 11
604.99999999999909
 21
-407.85429953080671
 31
0.0
  0
CIRCLE
  5
EC
  8
SIZE
  6
CONTINUOUS
 62
    30
 10
424.99999999999909
 20
-407.85429953080671
 30
0.0
 40
5.0
  0
LINE
  5
ED
  8
SIZE
  6
CONTINUOUS
 62
    30
 10
419.99999999999909
 20
-407.85429953080671
 30
0.0
 11
414.99999999999909
 21
-407.85429953080671
 31
0.0
  0
TEXT
  5
EE
  8
SIZE
  6
CONTINUOUS
 62
    30
 10
441.42857142857031
 20
-387.8542995308066
 30
0.0
 40
64.0
  1
170
 41
0.9
 72
     1
 11
509.99999999999881
 21
-387.8542995308066
 31
0.0
  0
LINE
  5
EF
  8
SIZE
  6
CONTINUOUS
 62
    30
 10
424.99999999999909
 20
-39.999999999998742
 30
0.0
 11
424.99999999999909
 21
-437.85429953080632
 31
0.0
  0
LINE
  5
F0
  8
SIZE
  6
CONTINUOUS
 62
    30
 10
-0.0000000000009107
 20
-143.23769200000001
 30
0.0
 11
-0.0000000000009288
 21
-437.85429953080632
 31
0.0
  0
LINE
  5
F1
  8
SIZE
  6
CONTINUOUS
 62
    30
 10
414.99999999999881
 20
-407.8542995308062
 30
0.0
 11
9.9999999999990727
 21
-407.8542995308062
 31
0.0
  0
CIRCLE
  5
F2
  8
SIZE
  6
CONTINUOUS
 62
    30
 10
424.99999999999909
 20
-407.8542995308062
 30
0.0
 40
5.0
  0
LINE
  5
F3
  8
SIZE
  6
CONTINUOUS
 62
    30
 10
419.99999999999909
 20
-407.8542995308062
 30
0.0
 11
414.99999999999909
 21
-407.8542995308062
 31
0.0
  0
CIRCLE
  5
F4
  8
SIZE
  6
CONTINUOUS
 62
    30
 10
-0.0000000000009269
 20
-407.8542995308062
 30
0.0
 40
5.0
  0
LINE
  5
F5
  8
SIZE
  6
CONTINUOUS
 62
    30
 10
4.999999999999071
 20
-407.8542995308062
 30
0.0
 11
9.9999999999990727
 21
-407.8542995308062
 31
0.0
  0
TEXT
  5
F6
  8
SIZE
  6
CONTINUOUS
 62
    30
 10
138.44285714285621
 20
-387.8542995308062
 30
0.0
 40
64.0
  1
425
 41
0.9
 72
     1
 11
212.49999999999909
 21
-387.8542995308062
 31
0.0
  0
LINE
  5
F7
  8
SIZE
  6
CONTINUOUS
 62
    30
 10
-0.0000000000009107
 20
-143.23769200000001
 30
0.0
 11
-0.0000000000009288
 21
-437.85429953080552
 31
0.0
  0
LINE
  5
F8
  8
SIZE
  6
CONTINUOUS
 62
    30
 10
-425.0
 20
-39.999999999999872
 30
0.0
 11
-425.0
 21
-437.85429953080552
 31
0.0
  0
LINE
  5
F9
  8
SIZE
  6
CONTINUOUS
 62
    30
 10
-10.00000000000092
 20
-407.85429953080558
 30
0.0
 11
-415.0
 21
-407.85429953080558
 31
0.0
  0
CIRCLE
  5
FA
  8
SIZE
  6
CONTINUOUS
 62
    30
 10
-0.0000000000009269
 20
-407.85429953080558
 30
0.0
 40
5.0
  0
LINE
  5
FB
  8
SIZE
  6
CONTINUOUS
 62
    30
 10
-5.0000000000009273
 20
-407.85429953080558
 30
0.0
 11
-10.00000000000092
 21
-407.85429953080558
 31
0.0
  0
CIRCLE
  5
FC
  8
SIZE
  6
CONTINUOUS
 62
    30
 10
-425.0
 20
-407.85429953080558
 30
0.0
 40
5.0
  0
LINE
  5
FD
  8
SIZE
  6
CONTINUOUS
 62
    30
 10
-420.0
 20
-407.85429953080558
 30
0.0
 11
-415.0
 21
-407.85429953080558
 31
0.0
  0
TEXT
  5
FE
  8
SIZE
  6
CONTINUOUS
 62
    30
 10
-286.55714285714328
 20
-387.85429953080552
 30
0.0
 40
64.0
  1
425
 41
0.9
 72
     1
 11
-212.5000000000004
 21
-387.85429953080552
 31
0.0
  0
LINE
  5
FF
  8
SIZE
  6
CONTINUOUS
 62
    30
 10
-425.0
 20
-39.999999999999872
 30
0.0
 11
-425.0
 21
-437.85429953080552
 31
0.0
  0
LINE
  5
100
  8
SIZE
  6
CONTINUOUS
 62
    30
 10
-595.0000000000008
 20
-19.999999999999201
 30
0.0
 11
-595.0000000000008
 21
-437.85429953080552
 31
0.0
  0
LINE
  5
101
  8
SIZE
  6
CONTINUOUS
 62
    30
 10
-415.0
 20
-407.85429953080541
 30
0.0
 11
-405.0
 21
-407.85429953080541
 31
0.0
  0
LINE
  5
102
  8
SIZE
  6
CONTINUOUS
 62
    30
 10
-605.00000000000068
 20
-407.85429953080541
 30
0.0
 11
-615.0000000000008
 21
-407.85429953080541
 31
0.0
  0
LINE
  5
103
  8
SIZE
  6
CONTINUOUS
 62
    30
 10
-425.0
 20
-407.85429953080541
 30
0.0
 11
-595.0000000000008
 21
-407.85429953080541
 31
0.0
  0
CIRCLE
  5
104
  8
SIZE
  6
CONTINUOUS
 62
    30
 10
-425.0
 20
-407.85429953080541
 30
0.0
 40
5.0
  0
LINE
  5
105
  8
SIZE
  6
CONTINUOUS
 62
    30
 10
-420.0
 20
-407.85429953080541
 30
0.0
 11
-415.0
 21
-407.85429953080541
 31
0.0
  0
CIRCLE
  5
106
  8
SIZE
  6
CONTINUOUS
 62
    30
 10
-595.0000000000008
 20
-407.85429953080541
 30
0.0
 40
5.0
  0
LINE
  5
107
  8
SIZE
  6
CONTINUOUS
 62
    30
 10
-600.00000000000068
 20
-407.85429953080541
 30
0.0
 11
-605.00000000000068
 21
-407.85429953080541
 31
0.0
  0
TEXT
  5
108
  8
SIZE
  6
CONTINUOUS
 62
    30
 10
-578.57142857142878
 20
-387.85429953080552
 30
0.0
 40
64.0
  1
170
 41
0.9
 72
     1
 11
-510.00000000000023
 21
-387.85429953080552
 31
0.0
  0
LINE
  5
109
  8
SIZE
  6
CONTINUOUS
 62
    30
 10
594.9999999999992
 20
-20.000000000000789
 30
0.0
 11
594.9999999999992
 21
-593.41909769048129
 31
0.0
  0
LINE
  5
10A
  8
SIZE
  6
CONTINUOUS
 62
    30
 10
-595.0000000000008
 20
-19.999999999999201
 30
0.0
 11
-595.0000000000008
 21
-593.41909769048129
 31
0.0
  0
LINE
  5
10B
  8
SIZE
  6
CONTINUOUS
 62
    30
 10
584.99999999999875
 20
-563.41909769048095
 30
0.0
 11
-585.00000000000068
 21
-563.41909769048095
 31
0.0
  0
CIRCLE
  5
10C
  8
SIZE
  6
CONTINUOUS
 62
    30
 10
594.9999999999992
 20
-563.41909769048095
 30
0.0
 40
5.0
  0
LINE
  5
10D
  8
SIZE
  6
CONTINUOUS
 62
    30
 10
589.9999999999992
 20
-563.41909769048095
 30
0.0
 11
584.9999999999992
 21
-563.41909769048095
 31
0.0
  0
CIRCLE
  5
10E
  8
SIZE
  6
CONTINUOUS
 62
    30
 10
-595.0000000000008
 20
-563.41909769048095
 30
0.0
 40
5.0
  0
LINE
  5
10F
  8
SIZE
  6
CONTINUOUS
 62
    30
 10
-590.0000000000008
 20
-563.41909769048095
 30
0.0
 11
-585.00000000000068
 21
-563.41909769048095
 31
0.0
  0
TEXT
  5
110
  8
SIZE
  6
CONTINUOUS
 62
    30
 10
-90.514285714286615
 20
-543.41909769048095
 30
0.0
 40
64.0
  1
1190
 41
0.9
 72
     1
 11
-0.0000000000009095
 21
-543.41909769048095
 31
0.0
  0
LINE
  5
111
  8
DETAIL
  6
CONTINUOUS
 62
     5
 10
-595.0000000000008
 20
120.0000000000009
 30
0.0
 11
594.9999999999992
 21
119.99999999999901
 31
0.0
  0
LINE
  5
112
  8
DETAIL
  6
CONTINUOUS
 62
     5
 10
464.99999999999881
 20
99.999999999999545
 30
0.0
 11
574.9999999999992
 21
99.999999999999091
 31
0.0
  0
LINE
  5
113
  8
DETAIL
  6
CONTINUOUS
 62
     5
 10
464.99999999999881
 20
19.999999999999542
 30
0.0
 11
574.9999999999992
 21
19.999999999999069
 31
0.0
  0
ARC
  5
114
  8
DETAIL
  6
CONTINUOUS
 62
     5
 10
464.99999999999881
 20
59.999999999999538
 30
0.0
 40
40.0
 50
89.999999999999915
 51
269.99999999999972
  0
ARC
  5
115
  8
DETAIL
  6
CONTINUOUS
 62
     5
 10
574.9999999999992
 20
119.99999999999901
 30
0.0
 40
20.0
 50
269.99999999999972
 51
0.0
  0
LINE
  5
116
  8
DETAIL
  6
CONTINUOUS
 62
     5
 10
594.9999999999992
 20
-0.0000000000009095
 30
0.0
 11
594.9999999999992
 21
-0.0000000000009095
 31
0.0
  0
ARC
  5
117
  8
DETAIL
  6
CONTINUOUS
 62
     5
 10
574.9999999999992
 20
-0.0000000000009095
 30
0.0
 40
20.0
 50
0.0
 51
89.999999999999915
  0
LINE
  5
118
  8
DETAIL
  6
CONTINUOUS
 62
     5
 10
-465.0000000000008
 20
100.0000000000003
 30
0.0
 11
-575.00000000000068
 21
100.0000000000003
 31
0.0
  0
LINE
  5
119
  8
DETAIL
  6
CONTINUOUS
 62
     5
 10
-465.0000000000008
 20
20.000000000000441
 30
0.0
 11
-575.00000000000068
 21
20.000000000000441
 31
0.0
  0
ARC
  5
11A
  8
DETAIL
  6
CONTINUOUS
 62
     5
 10
-465.0000000000008
 20
60.000000000000462
 30
0.0
 40
40.0
 50
269.99999999999972
 51
89.999999999999943
  0
ARC
  5
11B
  8
DETAIL
  6
CONTINUOUS
 62
     5
 10
-575.00000000000068
 20
120.0000000000003
 30
0.0
 40
20.0
 50
179.9999999999998
 51
269.99999999999972
  0
ARC
  5
11C
  8
DETAIL
  6
CONTINUOUS
 62
     5
 10
-575.00000000000068
 20
0.0000000000004547
 30
0.0
 40
20.0
 50
89.999999999999943
 51
179.9999999999998
  0
LINE
  5
11D
  8
DETAIL
  6
CONTINUOUS
 62
     5
 10
-60.000000000001819
 20
98.998378229032824
 30
0.0
 11
-0.0000000000009095
 21
98.998378229032824
 31
0.0
  0
LINE
  5
11E
  8
DETAIL
  6
CONTINUOUS
 62
     5
 10
-60.000000000001819
 20
18.99837822903282
 30
0.0
 11
-0.0000000000009095
 21
18.99837822903282
 31
0.0
  0
LINE
  5
11F
  8
DETAIL
  6
CONTINUOUS
 62
     5
 10
59.999999999999091
 20
98.998378229034216
 30
0.0
 11
-0.0000000000009095
 21
98.998378229032824
 31
0.0
  0
LINE
  5
120
  8
DETAIL
  6
CONTINUOUS
 62
     5
 10
60.000000000000881
 20
18.998378229034181
 30
0.0
 11
0.0000000000009095
 21
18.99837822903282
 31
0.0
  0
ARC
  5
121
  8
DETAIL
  6
CONTINUOUS
 62
     5
 10
60.0
 20
58.998378229035097
 30
0.0
 40
40.0
 50
270.00000000000119
 51
90.000000000001236
  0
ARC
  5
122
  8
DETAIL
  6
CONTINUOUS
 62
     5
 10
-60.000000000001819
 20
58.998378229035552
 30
0.0
 40
40.0
 50
89.999999999998593
 51
269.99999999999852
  0
LINE
  5
123
  8
DETAIL
  6
CONTINUOUS
 62
     5
 10
202.49999999999801
 20
19.80738042865687
 30
0.0
 11
262.49999999999909
 21
19.80738042865687
 31
0.0
  0
LINE
  5
124
  8
DETAIL
  6
CONTINUOUS
 62
     5
 10
322.5000000000008
 20
19.807380428658231
 30
0.0
 11
262.5000000000008
 21
19.80738042865687
 31
0.0
  0
ARC
  5
125
  8
DETAIL
  6
CONTINUOUS
 62
     5
 10
322.5
 20
59.807380428659599
 30
0.0
 40
40.0
 50
270.00000000000119
 51
90.000000000001236
  0
ARC
  5
126
  8
DETAIL
  6
CONTINUOUS
 62
     5
 10
202.49999999999801
 20
59.807380428659599
 30
0.0
 40
40.0
 50
89.999999999998593
 51
269.99999999999852
  0
LINE
  5
127
  8
DETAIL
  6
CONTINUOUS
 62
     5
 10
-202.5000000000008
 20
99.807380428657794
 30
0.0
 11
-262.50000000000182
 21
99.807380428657794
 31
0.0
  0
LINE
  5
128
  8
DETAIL
  6
CONTINUOUS
 62
     5
 10
-202.5000000000008
 20
19.80738042865778
 30
0.0
 11
-262.50000000000182
 21
19.80738042865778
 31
0.0
  0
LINE
  5
129
  8
DETAIL
  6
CONTINUOUS
 62
     5
 10
-322.50000000000182
 20
99.807380428659144
 30
0.0
 11
-262.50000000000182
 21
99.807380428657794
 31
0.0
  0
LINE
  5
12A
  8
DETAIL
  6
CONTINUOUS
 62
     5
 10
-322.50000000000358
 20
19.80738042865914
 30
0.0
 11
-262.50000000000352
 21
19.80738042865778
 31
0.0
  0
ARC
  5
12B
  8
DETAIL
  6
CONTINUOUS
 62
     5
 10
-322.50000000000261
 20
59.807380428660501
 30
0.0
 40
40.0
 50
89.999999999998593
 51
269.99999999999852
  0
ARC
  5
12C
  8
DETAIL
  6
CONTINUOUS
 62
     5
 10
-202.5000000000008
 20
59.807380428660039
 30
0.0
 40
40.0
 50
270.00000000000119
 51
90.000000000001236
  0
LINE
  5
12D
  8
DETAIL
  6
CONTINUOUS
 62
     5
 10
202.49999999999801
 20
99.807380428656884
 30
0.0
 11
262.49999999999909
 21
99.807380428656884
 31
0.0
  0
LINE
  5
12E
  8
DETAIL
  6
CONTINUOUS
 62
     5
 10
322.49999999999892
 20
99.807380428658234
 30
0.0
 11
262.49999999999909
 21
99.807380428656884
 31
0.0
  0
ARC
  5
12F
  8
DETAIL
  6
CONTINUOUS
 62
     5
 10
-374.85403428996869
 20
1203.497941965235
 30
0.0
 40
399.6062105541522
 50
236.57072237218981
 51
303.42927762781
  0
ARC
  5
130
  8
DETAIL
  6
CONTINUOUS
 62
     5
 10
75.145965710028577
 20
490.97160219546282
 30
0.0
 40
443.27802045854821
 50
59.818490753631167
 51
121.23386197480011
  0
LINE
  5
131
  8
DETAIL
  6
CONTINUOUS
 62
     5
 10
205.0
 20
1347.7353000000039
 30
0.0
 11
205.0
 21
914.80332965374089
 31
0.0
  0
LINE
  5
132
  8
DETAIL
  6
CONTINUOUS
 62
     5
 10
-594.9999999999992
 20
1347.735300000006
 30
0.0
 11
595.0000000000008
 21
1347.7353000000039
 31
0.0
  0
LINE
  5
133
  8
DETAIL
  6
CONTINUOUS
 62
     5
 10
-575.0
 20
1347.7353000000051
 30
0.0
 11
-575.0
 21
857.62698926257156
 31
0.0
  0
LINE
  5
134
  8
NOTE
  6
CONTINUOUS
 62
     4
 10
-758.02135201892531
 20
1455.860505618959
 30
0.0
 11
-414.16062686169153
 21
1053.685635250981
 31
0.0
  0
CIRCLE
  5
135
  8
NOTE
  6
CONTINUOUS
 62
     4
 10
-414.16062686169153
 20
1053.685635250981
 30
0.0
 40
10.0
  0
LINE
  5
136
  8
NOTE
  6
CONTINUOUS
 62
     4
 10
-408.1978490011544
 20
1045.6578534785431
 30
0.0
 11
-406.13284508925312
 21
1047.722857390444
 31
0.0
  0
LINE
  5
137
  8
NOTE
  6
CONTINUOUS
 62
     4
 10
-408.76861170386701
 20
1045.2638674711261
 30
0.0
 11
-405.73885908183712
 21
1048.2936200931561
 31
0.0
  0
LINE
  5
138
  8
NOTE
  6
CONTINUOUS
 62
     4
 10
-409.21509335752751
 20
1044.9941625127619
 30
0.0
 11
-405.46915412347289
 21
1048.740101746816
 31
0.0
  0
LINE
  5
139
  8
NOTE
  6
CONTINUOUS
 62
     4
 10
-409.59974124500161
 20
1044.786291320585
 30
0.0
 11
-405.2612829312954
 21
1049.124749634291
 31
0.0
  0
LINE
  5
13A
  8
NOTE
  6
CONTINUOUS
 62
     4
 10
-409.94531138276682
 20
1044.617497878116
 30
0.0
 11
-405.09248948882708
 21
1049.470319772056
 31
0.0
  0
LINE
  5
13B
  8
NOTE
  6
CONTINUOUS
 62
     4
 10
-410.26318035356047
 20
1044.476405602619
 30
0.0
 11
-404.9513972133301
 21
1049.78818874285
 31
0.0
  0
LINE
  5
13C
  8
NOTE
  6
CONTINUOUS
 62
     4
 10
-410.5600138747123
 20
1044.356348776764
 30
0.0
 11
-404.83134038747488
 21
1050.0850222640011
 31
0.0
  0
LINE
  5
13D
  8
NOTE
  6
CONTINUOUS
 62
     4
 10
-410.84011929526372
 20
1044.2530200515091
 30
0.0
 11
-404.72801166222001
 21
1050.365127684553
 31
0.0
  0
LINE
  5
13E
  8
NOTE
  6
CONTINUOUS
 62
     4
 10
-411.1064729787937
 20
1044.163443063276
 30
0.0
 11
-404.63843467398692
 21
1050.6314813680831
 31
0.0
  0
LINE
  5
13F
  8
NOTE
  6
CONTINUOUS
 62
     4
 10
-411.36123477295189
 20
1044.085457964414
 30
0.0
 11
-404.56044957512512
 21
1050.886243162241
 31
0.0
  0
LINE
  5
140
  8
NOTE
  6
CONTINUOUS
 62
     4
 10
-411.60603172155442
 20
1044.017437711108
 30
0.0
 11
-404.49242932181909
 21
1051.131040110844
 31
0.0
  0
LINE
  5
141
  8
NOTE
  6
CONTINUOUS
 62
     4
 10
-411.84212622173879
 20
1043.9581199062211
 30
0.0
 11
-404.43311151693132
 21
1051.367134611028
 31
0.0
  0
LINE
  5
142
  8
NOTE
  6
CONTINUOUS
 62
     4
 10
-412.07052144802071
 20
1043.9065013752349
 30
0.0
 11
-404.38149298594629
 21
1051.5955298373101
 31
0.0
  0
LINE
  5
143
  8
NOTE
  6
CONTINUOUS
 62
     4
 10
-412.2920304927369
 20
1043.8617690258161
 30
0.0
 11
-404.33676063652678
 21
1051.8170388820261
 31
0.0
  0
LINE
  5
144
  8
NOTE
  6
CONTINUOUS
 62
     4
 10
-412.50732341993671
 20
1043.8232527939131
 30
0.0
 11
-404.29824440462318
 21
1052.032331809226
 31
0.0
  0
LINE
  5
145
  8
NOTE
  6
CONTINUOUS
 62
     4
 10
-412.71696029514152
 20
1043.790392614005
 30
0.0
 11
-404.2653842247156
 21
1052.241968684431
 31
0.0
  0
LINE
  5
146
  8
NOTE
  6
CONTINUOUS
 62
     4
 10
-412.92141498873508
 20
1043.7627146157081
 30
0.0
 11
-404.23770622641848
 21
1052.4464233780241
 31
0.0
  0
LINE
  5
147
  8
NOTE
  6
CONTINUOUS
 62
     4
 10
-413.12109272292662
 20
1043.739813576813
 30
0.0
 11
-404.21480518752389
 21
1052.646101112216
 31
0.0
  0
LINE
  5
148
  8
NOTE
  6
CONTINUOUS
 62
     4
 10
-413.31634326388399
 20
1043.7213397311521
 30
0.0
 11
-404.19633134186279
 21
1052.841351653173
 31
0.0
  0
LINE
  5
149
  8
NOTE
  6
CONTINUOUS
 62
     4
 10
-413.50747101276102
 20
1043.7069886775721
 30
0.0
 11
-404.18198028828232
 21
1053.0324794020501
 31
0.0
  0
LINE
  5
14A
  8
NOTE
  6
CONTINUOUS
 62
     4
 10
-413.69474284360922
 20
1043.6964935420201
 30
0.0
 11
-404.17148515273078
 21
1053.219751232898
 31
0.0
  0
LINE
  5
14B
  8
NOTE
  6
CONTINUOUS
 62
     4
 10
-413.8783942748563
 20
1043.68961880607
 30
0.0
 11
-404.16461041678048
 21
1053.403402664145
 31
0.0
  0
LINE
  5
14C
  8
NOTE
  6
CONTINUOUS
 62
     4
 10
-414.0586343884853
 20
1043.686155387737
 30
0.0
 11
-404.16114699844798
 21
1053.583642777774
 31
0.0
  0
LINE
  5
14D
  8
NOTE
  6
CONTINUOUS
 62
     4
 10
-414.23564979455591
 20
1043.685916676963
 30
0.0
 11
-404.16090828767432
 21
1053.760658183845
 31
0.0
  0
LINE
  5
14E
  8
NOTE
  6
CONTINUOUS
 62
     4
 10
-414.40960785847938
 20
1043.6887353083371
 30
0.0
 11
-404.16372691904741
 21
1053.9346162477691
 31
0.0
  0
LINE
  5
14F
  8
NOTE
  6
CONTINUOUS
 62
     4
 10
-414.58065935221771
 20
1043.694460509895
 30
0.0
 11
-404.16945212060608
 21
1054.105667741507
 31
0.0
  0
LINE
  5
150
  8
NOTE
  6
CONTINUOUS
 62
     4
 10
-414.74894065046902
 20
1043.7029559069399
 30
0.0
 11
-404.17794751765092
 21
1054.273949039758
 31
0.0
  0
LINE
  5
151
  8
NOTE
  6
CONTINUOUS
 62
     4
 10
-414.9145755639268
 20
1043.714097688779
 30
0.0
 11
-404.18908929948981
 21
1054.439583953216
 31
0.0
  0
LINE
  5
152
  8
NOTE
  6
CONTINUOUS
 62
     4
 10
-415.07767688040161
 20
1043.727773067601
 30
0.0
 11
-404.2027646783115
 21
1054.6026852696909
 31
0.0
  0
LINE
  5
153
  8
NOTE
  6
CONTINUOUS
 62
     4
 10
-415.23834766884391
 20
1043.7438789744549
 30
0.0
 11
-404.21887058516609
 21
1054.763356058133
 31
0.0
  0
LINE
  5
154
  8
NOTE
  6
CONTINUOUS
 62
     4
 10
-415.39668238941852
 20
1043.762320949176
 30
0.0
 11
-404.2373125598881
 21
1054.9216907787079
 31
0.0
  0
LINE
  5
155
  8
NOTE
  6
CONTINUOUS
 62
     4
 10
-415.55276784379538
 20
1043.783012190097
 30
0.0
 11
-404.25800380080773
 21
1055.077776233084
 31
0.0
  0
LINE
  5
156
  8
NOTE
  6
CONTINUOUS
 62
     4
 10
-415.70668399291458
 20
1043.8058727362741
 30
0.0
 11
-404.28086434698508
 21
1055.2316923822041
 31
0.0
  0
LINE
  5
157
  8
NOTE
  6
CONTINUOUS
 62
     4
 10
-415.85850466414382
 20
1043.830828760342
 30
0.0
 11
-404.30582037105239
 21
1055.383513053433
 31
0.0
  0
LINE
  5
158
  8
NOTE
  6
CONTINUOUS
 62
     4
 10
-416.00829816558371
 20
1043.857811954199
 30
0.0
 11
-404.33280356490928
 21
1055.533306554873
 31
0.0
  0
LINE
  5
159
  8
NOTE
  6
CONTINUOUS
 62
     4
 10
-416.15612782198878
 20
1043.8867589930901
 30
0.0
 11
-404.36175060380089
 21
1055.681136211278
 31
0.0
  0
LINE
  5
15A
  8
NOTE
  6
CONTINUOUS
 62
     4
 10
-416.30205244418482
 20
1043.9176110661911
 30
0.0
 11
-404.39260267690128
 21
1055.827060833474
 31
0.0
  0
LINE
  5
15B
  8
NOTE
  6
CONTINUOUS
 62
     4
 10
-416.44612674177819
 20
1043.950313463894
 30
0.0
 11
-404.42530507460481
 21
1055.9711351310671
 31
0.0
  0
LINE
  5
15C
  8
NOTE
  6
CONTINUOUS
 62
     4
 10
-416.5884016872929
 20
1043.984815213676
 30
0.0
 11
-404.45980682438659
 21
1056.1134100765821
 31
0.0
  0
LINE
  5
15D
  8
NOTE
  6
CONTINUOUS
 62
     4
 10
-416.72892483852229
 20
1044.021068757743
 30
0.0
 11
-404.49606036845421
 21
1056.253933227812
 31
0.0
  0
LINE
  5
15E
  8
NOTE
  6
CONTINUOUS
 62
     4
 10
-416.86774062477912
 20
1044.0590296667831
 30
0.0
 11
-404.53402127749399
 21
1056.3927490140679
 31
0.0
  0
LINE
  5
15F
  8
NOTE
  6
CONTINUOUS
 62
     4
 10
-417.00489060184287
 20
1044.0986563850161
 30
0.0
 11
-404.57364799572628
 21
1056.5298989911321
 31
0.0
  0
LINE
  5
160
  8
NOTE
  6
CONTINUOUS
 62
     4
 10
-417.14041367965569
 20
1044.1399100025001
 30
0.0
 11
-404.61490161321052
 21
1056.665422068945
 31
0.0
  0
LINE
  5
161
  8
NOTE
  6
CONTINUOUS
 62
     4
 10
-417.27434632620719
 20
1044.182754051244
 30
0.0
 11
-404.65774566195552
 21
1056.799354715497
 31
0.0
  0
LINE
  5
162
  8
NOTE
  6
CONTINUOUS
 62
     4
 10
-417.40672275055812
 20
1044.22715432219
 30
0.0
 11
-404.70214593290149
 21
1056.931731139847
 31
0.0
  0
LINE
  5
163
  8
NOTE
  6
CONTINUOUS
 62
     4
 10
-417.53757506750571
 20
1044.2730787005401
 30
0.0
 11
-404.7480703112505
 21
1057.062583456795
 31
0.0
  0
LINE
  5
164
  8
NOTE
  6
CONTINUOUS
 62
     4
 10
-417.66693344606489
 20
1044.3204970172769
 30
0.0
 11
-404.79548862798782
 21
1057.1919418353541
 31
0.0
  0
LINE
  5
165
  8
NOTE
  6
CONTINUOUS
 62
     4
 10
-417.7948262436222
 20
1044.3693809150161
 30
0.0
 11
-404.84437252572712
 21
1057.31983463291
 31
0.0
  0
LINE
  5
166
  8
NOTE
  6
CONTINUOUS
 62
     4
 10
-417.9212801273768
 20
1044.4197037265581
 30
0.0
 11
-404.8946953372689
 21
1057.4462885166661
 31
0.0
  0
LINE
  5
167
  8
NOTE
  6
CONTINUOUS
 62
     4
 10
-418.04632018447359
 20
1044.4714403647581
 30
0.0
 11
-404.94643197546878
 21
1057.5713285737629
 31
0.0
  0
LINE
  5
168
  8
NOTE
  6
CONTINUOUS
 62
     4
 10
-418.16997002203669
 20
1044.5245672224919
 30
0.0
 11
-404.99955883320308
 21
1057.694978411326
 31
0.0
  0
LINE
  5
169
  8
NOTE
  6
CONTINUOUS
 62
     4
 10
-418.29225185817711
 20
1044.579062081647
 30
0.0
 11
-405.05405369235842
 21
1057.817260247466
 31
0.0
  0
LINE
  5
16A
  8
NOTE
  6
CONTINUOUS
 62
     4
 10
-418.41318660490089
 20
1044.63490403022
 30
0.0
 11
-405.10989564093171
 21
1057.9381949941901
 31
0.0
  0
LINE
  5
16B
  8
NOTE
  6
CONTINUOUS
 62
     4
 10
-418.53279394372561
 20
1044.692073386693
 30
0.0
 11
-405.16706499740337
 21
1058.057802333014
 31
0.0
  0
LINE
  5
16C
  8
NOTE
  6
CONTINUOUS
 62
     4
 10
-418.65109239474049
 20
1044.7505516309741
 30
0.0
 11
-405.22554324168539
 21
1058.17610078403
 31
0.0
  0
LINE
  5
16D
  8
NOTE
  6
CONTINUOUS
 62
     4
 10
-418.76809937972342
 20
1044.810321341288
 30
0.0
 11
-405.285312951999
 21
1058.293107769013
 31
0.0
  0
LINE
  5
16E
  8
NOTE
  6
CONTINUOUS
 62
     4
 10
-418.88383127988919
 20
1044.8713661364191
 30
0.0
 11
-405.34635774712962
 21
1058.4088396691791
 31
0.0
  0
LINE
  5
16F
  8
NOTE
  6
CONTINUOUS
 62
     4
 10
-418.99830348875162
 20
1044.933670622853
 30
0.0
 11
-405.4086622335638
 21
1058.5233118780411
 31
0.0
  0
LINE
  5
170
  8
NOTE
  6
CONTINUOUS
 62
     4
 10
-419.11153046054358
 20
1044.9972203463581
 30
0.0
 11
-405.47221195706879
 21
1058.636538849833
 31
0.0
  0
LINE
  5
171
  8
NOTE
  6
CONTINUOUS
 62
     4
 10
-419.22352575458251
 20
1045.0620017476151
 30
0.0
 11
-405.5369933583263
 21
1058.7485341438719
 31
0.0
  0
LINE
  5
172
  8
NOTE
  6
CONTINUOUS
 62
     4
 10
-419.3343020759263
 20
1045.128002121568
 30
0.0
 11
-405.60299373227929
 21
1058.8593104652159
 31
0.0
  0
LINE
  5
173
  8
NOTE
  6
CONTINUOUS
 62
     4
 10
-419.44387131262721
 20
1045.1952095801639
 30
0.0
 11
-405.67020119087499
 21
1058.968879701916
 31
0.0
  0
LINE
  5
174
  8
NOTE
  6
CONTINUOUS
 62
     4
 10
-419.55224456985962
 20
1045.2636130182291
 30
0.0
 11
-405.73860462893953
 21
1059.0772529591491
 31
0.0
  0
LINE
  5
175
  8
NOTE
  6
CONTINUOUS
 62
     4
 10
-419.65943220116361
 20
1045.3332020822211
 30
0.0
 11
-405.80819369293192
 21
1059.1844405904531
 31
0.0
  0
LINE
  5
176
  8
NOTE
  6
CONTINUOUS
 62
     4
 10
-419.76544383702549
 20
1045.403967141656
 30
0.0
 11
-405.87895875236671
 21
1059.290452226315
 31
0.0
  0
LINE
  5
177
  8
NOTE
  6
CONTINUOUS
 62
     4
 10
-419.87028841098697
 20
1045.4758992629911
 30
0.0
 11
-405.95089087370172
 21
1059.3952968002759
 31
0.0
  0
LINE
  5
178
  8
NOTE
  6
CONTINUOUS
 62
     4
 10
-419.97397418345992
 20
1045.548990185815
 30
0.0
 11
-406.02398179652562
 21
1059.498982572748
 31
0.0
  0
LINE
  5
179
  8
NOTE
  6
CONTINUOUS
 62
     4
 10
-420.07650876339778
 20
1045.623232301172
 30
0.0
 11
-406.09822391188408
 21
1059.601517152686
 31
0.0
  0
LINE
  5
17A
  8
NOTE
  6
CONTINUOUS
 62
     4
 10
-420.177899127969
 20
1045.6986186318991
 30
0.0
 11
-406.17361024260981
 21
1059.7029075172579
 31
0.0
  0
LINE
  5
17B
  8
NOTE
  6
CONTINUOUS
 62
     4
 10
-420.27815164034479
 20
1045.7751428148199
 30
0.0
 11
-406.2501344255304
 21
1059.803160029634
 31
0.0
  0
LINE
  5
17C
  8
NOTE
  6
CONTINUOUS
 62
     4
 10
-420.37727206572282
 20
1045.8527990847381
 30
0.0
 11
-406.32779069544921
 21
1059.902280455012
 31
0.0
  0
LINE
  5
17D
  8
NOTE
  6
CONTINUOUS
 62
     4
 10
-420.47526558567199
 20
1045.9315822600861
 30
0.0
 11
-406.40657387079671
 21
1060.00027397496
 31
0.0
  0
LINE
  5
17E
  8
NOTE
  6
CONTINUOUS
 62
     4
 10
-420.57213681089269
 20
1046.0114877301619
 30
0.0
 11
-406.48647934087251
 21
1060.097145200182
 31
0.0
  0
LINE
  5
17F
  8
NOTE
  6
CONTINUOUS
 62
     4
 10
-420.66788979246201
 20
1046.092511443889
 30
0.0
 11
-406.56750305460002
 21
1060.19289818175
 31
0.0
  0
LINE
  5
180
  8
NOTE
  6
CONTINUOUS
 62
     4
 10
-420.7625280316293
 20
1046.174649900018
 30
0.0
 11
-406.64964151072923
 21
1060.2875364209181
 31
0.0
  0
LINE
  5
181
  8
NOTE
  6
CONTINUOUS
 62
     4
 10
-420.85605448822281
 20
1046.2579001387221
 30
0.0
 11
-406.73289174943272
 21
1060.381062877512
 31
0.0
  0
LINE
  5
182
  8
NOTE
  6
CONTINUOUS
 62
     4
 10
-420.94847158770551
 20
1046.342259734535
 30
0.0
 11
-406.81725134524652
 21
1060.473479976994
 31
0.0
  0
LINE
  5
183
  8
NOTE
  6
CONTINUOUS
 62
     4
 10
-421.03978122693218
 20
1046.427726790605
 30
0.0
 11
-406.90271840131618
 21
1060.564789616222
 31
0.0
  0
LINE
  5
184
  8
NOTE
  6
CONTINUOUS
 62
     4
 10
-421.1299847786288
 20
1046.514299934204
 30
0.0
 11
-406.98929154491628
 21
1060.6549931679181
 31
0.0
  0
LINE
  5
185
  8
NOTE
  6
CONTINUOUS
 62
     4
 10
-421.21908309462231
 20
1046.601978313508
 30
0.0
 11
-407.07696992421921
 21
1060.7440914839119
 31
0.0
  0
LINE
  5
186
  8
NOTE
  6
CONTINUOUS
 62
     4
 10
-421.30707650784541
 20
1046.690761595582
 30
0.0
 11
-407.16575320629278
 21
1060.832084897135
 31
0.0
  0
LINE
  5
187
  8
NOTE
  6
CONTINUOUS
 62
     4
 10
-421.39396483311373
 20
1046.7806499656101
 30
0.0
 11
-407.25564157632112
 21
1060.9189732224031
 31
0.0
  0
LINE
  5
188
  8
NOTE
  6
CONTINUOUS
 62
     4
 10
-421.47974736669471
 20
1046.8716441273259
 30
0.0
 11
-407.34663573803681
 21
1061.004755755984
 31
0.0
  0
LINE
  5
189
  8
NOTE
  6
CONTINUOUS
 62
     4
 10
-421.56442288465269
 20
1046.9637453046651
 30
0.0
 11
-407.43873691537561
 21
1061.089431273942
 31
0.0
  0
LINE
  5
18A
  8
NOTE
  6
CONTINUOUS
 62
     4
 10
-421.64798963997163
 20
1047.056955244642
 30
0.0
 11
-407.5319468553534
 21
1061.172998029261
 31
0.0
  0
LINE
  5
18B
  8
NOTE
  6
CONTINUOUS
 62
     4
 10
-421.73044535843093
 20
1047.15127622148
 30
0.0
 11
-407.62626783219048
 21
1061.2554537477199
 31
0.0
  0
LINE
  5
18C
  8
NOTE
  6
CONTINUOUS
 62
     4
 10
-421.81178723321972
 20
1047.246711041988
 30
0.0
 11
-407.72170265269853
 21
1061.336795622509
 31
0.0
  0
LINE
  5
18D
  8
NOTE
  6
CONTINUOUS
 62
     4
 10
-421.89201191825151
 20
1047.343263052253
 30
0.0
 11
-407.81825466296328
 21
1061.417020307541
 31
0.0
  0
LINE
  5
18E
  8
NOTE
  6
CONTINUOUS
 62
     4
 10
-421.97111552014911
 20
1047.4409361456519
 30
0.0
 11
-407.91592775636201
 21
1061.4961239094389
 31
0.0
  0
LINE
  5
18F
  8
NOTE
  6
CONTINUOUS
 62
     4
 10
-422.0490935888505
 20
1047.5397347722469
 30
0.0
 11
-408.01472638295752
 21
1061.5741019781401
 31
0.0
  0
LINE
  5
190
  8
NOTE
  6
CONTINUOUS
 62
     4
 10
-422.1259411067814
 20
1047.639663949612
 30
0.0
 11
-408.1146555603234
 21
1061.650949496071
 31
0.0
  0
LINE
  5
191
  8
NOTE
  6
CONTINUOUS
 62
     4
 10
-422.20165247653603
 20
1047.740729275155
 30
0.0
 11
-408.21572088586521
 21
1061.726660865824
 31
0.0
  0
LINE
  5
192
  8
NOTE
  6
CONTINUOUS
 62
     4
 10
-422.27622150699108
 20
1047.842936939996
 30
0.0
 11
-408.31792855070682
 21
1061.8012298962799
 31
0.0
  0
LINE
  5
193
  8
NOTE
  6
CONTINUOUS
 62
     4
 10
-422.34964139777162
 20
1047.9462937445121
 30
0.0
 11
-408.42128535522312
 21
1061.8746497870609
 31
0.0
  0
LINE
  5
194
  8
NOTE
  6
CONTINUOUS
 62
     4
 10
-422.42190472197399
 20
1048.0508071156059
 30
0.0
 11
-408.52579872631719
 21
1061.946913111263
 31
0.0
  0
LINE
  5
195
  8
NOTE
  6
CONTINUOUS
 62
     4
 10
-422.49300340704542
 20
1048.156485125832
 30
0.0
 11
-408.63147673654248
 21
1062.018011796335
 31
0.0
  0
LINE
  5
196
  8
NOTE
  6
CONTINUOUS
 62
     4
 10
-422.56292871369311
 20
1048.26333651448
 30
0.0
 11
-408.73832812519129
 21
1062.0879371029821
 31
0.0
  0
LINE
  5
197
  8
NOTE
  6
CONTINUOUS
 62
     4
 10
-422.6316712126968
 20
1048.371370710772
 30
0.0
 11
-408.84636232148449
 21
1062.1566796019861
 31
0.0
  0
LINE
  5
198
  8
NOTE
  6
CONTINUOUS
 62
     4
 10
-422.6992207594696
 20
1048.4805978592969
 30
0.0
 11
-408.95558947000802
 21
1062.2242291487589
 31
0.0
  0
LINE
  5
199
  8
NOTE
  6
CONTINUOUS
 62
     4
 10
-422.76556646620281
 20
1048.591028847861
 30
0.0
 11
-409.06602045857159
 21
1062.290574855492
 31
0.0
  0
LINE
  5
19A
  8
NOTE
  6
CONTINUOUS
 62
     4
 10
-422.83069667140052
 20
1048.70267533796
 30
0.0
 11
-409.17766694867089
 21
1062.3557050606901
 31
0.0
  0
LINE
  5
19B
  8
NOTE
  6
CONTINUOUS
 62
     4
 10
-422.89459890659907
 20
1048.8155497980581
 30
0.0
 11
-409.29054140876849
 21
1062.4196072958889
 31
0.0
  0
LINE
  5
19C
  8
NOTE
  6
CONTINUOUS
 62
     4
 10
-422.95725986003163
 20
1048.9296655399221
 30
0.0
 11
-409.4046571506326
 21
1062.48226824932
 31
0.0
  0
LINE
  5
19D
  8
NOTE
  6
CONTINUOUS
 62
     4
 10
-423.01866533697108
 20
1049.0450367582789
 30
0.0
 11
-409.52002836898959
 21
1062.5436737262601
 31
0.0
  0
LINE
  5
19E
  8
NOTE
  6
CONTINUOUS
 62
     4
 10
-423.07880021645559
 20
1049.161678574091
 30
0.0
 11
-409.63667018480203
 21
1062.603808605744
 31
0.0
  0
LINE
  5
19F
  8
NOTE
  6
CONTINUOUS
 62
     4
 10
-423.1376484040635
 20
1049.2796070817799
 30
0.0
 11
-409.75459869249079
 21
1062.6626567933531
 31
0.0
  0
LINE
  5
1A0
  8
NOTE
  6
CONTINUOUS
 62
     4
 10
-423.19519278035762
 20
1049.398839400782
 30
0.0
 11
-409.87383101149311
 21
1062.720201169647
 31
0.0
  0
LINE
  5
1A1
  8
NOTE
  6
CONTINUOUS
 62
     4
 10
-423.25141514458079
 20
1049.5193937318561
 30
0.0
 11
-409.99438534256672
 21
1062.77642353387
 31
0.0
  0
LINE
  5
1A2
  8
NOTE
  6
CONTINUOUS
 62
     4
 10
-423.30629615312142
 20
1049.6412894186119
 30
0.0
 11
-410.11628102932298
 21
1062.83130454241
 31
0.0
  0
LINE
  5
1A3
  8
NOTE
  6
CONTINUOUS
 62
     4
 10
-423.35981525220961
 20
1049.76454701482
 30
0.0
 11
-410.23953862553111
 21
1062.884823641499
 31
0.0
  0
LINE
  5
1A4
  8
NOTE
  6
CONTINUOUS
 62
     4
 10
-423.41195060423968
 20
1049.889188358087
 30
0.0
 11
-410.3641799687976
 21
1062.9369589935291
 31
0.0
  0
LINE
  5
1A5
  8
NOTE
  6
CONTINUOUS
 62
     4
 10
-423.46267900701753
 20
1050.0152366506061
 30
0.0
 11
-410.49022826131647
 21
1062.987687396306
 31
0.0
  0
LINE
  5
1A6
  8
NOTE
  6
CONTINUOUS
 62
     4
 10
-423.51197580515452
 20
1050.1427165477651
 30
0.0
 11
-410.61770815847609
 21
1063.0369841944439
 31
0.0
  0
LINE
  5
1A7
  8
NOTE
  6
CONTINUOUS
 62
     4
 10
-423.55981479270758
 20
1050.271654255509
 30
0.0
 11
-410.74664586621992
 21
1063.0848231819971
 31
0.0
  0
LINE
  5
1A8
  8
NOTE
  6
CONTINUOUS
 62
     4
 10
-423.60616810604353
 20
1050.40207763747
 30
0.0
 11
-410.87706924818059
 21
1063.131176495333
 31
0.0
  0
LINE
  5
1A9
  8
NOTE
  6
CONTINUOUS
 62
     4
 10
-423.65100610575593
 20
1050.5340163330541
 30
0.0
 11
-411.0090079437648
 21
1063.176014495044
 31
0.0
  0
LINE
  5
1AA
  8
NOTE
  6
CONTINUOUS
 62
     4
 10
-423.69429724628952
 20
1050.667501887817
 30
0.0
 11
-411.1424934985281
 21
1063.2193056355791
 31
0.0
  0
LINE
  5
1AB
  8
NOTE
  6
CONTINUOUS
 62
     4
 10
-423.73600793172341
 20
1050.8025678976801
 30
0.0
 11
-411.27755950839042
 21
1063.261016321012
 31
0.0
  0
LINE
  5
1AC
  8
NOTE
  6
CONTINUOUS
 62
     4
 10
-423.77610235592613
 20
1050.939250168773
 30
0.0
 11
-411.41424177948431
 21
1063.301110745216
 31
0.0
  0
LINE
  5
1AD
  8
NOTE
  6
CONTINUOUS
 62
     4
 10
-423.81454232500568
 20
1051.0775868949911
 30
0.0
 11
-411.55257850570149
 21
1063.339550714295
 31
0.0
  0
LINE
  5
1AE
  8
NOTE
  6
CONTINUOUS
 62
     4
 10
-423.85128705965201
 20
1051.2176188556409
 30
0.0
 11
-411.69261046635188
 21
1063.37629544894
 31
0.0
  0
LINE
  5
1AF
  8
NOTE
  6
CONTINUOUS
 62
     4
 10
-423.88629297455668
 20
1051.359389636033
 30
0.0
 11
-411.83438124674359
 21
1063.411301363846
 31
0.0
  0
LINE
  5
1B0
  8
NOTE
  6
CONTINUOUS
 62
     4
 10
-423.91951343162191
 20
1051.502945874264
 30
0.0
 11
-411.9779374849752
 21
1063.44452182091
 31
0.0
  0
LINE
  5
1B1
  8
NOTE
  6
CONTINUOUS
 62
     4
 10
-423.95089846308628
 20
1051.6483375380969
 30
0.0
 11
-412.12332914880761
 21
1063.475906852374
 31
0.0
  0
LINE
  5
1B2
  8
NOTE
  6
CONTINUOUS
 62
     4
 10
-423.9803944600045
 20
1051.7956182364751
 30
0.0
 11
-412.27060984718571
 21
1063.5054028492939
 31
0.0
  0
LINE
  5
1B3
  8
NOTE
  6
CONTINUOUS
 62
     4
 10
-424.00794382066391
 20
1051.9448455711131
 30
0.0
 11
-412.4198371818236
 21
1063.532952209953
 31
0.0
  0
LINE
  5
1B4
  8
NOTE
  6
CONTINUOUS
 62
     4
 10
-424.03348455248681
 20
1052.0960815345859
 30
0.0
 11
-412.57107314529679
 21
1063.558492941776
 31
0.0
  0
LINE
  5
1B5
  8
NOTE
  6
CONTINUOUS
 62
     4
 10
-424.05694981970248
 20
1052.2493929626669
 30
0.0
 11
-412.72438457337768
 21
1063.5819582089921
 31
0.0
  0
LINE
  5
1B6
  8
NOTE
  6
CONTINUOUS
 62
     4
 10
-424.07826742749728
 20
1052.404852050169
 30
0.0
 11
-412.87984366087949
 21
1063.6032758167869
 31
0.0
  0
LINE
  5
1B7
  8
NOTE
  6
CONTINUOUS
 62
     4
 10
-424.09735923140772
 20
1052.562536941555
 30
0.0
 11
-413.03752855226611
 21
1063.6223676206971
 31
0.0
  0
LINE
  5
1B8
  8
NOTE
  6
CONTINUOUS
 62
     4
 10
-424.11414045828832
 20
1052.7225324099711
 30
0.0
 11
-413.19752402068201
 21
1063.639148847577
 31
0.0
  0
LINE
  5
1B9
  8
NOTE
  6
CONTINUOUS
 62
     4
 10
-424.12851892211518
 20
1052.8849306414411
 30
0.0
 11
-413.3599222521517
 21
1063.653527311405
 31
0.0
  0
LINE
  5
1BA
  8
NOTE
  6
CONTINUOUS
 62
     4
 10
-424.14039411399921
 20
1053.0498321448531
 30
0.0
 11
-413.52482375556389
 21
1063.665402503289
 31
0.0
  0
LINE
  5
1BB
  8
NOTE
  6
CONTINUOUS
 62
     4
 10
-424.14965614081399
 20
1053.2173468133351
 30
0.0
 11
-413.69233842404623
 21
1063.674664530103
 31
0.0
  0
LINE
  5
1BC
  8
NOTE
  6
CONTINUOUS
 62
     4
 10
-424.15618448043091
 20
1053.387595169015
 30
0.0
 11
-413.8625867797258
 21
1063.68119286972
 31
0.0
  0
LINE
  5
1BD
  8
NOTE
  6
CONTINUOUS
 62
     4
 10
-424.15984651322282
 20
1053.5607098315199
 30
0.0
 11
-414.03570144223039
 21
1063.6848549025119
 31
0.0
  0
LINE
  5
1BE
  8
NOTE
  6
CONTINUOUS
 62
     4
 10
-424.16049577853829
 20
1053.736837261501
 30
0.0
 11
-414.21182887221192
 21
1063.685504167827
 31
0.0
  0
LINE
  5
1BF
  8
NOTE
  6
CONTINUOUS
 62
     4
 10
-424.1579698903231
 20
1053.916139845013
 30
0.0
 11
-414.39113145572372
 21
1063.6829782796119
 31
0.0
  0
LINE
  5
1C0
  8
NOTE
  6
CONTINUOUS
 62
     4
 10
-424.15208802655229
 20
1054.0987984040801
 30
0.0
 11
-414.5737900147912
 21
1063.6770964158411
 31
0.0
  0
LINE
  5
1C1
  8
NOTE
  6
CONTINUOUS
 62
     4
 10
-424.14264788062371
 20
1054.2850152453061
 30
0.0
 11
-414.76000685601639
 21
1063.6676562699131
 31
0.0
  0
LINE
  5
1C2
  8
NOTE
  6
CONTINUOUS
 62
     4
 10
-424.1294219263691
 20
1054.4750178948559
 30
0.0
 11
-414.95000950556698
 21
1063.6544303156591
 31
0.0
  0
LINE
  5
1C3
  8
NOTE
  6
CONTINUOUS
 62
     4
 10
-424.11215279734228
 20
1054.66906371918
 30
0.0
 11
-415.14405532989082
 21
1063.6371611866309
 31
0.0
  0
LINE
  5
1C4
  8
NOTE
  6
CONTINUOUS
 62
     4
 10
-424.09054750866159
 20
1054.867445703157
 30
0.0
 11
-415.342437313868
 21
1063.615555897951
 31
0.0
  0
LINE
  5
1C5
  8
NOTE
  6
CONTINUOUS
 62
     4
 10
-424.06427014516282
 20
1055.070499761953
 30
0.0
 11
-415.54549137266361
 21
1063.589278534452
 31
0.0
  0
LINE
  5
1C6
  8
NOTE
  6
CONTINUOUS
 62
     4
 10
-424.03293248566979
 20
1055.278614116743
 30
0.0
 11
-415.75360572745319
 21
1063.5579408749591
 31
0.0
  0
LINE
  5
1C7
  8
NOTE
  6
CONTINUOUS
 62
     4
 10
-423.99608180160561
 20
1055.492241496102
 30
0.0
 11
-415.96723310681421
 21
1063.521090190894
 31
0.0
  0
LINE
  5
1C8
  8
NOTE
  6
CONTINUOUS
 62
     4
 10
-423.95318471124563
 20
1055.71191528176
 30
0.0
 11
-416.18690689247069
 21
1063.478193100535
 31
0.0
  0
LINE
  5
1C9
  8
NOTE
  6
CONTINUOUS
 62
     4
 10
-423.9036054057018
 20
1055.9382712826
 30
0.0
 11
-416.41326289331118
 21
1063.428613794991
 31
0.0
  0
LINE
  5
1CA
  8
NOTE
  6
CONTINUOUS
 62
     4
 10
-423.8465756396447
 20
1056.1720777439541
 30
0.0
 11
-416.64706935466478
 21
1063.371584028934
 31
0.0
  0
LINE
  5
1CB
  8
NOTE
  6
CONTINUOUS
 62
     4
 10
-423.78115231782618
 20
1056.414277761068
 30
0.0
 11
-416.88926937178007
 21
1063.3061607071149
 31
0.0
  0
LINE
  5
1CC
  8
NOTE
  6
CONTINUOUS
 62
     4
 10
-423.70615575466519
 20
1056.666051019527
 30
0.0
 11
-417.14104263023791
 21
1063.2311641439539
 31
0.0
  0
LINE
  5
1CD
  8
NOTE
  6
CONTINUOUS
 62
     4
 10
-423.62007658849711
 20
1056.928906880991
 30
0.0
 11
-417.40389849170231
 21
1063.1450849777859
 31
0.0
  0
LINE
  5
1CE
  8
NOTE
  6
CONTINUOUS
 62
     4
 10
-423.52092934238681
 20
1057.204830822398
 30
0.0
 11
-417.67982243310939
 21
1063.0459377316761
 31
0.0
  0
LINE
  5
1CF
  8
NOTE
  6
CONTINUOUS
 62
     4
 10
-423.4060096107786
 20
1057.4965272493041
 30
0.0
 11
-417.97151886001433
 21
1062.931018000068
 31
0.0
  0
LINE
  5
1D0
  8
NOTE
  6
CONTINUOUS
 62
     4
 10
-423.27146358584088
 20
1057.807849969538
 30
0.0
 11
-418.28284158024883
 21
1062.7964719751301
 31
0.0
  0
LINE
  5
1D1
  8
NOTE
  6
CONTINUOUS
 62
     4
 10
-423.11145440349281
 20
1058.1446358471831
 30
0.0
 11
-418.6196274578931
 21
1062.6364627927819
 31
0.0
  0
LINE
  5
1D2
  8
NOTE
  6
CONTINUOUS
 62
     4
 10
-422.91633654390517
 20
1058.516530402067
 30
0.0
 11
-418.99152201277758
 21
1062.4413449331939
 31
0.0
  0
LINE
  5
1D3
  8
NOTE
  6
CONTINUOUS
 62
     4
 10
-422.66784284098082
 20
1058.9418008002881
 30
0.0
 11
-419.41679241099871
 21
1062.19285123027
 31
0.0
  0
LINE
  5
1D4
  8
NOTE
  6
CONTINUOUS
 62
     4
 10
-422.32150283843288
 20
1059.4649174981321
 30
0.0
 11
-419.9399091088431
 21
1061.8465112277231
 31
0.0
  0
LINE
  5
1D5
  8
NOTE
  6
CONTINUOUS
 62
     4
 10
-421.64103877478618
 20
1060.322158257075
 30
0.0
 11
-420.7971498677864
 21
1061.166047164076
 31
0.0
  0
LINE
  5
1D6
  8
NOTE
  6
CONTINUOUS
 62
     4
 10
-1032.7628875654871
 20
1455.860505618959
 30
0.0
 11
-758.02135201892531
 21
1455.860505618959
 31
0.0
  0
TEXT
  5
1D7
  8
NOTE
  6
CONTINUOUS
 62
     4
 10
-994.17494088285764
 20
1472.910947784118
 30
0.0
 40
64.0
  1
後吸込口
 50
0.0000029999976964
 41
0.659722
  7
STANDARD1
  0
LINE
  5
1D8
  8
DETAIL
  6
CONTINUOUS
 62
     5
 10
298.0000000000008
 20
874.15756595500989
 30
0.0
 11
298.0000000000008
 21
119.9999999999995
 31
0.0
  0
LINE
  5
1D9
  8
OUTLINE
  6
CONTINUOUS
 62
     3
 10
595.0000000000008
 20
-0.0000000000007958
 30
0.0
 11
-594.9999999999992
 21
-0.0000000000007958
 31
0.0
  0
LINE
  5
1DA
  8
OUTLINE
  6
CONTINUOUS
 62
     3
 10
-594.9999999999992
 20
1374.9999999999991
 30
0.0
 11
-594.9999999999992
 21
119.99999999999901
 31
0.0
  0
LINE
  5
1DB
  8
OUTLINE
  6
CONTINUOUS
 62
     3
 10
595.0000000000008
 20
1374.9999999999991
 30
0.0
 11
595.0000000000008
 21
119.99999999999901
 31
0.0
  0
LINE
  5
1DC
  8
OUTLINE
  6
CONTINUOUS
 62
     3
 10
595.0000000000008
 20
1374.9999999999991
 30
0.0
 11
-594.9999999999992
 21
1374.9999999999991
 31
0.0
  0
LINE
  5
1DD
  8
OUTLINE
  6
CONTINUOUS
 62
     3
 10
-464.99999999999881
 20
99.999999999999204
 30
0.0
 11
-574.9999999999992
 21
99.999999999999204
 31
0.0
  0
LINE
  5
1DE
  8
OUTLINE
  6
CONTINUOUS
 62
     3
 10
-464.99999999999881
 20
19.999999999999201
 30
0.0
 11
-574.9999999999992
 21
19.999999999999201
 31
0.0
  0
ARC
  5
1DF
  8
OUTLINE
  6
CONTINUOUS
 62
     3
 10
-464.99999999999881
 20
59.999999999999197
 30
0.0
 40
40.0
 50
270.0
 51
90.0
  0
ARC
  5
1E0
  8
OUTLINE
  6
CONTINUOUS
 62
     3
 10
-574.9999999999992
 20
119.99999999999901
 30
0.0
 40
20.0
 50
180.0
 51
270.0
  0
LINE
  5
1E1
  8
OUTLINE
  6
CONTINUOUS
 62
     3
 10
-594.9999999999992
 20
-0.0000000000007958
 30
0.0
 11
-594.9999999999992
 21
-0.0000000000007958
 31
0.0
  0
ARC
  5
1E2
  8
OUTLINE
  6
CONTINUOUS
 62
     3
 10
-574.9999999999992
 20
-0.0000000000007958
 30
0.0
 40
20.0
 50
90.0
 51
180.0
  0
LINE
  5
1E3
  8
OUTLINE
  6
CONTINUOUS
 62
     3
 10
465.0000000000008
 20
99.999999999999204
 30
0.0
 11
575.00000000000068
 21
99.999999999999204
 31
0.0
  0
LINE
  5
1E4
  8
OUTLINE
  6
CONTINUOUS
 62
     3
 10
465.0000000000008
 20
19.999999999999201
 30
0.0
 11
575.00000000000068
 21
19.999999999999201
 31
0.0
  0
ARC
  5
1E5
  8
OUTLINE
  6
CONTINUOUS
 62
     3
 10
465.0000000000008
 20
59.999999999999197
 30
0.0
 40
40.0
 50
89.999999999999986
 51
270.0
  0
ARC
  5
1E6
  8
OUTLINE
  6
CONTINUOUS
 62
     3
 10
575.00000000000068
 20
119.99999999999901
 30
0.0
 40
20.0
 50
270.0
 51
0.0
  0
ARC
  5
1E7
  8
OUTLINE
  6
CONTINUOUS
 62
     3
 10
575.00000000000068
 20
-0.0000000000007958
 30
0.0
 40
20.0
 50
0.0
 51
89.999999999999986
  0
LINE
  5
1E8
  8
NOTE
  6
CONTINUOUS
 62
     4
 10
-758.02135201892531
 20
954.08301336739191
 30
0.0
 11
-414.16062686169153
 21
551.90814299941485
 31
0.0
  0
CIRCLE
  5
1E9
  8
NOTE
  6
CONTINUOUS
 62
     4
 10
-414.16062686169153
 20
551.90814299941485
 30
0.0
 40
10.0
  0
LINE
  5
1EA
  8
NOTE
  6
CONTINUOUS
 62
     4
 10
-408.19784900115411
 20
543.88036122697713
 30
0.0
 11
-406.13284508925369
 21
545.94536513887726
 31
0.0
  0
LINE
  5
1EB
  8
NOTE
  6
CONTINUOUS
 62
     4
 10
-408.76861170386729
 20
543.4863752195605
 30
0.0
 11
-405.73885908183712
 21
546.51612784159079
 31
0.0
  0
LINE
  5
1EC
  8
NOTE
  6
CONTINUOUS
 62
     4
 10
-409.21509335752847
 20
543.21667026119599
 30
0.0
 11
-405.46915412347272
 21
546.96260949525185
 31
0.0
  0
LINE
  5
1ED
  8
NOTE
  6
CONTINUOUS
 62
     4
 10
-409.59974124500241
 20
543.00879906901866
 30
0.0
 11
-405.2612829312954
 21
547.34725738272596
 31
0.0
  0
LINE
  5
1EE
  8
NOTE
  6
CONTINUOUS
 62
     4
 10
-409.94531138276727
 20
542.84000562655035
 30
0.0
 11
-405.09248948882708
 21
547.69282752049048
 31
0.0
  0
LINE
  5
1EF
  8
NOTE
  6
CONTINUOUS
 62
     4
 10
-410.26318035356121
 20
542.69891335105319
 30
0.0
 11
-404.95139721332998
 21
548.01069649128465
 31
0.0
  0
LINE
  5
1F0
  8
NOTE
  6
CONTINUOUS
 62
     4
 10
-410.56001387471292
 20
542.57885652519815
 30
0.0
 11
-404.83134038747488
 21
548.30753001243625
 31
0.0
  0
LINE
  5
1F1
  8
NOTE
  6
CONTINUOUS
 62
     4
 10
-410.84011929526417
 20
542.47552779994351
 30
0.0
 11
-404.72801166222001
 21
548.58763543298755
 31
0.0
  0
LINE
  5
1F2
  8
NOTE
  6
CONTINUOUS
 62
     4
 10
-411.10647297879399
 20
542.38595081171025
 30
0.0
 11
-404.63843467398692
 21
548.85398911651725
 31
0.0
  0
LINE
  5
1F3
  8
NOTE
  6
CONTINUOUS
 62
     4
 10
-411.36123477295268
 20
542.3079657128485
 30
0.0
 11
-404.56044957512512
 21
549.10875091067601
 31
0.0
  0
LINE
  5
1F4
  8
NOTE
  6
CONTINUOUS
 62
     4
 10
-411.60603172155481
 20
542.2399454595427
 30
0.0
 11
-404.49242932181909
 21
549.35354785927825
 31
0.0
  0
LINE
  5
1F5
  8
NOTE
  6
CONTINUOUS
 62
     4
 10
-411.84212622173942
 20
542.18062765465481
 30
0.0
 11
-404.4331115169316
 21
549.58964235946269
 31
0.0
  0
LINE
  5
1F6
  8
NOTE
  6
CONTINUOUS
 62
     4
 10
-412.07052144802111
 20
542.12900912366979
 30
0.0
 11
-404.38149298594652
 21
549.81803758574461
 31
0.0
  0
LINE
  5
1F7
  8
NOTE
  6
CONTINUOUS
 62
     4
 10
-412.29203049273752
 20
542.08427677425027
 30
0.0
 11
-404.33676063652689
 21
550.03954663046079
 31
0.0
  0
LINE
  5
1F8
  8
NOTE
  6
CONTINUOUS
 62
     4
 10
-412.50732341993728
 20
542.0457605423469
 30
0.0
 11
-404.29824440462352
 21
550.25483955766083
 31
0.0
  0
LINE
  5
1F9
  8
NOTE
  6
CONTINUOUS
 62
     4
 10
-412.71696029514169
 20
542.01290036243881
 30
0.0
 11
-404.2653842247156
 21
550.46447643286513
 31
0.0
  0
LINE
  5
1FA
  8
NOTE
  6
CONTINUOUS
 62
     4
 10
-412.92141498873559
 20
541.98522236414203
 30
0.0
 11
-404.23770622641871
 21
550.6689311264588
 31
0.0
  0
LINE
  5
1FB
  8
NOTE
  6
CONTINUOUS
 62
     4
 10
-413.12109272292679
 20
541.96232132524722
 30
0.0
 11
-404.21480518752389
 21
550.86860886065006
 31
0.0
  0
LINE
  5
1FC
  8
NOTE
  6
CONTINUOUS
 62
     4
 10
-413.31634326388422
 20
541.94384747958645
 30
0.0
 11
-404.19633134186302
 21
551.0638594016076
 31
0.0
  0
LINE
  5
1FD
  8
NOTE
  6
CONTINUOUS
 62
     4
 10
-413.50747101276153
 20
541.92949642600581
 30
0.0
 11
-404.18198028828249
 21
551.25498715048468
 31
0.0
  0
LINE
  5
1FE
  8
NOTE
  6
CONTINUOUS
 62
     4
 10
-413.69474284360979
 20
541.91900129045405
 30
0.0
 11
-404.17148515273112
 21
551.44225898133311
 31
0.0
  0
LINE
  5
1FF
  8
NOTE
  6
CONTINUOUS
 62
     4
 10
-413.87839427485682
 20
541.91212655450386
 30
0.0
 11
-404.16461041678048
 21
551.62591041258008
 31
0.0
  0
LINE
  5
200
  8
NOTE
  6
CONTINUOUS
 62
     4
 10
-414.0586343884857
 20
541.9086631361713
 30
0.0
 11
-404.1611469984482
 21
551.80615052620885
 31
0.0
  0
LINE
  5
201
  8
NOTE
  6
CONTINUOUS
 62
     4
 10
-414.2356497945562
 20
541.90842442539758
 30
0.0
 11
-404.16090828767437
 21
551.98316593227969
 31
0.0
  0
LINE
  5
202
  8
NOTE
  6
CONTINUOUS
 62
     4
 10
-414.40960785848
 20
541.91124305677056
 30
0.0
 11
-404.16372691904741
 21
552.15712399620327
 31
0.0
  0
LINE
  5
203
  8
NOTE
  6
CONTINUOUS
 62
     4
 10
-414.58065935221771
 20
541.91696825832935
 30
0.0
 11
-404.16945212060608
 21
552.32817548994092
 31
0.0
  0
LINE
  5
204
  8
NOTE
  6
CONTINUOUS
 62
     4
 10
-414.74894065046942
 20
541.9254636553743
 30
0.0
 11
-404.17794751765109
 21
552.49645678819275
 31
0.0
  0
LINE
  5
205
  8
NOTE
  6
CONTINUOUS
 62
     4
 10
-414.91457556392709
 20
541.93660543721307
 30
0.0
 11
-404.18908929948992
 21
552.6620917016503
 31
0.0
  0
LINE
  5
206
  8
NOTE
  6
CONTINUOUS
 62
     4
 10
-415.07767688040201
 20
541.95028081603505
 30
0.0
 11
-404.20276467831201
 21
552.82519301812511
 31
0.0
  0
LINE
  5
207
  8
NOTE
  6
CONTINUOUS
 62
     4
 10
-415.23834766884409
 20
541.96638672288952
 30
0.0
 11
-404.21887058516609
 21
552.98586380656741
 31
0.0
  0
LINE
  5
208
  8
NOTE
  6
CONTINUOUS
 62
     4
 10
-415.3966823894188
 20
541.98482869761165
 30
0.0
 11
-404.2373125598881
 21
553.14419852714207
 31
0.0
  0
LINE
  5
209
  8
NOTE
  6
CONTINUOUS
 62
     4
 10
-415.552767843796
 20
542.00551993853105
 30
0.0
 11
-404.2580038008079
 21
553.30028398151921
 31
0.0
  0
LINE
  5
20A
  8
NOTE
  6
CONTINUOUS
 62
     4
 10
-415.70668399291469
 20
542.0283804847088
 30
0.0
 11
-404.28086434698548
 21
553.45420013063824
 31
0.0
  0
LINE
  5
20B
  8
NOTE
  6
CONTINUOUS
 62
     4
 10
-415.85850466414428
 20
542.05333650877606
 30
0.0
 11
-404.30582037105268
 21
553.60602080186754
 31
0.0
  0
LINE
  5
20C
  8
NOTE
  6
CONTINUOUS
 62
     4
 10
-416.00829816558422
 20
542.08031970263266
 30
0.0
 11
-404.33280356490951
 21
553.75581430330737
 31
0.0
  0
LINE
  5
20D
  8
NOTE
  6
CONTINUOUS
 62
     4
 10
-416.15612782198917
 20
542.10926674152415
 30
0.0
 11
-404.36175060380089
 21
553.90364395971267
 31
0.0
  0
LINE
  5
20E
  8
NOTE
  6
CONTINUOUS
 62
     4
 10
-416.30205244418522
 20
542.140118814625
 30
0.0
 11
-404.39260267690162
 21
554.04956858190849
 31
0.0
  0
LINE
  5
20F
  8
NOTE
  6
CONTINUOUS
 62
     4
 10
-416.44612674177841
 20
542.17282121232813
 30
0.0
 11
-404.42530507460481
 21
554.19364287950202
 31
0.0
  0
LINE
  5
210
  8
NOTE
  6
CONTINUOUS
 62
     4
 10
-416.58840168729353
 20
542.20732296210997
 30
0.0
 11
-404.45980682438682
 21
554.33591782501674
 31
0.0
  0
LINE
  5
211
  8
NOTE
  6
CONTINUOUS
 62
     4
 10
-416.72892483852252
 20
542.24357650617753
 30
0.0
 11
-404.49606036845421
 21
554.47644097624607
 31
0.0
  0
LINE
  5
212
  8
NOTE
  6
CONTINUOUS
 62
     4
 10
-416.86774062477929
 20
542.28153741521737
 30
0.0
 11
-404.53402127749422
 21
554.61525676250255
 31
0.0
  0
LINE
  5
213
  8
NOTE
  6
CONTINUOUS
 62
     4
 10
-417.00489060184327
 20
542.32116413345011
 30
0.0
 11
-404.57364799572679
 21
554.75240673956682
 31
0.0
  0
LINE
  5
214
  8
NOTE
  6
CONTINUOUS
 62
     4
 10
-417.14041367965621
 20
542.36241775093379
 30
0.0
 11
-404.61490161321058
 21
554.88792981737924
 31
0.0
  0
LINE
  5
215
  8
NOTE
  6
CONTINUOUS
 62
     4
 10
-417.27434632620759
 20
542.40526179967901
 30
0.0
 11
-404.65774566195569
 21
555.02186246393103
 31
0.0
  0
LINE
  5
216
  8
NOTE
  6
CONTINUOUS
 62
     4
 10
-417.4067227505584
 20
542.44966207062521
 30
0.0
 11
-404.70214593290171
 21
555.15423888828172
 31
0.0
  0
LINE
  5
217
  8
NOTE
  6
CONTINUOUS
 62
     4
 10
-417.537575067506
 20
542.49558644897388
 30
0.0
 11
-404.74807031125061
 21
555.28509120522915
 31
0.0
  0
LINE
  5
218
  8
NOTE
  6
CONTINUOUS
 62
     4
 10
-417.66693344606517
 20
542.5430047657112
 30
0.0
 11
-404.79548862798799
 21
555.41444958378872
 31
0.0
  0
LINE
  5
219
  8
NOTE
  6
CONTINUOUS
 62
     4
 10
-417.79482624362259
 20
542.59188866345028
 30
0.0
 11
-404.84437252572712
 21
555.54234238134575
 31
0.0
  0
LINE
  5
21A
  8
NOTE
  6
CONTINUOUS
 62
     4
 10
-417.92128012737749
 20
542.64221147499245
 30
0.0
 11
-404.8946953372689
 21
555.6687962651007
 31
0.0
  0
LINE
  5
21B
  8
NOTE
  6
CONTINUOUS
 62
     4
 10
-418.04632018447398
 20
542.69394811319273
 30
0.0
 11
-404.9464319754693
 21
555.79383632219731
 31
0.0
  0
LINE
  5
21C
  8
NOTE
  6
CONTINUOUS
 62
     4
 10
-418.16997002203658
 20
542.74707497092641
 30
0.0
 11
-404.99955883320308
 21
555.91748615975985
 31
0.0
  0
LINE
  5
21D
  8
NOTE
  6
CONTINUOUS
 62
     4
 10
-418.29225185817762
 20
542.80156983008214
 30
0.0
 11
-405.05405369235882
 21
556.039767995901
 31
0.0
  0
LINE
  5
21E
  8
NOTE
  6
CONTINUOUS
 62
     4
 10
-418.41318660490123
 20
542.85741177865521
 30
0.0
 11
-405.109895640932
 21
556.16070274262461
 31
0.0
  0
LINE
  5
21F
  8
NOTE
  6
CONTINUOUS
 62
     4
 10
-418.53279394372618
 20
542.91458113512704
 30
0.0
 11
-405.1670649974036
 21
556.28031008144944
 31
0.0
  0
LINE
  5
220
  8
NOTE
  6
CONTINUOUS
 62
     4
 10
-418.65109239474072
 20
542.97305937940894
 30
0.0
 11
-405.22554324168539
 21
556.39860853246375
 31
0.0
  0
LINE
  5
221
  8
NOTE
  6
CONTINUOUS
 62
     4
 10
-418.76809937972382
 20
543.03282908972255
 30
0.0
 11
-405.28531295199917
 21
556.51561551744715
 31
0.0
  0
LINE
  5
222
  8
NOTE
  6
CONTINUOUS
 62
     4
 10
-418.88383127988971
 20
543.09387388485334
 30
0.0
 11
-405.3463577471299
 21
556.63134741761269
 31
0.0
  0
LINE
  5
223
  8
NOTE
  6
CONTINUOUS
 62
     4
 10
-418.99830348875207
 20
543.15617837128752
 30
0.0
 11
-405.4086622335642
 21
556.7458196264754
 31
0.0
  0
LINE
  5
224
  8
NOTE
  6
CONTINUOUS
 62
     4
 10
-419.11153046054392
 20
543.21972809479223
 30
0.0
 11
-405.47221195706879
 21
556.85904659826735
 31
0.0
  0
LINE
  5
225
  8
NOTE
  6
CONTINUOUS
 62
     4
 10
-419.22352575458308
 20
543.28450949605008
 30
0.0
 11
-405.53699335832641
 21
556.97104189230629
 31
0.0
  0
LINE
  5
226
  8
NOTE
  6
CONTINUOUS
 62
     4
 10
-419.33430207592647
 20
543.35050987000295
 30
0.0
 11
-405.60299373227957
 21
557.08181821364985
 31
0.0
  0
LINE
  5
227
  8
NOTE
  6
CONTINUOUS
 62
     4
 10
-419.44387131262738
 20
543.41771732859866
 30
0.0
 11
-405.6702011908751
 21
557.1913874503507
 31
0.0
  0
LINE
  5
228
  8
NOTE
  6
CONTINUOUS
 62
     4
 10
-419.55224456985991
 20
543.48612076666302
 30
0.0
 11
-405.73860462893958
 21
557.29976070758312
 31
0.0
  0
LINE
  5
229
  8
NOTE
  6
CONTINUOUS
 62
     4
 10
-419.65943220116372
 20
543.55570983065547
 30
0.0
 11
-405.80819369293232
 21
557.40694833888722
 31
0.0
  0
LINE
  5
22A
  8
NOTE
  6
CONTINUOUS
 62
     4
 10
-419.76544383702571
 20
543.62647489009032
 30
0.0
 11
-405.87895875236683
 21
557.51295997474926
 31
0.0
  0
LINE
  5
22B
  8
NOTE
  6
CONTINUOUS
 62
     4
 10
-419.87028841098743
 20
543.69840701142505
 30
0.0
 11
-405.95089087370178
 21
557.61780454871075
 31
0.0
  0
LINE
  5
22C
  8
NOTE
  6
CONTINUOUS
 62
     4
 10
-419.97397418346009
 20
543.77149793424917
 30
0.0
 11
-406.0239817965259
 21
557.72149032118352
 31
0.0
  0
LINE
  5
22D
  8
NOTE
  6
CONTINUOUS
 62
     4
 10
-420.07650876339829
 20
543.84574004960757
 30
0.0
 11
-406.09822391188447
 21
557.82402490112167
 31
0.0
  0
LINE
  5
22E
  8
NOTE
  6
CONTINUOUS
 62
     4
 10
-420.17789912796928
 20
543.92112638033336
 30
0.0
 11
-406.1736102426101
 21
557.92541526569255
 31
0.0
  0
LINE
  5
22F
  8
NOTE
  6
CONTINUOUS
 62
     4
 10
-420.2781516403453
 20
543.99765056325396
 30
0.0
 11
-406.25013442553058
 21
558.02566777806862
 31
0.0
  0
LINE
  5
230
  8
NOTE
  6
CONTINUOUS
 62
     4
 10
-420.37727206572322
 20
544.07530683317282
 30
0.0
 11
-406.32779069544949
 21
558.12478820344654
 31
0.0
  0
LINE
  5
231
  8
NOTE
  6
CONTINUOUS
 62
     4
 10
-420.4752655856721
 20
544.15409000852026
 30
0.0
 11
-406.40657387079671
 21
558.22278172339566
 31
0.0
  0
LINE
  5
232
  8
NOTE
  6
CONTINUOUS
 62
     4
 10
-420.57213681089291
 20
544.23399547859594
 30
0.0
 11
-406.48647934087268
 21
558.31965294861641
 31
0.0
  0
LINE
  5
233
  8
NOTE
  6
CONTINUOUS
 62
     4
 10
-420.66788979246218
 20
544.31501919232335
 30
0.0
 11
-406.56750305460002
 21
558.41540593018556
 31
0.0
  0
LINE
  5
234
  8
NOTE
  6
CONTINUOUS
 62
     4
 10
-420.7625280316297
 20
544.39715764845278
 30
0.0
 11
-406.6496415107294
 21
558.51004416935314
 31
0.0
  0
LINE
  5
235
  8
NOTE
  6
CONTINUOUS
 62
     4
 10
-420.85605448822281
 20
544.48040788715628
 30
0.0
 11
-406.73289174943278
 21
558.60357062594619
 31
0.0
  0
LINE
  5
236
  8
NOTE
  6
CONTINUOUS
 62
     4
 10
-420.94847158770563
 20
544.56476748296996
 30
0.0
 11
-406.81725134524652
 21
558.69598772542895
 31
0.0
  0
LINE
  5
237
  8
NOTE
  6
CONTINUOUS
 62
     4
 10
-421.03978122693269
 20
544.65023453903984
 30
0.0
 11
-406.90271840131629
 21
558.78729736465596
 31
0.0
  0
LINE
  5
238
  8
NOTE
  6
CONTINUOUS
 62
     4
 10
-421.1299847786288
 20
544.73680768264012
 30
0.0
 11
-406.9892915449168
 21
558.87750091635235
 31
0.0
  0
LINE
  5
239
  8
NOTE
  6
CONTINUOUS
 62
     4
 10
-421.21908309462259
 20
544.82448606194282
 30
0.0
 11
-407.07696992421961
 21
558.96659923234586
 31
0.0
  0
LINE
  5
23A
  8
NOTE
  6
CONTINUOUS
 62
     4
 10
-421.30707650784558
 20
544.91326934401673
 30
0.0
 11
-407.1657532062934
 21
559.05459264556885
 31
0.0
  0
LINE
  5
23B
  8
NOTE
  6
CONTINUOUS
 62
     4
 10
-421.39396483311401
 20
545.00315771404485
 30
0.0
 11
-407.25564157632158
 21
559.14148097083739
 31
0.0
  0
LINE
  5
23C
  8
NOTE
  6
CONTINUOUS
 62
     4
 10
-421.47974736669488
 20
545.09415187576053
 30
0.0
 11
-407.34663573803732
 21
559.22726350441815
 31
0.0
  0
LINE
  5
23D
  8
NOTE
  6
CONTINUOUS
 62
     4
 10
-421.5644228846528
 20
545.18625305309888
 30
0.0
 11
-407.43873691537573
 21
559.31193902237612
 31
0.0
  0
LINE
  5
23E
  8
NOTE
  6
CONTINUOUS
 62
     4
 10
-421.64798963997191
 20
545.279462993077
 30
0.0
 11
-407.53194685535362
 21
559.39550577769512
 31
0.0
  0
LINE
  5
23F
  8
NOTE
  6
CONTINUOUS
 62
     4
 10
-421.7304453584311
 20
545.37378396991426
 30
0.0
 11
-407.62626783219071
 21
559.47796149615465
 31
0.0
  0
LINE
  5
240
  8
NOTE
  6
CONTINUOUS
 62
     4
 10
-421.81178723321977
 20
545.46921879042202
 30
0.0
 11
-407.72170265269858
 21
559.55930337094321
 31
0.0
  0
LINE
  5
241
  8
NOTE
  6
CONTINUOUS
 62
     4
 10
-421.89201191825191
 20
545.56577080068701
 30
0.0
 11
-407.81825466296368
 21
559.63952805597523
 31
0.0
  0
LINE
  5
242
  8
NOTE
  6
CONTINUOUS
 62
     4
 10
-421.97111552014968
 20
545.66344389408573
 30
0.0
 11
-407.91592775636252
 21
559.71863165787295
 31
0.0
  0
LINE
  5
243
  8
NOTE
  6
CONTINUOUS
 62
     4
 10
-422.04909358885078
 20
545.76224252068096
 30
0.0
 11
-408.0147263829578
 21
559.79660972657405
 31
0.0
  0
LINE
  5
244
  8
NOTE
  6
CONTINUOUS
 62
     4
 10
-422.12594110678162
 20
545.86217169804695
 30
0.0
 11
-408.11465556032363
 21
559.87345724450495
 31
0.0
  0
LINE
  5
245
  8
NOTE
  6
CONTINUOUS
 62
     4
 10
-422.20165247653642
 20
545.96323702358882
 30
0.0
 11
-408.21572088586572
 21
559.94916861425975
 31
0.0
  0
LINE
  5
246
  8
NOTE
  6
CONTINUOUS
 62
     4
 10
-422.27622150699131
 20
546.06544468843026
 30
0.0
 11
-408.31792855070699
 21
560.02373764471474
 31
0.0
  0
LINE
  5
247
  8
NOTE
  6
CONTINUOUS
 62
     4
 10
-422.34964139777162
 20
546.16880149294684
 30
0.0
 11
-408.4212853552234
 21
560.09715753549506
 31
0.0
  0
LINE
  5
248
  8
NOTE
  6
CONTINUOUS
 62
     4
 10
-422.42190472197427
 20
546.27331486404091
 30
0.0
 11
-408.52579872631748
 21
560.16942085969777
 31
0.0
  0
LINE
  5
249
  8
NOTE
  6
CONTINUOUS
 62
     4
 10
-422.49300340704582
 20
546.37899287426615
 30
0.0
 11
-408.63147673654271
 21
560.24051954476874
 31
0.0
  0
LINE
  5
24A
  8
NOTE
  6
CONTINUOUS
 62
     4
 10
-422.5629287136934
 20
546.48584426291495
 30
0.0
 11
-408.73832812519191
 21
560.31044485141683
 31
0.0
  0
LINE
  5
24B
  8
NOTE
  6
CONTINUOUS
 62
     4
 10
-422.6316712126968
 20
546.5938784592081
 30
0.0
 11
-408.84636232148478
 21
560.37918735042035
 31
0.0
  0
LINE
  5
24C
  8
NOTE
  6
CONTINUOUS
 62
     4
 10
-422.69922075946988
 20
546.7031056077318
 30
0.0
 11
-408.95558947000842
 21
560.44673689719343
 31
0.0
  0
LINE
  5
24D
  8
NOTE
  6
CONTINUOUS
 62
     4
 10
-422.7655664662031
 20
546.81353659629497
 30
0.0
 11
-409.06602045857193
 21
560.51308260392625
 31
0.0
  0
LINE
  5
24E
  8
NOTE
  6
CONTINUOUS
 62
     4
 10
-422.83069667140069
 20
546.92518308639433
 30
0.0
 11
-409.17766694867089
 21
560.57821280912401
 31
0.0
  0
LINE
  5
24F
  8
NOTE
  6
CONTINUOUS
 62
     4
 10
-422.8945989065993
 20
547.03805754649215
 30
0.0
 11
-409.29054140876877
 21
560.64211504432274
 31
0.0
  0
LINE
  5
250
  8
NOTE
  6
CONTINUOUS
 62
     4
 10
-422.95725986003191
 20
547.15217328835615
 30
0.0
 11
-409.40465715063289
 21
560.70477599775541
 31
0.0
  0
LINE
  5
251
  8
NOTE
  6
CONTINUOUS
 62
     4
 10
-423.01866533697131
 20
547.26754450671353
 30
0.0
 11
-409.52002836899032
 21
560.7661814746948
 31
0.0
  0
LINE
  5
252
  8
NOTE
  6
CONTINUOUS
 62
     4
 10
-423.07880021645587
 20
547.38418632252547
 30
0.0
 11
-409.63667018480209
 21
560.82631635417908
 31
0.0
  0
LINE
  5
253
  8
NOTE
  6
CONTINUOUS
 62
     4
 10
-423.13764840406361
 20
547.50211483021451
 30
0.0
 11
-409.75459869249107
 21
560.88516454178705
 31
0.0
  0
LINE
  5
254
  8
NOTE
  6
CONTINUOUS
 62
     4
 10
-423.19519278035762
 20
547.62134714921706
 30
0.0
 11
-409.87383101149368
 21
560.94270891808128
 31
0.0
  0
LINE
  5
255
  8
NOTE
  6
CONTINUOUS
 62
     4
 10
-423.25141514458102
 20
547.74190148029027
 30
0.0
 11
-409.99438534256689
 21
560.99893128230451
 31
0.0
  0
LINE
  5
256
  8
NOTE
  6
CONTINUOUS
 62
     4
 10
-423.30629615312142
 20
547.8637971670463
 30
0.0
 11
-410.1162810293232
 21
561.05381229084492
 31
0.0
  0
LINE
  5
257
  8
NOTE
  6
CONTINUOUS
 62
     4
 10
-423.35981525221001
 20
547.98705476325495
 30
0.0
 11
-410.23953862553162
 21
561.10733138993305
 31
0.0
  0
LINE
  5
258
  8
NOTE
  6
CONTINUOUS
 62
     4
 10
-423.41195060424002
 20
548.11169610652155
 30
0.0
 11
-410.36417996879823
 21
561.15946674196334
 31
0.0
  0
LINE
  5
259
  8
NOTE
  6
CONTINUOUS
 62
     4
 10
-423.46267900701758
 20
548.23774439904025
 30
0.0
 11
-410.49022826131687
 21
561.21019514474085
 31
0.0
  0
LINE
  5
25A
  8
NOTE
  6
CONTINUOUS
 62
     4
 10
-423.51197580515458
 20
548.36522429620004
 30
0.0
 11
-410.61770815847672
 21
561.25949194287796
 31
0.0
  0
LINE
  5
25B
  8
NOTE
  6
CONTINUOUS
 62
     4
 10
-423.55981479270781
 20
548.49416200394376
 30
0.0
 11
-410.74664586622009
 21
561.30733093043125
 31
0.0
  0
LINE
  5
25C
  8
NOTE
  6
CONTINUOUS
 62
     4
 10
-423.60616810604358
 20
548.62458538590431
 30
0.0
 11
-410.87706924818082
 21
561.35368424376713
 31
0.0
  0
LINE
  5
25D
  8
NOTE
  6
CONTINUOUS
 62
     4
 10
-423.65100610575593
 20
548.75652408148858
 30
0.0
 11
-411.0090079437652
 21
561.39852224347908
 31
0.0
  0
LINE
  5
25E
  8
NOTE
  6
CONTINUOUS
 62
     4
 10
-423.69429724628952
 20
548.89000963625176
 30
0.0
 11
-411.14249349852821
 21
561.44181338401279
 31
0.0
  0
LINE
  5
25F
  8
NOTE
  6
CONTINUOUS
 62
     4
 10
-423.73600793172369
 20
549.02507564611415
 30
0.0
 11
-411.27755950839082
 21
561.48352406944696
 31
0.0
  0
LINE
  5
260
  8
NOTE
  6
CONTINUOUS
 62
     4
 10
-423.77610235592618
 20
549.16175791720786
 30
0.0
 11
-411.4142417794846
 21
561.52361849364979
 31
0.0
  0
LINE
  5
261
  8
NOTE
  6
CONTINUOUS
 62
     4
 10
-423.81454232500602
 20
549.30009464342527
 30
0.0
 11
-411.552578505702
 21
561.56205846272928
 31
0.0
  0
LINE
  5
262
  8
NOTE
  6
CONTINUOUS
 62
     4
 10
-423.85128705965212
 20
549.44012660407543
 30
0.0
 11
-411.69261046635222
 21
561.59880319737545
 31
0.0
  0
LINE
  5
263
  8
NOTE
  6
CONTINUOUS
 62
     4
 10
-423.88629297455691
 20
549.58189738446742
 30
0.0
 11
-411.83438124674421
 21
561.63380911228035
 31
0.0
  0
LINE
  5
264
  8
NOTE
  6
CONTINUOUS
 62
     4
 10
-423.91951343162191
 20
549.72545362269875
 30
0.0
 11
-411.97793748497543
 21
561.66702956934535
 31
0.0
  0
LINE
  5
265
  8
NOTE
  6
CONTINUOUS
 62
     4
 10
-423.95089846308628
 20
549.87084528653122
 30
0.0
 11
-412.12332914880801
 21
561.69841460080966
 31
0.0
  0
LINE
  5
266
  8
NOTE
  6
CONTINUOUS
 62
     4
 10
-423.98039446000467
 20
550.01812598490972
 30
0.0
 11
-412.27060984718622
 21
561.72791059772806
 31
0.0
  0
LINE
  5
267
  8
NOTE
  6
CONTINUOUS
 62
     4
 10
-424.00794382066391
 20
550.16735331954692
 30
0.0
 11
-412.4198371818236
 21
561.75545995838706
 31
0.0
  0
LINE
  5
268
  8
NOTE
  6
CONTINUOUS
 62
     4
 10
-424.03348455248681
 20
550.31858928302063
 30
0.0
 11
-412.57107314529702
 21
561.78100069021025
 31
0.0
  0
LINE
  5
269
  8
NOTE
  6
CONTINUOUS
 62
     4
 10
-424.05694981970282
 20
550.47190071110151
 30
0.0
 11
-412.72438457337819
 21
561.80446595742626
 31
0.0
  0
LINE
  5
26A
  8
NOTE
  6
CONTINUOUS
 62
     4
 10
-424.07826742749728
 20
550.62735979860349
 30
0.0
 11
-412.87984366088
 21
561.82578356522083
 31
0.0
  0
LINE
  5
26B
  8
NOTE
  6
CONTINUOUS
 62
     4
 10
-424.09735923140778
 20
550.7850446899896
 30
0.0
 11
-413.03752855226628
 21
561.84487536913105
 31
0.0
  0
LINE
  5
26C
  8
NOTE
  6
CONTINUOUS
 62
     4
 10
-424.11414045828872
 20
550.94504015840573
 30
0.0
 11
-413.19752402068229
 21
561.86165659601181
 31
0.0
  0
LINE
  5
26D
  8
NOTE
  6
CONTINUOUS
 62
     4
 10
-424.12851892211518
 20
551.10743838987526
 30
0.0
 11
-413.35992225215199
 21
561.87603505983884
 31
0.0
  0
LINE
  5
26E
  8
NOTE
  6
CONTINUOUS
 62
     4
 10
-424.14039411399972
 20
551.27233989328761
 30
0.0
 11
-413.52482375556451
 21
561.88791025172281
 31
0.0
  0
LINE
  5
26F
  8
NOTE
  6
CONTINUOUS
 62
     4
 10
-424.1496561408141
 20
551.43985456176972
 30
0.0
 11
-413.69233842404628
 21
561.89717227853725
 31
0.0
  0
LINE
  5
270
  8
NOTE
  6
CONTINUOUS
 62
     4
 10
-424.15618448043108
 20
551.61010291744969
 30
0.0
 11
-413.86258677972631
 21
561.90370061815418
 31
0.0
  0
LINE
  5
271
  8
NOTE
  6
CONTINUOUS
 62
     4
 10
-424.15984651322299
 20
551.78321757995434
 30
0.0
 11
-414.03570144223107
 21
561.90736265094631
 31
0.0
  0
LINE
  5
272
  8
NOTE
  6
CONTINUOUS
 62
     4
 10
-424.16049577853829
 20
551.95934500993553
 30
0.0
 11
-414.2118288722121
 21
561.90801191626156
 31
0.0
  0
LINE
  5
273
  8
NOTE
  6
CONTINUOUS
 62
     4
 10
-424.1579698903231
 20
552.1386475934471
 30
0.0
 11
-414.39113145572389
 21
561.90548602804654
 31
0.0
  0
LINE
  5
274
  8
NOTE
  6
CONTINUOUS
 62
     4
 10
-424.15208802655229
 20
552.32130615251492
 30
0.0
 11
-414.57379001479171
 21
561.89960416427562
 31
0.0
  0
LINE
  5
275
  8
NOTE
  6
CONTINUOUS
 62
     4
 10
-424.14264788062371
 20
552.50752299374005
 30
0.0
 11
-414.76000685601679
 21
561.89016401834704
 31
0.0
  0
LINE
  5
276
  8
NOTE
  6
CONTINUOUS
 62
     4
 10
-424.1294219263695
 20
552.69752564329065
 30
0.0
 11
-414.95000950556749
 21
561.87693806409277
 31
0.0
  0
LINE
  5
277
  8
NOTE
  6
CONTINUOUS
 62
     4
 10
-424.11215279734228
 20
552.89157146761454
 30
0.0
 11
-415.14405532989122
 21
561.85966893506588
 31
0.0
  0
LINE
  5
278
  8
NOTE
  6
CONTINUOUS
 62
     4
 10
-424.09054750866159
 20
553.08995345159201
 30
0.0
 11
-415.3424373138688
 21
561.83806364638485
 31
0.0
  0
LINE
  5
279
  8
NOTE
  6
CONTINUOUS
 62
     4
 10
-424.06427014516311
 20
553.29300751038716
 30
0.0
 11
-415.545491372664
 21
561.81178628288637
 31
0.0
  0
LINE
  5
27A
  8
NOTE
  6
CONTINUOUS
 62
     4
 10
-424.03293248566979
 20
553.5011218651772
 30
0.0
 11
-415.7536057274537
 21
561.78044862339323
 31
0.0
  0
LINE
  5
27B
  8
NOTE
  6
CONTINUOUS
 62
     4
 10
-423.99608180160561
 20
553.71474924453776
 30
0.0
 11
-415.9672331068146
 21
561.74359793932911
 31
0.0
  0
LINE
  5
27C
  8
NOTE
  6
CONTINUOUS
 62
     4
 10
-423.95318471124563
 20
553.93442303019458
 30
0.0
 11
-416.18690689247148
 21
561.70070084896895
 31
0.0
  0
LINE
  5
27D
  8
NOTE
  6
CONTINUOUS
 62
     4
 10
-423.9036054057018
 20
554.16077903103485
 30
0.0
 11
-416.4132628933113
 21
561.65112154342535
 31
0.0
  0
LINE
  5
27E
  8
NOTE
  6
CONTINUOUS
 62
     4
 10
-423.8465756396447
 20
554.39458549238884
 30
0.0
 11
-416.64706935466558
 21
561.59409177736813
 31
0.0
  0
LINE
  5
27F
  8
NOTE
  6
CONTINUOUS
 62
     4
 10
-423.78115231782618
 20
554.63678550950408
 30
0.0
 11
-416.8892693717807
 21
561.52866845554945
 31
0.0
  0
LINE
  5
280
  8
NOTE
  6
CONTINUOUS
 62
     4
 10
-423.70615575466547
 20
554.88855876796106
 30
0.0
 11
-417.14104263023791
 21
561.45367189238868
 31
0.0
  0
LINE
  5
281
  8
NOTE
  6
CONTINUOUS
 62
     4
 10
-423.62007658849711
 20
555.15141462942609
 30
0.0
 11
-417.40389849170288
 21
561.36759272622055
 31
0.0
  0
LINE
  5
282
  8
NOTE
  6
CONTINUOUS
 62
     4
 10
-423.52092934238681
 20
555.42733857083329
 30
0.0
 11
-417.67982243311002
 21
561.26844548011013
 31
0.0
  0
LINE
  5
283
  8
NOTE
  6
CONTINUOUS
 62
     4
 10
-423.4060096107786
 20
555.71903499773839
 30
0.0
 11
-417.97151886001501
 21
561.15352574850169
 31
0.0
  0
LINE
  5
284
  8
NOTE
  6
CONTINUOUS
 62
     4
 10
-423.27146358584088
 20
556.03035771797227
 30
0.0
 11
-418.28284158024888
 21
561.01897972356414
 31
0.0
  0
LINE
  5
285
  8
NOTE
  6
CONTINUOUS
 62
     4
 10
-423.11145440349259
 20
556.36714359561745
 30
0.0
 11
-418.6196274578939
 21
560.85897054121597
 31
0.0
  0
LINE
  5
286
  8
NOTE
  6
CONTINUOUS
 62
     4
 10
-422.91633654390478
 20
556.73903815050176
 30
0.0
 11
-418.99152201277849
 21
560.66385268162821
 31
0.0
  0
LINE
  5
287
  8
NOTE
  6
CONTINUOUS
 62
     4
 10
-422.6678428409806
 20
557.1643085487226
 30
0.0
 11
-419.41679241099922
 21
560.41535897870381
 31
0.0
  0
LINE
  5
288
  8
NOTE
  6
CONTINUOUS
 62
     4
 10
-422.32150283843282
 20
557.68742524656705
 30
0.0
 11
-419.93990910884372
 21
560.06901897615614
 31
0.0
  0
LINE
  5
289
  8
NOTE
  6
CONTINUOUS
 62
     4
 10
-421.64103877478402
 20
558.54466600551279
 30
0.0
 11
-420.7971498677893
 21
559.3885549125074
 31
0.0
  0
LINE
  5
28A
  8
NOTE
  6
CONTINUOUS
 62
     4
 10
-1314.16574429557
 20
954.08301336739191
 30
0.0
 11
-758.02135201892531
 21
954.08301336739191
 31
0.0
  0
TEXT
  5
28B
  8
NOTE
  6
CONTINUOUS
 62
     4
 10
-1254.8207742786931
 20
971.1334555325526
 30
0.0
 40
64.0
  1
防風カバー（付属品）
 50
0.0000029999976964
 41
0.659722
  7
STANDARD1
  0
ENDSEC
  0
EOF
