  0
SECTION
  2
HEADER
  9
$ACADVER
  1
AC1006
  9
$DWGCODEPAGE
  3
ansi_932
  9
$INSBASE
 10
0.0
 20
0.0
 30
0.0
  9
$EXTMIN
 10
-1201.153
 20
-525.970433
  9
$EXTMAX
 10
980.252769
 20
1402.81679
  9
$LIMMIN
 10
-6000.0
 20
-4500.0
  9
$LIMMAX
 10
6000.0
 20
4500.0
  9
$ORTHOMODE
 70
     0
  9
$REGENMODE
 70
     1
  9
$FILLMODE
 70
     1
  9
$QTEXTMODE
 70
     0
  9
$MIRRTEXT
 70
     0
  9
$DRAGMODE
 70
     2
  9
$LTSCALE
 40
20.0
  9
$OSMODE
 70
    37
  9
$ATTMODE
 70
     1
  9
$TEXTSIZE
 40
64.0
  9
$TRACEWID
 40
0.05
  9
$TEXTSTYLE
  7
STANDARD
  9
$CLAYER
  8
SIZE
  9
$CELTYPE
  6
CONTINUOUS
  9
$CECOLOR
 62
   256
  9
$DIMSCALE
 40
1.0
  9
$DIMASZ
 40
10.0
  9
$DIMEXO
 40
20.0
  9
$DIMDLI
 40
200.0
  9
$DIMRND
 40
0.0
  9
$DIMDLE
 40
0.0
  9
$DIMEXE
 40
30.0
  9
$DIMTP
 40
0.0
  9
$DIMTM
 40
0.0
  9
$DIMTXT
 40
64.0
  9
$DIMCEN
 40
0.0
  9
$DIMTSZ
 40
0.0
  9
$DIMTOL
 70
     0
  9
$DIMLIM
 70
     0
  9
$DIMTIH
 70
     0
  9
$DIMTOH
 70
     0
  9
$DIMSE1
 70
     0
  9
$DIMSE2
 70
     0
  9
$DIMTAD
 70
     1
  9
$DIMZIN
 70
     8
  9
$DIMBLK
  1

  9
$DIMASO
 70
     1
  9
$DIMSHO
 70
     0
  9
$DIMPOST
  1

  9
$DIMAPOST
  1

  9
$DIMALT
 70
     0
  9
$DIMALTD
 70
     2
  9
$DIMALTF
 40
25.4
  9
$DIMLFAC
 40
1.0
  9
$DIMTOFL
 70
     1
  9
$DIMTVP
 40
0.0
  9
$DIMTIX
 70
     1
  9
$DIMSOXD
 70
     0
  9
$DIMSAH
 70
     1
  9
$DIMBLK1
  1
DOTBLANK
  9
$DIMBLK2
  1
DOTBLANK
  9
$LUNITS
 70
     2
  9
$LUPREC
 70
     4
  9
$SKETCHINC
 40
0.1
  9
$FILLETRAD
 40
10.0
  9
$AUNITS
 70
     1
  9
$AUPREC
 70
     3
  9
$MENU
  1
ACAD
  9
$ELEVATION
 40
0.0
  9
$THICKNESS
 40
0.0
  9
$LIMCHECK
 70
     0
  9
$CHAMFERA
 40
0.0
  9
$CHAMFERB
 40
0.0
  9
$SKPOLY
 70
     0
  9
$TDCREATE
 40
2450330.439930995
  9
$TDUPDATE
 40
2457464.712246053
  9
$TDINDWG
 40
1.1626449884
  9
$TDUSRTIMER
 40
1.1626449884
  9
$USRTIMER
 70
     1
  9
$ANGBASE
 50
0.0
  9
$ANGDIR
 70
     0
  9
$PDMODE
 70
     3
  9
$PDSIZE
 40
-2.0
  9
$PLINEWID
 40
0.0
  9
$COORDS
 70
     1
  9
$SPLFRAME
 70
     0
  9
$SPLINETYPE
 70
     6
  9
$SPLINESEGS
 70
     8
  9
$ATTDIA
 70
     0
  9
$ATTREQ
 70
     1
  9
$HANDLING
 70
     1
  9
$HANDSEED
  5
A033
  9
$SURFTAB1
 70
     6
  9
$SURFTAB2
 70
     6
  9
$SURFTYPE
 70
     6
  9
$SURFU
 70
     6
  9
$SURFV
 70
     6
  9
$UCSNAME
  2

  9
$UCSORG
 10
0.0
 20
0.0
 30
0.0
  9
$UCSXDIR
 10
1.0
 20
0.0
 30
0.0
  9
$UCSYDIR
 10
0.0
 20
1.0
 30
0.0
  9
$USERI1
 70
     0
  9
$USERI2
 70
     0
  9
$USERI3
 70
     0
  9
$USERI4
 70
     0
  9
$USERI5
 70
     0
  9
$USERR1
 40
20.0
  9
$USERR2
 40
0.0
  9
$USERR3
 40
0.0
  9
$USERR4
 40
0.0
  9
$USERR5
 40
0.0
  9
$WORLDVIEW
 70
     1
  0
ENDSEC
  0
SECTION
  2
TABLES
  0
TABLE
  2
VPORT
 70
     1
  0
VPORT
  2
*ACTIVE
 70
     0
 10
0.0
 20
0.0
 11
1.0
 21
1.0
 12
0.741719
 22
486.180911
 13
0.0
 23
0.0
 14
50.0
 24
50.0
 15
100.0
 25
100.0
 16
0.0
 26
0.0
 36
1.0
 17
0.0
 27
0.0
 37
0.0
 40
2385.678
 41
1.534591
 42
50.0
 43
0.0
 44
0.0
 50
0.0
 51
0.0
 71
     0
 72
  1000
 73
     1
 74
     0
 75
     0
 76
     0
 77
     0
 78
     0
  0
ENDTAB
  0
TABLE
  2
LTYPE
 70
     8
  0
LTYPE
  2
CONTINUOUS
 70
     0
  3
実線
 72
    65
 73
     0
 40
0.0
  0
LTYPE
  2
DASHDOT
 70
     0
  3
____ _ ____ _ ____ _ ____ _ ____ _ ____ _ ____
 72
    65
 73
     4
 40
5.5
 49
4.0
 49
-0.6
 49
0.3
 49
-0.6
  0
LTYPE
  2
DASHED
 70
     0
  3
_ _ _ _ _ _ _ _ _ _ _ _ _ _ _ _ _ _ _ _ _ _ _
 72
    65
 73
     2
 40
2.0
 49
1.2
 49
-0.8
  0
LTYPE
  2
DOT
 70
     0
  3
...............................................
 72
    65
 73
     2
 40
0.8
 49
0.5
 49
-0.3
  0
LTYPE
  2
DASHDOT1
 70
     0
  3
____ _ ____ _ ____ _ ____ _ ____ _ ____ _ ____
 72
    65
 73
     4
 40
2.0
 49
1.5
 49
-0.2
 49
0.1
 49
-0.2
  0
LTYPE
  2
DIVIDE
 70
     0
  3
_____ _ _ _____ _ _ _____ _ _ _____ _ _ ____
 72
    65
 73
     6
 40
6.4
 49
4.0
 49
-0.6
 49
0.3
 49
-0.6
 49
0.3
 49
-0.6
  0
LTYPE
  2
DIVIDE1
 70
     0
  3
_____ _ _ _____ _ _ _____ _ _ _____ _ _ ____
 72
    65
 73
     6
 40
3.2
 49
2.0
 49
-0.3
 49
0.15
 49
-0.3
 49
0.15
 49
-0.3
  0
LTYPE
  2
HIDDEN
 70
     0
  3
_ _ _ _ _ _ _ _ _ _ _ _ _ _ _ _ _ _ _ _ _ _ _
 72
    65
 73
     2
 40
0.375
 49
0.25
 49
-0.125
  0
ENDTAB
  0
TABLE
  2
LAYER
 70
    15
  0
LAYER
  2
0
 70
     0
 62
     7
  6
CONTINUOUS
  0
LAYER
  2
OUTLINE
 70
     0
 62
     3
  6
CONTINUOUS
  0
LAYER
  2
DETAIL
 70
     0
 62
     5
  6
CONTINUOUS
  0
LAYER
  2
BASIS
 70
     0
 62
     6
  6
CONTINUOUS
  0
LAYER
  2
SIZE
 70
     0
 62
    30
  6
CONTINUOUS
  0
LAYER
  2
NOTE
 70
     0
 62
     4
  6
CONTINUOUS
  0
LAYER
  2
DEFPOINTS
 70
     0
 62
     7
  6
CONTINUOUS
  0
LAYER
  2
FIX
 70
     0
 62
    11
  6
CONTINUOUS
  0
LAYER
  2
ARRANGE
 70
     0
 62
     1
  6
CONTINUOUS
  0
LAYER
  2
ETC
 70
     0
 62
    61
  6
CONTINUOUS
  0
LAYER
  2
SERVICESPACE
 70
     0
 62
     2
  6
CONTINUOUS
  0
LAYER
  2
SYMBOLLINE
 70
     0
 62
    15
  6
CONTINUOUS
  0
LAYER
  2
1
 70
     0
 62
     1
  6
CONTINUOUS
  0
LAYER
  2
6
 70
     0
 62
     3
  6
CONTINUOUS
  0
LAYER
  2
33
 70
     0
 62
     3
  6
CONTINUOUS
  0
ENDTAB
  0
TABLE
  2
STYLE
 70
     2
  0
STYLE
  2
STANDARD
 70
     0
 40
0.0
 41
0.9
 50
0.0
 71
     0
 42
64.0
  3
SIMPLEX
  4
BIGFONT
  0
STYLE
  2
STANDARD1
 70
     0
 40
0.0
 41
1.0
 50
0.0
 71
     0
 42
64.0
  3
MONOTXT
  4
BIGFONT
  0
ENDTAB
  0
TABLE
  2
VIEW
 70
     1
  0
VIEW
  2
ALL
 70
     0
 40
9000.0
 10
241.506647
 20
0.0
 41
12483.01
 11
0.0
 21
0.0
 31
1.0
 12
0.0
 22
0.0
 32
0.0
 42
50.0
 43
0.0
 44
0.0
 50
0.0
 71
     0
  0
ENDTAB
  0
TABLE
  2
UCS
 70
     0
  0
ENDTAB
  0
ENDSEC
  0
SECTION
  2
BLOCKS
  0
BLOCK
  8
0
  2
_DOTBLANK
 70
     0
 10
0.0
 20
0.0
 30
0.0
  0
CIRCLE
  5
9B81
  8
0
  6
BYBLOCK
 62
     0
 10
0.0
 20
0.0
 30
0.0
 40
0.5
  0
LINE
  5
9B82
  8
0
  6
BYBLOCK
 62
     0
 10
-0.5
 20
0.0
 30
0.0
 11
-1.0
 21
0.0
 31
0.0
  0
ENDBLK
  8
0
  0
BLOCK
  8
0
  2
A$C5BCA11D8
 70
     0
 10
0.0
 20
0.0
 30
0.0
  0
CIRCLE
  5
9B86
  8
FIX
 10
19.999987
 20
20.000008
 30
0.0
 40
20.0
  0
ENDBLK
  8
0
  0
BLOCK
  8
0
  2
A$C3156610D
 70
     0
 10
0.0
 20
0.0
 30
0.0
  0
INSERT
  5
9B8A
  8
SIZE
  6
CONTINUOUS
  2
A$C5BCA11D8
 10
0.000013
 20
-0.000003
 30
0.0
  0
ENDBLK
  8
0
  0
ENDSEC
  0
SECTION
  2
ENTITIES
  0
LINE
  5
9B8C
  8
DETAIL
  6
CONTINUOUS
 10
495.0
 20
0.0
 30
0.0
 11
-495.0
 21
0.0
 31
0.0
  0
LINE
  5
9B8D
  8
DETAIL
  6
CONTINUOUS
 10
426.870485
 20
1.59952
 30
0.0
 11
-426.873315
 21
1.59952
 31
0.0
  0
LINE
  5
9B8E
  8
DETAIL
  6
CONTINUOUS
 10
149.153825
 20
117.9646
 30
0.0
 11
91.171225
 21
117.9646
 31
0.0
  0
LINE
  5
9B8F
  8
DETAIL
  6
CONTINUOUS
 10
-489.654475
 20
386.078341
 30
0.0
 11
490.051525
 21
386.078341
 31
0.0
  0
LINE
  5
9B90
  8
DETAIL
  6
CONTINUOUS
 10
-489.654475
 20
384.078941
 30
0.0
 11
490.051525
 21
384.078941
 31
0.0
  0
LINE
  5
9B91
  8
DETAIL
  6
CONTINUOUS
 10
-489.654475
 20
446.060341
 30
0.0
 11
490.051525
 21
446.060341
 31
0.0
  0
LINE
  5
9B92
  8
DETAIL
  6
CONTINUOUS
 10
-489.654475
 20
444.060941
 30
0.0
 11
490.051525
 21
444.060941
 31
0.0
  0
LINE
  5
9B93
  8
DETAIL
  6
CONTINUOUS
 10
-489.654475
 20
685.988341
 30
0.0
 11
490.051525
 21
685.988341
 31
0.0
  0
LINE
  5
9B94
  8
DETAIL
  6
CONTINUOUS
 10
-489.654475
 20
683.988941
 30
0.0
 11
490.051525
 21
683.988941
 31
0.0
  0
LINE
  5
9B95
  8
DETAIL
  6
CONTINUOUS
 10
-489.654475
 20
745.970341
 30
0.0
 11
490.051525
 21
745.970341
 31
0.0
  0
LINE
  5
9B96
  8
DETAIL
  6
CONTINUOUS
 10
-489.654475
 20
743.970941
 30
0.0
 11
490.051525
 21
743.970941
 31
0.0
  0
LINE
  5
9B97
  8
DETAIL
  6
CONTINUOUS
 10
-489.654475
 20
805.9523409999999
 30
0.0
 11
490.051525
 21
805.9523409999999
 31
0.0
  0
LINE
  5
9B98
  8
DETAIL
  6
CONTINUOUS
 10
-489.654475
 20
803.952941
 30
0.0
 11
490.051525
 21
803.952941
 31
0.0
  0
LINE
  5
9B99
  8
DETAIL
  6
CONTINUOUS
 10
-489.654475
 20
865.934341
 30
0.0
 11
490.051525
 21
865.934341
 31
0.0
  0
LINE
  5
9B9A
  8
DETAIL
  6
CONTINUOUS
 10
-489.654475
 20
863.934941
 30
0.0
 11
490.051525
 21
863.93494
 31
0.0
  0
LINE
  5
9B9B
  8
DETAIL
  6
CONTINUOUS
 10
-489.654475
 20
324.096941
 30
0.0
 11
490.051525
 21
324.096941
 31
0.0
  0
LINE
  5
9B9C
  8
DETAIL
  6
CONTINUOUS
 10
-489.654475
 20
326.096341
 30
0.0
 11
490.051525
 21
326.096341
 31
0.0
  0
LINE
  5
9B9D
  8
DETAIL
  6
CONTINUOUS
 10
-489.654475
 20
266.114341
 30
0.0
 11
490.051525
 21
266.114341
 31
0.0
  0
LINE
  5
9B9E
  8
DETAIL
  6
CONTINUOUS
 10
-489.654475
 20
264.114941
 30
0.0
 11
490.051525
 21
264.114941
 31
0.0
  0
LINE
  5
9B9F
  8
DETAIL
  6
CONTINUOUS
 10
-489.654475
 20
206.132341
 30
0.0
 11
490.051525
 21
206.132341
 31
0.0
  0
LINE
  5
9BA0
  8
DETAIL
  6
CONTINUOUS
 10
-489.654475
 20
204.132941
 30
0.0
 11
490.051525
 21
204.132941
 31
0.0
  0
LINE
  5
9BA1
  8
DETAIL
  6
CONTINUOUS
 10
-489.654475
 20
146.150341
 30
0.0
 11
490.051525
 21
146.150341
 31
0.0
  0
LINE
  5
9BA2
  8
DETAIL
  6
CONTINUOUS
 10
-489.654475
 20
144.150941
 30
0.0
 11
490.051525
 21
144.150941
 31
0.0
  0
LINE
  5
9BA3
  8
DETAIL
  6
CONTINUOUS
 10
-489.654475
 20
626.006341
 30
0.0
 11
490.051525
 21
626.006341
 31
0.0
  0
LINE
  5
9BA4
  8
DETAIL
  6
CONTINUOUS
 10
-489.654475
 20
624.006941
 30
0.0
 11
490.051525
 21
624.006941
 31
0.0
  0
LINE
  5
9BA5
  8
DETAIL
  6
CONTINUOUS
 10
-489.654475
 20
566.0243409999999
 30
0.0
 11
490.051525
 21
566.0243409999999
 31
0.0
  0
LINE
  5
9BA6
  8
DETAIL
  6
CONTINUOUS
 10
-489.654475
 20
564.024941
 30
0.0
 11
490.051525
 21
564.024941
 31
0.0
  0
LINE
  5
9BA7
  8
DETAIL
  6
CONTINUOUS
 10
-476.341845
 20
506.042341
 30
0.0
 11
476.738895
 21
506.042341
 31
0.0
  0
LINE
  5
9BA8
  8
DETAIL
  6
CONTINUOUS
 10
-474.462881
 20
504.042941
 30
0.0
 11
474.859931
 21
504.042941
 31
0.0
  0
LINE
  5
9BA9
  8
DETAIL
  6
CONTINUOUS
 10
-493.852886
 20
905.919035
 30
0.0
 11
495.0
 21
905.919035
 31
0.0
  0
LINE
  5
9BAA
  8
DETAIL
  6
CONTINUOUS
 10
91.171225
 20
885.925035
 30
0.0
 11
149.153825
 21
885.925035
 31
0.0
  0
LINE
  5
9BAB
  8
DETAIL
  6
CONTINUOUS
 10
-0.000329
 20
1350.0
 30
0.0
 11
338.408027
 21
1350.0
 31
0.0
  0
LINE
  5
9BAC
  8
DETAIL
  6
CONTINUOUS
 10
-0.000329
 20
1262.72152
 30
0.0
 11
379.631997
 21
1262.72152
 31
0.0
  0
LINE
  5
9BAD
  8
DETAIL
  6
CONTINUOUS
 10
-0.000329
 20
1264.72052
 30
0.0
 11
379.631997
 21
1264.72052
 31
0.0
  0
LINE
  5
9BAE
  8
DETAIL
  6
CONTINUOUS
 10
-0.000329
 20
1274.97152
 30
0.0
 11
376.844997
 21
1274.97152
 31
0.0
  0
LINE
  5
9BAF
  8
DETAIL
  6
CONTINUOUS
 10
-0.000329
 20
1276.97052
 30
0.0
 11
376.844997
 21
1276.97052
 31
0.0
  0
LINE
  5
9BB0
  8
DETAIL
  6
CONTINUOUS
 10
-0.000329
 20
1289.22052
 30
0.0
 11
373.557968
 21
1289.22052
 31
0.0
  0
LINE
  5
9BB1
  8
DETAIL
  6
CONTINUOUS
 10
-0.000329
 20
1287.22152
 30
0.0
 11
373.557968
 21
1287.22152
 31
0.0
  0
LINE
  5
9BB2
  8
DETAIL
  6
CONTINUOUS
 10
-0.000329
 20
1299.47152
 30
0.0
 11
368.771389
 21
1299.47152
 31
0.0
  0
LINE
  5
9BB3
  8
DETAIL
  6
CONTINUOUS
 10
-0.000329
 20
1301.47052
 30
0.0
 11
368.771389
 21
1301.47052
 31
0.0
  0
LINE
  5
9BB4
  8
DETAIL
  6
CONTINUOUS
 10
-0.000329
 20
1311.72152
 30
0.0
 11
362.48526
 21
1311.72152
 31
0.0
  0
LINE
  5
9BB5
  8
DETAIL
  6
CONTINUOUS
 10
-0.000329
 20
1313.72152
 30
0.0
 11
362.48526
 21
1313.72152
 31
0.0
  0
LINE
  5
9BB6
  8
DETAIL
  6
CONTINUOUS
 10
-0.000329
 20
1323.97152
 30
0.0
 11
355.98721
 21
1323.97152
 31
0.0
  0
LINE
  5
9BB7
  8
DETAIL
  6
CONTINUOUS
 10
-0.000329
 20
1325.97152
 30
0.0
 11
355.98721
 21
1325.97152
 31
0.0
  0
LINE
  5
9BB8
  8
DETAIL
  6
CONTINUOUS
 10
-0.000329
 20
1337.96752
 30
0.0
 11
348.48946
 21
1337.96752
 31
0.0
  0
LINE
  5
9BB9
  8
DETAIL
  6
CONTINUOUS
 10
-0.000329
 20
1335.96852
 30
0.0
 11
348.48946
 21
1335.96852
 31
0.0
  0
LINE
  5
9BBA
  8
DETAIL
  6
CONTINUOUS
 10
-0.000329
 20
1258.29652
 30
0.0
 11
381.135955
 21
1258.29652
 31
0.0
  0
LINE
  5
9BBB
  8
DETAIL
  6
CONTINUOUS
 10
-0.000329
 20
1254.79752
 30
0.0
 11
382.883028
 21
1254.79752
 31
0.0
  0
LINE
  5
9BBC
  8
DETAIL
  6
CONTINUOUS
 10
333.378918
 20
1344.50165
 30
0.0
 11
-0.000329
 21
1344.50165
 31
0.0
  0
LINE
  5
9BBD
  8
DETAIL
  6
CONTINUOUS
 10
338.408027
 20
1348.0006
 30
0.0
 11
-0.000329
 21
1348.0006
 31
0.0
  0
LINE
  5
9BBE
  8
DETAIL
  6
CONTINUOUS
 10
495.0
 20
1125.0
 30
0.0
 11
-495.0
 21
1125.0
 31
0.0
  0
LINE
  5
9BBF
  8
BASIS
  6
DASHDOT
 10
0.0
 20
1404.26152
 30
0.0
 11
0.0
 21
-80.86580000000001
 31
0.0
  0
LINE
  5
9BC0
  8
DETAIL
  6
CONTINUOUS
 10
-450.666175
 20
745.970341
 30
0.0
 11
-450.666175
 21
803.952941
 31
0.0
  0
LINE
  5
9BC1
  8
DETAIL
  6
CONTINUOUS
 10
-390.684175
 20
745.970341
 30
0.0
 11
-390.684175
 21
803.952941
 31
0.0
  0
LINE
  5
9BC2
  8
DETAIL
  6
CONTINUOUS
 10
-330.702175
 20
745.970341
 30
0.0
 11
-330.702175
 21
803.952941
 31
0.0
  0
LINE
  5
9BC3
  8
DETAIL
  6
CONTINUOUS
 10
-270.720175
 20
745.970341
 30
0.0
 11
-270.720175
 21
803.952941
 31
0.0
  0
LINE
  5
9BC4
  8
DETAIL
  6
CONTINUOUS
 10
-210.738175
 20
745.970341
 30
0.0
 11
-210.738175
 21
803.952941
 31
0.0
  0
LINE
  5
9BC5
  8
DETAIL
  6
CONTINUOUS
 10
-150.756175
 20
745.970341
 30
0.0
 11
-150.756175
 21
803.952941
 31
0.0
  0
LINE
  5
9BC6
  8
DETAIL
  6
CONTINUOUS
 10
-90.774175
 20
745.970341
 30
0.0
 11
-90.774175
 21
803.952941
 31
0.0
  0
LINE
  5
9BC7
  8
DETAIL
  6
CONTINUOUS
 10
-30.792175
 20
745.970341
 30
0.0
 11
-30.792175
 21
803.952941
 31
0.0
  0
LINE
  5
9BC8
  8
DETAIL
  6
CONTINUOUS
 10
29.189825
 20
745.970341
 30
0.0
 11
29.189825
 21
803.952941
 31
0.0
  0
LINE
  5
9BC9
  8
DETAIL
  6
CONTINUOUS
 10
-448.666775
 20
745.970341
 30
0.0
 11
-448.666775
 21
803.952941
 31
0.0
  0
LINE
  5
9BCA
  8
DETAIL
  6
CONTINUOUS
 10
-388.684775
 20
745.970341
 30
0.0
 11
-388.684775
 21
803.952941
 31
0.0
  0
LINE
  5
9BCB
  8
DETAIL
  6
CONTINUOUS
 10
-328.702775
 20
745.970341
 30
0.0
 11
-328.702775
 21
803.952941
 31
0.0
  0
LINE
  5
9BCC
  8
DETAIL
  6
CONTINUOUS
 10
-268.720775
 20
745.970341
 30
0.0
 11
-268.720775
 21
803.952941
 31
0.0
  0
LINE
  5
9BCD
  8
DETAIL
  6
CONTINUOUS
 10
-208.738775
 20
745.970341
 30
0.0
 11
-208.738775
 21
803.952941
 31
0.0
  0
LINE
  5
9BCE
  8
DETAIL
  6
CONTINUOUS
 10
-148.756775
 20
745.970341
 30
0.0
 11
-148.756775
 21
803.952941
 31
0.0
  0
LINE
  5
9BCF
  8
DETAIL
  6
CONTINUOUS
 10
-88.77477499999999
 20
745.970341
 30
0.0
 11
-88.77477499999999
 21
803.952941
 31
0.0
  0
LINE
  5
9BD0
  8
DETAIL
  6
CONTINUOUS
 10
-28.792775
 20
745.970341
 30
0.0
 11
-28.792775
 21
803.952941
 31
0.0
  0
LINE
  5
9BD1
  8
DETAIL
  6
CONTINUOUS
 10
31.189225
 20
745.970341
 30
0.0
 11
31.189225
 21
803.952941
 31
0.0
  0
LINE
  5
9BD2
  8
DETAIL
  6
CONTINUOUS
 10
91.171225
 20
745.970341
 30
0.0
 11
91.171225
 21
803.952941
 31
0.0
  0
LINE
  5
9BD3
  8
DETAIL
  6
CONTINUOUS
 10
89.17182500000001
 20
745.970341
 30
0.0
 11
89.17182500000001
 21
803.952941
 31
0.0
  0
LINE
  5
9BD4
  8
DETAIL
  6
CONTINUOUS
 10
-495.0
 20
1125.0
 30
0.0
 11
-495.0
 21
0.0
 31
0.0
  0
LINE
  5
9BD5
  8
DETAIL
  6
CONTINUOUS
 10
-210.738175
 20
117.9646
 30
0.0
 11
-268.720775
 21
117.9646
 31
0.0
  0
LINE
  5
9BD6
  8
DETAIL
  6
CONTINUOUS
 10
-450.666175
 20
326.096341
 30
0.0
 11
-450.666175
 21
384.078941
 31
0.0
  0
LINE
  5
9BD7
  8
DETAIL
  6
CONTINUOUS
 10
-330.702175
 20
326.096341
 30
0.0
 11
-330.702175
 21
384.078941
 31
0.0
  0
LINE
  5
9BD8
  8
DETAIL
  6
CONTINUOUS
 10
-270.720175
 20
326.096341
 30
0.0
 11
-270.720175
 21
384.078941
 31
0.0
  0
LINE
  5
9BD9
  8
DETAIL
  6
CONTINUOUS
 10
-448.666775
 20
326.096341
 30
0.0
 11
-448.666775
 21
384.078941
 31
0.0
  0
LINE
  5
9BDA
  8
DETAIL
  6
CONTINUOUS
 10
-328.702775
 20
326.096341
 30
0.0
 11
-328.702775
 21
384.078941
 31
0.0
  0
LINE
  5
9BDB
  8
DETAIL
  6
CONTINUOUS
 10
-268.720775
 20
326.096341
 30
0.0
 11
-268.720775
 21
384.078941
 31
0.0
  0
LINE
  5
9BDC
  8
DETAIL
  6
CONTINUOUS
 10
-390.684175
 20
326.096341
 30
0.0
 11
-390.684175
 21
384.078941
 31
0.0
  0
LINE
  5
9BDD
  8
DETAIL
  6
CONTINUOUS
 10
-388.684775
 20
326.096341
 30
0.0
 11
-388.684775
 21
384.078941
 31
0.0
  0
LINE
  5
9BDE
  8
DETAIL
  6
CONTINUOUS
 10
-330.702175
 20
117.9646
 30
0.0
 11
-448.666775
 21
117.9646
 31
0.0
  0
CIRCLE
  5
9BDF
  8
DETAIL
  6
CONTINUOUS
 10
-383.015
 20
89.973
 30
0.0
 40
13.5
  0
LINE
  5
9BE0
  8
DETAIL
  6
CONTINUOUS
 10
-448.666775
 20
146.150341
 30
0.0
 11
-448.666775
 21
204.132941
 31
0.0
  0
LINE
  5
9BE1
  8
DETAIL
  6
CONTINUOUS
 10
-450.666175
 20
146.150341
 30
0.0
 11
-450.666175
 21
204.132941
 31
0.0
  0
LINE
  5
9BE2
  8
DETAIL
  6
CONTINUOUS
 10
-388.684775
 20
146.150341
 30
0.0
 11
-388.684775
 21
204.132941
 31
0.0
  0
LINE
  5
9BE3
  8
DETAIL
  6
CONTINUOUS
 10
-390.684175
 20
146.150341
 30
0.0
 11
-390.684175
 21
204.132941
 31
0.0
  0
LINE
  5
9BE4
  8
DETAIL
  6
CONTINUOUS
 10
-450.666175
 20
117.9646
 30
0.0
 11
-495.0
 21
117.9646
 31
0.0
  0
LINE
  5
9BE5
  8
DETAIL
  6
CONTINUOUS
 10
-426.873315
 20
6.9979
 30
0.0
 11
-461.462935
 21
6.9979
 31
0.0
  0
LINE
  5
9BE6
  8
DETAIL
  6
CONTINUOUS
 10
-461.462935
 20
1.59952
 30
0.0
 11
-495.0
 21
1.59952
 31
0.0
  0
LINE
  5
9BE7
  8
DETAIL
  6
CONTINUOUS
 10
-461.462935
 20
0.0
 30
0.0
 11
-461.462935
 21
6.9979
 31
0.0
  0
LINE
  5
9BE8
  8
DETAIL
  6
CONTINUOUS
 10
-459.163625
 20
6.9979
 30
0.0
 11
-459.163625
 21
2.29931
 31
0.0
  0
ARC
  5
9BE9
  8
DETAIL
  6
CONTINUOUS
 10
-461.462935
 20
2.29931
 30
0.0
 40
2.29931
 50
270.0
 51
0.0
  0
ARC
  5
9BEA
  8
DETAIL
  6
CONTINUOUS
 10
-489.654475
 20
145.150641
 30
0.0
 40
0.9997
 50
90.0
 51
270.0
  0
CIRCLE
  5
9BEB
  8
DETAIL
  6
CONTINUOUS
 10
-408.0075
 20
54.9835
 30
0.0
 40
16.0
  0
LINE
  5
9BEC
  8
DETAIL
  6
CONTINUOUS
 10
-426.873315
 20
0.0
 30
0.0
 11
-426.873315
 21
6.9979
 31
0.0
  0
LINE
  5
9BED
  8
DETAIL
  6
CONTINUOUS
 10
-429.172625
 20
6.9979
 30
0.0
 11
-429.172625
 21
2.29931
 31
0.0
  0
ARC
  5
9BEE
  8
DETAIL
  6
CONTINUOUS
 10
-426.873315
 20
2.29931
 30
0.0
 40
2.29931
 50
180.0
 51
270.0
  0
LINE
  5
9BEF
  8
DETAIL
  6
CONTINUOUS
 10
-450.666175
 20
108.161741
 30
0.0
 11
-450.666175
 21
144.150941
 31
0.0
  0
LINE
  5
9BF0
  8
DETAIL
  6
CONTINUOUS
 10
-448.666775
 20
108.161741
 30
0.0
 11
-448.666775
 21
144.150941
 31
0.0
  0
LINE
  5
9BF1
  8
DETAIL
  6
CONTINUOUS
 10
-450.666175
 20
108.161741
 30
0.0
 11
-448.666775
 21
108.161741
 31
0.0
  0
CIRCLE
  5
9BF2
  8
DETAIL
  6
CONTINUOUS
 10
-433.0
 20
89.973
 30
0.0
 40
11.0
  0
ARC
  5
9BF3
  8
DETAIL
  6
CONTINUOUS
 10
-389.684475
 20
119.158441
 30
0.0
 40
0.9997
 50
180.0
 51
0.0
  0
LINE
  5
9BF4
  8
DETAIL
  6
CONTINUOUS
 10
-388.684775
 20
117.9646
 30
0.0
 11
-388.684775
 21
144.150941
 31
0.0
  0
LINE
  5
9BF5
  8
DETAIL
  6
CONTINUOUS
 10
-390.684175
 20
117.9646
 30
0.0
 11
-390.684175
 21
144.150941
 31
0.0
  0
ARC
  5
9BF6
  8
DETAIL
  6
CONTINUOUS
 10
-489.654475
 20
265.114641
 30
0.0
 40
0.9997
 50
90.0
 51
270.0
  0
ARC
  5
9BF7
  8
DETAIL
  6
CONTINUOUS
 10
-489.654475
 20
205.132641
 30
0.0
 40
0.9997
 50
90.0
 51
270.0
  0
ARC
  5
9BF8
  8
DETAIL
  6
CONTINUOUS
 10
-489.654475
 20
325.096641
 30
0.0
 40
0.9997
 50
90.0
 51
270.0
  0
LINE
  5
9BF9
  8
DETAIL
  6
CONTINUOUS
 10
-448.666775
 20
266.114341
 30
0.0
 11
-448.666775
 21
324.096941
 31
0.0
  0
LINE
  5
9BFA
  8
DETAIL
  6
CONTINUOUS
 10
-450.666175
 20
266.114341
 30
0.0
 11
-450.666175
 21
324.096941
 31
0.0
  0
LINE
  5
9BFB
  8
DETAIL
  6
CONTINUOUS
 10
-388.684775
 20
266.114341
 30
0.0
 11
-388.684775
 21
324.096941
 31
0.0
  0
LINE
  5
9BFC
  8
DETAIL
  6
CONTINUOUS
 10
-390.684175
 20
266.114341
 30
0.0
 11
-390.684175
 21
324.096941
 31
0.0
  0
LINE
  5
9BFD
  8
DETAIL
  6
CONTINUOUS
 10
-450.666175
 20
206.132341
 30
0.0
 11
-450.666175
 21
264.114941
 31
0.0
  0
LINE
  5
9BFE
  8
DETAIL
  6
CONTINUOUS
 10
-448.666775
 20
206.132341
 30
0.0
 11
-448.666775
 21
264.114941
 31
0.0
  0
LINE
  5
9BFF
  8
DETAIL
  6
CONTINUOUS
 10
-390.684175
 20
206.132341
 30
0.0
 11
-390.684175
 21
264.114941
 31
0.0
  0
LINE
  5
9C00
  8
DETAIL
  6
CONTINUOUS
 10
-388.684775
 20
206.132341
 30
0.0
 11
-388.684775
 21
264.114941
 31
0.0
  0
LINE
  5
9C01
  8
DETAIL
  6
DASHED
 10
-261.937618
 20
204.132941
 30
0.0
 11
-261.937618
 21
161.992794
 31
0.0
  0
LINE
  5
9C02
  8
DETAIL
  6
DASHED
 10
-246.062382
 20
204.132941
 30
0.0
 11
-246.062382
 21
161.992794
 31
0.0
  0
LINE
  5
9C03
  8
DETAIL
  6
DASHED
 10
-318.30381
 20
204.132941
 30
0.0
 11
-318.30381
 21
137.992794
 31
0.0
  0
LINE
  5
9C04
  8
DETAIL
  6
DASHED
 10
-343.69619
 20
204.132941
 30
0.0
 11
-343.69619
 21
137.992794
 31
0.0
  0
LINE
  5
9C05
  8
DETAIL
  6
CONTINUOUS
 10
-268.720775
 20
146.150341
 30
0.0
 11
-268.720775
 21
204.132941
 31
0.0
  0
LINE
  5
9C06
  8
DETAIL
  6
CONTINUOUS
 10
-329.320854
 20
146.150341
 30
0.0
 11
-329.320854
 21
204.132941
 31
0.0
  0
LINE
  5
9C07
  8
DETAIL
  6
CONTINUOUS
 10
-270.720175
 20
146.150341
 30
0.0
 11
-270.720175
 21
204.132941
 31
0.0
  0
LINE
  5
9C08
  8
DETAIL
  6
CONTINUOUS
 10
-331.320254
 20
146.150341
 30
0.0
 11
-331.320254
 21
204.132941
 31
0.0
  0
LINE
  5
9C09
  8
DETAIL
  6
CONTINUOUS
 10
-270.720175
 20
117.9646
 30
0.0
 11
-328.702775
 21
117.9646
 31
0.0
  0
LINE
  5
9C0A
  8
DETAIL
  6
CONTINUOUS
 10
-253.03
 20
79.976
 30
0.0
 11
-333.006
 21
79.976
 31
0.0
  0
LINE
  5
9C0B
  8
DETAIL
  6
CONTINUOUS
 10
-253.03
 20
14.9955
 30
0.0
 11
-333.006
 21
14.9955
 31
0.0
  0
ARC
  5
9C0C
  8
DETAIL
  6
CONTINUOUS
 10
-333.006
 20
59.982
 30
0.0
 40
19.994
 50
90.0
 51
180.0
  0
ARC
  5
9C0D
  8
DETAIL
  6
CONTINUOUS
 10
-333.006
 20
34.9895
 30
0.0
 40
19.994
 50
180.0
 51
270.0
  0
LINE
  5
9C0E
  8
DETAIL
  6
CONTINUOUS
 10
-353.0
 20
34.9895
 30
0.0
 11
-353.0
 21
59.982
 31
0.0
  0
LINE
  5
9C0F
  8
DETAIL
  6
DASHED
 10
-343.69619
 20
137.992794
 30
0.0
 11
-318.30381
 21
137.992794
 31
0.0
  0
LINE
  5
9C10
  8
DETAIL
  6
CONTINUOUS
 10
-330.702175
 20
108.161741
 30
0.0
 11
-330.702175
 21
144.150941
 31
0.0
  0
LINE
  5
9C11
  8
DETAIL
  6
CONTINUOUS
 10
-328.702775
 20
108.161741
 30
0.0
 11
-328.702775
 21
144.150941
 31
0.0
  0
LINE
  5
9C12
  8
DETAIL
  6
CONTINUOUS
 10
-330.702175
 20
108.161741
 30
0.0
 11
-328.702775
 21
108.161741
 31
0.0
  0
ARC
  5
9C13
  8
DETAIL
  6
CONTINUOUS
 10
-253.03
 20
59.982
 30
0.0
 40
19.994
 50
0.0
 51
90.0
  0
ARC
  5
9C14
  8
DETAIL
  6
CONTINUOUS
 10
-253.03
 20
34.9895
 30
0.0
 40
19.994
 50
270.0
 51
0.0
  0
LINE
  5
9C15
  8
DETAIL
  6
CONTINUOUS
 10
-233.036
 20
34.9895
 30
0.0
 11
-233.036
 21
59.982
 31
0.0
  0
LINE
  5
9C16
  8
DETAIL
  6
DASHED
 10
-261.937618
 20
161.992794
 30
0.0
 11
-246.062382
 21
161.992794
 31
0.0
  0
LINE
  5
9C17
  8
DETAIL
  6
CONTINUOUS
 10
-270.720175
 20
108.161741
 30
0.0
 11
-270.720175
 21
144.150941
 31
0.0
  0
LINE
  5
9C18
  8
DETAIL
  6
CONTINUOUS
 10
-268.720775
 20
108.161741
 30
0.0
 11
-268.720775
 21
144.150941
 31
0.0
  0
LINE
  5
9C19
  8
DETAIL
  6
CONTINUOUS
 10
-270.720175
 20
108.161741
 30
0.0
 11
-268.720775
 21
108.161741
 31
0.0
  0
LINE
  5
9C1A
  8
DETAIL
  6
CONTINUOUS
 10
-328.702775
 20
266.114341
 30
0.0
 11
-328.702775
 21
324.096941
 31
0.0
  0
LINE
  5
9C1B
  8
DETAIL
  6
CONTINUOUS
 10
-330.702175
 20
266.114341
 30
0.0
 11
-330.702175
 21
324.096941
 31
0.0
  0
LINE
  5
9C1C
  8
DETAIL
  6
CONTINUOUS
 10
-328.702775
 20
206.132341
 30
0.0
 11
-328.702775
 21
264.114941
 31
0.0
  0
LINE
  5
9C1D
  8
DETAIL
  6
CONTINUOUS
 10
-330.702175
 20
206.132341
 30
0.0
 11
-330.702175
 21
264.114941
 31
0.0
  0
LINE
  5
9C1E
  8
DETAIL
  6
CONTINUOUS
 10
-268.720775
 20
266.114341
 30
0.0
 11
-268.720775
 21
324.096941
 31
0.0
  0
LINE
  5
9C1F
  8
DETAIL
  6
CONTINUOUS
 10
-270.720175
 20
266.114341
 30
0.0
 11
-270.720175
 21
324.096941
 31
0.0
  0
LINE
  5
9C20
  8
DETAIL
  6
CONTINUOUS
 10
-268.720775
 20
206.132341
 30
0.0
 11
-268.720775
 21
264.114941
 31
0.0
  0
LINE
  5
9C21
  8
DETAIL
  6
CONTINUOUS
 10
-270.720175
 20
206.132341
 30
0.0
 11
-270.720175
 21
264.114941
 31
0.0
  0
ARC
  5
9C22
  8
DETAIL
  6
CONTINUOUS
 10
-489.654475
 20
565.024641
 30
0.0
 40
0.9997
 50
90.0
 51
270.0
  0
ARC
  5
9C23
  8
DETAIL
  6
CONTINUOUS
 10
-489.654475
 20
385.078641
 30
0.0
 40
0.9997
 50
90.0
 51
270.0
  0
ARC
  5
9C24
  8
DETAIL
  6
CONTINUOUS
 10
-489.654475
 20
445.060641
 30
0.0
 40
0.9997
 50
90.0
 51
270.0
  0
CIRCLE
  5
9C25
  8
DETAIL
  6
CONTINUOUS
 10
-479.657475
 20
501.043841
 30
0.0
 40
5.9982
  0
LINE
  5
9C26
  8
DETAIL
  6
CONTINUOUS
 10
-390.684175
 20
446.060341
 30
0.0
 11
-390.684175
 21
504.042941
 31
0.0
  0
LINE
  5
9C27
  8
DETAIL
  6
CONTINUOUS
 10
-388.684775
 20
446.060341
 30
0.0
 11
-388.684775
 21
504.042941
 31
0.0
  0
LINE
  5
9C28
  8
DETAIL
  6
CONTINUOUS
 10
-450.666175
 20
446.060341
 30
0.0
 11
-450.666175
 21
504.042941
 31
0.0
  0
LINE
  5
9C29
  8
DETAIL
  6
CONTINUOUS
 10
-448.666775
 20
446.060341
 30
0.0
 11
-448.666775
 21
504.042941
 31
0.0
  0
LINE
  5
9C2A
  8
DETAIL
  6
CONTINUOUS
 10
-450.666175
 20
386.078341
 30
0.0
 11
-450.666175
 21
444.060941
 31
0.0
  0
LINE
  5
9C2B
  8
DETAIL
  6
CONTINUOUS
 10
-448.666775
 20
386.078341
 30
0.0
 11
-448.666775
 21
444.060941
 31
0.0
  0
LINE
  5
9C2C
  8
DETAIL
  6
CONTINUOUS
 10
-390.684175
 20
386.078341
 30
0.0
 11
-390.684175
 21
444.060941
 31
0.0
  0
LINE
  5
9C2D
  8
DETAIL
  6
CONTINUOUS
 10
-388.684775
 20
386.078341
 30
0.0
 11
-388.684775
 21
444.060941
 31
0.0
  0
LINE
  5
9C2E
  8
DETAIL
  6
CONTINUOUS
 10
-450.666175
 20
506.042341
 30
0.0
 11
-450.666175
 21
564.024941
 31
0.0
  0
LINE
  5
9C2F
  8
DETAIL
  6
CONTINUOUS
 10
-448.666775
 20
506.042341
 30
0.0
 11
-448.666775
 21
564.024941
 31
0.0
  0
LINE
  5
9C30
  8
DETAIL
  6
CONTINUOUS
 10
-390.684175
 20
506.042341
 30
0.0
 11
-390.684175
 21
564.024941
 31
0.0
  0
LINE
  5
9C31
  8
DETAIL
  6
CONTINUOUS
 10
-388.684775
 20
506.042341
 30
0.0
 11
-388.684775
 21
564.024941
 31
0.0
  0
ARC
  5
9C32
  8
DETAIL
  6
CONTINUOUS
 10
-489.654475
 20
625.006641
 30
0.0
 40
0.9997
 50
90.0
 51
270.0
  0
ARC
  5
9C33
  8
DETAIL
  6
CONTINUOUS
 10
-489.654475
 20
684.988641
 30
0.0
 40
0.9997
 50
90.0
 51
270.0
  0
ARC
  5
9C34
  8
DETAIL
  6
CONTINUOUS
 10
-489.654475
 20
744.970641
 30
0.0
 40
0.9997
 50
90.0
 51
270.0
  0
LINE
  5
9C35
  8
DETAIL
  6
CONTINUOUS
 10
-450.666175
 20
626.006341
 30
0.0
 11
-450.666175
 21
683.988941
 31
0.0
  0
LINE
  5
9C36
  8
DETAIL
  6
CONTINUOUS
 10
-448.666775
 20
626.006341
 30
0.0
 11
-448.666775
 21
683.988941
 31
0.0
  0
LINE
  5
9C37
  8
DETAIL
  6
CONTINUOUS
 10
-390.684175
 20
626.006341
 30
0.0
 11
-390.684175
 21
683.988941
 31
0.0
  0
LINE
  5
9C38
  8
DETAIL
  6
CONTINUOUS
 10
-388.684775
 20
626.006341
 30
0.0
 11
-388.684775
 21
683.988941
 31
0.0
  0
LINE
  5
9C39
  8
DETAIL
  6
CONTINUOUS
 10
-450.666175
 20
566.0243409999999
 30
0.0
 11
-450.666175
 21
624.006941
 31
0.0
  0
LINE
  5
9C3A
  8
DETAIL
  6
CONTINUOUS
 10
-448.666775
 20
566.0243409999999
 30
0.0
 11
-448.666775
 21
624.006941
 31
0.0
  0
LINE
  5
9C3B
  8
DETAIL
  6
CONTINUOUS
 10
-390.684175
 20
566.0243409999999
 30
0.0
 11
-390.684175
 21
624.006941
 31
0.0
  0
LINE
  5
9C3C
  8
DETAIL
  6
CONTINUOUS
 10
-388.684775
 20
566.0243409999999
 30
0.0
 11
-388.684775
 21
624.006941
 31
0.0
  0
LINE
  5
9C3D
  8
DETAIL
  6
CONTINUOUS
 10
-450.666175
 20
685.988341
 30
0.0
 11
-450.666175
 21
743.970941
 31
0.0
  0
LINE
  5
9C3E
  8
DETAIL
  6
CONTINUOUS
 10
-448.666775
 20
685.988341
 30
0.0
 11
-448.666775
 21
743.970941
 31
0.0
  0
LINE
  5
9C3F
  8
DETAIL
  6
CONTINUOUS
 10
-390.684175
 20
685.988341
 30
0.0
 11
-390.684175
 21
743.970941
 31
0.0
  0
LINE
  5
9C40
  8
DETAIL
  6
CONTINUOUS
 10
-388.684775
 20
685.988341
 30
0.0
 11
-388.684775
 21
743.970941
 31
0.0
  0
LINE
  5
9C41
  8
DETAIL
  6
CONTINUOUS
 10
-330.702175
 20
446.060341
 30
0.0
 11
-330.702175
 21
504.042941
 31
0.0
  0
LINE
  5
9C42
  8
DETAIL
  6
CONTINUOUS
 10
-328.702775
 20
446.060341
 30
0.0
 11
-328.702775
 21
504.042941
 31
0.0
  0
LINE
  5
9C43
  8
DETAIL
  6
CONTINUOUS
 10
-330.702175
 20
386.078341
 30
0.0
 11
-330.702175
 21
444.060941
 31
0.0
  0
LINE
  5
9C44
  8
DETAIL
  6
CONTINUOUS
 10
-328.702775
 20
386.078341
 30
0.0
 11
-328.702775
 21
444.060941
 31
0.0
  0
LINE
  5
9C45
  8
DETAIL
  6
CONTINUOUS
 10
-330.702175
 20
506.042341
 30
0.0
 11
-330.702175
 21
564.024941
 31
0.0
  0
LINE
  5
9C46
  8
DETAIL
  6
CONTINUOUS
 10
-328.702775
 20
506.042341
 30
0.0
 11
-328.702775
 21
564.024941
 31
0.0
  0
LINE
  5
9C47
  8
DETAIL
  6
CONTINUOUS
 10
-270.720175
 20
446.060341
 30
0.0
 11
-270.720175
 21
504.042941
 31
0.0
  0
LINE
  5
9C48
  8
DETAIL
  6
CONTINUOUS
 10
-268.720775
 20
446.060341
 30
0.0
 11
-268.720775
 21
504.042941
 31
0.0
  0
LINE
  5
9C49
  8
DETAIL
  6
CONTINUOUS
 10
-270.720175
 20
386.078341
 30
0.0
 11
-270.720175
 21
444.060941
 31
0.0
  0
LINE
  5
9C4A
  8
DETAIL
  6
CONTINUOUS
 10
-268.720775
 20
386.078341
 30
0.0
 11
-268.720775
 21
444.060941
 31
0.0
  0
LINE
  5
9C4B
  8
DETAIL
  6
CONTINUOUS
 10
-231.731875
 20
446.36605
 30
0.0
 11
-231.731875
 21
445.36635
 31
0.0
  0
LINE
  5
9C4C
  8
DETAIL
  6
CONTINUOUS
 10
-231.731875
 20
445.36635
 30
0.0
 11
-230.732175
 21
445.36635
 31
0.0
  0
LINE
  5
9C4D
  8
DETAIL
  6
CONTINUOUS
 10
-270.720175
 20
506.042341
 30
0.0
 11
-270.720175
 21
564.024941
 31
0.0
  0
LINE
  5
9C4E
  8
DETAIL
  6
CONTINUOUS
 10
-268.720775
 20
506.042341
 30
0.0
 11
-268.720775
 21
564.024941
 31
0.0
  0
LINE
  5
9C4F
  8
DETAIL
  6
CONTINUOUS
 10
-330.702175
 20
626.006341
 30
0.0
 11
-330.702175
 21
683.988941
 31
0.0
  0
LINE
  5
9C50
  8
DETAIL
  6
CONTINUOUS
 10
-328.702775
 20
626.006341
 30
0.0
 11
-328.702775
 21
683.988941
 31
0.0
  0
LINE
  5
9C51
  8
DETAIL
  6
CONTINUOUS
 10
-330.702175
 20
566.0243409999999
 30
0.0
 11
-330.702175
 21
624.006941
 31
0.0
  0
LINE
  5
9C52
  8
DETAIL
  6
CONTINUOUS
 10
-328.702775
 20
566.0243409999999
 30
0.0
 11
-328.702775
 21
624.006941
 31
0.0
  0
LINE
  5
9C53
  8
DETAIL
  6
CONTINUOUS
 10
-330.702175
 20
685.988341
 30
0.0
 11
-330.702175
 21
743.970941
 31
0.0
  0
LINE
  5
9C54
  8
DETAIL
  6
CONTINUOUS
 10
-328.702775
 20
685.988341
 30
0.0
 11
-328.702775
 21
743.970941
 31
0.0
  0
LINE
  5
9C55
  8
DETAIL
  6
CONTINUOUS
 10
-270.720175
 20
626.006341
 30
0.0
 11
-270.720175
 21
683.988941
 31
0.0
  0
LINE
  5
9C56
  8
DETAIL
  6
CONTINUOUS
 10
-268.720775
 20
626.006341
 30
0.0
 11
-268.720775
 21
683.988941
 31
0.0
  0
LINE
  5
9C57
  8
DETAIL
  6
CONTINUOUS
 10
-270.720175
 20
566.0243409999999
 30
0.0
 11
-270.720175
 21
624.006941
 31
0.0
  0
LINE
  5
9C58
  8
DETAIL
  6
CONTINUOUS
 10
-268.720775
 20
566.0243409999999
 30
0.0
 11
-268.720775
 21
624.006941
 31
0.0
  0
LINE
  5
9C59
  8
DETAIL
  6
CONTINUOUS
 10
-268.720775
 20
685.988341
 30
0.0
 11
-268.720775
 21
743.970941
 31
0.0
  0
LINE
  5
9C5A
  8
DETAIL
  6
CONTINUOUS
 10
-270.720175
 20
685.988341
 30
0.0
 11
-270.720175
 21
743.970941
 31
0.0
  0
LINE
  5
9C5B
  8
DETAIL
  6
CONTINUOUS
 10
-210.738175
 20
326.096341
 30
0.0
 11
-210.738175
 21
384.078941
 31
0.0
  0
LINE
  5
9C5C
  8
DETAIL
  6
CONTINUOUS
 10
-150.756175
 20
326.096341
 30
0.0
 11
-150.756175
 21
384.078941
 31
0.0
  0
LINE
  5
9C5D
  8
DETAIL
  6
CONTINUOUS
 10
-90.774175
 20
326.096341
 30
0.0
 11
-90.774175
 21
384.078941
 31
0.0
  0
LINE
  5
9C5E
  8
DETAIL
  6
CONTINUOUS
 10
-30.792175
 20
326.096341
 30
0.0
 11
-30.792175
 21
384.078941
 31
0.0
  0
LINE
  5
9C5F
  8
DETAIL
  6
CONTINUOUS
 10
29.189825
 20
326.096341
 30
0.0
 11
29.189825
 21
384.078941
 31
0.0
  0
LINE
  5
9C60
  8
DETAIL
  6
CONTINUOUS
 10
89.17182500000001
 20
326.096341
 30
0.0
 11
89.17182500000001
 21
384.078941
 31
0.0
  0
LINE
  5
9C61
  8
DETAIL
  6
CONTINUOUS
 10
-208.738775
 20
326.096341
 30
0.0
 11
-208.738775
 21
384.078941
 31
0.0
  0
LINE
  5
9C62
  8
DETAIL
  6
CONTINUOUS
 10
-148.756775
 20
326.096341
 30
0.0
 11
-148.756775
 21
384.078941
 31
0.0
  0
LINE
  5
9C63
  8
DETAIL
  6
CONTINUOUS
 10
-88.77477499999999
 20
326.096341
 30
0.0
 11
-88.77477499999999
 21
384.078941
 31
0.0
  0
LINE
  5
9C64
  8
DETAIL
  6
CONTINUOUS
 10
-28.792775
 20
326.096341
 30
0.0
 11
-28.792775
 21
384.078941
 31
0.0
  0
LINE
  5
9C65
  8
DETAIL
  6
CONTINUOUS
 10
31.189225
 20
326.096341
 30
0.0
 11
31.189225
 21
384.078941
 31
0.0
  0
LINE
  5
9C66
  8
DETAIL
  6
CONTINUOUS
 10
91.171225
 20
326.096341
 30
0.0
 11
91.171225
 21
384.078941
 31
0.0
  0
LINE
  5
9C67
  8
DETAIL
  6
CONTINUOUS
 10
29.189825
 20
117.9646
 30
0.0
 11
-88.77477499999999
 21
117.9646
 31
0.0
  0
LINE
  5
9C68
  8
DETAIL
  6
CONTINUOUS
 10
-148.756775
 20
146.150341
 30
0.0
 11
-148.756775
 21
204.132941
 31
0.0
  0
LINE
  5
9C69
  8
DETAIL
  6
CONTINUOUS
 10
-208.738775
 20
146.150341
 30
0.0
 11
-208.738775
 21
204.132941
 31
0.0
  0
LINE
  5
9C6A
  8
DETAIL
  6
CONTINUOUS
 10
-150.756175
 20
146.150341
 30
0.0
 11
-150.756175
 21
204.132941
 31
0.0
  0
LINE
  5
9C6B
  8
DETAIL
  6
CONTINUOUS
 10
-210.738175
 20
146.150341
 30
0.0
 11
-210.738175
 21
204.132941
 31
0.0
  0
LINE
  5
9C6C
  8
DETAIL
  6
CONTINUOUS
 10
-88.77477499999999
 20
146.150341
 30
0.0
 11
-88.77477499999999
 21
204.132941
 31
0.0
  0
LINE
  5
9C6D
  8
DETAIL
  6
CONTINUOUS
 10
-90.774175
 20
146.150341
 30
0.0
 11
-90.774175
 21
204.132941
 31
0.0
  0
LINE
  5
9C6E
  8
DETAIL
  6
CONTINUOUS
 10
-90.774175
 20
117.9646
 30
0.0
 11
-148.756775
 21
117.9646
 31
0.0
  0
LINE
  5
9C6F
  8
DETAIL
  6
CONTINUOUS
 10
-150.756175
 20
117.9646
 30
0.0
 11
-208.738775
 21
117.9646
 31
0.0
  0
LINE
  5
9C70
  8
DETAIL
  6
CONTINUOUS
 10
-210.738175
 20
108.161741
 30
0.0
 11
-210.738175
 21
144.150941
 31
0.0
  0
LINE
  5
9C71
  8
DETAIL
  6
CONTINUOUS
 10
-208.738775
 20
108.161741
 30
0.0
 11
-208.738775
 21
144.150941
 31
0.0
  0
LINE
  5
9C72
  8
DETAIL
  6
CONTINUOUS
 10
-210.738175
 20
108.161741
 30
0.0
 11
-208.738775
 21
108.161741
 31
0.0
  0
LINE
  5
9C73
  8
DETAIL
  6
CONTINUOUS
 10
-150.756175
 20
108.161741
 30
0.0
 11
-150.756175
 21
144.150941
 31
0.0
  0
LINE
  5
9C74
  8
DETAIL
  6
CONTINUOUS
 10
-148.756775
 20
108.161741
 30
0.0
 11
-148.756775
 21
144.150941
 31
0.0
  0
LINE
  5
9C75
  8
DETAIL
  6
CONTINUOUS
 10
-150.756175
 20
108.161741
 30
0.0
 11
-148.756775
 21
108.161741
 31
0.0
  0
LINE
  5
9C76
  8
DETAIL
  6
CONTINUOUS
 10
-90.774175
 20
108.161741
 30
0.0
 11
-90.774175
 21
144.150941
 31
0.0
  0
LINE
  5
9C77
  8
DETAIL
  6
CONTINUOUS
 10
-88.77477499999999
 20
108.161741
 30
0.0
 11
-88.77477499999999
 21
144.150941
 31
0.0
  0
LINE
  5
9C78
  8
DETAIL
  6
CONTINUOUS
 10
-90.774175
 20
108.161741
 30
0.0
 11
-88.77477499999999
 21
108.161741
 31
0.0
  0
LINE
  5
9C79
  8
DETAIL
  6
CONTINUOUS
 10
-148.756775
 20
266.114341
 30
0.0
 11
-148.756775
 21
324.096941
 31
0.0
  0
LINE
  5
9C7A
  8
DETAIL
  6
CONTINUOUS
 10
-208.738775
 20
266.114341
 30
0.0
 11
-208.738775
 21
324.096941
 31
0.0
  0
LINE
  5
9C7B
  8
DETAIL
  6
CONTINUOUS
 10
-150.756175
 20
266.114341
 30
0.0
 11
-150.756175
 21
324.096941
 31
0.0
  0
LINE
  5
9C7C
  8
DETAIL
  6
CONTINUOUS
 10
-210.738175
 20
266.114341
 30
0.0
 11
-210.738175
 21
324.096941
 31
0.0
  0
LINE
  5
9C7D
  8
DETAIL
  6
CONTINUOUS
 10
-208.738775
 20
206.132341
 30
0.0
 11
-208.738775
 21
264.114941
 31
0.0
  0
LINE
  5
9C7E
  8
DETAIL
  6
CONTINUOUS
 10
-210.738175
 20
206.132341
 30
0.0
 11
-210.738175
 21
264.114941
 31
0.0
  0
LINE
  5
9C7F
  8
DETAIL
  6
CONTINUOUS
 10
-148.756775
 20
206.132341
 30
0.0
 11
-148.756775
 21
264.114941
 31
0.0
  0
LINE
  5
9C80
  8
DETAIL
  6
CONTINUOUS
 10
-150.756175
 20
206.132341
 30
0.0
 11
-150.756175
 21
264.114941
 31
0.0
  0
LINE
  5
9C81
  8
DETAIL
  6
CONTINUOUS
 10
-88.77477499999999
 20
266.114341
 30
0.0
 11
-88.77477499999999
 21
324.096941
 31
0.0
  0
LINE
  5
9C82
  8
DETAIL
  6
CONTINUOUS
 10
-90.774175
 20
266.114341
 30
0.0
 11
-90.774175
 21
324.096941
 31
0.0
  0
LINE
  5
9C83
  8
DETAIL
  6
CONTINUOUS
 10
-88.77477499999999
 20
206.132341
 30
0.0
 11
-88.77477499999999
 21
264.114941
 31
0.0
  0
LINE
  5
9C84
  8
DETAIL
  6
CONTINUOUS
 10
-90.774175
 20
206.132341
 30
0.0
 11
-90.774175
 21
264.114941
 31
0.0
  0
LINE
  5
9C85
  8
DETAIL
  6
CONTINUOUS
 10
91.171225
 20
146.150341
 30
0.0
 11
91.171225
 21
204.132941
 31
0.0
  0
LINE
  5
9C86
  8
DETAIL
  6
CONTINUOUS
 10
31.189225
 20
146.150341
 30
0.0
 11
31.189225
 21
204.132941
 31
0.0
  0
LINE
  5
9C87
  8
DETAIL
  6
CONTINUOUS
 10
89.17182500000001
 20
146.150341
 30
0.0
 11
89.17182500000001
 21
204.132941
 31
0.0
  0
LINE
  5
9C88
  8
DETAIL
  6
CONTINUOUS
 10
29.189825
 20
146.150341
 30
0.0
 11
29.189825
 21
204.132941
 31
0.0
  0
LINE
  5
9C89
  8
DETAIL
  6
CONTINUOUS
 10
-30.792175
 20
146.150341
 30
0.0
 11
-30.792175
 21
204.132941
 31
0.0
  0
LINE
  5
9C8A
  8
DETAIL
  6
CONTINUOUS
 10
-28.792775
 20
146.150341
 30
0.0
 11
-28.792775
 21
204.132941
 31
0.0
  0
ARC
  5
9C8B
  8
DETAIL
  6
CONTINUOUS
 10
-29.792475
 20
119.158441
 30
0.0
 40
0.9997
 50
180.0
 51
0.0
  0
LINE
  5
9C8C
  8
DETAIL
  6
CONTINUOUS
 10
-28.792775
 20
117.9646
 30
0.0
 11
-28.792775
 21
144.150941
 31
0.0
  0
LINE
  5
9C8D
  8
DETAIL
  6
CONTINUOUS
 10
-30.792175
 20
117.9646
 30
0.0
 11
-30.792175
 21
144.150941
 31
0.0
  0
LINE
  5
9C8E
  8
DETAIL
  6
CONTINUOUS
 10
89.17182500000001
 20
117.9646
 30
0.0
 11
31.189225
 21
117.9646
 31
0.0
  0
LINE
  5
9C8F
  8
DETAIL
  6
CONTINUOUS
 10
29.189825
 20
108.161741
 30
0.0
 11
29.189825
 21
144.150941
 31
0.0
  0
LINE
  5
9C90
  8
DETAIL
  6
CONTINUOUS
 10
31.189225
 20
108.161741
 30
0.0
 11
31.189225
 21
144.150941
 31
0.0
  0
LINE
  5
9C91
  8
DETAIL
  6
CONTINUOUS
 10
29.189825
 20
108.161741
 30
0.0
 11
31.189225
 21
108.161741
 31
0.0
  0
LINE
  5
9C92
  8
DETAIL
  6
CONTINUOUS
 10
89.17182500000001
 20
108.161741
 30
0.0
 11
89.17182500000001
 21
144.150941
 31
0.0
  0
LINE
  5
9C93
  8
DETAIL
  6
CONTINUOUS
 10
91.171225
 20
108.161741
 30
0.0
 11
91.171225
 21
144.150941
 31
0.0
  0
LINE
  5
9C94
  8
DETAIL
  6
CONTINUOUS
 10
89.17182500000001
 20
108.161741
 30
0.0
 11
91.171225
 21
108.161741
 31
0.0
  0
LINE
  5
9C95
  8
DETAIL
  6
CONTINUOUS
 10
-28.792775
 20
266.114341
 30
0.0
 11
-28.792775
 21
324.096941
 31
0.0
  0
LINE
  5
9C96
  8
DETAIL
  6
CONTINUOUS
 10
-30.792175
 20
266.114341
 30
0.0
 11
-30.792175
 21
324.096941
 31
0.0
  0
LINE
  5
9C97
  8
DETAIL
  6
CONTINUOUS
 10
-28.792775
 20
206.132341
 30
0.0
 11
-28.792775
 21
264.114941
 31
0.0
  0
LINE
  5
9C98
  8
DETAIL
  6
CONTINUOUS
 10
-30.792175
 20
206.132341
 30
0.0
 11
-30.792175
 21
264.114941
 31
0.0
  0
LINE
  5
9C99
  8
DETAIL
  6
CONTINUOUS
 10
91.171225
 20
266.114341
 30
0.0
 11
91.171225
 21
324.096941
 31
0.0
  0
LINE
  5
9C9A
  8
DETAIL
  6
CONTINUOUS
 10
31.189225
 20
266.114341
 30
0.0
 11
31.189225
 21
324.096941
 31
0.0
  0
LINE
  5
9C9B
  8
DETAIL
  6
CONTINUOUS
 10
89.17182500000001
 20
266.114341
 30
0.0
 11
89.17182500000001
 21
324.096941
 31
0.0
  0
LINE
  5
9C9C
  8
DETAIL
  6
CONTINUOUS
 10
29.189825
 20
266.114341
 30
0.0
 11
29.189825
 21
324.096941
 31
0.0
  0
LINE
  5
9C9D
  8
DETAIL
  6
CONTINUOUS
 10
31.189225
 20
206.132341
 30
0.0
 11
31.189225
 21
264.114941
 31
0.0
  0
LINE
  5
9C9E
  8
DETAIL
  6
CONTINUOUS
 10
29.189825
 20
206.132341
 30
0.0
 11
29.189825
 21
264.114941
 31
0.0
  0
LINE
  5
9C9F
  8
DETAIL
  6
CONTINUOUS
 10
91.171225
 20
206.132341
 30
0.0
 11
91.171225
 21
264.114941
 31
0.0
  0
LINE
  5
9CA0
  8
DETAIL
  6
CONTINUOUS
 10
89.17182500000001
 20
206.132341
 30
0.0
 11
89.17182500000001
 21
264.114941
 31
0.0
  0
LINE
  5
9CA1
  8
DETAIL
  6
CONTINUOUS
 10
-210.738175
 20
446.060341
 30
0.0
 11
-210.738175
 21
504.042941
 31
0.0
  0
LINE
  5
9CA2
  8
DETAIL
  6
CONTINUOUS
 10
-150.756175
 20
446.060341
 30
0.0
 11
-150.756175
 21
504.042941
 31
0.0
  0
LINE
  5
9CA3
  8
DETAIL
  6
CONTINUOUS
 10
-208.738775
 20
446.060341
 30
0.0
 11
-208.738775
 21
504.042941
 31
0.0
  0
LINE
  5
9CA4
  8
DETAIL
  6
CONTINUOUS
 10
-148.756775
 20
446.060341
 30
0.0
 11
-148.756775
 21
504.042941
 31
0.0
  0
LINE
  5
9CA5
  8
DETAIL
  6
CONTINUOUS
 10
-210.738175
 20
386.078341
 30
0.0
 11
-210.738175
 21
444.060941
 31
0.0
  0
LINE
  5
9CA6
  8
DETAIL
  6
CONTINUOUS
 10
-208.738775
 20
386.078341
 30
0.0
 11
-208.738775
 21
444.060941
 31
0.0
  0
LINE
  5
9CA7
  8
DETAIL
  6
CONTINUOUS
 10
-150.756175
 20
386.078341
 30
0.0
 11
-150.756175
 21
444.060941
 31
0.0
  0
LINE
  5
9CA8
  8
DETAIL
  6
CONTINUOUS
 10
-148.756775
 20
386.078341
 30
0.0
 11
-148.756775
 21
444.060941
 31
0.0
  0
LINE
  5
9CA9
  8
DETAIL
  6
CONTINUOUS
 10
-210.738175
 20
506.042341
 30
0.0
 11
-210.738175
 21
564.024941
 31
0.0
  0
LINE
  5
9CAA
  8
DETAIL
  6
CONTINUOUS
 10
-208.738775
 20
506.042341
 30
0.0
 11
-208.738775
 21
564.024941
 31
0.0
  0
LINE
  5
9CAB
  8
DETAIL
  6
CONTINUOUS
 10
-150.756175
 20
506.042341
 30
0.0
 11
-150.756175
 21
564.024941
 31
0.0
  0
LINE
  5
9CAC
  8
DETAIL
  6
CONTINUOUS
 10
-148.756775
 20
506.042341
 30
0.0
 11
-148.756775
 21
564.024941
 31
0.0
  0
LINE
  5
9CAD
  8
DETAIL
  6
CONTINUOUS
 10
-90.774175
 20
446.060341
 30
0.0
 11
-90.774175
 21
504.042941
 31
0.0
  0
LINE
  5
9CAE
  8
DETAIL
  6
CONTINUOUS
 10
-88.77477499999999
 20
446.060341
 30
0.0
 11
-88.77477499999999
 21
504.042941
 31
0.0
  0
LINE
  5
9CAF
  8
DETAIL
  6
CONTINUOUS
 10
-90.774175
 20
386.078341
 30
0.0
 11
-90.774175
 21
444.060941
 31
0.0
  0
LINE
  5
9CB0
  8
DETAIL
  6
CONTINUOUS
 10
-88.77477499999999
 20
386.078341
 30
0.0
 11
-88.77477499999999
 21
444.060941
 31
0.0
  0
LINE
  5
9CB1
  8
DETAIL
  6
CONTINUOUS
 10
-90.774175
 20
506.042341
 30
0.0
 11
-90.774175
 21
564.024941
 31
0.0
  0
LINE
  5
9CB2
  8
DETAIL
  6
CONTINUOUS
 10
-88.77477499999999
 20
506.042341
 30
0.0
 11
-88.77477499999999
 21
564.024941
 31
0.0
  0
LINE
  5
9CB3
  8
DETAIL
  6
CONTINUOUS
 10
-210.738175
 20
626.006341
 30
0.0
 11
-210.738175
 21
683.988941
 31
0.0
  0
LINE
  5
9CB4
  8
DETAIL
  6
CONTINUOUS
 10
-150.756175
 20
626.006341
 30
0.0
 11
-150.756175
 21
683.988941
 31
0.0
  0
LINE
  5
9CB5
  8
DETAIL
  6
CONTINUOUS
 10
-208.738775
 20
626.006341
 30
0.0
 11
-208.738775
 21
683.988941
 31
0.0
  0
LINE
  5
9CB6
  8
DETAIL
  6
CONTINUOUS
 10
-148.756775
 20
626.006341
 30
0.0
 11
-148.756775
 21
683.988941
 31
0.0
  0
LINE
  5
9CB7
  8
DETAIL
  6
CONTINUOUS
 10
-210.738175
 20
566.0243409999999
 30
0.0
 11
-210.738175
 21
624.006941
 31
0.0
  0
LINE
  5
9CB8
  8
DETAIL
  6
CONTINUOUS
 10
-208.738775
 20
566.0243409999999
 30
0.0
 11
-208.738775
 21
624.006941
 31
0.0
  0
LINE
  5
9CB9
  8
DETAIL
  6
CONTINUOUS
 10
-150.756175
 20
566.0243409999999
 30
0.0
 11
-150.756175
 21
624.006941
 31
0.0
  0
LINE
  5
9CBA
  8
DETAIL
  6
CONTINUOUS
 10
-148.756775
 20
566.0243409999999
 30
0.0
 11
-148.756775
 21
624.006941
 31
0.0
  0
LINE
  5
9CBB
  8
DETAIL
  6
CONTINUOUS
 10
-210.738175
 20
685.988341
 30
0.0
 11
-210.738175
 21
743.970941
 31
0.0
  0
LINE
  5
9CBC
  8
DETAIL
  6
CONTINUOUS
 10
-208.738775
 20
685.988341
 30
0.0
 11
-208.738775
 21
743.970941
 31
0.0
  0
LINE
  5
9CBD
  8
DETAIL
  6
CONTINUOUS
 10
-150.756175
 20
685.988341
 30
0.0
 11
-150.756175
 21
743.970941
 31
0.0
  0
LINE
  5
9CBE
  8
DETAIL
  6
CONTINUOUS
 10
-148.756775
 20
685.988341
 30
0.0
 11
-148.756775
 21
743.970941
 31
0.0
  0
LINE
  5
9CBF
  8
DETAIL
  6
CONTINUOUS
 10
-90.774175
 20
626.006341
 30
0.0
 11
-90.774175
 21
683.988941
 31
0.0
  0
LINE
  5
9CC0
  8
DETAIL
  6
CONTINUOUS
 10
-88.77477499999999
 20
626.006341
 30
0.0
 11
-88.77477499999999
 21
683.988941
 31
0.0
  0
LINE
  5
9CC1
  8
DETAIL
  6
CONTINUOUS
 10
-90.774175
 20
566.0243409999999
 30
0.0
 11
-90.774175
 21
624.006941
 31
0.0
  0
LINE
  5
9CC2
  8
DETAIL
  6
CONTINUOUS
 10
-88.77477499999999
 20
566.0243409999999
 30
0.0
 11
-88.77477499999999
 21
624.006941
 31
0.0
  0
LINE
  5
9CC3
  8
DETAIL
  6
CONTINUOUS
 10
-90.774175
 20
685.988341
 30
0.0
 11
-90.774175
 21
743.970941
 31
0.0
  0
LINE
  5
9CC4
  8
DETAIL
  6
CONTINUOUS
 10
-88.77477499999999
 20
685.988341
 30
0.0
 11
-88.77477499999999
 21
743.970941
 31
0.0
  0
LINE
  5
9CC5
  8
DETAIL
  6
CONTINUOUS
 10
-30.792175
 20
446.060341
 30
0.0
 11
-30.792175
 21
504.042941
 31
0.0
  0
LINE
  5
9CC6
  8
DETAIL
  6
CONTINUOUS
 10
-28.792775
 20
446.060341
 30
0.0
 11
-28.792775
 21
504.042941
 31
0.0
  0
LINE
  5
9CC7
  8
DETAIL
  6
CONTINUOUS
 10
-30.792175
 20
386.078341
 30
0.0
 11
-30.792175
 21
444.060941
 31
0.0
  0
LINE
  5
9CC8
  8
DETAIL
  6
CONTINUOUS
 10
-28.792775
 20
386.078341
 30
0.0
 11
-28.792775
 21
444.060941
 31
0.0
  0
LINE
  5
9CC9
  8
DETAIL
  6
CONTINUOUS
 10
-30.792175
 20
506.042341
 30
0.0
 11
-30.792175
 21
564.024941
 31
0.0
  0
LINE
  5
9CCA
  8
DETAIL
  6
CONTINUOUS
 10
-28.792775
 20
506.042341
 30
0.0
 11
-28.792775
 21
564.024941
 31
0.0
  0
LINE
  5
9CCB
  8
DETAIL
  6
CONTINUOUS
 10
29.189825
 20
446.060341
 30
0.0
 11
29.189825
 21
504.042941
 31
0.0
  0
LINE
  5
9CCC
  8
DETAIL
  6
CONTINUOUS
 10
89.17182500000001
 20
446.060341
 30
0.0
 11
89.17182500000001
 21
504.042941
 31
0.0
  0
LINE
  5
9CCD
  8
DETAIL
  6
CONTINUOUS
 10
31.189225
 20
446.060341
 30
0.0
 11
31.189225
 21
504.042941
 31
0.0
  0
LINE
  5
9CCE
  8
DETAIL
  6
CONTINUOUS
 10
91.171225
 20
446.060341
 30
0.0
 11
91.171225
 21
504.042941
 31
0.0
  0
LINE
  5
9CCF
  8
DETAIL
  6
CONTINUOUS
 10
29.189825
 20
386.078341
 30
0.0
 11
29.189825
 21
444.060941
 31
0.0
  0
LINE
  5
9CD0
  8
DETAIL
  6
CONTINUOUS
 10
31.189225
 20
386.078341
 30
0.0
 11
31.189225
 21
444.060941
 31
0.0
  0
LINE
  5
9CD1
  8
DETAIL
  6
CONTINUOUS
 10
89.17182500000001
 20
386.078341
 30
0.0
 11
89.17182500000001
 21
444.060941
 31
0.0
  0
LINE
  5
9CD2
  8
DETAIL
  6
CONTINUOUS
 10
91.171225
 20
386.078341
 30
0.0
 11
91.171225
 21
444.060941
 31
0.0
  0
LINE
  5
9CD3
  8
DETAIL
  6
CONTINUOUS
 10
29.189825
 20
506.042341
 30
0.0
 11
29.189825
 21
564.024941
 31
0.0
  0
LINE
  5
9CD4
  8
DETAIL
  6
CONTINUOUS
 10
31.189225
 20
506.042341
 30
0.0
 11
31.189225
 21
564.024941
 31
0.0
  0
LINE
  5
9CD5
  8
DETAIL
  6
CONTINUOUS
 10
89.17182500000001
 20
506.042341
 30
0.0
 11
89.17182500000001
 21
564.024941
 31
0.0
  0
LINE
  5
9CD6
  8
DETAIL
  6
CONTINUOUS
 10
91.171225
 20
506.042341
 30
0.0
 11
91.171225
 21
564.024941
 31
0.0
  0
LINE
  5
9CD7
  8
DETAIL
  6
CONTINUOUS
 10
-30.792175
 20
626.006341
 30
0.0
 11
-30.792175
 21
683.988941
 31
0.0
  0
LINE
  5
9CD8
  8
DETAIL
  6
CONTINUOUS
 10
-28.792775
 20
626.006341
 30
0.0
 11
-28.792775
 21
683.988941
 31
0.0
  0
LINE
  5
9CD9
  8
DETAIL
  6
CONTINUOUS
 10
-30.792175
 20
566.0243409999999
 30
0.0
 11
-30.792175
 21
624.006941
 31
0.0
  0
LINE
  5
9CDA
  8
DETAIL
  6
CONTINUOUS
 10
-28.792775
 20
566.0243409999999
 30
0.0
 11
-28.792775
 21
624.006941
 31
0.0
  0
LINE
  5
9CDB
  8
DETAIL
  6
CONTINUOUS
 10
-30.792175
 20
685.988341
 30
0.0
 11
-30.792175
 21
743.970941
 31
0.0
  0
LINE
  5
9CDC
  8
DETAIL
  6
CONTINUOUS
 10
-28.792775
 20
685.988341
 30
0.0
 11
-28.792775
 21
743.970941
 31
0.0
  0
LINE
  5
9CDD
  8
DETAIL
  6
CONTINUOUS
 10
29.189825
 20
626.006341
 30
0.0
 11
29.189825
 21
683.988941
 31
0.0
  0
LINE
  5
9CDE
  8
DETAIL
  6
CONTINUOUS
 10
89.17182500000001
 20
626.006341
 30
0.0
 11
89.17182500000001
 21
683.988941
 31
0.0
  0
LINE
  5
9CDF
  8
DETAIL
  6
CONTINUOUS
 10
31.189225
 20
626.006341
 30
0.0
 11
31.189225
 21
683.988941
 31
0.0
  0
LINE
  5
9CE0
  8
DETAIL
  6
CONTINUOUS
 10
91.171225
 20
626.006341
 30
0.0
 11
91.171225
 21
683.988941
 31
0.0
  0
LINE
  5
9CE1
  8
DETAIL
  6
CONTINUOUS
 10
29.189825
 20
566.0243409999999
 30
0.0
 11
29.189825
 21
624.006941
 31
0.0
  0
LINE
  5
9CE2
  8
DETAIL
  6
CONTINUOUS
 10
31.189225
 20
566.0243409999999
 30
0.0
 11
31.189225
 21
624.006941
 31
0.0
  0
LINE
  5
9CE3
  8
DETAIL
  6
CONTINUOUS
 10
89.17182500000001
 20
566.0243409999999
 30
0.0
 11
89.17182500000001
 21
624.006941
 31
0.0
  0
LINE
  5
9CE4
  8
DETAIL
  6
CONTINUOUS
 10
91.171225
 20
566.0243409999999
 30
0.0
 11
91.171225
 21
624.006941
 31
0.0
  0
LINE
  5
9CE5
  8
DETAIL
  6
CONTINUOUS
 10
29.189825
 20
685.988341
 30
0.0
 11
29.189825
 21
743.970941
 31
0.0
  0
LINE
  5
9CE6
  8
DETAIL
  6
CONTINUOUS
 10
31.189225
 20
685.988341
 30
0.0
 11
31.189225
 21
743.970941
 31
0.0
  0
LINE
  5
9CE7
  8
DETAIL
  6
CONTINUOUS
 10
89.17182500000001
 20
685.988341
 30
0.0
 11
89.17182500000001
 21
743.970941
 31
0.0
  0
LINE
  5
9CE8
  8
DETAIL
  6
CONTINUOUS
 10
91.171225
 20
685.988341
 30
0.0
 11
91.171225
 21
743.970941
 31
0.0
  0
LINE
  5
9CE9
  8
DETAIL
  6
CONTINUOUS
 10
-268.720775
 20
885.925035
 30
0.0
 11
-210.738175
 21
885.925035
 31
0.0
  0
ARC
  5
9CEA
  8
DETAIL
  6
CONTINUOUS
 10
-48.161979
 20
1212.73652
 30
0.0
 40
196.44105
 50
145.510546
 51
149.064546
  0
LINE
  5
9CEB
  8
DETAIL
  6
CONTINUOUS
 10
-338.408684
 20
1348.0006
 30
0.0
 11
-0.000329
 21
1348.0006
 31
0.0
  0
LINE
  5
9CEC
  8
DETAIL
  6
CONTINUOUS
 10
-333.379575
 20
1344.50165
 30
0.0
 11
-0.000329
 21
1344.50165
 31
0.0
  0
LINE
  5
9CED
  8
DETAIL
  6
CONTINUOUS
 10
-0.000329
 20
1254.79752
 30
0.0
 11
-382.887172
 21
1254.79752
 31
0.0
  0
LINE
  5
9CEE
  8
DETAIL
  6
CONTINUOUS
 10
-0.000329
 20
1258.29652
 30
0.0
 11
-381.136612
 21
1258.29652
 31
0.0
  0
LINE
  5
9CEF
  8
DETAIL
  6
CONTINUOUS
 10
-0.000329
 20
1335.96852
 30
0.0
 11
-348.490117
 21
1335.96852
 31
0.0
  0
LINE
  5
9CF0
  8
DETAIL
  6
CONTINUOUS
 10
-0.000329
 20
1337.96752
 30
0.0
 11
-348.490117
 21
1337.96752
 31
0.0
  0
LINE
  5
9CF1
  8
DETAIL
  6
CONTINUOUS
 10
-0.000329
 20
1325.97152
 30
0.0
 11
-355.987867
 21
1325.97152
 31
0.0
  0
LINE
  5
9CF2
  8
DETAIL
  6
CONTINUOUS
 10
-0.000329
 20
1323.97152
 30
0.0
 11
-355.987867
 21
1323.97152
 31
0.0
  0
LINE
  5
9CF3
  8
DETAIL
  6
CONTINUOUS
 10
-0.000329
 20
1313.72152
 30
0.0
 11
-362.485917
 21
1313.72152
 31
0.0
  0
LINE
  5
9CF4
  8
DETAIL
  6
CONTINUOUS
 10
-0.000329
 20
1311.72152
 30
0.0
 11
-362.485917
 21
1311.72152
 31
0.0
  0
LINE
  5
9CF5
  8
DETAIL
  6
CONTINUOUS
 10
-0.000329
 20
1301.47052
 30
0.0
 11
-368.772046
 21
1301.47052
 31
0.0
  0
LINE
  5
9CF6
  8
DETAIL
  6
CONTINUOUS
 10
-0.000329
 20
1299.47152
 30
0.0
 11
-368.772046
 21
1299.47152
 31
0.0
  0
LINE
  5
9CF7
  8
DETAIL
  6
CONTINUOUS
 10
-0.000329
 20
1287.22152
 30
0.0
 11
-373.558625
 21
1287.22152
 31
0.0
  0
LINE
  5
9CF8
  8
DETAIL
  6
CONTINUOUS
 10
-0.000329
 20
1289.22052
 30
0.0
 11
-373.558625
 21
1289.22052
 31
0.0
  0
LINE
  5
9CF9
  8
DETAIL
  6
CONTINUOUS
 10
-0.000329
 20
1276.97052
 30
0.0
 11
-376.845654
 21
1276.97052
 31
0.0
  0
LINE
  5
9CFA
  8
DETAIL
  6
CONTINUOUS
 10
-0.000329
 20
1274.97152
 30
0.0
 11
-376.845654
 21
1274.97152
 31
0.0
  0
LINE
  5
9CFB
  8
DETAIL
  6
CONTINUOUS
 10
-0.000329
 20
1264.72052
 30
0.0
 11
-379.632654
 21
1264.72052
 31
0.0
  0
LINE
  5
9CFC
  8
DETAIL
  6
CONTINUOUS
 10
-0.000329
 20
1262.72152
 30
0.0
 11
-379.632654
 21
1262.72152
 31
0.0
  0
LINE
  5
9CFD
  8
DETAIL
  6
CONTINUOUS
 10
-0.000329
 20
1350.0
 30
0.0
 11
-338.408684
 21
1350.0
 31
0.0
  0
ARC
  5
9CFE
  8
DETAIL
  6
CONTINUOUS
 10
-432.87346
 20
1174.985
 30
0.0
 40
49.985
 50
270.0
 51
0.0
  0
LINE
  5
9CFF
  8
DETAIL
  6
CONTINUOUS
 10
-388.684775
 20
885.925035
 30
0.0
 11
-330.702175
 21
885.925035
 31
0.0
  0
LINE
  5
9D00
  8
DETAIL
  6
CONTINUOUS
 10
-493.852886
 20
885.925035
 30
0.0
 11
-450.666175
 21
885.925035
 31
0.0
  0
ARC
  5
9D01
  8
DETAIL
  6
CONTINUOUS
 10
-489.654475
 20
804.952641
 30
0.0
 40
0.9997
 50
90.0
 51
270.0
  0
ARC
  5
9D02
  8
DETAIL
  6
CONTINUOUS
 10
-489.654475
 20
864.9346409999999
 30
0.0
 40
0.9997
 50
90.0
 51
270.0
  0
LINE
  5
9D03
  8
DETAIL
  6
CONTINUOUS
 10
-450.666175
 20
805.9523409999999
 30
0.0
 11
-450.666175
 21
863.934941
 31
0.0
  0
LINE
  5
9D04
  8
DETAIL
  6
CONTINUOUS
 10
-390.684175
 20
805.9523409999999
 30
0.0
 11
-390.684175
 21
863.934941
 31
0.0
  0
LINE
  5
9D05
  8
DETAIL
  6
CONTINUOUS
 10
-448.666775
 20
805.9523409999999
 30
0.0
 11
-448.666775
 21
863.934941
 31
0.0
  0
LINE
  5
9D06
  8
DETAIL
  6
CONTINUOUS
 10
-388.684775
 20
805.9523409999999
 30
0.0
 11
-388.684775
 21
863.934941
 31
0.0
  0
LINE
  5
9D07
  8
DETAIL
  6
CONTINUOUS
 10
-448.666775
 20
885.925035
 30
0.0
 11
-390.684175
 21
885.925035
 31
0.0
  0
LINE
  5
9D08
  8
DETAIL
  6
CONTINUOUS
 10
-448.666775
 20
865.934341
 30
0.0
 11
-448.666775
 21
893.925941
 31
0.0
  0
LINE
  5
9D09
  8
DETAIL
  6
CONTINUOUS
 10
-450.666175
 20
865.934341
 30
0.0
 11
-450.666175
 21
893.925941
 31
0.0
  0
LINE
  5
9D0A
  8
DETAIL
  6
CONTINUOUS
 10
-448.666775
 20
892.926241
 30
0.0
 11
-448.666775
 21
900.923841
 31
0.0
  0
LINE
  5
9D0B
  8
DETAIL
  6
CONTINUOUS
 10
-450.666175
 20
892.926241
 30
0.0
 11
-450.666175
 21
900.923841
 31
0.0
  0
LINE
  5
9D0C
  8
DETAIL
  6
CONTINUOUS
 10
-448.666775
 20
900.923841
 30
0.0
 11
-450.666175
 21
900.923841
 31
0.0
  0
LINE
  5
9D0D
  8
DETAIL
  6
CONTINUOUS
 10
-388.684775
 20
865.934341
 30
0.0
 11
-388.684775
 21
905.919035
 31
0.0
  0
LINE
  5
9D0E
  8
DETAIL
  6
CONTINUOUS
 10
-390.684175
 20
865.934341
 30
0.0
 11
-390.684175
 21
905.919035
 31
0.0
  0
LINE
  5
9D0F
  8
DETAIL
  6
CONTINUOUS
 10
-328.702775
 20
885.925035
 30
0.0
 11
-270.720175
 21
885.925035
 31
0.0
  0
LINE
  5
9D10
  8
DETAIL
  6
CONTINUOUS
 10
-330.702175
 20
805.9523409999999
 30
0.0
 11
-330.702175
 21
863.934941
 31
0.0
  0
LINE
  5
9D11
  8
DETAIL
  6
CONTINUOUS
 10
-328.702775
 20
805.9523409999999
 30
0.0
 11
-328.702775
 21
863.934941
 31
0.0
  0
LINE
  5
9D12
  8
DETAIL
  6
CONTINUOUS
 10
-328.702775
 20
865.934341
 30
0.0
 11
-328.702775
 21
893.925941
 31
0.0
  0
LINE
  5
9D13
  8
DETAIL
  6
CONTINUOUS
 10
-330.702175
 20
865.934341
 30
0.0
 11
-330.702175
 21
893.925941
 31
0.0
  0
LINE
  5
9D14
  8
DETAIL
  6
CONTINUOUS
 10
-328.702775
 20
892.926241
 30
0.0
 11
-328.702775
 21
900.923841
 31
0.0
  0
LINE
  5
9D15
  8
DETAIL
  6
CONTINUOUS
 10
-330.702175
 20
892.926241
 30
0.0
 11
-330.702175
 21
900.923841
 31
0.0
  0
LINE
  5
9D16
  8
DETAIL
  6
CONTINUOUS
 10
-328.702775
 20
900.923841
 30
0.0
 11
-330.702175
 21
900.923841
 31
0.0
  0
LINE
  5
9D17
  8
DETAIL
  6
CONTINUOUS
 10
-270.720175
 20
805.9523409999999
 30
0.0
 11
-270.720175
 21
863.934941
 31
0.0
  0
LINE
  5
9D18
  8
DETAIL
  6
CONTINUOUS
 10
-268.720775
 20
805.9523409999999
 30
0.0
 11
-268.720775
 21
863.934941
 31
0.0
  0
LINE
  5
9D19
  8
DETAIL
  6
CONTINUOUS
 10
-268.720775
 20
865.934341
 30
0.0
 11
-268.720775
 21
893.925941
 31
0.0
  0
LINE
  5
9D1A
  8
DETAIL
  6
CONTINUOUS
 10
-270.720175
 20
865.934341
 30
0.0
 11
-270.720175
 21
893.925941
 31
0.0
  0
LINE
  5
9D1B
  8
DETAIL
  6
CONTINUOUS
 10
-268.720775
 20
892.926241
 30
0.0
 11
-268.720775
 21
900.923841
 31
0.0
  0
LINE
  5
9D1C
  8
DETAIL
  6
CONTINUOUS
 10
-270.720175
 20
892.926241
 30
0.0
 11
-270.720175
 21
900.923841
 31
0.0
  0
LINE
  5
9D1D
  8
DETAIL
  6
CONTINUOUS
 10
-268.720775
 20
900.923841
 30
0.0
 11
-270.720175
 21
900.923841
 31
0.0
  0
ARC
  5
9D1E
  8
DETAIL
  6
CONTINUOUS
 10
-181.544479
 20
1222.12952
 30
0.0
 40
201.689475
 50
161.171668
 51
164.222091
  0
LINE
  5
9D1F
  8
DETAIL
  6
CONTINUOUS
 10
-382.887172
 20
1174.84152
 30
0.0
 11
-382.887172
 21
1254.79752
 31
0.0
  0
LINE
  5
9D20
  8
DETAIL
  6
CONTINUOUS
 10
-382.88846
 20
1174.84152
 30
0.0
 11
-382.88846
 21
1244.82052
 31
0.0
  0
ARC
  5
9D21
  8
DETAIL
  6
CONTINUOUS
 10
-381.136612
 20
1256.54652
 30
0.0
 40
1.749475
 50
90.0
 51
270.0
  0
ARC
  5
9D22
  8
DETAIL
  6
CONTINUOUS
 10
-379.632654
 20
1263.72052
 30
0.0
 40
0.9997
 50
90.0
 51
270.0
  0
ARC
  5
9D23
  8
DETAIL
  6
CONTINUOUS
 10
-376.845654
 20
1275.97052
 30
0.0
 40
0.9997
 50
90.0
 51
270.0
  0
ARC
  5
9D24
  8
DETAIL
  6
CONTINUOUS
 10
-181.544479
 20
1222.12952
 30
0.0
 40
201.689475
 50
164.81147
 51
167.808926
  0
ARC
  5
9D25
  8
DETAIL
  6
CONTINUOUS
 10
-181.544479
 20
1222.12952
 30
0.0
 40
198.190525
 50
168.181483
 51
169.4854620000001
  0
ARC
  5
9D26
  8
DETAIL
  6
CONTINUOUS
 10
-181.544479
 20
1222.12952
 30
0.0
 40
201.689475
 50
168.389393
 51
169.669891
  0
ARC
  5
9D27
  8
DETAIL
  6
CONTINUOUS
 10
-221.759052
 20
1257.72252
 30
0.0
 40
99.97
 50
119.767305
 51
126.612233
  0
ARC
  5
9D28
  8
DETAIL
  6
CONTINUOUS
 10
-221.759052
 20
1257.72252
 30
0.0
 40
96.47105
 50
115.903311
 51
123.715574
  0
ARC
  5
9D29
  8
DETAIL
  6
CONTINUOUS
 10
-333.379575
 20
1336.25452
 30
0.0
 40
8.247525
 50
90.0
 51
143.0701650000007
  0
ARC
  5
9D2A
  8
DETAIL
  6
CONTINUOUS
 10
-181.544479
 20
1222.12952
 30
0.0
 40
201.689475
 50
143.070165
 51
144.946583
  0
ARC
  5
9D2B
  8
DETAIL
  6
CONTINUOUS
 10
-221.759052
 20
1257.72252
 30
0.0
 40
99.97
 50
128.492452
 51
136.945779
  0
ARC
  5
9D2C
  8
DETAIL
  6
CONTINUOUS
 10
-221.759052
 20
1257.72252
 30
0.0
 40
96.47105
 50
136.628536
 51
144.516528
  0
ARC
  5
9D2D
  8
DETAIL
  6
CONTINUOUS
 10
-348.490117
 20
1336.96852
 30
0.0
 40
0.9997
 50
90.0
 51
270.0
  0
ARC
  5
9D2E
  8
DETAIL
  6
CONTINUOUS
 10
-355.987867
 20
1324.97152
 30
0.0
 40
0.9997
 50
90.0
 51
270.0
  0
ARC
  5
9D2F
  8
DETAIL
  6
CONTINUOUS
 10
-362.485917
 20
1312.72152
 30
0.0
 40
0.9997
 50
90.0
 51
270.0
  0
ARC
  5
9D30
  8
DETAIL
  6
CONTINUOUS
 10
-368.772046
 20
1300.47152
 30
0.0
 40
0.9997
 50
90.0
 51
270.0
  0
ARC
  5
9D31
  8
DETAIL
  6
CONTINUOUS
 10
-373.558625
 20
1288.22152
 30
0.0
 40
0.9997
 50
90.0
 51
270.0
  0
ARC
  5
9D32
  8
DETAIL
  6
CONTINUOUS
 10
-181.544479
 20
1222.12952
 30
0.0
 40
198.190525
 50
143.070165
 51
144.233768
  0
ARC
  5
9D33
  8
DETAIL
  6
CONTINUOUS
 10
-181.544479
 20
1222.12952
 30
0.0
 40
198.190525
 50
144.942985
 51
148.402421
  0
ARC
  5
9D34
  8
DETAIL
  6
CONTINUOUS
 10
-181.544479
 20
1222.12952
 30
0.0
 40
201.689475
 50
145.637515
 51
149.01188
  0
ARC
  5
9D35
  8
DETAIL
  6
CONTINUOUS
 10
-181.544479
 20
1222.12952
 30
0.0
 40
201.689475
 50
149.672161
 51
152.991508
  0
ARC
  5
9D36
  8
DETAIL
  6
CONTINUOUS
 10
-181.544479
 20
1222.12952
 30
0.0
 40
198.190525
 50
149.078604
 51
152.474725
  0
ARC
  5
9D37
  8
DETAIL
  6
CONTINUOUS
 10
-181.544479
 20
1222.12952
 30
0.0
 40
198.190525
 50
153.124612
 51
156.401203
  0
ARC
  5
9D38
  8
DETAIL
  6
CONTINUOUS
 10
-181.544479
 20
1222.12952
 30
0.0
 40
201.689475
 50
153.627239
 51
156.834725
  0
ARC
  5
9D39
  8
DETAIL
  6
CONTINUOUS
 10
-181.544479
 20
1222.12952
 30
0.0
 40
201.689475
 50
157.451116
 51
160.570483
  0
ARC
  5
9D3A
  8
DETAIL
  6
CONTINUOUS
 10
-181.544479
 20
1222.12952
 30
0.0
 40
198.190525
 50
157.030472
 51
160.213287
  0
ARC
  5
9D3B
  8
DETAIL
  6
CONTINUOUS
 10
-181.544479
 20
1222.12952
 30
0.0
 40
198.190525
 50
160.826402
 51
163.936076
  0
ARC
  5
9D3C
  8
DETAIL
  6
CONTINUOUS
 10
-181.544479
 20
1222.12952
 30
0.0
 40
198.190525
 50
164.5366820000001
 51
167.590301
  0
ARC
  5
9D3D
  8
DETAIL
  6
CONTINUOUS
 10
-221.759052
 20
1257.72252
 30
0.0
 40
99.97
 50
177.1340160000001
 51
179.6713510000004
  0
ARC
  5
9D3E
  8
DETAIL
  6
CONTINUOUS
 10
-221.759052
 20
1257.72252
 30
0.0
 40
96.47105
 50
177.0299770000001
 51
179.6594309999998
  0
ARC
  5
9D3F
  8
DETAIL
  6
CONTINUOUS
 10
-221.759052
 20
1257.72252
 30
0.0
 40
99.97
 50
138.494636
 51
145.93371
  0
ARC
  5
9D40
  8
DETAIL
  6
CONTINUOUS
 10
-221.759052
 20
1257.72252
 30
0.0
 40
99.97
 50
147.306034
 51
154.048304
  0
ARC
  5
9D41
  8
DETAIL
  6
CONTINUOUS
 10
-221.759052
 20
1257.72252
 30
0.0
 40
99.97
 50
155.316007
 51
161.634672
  0
ARC
  5
9D42
  8
DETAIL
  6
CONTINUOUS
 10
-221.759052
 20
1257.72252
 30
0.0
 40
99.97
 50
162.837978
 51
168.899162
  0
ARC
  5
9D43
  8
DETAIL
  6
CONTINUOUS
 10
-221.759052
 20
1257.72252
 30
0.0
 40
99.97
 50
170.064681
 51
175.9860130000001
  0
ARC
  5
9D44
  8
DETAIL
  6
CONTINUOUS
 10
-221.759052
 20
1257.72252
 30
0.0
 40
96.47105
 50
169.700471
 51
175.8401760000001
  0
ARC
  5
9D45
  8
DETAIL
  6
CONTINUOUS
 10
-221.759052
 20
1257.72252
 30
0.0
 40
96.47105
 50
162.1950850000001
 51
168.491137
  0
ARC
  5
9D46
  8
DETAIL
  6
CONTINUOUS
 10
-221.759052
 20
1257.72252
 30
0.0
 40
96.47105
 50
154.3571660000001
 51
160.94338
  0
ARC
  5
9D47
  8
DETAIL
  6
CONTINUOUS
 10
-221.759052
 20
1257.72252
 30
0.0
 40
96.47105
 50
145.9619949999999
 51
153.032487
  0
ARC
  5
9D48
  8
DETAIL
  6
CONTINUOUS
 10
-221.759052
 20
1257.72252
 30
0.0
 40
96.47105
 50
125.798622
 51
134.972106
  0
ARC
  5
9D49
  8
DETAIL
  6
CONTINUOUS
 10
-48.161979
 20
1212.73652
 30
0.0
 40
199.94
 50
165.522488
 51
166.828416
  0
ARC
  5
9D4A
  8
DETAIL
  6
CONTINUOUS
 10
-48.161979
 20
1212.73652
 30
0.0
 40
196.44105
 50
165.258829
 51
166.589469
  0
ARC
  5
9D4B
  8
DETAIL
  6
CONTINUOUS
 10
-48.161979
 20
1212.73652
 30
0.0
 40
199.94
 50
161.864328
 51
164.929938
  0
ARC
  5
9D4C
  8
DETAIL
  6
CONTINUOUS
 10
-48.161979
 20
1212.73652
 30
0.0
 40
199.94
 50
158.12781
 51
161.260365
  0
ARC
  5
9D4D
  8
DETAIL
  6
CONTINUOUS
 10
-48.161979
 20
1212.73652
 30
0.0
 40
199.94
 50
154.290618
 51
157.509057
  0
ARC
  5
9D4E
  8
DETAIL
  6
CONTINUOUS
 10
-48.161979
 20
1212.73652
 30
0.0
 40
199.94
 50
150.325248
 51
153.652988
  0
ARC
  5
9D4F
  8
DETAIL
  6
CONTINUOUS
 10
-48.161979
 20
1212.73652
 30
0.0
 40
199.94
 50
146.196589
 51
149.663612
  0
ARC
  5
9D50
  8
DETAIL
  6
CONTINUOUS
 10
-48.161979
 20
1212.73652
 30
0.0
 40
196.44105
 50
149.742039
 51
153.14645
  0
ARC
  5
9D51
  8
DETAIL
  6
CONTINUOUS
 10
-48.161979
 20
1212.73652
 30
0.0
 40
196.44105
 50
153.798237
 51
157.085875
  0
ARC
  5
9D52
  8
DETAIL
  6
CONTINUOUS
 10
-48.161979
 20
1212.73652
 30
0.0
 40
196.44105
 50
157.717539
 51
160.913788
  0
ARC
  5
9D53
  8
DETAIL
  6
CONTINUOUS
 10
-48.161979
 20
1212.73652
 30
0.0
 40
196.44105
 50
161.52974
 51
164.65497
  0
ARC
  5
9D54
  8
DETAIL
  6
CONTINUOUS
 10
-333.379575
 20
1336.25452
 30
0.0
 40
11.746475
 50
90.0
 51
143.0701650000002
  0
ARC
  5
9D55
  8
DETAIL
  6
CONTINUOUS
 10
-338.408684
 20
1349.0003
 30
0.0
 40
0.9997
 50
90.0
 51
270.0
  0
LINE
  5
9D56
  8
DETAIL
  6
CONTINUOUS
 10
-88.77477499999999
 20
885.925035
 30
0.0
 11
-30.792175
 21
885.925035
 31
0.0
  0
LINE
  5
9D57
  8
DETAIL
  6
CONTINUOUS
 10
-148.756775
 20
885.925035
 30
0.0
 11
-90.774175
 21
885.925035
 31
0.0
  0
LINE
  5
9D58
  8
DETAIL
  6
CONTINUOUS
 10
-210.738175
 20
805.9523409999999
 30
0.0
 11
-210.738175
 21
863.934941
 31
0.0
  0
LINE
  5
9D59
  8
DETAIL
  6
CONTINUOUS
 10
-150.756175
 20
805.9523409999999
 30
0.0
 11
-150.756175
 21
863.934941
 31
0.0
  0
LINE
  5
9D5A
  8
DETAIL
  6
CONTINUOUS
 10
-208.738775
 20
805.9523409999999
 30
0.0
 11
-208.738775
 21
863.934941
 31
0.0
  0
LINE
  5
9D5B
  8
DETAIL
  6
CONTINUOUS
 10
-148.756775
 20
805.9523409999999
 30
0.0
 11
-148.756775
 21
863.934941
 31
0.0
  0
LINE
  5
9D5C
  8
DETAIL
  6
CONTINUOUS
 10
-208.738775
 20
885.925035
 30
0.0
 11
-150.756175
 21
885.925035
 31
0.0
  0
LINE
  5
9D5D
  8
DETAIL
  6
CONTINUOUS
 10
-208.738775
 20
865.934341
 30
0.0
 11
-208.738775
 21
893.925941
 31
0.0
  0
LINE
  5
9D5E
  8
DETAIL
  6
CONTINUOUS
 10
-210.738175
 20
865.934341
 30
0.0
 11
-210.738175
 21
893.925941
 31
0.0
  0
LINE
  5
9D5F
  8
DETAIL
  6
CONTINUOUS
 10
-208.738775
 20
892.926241
 30
0.0
 11
-208.738775
 21
900.923841
 31
0.0
  0
LINE
  5
9D60
  8
DETAIL
  6
CONTINUOUS
 10
-210.738175
 20
892.926241
 30
0.0
 11
-210.738175
 21
900.923841
 31
0.0
  0
LINE
  5
9D61
  8
DETAIL
  6
CONTINUOUS
 10
-208.738775
 20
900.923841
 30
0.0
 11
-210.738175
 21
900.923841
 31
0.0
  0
LINE
  5
9D62
  8
DETAIL
  6
CONTINUOUS
 10
-148.756775
 20
865.934341
 30
0.0
 11
-148.756775
 21
893.925941
 31
0.0
  0
LINE
  5
9D63
  8
DETAIL
  6
CONTINUOUS
 10
-150.756175
 20
865.934341
 30
0.0
 11
-150.756175
 21
893.925941
 31
0.0
  0
LINE
  5
9D64
  8
DETAIL
  6
CONTINUOUS
 10
-148.756775
 20
892.926241
 30
0.0
 11
-148.756775
 21
900.923841
 31
0.0
  0
LINE
  5
9D65
  8
DETAIL
  6
CONTINUOUS
 10
-150.756175
 20
892.926241
 30
0.0
 11
-150.756175
 21
900.923841
 31
0.0
  0
LINE
  5
9D66
  8
DETAIL
  6
CONTINUOUS
 10
-148.756775
 20
900.923841
 30
0.0
 11
-150.756175
 21
900.923841
 31
0.0
  0
LINE
  5
9D67
  8
DETAIL
  6
CONTINUOUS
 10
-90.774175
 20
805.9523409999999
 30
0.0
 11
-90.774175
 21
863.934941
 31
0.0
  0
LINE
  5
9D68
  8
DETAIL
  6
CONTINUOUS
 10
-88.77477499999999
 20
805.9523409999999
 30
0.0
 11
-88.77477499999999
 21
863.934941
 31
0.0
  0
LINE
  5
9D69
  8
DETAIL
  6
CONTINUOUS
 10
-88.77477499999999
 20
865.934341
 30
0.0
 11
-88.77477499999999
 21
893.925941
 31
0.0
  0
LINE
  5
9D6A
  8
DETAIL
  6
CONTINUOUS
 10
-90.774175
 20
865.934341
 30
0.0
 11
-90.774175
 21
893.925941
 31
0.0
  0
LINE
  5
9D6B
  8
DETAIL
  6
CONTINUOUS
 10
-88.77477499999999
 20
892.926241
 30
0.0
 11
-88.77477499999999
 21
900.923841
 31
0.0
  0
LINE
  5
9D6C
  8
DETAIL
  6
CONTINUOUS
 10
-90.774175
 20
892.926241
 30
0.0
 11
-90.774175
 21
900.923841
 31
0.0
  0
LINE
  5
9D6D
  8
DETAIL
  6
CONTINUOUS
 10
-88.77477499999999
 20
900.923841
 30
0.0
 11
-90.774175
 21
900.923841
 31
0.0
  0
LINE
  5
9D6E
  8
DETAIL
  6
CONTINUOUS
 10
-28.792775
 20
885.925035
 30
0.0
 11
29.189825
 21
885.925035
 31
0.0
  0
LINE
  5
9D6F
  8
DETAIL
  6
CONTINUOUS
 10
-30.792175
 20
805.9523409999999
 30
0.0
 11
-30.792175
 21
863.934941
 31
0.0
  0
LINE
  5
9D70
  8
DETAIL
  6
CONTINUOUS
 10
-28.792775
 20
805.9523409999999
 30
0.0
 11
-28.792775
 21
863.934941
 31
0.0
  0
LINE
  5
9D71
  8
DETAIL
  6
CONTINUOUS
 10
-28.792775
 20
865.934341
 30
0.0
 11
-28.792775
 21
905.919035
 31
0.0
  0
LINE
  5
9D72
  8
DETAIL
  6
CONTINUOUS
 10
-30.792175
 20
865.934341
 30
0.0
 11
-30.792175
 21
905.919035
 31
0.0
  0
LINE
  5
9D73
  8
DETAIL
  6
CONTINUOUS
 10
29.189825
 20
805.9523409999999
 30
0.0
 11
29.189825
 21
863.934941
 31
0.0
  0
LINE
  5
9D74
  8
DETAIL
  6
CONTINUOUS
 10
31.189225
 20
805.9523409999999
 30
0.0
 11
31.189225
 21
863.934941
 31
0.0
  0
LINE
  5
9D75
  8
DETAIL
  6
CONTINUOUS
 10
91.171225
 20
805.9523409999999
 30
0.0
 11
91.171225
 21
863.934941
 31
0.0
  0
LINE
  5
9D76
  8
DETAIL
  6
CONTINUOUS
 10
89.17182500000001
 20
805.9523409999999
 30
0.0
 11
89.17182500000001
 21
863.934941
 31
0.0
  0
LINE
  5
9D77
  8
DETAIL
  6
CONTINUOUS
 10
31.189225
 20
885.925035
 30
0.0
 11
89.17182500000001
 21
885.925035
 31
0.0
  0
LINE
  5
9D78
  8
DETAIL
  6
CONTINUOUS
 10
31.189225
 20
865.934341
 30
0.0
 11
31.189225
 21
893.925941
 31
0.0
  0
LINE
  5
9D79
  8
DETAIL
  6
CONTINUOUS
 10
29.189825
 20
865.934341
 30
0.0
 11
29.189825
 21
893.925941
 31
0.0
  0
LINE
  5
9D7A
  8
DETAIL
  6
CONTINUOUS
 10
31.189225
 20
892.926241
 30
0.0
 11
31.189225
 21
900.923841
 31
0.0
  0
LINE
  5
9D7B
  8
DETAIL
  6
CONTINUOUS
 10
29.189825
 20
892.926241
 30
0.0
 11
29.189825
 21
900.923841
 31
0.0
  0
LINE
  5
9D7C
  8
DETAIL
  6
CONTINUOUS
 10
31.189225
 20
900.923841
 30
0.0
 11
29.189825
 21
900.923841
 31
0.0
  0
LINE
  5
9D7D
  8
DETAIL
  6
CONTINUOUS
 10
91.171225
 20
900.923841
 30
0.0
 11
89.17182500000001
 21
900.923841
 31
0.0
  0
LINE
  5
9D7E
  8
DETAIL
  6
CONTINUOUS
 10
89.17182500000001
 20
892.926241
 30
0.0
 11
89.17182500000001
 21
900.923841
 31
0.0
  0
LINE
  5
9D7F
  8
DETAIL
  6
CONTINUOUS
 10
91.171225
 20
892.926241
 30
0.0
 11
91.171225
 21
900.923841
 31
0.0
  0
LINE
  5
9D80
  8
DETAIL
  6
CONTINUOUS
 10
89.17182500000001
 20
865.934341
 30
0.0
 11
89.17182500000001
 21
893.925941
 31
0.0
  0
LINE
  5
9D81
  8
DETAIL
  6
CONTINUOUS
 10
91.171225
 20
865.934341
 30
0.0
 11
91.171225
 21
893.925941
 31
0.0
  0
ARC
  5
9D82
  8
DETAIL
  6
CONTINUOUS
 10
-48.161979
 20
1212.73652
 30
0.0
 40
199.94
 50
138.774486
 51
141.219019
  0
ARC
  5
9D83
  8
DETAIL
  6
CONTINUOUS
 10
-48.161979
 20
1212.73652
 30
0.0
 40
196.44105
 50
137.874035
 51
140.394247
  0
ARC
  5
9D84
  8
DETAIL
  6
CONTINUOUS
 10
157.952271
 20
1214.98952
 30
0.0
 40
296.41105
 50
154.091509
 51
155.487505
  0
ARC
  5
9D85
  8
DETAIL
  6
CONTINUOUS
 10
157.952271
 20
1214.98952
 30
0.0
 40
299.91
 50
154.415769
 51
155.791944
  0
ARC
  5
9D86
  8
DETAIL
  6
CONTINUOUS
 10
157.952271
 20
1214.98952
 30
0.0
 40
296.41105
 50
168.324949
 51
170.3413099999999
  0
ARC
  5
9D87
  8
DETAIL
  6
CONTINUOUS
 10
157.952271
 20
1214.98952
 30
0.0
 40
299.91
 50
166.063514
 51
168.0729179999999
  0
ARC
  5
9D88
  8
DETAIL
  6
CONTINUOUS
 10
-48.161979
 20
1212.73652
 30
0.0
 40
199.94
 50
141.950279
 51
145.504252
  0
ARC
  5
9D89
  8
DETAIL
  6
CONTINUOUS
 10
-48.161979
 20
1212.73652
 30
0.0
 40
196.44105
 50
141.147089
 51
144.799976
  0
ARC
  5
9D8A
  8
DETAIL
  6
CONTINUOUS
 10
157.952271
 20
1214.98952
 30
0.0
 40
299.91
 50
170.842173
 51
171.697471
  0
ARC
  5
9D8B
  8
DETAIL
  6
CONTINUOUS
 10
157.952271
 20
1214.98952
 30
0.0
 40
296.41105
 50
170.733123
 51
171.59876
  0
ARC
  5
9D8C
  8
DETAIL
  6
CONTINUOUS
 10
157.952271
 20
1214.98952
 30
0.0
 40
299.91
 50
168.4630410000001
 51
170.455056
  0
ARC
  5
9D8D
  8
DETAIL
  6
CONTINUOUS
 10
157.952271
 20
1214.98952
 30
0.0
 40
296.41105
 50
165.895618
 51
167.930019
  0
ARC
  5
9D8E
  8
DETAIL
  6
CONTINUOUS
 10
157.952271
 20
1214.98952
 30
0.0
 40
296.41105
 50
163.440105
 51
165.496772
  0
ARC
  5
9D8F
  8
DETAIL
  6
CONTINUOUS
 10
157.952271
 20
1214.98952
 30
0.0
 40
296.41105
 50
160.952869
 51
163.036474
  0
ARC
  5
9D90
  8
DETAIL
  6
CONTINUOUS
 10
157.952271
 20
1214.98952
 30
0.0
 40
296.41105
 50
158.427753
 51
160.543494
  0
ARC
  5
9D91
  8
DETAIL
  6
CONTINUOUS
 10
157.952271
 20
1214.98952
 30
0.0
 40
296.41105
 50
155.911557
 51
158.011561
  0
ARC
  5
9D92
  8
DETAIL
  6
CONTINUOUS
 10
157.952271
 20
1214.98952
 30
0.0
 40
299.91
 50
156.210062
 51
158.28122
  0
ARC
  5
9D93
  8
DETAIL
  6
CONTINUOUS
 10
157.952271
 20
1214.98952
 30
0.0
 40
299.91
 50
158.691797
 51
160.779463
  0
ARC
  5
9D94
  8
DETAIL
  6
CONTINUOUS
 10
157.952271
 20
1214.98952
 30
0.0
 40
299.91
 50
161.18349
 51
163.240264
  0
ARC
  5
9D95
  8
DETAIL
  6
CONTINUOUS
 10
157.952271
 20
1214.98952
 30
0.0
 40
299.91
 50
163.638767
 51
165.669618
  0
LINE
  5
9D96
  8
DETAIL
  6
CONTINUOUS
 10
1.999071
 20
1337.96752
 30
0.0
 11
1.999071
 21
1344.50165
 31
0.0
  0
LINE
  5
9D97
  8
DETAIL
  6
CONTINUOUS
 10
-1.999729
 20
1337.96752
 30
0.0
 11
-1.999729
 21
1344.50165
 31
0.0
  0
LINE
  5
9D98
  8
DETAIL
  6
CONTINUOUS
 10
1.999071
 20
1325.97152
 30
0.0
 11
1.999071
 21
1335.96852
 31
0.0
  0
LINE
  5
9D99
  8
DETAIL
  6
CONTINUOUS
 10
1.999071
 20
1258.29652
 30
0.0
 11
1.999071
 21
1262.72152
 31
0.0
  0
LINE
  5
9D9A
  8
DETAIL
  6
CONTINUOUS
 10
1.999071
 20
1313.72152
 30
0.0
 11
1.999071
 21
1323.97152
 31
0.0
  0
LINE
  5
9D9B
  8
DETAIL
  6
CONTINUOUS
 10
1.999071
 20
1301.47052
 30
0.0
 11
1.999071
 21
1311.72152
 31
0.0
  0
LINE
  5
9D9C
  8
DETAIL
  6
CONTINUOUS
 10
1.999071
 20
1289.22052
 30
0.0
 11
1.999071
 21
1299.47152
 31
0.0
  0
LINE
  5
9D9D
  8
DETAIL
  6
CONTINUOUS
 10
1.999071
 20
1276.97052
 30
0.0
 11
1.999071
 21
1287.22152
 31
0.0
  0
LINE
  5
9D9E
  8
DETAIL
  6
CONTINUOUS
 10
1.999071
 20
1264.72052
 30
0.0
 11
1.999071
 21
1274.97152
 31
0.0
  0
LINE
  5
9D9F
  8
DETAIL
  6
CONTINUOUS
 10
-1.999729
 20
1264.72052
 30
0.0
 11
-1.999729
 21
1274.97152
 31
0.0
  0
LINE
  5
9DA0
  8
DETAIL
  6
CONTINUOUS
 10
-1.999729
 20
1276.97052
 30
0.0
 11
-1.999729
 21
1287.22152
 31
0.0
  0
LINE
  5
9DA1
  8
DETAIL
  6
CONTINUOUS
 10
-1.999729
 20
1289.22052
 30
0.0
 11
-1.999729
 21
1299.47152
 31
0.0
  0
LINE
  5
9DA2
  8
DETAIL
  6
CONTINUOUS
 10
-1.999729
 20
1301.47052
 30
0.0
 11
-1.999729
 21
1311.72152
 31
0.0
  0
LINE
  5
9DA3
  8
DETAIL
  6
CONTINUOUS
 10
-1.999729
 20
1313.72152
 30
0.0
 11
-1.999729
 21
1323.97152
 31
0.0
  0
LINE
  5
9DA4
  8
DETAIL
  6
CONTINUOUS
 10
-1.999729
 20
1258.29652
 30
0.0
 11
-1.999729
 21
1262.72152
 31
0.0
  0
LINE
  5
9DA5
  8
DETAIL
  6
CONTINUOUS
 10
-1.999729
 20
1325.97152
 30
0.0
 11
-1.999729
 21
1335.96852
 31
0.0
  0
LINE
  5
9DA6
  8
DETAIL
  6
CONTINUOUS
 10
151.153225
 20
745.970341
 30
0.0
 11
151.153225
 21
803.952941
 31
0.0
  0
LINE
  5
9DA7
  8
DETAIL
  6
CONTINUOUS
 10
149.153825
 20
745.970341
 30
0.0
 11
149.153825
 21
803.952941
 31
0.0
  0
LINE
  5
9DA8
  8
DETAIL
  6
CONTINUOUS
 10
211.135225
 20
745.970341
 30
0.0
 11
211.135225
 21
803.952941
 31
0.0
  0
LINE
  5
9DA9
  8
DETAIL
  6
CONTINUOUS
 10
209.135825
 20
745.970341
 30
0.0
 11
209.135825
 21
803.952941
 31
0.0
  0
LINE
  5
9DAA
  8
DETAIL
  6
CONTINUOUS
 10
271.117225
 20
745.970341
 30
0.0
 11
271.117225
 21
803.952941
 31
0.0
  0
LINE
  5
9DAB
  8
DETAIL
  6
CONTINUOUS
 10
269.117825
 20
745.970341
 30
0.0
 11
269.117825
 21
803.952941
 31
0.0
  0
LINE
  5
9DAC
  8
DETAIL
  6
CONTINUOUS
 10
331.099225
 20
745.970341
 30
0.0
 11
331.099225
 21
803.952941
 31
0.0
  0
LINE
  5
9DAD
  8
DETAIL
  6
CONTINUOUS
 10
329.099825
 20
745.970341
 30
0.0
 11
329.099825
 21
803.952941
 31
0.0
  0
LINE
  5
9DAE
  8
DETAIL
  6
CONTINUOUS
 10
451.063225
 20
745.970341
 30
0.0
 11
451.063225
 21
803.952941
 31
0.0
  0
LINE
  5
9DAF
  8
DETAIL
  6
CONTINUOUS
 10
391.081225
 20
745.970341
 30
0.0
 11
391.081225
 21
803.952941
 31
0.0
  0
LINE
  5
9DB0
  8
DETAIL
  6
CONTINUOUS
 10
449.063825
 20
745.970341
 30
0.0
 11
449.063825
 21
803.952941
 31
0.0
  0
LINE
  5
9DB1
  8
DETAIL
  6
CONTINUOUS
 10
389.081825
 20
745.970341
 30
0.0
 11
389.081825
 21
803.952941
 31
0.0
  0
LINE
  5
9DB2
  8
DETAIL
  6
CONTINUOUS
 10
495.0
 20
1125.0
 30
0.0
 11
495.0
 21
0.0
 31
0.0
  0
LINE
  5
9DB3
  8
DETAIL
  6
CONTINUOUS
 10
449.063825
 20
117.9646
 30
0.0
 11
331.099225
 21
117.9646
 31
0.0
  0
LINE
  5
9DB4
  8
DETAIL
  6
CONTINUOUS
 10
426.870485
 20
6.9979
 30
0.0
 11
461.460105
 21
6.9979
 31
0.0
  0
LINE
  5
9DB5
  8
DETAIL
  6
CONTINUOUS
 10
149.153825
 20
326.096341
 30
0.0
 11
149.153825
 21
384.078941
 31
0.0
  0
LINE
  5
9DB6
  8
DETAIL
  6
CONTINUOUS
 10
209.135825
 20
326.096341
 30
0.0
 11
209.135825
 21
384.078941
 31
0.0
  0
LINE
  5
9DB7
  8
DETAIL
  6
CONTINUOUS
 10
269.117825
 20
326.096341
 30
0.0
 11
269.117825
 21
384.078941
 31
0.0
  0
LINE
  5
9DB8
  8
DETAIL
  6
CONTINUOUS
 10
329.099825
 20
326.096341
 30
0.0
 11
329.099825
 21
384.078941
 31
0.0
  0
LINE
  5
9DB9
  8
DETAIL
  6
CONTINUOUS
 10
389.081825
 20
326.096341
 30
0.0
 11
389.081825
 21
384.078941
 31
0.0
  0
LINE
  5
9DBA
  8
DETAIL
  6
CONTINUOUS
 10
151.153225
 20
326.096341
 30
0.0
 11
151.153225
 21
384.078941
 31
0.0
  0
LINE
  5
9DBB
  8
DETAIL
  6
CONTINUOUS
 10
211.135225
 20
326.096341
 30
0.0
 11
211.135225
 21
384.078941
 31
0.0
  0
LINE
  5
9DBC
  8
DETAIL
  6
CONTINUOUS
 10
271.117225
 20
326.096341
 30
0.0
 11
271.117225
 21
384.078941
 31
0.0
  0
LINE
  5
9DBD
  8
DETAIL
  6
CONTINUOUS
 10
331.099225
 20
326.096341
 30
0.0
 11
331.099225
 21
384.078941
 31
0.0
  0
LINE
  5
9DBE
  8
DETAIL
  6
CONTINUOUS
 10
391.081225
 20
326.096341
 30
0.0
 11
391.081225
 21
384.078941
 31
0.0
  0
LINE
  5
9DBF
  8
DETAIL
  6
CONTINUOUS
 10
269.117825
 20
108.161741
 30
0.0
 11
271.117225
 21
108.161741
 31
0.0
  0
LINE
  5
9DC0
  8
DETAIL
  6
CONTINUOUS
 10
211.135225
 20
146.150341
 30
0.0
 11
211.135225
 21
204.132941
 31
0.0
  0
LINE
  5
9DC1
  8
DETAIL
  6
CONTINUOUS
 10
151.153225
 20
146.150341
 30
0.0
 11
151.153225
 21
204.132941
 31
0.0
  0
LINE
  5
9DC2
  8
DETAIL
  6
CONTINUOUS
 10
209.135825
 20
146.150341
 30
0.0
 11
209.135825
 21
204.132941
 31
0.0
  0
LINE
  5
9DC3
  8
DETAIL
  6
CONTINUOUS
 10
149.153825
 20
146.150341
 30
0.0
 11
149.153825
 21
204.132941
 31
0.0
  0
LINE
  5
9DC4
  8
DETAIL
  6
CONTINUOUS
 10
269.117825
 20
146.150341
 30
0.0
 11
269.117825
 21
204.132941
 31
0.0
  0
LINE
  5
9DC5
  8
DETAIL
  6
CONTINUOUS
 10
209.135825
 20
117.9646
 30
0.0
 11
151.153225
 21
117.9646
 31
0.0
  0
LINE
  5
9DC6
  8
DETAIL
  6
CONTINUOUS
 10
149.153825
 20
108.161741
 30
0.0
 11
149.153825
 21
144.150941
 31
0.0
  0
LINE
  5
9DC7
  8
DETAIL
  6
CONTINUOUS
 10
151.153225
 20
108.161741
 30
0.0
 11
151.153225
 21
144.150941
 31
0.0
  0
LINE
  5
9DC8
  8
DETAIL
  6
CONTINUOUS
 10
149.153825
 20
108.161741
 30
0.0
 11
151.153225
 21
108.161741
 31
0.0
  0
LINE
  5
9DC9
  8
DETAIL
  6
CONTINUOUS
 10
269.117825
 20
117.9646
 30
0.0
 11
211.135225
 21
117.9646
 31
0.0
  0
LINE
  5
9DCA
  8
DETAIL
  6
CONTINUOUS
 10
209.135825
 20
108.161741
 30
0.0
 11
209.135825
 21
144.150941
 31
0.0
  0
LINE
  5
9DCB
  8
DETAIL
  6
CONTINUOUS
 10
211.135225
 20
108.161741
 30
0.0
 11
211.135225
 21
144.150941
 31
0.0
  0
LINE
  5
9DCC
  8
DETAIL
  6
CONTINUOUS
 10
209.135825
 20
108.161741
 30
0.0
 11
211.135225
 21
108.161741
 31
0.0
  0
LINE
  5
9DCD
  8
DETAIL
  6
CONTINUOUS
 10
269.117825
 20
108.161741
 30
0.0
 11
269.117825
 21
144.150941
 31
0.0
  0
LINE
  5
9DCE
  8
DETAIL
  6
CONTINUOUS
 10
151.153225
 20
266.114341
 30
0.0
 11
151.153225
 21
324.096941
 31
0.0
  0
LINE
  5
9DCF
  8
DETAIL
  6
CONTINUOUS
 10
149.153825
 20
266.114341
 30
0.0
 11
149.153825
 21
324.096941
 31
0.0
  0
LINE
  5
9DD0
  8
DETAIL
  6
CONTINUOUS
 10
149.153825
 20
206.132341
 30
0.0
 11
149.153825
 21
264.114941
 31
0.0
  0
LINE
  5
9DD1
  8
DETAIL
  6
CONTINUOUS
 10
151.153225
 20
206.132341
 30
0.0
 11
151.153225
 21
264.114941
 31
0.0
  0
LINE
  5
9DD2
  8
DETAIL
  6
CONTINUOUS
 10
211.135225
 20
266.114341
 30
0.0
 11
211.135225
 21
324.096941
 31
0.0
  0
LINE
  5
9DD3
  8
DETAIL
  6
CONTINUOUS
 10
209.135825
 20
266.114341
 30
0.0
 11
209.135825
 21
324.096941
 31
0.0
  0
LINE
  5
9DD4
  8
DETAIL
  6
CONTINUOUS
 10
269.117825
 20
266.114341
 30
0.0
 11
269.117825
 21
324.096941
 31
0.0
  0
LINE
  5
9DD5
  8
DETAIL
  6
CONTINUOUS
 10
209.135825
 20
206.132341
 30
0.0
 11
209.135825
 21
264.114941
 31
0.0
  0
LINE
  5
9DD6
  8
DETAIL
  6
CONTINUOUS
 10
211.135225
 20
206.132341
 30
0.0
 11
211.135225
 21
264.114941
 31
0.0
  0
LINE
  5
9DD7
  8
DETAIL
  6
CONTINUOUS
 10
269.117825
 20
206.132341
 30
0.0
 11
269.117825
 21
264.114941
 31
0.0
  0
LINE
  5
9DD8
  8
DETAIL
  6
CONTINUOUS
 10
331.099225
 20
146.150341
 30
0.0
 11
331.099225
 21
204.132941
 31
0.0
  0
LINE
  5
9DD9
  8
DETAIL
  6
CONTINUOUS
 10
271.117225
 20
146.150341
 30
0.0
 11
271.117225
 21
204.132941
 31
0.0
  0
LINE
  5
9DDA
  8
DETAIL
  6
CONTINUOUS
 10
329.099825
 20
146.150341
 30
0.0
 11
329.099825
 21
204.132941
 31
0.0
  0
LINE
  5
9DDB
  8
DETAIL
  6
CONTINUOUS
 10
389.081825
 20
146.150341
 30
0.0
 11
389.081825
 21
204.132941
 31
0.0
  0
LINE
  5
9DDC
  8
DETAIL
  6
CONTINUOUS
 10
391.081225
 20
146.150341
 30
0.0
 11
391.081225
 21
204.132941
 31
0.0
  0
LINE
  5
9DDD
  8
DETAIL
  6
CONTINUOUS
 10
329.099825
 20
117.9646
 30
0.0
 11
271.117225
 21
117.9646
 31
0.0
  0
LINE
  5
9DDE
  8
DETAIL
  6
CONTINUOUS
 10
271.117225
 20
108.161741
 30
0.0
 11
271.117225
 21
144.150941
 31
0.0
  0
LINE
  5
9DDF
  8
DETAIL
  6
CONTINUOUS
 10
329.099825
 20
108.161741
 30
0.0
 11
329.099825
 21
144.150941
 31
0.0
  0
LINE
  5
9DE0
  8
DETAIL
  6
CONTINUOUS
 10
331.099225
 20
108.161741
 30
0.0
 11
331.099225
 21
144.150941
 31
0.0
  0
LINE
  5
9DE1
  8
DETAIL
  6
CONTINUOUS
 10
329.099825
 20
108.161741
 30
0.0
 11
331.099225
 21
108.161741
 31
0.0
  0
LINE
  5
9DE2
  8
DETAIL
  6
CONTINUOUS
 10
429.169795
 20
6.9979
 30
0.0
 11
429.169795
 21
2.29931
 31
0.0
  0
LINE
  5
9DE3
  8
DETAIL
  6
CONTINUOUS
 10
426.870485
 20
0.0
 30
0.0
 11
426.870485
 21
6.9979
 31
0.0
  0
ARC
  5
9DE4
  8
DETAIL
  6
CONTINUOUS
 10
426.870485
 20
2.29931
 30
0.0
 40
2.29931
 50
270.0
 51
0.0
  0
ARC
  5
9DE5
  8
DETAIL
  6
CONTINUOUS
 10
390.081525
 20
119.158441
 30
0.0
 40
0.9997
 50
180.0
 51
0.0
  0
LINE
  5
9DE6
  8
DETAIL
  6
CONTINUOUS
 10
389.081825
 20
117.9646
 30
0.0
 11
389.081825
 21
144.150941
 31
0.0
  0
LINE
  5
9DE7
  8
DETAIL
  6
CONTINUOUS
 10
391.081225
 20
117.9646
 30
0.0
 11
391.081225
 21
144.150941
 31
0.0
  0
LINE
  5
9DE8
  8
DETAIL
  6
CONTINUOUS
 10
331.099225
 20
266.114341
 30
0.0
 11
331.099225
 21
324.096941
 31
0.0
  0
LINE
  5
9DE9
  8
DETAIL
  6
CONTINUOUS
 10
271.117225
 20
266.114341
 30
0.0
 11
271.117225
 21
324.096941
 31
0.0
  0
LINE
  5
9DEA
  8
DETAIL
  6
CONTINUOUS
 10
329.099825
 20
266.114341
 30
0.0
 11
329.099825
 21
324.096941
 31
0.0
  0
LINE
  5
9DEB
  8
DETAIL
  6
CONTINUOUS
 10
271.117225
 20
206.132341
 30
0.0
 11
271.117225
 21
264.114941
 31
0.0
  0
LINE
  5
9DEC
  8
DETAIL
  6
CONTINUOUS
 10
331.099225
 20
206.132341
 30
0.0
 11
331.099225
 21
264.114941
 31
0.0
  0
LINE
  5
9DED
  8
DETAIL
  6
CONTINUOUS
 10
329.099825
 20
206.132341
 30
0.0
 11
329.099825
 21
264.114941
 31
0.0
  0
LINE
  5
9DEE
  8
DETAIL
  6
CONTINUOUS
 10
391.081225
 20
266.114341
 30
0.0
 11
391.081225
 21
324.096941
 31
0.0
  0
LINE
  5
9DEF
  8
DETAIL
  6
CONTINUOUS
 10
389.081825
 20
266.114341
 30
0.0
 11
389.081825
 21
324.096941
 31
0.0
  0
LINE
  5
9DF0
  8
DETAIL
  6
CONTINUOUS
 10
389.081825
 20
206.132341
 30
0.0
 11
389.081825
 21
264.114941
 31
0.0
  0
LINE
  5
9DF1
  8
DETAIL
  6
CONTINUOUS
 10
391.081225
 20
206.132341
 30
0.0
 11
391.081225
 21
264.114941
 31
0.0
  0
LINE
  5
9DF2
  8
DETAIL
  6
CONTINUOUS
 10
149.153825
 20
446.060341
 30
0.0
 11
149.153825
 21
504.042941
 31
0.0
  0
LINE
  5
9DF3
  8
DETAIL
  6
CONTINUOUS
 10
151.153225
 20
446.060341
 30
0.0
 11
151.153225
 21
504.042941
 31
0.0
  0
LINE
  5
9DF4
  8
DETAIL
  6
CONTINUOUS
 10
149.153825
 20
386.078341
 30
0.0
 11
149.153825
 21
444.060941
 31
0.0
  0
LINE
  5
9DF5
  8
DETAIL
  6
CONTINUOUS
 10
151.153225
 20
386.078341
 30
0.0
 11
151.153225
 21
444.060941
 31
0.0
  0
LINE
  5
9DF6
  8
DETAIL
  6
CONTINUOUS
 10
149.153825
 20
506.042341
 30
0.0
 11
149.153825
 21
564.024941
 31
0.0
  0
LINE
  5
9DF7
  8
DETAIL
  6
CONTINUOUS
 10
151.153225
 20
506.042341
 30
0.0
 11
151.153225
 21
564.024941
 31
0.0
  0
LINE
  5
9DF8
  8
DETAIL
  6
CONTINUOUS
 10
209.135825
 20
446.060341
 30
0.0
 11
209.135825
 21
504.042941
 31
0.0
  0
LINE
  5
9DF9
  8
DETAIL
  6
CONTINUOUS
 10
269.117825
 20
446.060341
 30
0.0
 11
269.117825
 21
504.042941
 31
0.0
  0
LINE
  5
9DFA
  8
DETAIL
  6
CONTINUOUS
 10
211.135225
 20
446.060341
 30
0.0
 11
211.135225
 21
504.042941
 31
0.0
  0
LINE
  5
9DFB
  8
DETAIL
  6
CONTINUOUS
 10
209.135825
 20
386.078341
 30
0.0
 11
209.135825
 21
444.060941
 31
0.0
  0
LINE
  5
9DFC
  8
DETAIL
  6
CONTINUOUS
 10
211.135225
 20
386.078341
 30
0.0
 11
211.135225
 21
444.060941
 31
0.0
  0
LINE
  5
9DFD
  8
DETAIL
  6
CONTINUOUS
 10
269.117825
 20
386.078341
 30
0.0
 11
269.117825
 21
444.060941
 31
0.0
  0
LINE
  5
9DFE
  8
DETAIL
  6
CONTINUOUS
 10
209.135825
 20
506.042341
 30
0.0
 11
209.135825
 21
564.024941
 31
0.0
  0
LINE
  5
9DFF
  8
DETAIL
  6
CONTINUOUS
 10
211.135225
 20
506.042341
 30
0.0
 11
211.135225
 21
564.024941
 31
0.0
  0
LINE
  5
9E00
  8
DETAIL
  6
CONTINUOUS
 10
269.117825
 20
506.042341
 30
0.0
 11
269.117825
 21
564.024941
 31
0.0
  0
LINE
  5
9E01
  8
DETAIL
  6
CONTINUOUS
 10
149.153825
 20
626.006341
 30
0.0
 11
149.153825
 21
683.988941
 31
0.0
  0
LINE
  5
9E02
  8
DETAIL
  6
CONTINUOUS
 10
151.153225
 20
626.006341
 30
0.0
 11
151.153225
 21
683.988941
 31
0.0
  0
LINE
  5
9E03
  8
DETAIL
  6
CONTINUOUS
 10
149.153825
 20
566.0243409999999
 30
0.0
 11
149.153825
 21
624.006941
 31
0.0
  0
LINE
  5
9E04
  8
DETAIL
  6
CONTINUOUS
 10
151.153225
 20
566.0243409999999
 30
0.0
 11
151.153225
 21
624.006941
 31
0.0
  0
LINE
  5
9E05
  8
DETAIL
  6
CONTINUOUS
 10
151.153225
 20
685.988341
 30
0.0
 11
151.153225
 21
743.970941
 31
0.0
  0
LINE
  5
9E06
  8
DETAIL
  6
CONTINUOUS
 10
149.153825
 20
685.988341
 30
0.0
 11
149.153825
 21
743.970941
 31
0.0
  0
LINE
  5
9E07
  8
DETAIL
  6
CONTINUOUS
 10
211.135225
 20
626.006341
 30
0.0
 11
211.135225
 21
683.988941
 31
0.0
  0
LINE
  5
9E08
  8
DETAIL
  6
CONTINUOUS
 10
209.135825
 20
626.006341
 30
0.0
 11
209.135825
 21
683.988941
 31
0.0
  0
LINE
  5
9E09
  8
DETAIL
  6
CONTINUOUS
 10
269.117825
 20
626.006341
 30
0.0
 11
269.117825
 21
683.988941
 31
0.0
  0
LINE
  5
9E0A
  8
DETAIL
  6
CONTINUOUS
 10
211.135225
 20
566.0243409999999
 30
0.0
 11
211.135225
 21
624.006941
 31
0.0
  0
LINE
  5
9E0B
  8
DETAIL
  6
CONTINUOUS
 10
209.135825
 20
566.0243409999999
 30
0.0
 11
209.135825
 21
624.006941
 31
0.0
  0
LINE
  5
9E0C
  8
DETAIL
  6
CONTINUOUS
 10
269.117825
 20
566.0243409999999
 30
0.0
 11
269.117825
 21
624.006941
 31
0.0
  0
LINE
  5
9E0D
  8
DETAIL
  6
CONTINUOUS
 10
211.135225
 20
685.988341
 30
0.0
 11
211.135225
 21
743.970941
 31
0.0
  0
LINE
  5
9E0E
  8
DETAIL
  6
CONTINUOUS
 10
209.135825
 20
685.988341
 30
0.0
 11
209.135825
 21
743.970941
 31
0.0
  0
LINE
  5
9E0F
  8
DETAIL
  6
CONTINUOUS
 10
269.117825
 20
685.988341
 30
0.0
 11
269.117825
 21
743.970941
 31
0.0
  0
LINE
  5
9E10
  8
DETAIL
  6
CONTINUOUS
 10
271.117225
 20
446.060341
 30
0.0
 11
271.117225
 21
504.042941
 31
0.0
  0
LINE
  5
9E11
  8
DETAIL
  6
CONTINUOUS
 10
331.099225
 20
446.060341
 30
0.0
 11
331.099225
 21
504.042941
 31
0.0
  0
LINE
  5
9E12
  8
DETAIL
  6
CONTINUOUS
 10
329.099825
 20
446.060341
 30
0.0
 11
329.099825
 21
504.042941
 31
0.0
  0
LINE
  5
9E13
  8
DETAIL
  6
CONTINUOUS
 10
271.117225
 20
386.078341
 30
0.0
 11
271.117225
 21
444.060941
 31
0.0
  0
LINE
  5
9E14
  8
DETAIL
  6
CONTINUOUS
 10
329.099825
 20
386.078341
 30
0.0
 11
329.099825
 21
444.060941
 31
0.0
  0
LINE
  5
9E15
  8
DETAIL
  6
CONTINUOUS
 10
331.099225
 20
386.078341
 30
0.0
 11
331.099225
 21
444.060941
 31
0.0
  0
LINE
  5
9E16
  8
DETAIL
  6
CONTINUOUS
 10
271.117225
 20
506.042341
 30
0.0
 11
271.117225
 21
564.024941
 31
0.0
  0
LINE
  5
9E17
  8
DETAIL
  6
CONTINUOUS
 10
331.099225
 20
506.042341
 30
0.0
 11
331.099225
 21
564.024941
 31
0.0
  0
LINE
  5
9E18
  8
DETAIL
  6
CONTINUOUS
 10
329.099825
 20
506.042341
 30
0.0
 11
329.099825
 21
564.024941
 31
0.0
  0
LINE
  5
9E19
  8
DETAIL
  6
CONTINUOUS
 10
391.081225
 20
446.060341
 30
0.0
 11
391.081225
 21
504.042941
 31
0.0
  0
LINE
  5
9E1A
  8
DETAIL
  6
CONTINUOUS
 10
389.081825
 20
446.060341
 30
0.0
 11
389.081825
 21
504.042941
 31
0.0
  0
LINE
  5
9E1B
  8
DETAIL
  6
CONTINUOUS
 10
389.081825
 20
386.078341
 30
0.0
 11
389.081825
 21
444.060941
 31
0.0
  0
LINE
  5
9E1C
  8
DETAIL
  6
CONTINUOUS
 10
391.081225
 20
386.078341
 30
0.0
 11
391.081225
 21
444.060941
 31
0.0
  0
LINE
  5
9E1D
  8
DETAIL
  6
CONTINUOUS
 10
389.081825
 20
506.042341
 30
0.0
 11
389.081825
 21
564.024941
 31
0.0
  0
LINE
  5
9E1E
  8
DETAIL
  6
CONTINUOUS
 10
391.081225
 20
506.042341
 30
0.0
 11
391.081225
 21
564.024941
 31
0.0
  0
LINE
  5
9E1F
  8
DETAIL
  6
CONTINUOUS
 10
271.117225
 20
626.006341
 30
0.0
 11
271.117225
 21
683.988941
 31
0.0
  0
LINE
  5
9E20
  8
DETAIL
  6
CONTINUOUS
 10
331.099225
 20
626.006341
 30
0.0
 11
331.099225
 21
683.988941
 31
0.0
  0
LINE
  5
9E21
  8
DETAIL
  6
CONTINUOUS
 10
329.099825
 20
626.006341
 30
0.0
 11
329.099825
 21
683.988941
 31
0.0
  0
LINE
  5
9E22
  8
DETAIL
  6
CONTINUOUS
 10
271.117225
 20
566.0243409999999
 30
0.0
 11
271.117225
 21
624.006941
 31
0.0
  0
LINE
  5
9E23
  8
DETAIL
  6
CONTINUOUS
 10
331.099225
 20
566.0243409999999
 30
0.0
 11
331.099225
 21
624.006941
 31
0.0
  0
LINE
  5
9E24
  8
DETAIL
  6
CONTINUOUS
 10
329.099825
 20
566.0243409999999
 30
0.0
 11
329.099825
 21
624.006941
 31
0.0
  0
LINE
  5
9E25
  8
DETAIL
  6
CONTINUOUS
 10
271.117225
 20
685.988341
 30
0.0
 11
271.117225
 21
743.970941
 31
0.0
  0
LINE
  5
9E26
  8
DETAIL
  6
CONTINUOUS
 10
331.099225
 20
685.988341
 30
0.0
 11
331.099225
 21
743.970941
 31
0.0
  0
LINE
  5
9E27
  8
DETAIL
  6
CONTINUOUS
 10
329.099825
 20
685.988341
 30
0.0
 11
329.099825
 21
743.970941
 31
0.0
  0
LINE
  5
9E28
  8
DETAIL
  6
CONTINUOUS
 10
391.081225
 20
626.006341
 30
0.0
 11
391.081225
 21
683.988941
 31
0.0
  0
LINE
  5
9E29
  8
DETAIL
  6
CONTINUOUS
 10
389.081825
 20
626.006341
 30
0.0
 11
389.081825
 21
683.988941
 31
0.0
  0
LINE
  5
9E2A
  8
DETAIL
  6
CONTINUOUS
 10
389.081825
 20
566.0243409999999
 30
0.0
 11
389.081825
 21
624.006941
 31
0.0
  0
LINE
  5
9E2B
  8
DETAIL
  6
CONTINUOUS
 10
391.081225
 20
566.0243409999999
 30
0.0
 11
391.081225
 21
624.006941
 31
0.0
  0
LINE
  5
9E2C
  8
DETAIL
  6
CONTINUOUS
 10
389.081825
 20
685.988341
 30
0.0
 11
389.081825
 21
743.970941
 31
0.0
  0
LINE
  5
9E2D
  8
DETAIL
  6
CONTINUOUS
 10
391.081225
 20
685.988341
 30
0.0
 11
391.081225
 21
743.970941
 31
0.0
  0
LINE
  5
9E2E
  8
DETAIL
  6
CONTINUOUS
 10
449.063825
 20
326.096341
 30
0.0
 11
449.063825
 21
384.078941
 31
0.0
  0
LINE
  5
9E2F
  8
DETAIL
  6
CONTINUOUS
 10
451.063225
 20
326.096341
 30
0.0
 11
451.063225
 21
384.078941
 31
0.0
  0
LINE
  5
9E30
  8
DETAIL
  6
CONTINUOUS
 10
451.063225
 20
146.150341
 30
0.0
 11
451.063225
 21
204.132941
 31
0.0
  0
LINE
  5
9E31
  8
DETAIL
  6
CONTINUOUS
 10
449.063825
 20
146.150341
 30
0.0
 11
449.063825
 21
204.132941
 31
0.0
  0
LINE
  5
9E32
  8
DETAIL
  6
CONTINUOUS
 10
495.0
 20
1.59952
 30
0.0
 11
461.460105
 21
1.59952
 31
0.0
  0
LINE
  5
9E33
  8
DETAIL
  6
CONTINUOUS
 10
459.160795
 20
6.9979
 30
0.0
 11
459.160795
 21
2.29931
 31
0.0
  0
LINE
  5
9E34
  8
DETAIL
  6
CONTINUOUS
 10
461.460105
 20
0.0
 30
0.0
 11
461.460105
 21
6.9979
 31
0.0
  0
ARC
  5
9E35
  8
DETAIL
  6
CONTINUOUS
 10
461.460105
 20
2.29931
 30
0.0
 40
2.29931
 50
180.0
 51
270.0
  0
LINE
  5
9E36
  8
DETAIL
  6
CONTINUOUS
 10
495.0
 20
117.9646
 30
0.0
 11
451.063225
 21
117.9646
 31
0.0
  0
LINE
  5
9E37
  8
DETAIL
  6
CONTINUOUS
 10
449.063825
 20
108.161741
 30
0.0
 11
449.063825
 21
144.150941
 31
0.0
  0
LINE
  5
9E38
  8
DETAIL
  6
CONTINUOUS
 10
451.063225
 20
108.161741
 30
0.0
 11
451.063225
 21
144.150941
 31
0.0
  0
LINE
  5
9E39
  8
DETAIL
  6
CONTINUOUS
 10
449.063825
 20
108.161741
 30
0.0
 11
451.063225
 21
108.161741
 31
0.0
  0
ARC
  5
9E3A
  8
DETAIL
  6
CONTINUOUS
 10
490.051525
 20
145.150641
 30
0.0
 40
0.9997
 50
270.0
 51
90.0
  0
LINE
  5
9E3B
  8
DETAIL
  6
CONTINUOUS
 10
451.063225
 20
266.114341
 30
0.0
 11
451.063225
 21
324.096941
 31
0.0
  0
LINE
  5
9E3C
  8
DETAIL
  6
CONTINUOUS
 10
449.063825
 20
266.114341
 30
0.0
 11
449.063825
 21
324.096941
 31
0.0
  0
LINE
  5
9E3D
  8
DETAIL
  6
CONTINUOUS
 10
451.063225
 20
206.132341
 30
0.0
 11
451.063225
 21
264.114941
 31
0.0
  0
LINE
  5
9E3E
  8
DETAIL
  6
CONTINUOUS
 10
449.063825
 20
206.132341
 30
0.0
 11
449.063825
 21
264.114941
 31
0.0
  0
ARC
  5
9E3F
  8
DETAIL
  6
CONTINUOUS
 10
490.051525
 20
265.114641
 30
0.0
 40
0.9997
 50
270.0
 51
90.0
  0
ARC
  5
9E40
  8
DETAIL
  6
CONTINUOUS
 10
490.051525
 20
205.132641
 30
0.0
 40
0.9997
 50
270.0
 51
90.0
  0
ARC
  5
9E41
  8
DETAIL
  6
CONTINUOUS
 10
490.051525
 20
325.096641
 30
0.0
 40
0.9997
 50
270.0
 51
90.0
  0
ARC
  5
9E42
  8
DETAIL
  6
CONTINUOUS
 10
490.051525
 20
565.024641
 30
0.0
 40
0.9997
 50
270.0
 51
90.0
  0
LINE
  5
9E43
  8
DETAIL
  6
CONTINUOUS
 10
451.063225
 20
446.060341
 30
0.0
 11
451.063225
 21
504.042941
 31
0.0
  0
LINE
  5
9E44
  8
DETAIL
  6
CONTINUOUS
 10
449.063825
 20
446.060341
 30
0.0
 11
449.063825
 21
504.042941
 31
0.0
  0
LINE
  5
9E45
  8
DETAIL
  6
CONTINUOUS
 10
451.063225
 20
386.078341
 30
0.0
 11
451.063225
 21
444.060941
 31
0.0
  0
LINE
  5
9E46
  8
DETAIL
  6
CONTINUOUS
 10
449.063825
 20
386.078341
 30
0.0
 11
449.063825
 21
444.060941
 31
0.0
  0
ARC
  5
9E47
  8
DETAIL
  6
CONTINUOUS
 10
490.051525
 20
385.078641
 30
0.0
 40
0.9997
 50
270.0
 51
90.0
  0
ARC
  5
9E48
  8
DETAIL
  6
CONTINUOUS
 10
490.051525
 20
445.060641
 30
0.0
 40
0.9997
 50
270.0
 51
90.0
  0
LINE
  5
9E49
  8
DETAIL
  6
CONTINUOUS
 10
451.063225
 20
506.042341
 30
0.0
 11
451.063225
 21
564.024941
 31
0.0
  0
LINE
  5
9E4A
  8
DETAIL
  6
CONTINUOUS
 10
449.063825
 20
506.042341
 30
0.0
 11
449.063825
 21
564.024941
 31
0.0
  0
CIRCLE
  5
9E4B
  8
DETAIL
  6
CONTINUOUS
 10
480.054525
 20
501.043841
 30
0.0
 40
5.9982
  0
LINE
  5
9E4C
  8
DETAIL
  6
CONTINUOUS
 10
451.063225
 20
626.006341
 30
0.0
 11
451.063225
 21
683.988941
 31
0.0
  0
LINE
  5
9E4D
  8
DETAIL
  6
CONTINUOUS
 10
449.063825
 20
626.006341
 30
0.0
 11
449.063825
 21
683.988941
 31
0.0
  0
LINE
  5
9E4E
  8
DETAIL
  6
CONTINUOUS
 10
451.063225
 20
566.0243409999999
 30
0.0
 11
451.063225
 21
624.006941
 31
0.0
  0
LINE
  5
9E4F
  8
DETAIL
  6
CONTINUOUS
 10
449.063825
 20
566.0243409999999
 30
0.0
 11
449.063825
 21
624.006941
 31
0.0
  0
ARC
  5
9E50
  8
DETAIL
  6
CONTINUOUS
 10
490.051525
 20
625.006641
 30
0.0
 40
0.9997
 50
270.0
 51
90.0
  0
LINE
  5
9E51
  8
DETAIL
  6
CONTINUOUS
 10
451.063225
 20
685.988341
 30
0.0
 11
451.063225
 21
743.970941
 31
0.0
  0
LINE
  5
9E52
  8
DETAIL
  6
CONTINUOUS
 10
449.063825
 20
685.988341
 30
0.0
 11
449.063825
 21
743.970941
 31
0.0
  0
ARC
  5
9E53
  8
DETAIL
  6
CONTINUOUS
 10
490.051525
 20
684.988641
 30
0.0
 40
0.9997
 50
270.0
 51
90.0
  0
ARC
  5
9E54
  8
DETAIL
  6
CONTINUOUS
 10
490.051525
 20
744.970641
 30
0.0
 40
0.9997
 50
270.0
 51
90.0
  0
LINE
  5
9E55
  8
DETAIL
  6
CONTINUOUS
 10
391.081225
 20
885.925035
 30
0.0
 11
449.063825
 21
885.925035
 31
0.0
  0
ARC
  5
9E56
  8
DETAIL
  6
CONTINUOUS
 10
432.869771
 20
1174.985
 30
0.0
 40
49.985
 50
180.0
 51
270.0
  0
LINE
  5
9E57
  8
DETAIL
  6
CONTINUOUS
 10
271.117225
 20
900.923841
 30
0.0
 11
269.117825
 21
900.923841
 31
0.0
  0
LINE
  5
9E58
  8
DETAIL
  6
CONTINUOUS
 10
151.153225
 20
885.925035
 30
0.0
 11
209.135825
 21
885.925035
 31
0.0
  0
LINE
  5
9E59
  8
DETAIL
  6
CONTINUOUS
 10
151.153225
 20
805.9523409999999
 30
0.0
 11
151.153225
 21
863.934941
 31
0.0
  0
LINE
  5
9E5A
  8
DETAIL
  6
CONTINUOUS
 10
149.153825
 20
805.9523409999999
 30
0.0
 11
149.153825
 21
863.934941
 31
0.0
  0
LINE
  5
9E5B
  8
DETAIL
  6
CONTINUOUS
 10
151.153225
 20
900.923841
 30
0.0
 11
149.153825
 21
900.923841
 31
0.0
  0
LINE
  5
9E5C
  8
DETAIL
  6
CONTINUOUS
 10
149.153825
 20
892.926241
 30
0.0
 11
149.153825
 21
900.923841
 31
0.0
  0
LINE
  5
9E5D
  8
DETAIL
  6
CONTINUOUS
 10
151.153225
 20
892.926241
 30
0.0
 11
151.153225
 21
900.923841
 31
0.0
  0
LINE
  5
9E5E
  8
DETAIL
  6
CONTINUOUS
 10
149.153825
 20
865.934341
 30
0.0
 11
149.153825
 21
893.925941
 31
0.0
  0
LINE
  5
9E5F
  8
DETAIL
  6
CONTINUOUS
 10
151.153225
 20
865.934341
 30
0.0
 11
151.153225
 21
893.925941
 31
0.0
  0
LINE
  5
9E60
  8
DETAIL
  6
CONTINUOUS
 10
211.135225
 20
805.9523409999999
 30
0.0
 11
211.135225
 21
863.934941
 31
0.0
  0
LINE
  5
9E61
  8
DETAIL
  6
CONTINUOUS
 10
209.135825
 20
805.9523409999999
 30
0.0
 11
209.135825
 21
863.934941
 31
0.0
  0
LINE
  5
9E62
  8
DETAIL
  6
CONTINUOUS
 10
269.117825
 20
805.9523409999999
 30
0.0
 11
269.117825
 21
863.934941
 31
0.0
  0
LINE
  5
9E63
  8
DETAIL
  6
CONTINUOUS
 10
211.135225
 20
885.925035
 30
0.0
 11
269.117825
 21
885.925035
 31
0.0
  0
LINE
  5
9E64
  8
DETAIL
  6
CONTINUOUS
 10
211.135225
 20
900.923841
 30
0.0
 11
209.135825
 21
900.923841
 31
0.0
  0
LINE
  5
9E65
  8
DETAIL
  6
CONTINUOUS
 10
209.135825
 20
892.926241
 30
0.0
 11
209.135825
 21
900.923841
 31
0.0
  0
LINE
  5
9E66
  8
DETAIL
  6
CONTINUOUS
 10
211.135225
 20
892.926241
 30
0.0
 11
211.135225
 21
900.923841
 31
0.0
  0
LINE
  5
9E67
  8
DETAIL
  6
CONTINUOUS
 10
209.135825
 20
865.934341
 30
0.0
 11
209.135825
 21
893.925941
 31
0.0
  0
LINE
  5
9E68
  8
DETAIL
  6
CONTINUOUS
 10
211.135225
 20
865.934341
 30
0.0
 11
211.135225
 21
893.925941
 31
0.0
  0
LINE
  5
9E69
  8
DETAIL
  6
CONTINUOUS
 10
269.117825
 20
892.926241
 30
0.0
 11
269.117825
 21
900.923841
 31
0.0
  0
LINE
  5
9E6A
  8
DETAIL
  6
CONTINUOUS
 10
269.117825
 20
865.934341
 30
0.0
 11
269.117825
 21
893.925941
 31
0.0
  0
LINE
  5
9E6B
  8
DETAIL
  6
CONTINUOUS
 10
331.099225
 20
885.925035
 30
0.0
 11
389.081825
 21
885.925035
 31
0.0
  0
LINE
  5
9E6C
  8
DETAIL
  6
CONTINUOUS
 10
271.117225
 20
805.9523409999999
 30
0.0
 11
271.117225
 21
863.934941
 31
0.0
  0
LINE
  5
9E6D
  8
DETAIL
  6
CONTINUOUS
 10
331.099225
 20
805.9523409999999
 30
0.0
 11
331.099225
 21
863.934941
 31
0.0
  0
LINE
  5
9E6E
  8
DETAIL
  6
CONTINUOUS
 10
329.099825
 20
805.9523409999999
 30
0.0
 11
329.099825
 21
863.934941
 31
0.0
  0
LINE
  5
9E6F
  8
DETAIL
  6
CONTINUOUS
 10
271.117225
 20
885.925035
 30
0.0
 11
329.099825
 21
885.925035
 31
0.0
  0
LINE
  5
9E70
  8
DETAIL
  6
CONTINUOUS
 10
271.117225
 20
892.926241
 30
0.0
 11
271.117225
 21
900.923841
 31
0.0
  0
LINE
  5
9E71
  8
DETAIL
  6
CONTINUOUS
 10
271.117225
 20
865.934341
 30
0.0
 11
271.117225
 21
893.925941
 31
0.0
  0
LINE
  5
9E72
  8
DETAIL
  6
CONTINUOUS
 10
331.099225
 20
900.923841
 30
0.0
 11
329.099825
 21
900.923841
 31
0.0
  0
LINE
  5
9E73
  8
DETAIL
  6
CONTINUOUS
 10
329.099825
 20
892.926241
 30
0.0
 11
329.099825
 21
900.923841
 31
0.0
  0
LINE
  5
9E74
  8
DETAIL
  6
CONTINUOUS
 10
331.099225
 20
892.926241
 30
0.0
 11
331.099225
 21
900.923841
 31
0.0
  0
LINE
  5
9E75
  8
DETAIL
  6
CONTINUOUS
 10
329.099825
 20
865.934341
 30
0.0
 11
329.099825
 21
893.925941
 31
0.0
  0
LINE
  5
9E76
  8
DETAIL
  6
CONTINUOUS
 10
331.099225
 20
865.934341
 30
0.0
 11
331.099225
 21
893.925941
 31
0.0
  0
LINE
  5
9E77
  8
DETAIL
  6
CONTINUOUS
 10
391.081225
 20
805.9523409999999
 30
0.0
 11
391.081225
 21
863.934941
 31
0.0
  0
LINE
  5
9E78
  8
DETAIL
  6
CONTINUOUS
 10
389.081825
 20
805.9523409999999
 30
0.0
 11
389.081825
 21
863.934941
 31
0.0
  0
LINE
  5
9E79
  8
DETAIL
  6
CONTINUOUS
 10
389.081825
 20
865.934341
 30
0.0
 11
389.081825
 21
905.919035
 31
0.0
  0
LINE
  5
9E7A
  8
DETAIL
  6
CONTINUOUS
 10
391.081225
 20
865.934341
 30
0.0
 11
391.081225
 21
905.919035
 31
0.0
  0
ARC
  5
9E7B
  8
DETAIL
  6
CONTINUOUS
 10
221.758395
 20
1257.72252
 30
0.0
 40
96.47105
 50
56.28442599999998
 51
64.09668900000001
  0
ARC
  5
9E7C
  8
DETAIL
  6
CONTINUOUS
 10
-157.952929
 20
1214.98952
 30
0.0
 40
299.91
 50
24.20805600000001
 51
25.58423100000002
  0
ARC
  5
9E7D
  8
DETAIL
  6
CONTINUOUS
 10
-157.952929
 20
1214.98952
 30
0.0
 40
296.41105
 50
24.51249499999999
 51
25.90849100000002
  0
ARC
  5
9E7E
  8
DETAIL
  6
CONTINUOUS
 10
48.161322
 20
1212.73652
 30
0.0
 40
196.44105
 50
39.60575300000001
 51
42.12596499999999
  0
ARC
  5
9E7F
  8
DETAIL
  6
CONTINUOUS
 10
48.161322
 20
1212.73652
 30
0.0
 40
199.94
 50
38.780981
 51
41.225514
  0
ARC
  5
9E80
  8
DETAIL
  6
CONTINUOUS
 10
-157.952929
 20
1214.98952
 30
0.0
 40
299.91
 50
11.92708200000001
 51
13.93648600000001
  0
ARC
  5
9E81
  8
DETAIL
  6
CONTINUOUS
 10
-157.952929
 20
1214.98952
 30
0.0
 40
299.91
 50
14.33038200000002
 51
16.36123300000001
  0
ARC
  5
9E82
  8
DETAIL
  6
CONTINUOUS
 10
-157.952929
 20
1214.98952
 30
0.0
 40
299.91
 50
16.75973600000002
 51
18.81651000000003
  0
ARC
  5
9E83
  8
DETAIL
  6
CONTINUOUS
 10
-157.952929
 20
1214.98952
 30
0.0
 40
299.91
 50
19.22053699999999
 51
21.308203
  0
ARC
  5
9E84
  8
DETAIL
  6
CONTINUOUS
 10
-157.952929
 20
1214.98952
 30
0.0
 40
299.91
 50
21.71878000000004
 51
23.78993799999999
  0
ARC
  5
9E85
  8
DETAIL
  6
CONTINUOUS
 10
-157.952929
 20
1214.98952
 30
0.0
 40
296.41105
 50
21.988439
 51
24.08844300000003
  0
ARC
  5
9E86
  8
DETAIL
  6
CONTINUOUS
 10
-157.952929
 20
1214.98952
 30
0.0
 40
296.41105
 50
19.45650599999999
 51
21.572247
  0
ARC
  5
9E87
  8
DETAIL
  6
CONTINUOUS
 10
-157.952929
 20
1214.98952
 30
0.0
 40
296.41105
 50
16.963526
 51
19.04713100000003
  0
ARC
  5
9E88
  8
DETAIL
  6
CONTINUOUS
 10
-157.952929
 20
1214.98952
 30
0.0
 40
296.41105
 50
14.50322799999998
 51
16.559895
  0
ARC
  5
9E89
  8
DETAIL
  6
CONTINUOUS
 10
-157.952929
 20
1214.98952
 30
0.0
 40
296.41105
 50
12.06998099999995
 51
14.10438199999997
  0
ARC
  5
9E8A
  8
DETAIL
  6
CONTINUOUS
 10
-157.952929
 20
1214.98952
 30
0.0
 40
296.41105
 50
9.65869000000001
 51
11.675051
  0
ARC
  5
9E8B
  8
DETAIL
  6
CONTINUOUS
 10
-157.952929
 20
1214.98952
 30
0.0
 40
299.91
 50
9.544944000000013
 51
11.53695899999997
  0
ARC
  5
9E8C
  8
DETAIL
  6
CONTINUOUS
 10
-157.952929
 20
1214.98952
 30
0.0
 40
296.41105
 50
8.401239999999992
 51
9.266877000000031
  0
ARC
  5
9E8D
  8
DETAIL
  6
CONTINUOUS
 10
-157.952929
 20
1214.98952
 30
0.0
 40
299.91
 50
8.302529000000037
 51
9.157827000000026
  0
ARC
  5
9E8E
  8
DETAIL
  6
CONTINUOUS
 10
48.161322
 20
1212.73652
 30
0.0
 40
196.44105
 50
22.91412500000002
 51
26.201763
  0
ARC
  5
9E8F
  8
DETAIL
  6
CONTINUOUS
 10
48.161322
 20
1212.73652
 30
0.0
 40
199.94
 50
22.49094300000002
 51
25.70938199999998
  0
ARC
  5
9E90
  8
DETAIL
  6
CONTINUOUS
 10
48.161322
 20
1212.73652
 30
0.0
 40
196.44105
 50
26.85354999999997
 51
30.25796099999998
  0
ARC
  5
9E91
  8
DETAIL
  6
CONTINUOUS
 10
48.161322
 20
1212.73652
 30
0.0
 40
196.44105
 50
30.935454
 51
34.48945399999999
  0
ARC
  5
9E92
  8
DETAIL
  6
CONTINUOUS
 10
48.161322
 20
1212.73652
 30
0.0
 40
196.44105
 50
35.200024
 51
38.85291100000001
  0
ARC
  5
9E93
  8
DETAIL
  6
CONTINUOUS
 10
48.161322
 20
1212.73652
 30
0.0
 40
199.94
 50
34.49574800000001
 51
38.049721
  0
ARC
  5
9E94
  8
DETAIL
  6
CONTINUOUS
 10
48.161322
 20
1212.73652
 30
0.0
 40
199.94
 50
30.33638799999999
 51
33.80341099999998
  0
ARC
  5
9E95
  8
DETAIL
  6
CONTINUOUS
 10
48.161322
 20
1212.73652
 30
0.0
 40
199.94
 50
26.347012
 51
29.67475199999999
  0
ARC
  5
9E96
  8
DETAIL
  6
CONTINUOUS
 10
48.161322
 20
1212.73652
 30
0.0
 40
196.44105
 50
15.34503000000003
 51
18.47026000000002
  0
ARC
  5
9E97
  8
DETAIL
  6
CONTINUOUS
 10
48.161322
 20
1212.73652
 30
0.0
 40
196.44105
 50
19.08621200000001
 51
22.28246100000002
  0
ARC
  5
9E98
  8
DETAIL
  6
CONTINUOUS
 10
48.161322
 20
1212.73652
 30
0.0
 40
199.94
 50
18.73963500000001
 51
21.87219000000002
  0
ARC
  5
9E99
  8
DETAIL
  6
CONTINUOUS
 10
48.161322
 20
1212.73652
 30
0.0
 40
199.94
 50
15.07006200000002
 51
18.13567199999997
  0
ARC
  5
9E9A
  8
DETAIL
  6
CONTINUOUS
 10
48.161322
 20
1212.73652
 30
0.0
 40
196.44105
 50
13.410531
 51
14.74117100000001
  0
ARC
  5
9E9B
  8
DETAIL
  6
CONTINUOUS
 10
48.161322
 20
1212.73652
 30
0.0
 40
199.94
 50
13.17158399999995
 51
14.47751199999998
  0
ARC
  5
9E9C
  8
DETAIL
  6
CONTINUOUS
 10
221.758395
 20
1257.72252
 30
0.0
 40
99.97
 50
53.38776700000004
 51
60.23269499999998
  0
ARC
  5
9E9D
  8
DETAIL
  6
CONTINUOUS
 10
181.543822
 20
1222.12952
 30
0.0
 40
201.689475
 50
35.05341699999998
 51
36.929835
  0
ARC
  5
9E9E
  8
DETAIL
  6
CONTINUOUS
 10
333.378918
 20
1336.25452
 30
0.0
 40
8.247525
 50
36.92983499999934
 51
90.0
  0
ARC
  5
9E9F
  8
DETAIL
  6
CONTINUOUS
 10
181.543822
 20
1222.12952
 30
0.0
 40
201.689475
 50
30.98812000000001
 51
34.36248500000002
  0
ARC
  5
9EA0
  8
DETAIL
  6
CONTINUOUS
 10
181.543822
 20
1222.12952
 30
0.0
 40
198.190525
 50
31.59757900000001
 51
35.05701499999999
  0
ARC
  5
9EA1
  8
DETAIL
  6
CONTINUOUS
 10
221.758395
 20
1257.72252
 30
0.0
 40
96.47105
 50
19.05661999999999
 51
25.64283399999997
  0
ARC
  5
9EA2
  8
DETAIL
  6
CONTINUOUS
 10
221.758395
 20
1257.72252
 30
0.0
 40
99.97
 50
25.95169599999998
 51
32.693966
  0
ARC
  5
9EA3
  8
DETAIL
  6
CONTINUOUS
 10
221.758395
 20
1257.72252
 30
0.0
 40
96.47105
 50
45.027894
 51
54.20137799999998
  0
ARC
  5
9EA4
  8
DETAIL
  6
CONTINUOUS
 10
221.758395
 20
1257.72252
 30
0.0
 40
96.47105
 50
35.48347200000001
 51
43.37146400000005
  0
ARC
  5
9EA5
  8
DETAIL
  6
CONTINUOUS
 10
221.758395
 20
1257.72252
 30
0.0
 40
96.47105
 50
26.96751299999998
 51
34.03800499999995
  0
ARC
  5
9EA6
  8
DETAIL
  6
CONTINUOUS
 10
221.758395
 20
1257.72252
 30
0.0
 40
99.97
 50
34.06628999999999
 51
41.50536399999999
  0
ARC
  5
9EA7
  8
DETAIL
  6
CONTINUOUS
 10
221.758395
 20
1257.72252
 30
0.0
 40
99.97
 50
43.05422099999999
 51
51.50754800000002
  0
ARC
  5
9EA8
  8
DETAIL
  6
CONTINUOUS
 10
221.758395
 20
1257.72252
 30
0.0
 40
96.47105
 50
11.508863
 51
17.80491499999994
  0
ARC
  5
9EA9
  8
DETAIL
  6
CONTINUOUS
 10
221.758395
 20
1257.72252
 30
0.0
 40
96.47105
 50
4.159823999999925
 51
10.299529
  0
ARC
  5
9EAA
  8
DETAIL
  6
CONTINUOUS
 10
221.758395
 20
1257.72252
 30
0.0
 40
99.97
 50
4.013987000000026
 51
9.935319000000064
  0
ARC
  5
9EAB
  8
DETAIL
  6
CONTINUOUS
 10
221.758395
 20
1257.72252
 30
0.0
 40
99.97
 50
11.10083799999999
 51
17.16202200000001
  0
ARC
  5
9EAC
  8
DETAIL
  6
CONTINUOUS
 10
221.758395
 20
1257.72252
 30
0.0
 40
99.97
 50
18.36532799999998
 51
24.68399300000002
  0
ARC
  5
9EAD
  8
DETAIL
  6
CONTINUOUS
 10
221.758395
 20
1257.72252
 30
0.0
 40
96.47105
 50
0.3405690000002448
 51
2.970022999999948
  0
ARC
  5
9EAE
  8
DETAIL
  6
CONTINUOUS
 10
221.758395
 20
1257.72252
 30
0.0
 40
99.97
 50
0.3286489999996413
 51
2.865983999999929
  0
ARC
  5
9EAF
  8
DETAIL
  6
CONTINUOUS
 10
181.543822
 20
1222.12952
 30
0.0
 40
198.190525
 50
35.766232
 51
36.92983499999999
  0
ARC
  5
9EB0
  8
DETAIL
  6
CONTINUOUS
 10
348.48946
 20
1336.96852
 30
0.0
 40
0.9997
 50
270.0
 51
90.0
  0
LINE
  5
9EB1
  8
DETAIL
  6
CONTINUOUS
 10
382.883028
 20
1174.84152
 30
0.0
 11
382.883028
 21
1254.79752
 31
0.0
  0
LINE
  5
9EB2
  8
DETAIL
  6
CONTINUOUS
 10
382.884771
 20
1174.84152
 30
0.0
 11
382.884771
 21
1244.82052
 31
0.0
  0
ARC
  5
9EB3
  8
DETAIL
  6
CONTINUOUS
 10
181.543822
 20
1222.12952
 30
0.0
 40
201.689475
 50
10.33010899999997
 51
11.61060699999998
  0
ARC
  5
9EB4
  8
DETAIL
  6
CONTINUOUS
 10
181.543822
 20
1222.12952
 30
0.0
 40
198.190525
 50
10.51453799999995
 51
11.81851700000003
  0
ARC
  5
9EB5
  8
DETAIL
  6
CONTINUOUS
 10
181.543822
 20
1222.12952
 30
0.0
 40
198.190525
 50
12.40969899999995
 51
15.46331800000003
  0
ARC
  5
9EB6
  8
DETAIL
  6
CONTINUOUS
 10
181.543822
 20
1222.12952
 30
0.0
 40
201.689475
 50
12.19107399999996
 51
15.18852999999997
  0
ARC
  5
9EB7
  8
DETAIL
  6
CONTINUOUS
 10
181.543822
 20
1222.12952
 30
0.0
 40
201.689475
 50
15.77790900000001
 51
18.82833199999999
  0
ARC
  5
9EB8
  8
DETAIL
  6
CONTINUOUS
 10
181.543822
 20
1222.12952
 30
0.0
 40
198.190525
 50
16.063924
 51
19.173598
  0
ARC
  5
9EB9
  8
DETAIL
  6
CONTINUOUS
 10
181.543822
 20
1222.12952
 30
0.0
 40
198.190525
 50
19.78671299999997
 51
22.969528
  0
ARC
  5
9EBA
  8
DETAIL
  6
CONTINUOUS
 10
181.543822
 20
1222.12952
 30
0.0
 40
201.689475
 50
19.42951700000003
 51
22.548884
  0
ARC
  5
9EBB
  8
DETAIL
  6
CONTINUOUS
 10
181.543822
 20
1222.12952
 30
0.0
 40
201.689475
 50
23.16527500000003
 51
26.372761
  0
ARC
  5
9EBC
  8
DETAIL
  6
CONTINUOUS
 10
181.543822
 20
1222.12952
 30
0.0
 40
198.190525
 50
23.598797
 51
26.87538799999997
  0
ARC
  5
9EBD
  8
DETAIL
  6
CONTINUOUS
 10
181.543822
 20
1222.12952
 30
0.0
 40
198.190525
 50
27.525275
 51
30.92139599999999
  0
ARC
  5
9EBE
  8
DETAIL
  6
CONTINUOUS
 10
181.543822
 20
1222.12952
 30
0.0
 40
201.689475
 50
27.00849200000001
 51
30.32783900000003
  0
ARC
  5
9EBF
  8
DETAIL
  6
CONTINUOUS
 10
373.557968
 20
1288.22152
 30
0.0
 40
0.9997
 50
270.0
 51
90.0
  0
ARC
  5
9EC0
  8
DETAIL
  6
CONTINUOUS
 10
376.844997
 20
1275.97052
 30
0.0
 40
0.9997
 50
270.0
 51
90.0
  0
ARC
  5
9EC1
  8
DETAIL
  6
CONTINUOUS
 10
379.631997
 20
1263.72052
 30
0.0
 40
0.9997
 50
270.0
 51
90.0
  0
ARC
  5
9EC2
  8
DETAIL
  6
CONTINUOUS
 10
368.771389
 20
1300.47152
 30
0.0
 40
0.9997
 50
270.0
 51
90.0
  0
ARC
  5
9EC3
  8
DETAIL
  6
CONTINUOUS
 10
362.48526
 20
1312.72152
 30
0.0
 40
0.9997
 50
270.0
 51
90.0
  0
ARC
  5
9EC4
  8
DETAIL
  6
CONTINUOUS
 10
355.98721
 20
1324.97152
 30
0.0
 40
0.9997
 50
270.0
 51
90.0
  0
ARC
  5
9EC5
  8
DETAIL
  6
CONTINUOUS
 10
381.135955
 20
1256.54652
 30
0.0
 40
1.749475
 50
270.0
 51
90.0
  0
ARC
  5
9EC6
  8
DETAIL
  6
CONTINUOUS
 10
338.408027
 20
1349.0003
 30
0.0
 40
0.9997
 50
270.0
 51
90.0
  0
ARC
  5
9EC7
  8
DETAIL
  6
CONTINUOUS
 10
333.378918
 20
1336.25452
 30
0.0
 40
11.746475
 50
36.92983499999983
 51
90.0
  0
LINE
  5
9EC8
  8
DETAIL
  6
CONTINUOUS
 10
451.063225
 20
805.9523409999999
 30
0.0
 11
451.063225
 21
863.934941
 31
0.0
  0
LINE
  5
9EC9
  8
DETAIL
  6
CONTINUOUS
 10
449.063825
 20
805.9523409999999
 30
0.0
 11
449.063825
 21
863.934941
 31
0.0
  0
ARC
  5
9ECA
  8
DETAIL
  6
CONTINUOUS
 10
490.051525
 20
804.952641
 30
0.0
 40
0.9997
 50
270.0
 51
90.0
  0
LINE
  5
9ECB
  8
DETAIL
  6
CONTINUOUS
 10
451.063225
 20
885.925035
 30
0.0
 11
495.0
 21
885.925035
 31
0.0
  0
LINE
  5
9ECC
  8
DETAIL
  6
CONTINUOUS
 10
451.063225
 20
865.934341
 30
0.0
 11
451.063225
 21
893.925941
 31
0.0
  0
LINE
  5
9ECD
  8
DETAIL
  6
CONTINUOUS
 10
449.063825
 20
865.934341
 30
0.0
 11
449.063825
 21
893.925941
 31
0.0
  0
LINE
  5
9ECE
  8
DETAIL
  6
CONTINUOUS
 10
451.063225
 20
892.926241
 30
0.0
 11
451.063225
 21
900.923841
 31
0.0
  0
LINE
  5
9ECF
  8
DETAIL
  6
CONTINUOUS
 10
449.063825
 20
892.926241
 30
0.0
 11
449.063825
 21
900.923841
 31
0.0
  0
LINE
  5
9ED0
  8
DETAIL
  6
CONTINUOUS
 10
451.063225
 20
900.923841
 30
0.0
 11
449.063825
 21
900.923841
 31
0.0
  0
ARC
  5
9ED1
  8
DETAIL
  6
CONTINUOUS
 10
490.051525
 20
864.9346409999999
 30
0.0
 40
0.9997
 50
270.0
 51
90.0
  0
POINT
  5
9ED2
  8
ARRANGE
  6
DASHDOT
 10
0.0
 20
0.0
 30
0.0
  0
CIRCLE
  5
9ED3
  8
ARRANGE
  6
CONTINUOUS
 10
0.0
 20
0.0
 30
0.0
 40
40.0
  0
LINE
  5
9ED4
  8
NOTE
  6
CONTINUOUS
 10
380.0
 20
-20.0
 30
0.0
 11
380.0
 21
20.0
 31
0.0
  0
LINE
  5
9ED5
  8
NOTE
  6
CONTINUOUS
 10
360.0
 20
0.0
 30
0.0
 11
400.0
 21
0.0
 31
0.0
  0
LINE
  5
9ED6
  8
NOTE
  6
CONTINUOUS
 10
-380.0
 20
-20.0
 30
0.0
 11
-380.0
 21
20.0
 31
0.0
  0
LINE
  5
9ED7
  8
NOTE
  6
CONTINUOUS
 10
-400.0
 20
0.0
 30
0.0
 11
-360.0
 21
0.0
 31
0.0
  0
LINE
  5
9ED8
  8
NOTE
  6
CONTINUOUS
 10
-254.0
 20
141.992794
 30
0.0
 11
-254.0
 21
181.992794
 31
0.0
  0
LINE
  5
9ED9
  8
NOTE
  6
CONTINUOUS
 10
-274.0
 20
161.992794
 30
0.0
 11
-234.0
 21
161.992794
 31
0.0
  0
LINE
  5
9EDA
  8
NOTE
  6
CONTINUOUS
 10
-331.0
 20
117.992794
 30
0.0
 11
-331.0
 21
157.992794
 31
0.0
  0
LINE
  5
9EDB
  8
NOTE
  6
CONTINUOUS
 10
-351.0
 20
137.992794
 30
0.0
 11
-311.0
 21
137.992794
 31
0.0
  0
LINE
  5
9EDC
  8
NOTE
  6
CONTINUOUS
 10
-383.015
 20
69.973
 30
0.0
 11
-383.015
 21
109.973
 31
0.0
  0
LINE
  5
9EDD
  8
NOTE
  6
CONTINUOUS
 10
-403.015
 20
89.973
 30
0.0
 11
-363.015
 21
89.973
 31
0.0
  0
LINE
  5
9EDE
  8
NOTE
  6
CONTINUOUS
 10
-408.0075
 20
34.9835
 30
0.0
 11
-408.0075
 21
74.98349999999999
 31
0.0
  0
LINE
  5
9EDF
  8
NOTE
  6
CONTINUOUS
 10
-428.0075
 20
54.9835
 30
0.0
 11
-388.0075
 21
54.9835
 31
0.0
  0
LINE
  5
9EE0
  8
NOTE
  6
CONTINUOUS
 10
-433.0
 20
69.973
 30
0.0
 11
-433.0
 21
109.973
 31
0.0
  0
LINE
  5
9EE1
  8
NOTE
  6
CONTINUOUS
 10
-453.0
 20
89.973
 30
0.0
 11
-413.0
 21
89.973
 31
0.0
  0
TEXT
  5
9EE2
  8
ETC
  6
CONTINUOUS
 10
656.342783
 20
-206.612629
 30
0.0
 40
64.0
  1
WRV00042
 50
0.0000029575586669
 41
0.659722
  7
STANDARD1
  0
TEXT
  5
9EE3
  8
ETC
  6
CONTINUOUS
 10
656.342783
 20
-310.612629
 30
0.0
 40
64.0
  1
除湿機
 50
0.0000029575586669
 41
0.659722
  7
STANDARD1
  0
LINE
  5
9EE4
  8
NOTE
  6
CONTINUOUS
 10
-801.1322359999999
 20
-43.852388
 30
0.0
 11
-1200.678415
 21
-43.852388
 31
0.0
  0
TEXT
  5
9EE5
  8
NOTE
  6
CONTINUOUS
 10
-1205.331284
 20
-17.694198
 30
0.0
 40
64.0
  1
RG%%c19.05
 41
0.9
 72
     2
 11
-802.1312839999999
 21
-17.694198
 31
0.0
  0
TEXT
  5
9EE6
  8
NOTE
  6
CONTINUOUS
 10
-987.7765694285715
 20
418.285959
 30
0.0
 40
64.0
  1
RL%%c15.88
 41
0.9
 72
     2
 11
-595.547998
 21
418.285959
 31
0.0
  0
LINE
  5
9EE7
  8
NOTE
  6
CONTINUOUS
 10
-579.581779
 20
392.127769
 30
0.0
 11
-983.1005379999999
 21
392.127769
 31
0.0
  0
LINE
  5
9EE8
  8
NOTE
  6
CONTINUOUS
 10
-331.0
 20
137.992794
 30
0.0
 11
-801.1322359999999
 21
-43.852388
 31
0.0
  0
POLYLINE
  5
9EE9
  8
NOTE
  6
CONTINUOUS
 66
     1
 10
0.0
 20
0.0
 30
0.0
  0
VERTEX
  5
A02B
  8
NOTE
  6
CONTINUOUS
 10
-370.770081
 20
133.710196
 30
0.0
  0
VERTEX
  5
A02C
  8
NOTE
  6
CONTINUOUS
 10
-331.0
 20
137.992794
 30
0.0
  0
VERTEX
  5
A02D
  8
NOTE
  6
CONTINUOUS
 10
-363.300601
 20
114.398915
 30
0.0
  0
SEQEND
  5
A031
  8
NOTE
  6
CONTINUOUS
  0
LINE
  5
9EEE
  8
NOTE
  6
CONTINUOUS
 10
-254.0
 20
161.992794
 30
0.0
 11
-579.581779
 21
392.127769
 31
0.0
  0
POLYLINE
  5
9EEF
  8
NOTE
  6
CONTINUOUS
 66
     1
 10
0.0
 20
0.0
 30
0.0
  0
VERTEX
  5
A02E
  8
NOTE
  6
CONTINUOUS
 10
-279.5752
 20
192.74843
 30
0.0
  0
VERTEX
  5
A02F
  8
NOTE
  6
CONTINUOUS
 10
-254.0
 20
161.992794
 30
0.0
  0
VERTEX
  5
A030
  8
NOTE
  6
CONTINUOUS
 10
-291.52659
 20
175.840357
 30
0.0
  0
SEQEND
  5
A032
  8
NOTE
  6
CONTINUOUS
  0
LINE
  5
9EF4
  8
OUTLINE
  6
CONTINUOUS
 10
495.0
 20
0.0
 30
0.0
 11
-495.0
 21
0.0
 31
0.0
  0
LINE
  5
9EF5
  8
OUTLINE
  6
CONTINUOUS
 10
495.0
 20
1125.0
 30
0.0
 11
495.0
 21
0.0
 31
0.0
  0
LINE
  5
9EF6
  8
OUTLINE
  6
CONTINUOUS
 10
-495.0
 20
1125.0
 30
0.0
 11
-495.0
 21
0.0
 31
0.0
  0
LINE
  5
9EF7
  8
OUTLINE
  6
CONTINUOUS
 10
495.0
 20
1125.0
 30
0.0
 11
432.869771
 21
1125.0
 31
0.0
  0
ARC
  5
9EF8
  8
OUTLINE
  6
CONTINUOUS
 10
432.869771
 20
1174.985
 30
0.0
 40
49.985
 50
180.0
 51
270.0
  0
ARC
  5
9EF9
  8
OUTLINE
  6
CONTINUOUS
 10
-432.87346
 20
1174.985
 30
0.0
 40
49.985
 50
270.0
 51
0.0
  0
ARC
  5
9EFA
  8
OUTLINE
  6
CONTINUOUS
 10
181.540133
 20
1222.06193
 30
0.0
 40
201.689475
 50
10.33010899999997
 51
11.61060699999998
  0
ARC
  5
9EFB
  8
OUTLINE
  6
CONTINUOUS
 10
-181.548168
 20
1222.06193
 30
0.0
 40
201.689475
 50
168.389393
 51
169.669891
  0
ARC
  5
9EFC
  8
OUTLINE
  6
CONTINUOUS
 10
-381.1403
 20
1256.47952
 30
0.0
 40
1.749475
 50
90.0
 51
270.0
  0
LINE
  5
9EFD
  8
OUTLINE
  6
CONTINUOUS
 10
-379.968446
 20
1258.22873
 30
0.0
 11
-381.1403
 21
1258.22873
 31
0.0
  0
LINE
  5
9EFE
  8
OUTLINE
  6
CONTINUOUS
 10
-381.1403
 20
1254.72978
 30
0.0
 11
-382.88846
 21
1254.72978
 31
0.0
  0
ARC
  5
9EFF
  8
OUTLINE
  6
CONTINUOUS
 10
381.132266
 20
1256.47952
 30
0.0
 40
1.749475
 50
270.0
 51
90.0
  0
LINE
  5
9F00
  8
OUTLINE
  6
CONTINUOUS
 10
379.960412
 20
1258.22873
 30
0.0
 11
381.132266
 21
1258.22873
 31
0.0
  0
LINE
  5
9F01
  8
OUTLINE
  6
CONTINUOUS
 10
381.132266
 20
1254.72978
 30
0.0
 11
382.88174
 21
1254.72978
 31
0.0
  0
LINE
  5
9F02
  8
OUTLINE
  6
CONTINUOUS
 10
-0.004017
 20
1349.93252
 30
0.0
 11
-338.412373
 21
1349.93252
 31
0.0
  0
ARC
  5
9F03
  8
OUTLINE
  6
CONTINUOUS
 10
-181.548168
 20
1222.06193
 30
0.0
 40
201.689475
 50
153.627239
 51
156.834725
  0
ARC
  5
9F04
  8
OUTLINE
  6
CONTINUOUS
 10
-181.548168
 20
1222.06193
 30
0.0
 40
201.689475
 50
157.451116
 51
160.570483
  0
ARC
  5
9F05
  8
OUTLINE
  6
CONTINUOUS
 10
-373.562314
 20
1288.15352
 30
0.0
 40
0.9997
 50
90.0
 51
270.0
  0
ARC
  5
9F06
  8
OUTLINE
  6
CONTINUOUS
 10
-368.775735
 20
1300.40352
 30
0.0
 40
0.9997
 50
90.0
 51
270.0
  0
ARC
  5
9F07
  8
OUTLINE
  6
CONTINUOUS
 10
-181.548168
 20
1222.06193
 30
0.0
 40
201.689475
 50
149.672161
 51
152.991508
  0
ARC
  5
9F08
  8
OUTLINE
  6
CONTINUOUS
 10
-362.489606
 20
1312.65352
 30
0.0
 40
0.9997
 50
90.0
 51
270.0
  0
ARC
  5
9F09
  8
OUTLINE
  6
CONTINUOUS
 10
-355.991556
 20
1324.90452
 30
0.0
 40
0.9997
 50
90.0
 51
270.0
  0
ARC
  5
9F0A
  8
OUTLINE
  6
CONTINUOUS
 10
-181.548168
 20
1222.06193
 30
0.0
 40
201.689475
 50
143.070165
 51
144.946583
  0
ARC
  5
9F0B
  8
OUTLINE
  6
CONTINUOUS
 10
-181.548168
 20
1222.06193
 30
0.0
 40
201.689475
 50
145.637515
 51
149.01188
  0
ARC
  5
9F0C
  8
OUTLINE
  6
CONTINUOUS
 10
-348.493806
 20
1336.90052
 30
0.0
 40
0.9997
 50
90.0
 51
270.0
  0
ARC
  5
9F0D
  8
OUTLINE
  6
CONTINUOUS
 10
-338.412373
 20
1348.93252
 30
0.0
 40
0.9997
 50
90.0
 51
270.0
  0
ARC
  5
9F0E
  8
OUTLINE
  6
CONTINUOUS
 10
-333.383264
 20
1336.18652
 30
0.0
 40
11.746475
 50
90.0
 51
143.0701650000002
  0
ARC
  5
9F0F
  8
OUTLINE
  6
CONTINUOUS
 10
-181.548168
 20
1222.06193
 30
0.0
 40
201.689475
 50
164.81147
 51
167.808926
  0
ARC
  5
9F10
  8
OUTLINE
  6
CONTINUOUS
 10
-376.849343
 20
1275.90352
 30
0.0
 40
0.9997
 50
90.0
 51
270.0
  0
ARC
  5
9F11
  8
OUTLINE
  6
CONTINUOUS
 10
-379.636343
 20
1263.65352
 30
0.0
 40
0.9997
 50
90.0
 51
270.0
  0
ARC
  5
9F12
  8
OUTLINE
  6
CONTINUOUS
 10
-181.548168
 20
1222.06193
 30
0.0
 40
201.689475
 50
161.171668
 51
164.222091
  0
LINE
  5
9F13
  8
OUTLINE
  6
CONTINUOUS
 10
-379.110674
 20
1262.65352
 30
0.0
 11
-379.636343
 21
1262.65352
 31
0.0
  0
LINE
  5
9F14
  8
OUTLINE
  6
CONTINUOUS
 10
-378.689304
 20
1264.65352
 30
0.0
 11
-379.636343
 21
1264.65352
 31
0.0
  0
LINE
  5
9F15
  8
OUTLINE
  6
CONTINUOUS
 10
-376.192421
 20
1274.90352
 30
0.0
 11
-376.849343
 21
1274.90352
 31
0.0
  0
LINE
  5
9F16
  8
OUTLINE
  6
CONTINUOUS
 10
-375.638569
 20
1276.90352
 30
0.0
 11
-376.849343
 21
1276.90352
 31
0.0
  0
LINE
  5
9F17
  8
OUTLINE
  6
CONTINUOUS
 10
-372.445197
 20
1287.15352
 30
0.0
 11
-373.562314
 21
1287.15352
 31
0.0
  0
LINE
  5
9F18
  8
OUTLINE
  6
CONTINUOUS
 10
-371.751712
 20
1289.15352
 30
0.0
 11
-373.562314
 21
1289.15352
 31
0.0
  0
LINE
  5
9F19
  8
OUTLINE
  6
CONTINUOUS
 10
-367.819027
 20
1299.40452
 30
0.0
 11
-368.775735
 21
1299.40452
 31
0.0
  0
LINE
  5
9F1A
  8
OUTLINE
  6
CONTINUOUS
 10
-366.976212
 20
1301.40352
 30
0.0
 11
-368.775735
 21
1301.40352
 31
0.0
  0
LINE
  5
9F1B
  8
OUTLINE
  6
CONTINUOUS
 10
-362.246416
 20
1311.65452
 30
0.0
 11
-362.489606
 21
1311.65452
 31
0.0
  0
LINE
  5
9F1C
  8
OUTLINE
  6
CONTINUOUS
 10
-361.241232
 20
1313.65352
 30
0.0
 11
-362.489606
 21
1313.65352
 31
0.0
  0
LINE
  5
9F1D
  8
OUTLINE
  6
CONTINUOUS
 10
-355.6365
 20
1323.90452
 30
0.0
 11
-355.991556
 21
1323.90452
 31
0.0
  0
LINE
  5
9F1E
  8
OUTLINE
  6
CONTINUOUS
 10
-354.451326
 20
1325.90352
 30
0.0
 11
-355.991556
 21
1325.90352
 31
0.0
  0
LINE
  5
9F1F
  8
OUTLINE
  6
CONTINUOUS
 10
-348.039449
 20
1335.90052
 30
0.0
 11
-348.493806
 21
1335.90052
 31
0.0
  0
LINE
  5
9F20
  8
OUTLINE
  6
CONTINUOUS
 10
-346.654589
 20
1337.90052
 30
0.0
 11
-348.493806
 21
1337.90052
 31
0.0
  0
LINE
  5
9F21
  8
OUTLINE
  6
CONTINUOUS
 10
-338.412373
 20
1347.93352
 30
0.0
 11
-333.383264
 21
1347.93352
 31
0.0
  0
LINE
  5
9F22
  8
OUTLINE
  6
CONTINUOUS
 10
-0.004017
 20
1349.93252
 30
0.0
 11
338.404338
 21
1349.93252
 31
0.0
  0
ARC
  5
9F23
  8
OUTLINE
  6
CONTINUOUS
 10
181.540133
 20
1222.06193
 30
0.0
 40
201.689475
 50
19.42951700000003
 51
22.548884
  0
ARC
  5
9F24
  8
OUTLINE
  6
CONTINUOUS
 10
181.540133
 20
1222.06193
 30
0.0
 40
201.689475
 50
27.00849200000001
 51
30.32783900000003
  0
ARC
  5
9F25
  8
OUTLINE
  6
CONTINUOUS
 10
355.983521
 20
1324.90452
 30
0.0
 40
0.9997
 50
270.0
 51
90.0
  0
ARC
  5
9F26
  8
OUTLINE
  6
CONTINUOUS
 10
362.481571
 20
1312.65352
 30
0.0
 40
0.9997
 50
270.0
 51
90.0
  0
ARC
  5
9F27
  8
OUTLINE
  6
CONTINUOUS
 10
368.7677
 20
1300.40352
 30
0.0
 40
0.9997
 50
270.0
 51
90.0
  0
ARC
  5
9F28
  8
OUTLINE
  6
CONTINUOUS
 10
181.540133
 20
1222.06193
 30
0.0
 40
201.689475
 50
23.16527500000003
 51
26.372761
  0
ARC
  5
9F29
  8
OUTLINE
  6
CONTINUOUS
 10
181.540133
 20
1222.06193
 30
0.0
 40
201.689475
 50
35.053417
 51
36.92983499999999
  0
ARC
  5
9F2A
  8
OUTLINE
  6
CONTINUOUS
 10
348.485771
 20
1336.90052
 30
0.0
 40
0.9997
 50
270.0
 51
90.0
  0
ARC
  5
9F2B
  8
OUTLINE
  6
CONTINUOUS
 10
333.375229
 20
1336.18652
 30
0.0
 40
11.746475
 50
36.92983499999983
 51
90.0
  0
ARC
  5
9F2C
  8
OUTLINE
  6
CONTINUOUS
 10
338.404338
 20
1348.93252
 30
0.0
 40
0.9997
 50
270.0
 51
90.0
  0
ARC
  5
9F2D
  8
OUTLINE
  6
CONTINUOUS
 10
181.540133
 20
1222.06193
 30
0.0
 40
201.689475
 50
30.98812
 51
34.36248500000002
  0
ARC
  5
9F2E
  8
OUTLINE
  6
CONTINUOUS
 10
373.554279
 20
1288.15352
 30
0.0
 40
0.9997
 50
270.0
 51
90.0
  0
ARC
  5
9F2F
  8
OUTLINE
  6
CONTINUOUS
 10
379.628308
 20
1263.65352
 30
0.0
 40
0.9997
 50
270.0
 51
90.0
  0
ARC
  5
9F30
  8
OUTLINE
  6
CONTINUOUS
 10
376.841308
 20
1275.90352
 30
0.0
 40
0.9997
 50
270.0
 51
90.0
  0
ARC
  5
9F31
  8
OUTLINE
  6
CONTINUOUS
 10
181.540133
 20
1222.06193
 30
0.0
 40
201.689475
 50
12.19107399999996
 51
15.18852999999997
  0
ARC
  5
9F32
  8
OUTLINE
  6
CONTINUOUS
 10
181.540133
 20
1222.06193
 30
0.0
 40
201.689475
 50
15.77790900000004
 51
18.82833199999999
  0
LINE
  5
9F33
  8
OUTLINE
  6
CONTINUOUS
 10
379.10264
 20
1262.65352
 30
0.0
 11
379.628308
 21
1262.65352
 31
0.0
  0
LINE
  5
9F34
  8
OUTLINE
  6
CONTINUOUS
 10
346.646554
 20
1337.90052
 30
0.0
 11
348.485771
 21
1337.90052
 31
0.0
  0
LINE
  5
9F35
  8
OUTLINE
  6
CONTINUOUS
 10
348.031415
 20
1335.90052
 30
0.0
 11
348.485771
 21
1335.90052
 31
0.0
  0
LINE
  5
9F36
  8
OUTLINE
  6
CONTINUOUS
 10
354.443291
 20
1325.90352
 30
0.0
 11
355.983521
 21
1325.90352
 31
0.0
  0
LINE
  5
9F37
  8
OUTLINE
  6
CONTINUOUS
 10
338.404338
 20
1347.93352
 30
0.0
 11
333.375229
 21
1347.93352
 31
0.0
  0
LINE
  5
9F38
  8
OUTLINE
  6
CONTINUOUS
 10
355.628465
 20
1323.90452
 30
0.0
 11
355.983521
 21
1323.90452
 31
0.0
  0
LINE
  5
9F39
  8
OUTLINE
  6
CONTINUOUS
 10
361.233197
 20
1313.65352
 30
0.0
 11
362.481571
 21
1313.65352
 31
0.0
  0
LINE
  5
9F3A
  8
OUTLINE
  6
CONTINUOUS
 10
362.238381
 20
1311.65452
 30
0.0
 11
362.481571
 21
1311.65452
 31
0.0
  0
LINE
  5
9F3B
  8
OUTLINE
  6
CONTINUOUS
 10
366.968177
 20
1301.40352
 30
0.0
 11
368.7677
 21
1301.40352
 31
0.0
  0
LINE
  5
9F3C
  8
OUTLINE
  6
CONTINUOUS
 10
367.810992
 20
1299.40452
 30
0.0
 11
368.7677
 21
1299.40452
 31
0.0
  0
LINE
  5
9F3D
  8
OUTLINE
  6
CONTINUOUS
 10
371.743677
 20
1289.15352
 30
0.0
 11
373.554279
 21
1289.15352
 31
0.0
  0
LINE
  5
9F3E
  8
OUTLINE
  6
CONTINUOUS
 10
372.437162
 20
1287.15352
 30
0.0
 11
373.554279
 21
1287.15352
 31
0.0
  0
LINE
  5
9F3F
  8
OUTLINE
  6
CONTINUOUS
 10
375.630534
 20
1276.90352
 30
0.0
 11
376.841308
 21
1276.90352
 31
0.0
  0
LINE
  5
9F40
  8
OUTLINE
  6
CONTINUOUS
 10
376.184386
 20
1274.90352
 30
0.0
 11
376.841308
 21
1274.90352
 31
0.0
  0
LINE
  5
9F41
  8
OUTLINE
  6
CONTINUOUS
 10
378.681269
 20
1264.65352
 30
0.0
 11
379.628308
 21
1264.65352
 31
0.0
  0
LINE
  5
9F42
  8
OUTLINE
  6
CONTINUOUS
 10
382.88174
 20
1174.985
 30
0.0
 11
382.88174
 21
1254.72978
 31
0.0
  0
LINE
  5
9F43
  8
OUTLINE
  6
CONTINUOUS
 10
-382.88846
 20
1174.985
 30
0.0
 11
-382.88846
 21
1254.72978
 31
0.0
  0
LINE
  5
9F44
  8
OUTLINE
  6
CONTINUOUS
 10
-432.87346
 20
1125.0
 30
0.0
 11
-495.0
 21
1125.0
 31
0.0
  0
INSERT
  5
9F45
  8
OUTLINE
  6
CONTINUOUS
  2
A$C3156610D
 10
-399.999999
 20
-20.000005
 30
0.0
  0
INSERT
  5
9F46
  8
OUTLINE
  6
CONTINUOUS
  2
A$C3156610D
 10
360.000001
 20
-20.000005
 30
0.0
  0
LINE
  5
9F47
  8
SIZE
  6
BYBLOCK
 10
380.0
 20
-40.0
 30
0.0
 11
380.0
 21
-405.219309
 31
0.0
  0
LINE
  5
9F48
  8
SIZE
  6
BYBLOCK
 10
-380.0
 20
-40.0
 30
0.0
 11
-380.0
 21
-405.219309
 31
0.0
  0
LINE
  5
9F49
  8
SIZE
  6
BYBLOCK
 10
370.0
 20
-375.219309
 30
0.0
 11
-370.0
 21
-375.219309
 31
0.0
  0
LINE
  5
9F4A
  8
SIZE
  6
BYBLOCK
 10
-254.0
 20
201.992794
 30
0.0
 11
-254.0
 21
560.11533
 31
0.0
  0
LINE
  5
9F4B
  8
SIZE
  6
BYBLOCK
 10
-495.0
 20
20.0
 30
0.0
 11
-495.0
 21
560.11533
 31
0.0
  0
LINE
  5
9F4C
  8
SIZE
  6
BYBLOCK
 10
-264.0
 20
530.11533
 30
0.0
 11
-485.0
 21
530.11533
 31
0.0
  0
LINE
  5
9F4D
  8
SIZE
  6
BYBLOCK
 10
-495.0
 20
530.11533
 30
0.0
 11
-774.3663819999999
 21
530.11533
 31
0.0
  0
LINE
  5
9F4E
  8
SIZE
  6
BYBLOCK
 10
-353.0
 20
14.9895
 30
0.0
 11
-353.0
 21
-320.182231
 31
0.0
  0
LINE
  5
9F4F
  8
SIZE
  6
BYBLOCK
 10
-233.036
 20
14.9895
 30
0.0
 11
-233.036
 21
-320.182231
 31
0.0
  0
LINE
  5
9F50
  8
SIZE
  6
BYBLOCK
 10
-363.0
 20
-290.182231
 30
0.0
 11
-373.0
 21
-290.182231
 31
0.0
  0
LINE
  5
9F51
  8
SIZE
  6
BYBLOCK
 10
-223.036
 20
-290.182231
 30
0.0
 11
-213.036
 21
-290.182231
 31
0.0
  0
LINE
  5
9F52
  8
SIZE
  6
BYBLOCK
 10
-353.0
 20
-290.182231
 30
0.0
 11
-233.036
 21
-290.182231
 31
0.0
  0
LINE
  5
9F53
  8
SIZE
  6
BYBLOCK
 10
-408.0075
 20
14.9835
 30
0.0
 11
-408.0075
 21
-159.804006
 31
0.0
  0
LINE
  5
9F54
  8
SIZE
  6
BYBLOCK
 10
-383.015
 20
49.973
 30
0.0
 11
-383.015
 21
-159.804006
 31
0.0
  0
LINE
  5
9F55
  8
SIZE
  6
BYBLOCK
 10
-418.0075
 20
-129.804006
 30
0.0
 11
-428.0075
 21
-129.804006
 31
0.0
  0
LINE
  5
9F56
  8
SIZE
  6
BYBLOCK
 10
-373.015
 20
-129.804006
 30
0.0
 11
-229.757857
 21
-129.804006
 31
0.0
  0
LINE
  5
9F57
  8
SIZE
  6
BYBLOCK
 10
-408.0075
 20
-129.804006
 30
0.0
 11
-383.015
 21
-129.804006
 31
0.0
  0
LINE
  5
9F58
  8
SIZE
  6
BYBLOCK
 10
-475.0
 20
0.0
 30
0.0
 11
-69.957263
 21
0.0
 31
0.0
  0
LINE
  5
9F59
  8
SIZE
  6
BYBLOCK
 10
-233.03
 20
14.9955
 30
0.0
 11
-69.957263
 21
14.9955
 31
0.0
  0
LINE
  5
9F5A
  8
SIZE
  6
BYBLOCK
 10
-99.957263
 20
24.9955
 30
0.0
 11
-99.957263
 21
34.9955
 31
0.0
  0
LINE
  5
9F5B
  8
SIZE
  6
BYBLOCK
 10
-99.957263
 20
-10.0
 30
0.0
 11
-99.957263
 21
-142.285714
 31
0.0
  0
LINE
  5
9F5C
  8
SIZE
  6
BYBLOCK
 10
-99.957263
 20
14.9955
 30
0.0
 11
-99.957263
 21
0.0
 31
0.0
  0
LINE
  5
9F5D
  8
SIZE
  6
BYBLOCK
 10
-495.0
 20
-18.40048
 30
0.0
 11
-495.0
 21
-523.931927
 31
0.0
  0
LINE
  5
9F5E
  8
SIZE
  6
BYBLOCK
 10
495.0
 20
-20.0
 30
0.0
 11
495.0
 21
-523.931927
 31
0.0
  0
LINE
  5
9F5F
  8
SIZE
  6
BYBLOCK
 10
-485.0
 20
-493.931927
 30
0.0
 11
485.0
 21
-493.931927
 31
0.0
  0
LINE
  5
9F60
  8
SIZE
  6
BYBLOCK
 10
-495.0
 20
-20.0
 30
0.0
 11
-495.0
 21
-320.182231
 31
0.0
  0
LINE
  5
9F61
  8
SIZE
  6
BYBLOCK
 10
-353.0
 20
14.9895
 30
0.0
 11
-353.0
 21
-320.182231
 31
0.0
  0
LINE
  5
9F62
  8
SIZE
  6
BYBLOCK
 10
-505.0
 20
-290.182231
 30
0.0
 11
-515.0
 21
-290.182231
 31
0.0
  0
LINE
  5
9F63
  8
SIZE
  6
BYBLOCK
 10
-343.0
 20
-290.182231
 30
0.0
 11
-333.0
 21
-290.182231
 31
0.0
  0
LINE
  5
9F64
  8
SIZE
  6
BYBLOCK
 10
-495.0
 20
-290.182231
 30
0.0
 11
-353.0
 21
-290.182231
 31
0.0
  0
LINE
  5
9F65
  8
SIZE
  6
BYBLOCK
 10
-433.0
 20
49.973
 30
0.0
 11
-433.0
 21
-159.804006
 31
0.0
  0
LINE
  5
9F66
  8
SIZE
  6
BYBLOCK
 10
-408.0075
 20
14.9835
 30
0.0
 11
-408.0075
 21
-159.804006
 31
0.0
  0
LINE
  5
9F67
  8
SIZE
  6
BYBLOCK
 10
-443.0
 20
-129.804006
 30
0.0
 11
-453.0
 21
-129.804006
 31
0.0
  0
LINE
  5
9F68
  8
SIZE
  6
BYBLOCK
 10
-398.0075
 20
-129.804006
 30
0.0
 11
-388.0075
 21
-129.804006
 31
0.0
  0
LINE
  5
9F69
  8
SIZE
  6
BYBLOCK
 10
-433.0
 20
-129.804006
 30
0.0
 11
-408.0075
 21
-129.804006
 31
0.0
  0
LINE
  5
9F6A
  8
SIZE
  6
BYBLOCK
 10
-495.0
 20
-20.0
 30
0.0
 11
-495.0
 21
-159.804006
 31
0.0
  0
LINE
  5
9F6B
  8
SIZE
  6
BYBLOCK
 10
-433.0
 20
49.973
 30
0.0
 11
-433.0
 21
-159.804006
 31
0.0
  0
LINE
  5
9F6C
  8
SIZE
  6
BYBLOCK
 10
-443.0
 20
-129.804006
 30
0.0
 11
-485.0
 21
-129.804006
 31
0.0
  0
LINE
  5
9F6D
  8
SIZE
  6
BYBLOCK
 10
-495.0
 20
-129.804006
 30
0.0
 11
-638.2571429999999
 21
-129.804006
 31
0.0
  0
LINE
  5
9F6E
  8
SIZE
  6
BYBLOCK
 10
-515.0
 20
0.0
 30
0.0
 11
-684.471966
 21
0.0
 31
0.0
  0
LINE
  5
9F6F
  8
SIZE
  6
BYBLOCK
 10
-448.0075
 20
54.9835
 30
0.0
 11
-684.471966
 21
54.9835
 31
0.0
  0
LINE
  5
9F70
  8
SIZE
  6
BYBLOCK
 10
-654.471966
 20
64.9835
 30
0.0
 11
-654.471966
 21
74.98349999999999
 31
0.0
  0
LINE
  5
9F71
  8
SIZE
  6
BYBLOCK
 10
-654.471966
 20
-10.0
 30
0.0
 11
-654.471966
 21
-153.257143
 31
0.0
  0
LINE
  5
9F72
  8
SIZE
  6
BYBLOCK
 10
-654.471966
 20
54.9835
 30
0.0
 11
-654.471966
 21
0.0
 31
0.0
  0
LINE
  5
9F73
  8
SIZE
  6
BYBLOCK
 10
-495.0
 20
20.0
 30
0.0
 11
-495.0
 21
309.868451
 31
0.0
  0
LINE
  5
9F74
  8
SIZE
  6
BYBLOCK
 10
-331.0
 20
177.992794
 30
0.0
 11
-331.0
 21
309.868451
 31
0.0
  0
LINE
  5
9F75
  8
SIZE
  6
BYBLOCK
 10
-341.0
 20
279.868451
 30
0.0
 11
-485.0
 21
279.868451
 31
0.0
  0
LINE
  5
9F76
  8
SIZE
  6
BYBLOCK
 10
-495.0
 20
279.868451
 30
0.0
 11
-756.00425
 21
279.868451
 31
0.0
  0
LINE
  5
9F77
  8
SIZE
  6
BYBLOCK
 10
-448.0075
 20
54.9835
 30
0.0
 11
-684.471966
 21
54.9835
 31
0.0
  0
LINE
  5
9F78
  8
SIZE
  6
BYBLOCK
 10
-473.0
 20
89.973
 30
0.0
 11
-684.471966
 21
89.973
 31
0.0
  0
LINE
  5
9F79
  8
SIZE
  6
BYBLOCK
 10
-654.471966
 20
44.9835
 30
0.0
 11
-654.471966
 21
34.9835
 31
0.0
  0
LINE
  5
9F7A
  8
SIZE
  6
BYBLOCK
 10
-654.471966
 20
99.973
 30
0.0
 11
-654.471966
 21
243.230143
 31
0.0
  0
LINE
  5
9F7B
  8
SIZE
  6
BYBLOCK
 10
-654.471966
 20
54.9835
 30
0.0
 11
-654.471966
 21
89.973
 31
0.0
  0
LINE
  5
9F7C
  8
SIZE
  6
BYBLOCK
 10
515.0
 20
0.0
 30
0.0
 11
871.3975650000001
 21
0.0
 31
0.0
  0
LINE
  5
9F7D
  8
SIZE
  6
BYBLOCK
 10
358.408027
 20
1350.0
 30
0.0
 11
871.3975650000001
 21
1350.0
 31
0.0
  0
LINE
  5
9F7E
  8
SIZE
  6
BYBLOCK
 10
841.3975650000001
 20
10.0
 30
0.0
 11
841.3975650000001
 21
1340.0
 31
0.0
  0
LINE
  5
9F7F
  8
SIZE
  6
BYBLOCK
 10
515.0
 20
1125.0
 30
0.0
 11
714.24576
 21
1125.0
 31
0.0
  0
LINE
  5
9F80
  8
SIZE
  6
BYBLOCK
 10
515.0
 20
0.0
 30
0.0
 11
714.24576
 21
0.0
 31
0.0
  0
LINE
  5
9F81
  8
SIZE
  6
BYBLOCK
 10
684.24576
 20
1115.0
 30
0.0
 11
684.24576
 21
10.0
 31
0.0
  0
LINE
  5
9F82
  8
SIZE
  6
BYBLOCK
 10
495.0
 20
-20.0
 30
0.0
 11
495.0
 21
-405.219309
 31
0.0
  0
LINE
  5
9F83
  8
SIZE
  6
BYBLOCK
 10
380.0
 20
-40.0
 30
0.0
 11
380.0
 21
-405.219309
 31
0.0
  0
LINE
  5
9F84
  8
SIZE
  6
BYBLOCK
 10
505.0
 20
-375.219309
 30
0.0
 11
515.0
 21
-375.219309
 31
0.0
  0
LINE
  5
9F85
  8
SIZE
  6
BYBLOCK
 10
370.0
 20
-375.219309
 30
0.0
 11
360.0
 21
-375.219309
 31
0.0
  0
LINE
  5
9F86
  8
SIZE
  6
BYBLOCK
 10
495.0
 20
-375.219309
 30
0.0
 11
380.0
 21
-375.219309
 31
0.0
  0
LINE
  5
9F87
  8
SIZE
  6
BYBLOCK
 10
-233.03
 20
79.976
 30
0.0
 11
-69.957263
 21
79.976
 31
0.0
  0
LINE
  5
9F88
  8
SIZE
  6
BYBLOCK
 10
-233.03
 20
14.9955
 30
0.0
 11
-69.957263
 21
14.9955
 31
0.0
  0
LINE
  5
9F89
  8
SIZE
  6
BYBLOCK
 10
-99.957263
 20
89.976
 30
0.0
 11
-99.957263
 21
99.976
 31
0.0
  0
LINE
  5
9F8A
  8
SIZE
  6
BYBLOCK
 10
-99.957263
 20
4.9955
 30
0.0
 11
-99.957263
 21
-5.0045
 31
0.0
  0
LINE
  5
9F8B
  8
SIZE
  6
BYBLOCK
 10
-99.957263
 20
79.976
 30
0.0
 11
-99.957263
 21
14.9955
 31
0.0
  0
LINE
  5
9F8C
  8
SIZE
  6
BYBLOCK
 10
515.0
 20
1125.0
 30
0.0
 11
714.24576
 21
1125.0
 31
0.0
  0
LINE
  5
9F8D
  8
SIZE
  6
BYBLOCK
 10
358.408027
 20
1350.0
 30
0.0
 11
714.24576
 21
1350.0
 31
0.0
  0
LINE
  5
9F8E
  8
SIZE
  6
BYBLOCK
 10
684.24576
 20
1135.0
 30
0.0
 11
684.24576
 21
1340.0
 31
0.0
  0
TEXT
  5
9F8F
  8
SIZE
  6
CONTINUOUS
 10
-343.015
 20
-109.804006
 30
0.0
 40
64.0
  1
25
 41
0.9
  0
TEXT
  5
9F90
  8
SIZE
  6
CONTINUOUS
 10
-361.589429
 20
-270.182231
 30
0.0
 40
64.0
  1
120
 41
0.9
  0
CIRCLE
  5
9F91
  8
SIZE
  6
BYBLOCK
 10
-254.0
 20
530.11533
 30
0.0
 40
5.0
  0
LINE
  5
9F92
  8
SIZE
  6
BYBLOCK
 10
-259.0
 20
530.11533
 30
0.0
 11
-264.0
 21
530.11533
 31
0.0
  0
TEXT
  5
9F93
  8
SIZE
  6
CONTINUOUS
 10
-754.3663819999999
 20
550.11533
 30
0.0
 40
64.0
  1
241
 41
0.9
  0
CIRCLE
  5
9F94
  8
SIZE
  6
BYBLOCK
 10
-495.0
 20
-493.931927
 30
0.0
 40
5.0
  0
LINE
  5
9F95
  8
SIZE
  6
BYBLOCK
 10
-490.0
 20
-493.931927
 30
0.0
 11
-485.0
 21
-493.931927
 31
0.0
  0
CIRCLE
  5
9F96
  8
SIZE
  6
BYBLOCK
 10
-380.0
 20
-375.219309
 30
0.0
 40
5.0
  0
LINE
  5
9F97
  8
SIZE
  6
BYBLOCK
 10
-375.0
 20
-375.219309
 30
0.0
 11
-370.0
 21
-375.219309
 31
0.0
  0
TEXT
  5
9F98
  8
SIZE
  6
CONTINUOUS
 10
-492.571429
 20
-270.182231
 30
0.0
 40
64.0
  1
142
 41
0.9
  0
CIRCLE
  5
9F99
  8
SIZE
  6
BYBLOCK
 10
-495.0
 20
-290.182231
 30
0.0
 40
5.0
  0
LINE
  5
9F9A
  8
SIZE
  6
BYBLOCK
 10
-500.0
 20
-290.182231
 30
0.0
 11
-505.0
 21
-290.182231
 31
0.0
  0
CIRCLE
  5
9F9B
  8
SIZE
  6
BYBLOCK
 10
-353.0
 20
-290.182231
 30
0.0
 40
5.0
  0
LINE
  5
9F9C
  8
SIZE
  6
BYBLOCK
 10
-348.0
 20
-290.182231
 30
0.0
 11
-343.0
 21
-290.182231
 31
0.0
  0
CIRCLE
  5
9F9D
  8
SIZE
  6
BYBLOCK
 10
-353.0
 20
-290.182231
 30
0.0
 40
5.0
  0
LINE
  5
9F9E
  8
SIZE
  6
BYBLOCK
 10
-358.0
 20
-290.182231
 30
0.0
 11
-363.0
 21
-290.182231
 31
0.0
  0
TEXT
  5
9F9F
  8
SIZE
  6
CONTINUOUS
 10
-674.471966
 20
129.973
 30
0.0
 40
64.0
  1
35
 50
90.0
 41
0.9
  0
TEXT
  5
9FA0
  8
SIZE
  6
CONTINUOUS
 10
-618.2571429999999
 20
-109.804006
 30
0.0
 40
64.0
  1
62
 41
0.9
  0
TEXT
  5
9FA1
  8
SIZE
  6
CONTINUOUS
 10
-674.471966
 20
-133.257143
 30
0.0
 40
64.0
  1
55
 50
90.0
 41
0.9
  0
CIRCLE
  5
9FA2
  8
SIZE
  6
BYBLOCK
 10
-654.471966
 20
0.0
 30
0.0
 40
5.0
  0
LINE
  5
9FA3
  8
SIZE
  6
BYBLOCK
 10
-654.471966
 20
-5.0
 30
0.0
 11
-654.471966
 21
-10.0
 31
0.0
  0
CIRCLE
  5
9FA4
  8
SIZE
  6
BYBLOCK
 10
-654.471966
 20
89.973
 30
0.0
 40
5.0
  0
LINE
  5
9FA5
  8
SIZE
  6
BYBLOCK
 10
-654.471966
 20
94.973
 30
0.0
 11
-654.471966
 21
99.973
 31
0.0
  0
CIRCLE
  5
9FA6
  8
SIZE
  6
BYBLOCK
 10
-654.471966
 20
54.9835
 30
0.0
 40
5.0
  0
LINE
  5
9FA7
  8
SIZE
  6
BYBLOCK
 10
-654.471966
 20
49.9835
 30
0.0
 11
-654.471966
 21
44.9835
 31
0.0
  0
CIRCLE
  5
9FA8
  8
SIZE
  6
BYBLOCK
 10
-654.471966
 20
54.9835
 30
0.0
 40
5.0
  0
LINE
  5
9FA9
  8
SIZE
  6
BYBLOCK
 10
-654.471966
 20
59.9835
 30
0.0
 11
-654.471966
 21
64.9835
 31
0.0
  0
TEXT
  5
9FAA
  8
SIZE
  6
CONTINUOUS
 10
-467.132321
 20
-109.804006
 30
0.0
 40
64.0
  1
25
 41
0.9
  0
CIRCLE
  5
9FAB
  8
SIZE
  6
BYBLOCK
 10
-495.0
 20
-129.804006
 30
0.0
 40
5.0
  0
LINE
  5
9FAC
  8
SIZE
  6
BYBLOCK
 10
-490.0
 20
-129.804006
 30
0.0
 11
-485.0
 21
-129.804006
 31
0.0
  0
CIRCLE
  5
9FAD
  8
SIZE
  6
BYBLOCK
 10
-433.0
 20
-129.804006
 30
0.0
 40
5.0
  0
LINE
  5
9FAE
  8
SIZE
  6
BYBLOCK
 10
-438.0
 20
-129.804006
 30
0.0
 11
-443.0
 21
-129.804006
 31
0.0
  0
CIRCLE
  5
9FAF
  8
SIZE
  6
BYBLOCK
 10
-433.0
 20
-129.804006
 30
0.0
 40
5.0
  0
LINE
  5
9FB0
  8
SIZE
  6
BYBLOCK
 10
-438.0
 20
-129.804006
 30
0.0
 11
-443.0
 21
-129.804006
 31
0.0
  0
CIRCLE
  5
9FB1
  8
SIZE
  6
BYBLOCK
 10
-408.0075
 20
-129.804006
 30
0.0
 40
5.0
  0
LINE
  5
9FB2
  8
SIZE
  6
BYBLOCK
 10
-403.0075
 20
-129.804006
 30
0.0
 11
-398.0075
 21
-129.804006
 31
0.0
  0
CIRCLE
  5
9FB3
  8
SIZE
  6
BYBLOCK
 10
-383.015
 20
-129.804006
 30
0.0
 40
5.0
  0
LINE
  5
9FB4
  8
SIZE
  6
BYBLOCK
 10
-378.015
 20
-129.804006
 30
0.0
 11
-373.015
 21
-129.804006
 31
0.0
  0
CIRCLE
  5
9FB5
  8
SIZE
  6
BYBLOCK
 10
-408.0075
 20
-129.804006
 30
0.0
 40
5.0
  0
LINE
  5
9FB6
  8
SIZE
  6
BYBLOCK
 10
-413.0075
 20
-129.804006
 30
0.0
 11
-418.0075
 21
-129.804006
 31
0.0
  0
TEXT
  5
9FB7
  8
SIZE
  6
CONTINUOUS
 10
-736.00425
 20
299.868451
 30
0.0
 40
64.0
  1
164
 41
0.9
  0
CIRCLE
  5
9FB8
  8
SIZE
  6
BYBLOCK
 10
-495.0
 20
279.868451
 30
0.0
 40
5.0
  0
LINE
  5
9FB9
  8
SIZE
  6
BYBLOCK
 10
-490.0
 20
279.868451
 30
0.0
 11
-485.0
 21
279.868451
 31
0.0
  0
CIRCLE
  5
9FBA
  8
SIZE
  6
BYBLOCK
 10
-331.0
 20
279.868451
 30
0.0
 40
5.0
  0
LINE
  5
9FBB
  8
SIZE
  6
BYBLOCK
 10
-336.0
 20
279.868451
 30
0.0
 11
-341.0
 21
279.868451
 31
0.0
  0
CIRCLE
  5
9FBC
  8
SIZE
  6
BYBLOCK
 10
-495.0
 20
530.11533
 30
0.0
 40
5.0
  0
LINE
  5
9FBD
  8
SIZE
  6
BYBLOCK
 10
-490.0
 20
530.11533
 30
0.0
 11
-485.0
 21
530.11533
 31
0.0
  0
TEXT
  5
9FBE
  8
SIZE
  6
CONTINUOUS
 10
664.24576
 20
471.985714
 30
0.0
 40
64.0
  1
1125
 50
90.0
 41
0.9
  0
TEXT
  5
9FBF
  8
SIZE
  6
CONTINUOUS
 10
-74.057143
 20
-473.931927
 30
0.0
 40
64.0
  1
990
 41
0.9
  0
TEXT
  5
9FC0
  8
SIZE
  6
CONTINUOUS
 10
-74.057143
 20
-355.219309
 30
0.0
 40
64.0
  1
760
 41
0.9
  0
CIRCLE
  5
9FC1
  8
SIZE
  6
BYBLOCK
 10
-233.036
 20
-290.182231
 30
0.0
 40
5.0
  0
LINE
  5
9FC2
  8
SIZE
  6
BYBLOCK
 10
-228.036
 20
-290.182231
 30
0.0
 11
-223.036
 21
-290.182231
 31
0.0
  0
TEXT
  5
9FC3
  8
SIZE
  6
CONTINUOUS
 10
374.414286
 20
-355.219309
 30
0.0
 40
64.0
  1
115
 41
0.9
  0
CIRCLE
  5
9FC4
  8
SIZE
  6
BYBLOCK
 10
380.0
 20
-375.219309
 30
0.0
 40
5.0
  0
LINE
  5
9FC5
  8
SIZE
  6
BYBLOCK
 10
375.0
 20
-375.219309
 30
0.0
 11
370.0
 21
-375.219309
 31
0.0
  0
CIRCLE
  5
9FC6
  8
SIZE
  6
BYBLOCK
 10
495.0
 20
-375.219309
 30
0.0
 40
5.0
  0
LINE
  5
9FC7
  8
SIZE
  6
BYBLOCK
 10
500.0
 20
-375.219309
 30
0.0
 11
505.0
 21
-375.219309
 31
0.0
  0
CIRCLE
  5
9FC8
  8
SIZE
  6
BYBLOCK
 10
495.0
 20
-493.931927
 30
0.0
 40
5.0
  0
LINE
  5
9FC9
  8
SIZE
  6
BYBLOCK
 10
490.0
 20
-493.931927
 30
0.0
 11
485.0
 21
-493.931927
 31
0.0
  0
CIRCLE
  5
9FCA
  8
SIZE
  6
BYBLOCK
 10
380.0
 20
-375.219309
 30
0.0
 40
5.0
  0
LINE
  5
9FCB
  8
SIZE
  6
BYBLOCK
 10
375.0
 20
-375.219309
 30
0.0
 11
370.0
 21
-375.219309
 31
0.0
  0
TEXT
  5
9FCC
  8
SIZE
  6
CONTINUOUS
 10
-119.957263
 20
0.857179
 30
0.0
 40
64.0
  1
65
 50
90.0
 41
0.9
  0
TEXT
  5
9FCD
  8
SIZE
  6
CONTINUOUS
 10
-119.957263
 20
-122.285714
 30
0.0
 40
64.0
  1
15
 50
90.0
 41
0.9
  0
CIRCLE
  5
9FCE
  8
SIZE
  6
BYBLOCK
 10
-99.957263
 20
14.9955
 30
0.0
 40
5.0
  0
LINE
  5
9FCF
  8
SIZE
  6
BYBLOCK
 10
-99.957263
 20
9.9955
 30
0.0
 11
-99.957263
 21
4.9955
 31
0.0
  0
CIRCLE
  5
9FD0
  8
SIZE
  6
BYBLOCK
 10
-99.957263
 20
0.0
 30
0.0
 40
5.0
  0
LINE
  5
9FD1
  8
SIZE
  6
BYBLOCK
 10
-99.957263
 20
-5.0
 30
0.0
 11
-99.957263
 21
-10.0
 31
0.0
  0
CIRCLE
  5
9FD2
  8
SIZE
  6
BYBLOCK
 10
-99.957263
 20
14.9955
 30
0.0
 40
5.0
  0
LINE
  5
9FD3
  8
SIZE
  6
BYBLOCK
 10
-99.957263
 20
19.9955
 30
0.0
 11
-99.957263
 21
24.9955
 31
0.0
  0
CIRCLE
  5
9FD4
  8
SIZE
  6
BYBLOCK
 10
-99.957263
 20
79.976
 30
0.0
 40
5.0
  0
LINE
  5
9FD5
  8
SIZE
  6
BYBLOCK
 10
-99.957263
 20
84.976
 30
0.0
 11
-99.957263
 21
89.976
 31
0.0
  0
CIRCLE
  5
9FD6
  8
SIZE
  6
BYBLOCK
 10
684.24576
 20
0.0
 30
0.0
 40
5.0
  0
LINE
  5
9FD7
  8
SIZE
  6
BYBLOCK
 10
684.24576
 20
5.0
 30
0.0
 11
684.24576
 21
10.0
 31
0.0
  0
CIRCLE
  5
9FD8
  8
SIZE
  6
BYBLOCK
 10
841.3975650000001
 20
0.0
 30
0.0
 40
5.0
  0
LINE
  5
9FD9
  8
SIZE
  6
BYBLOCK
 10
841.3975650000001
 20
5.0
 30
0.0
 11
841.3975650000001
 21
10.0
 31
0.0
  0
TEXT
  5
9FDA
  8
SIZE
  6
CONTINUOUS
 10
664.24576
 20
1163.44252
 30
0.0
 40
64.0
  1
225
 50
90.0
 41
0.9
  0
TEXT
  5
9FDB
  8
SIZE
  6
CONTINUOUS
 10
821.3975650000001
 20
579.0
 30
0.0
 40
64.0
  1
1350
 50
90.0
 41
0.9
  0
CIRCLE
  5
9FDC
  8
SIZE
  6
BYBLOCK
 10
684.24576
 20
1125.0
 30
0.0
 40
5.0
  0
LINE
  5
9FDD
  8
SIZE
  6
BYBLOCK
 10
684.24576
 20
1130.0
 30
0.0
 11
684.24576
 21
1135.0
 31
0.0
  0
CIRCLE
  5
9FDE
  8
SIZE
  6
BYBLOCK
 10
684.24576
 20
1125.0
 30
0.0
 40
5.0
  0
LINE
  5
9FDF
  8
SIZE
  6
BYBLOCK
 10
684.24576
 20
1120.0
 30
0.0
 11
684.24576
 21
1115.0
 31
0.0
  0
CIRCLE
  5
9FE0
  8
SIZE
  6
BYBLOCK
 10
684.24576
 20
1350.0
 30
0.0
 40
5.0
  0
LINE
  5
9FE1
  8
SIZE
  6
BYBLOCK
 10
684.24576
 20
1345.0
 30
0.0
 11
684.24576
 21
1340.0
 31
0.0
  0
CIRCLE
  5
9FE2
  8
SIZE
  6
BYBLOCK
 10
841.3975650000001
 20
1350.0
 30
0.0
 40
5.0
  0
LINE
  5
9FE3
  8
SIZE
  6
BYBLOCK
 10
841.3975650000001
 20
1345.0
 30
0.0
 11
841.3975650000001
 21
1340.0
 31
0.0
  0
ENDSEC
  0
EOF
