  0
SECTION
  2
HEADER
  9
$ACADVER
  1
AC1009
  9
$INSBASE
 10
0.0
 20
0.0
 30
0.0
  9
$EXTMIN
 10
-1099.523983
 20
-814.0266
 30
-0.001526
  9
$EXTMAX
 10
1546.576731
 20
1026.413787
 30
0.0
  9
$LIMMIN
 10
-4267.152221
 20
-2696.08321
  9
$LIMMAX
 10
7190.717423
 20
5141.155364
  9
$ORTHOMODE
 70
     0
  9
$REGENMODE
 70
     1
  9
$FILLMODE
 70
     1
  9
$QTEXTMODE
 70
     0
  9
$MIRRTEXT
 70
     0
  9
$DRAGMODE
 70
     2
  9
$LTSCALE
 40
20.0
  9
$OSMODE
 70
    37
  9
$ATTMODE
 70
     1
  9
$TEXTSIZE
 40
64.0
  9
$TRACEWID
 40
0.05
  9
$TEXTSTYLE
  7
STANDARD
  9
$CLAYER
  8
NOTE
  9
$CELTYPE
  6
CONTINUOUS
  9
$CECOLOR
 62
     7
  9
$DIMSCALE
 40
1.0
  9
$DIMASZ
 40
10.0
  9
$DIMEXO
 40
20.0
  9
$DIMDLI
 40
200.0
  9
$DIMRND
 40
0.0
  9
$DIMDLE
 40
0.0
  9
$DIMEXE
 40
30.0
  9
$DIMTP
 40
0.0
  9
$DIMTM
 40
0.0
  9
$DIMTXT
 40
55.0
  9
$DIMCEN
 40
0.0
  9
$DIMTSZ
 40
0.0
  9
$DIMTOL
 70
     0
  9
$DIMLIM
 70
     0
  9
$DIMTIH
 70
     0
  9
$DIMTOH
 70
     0
  9
$DIMSE1
 70
     0
  9
$DIMSE2
 70
     0
  9
$DIMTAD
 70
     1
  9
$DIMZIN
 70
     8
  9
$DIMBLK
  1

  9
$DIMASO
 70
     1
  9
$DIMSHO
 70
     0
  9
$DIMPOST
  1

  9
$DIMAPOST
  1

  9
$DIMALT
 70
     0
  9
$DIMALTD
 70
     2
  9
$DIMALTF
 40
25.4
  9
$DIMLFAC
 40
1.0
  9
$DIMTOFL
 70
     1
  9
$DIMTVP
 40
0.0
  9
$DIMTIX
 70
     1
  9
$DIMSOXD
 70
     0
  9
$DIMSAH
 70
     1
  9
$DIMBLK1
  1
_DOTBLANK
  9
$DIMBLK2
  1
_DOTBLANK
  9
$DIMSTYLE
  2
STANDARD
  9
$DIMCLRD
 70
     0
  9
$DIMCLRE
 70
     0
  9
$DIMCLRT
 70
     0
  9
$DIMTFAC
 40
1.0
  9
$DIMGAP
 40
0.09
  9
$LUNITS
 70
     2
  9
$LUPREC
 70
     4
  9
$SKETCHINC
 40
0.1
  9
$FILLETRAD
 40
30.0
  9
$AUNITS
 70
     1
  9
$AUPREC
 70
     3
  9
$MENU
  1
ACAD
  9
$ELEVATION
 40
0.0
  9
$PELEVATION
 40
0.0
  9
$THICKNESS
 40
0.0
  9
$LIMCHECK
 70
     0
  9
$BLIPMODE
 70
     0
  9
$CHAMFERA
 40
0.0
  9
$CHAMFERB
 40
0.0
  9
$SKPOLY
 70
     0
  9
$TDCREATE
 40
2450330.439931
  9
$TDUPDATE
 40
2454263.452388
  9
$TDINDWG
 40
3.796885
  9
$TDUSRTIMER
 40
3.796885
  9
$USRTIMER
 70
     1
  9
$ANGBASE
 50
0.0
  9
$ANGDIR
 70
     0
  9
$PDMODE
 70
     3
  9
$PDSIZE
 40
-2.0
  9
$PLINEWID
 40
0.0
  9
$COORDS
 70
     2
  9
$SPLFRAME
 70
     0
  9
$SPLINETYPE
 70
     6
  9
$SPLINESEGS
 70
     8
  9
$ATTDIA
 70
     0
  9
$ATTREQ
 70
     1
  9
$HANDLING
 70
     1
  9
$HANDSEED
  5
351
  9
$SURFTAB1
 70
     6
  9
$SURFTAB2
 70
     6
  9
$SURFTYPE
 70
     6
  9
$SURFU
 70
     6
  9
$SURFV
 70
     6
  9
$UCSNAME
  2

  9
$UCSORG
 10
0.0
 20
0.0
 30
0.0
  9
$UCSXDIR
 10
1.0
 20
0.0
 30
0.0
  9
$UCSYDIR
 10
0.0
 20
1.0
 30
0.0
  9
$PUCSNAME
  2

  9
$PUCSORG
 10
0.0
 20
0.0
 30
0.0
  9
$PUCSXDIR
 10
1.0
 20
0.0
 30
0.0
  9
$PUCSYDIR
 10
0.0
 20
1.0
 30
0.0
  9
$USERI1
 70
     0
  9
$USERI2
 70
     0
  9
$USERI3
 70
     0
  9
$USERI4
 70
     0
  9
$USERI5
 70
     0
  9
$USERR1
 40
20.0
  9
$USERR2
 40
0.0
  9
$USERR3
 40
0.0
  9
$USERR4
 40
0.0
  9
$USERR5
 40
0.0
  9
$WORLDVIEW
 70
     1
  9
$SHADEDGE
 70
     3
  9
$SHADEDIF
 70
    70
  9
$TILEMODE
 70
     1
  9
$MAXACTVP
 70
    48
  9
$PLIMCHECK
 70
     0
  9
$PEXTMIN
 10
1.000000E+020
 20
1.000000E+020
 30
1.000000E+020
  9
$PEXTMAX
 10
-1.000000E+020
 20
-1.000000E+020
 30
-1.000000E+020
  9
$PLIMMIN
 10
0.0
 20
0.0
  9
$PLIMMAX
 10
12.0
 20
9.0
  9
$UNITMODE
 70
     0
  9
$VISRETAIN
 70
     1
  9
$PLINEGEN
 70
     0
  9
$PSLTSCALE
 70
     1
  0
ENDSEC
  0
SECTION
  2
TABLES
  0
TABLE
  2
VPORT
 70
     3
  0
VPORT
  2
*ACTIVE
 70
     0
 10
0.0
 20
0.0
 11
1.0
 21
1.0
 12
1645.853864
 22
1222.536077
 13
0.0
 23
0.0
 14
50.0
 24
50.0
 15
100.0
 25
100.0
 16
0.0
 26
0.0
 36
1.0
 17
0.0
 27
0.0
 37
0.0
 40
7837.238574
 41
1.508951
 42
50.0
 43
0.0
 44
0.0
 50
0.0
 51
0.0
 71
     0
 72
  1000
 73
     1
 74
     0
 75
     0
 76
     0
 77
     0
 78
     0
  0
ENDTAB
  0
TABLE
  2
LTYPE
 70
     2
  0
LTYPE
  2
CONTINUOUS
 70
     0
  3
実線
 72
    65
 73
     0
 40
0.0
  0
LTYPE
  2
DASHDOT
 70
     0
  3
____ _ ____ _ ____ _ ____ _ ____ _ ____ _ ____
 72
    65
 73
     4
 40
5.5
 49
4.0
 49
-0.6
 49
0.3
 49
-0.6
  0
ENDTAB
  0
TABLE
  2
LAYER
 70
    12
  0
LAYER
  2
0
 70
     0
 62
     7
  6
CONTINUOUS
  0
LAYER
  2
NOTE
 70
     0
 62
     4
  6
CONTINUOUS
  0
LAYER
  2
OUTLINE
 70
     0
 62
     3
  6
CONTINUOUS
  0
LAYER
  2
DETAIL
 70
     0
 62
     5
  6
CONTINUOUS
  0
LAYER
  2
BASIS
 70
     0
 62
     6
  6
DASHDOT
  0
LAYER
  2
SIZE
 70
     0
 62
    30
  6
CONTINUOUS
  0
LAYER
  2
ARRANGE
 70
     0
 62
     1
  6
CONTINUOUS
  0
LAYER
  2
FIX
 70
     0
 62
    11
  6
CONTINUOUS
  0
LAYER
  2
SERVICESPACE
 70
     0
 62
     2
  6
DASHDOT
  0
LAYER
  2
ETC
 70
     0
 62
    61
  6
CONTINUOUS
  0
LAYER
  2
SYMBOLLINE
 70
     0
 62
    15
  6
CONTINUOUS
  0
LAYER
  2
DEFPOINTS
 70
     0
 62
     7
  6
CONTINUOUS
  0
ENDTAB
  0
TABLE
  2
STYLE
 70
     2
  0
STYLE
  2
STANDARD
 70
     0
 40
0.0
 41
0.9
 50
0.0
 71
     0
 42
64.0
  3
SIMPLEX
  4
BIGFONT
  0
STYLE
  2
STANDARD1
 70
     0
 40
0.0
 41
1.0
 50
0.0
 71
     0
 42
64.0
  3
MONOTXT
  4
BIGFONT
  0
ENDTAB
  0
TABLE
  2
VIEW
 70
     1
  0
VIEW
  2
ALL
 70
     0
 40
9000.0
 10
241.506647
 20
0.0
 41
12483.01
 11
0.0
 21
0.0
 31
1.0
 12
0.0
 22
0.0
 32
0.0
 42
50.0
 43
0.0
 44
0.0
 50
0.0
 71
     0
  0
ENDTAB
  0
TABLE
  2
UCS
 70
     0
  0
ENDTAB
  0
TABLE
  2
APPID
 70
     1
  0
APPID
  2
ACAD
 70
     0
  0
ENDTAB
  0
TABLE
  2
DIMSTYLE
 70
     1
  0
DIMSTYLE
  2
STANDARD
 70
     0
  3

  4

  5

  6

  7

 40
1.0
 41
0.18
 42
0.0625
 43
0.38
 44
0.18
 45
0.0
 46
0.0
 47
0.0
 48
0.0
140
0.18
141
0.09
142
0.0
143
25.4
144
1.0
145
0.0
146
1.0
147
0.09
 71
     0
 72
     0
 73
     1
 74
     1
 75
     0
 76
     0
 77
     0
 78
     0
170
     0
171
     2
172
     0
173
     0
174
     0
175
     0
176
     0
177
     0
178
     0
  0
ENDTAB
  0
ENDSEC
  0
SECTION
  2
BLOCKS
  0
BLOCK
  8
0
  2
$MODEL_SPACE
 70
     0
 10
0.0
 20
0.0
 30
0.0
  3
$MODEL_SPACE
  1

  0
ENDBLK
  5
146
  8
0
  0
BLOCK
 67
     1
  8
0
  2
$PAPER_SPACE
 70
     0
 10
0.0
 20
0.0
 30
0.0
  3
$PAPER_SPACE
  1

  0
ENDBLK
  5
143
 67
     1
  8
0
  0
BLOCK
  8
0
  2
_DOTBLANK
 70
     0
 10
0.0
 20
0.0
 30
0.0
  3
_DOTBLANK
  1

  0
CIRCLE
  5
32
  8
0
  6
CONTINUOUS
 62
     7
 10
0.0
 20
0.0
 30
0.0
 40
0.5
  0
LINE
  5
33
  8
0
  6
CONTINUOUS
 62
     7
 10
-0.5
 20
0.0
 30
0.0
 11
-1.0
 21
0.0
 31
0.0
  0
ENDBLK
  5
34
  8
0
  0
BLOCK
  8
0
 62
     7
  2
A$C2B653D03
 70
     0
 10
0.0
 20
0.0
 30
0.0
  3
A$C2B653D03
  1

  0
TEXT
  5
165
  8
NOTE
  6
CONTINUOUS
 62
     4
 10
2222.512358
 20
19.618813
 30
0.0
 40
64.0
  1
AH 6-%%C16
 41
0.9
  0
LINE
  5
166
  8
NOTE
  6
CONTINUOUS
 62
     4
 10
2217.706822
 20
-0.000009
 30
0.0
 11
2644.962939
 21
-0.000009
 31
0.0
  0
LINE
  5
167
  8
SIZE
  6
CONTINUOUS
 62
    30
 10
1806.186498
 20
176.98999
 30
0.0
 11
2579.638262
 21
176.98999
 31
0.0
  0
LINE
  5
168
  8
SIZE
  6
CONTINUOUS
 62
    30
 10
1806.186498
 20
1465.989997
 30
0.0
 11
2579.638262
 21
1465.989997
 31
0.0
  0
LINE
  5
169
  8
BASIS
  6
DASHDOT
 62
     6
 10
1866.186498
 20
813.98999
 30
0.0
 11
371.186498
 21
813.98999
 31
0.0
  0
LINE
  5
16A
  8
OUTLINE
  6
CONTINUOUS
 62
     3
 10
411.186498
 20
530.58999
 30
0.0
 11
1786.186498
 21
530.58999
 31
0.0
  0
LINE
  5
16B
  8
OUTLINE
  6
CONTINUOUS
 62
     3
 10
411.186498
 20
1111.58999
 30
0.0
 11
1786.186498
 21
1111.58999
 31
0.0
  0
TEXT
  5
16C
  8
NOTE
  6
CONTINUOUS
 62
     4
 10
584.730296
 20
242.565142
 30
0.0
 40
64.0
  1
RL φ15.88
 41
0.9
  0
LINE
  5
16D
  8
NOTE
  6
CONTINUOUS
 62
     4
 10
579.92476
 20
222.946321
 30
0.0
 11
1018.316256
 21
222.946321
 31
0.0
  0
TEXT
  5
16E
  8
NOTE
  6
CONTINUOUS
 62
     4
 10
601.193368
 20
367.334292
 30
0.0
 40
64.0
  1
RG φ19.05
 41
0.9
  0
LINE
  5
16F
  8
NOTE
  6
CONTINUOUS
 62
     4
 10
592.715334
 20
355.692063
 30
0.0
 11
1045.545551
 21
355.692063
 31
0.0
  0
LINE
  5
170
  8
DETAIL
  6
CONTINUOUS
 62
     5
 10
411.186498
 20
530.58999
 30
0.0
 11
1786.186498
 21
530.58999
 31
0.0
  0
LINE
  5
171
  8
DETAIL
  6
CONTINUOUS
 62
     5
 10
411.186498
 20
1111.58999
 30
0.0
 11
1786.186498
 21
1111.58999
 31
0.0
  0
TEXT
  5
172
  8
ETC
  6
CONTINUOUS
 62
    61
 10
381.673215
 20
1776.280774
 30
0.0
 40
64.0
  1
RV-P10A_6
 41
0.9
  0
TEXT
  5
173
  8
SIZE
  6
CONTINUOUS
 62
    30
 10
745.043638
 20
91.447254
 30
0.0
 40
55.0
  1
580
 41
0.9
 72
     1
 11
808.686495
 21
91.447254
 31
0.0
  0
LINE
  5
174
  8
SIZE
  6
CONTINUOUS
 62
    30
 10
1088.686498
 20
76.447254
 30
0.0
 11
528.686492
 21
76.447254
 31
0.0
  0
LINE
  5
175
  8
SIZE
  6
CONTINUOUS
 62
    30
 10
421.186498
 20
1640.910085
 30
0.0
 11
1776.186498
 21
1640.910085
 31
0.0
  0
POLYLINE
  5
176
  8
OUTLINE
  6
CONTINUOUS
 62
     3
 66
     1
 10
0.0
 20
0.0
 30
0.0
 70
     1
  0
VERTEX
  5
177
  8
OUTLINE
  6
CONTINUOUS
 62
     3
 10
411.186498
 20
1465.989997
 30
0.0
  0
VERTEX
  5
178
  8
OUTLINE
  6
CONTINUOUS
 62
     3
 10
1786.186498
 20
1465.989997
 30
0.0
  0
VERTEX
  5
179
  8
OUTLINE
  6
CONTINUOUS
 62
     3
 10
1786.186498
 20
176.98999
 30
0.0
  0
VERTEX
  5
17A
  8
OUTLINE
  6
CONTINUOUS
 62
     3
 10
411.186498
 20
176.98999
 30
0.0
  0
SEQEND
  5
17B
  8
OUTLINE
  6
CONTINUOUS
 62
     3
  0
LINE
  5
17C
  8
DETAIL
  6
CONTINUOUS
 62
     5
 10
411.186498
 20
176.98999
 30
0.0
 11
1786.186498
 21
176.98999
 31
0.0
  0
LINE
  5
17D
  8
DETAIL
  6
CONTINUOUS
 62
     5
 10
1786.186498
 20
1465.989997
 30
0.0
 11
411.186498
 21
1465.989997
 31
0.0
  0
LINE
  5
17E
  8
DETAIL
  6
CONTINUOUS
 62
     5
 10
442.186491
 20
486.58999
 30
0.0
 11
1755.186505
 21
486.58999
 31
0.0
  0
LINE
  5
17F
  8
DETAIL
  6
CONTINUOUS
 62
     5
 10
442.386483
 20
1155.58999
 30
0.0
 11
1754.986513
 21
1155.58999
 31
0.0
  0
LINE
  5
180
  8
DETAIL
  6
CONTINUOUS
 62
     5
 10
411.186498
 20
176.98999
 30
0.0
 11
411.186498
 21
1465.989997
 31
0.0
  0
LINE
  5
181
  8
SIZE
  6
CONTINUOUS
 62
    30
 10
518.686492
 20
472.318567
 30
0.0
 11
518.686492
 21
46.447254
 31
0.0
  0
POINT
  5
182
  8
DEFPOINTS
  6
CONTINUOUS
 62
     7
 10
518.686492
 20
76.447254
 30
0.0
  0
LINE
  5
183
  8
SIZE
  6
CONTINUOUS
 62
    30
 10
523.686492
 20
76.447254
 30
0.0
 11
528.686492
 21
76.447254
 31
0.0
  0
CIRCLE
  5
184
  8
SIZE
  6
CONTINUOUS
 62
    30
 10
518.686492
 20
76.447254
 30
0.0
 40
5.0
  0
LINE
  5
185
  8
NOTE
  6
CONTINUOUS
 62
     4
 10
224.054631
 20
476.866705
 30
0.0
 11
475.070764
 21
337.520878
 31
0.0
  0
TEXT
  5
186
  8
NOTE
  6
CONTINUOUS
 62
     4
 10
29.144332
 20
492.626847
 30
0.0
 40
64.0
  1
防風板
 41
0.9
  0
LINE
  5
187
  8
NOTE
  6
CONTINUOUS
 62
     4
 10
224.054631
 20
476.866705
 30
0.0
 11
-0.000012
 21
476.866705
 31
0.0
  0
CIRCLE
  5
188
  8
DETAIL
  6
CONTINUOUS
 62
     5
 10
518.686492
 20
505.58999
 30
0.0
 40
8.0
  0
CIRCLE
  5
189
  8
FIX
  6
CONTINUOUS
 62
    11
 10
518.686492
 20
505.58999
 30
0.0
 40
10.310021
  0
LINE
  5
18A
  8
NOTE
  6
CONTINUOUS
 62
     4
 10
518.686492
 20
492.318567
 30
0.0
 11
518.686492
 21
518.861412
 31
0.0
  0
LINE
  5
18B
  8
DETAIL
  6
CONTINUOUS
 62
     5
 10
411.186498
 20
517.589982
 30
0.0
 11
442.186491
 21
486.58999
 31
0.0
  0
SOLID
  5
18C
  8
NOTE
  6
CONTINUOUS
 62
     4
 10
470.720717
 20
337.520878
 30
0.0
 11
471.051845
 21
335.856187
 31
0.0
 12
471.051845
 22
339.185569
 32
0.0
 13
471.051845
 23
339.185569
 33
0.0
  0
SOLID
  5
18D
  8
NOTE
  6
CONTINUOUS
 62
     4
 10
471.994817
 20
334.44493
 30
0.0
 11
471.051845
 21
339.185569
 31
0.0
 12
471.051845
 22
335.856187
 32
0.0
 13
471.051845
 23
335.856187
 33
0.0
  0
SOLID
  5
18E
  8
NOTE
  6
CONTINUOUS
 62
     4
 10
471.051845
 20
339.185569
 30
0.0
 11
471.994817
 21
334.44493
 31
0.0
 12
471.994817
 22
340.596826
 32
0.0
 13
471.994817
 23
340.596826
 33
0.0
  0
SOLID
  5
18F
  8
NOTE
  6
CONTINUOUS
 62
     4
 10
473.406073
 20
333.501959
 30
0.0
 11
471.994817
 21
340.596826
 31
0.0
 12
471.994817
 22
334.44493
 32
0.0
 13
471.994817
 23
334.44493
 33
0.0
  0
SOLID
  5
190
  8
NOTE
  6
CONTINUOUS
 62
     4
 10
471.994817
 20
340.596826
 30
0.0
 11
473.406073
 21
333.501959
 31
0.0
 12
473.406073
 22
341.539797
 32
0.0
 13
473.406073
 23
341.539797
 33
0.0
  0
SOLID
  5
191
  8
NOTE
  6
CONTINUOUS
 62
     4
 10
475.070764
 20
333.170831
 30
0.0
 11
473.406073
 21
341.539797
 31
0.0
 12
473.406073
 22
333.501959
 32
0.0
 13
473.406073
 23
333.501959
 33
0.0
  0
SOLID
  5
192
  8
NOTE
  6
CONTINUOUS
 62
     4
 10
473.406073
 20
341.539797
 30
0.0
 11
475.070764
 21
333.170831
 31
0.0
 12
475.070764
 22
341.870925
 32
0.0
 13
475.070764
 23
341.870925
 33
0.0
  0
SOLID
  5
193
  8
NOTE
  6
CONTINUOUS
 62
     4
 10
476.735455
 20
333.501959
 30
0.0
 11
475.070764
 21
341.870925
 31
0.0
 12
475.070764
 22
333.170831
 32
0.0
 13
475.070764
 23
333.170831
 33
0.0
  0
SOLID
  5
194
  8
NOTE
  6
CONTINUOUS
 62
     4
 10
475.070764
 20
341.870925
 30
0.0
 11
476.735455
 21
333.501959
 31
0.0
 12
476.735455
 22
341.539797
 32
0.0
 13
476.735455
 23
341.539797
 33
0.0
  0
SOLID
  5
195
  8
NOTE
  6
CONTINUOUS
 62
     4
 10
478.146712
 20
334.44493
 30
0.0
 11
476.735455
 21
341.539797
 31
0.0
 12
476.735455
 22
333.501959
 32
0.0
 13
476.735455
 23
333.501959
 33
0.0
  0
SOLID
  5
196
  8
NOTE
  6
CONTINUOUS
 62
     4
 10
476.735455
 20
341.539797
 30
0.0
 11
478.146712
 21
334.44493
 31
0.0
 12
478.146712
 22
340.596826
 32
0.0
 13
478.146712
 23
340.596826
 33
0.0
  0
SOLID
  5
197
  8
NOTE
  6
CONTINUOUS
 62
     4
 10
479.089684
 20
335.856187
 30
0.0
 11
478.146712
 21
340.596826
 31
0.0
 12
478.146712
 22
334.44493
 32
0.0
 13
478.146712
 23
334.44493
 33
0.0
  0
SOLID
  5
198
  8
NOTE
  6
CONTINUOUS
 62
     4
 10
478.146712
 20
340.596826
 30
0.0
 11
479.089684
 21
335.856187
 31
0.0
 12
479.089684
 22
339.185569
 32
0.0
 13
479.089684
 23
339.185569
 33
0.0
  0
SOLID
  5
199
  8
NOTE
  6
CONTINUOUS
 62
     4
 10
479.420811
 20
337.520878
 30
0.0
 11
479.089684
 21
339.185569
 31
0.0
 12
479.089684
 22
335.856187
 32
0.0
 13
479.089684
 23
335.856187
 33
0.0
  0
CIRCLE
  5
19A
  8
NOTE
  6
CONTINUOUS
 62
     4
 10
475.070764
 20
337.520878
 30
0.0
 40
4.350047
  0
POINT
  5
19B
  8
DEFPOINTS
  6
CONTINUOUS
 62
     7
 10
518.686492
 20
492.318567
 30
0.0
  0
LINE
  5
19C
  8
NOTE
  6
CONTINUOUS
 62
     4
 10
505.415069
 20
505.58999
 30
0.0
 11
531.957914
 21
505.58999
 31
0.0
  0
LINE
  5
19D
  8
NOTE
  6
CONTINUOUS
 62
     4
 10
247.957551
 20
1422.572093
 30
0.0
 11
498.973685
 21
1283.226266
 31
0.0
  0
LINE
  5
19E
  8
NOTE
  6
CONTINUOUS
 62
     4
 10
247.957551
 20
1422.572093
 30
0.0
 11
23.902908
 21
1422.572093
 31
0.0
  0
LINE
  5
19F
  8
DETAIL
  6
CONTINUOUS
 62
     5
 10
442.386483
 20
1155.58999
 30
0.0
 11
411.186498
 21
1124.390004
 31
0.0
  0
CIRCLE
  5
1A0
  8
FIX
  6
CONTINUOUS
 62
    11
 10
518.686492
 20
1135.589997
 30
0.0
 40
10.310021
  0
LINE
  5
1A1
  8
NOTE
  6
CONTINUOUS
 62
     4
 10
518.686492
 20
1122.318574
 30
0.0
 11
518.686492
 21
1148.861419
 31
0.0
  0
LINE
  5
1A2
  8
NOTE
  6
CONTINUOUS
 62
     4
 10
505.415069
 20
1135.589997
 30
0.0
 11
531.957914
 21
1135.589997
 31
0.0
  0
CIRCLE
  5
1A3
  8
DETAIL
  6
CONTINUOUS
 62
     5
 10
518.686492
 20
1135.589997
 30
0.0
 40
8.0
  0
SOLID
  5
1A4
  8
NOTE
  6
CONTINUOUS
 62
     4
 10
494.623638
 20
1283.226266
 30
0.0
 11
494.954765
 21
1281.561575
 31
0.0
 12
494.954765
 22
1284.890957
 32
0.0
 13
494.954765
 23
1284.890957
 33
0.0
  0
SOLID
  5
1A5
  8
NOTE
  6
CONTINUOUS
 62
     4
 10
495.897737
 20
1280.150318
 30
0.0
 11
494.954765
 21
1284.890957
 31
0.0
 12
494.954765
 22
1281.561575
 32
0.0
 13
494.954765
 23
1281.561575
 33
0.0
  0
SOLID
  5
1A6
  8
NOTE
  6
CONTINUOUS
 62
     4
 10
494.954765
 20
1284.890957
 30
0.0
 11
495.897737
 21
1280.150318
 31
0.0
 12
495.897737
 22
1286.302214
 32
0.0
 13
495.897737
 23
1286.302214
 33
0.0
  0
SOLID
  5
1A7
  8
NOTE
  6
CONTINUOUS
 62
     4
 10
497.308994
 20
1279.207347
 30
0.0
 11
495.897737
 21
1286.302214
 31
0.0
 12
495.897737
 22
1280.150318
 32
0.0
 13
495.897737
 23
1280.150318
 33
0.0
  0
SOLID
  5
1A8
  8
NOTE
  6
CONTINUOUS
 62
     4
 10
495.897737
 20
1286.302214
 30
0.0
 11
497.308994
 21
1279.207347
 31
0.0
 12
497.308994
 22
1287.245186
 32
0.0
 13
497.308994
 23
1287.245186
 33
0.0
  0
SOLID
  5
1A9
  8
NOTE
  6
CONTINUOUS
 62
     4
 10
498.973685
 20
1278.876219
 30
0.0
 11
497.308994
 21
1287.245186
 31
0.0
 12
497.308994
 22
1279.207347
 32
0.0
 13
497.308994
 23
1279.207347
 33
0.0
  0
SOLID
  5
1AA
  8
NOTE
  6
CONTINUOUS
 62
     4
 10
497.308994
 20
1287.245186
 30
0.0
 11
498.973685
 21
1278.876219
 31
0.0
 12
498.973685
 22
1287.576313
 32
0.0
 13
498.973685
 23
1287.576313
 33
0.0
  0
SOLID
  5
1AB
  8
NOTE
  6
CONTINUOUS
 62
     4
 10
500.638376
 20
1279.207347
 30
0.0
 11
498.973685
 21
1287.576313
 31
0.0
 12
498.973685
 22
1278.876219
 32
0.0
 13
498.973685
 23
1278.876219
 33
0.0
  0
SOLID
  5
1AC
  8
NOTE
  6
CONTINUOUS
 62
     4
 10
498.973685
 20
1287.576313
 30
0.0
 11
500.638376
 21
1279.207347
 31
0.0
 12
500.638376
 22
1287.245186
 32
0.0
 13
500.638376
 23
1287.245186
 33
0.0
  0
SOLID
  5
1AD
  8
NOTE
  6
CONTINUOUS
 62
     4
 10
502.049632
 20
1280.150318
 30
0.0
 11
500.638376
 21
1287.245186
 31
0.0
 12
500.638376
 22
1279.207347
 32
0.0
 13
500.638376
 23
1279.207347
 33
0.0
  0
SOLID
  5
1AE
  8
NOTE
  6
CONTINUOUS
 62
     4
 10
500.638376
 20
1287.245186
 30
0.0
 11
502.049632
 21
1280.150318
 31
0.0
 12
502.049632
 22
1286.302214
 32
0.0
 13
502.049632
 23
1286.302214
 33
0.0
  0
SOLID
  5
1AF
  8
NOTE
  6
CONTINUOUS
 62
     4
 10
502.992604
 20
1281.561575
 30
0.0
 11
502.049632
 21
1286.302214
 31
0.0
 12
502.049632
 22
1280.150318
 32
0.0
 13
502.049632
 23
1280.150318
 33
0.0
  0
SOLID
  5
1B0
  8
NOTE
  6
CONTINUOUS
 62
     4
 10
502.049632
 20
1286.302214
 30
0.0
 11
502.992604
 21
1281.561575
 31
0.0
 12
502.992604
 22
1284.890957
 32
0.0
 13
502.992604
 23
1284.890957
 33
0.0
  0
SOLID
  5
1B1
  8
NOTE
  6
CONTINUOUS
 62
     4
 10
503.323732
 20
1283.226266
 30
0.0
 11
502.992604
 21
1284.890957
 31
0.0
 12
502.992604
 22
1281.561575
 32
0.0
 13
502.992604
 23
1281.561575
 33
0.0
  0
CIRCLE
  5
1B2
  8
NOTE
  6
CONTINUOUS
 62
     4
 10
498.973685
 20
1283.226266
 30
0.0
 40
4.350047
  0
TEXT
  5
1B3
  8
NOTE
  6
CONTINUOUS
 62
     4
 10
53.047252
 20
1438.332235
 30
0.0
 40
64.0
  1
防風板
 41
0.9
  0
LINE
  5
1B4
  8
SIZE
  6
CONTINUOUS
 62
    30
 10
411.186498
 20
1485.989997
 30
0.0
 11
411.186498
 21
1670.910085
 31
0.0
  0
POINT
  5
1B5
  8
DEFPOINTS
  6
CONTINUOUS
 62
     7
 10
411.186498
 20
1465.989997
 30
0.0
  0
LINE
  5
1B6
  8
SIZE
  6
CONTINUOUS
 62
    30
 10
416.186498
 20
1640.910085
 30
0.0
 11
421.186498
 21
1640.910085
 31
0.0
  0
CIRCLE
  5
1B7
  8
SIZE
  6
CONTINUOUS
 62
    30
 10
411.186498
 20
1640.910085
 30
0.0
 40
5.0
  0
LINE
  5
1B8
  8
BASIS
  6
DASHDOT
 62
     6
 10
1098.686498
 20
1519.683706
 30
0.0
 11
1098.686498
 21
104.460196
 31
0.0
  0
CIRCLE
  5
1B9
  8
ARRANGE
  6
CONTINUOUS
 62
     1
 10
1098.686498
 20
813.98999
 30
0.0
 40
42.5
  0
TEXT
  5
1BA
  8
SIZE
  6
CONTINUOUS
 62
    30
 10
2199.003057
 20
756.947136
 30
0.0
 40
55.0
  1
630
 50
90.0
 41
0.9
 72
     1
 11
2199.003057
 21
820.589993
 31
0.0
  0
LINE
  5
1BB
  8
SIZE
  6
CONTINUOUS
 62
    30
 10
2214.003057
 20
515.58999
 30
0.0
 11
2214.003057
 21
1125.589997
 31
0.0
  0
LINE
  5
1BC
  8
ARRANGE
  6
CONTINUOUS
 62
     1
 10
1141.155697
 20
856.147096
 30
0.0
 11
1056.217299
 21
771.832884
 31
0.0
  0
LINE
  5
1BD
  8
ARRANGE
  6
CONTINUOUS
 62
     1
 10
1141.218246
 20
771.89599
 30
0.0
 11
1056.15475
 21
856.08399
 31
0.0
  0
TEXT
  5
1BE
  8
SIZE
  6
CONTINUOUS
 62
    30
 10
2534.638262
 20
737.341096
 30
0.0
 40
55.0
  1
1289
 50
90.0
 41
0.9
 72
     1
 11
2534.638262
 21
818.662524
 31
0.0
  0
LINE
  5
1BF
  8
SIZE
  6
CONTINUOUS
 62
    30
 10
2549.638262
 20
1455.989997
 30
0.0
 11
2549.638262
 21
186.98999
 31
0.0
  0
TEXT
  5
1C0
  8
SIZE
  6
CONTINUOUS
 62
    30
 10
2356.050944
 20
757.173049
 30
0.0
 40
55.0
  1
669
 50
90.0
 41
0.9
 72
     1
 11
2356.050944
 21
819.637335
 31
0.0
  0
LINE
  5
1C1
  8
SIZE
  6
CONTINUOUS
 62
    30
 10
2371.050944
 20
1145.58999
 30
0.0
 11
2371.050944
 21
496.58999
 31
0.0
  0
LINE
  5
1C2
  8
DETAIL
  6
CONTINUOUS
 62
     5
 10
1786.186498
 20
176.98999
 30
0.0
 11
1786.186498
 21
1465.989997
 31
0.0
  0
LINE
  5
1C3
  8
SIZE
  6
CONTINUOUS
 62
    30
 10
1439.793407
 20
532.58999
 30
0.0
 11
2109.872766
 21
532.58999
 31
0.0
  0
LINE
  5
1C4
  8
SIZE
  6
CONTINUOUS
 62
    30
 10
1668.686504
 20
76.447254
 30
0.0
 11
1108.686498
 21
76.447254
 31
0.0
  0
LINE
  5
1C5
  8
SIZE
  6
CONTINUOUS
 62
    30
 10
1776.186498
 20
271.583691
 30
0.0
 11
1414.18658
 21
271.583691
 31
0.0
  0
LINE
  5
1C6
  8
SIZE
  6
CONTINUOUS
 62
    30
 10
1776.186498
 20
377.868767
 30
0.0
 11
1471.18658
 21
377.868767
 31
0.0
  0
LINE
  5
1C7
  8
SIZE
  6
CONTINUOUS
 62
    30
 10
1098.686498
 20
472.318567
 30
0.0
 11
1098.686498
 21
46.447254
 31
0.0
  0
LINE
  5
1C8
  8
SIZE
  6
CONTINUOUS
 62
    30
 10
1098.686498
 20
472.318567
 30
0.0
 11
1098.686498
 21
46.447254
 31
0.0
  0
LINE
  5
1C9
  8
SIZE
  6
CONTINUOUS
 62
    30
 10
1103.686498
 20
76.447254
 30
0.0
 11
1108.686498
 21
76.447254
 31
0.0
  0
LINE
  5
1CA
  8
SIZE
  6
CONTINUOUS
 62
    30
 10
1093.686498
 20
76.447254
 30
0.0
 11
1088.686498
 21
76.447254
 31
0.0
  0
CIRCLE
  5
1CB
  8
SIZE
  6
CONTINUOUS
 62
    30
 10
1098.686498
 20
76.447254
 30
0.0
 40
5.0
  0
POINT
  5
1CC
  8
DEFPOINTS
  6
CONTINUOUS
 62
     7
 10
1098.686498
 20
76.447254
 30
0.0
  0
CIRCLE
  5
1CD
  8
SIZE
  6
CONTINUOUS
 62
    30
 10
1098.686498
 20
76.447254
 30
0.0
 40
5.0
  0
TEXT
  5
1CE
  8
SIZE
  6
CONTINUOUS
 62
    30
 10
1325.043644
 20
91.447254
 30
0.0
 40
55.0
  1
580
 41
0.9
 72
     1
 11
1388.686501
 21
91.447254
 31
0.0
  0
LINE
  5
1CF
  8
NOTE
  6
CONTINUOUS
 62
     4
 10
1045.545551
 20
355.692063
 30
0.0
 11
1404.186737
 21
532.490051
 31
0.0
  0
LINE
  5
1D0
  8
NOTE
  6
CONTINUOUS
 62
     4
 10
1018.316256
 20
222.946321
 30
0.0
 11
1461.186638
 21
532.590018
 31
0.0
  0
CIRCLE
  5
1D1
  8
DETAIL
  6
CONTINUOUS
 62
     5
 10
1098.686498
 20
505.58999
 30
0.0
 40
8.0
  0
CIRCLE
  5
1D2
  8
FIX
  6
CONTINUOUS
 62
    11
 10
1098.686498
 20
505.58999
 30
0.0
 40
10.310021
  0
LINE
  5
1D3
  8
NOTE
  6
CONTINUOUS
 62
     4
 10
1098.686498
 20
492.318567
 30
0.0
 11
1098.686498
 21
518.861412
 31
0.0
  0
LINE
  5
1D4
  8
NOTE
  6
CONTINUOUS
 62
     4
 10
1085.415076
 20
505.58999
 30
0.0
 11
1111.95792
 21
505.58999
 31
0.0
  0
POINT
  5
1D5
  8
DEFPOINTS
  6
CONTINUOUS
 62
     7
 10
1098.686498
 20
492.318567
 30
0.0
  0
POINT
  5
1D6
  8
DEFPOINTS
  6
CONTINUOUS
 62
     7
 10
1098.686498
 20
492.318567
 30
0.0
  0
LINE
  5
1D7
  8
SIZE
  6
CONTINUOUS
 62
    30
 10
1404.18658
 20
473.383281
 30
0.0
 11
1404.18658
 21
241.583691
 31
0.0
  0
POINT
  5
1D8
  8
DEFPOINTS
  6
CONTINUOUS
 62
     7
 10
1404.18658
 20
271.583691
 30
0.0
  0
LINE
  5
1D9
  8
SIZE
  6
CONTINUOUS
 62
    30
 10
1409.18658
 20
271.583691
 30
0.0
 11
1414.18658
 21
271.583691
 31
0.0
  0
CIRCLE
  5
1DA
  8
SIZE
  6
CONTINUOUS
 62
    30
 10
1404.18658
 20
271.583691
 30
0.0
 40
5.0
  0
POINT
  5
1DB
  8
DEFPOINTS
  6
CONTINUOUS
 62
     7
 10
1404.18658
 20
493.383281
 30
0.0
  0
LINE
  5
1DC
  8
SIZE
  6
CONTINUOUS
 62
    30
 10
1461.18658
 20
473.383281
 30
0.0
 11
1461.18658
 21
347.868767
 31
0.0
  0
TEXT
  5
1DD
  8
SIZE
  6
CONTINUOUS
 62
    30
 10
1531.543682
 20
286.583691
 30
0.0
 40
55.0
  1
382
 41
0.9
 72
     1
 11
1595.186539
 21
286.583691
 31
0.0
  0
TEXT
  5
1DE
  8
SIZE
  6
CONTINUOUS
 62
    30
 10
1528.812757
 20
392.868767
 30
0.0
 40
55.0
  1
325
 41
0.9
 72
     1
 11
1592.455614
 21
392.868767
 31
0.0
  0
POINT
  5
1DF
  8
DEFPOINTS
  6
CONTINUOUS
 62
     7
 10
1461.18658
 20
377.868767
 30
0.0
  0
POINT
  5
1E0
  8
DEFPOINTS
  6
CONTINUOUS
 62
     7
 10
1461.18658
 20
493.383281
 30
0.0
  0
LINE
  5
1E1
  8
SIZE
  6
CONTINUOUS
 62
    30
 10
1466.18658
 20
377.868767
 30
0.0
 11
1471.18658
 21
377.868767
 31
0.0
  0
CIRCLE
  5
1E2
  8
SIZE
  6
CONTINUOUS
 62
    30
 10
1461.18658
 20
377.868767
 30
0.0
 40
5.0
  0
LINE
  5
1E3
  8
NOTE
  6
CONTINUOUS
 62
     4
 10
1461.186641
 20
532.590012
 30
0.0
 11
1439.742686
 21
507.070063
 31
0.0
  0
LINE
  5
1E4
  8
NOTE
  6
CONTINUOUS
 62
     4
 10
1461.186641
 20
532.590012
 30
0.0
 11
1429.855656
 21
521.211066
 31
0.0
  0
POINT
  5
1E5
  8
DEFPOINTS
  6
CONTINUOUS
 62
     7
 10
1419.793407
 20
532.58999
 30
0.0
  0
LINE
  5
1E6
  8
NOTE
  6
CONTINUOUS
 62
     4
 10
1404.186739
 20
532.490044
 30
0.0
 11
1371.49296
 21
525.991747
 31
0.0
  0
LINE
  5
1E7
  8
NOTE
  6
CONTINUOUS
 62
     4
 10
1404.186739
 20
532.490044
 30
0.0
 11
1379.122245
 21
510.515464
 31
0.0
  0
LINE
  5
1E8
  8
NOTE
  6
CONTINUOUS
 62
     4
 10
1404.186741
 20
548.196656
 30
0.0
 11
1404.186741
 21
516.983324
 31
0.0
  0
LINE
  5
1E9
  8
NOTE
  6
CONTINUOUS
 62
     4
 10
1419.793407
 20
532.48999
 30
0.0
 11
1388.580075
 21
532.48999
 31
0.0
  0
LINE
  5
1EA
  8
NOTE
  6
CONTINUOUS
 62
     4
 10
1461.186741
 20
548.196656
 30
0.0
 11
1461.186741
 21
516.983324
 31
0.0
  0
LINE
  5
1EB
  8
NOTE
  6
CONTINUOUS
 62
     4
 10
1476.793407
 20
532.58999
 30
0.0
 11
1445.580075
 21
532.58999
 31
0.0
  0
LINE
  5
1EC
  8
NOTE
  6
CONTINUOUS
 62
     4
 10
2217.706822
 20
-0.000009
 30
0.0
 11
1678.686415
 21
505.58998
 31
0.0
  0
LINE
  5
1ED
  8
SIZE
  6
CONTINUOUS
 62
    30
 10
1678.686504
 20
472.318567
 30
0.0
 11
1678.686504
 21
46.447254
 31
0.0
  0
LINE
  5
1EE
  8
SIZE
  6
CONTINUOUS
 62
    30
 10
1678.686504
 20
472.318567
 30
0.0
 11
1678.686504
 21
46.447254
 31
0.0
  0
LINE
  5
1EF
  8
SIZE
  6
CONTINUOUS
 62
    30
 10
1786.186498
 20
488.98999
 30
0.0
 11
1786.186498
 21
46.447254
 31
0.0
  0
TEXT
  5
1F0
  8
SIZE
  6
CONTINUOUS
 62
    30
 10
1811.186498
 20
91.447254
 30
0.0
 40
55.0
  1
107.5
 41
0.9
 72
     1
 11
1905.472212
 21
91.447254
 31
0.0
  0
LINE
  5
1F1
  8
SIZE
  6
CONTINUOUS
 62
    30
 10
1786.186498
 20
76.447254
 30
0.0
 11
2014.757927
 21
76.447254
 31
0.0
  0
LINE
  5
1F2
  8
SIZE
  6
CONTINUOUS
 62
    30
 10
1781.186498
 20
76.447254
 30
0.0
 11
1776.186498
 21
76.447254
 31
0.0
  0
LINE
  5
1F3
  8
SIZE
  6
CONTINUOUS
 62
    30
 10
1673.686504
 20
76.447254
 30
0.0
 11
1668.686504
 21
76.447254
 31
0.0
  0
CIRCLE
  5
1F4
  8
SIZE
  6
CONTINUOUS
 62
    30
 10
1678.686504
 20
76.447254
 30
0.0
 40
5.0
  0
POINT
  5
1F5
  8
DEFPOINTS
  6
CONTINUOUS
 62
     7
 10
1678.686504
 20
76.447254
 30
0.0
  0
LINE
  5
1F6
  8
SIZE
  6
CONTINUOUS
 62
    30
 10
1683.686504
 20
76.447254
 30
0.0
 11
1688.686504
 21
76.447254
 31
0.0
  0
CIRCLE
  5
1F7
  8
SIZE
  6
CONTINUOUS
 62
    30
 10
1678.686504
 20
76.447254
 30
0.0
 40
5.0
  0
LINE
  5
1F8
  8
SIZE
  6
CONTINUOUS
 62
    30
 10
1688.686504
 20
76.447254
 30
0.0
 11
1776.186498
 21
76.447254
 31
0.0
  0
CIRCLE
  5
1F9
  8
SIZE
  6
CONTINUOUS
 62
    30
 10
1786.186498
 20
76.447254
 30
0.0
 40
5.0
  0
POINT
  5
1FA
  8
DEFPOINTS
  6
CONTINUOUS
 62
     7
 10
1786.186498
 20
176.98999
 30
0.0
  0
POINT
  5
1FB
  8
DEFPOINTS
  6
CONTINUOUS
 62
     7
 10
2549.638262
 20
176.98999
 30
0.0
  0
LINE
  5
1FC
  8
SIZE
  6
CONTINUOUS
 62
    30
 10
2549.638262
 20
181.98999
 30
0.0
 11
2549.638262
 21
186.98999
 31
0.0
  0
CIRCLE
  5
1FD
  8
SIZE
  6
CONTINUOUS
 62
    30
 10
2549.638262
 20
176.98999
 30
0.0
 40
5.0
  0
LINE
  5
1FE
  8
SIZE
  6
CONTINUOUS
 62
    30
 10
1711.957927
 20
505.58999
 30
0.0
 11
2244.003057
 21
505.58999
 31
0.0
  0
LINE
  5
1FF
  8
SIZE
  6
CONTINUOUS
 62
    30
 10
1775.186505
 20
486.58999
 30
0.0
 11
2401.050944
 21
486.58999
 31
0.0
  0
LINE
  5
200
  8
SIZE
  6
CONTINUOUS
 62
    30
 10
1711.957927
 20
505.58999
 30
0.0
 11
2244.003057
 21
505.58999
 31
0.0
  0
LINE
  5
201
  8
SIZE
  6
CONTINUOUS
 62
    30
 10
1775.186505
 20
486.58999
 30
0.0
 11
2244.003057
 21
486.58999
 31
0.0
  0
LINE
  5
202
  8
SIZE
  6
CONTINUOUS
 62
    30
 10
1959.919121
 20
530.58999
 30
0.0
 11
1959.919121
 21
486.58999
 31
0.0
  0
LINE
  5
203
  8
SIZE
  6
CONTINUOUS
 62
    30
 10
2079.872766
 20
532.58999
 30
0.0
 11
2079.872766
 21
486.58999
 31
0.0
  0
CIRCLE
  5
204
  8
DETAIL
  6
CONTINUOUS
 62
     5
 10
1678.686504
 20
505.58999
 30
0.0
 40
8.0
  0
CIRCLE
  5
205
  8
FIX
  6
CONTINUOUS
 62
    11
 10
1678.686504
 20
505.58999
 30
0.0
 40
10.310021
  0
LINE
  5
206
  8
NOTE
  6
CONTINUOUS
 62
     4
 10
1678.686504
 20
492.318567
 30
0.0
 11
1678.686504
 21
518.861412
 31
0.0
  0
LINE
  5
207
  8
DETAIL
  6
CONTINUOUS
 62
     5
 10
1755.186505
 20
486.58999
 30
0.0
 11
1786.186498
 21
517.589982
 31
0.0
  0
LINE
  5
208
  8
SIZE
  6
CONTINUOUS
 62
    30
 10
1775.186505
 20
486.58999
 30
0.0
 11
1989.919121
 21
486.58999
 31
0.0
  0
LINE
  5
209
  8
SIZE
  6
CONTINUOUS
 62
    30
 10
1775.186505
 20
486.58999
 30
0.0
 11
2109.872766
 21
486.58999
 31
0.0
  0
LINE
  5
20A
  8
SIZE
  6
CONTINUOUS
 62
    30
 10
1786.186498
 20
488.98999
 30
0.0
 11
1786.186498
 21
241.583691
 31
0.0
  0
LINE
  5
20B
  8
SIZE
  6
CONTINUOUS
 62
    30
 10
1786.186498
 20
488.98999
 30
0.0
 11
1786.186498
 21
347.868767
 31
0.0
  0
LINE
  5
20C
  8
SIZE
  6
CONTINUOUS
 62
    30
 10
1781.186498
 20
271.583691
 30
0.0
 11
1776.186498
 21
271.583691
 31
0.0
  0
CIRCLE
  5
20D
  8
SIZE
  6
CONTINUOUS
 62
    30
 10
1786.186498
 20
271.583691
 30
0.0
 40
5.0
  0
LINE
  5
20E
  8
SIZE
  6
CONTINUOUS
 62
    30
 10
1781.186498
 20
377.868767
 30
0.0
 11
1776.186498
 21
377.868767
 31
0.0
  0
POINT
  5
20F
  8
DEFPOINTS
  6
CONTINUOUS
 62
     7
 10
1691.957927
 20
505.58999
 30
0.0
  0
POINT
  5
210
  8
DEFPOINTS
  6
CONTINUOUS
 62
     7
 10
1755.186505
 20
486.58999
 30
0.0
  0
POINT
  5
211
  8
DEFPOINTS
  6
CONTINUOUS
 62
     7
 10
1755.186505
 20
486.58999
 30
0.0
  0
LINE
  5
212
  8
NOTE
  6
CONTINUOUS
 62
     4
 10
1678.686421
 20
505.589984
 30
0.0
 11
1696.267926
 21
477.270349
 31
0.0
  0
LINE
  5
213
  8
NOTE
  6
CONTINUOUS
 62
     4
 10
1678.686421
 20
505.589984
 30
0.0
 11
1708.072268
 21
489.855214
 31
0.0
  0
POINT
  5
214
  8
DEFPOINTS
  6
CONTINUOUS
 62
     7
 10
1678.686504
 20
492.318567
 30
0.0
  0
POINT
  5
215
  8
DEFPOINTS
  6
CONTINUOUS
 62
     7
 10
1678.686504
 20
492.318567
 30
0.0
  0
POINT
  5
216
  8
DEFPOINTS
  6
CONTINUOUS
 62
     7
 10
1755.186505
 20
486.58999
 30
0.0
  0
POINT
  5
217
  8
DEFPOINTS
  6
CONTINUOUS
 62
     7
 10
1691.957927
 20
505.58999
 30
0.0
  0
POINT
  5
218
  8
DEFPOINTS
  6
CONTINUOUS
 62
     7
 10
1755.186505
 20
486.58999
 30
0.0
  0
LINE
  5
219
  8
NOTE
  6
CONTINUOUS
 62
     4
 10
1665.415082
 20
505.58999
 30
0.0
 11
1691.957927
 21
505.58999
 31
0.0
  0
CIRCLE
  5
21A
  8
SIZE
  6
CONTINUOUS
 62
    30
 10
1786.186498
 20
377.868767
 30
0.0
 40
5.0
  0
TEXT
  5
21B
  8
SIZE
  6
CONTINUOUS
 62
    30
 10
1944.919121
 20
369.08999
 30
0.0
 40
55.0
  1
44
 50
90.0
 41
0.9
 72
     1
 11
1944.919121
 21
410.33999
 31
0.0
  0
LINE
  5
21C
  8
SIZE
  6
CONTINUOUS
 62
    30
 10
1959.919121
 20
481.58999
 30
0.0
 11
1959.919121
 21
476.58999
 31
0.0
  0
CIRCLE
  5
21D
  8
SIZE
  6
CONTINUOUS
 62
    30
 10
1959.919121
 20
486.58999
 30
0.0
 40
5.0
  0
LINE
  5
21E
  8
SIZE
  6
CONTINUOUS
 62
    30
 10
1959.919121
 20
476.58999
 30
0.0
 11
1959.919121
 21
354.08999
 31
0.0
  0
TEXT
  5
21F
  8
SIZE
  6
CONTINUOUS
 62
    30
 10
2064.872766
 20
373.804276
 30
0.0
 40
55.0
  1
46
 50
90.0
 41
0.9
 72
     1
 11
2064.872766
 21
412.697133
 31
0.0
  0
LINE
  5
220
  8
SIZE
  6
CONTINUOUS
 62
    30
 10
2079.872766
 20
481.58999
 30
0.0
 11
2079.872766
 21
476.58999
 31
0.0
  0
CIRCLE
  5
221
  8
SIZE
  6
CONTINUOUS
 62
    30
 10
2079.872766
 20
486.58999
 30
0.0
 40
5.0
  0
LINE
  5
222
  8
SIZE
  6
CONTINUOUS
 62
    30
 10
2079.872766
 20
476.58999
 30
0.0
 11
2079.872766
 21
358.804275
 31
0.0
  0
LINE
  5
223
  8
SIZE
  6
CONTINUOUS
 62
    30
 10
1806.186498
 20
530.58999
 30
0.0
 11
1989.919121
 21
530.58999
 31
0.0
  0
POINT
  5
224
  8
DEFPOINTS
  6
CONTINUOUS
 62
     7
 10
1786.186498
 20
530.58999
 30
0.0
  0
POINT
  5
225
  8
DEFPOINTS
  6
CONTINUOUS
 62
     7
 10
1786.186498
 20
508.98999
 30
0.0
  0
POINT
  5
226
  8
DEFPOINTS
  6
CONTINUOUS
 62
     7
 10
1786.186498
 20
508.98999
 30
0.0
  0
POINT
  5
227
  8
DEFPOINTS
  6
CONTINUOUS
 62
     7
 10
1786.186498
 20
508.98999
 30
0.0
  0
POINT
  5
228
  8
DEFPOINTS
  6
CONTINUOUS
 62
     7
 10
1959.919121
 20
530.58999
 30
0.0
  0
LINE
  5
229
  8
SIZE
  6
CONTINUOUS
 62
    30
 10
1959.919121
 20
535.58999
 30
0.0
 11
1959.919121
 21
540.58999
 31
0.0
  0
CIRCLE
  5
22A
  8
SIZE
  6
CONTINUOUS
 62
    30
 10
1959.919121
 20
530.58999
 30
0.0
 40
5.0
  0
LINE
  5
22B
  8
SIZE
  6
CONTINUOUS
 62
    30
 10
1959.919121
 20
540.58999
 30
0.0
 11
1959.919121
 21
550.58999
 31
0.0
  0
POINT
  5
22C
  8
DEFPOINTS
  6
CONTINUOUS
 62
     7
 10
2079.872766
 20
532.58999
 30
0.0
  0
LINE
  5
22D
  8
SIZE
  6
CONTINUOUS
 62
    30
 10
2079.872766
 20
537.58999
 30
0.0
 11
2079.872766
 21
542.58999
 31
0.0
  0
CIRCLE
  5
22E
  8
SIZE
  6
CONTINUOUS
 62
    30
 10
2079.872766
 20
532.58999
 30
0.0
 40
5.0
  0
LINE
  5
22F
  8
SIZE
  6
CONTINUOUS
 62
    30
 10
2079.872766
 20
542.58999
 30
0.0
 11
2079.872766
 21
552.58999
 31
0.0
  0
CIRCLE
  5
230
  8
SIZE
  6
CONTINUOUS
 62
    30
 10
2214.003057
 20
505.58999
 30
0.0
 40
5.0
  0
CIRCLE
  5
231
  8
SIZE
  6
CONTINUOUS
 62
    30
 10
2214.003057
 20
505.58999
 30
0.0
 40
5.0
  0
POINT
  5
232
  8
DEFPOINTS
  6
CONTINUOUS
 62
     7
 10
2214.003057
 20
505.58999
 30
0.0
  0
TEXT
  5
233
  8
SIZE
  6
CONTINUOUS
 62
    30
 10
2199.003057
 20
383.232847
 30
0.0
 40
55.0
  1
19
 50
90.0
 41
0.9
 72
     1
 11
2199.003057
 21
417.411418
 31
0.0
  0
LINE
  5
234
  8
SIZE
  6
CONTINUOUS
 62
    30
 10
2214.003057
 20
481.58999
 30
0.0
 11
2214.003057
 21
476.58999
 31
0.0
  0
CIRCLE
  5
235
  8
SIZE
  6
CONTINUOUS
 62
    30
 10
2214.003057
 20
486.58999
 30
0.0
 40
5.0
  0
LINE
  5
236
  8
SIZE
  6
CONTINUOUS
 62
    30
 10
2214.003057
 20
505.58999
 30
0.0
 11
2214.003057
 21
486.58999
 31
0.0
  0
LINE
  5
237
  8
SIZE
  6
CONTINUOUS
 62
    30
 10
2214.003057
 20
476.58999
 30
0.0
 11
2214.003057
 21
368.232847
 31
0.0
  0
POINT
  5
238
  8
DEFPOINTS
  6
CONTINUOUS
 62
     7
 10
2371.050944
 20
486.58999
 30
0.0
  0
LINE
  5
239
  8
SIZE
  6
CONTINUOUS
 62
    30
 10
2371.050944
 20
491.58999
 30
0.0
 11
2371.050944
 21
496.58999
 31
0.0
  0
CIRCLE
  5
23A
  8
SIZE
  6
CONTINUOUS
 62
    30
 10
2371.050944
 20
486.58999
 30
0.0
 40
5.0
  0
LINE
  5
23B
  8
SIZE
  6
CONTINUOUS
 62
    30
 10
2214.003057
 20
510.58999
 30
0.0
 11
2214.003057
 21
515.58999
 31
0.0
  0
LINE
  5
23C
  8
SIZE
  6
CONTINUOUS
 62
    30
 10
2214.003057
 20
510.58999
 30
0.0
 11
2214.003057
 21
515.58999
 31
0.0
  0
LINE
  5
23D
  8
SIZE
  6
CONTINUOUS
 62
    30
 10
2214.003057
 20
515.58999
 30
0.0
 11
2214.003057
 21
525.58999
 31
0.0
  0
CIRCLE
  5
23E
  8
FIX
  6
CONTINUOUS
 62
    11
 10
1098.686498
 20
1135.589997
 30
0.0
 40
10.310021
  0
LINE
  5
23F
  8
NOTE
  6
CONTINUOUS
 62
     4
 10
1085.415076
 20
1135.589997
 30
0.0
 11
1111.95792
 21
1135.589997
 31
0.0
  0
CIRCLE
  5
240
  8
DETAIL
  6
CONTINUOUS
 62
     5
 10
1098.686498
 20
1135.589997
 30
0.0
 40
8.0
  0
LINE
  5
241
  8
NOTE
  6
CONTINUOUS
 62
     4
 10
1098.686498
 20
1122.318574
 30
0.0
 11
1098.686498
 21
1148.861419
 31
0.0
  0
TEXT
  5
242
  8
SIZE
  6
CONTINUOUS
 62
    30
 10
1016.186498
 20
1655.910085
 30
0.0
 40
55.0
  1
1375
 41
0.9
 72
     1
 11
1098.686498
 21
1655.910085
 31
0.0
  0
LINE
  5
243
  8
SIZE
  6
CONTINUOUS
 62
    30
 10
1711.957927
 20
1135.589997
 30
0.0
 11
2244.003057
 21
1135.589997
 31
0.0
  0
LINE
  5
244
  8
SIZE
  6
CONTINUOUS
 62
    30
 10
1774.986513
 20
1155.58999
 30
0.0
 11
2401.050944
 21
1155.58999
 31
0.0
  0
LINE
  5
245
  8
DETAIL
  6
CONTINUOUS
 62
     5
 10
1786.186498
 20
1124.390004
 30
0.0
 11
1754.986513
 21
1155.58999
 31
0.0
  0
POINT
  5
246
  8
DEFPOINTS
  6
CONTINUOUS
 62
     7
 10
1691.957927
 20
1135.589997
 30
0.0
  0
POINT
  5
247
  8
DEFPOINTS
  6
CONTINUOUS
 62
     7
 10
1754.986513
 20
1155.58999
 30
0.0
  0
CIRCLE
  5
248
  8
FIX
  6
CONTINUOUS
 62
    11
 10
1678.686504
 20
1135.589997
 30
0.0
 40
10.310021
  0
LINE
  5
249
  8
NOTE
  6
CONTINUOUS
 62
     4
 10
1678.686504
 20
1122.318574
 30
0.0
 11
1678.686504
 21
1148.861419
 31
0.0
  0
LINE
  5
24A
  8
NOTE
  6
CONTINUOUS
 62
     4
 10
1665.415082
 20
1135.589997
 30
0.0
 11
1691.957927
 21
1135.589997
 31
0.0
  0
CIRCLE
  5
24B
  8
DETAIL
  6
CONTINUOUS
 62
     5
 10
1678.686504
 20
1135.589997
 30
0.0
 40
8.0
  0
POINT
  5
24C
  8
DEFPOINTS
  6
CONTINUOUS
 62
     7
 10
2214.003057
 20
1135.589997
 30
0.0
  0
LINE
  5
24D
  8
SIZE
  6
CONTINUOUS
 62
    30
 10
2214.003057
 20
1130.589997
 30
0.0
 11
2214.003057
 21
1125.589997
 31
0.0
  0
CIRCLE
  5
24E
  8
SIZE
  6
CONTINUOUS
 62
    30
 10
2214.003057
 20
1135.589997
 30
0.0
 40
5.0
  0
LINE
  5
24F
  8
SIZE
  6
CONTINUOUS
 62
    30
 10
2371.050944
 20
1150.58999
 30
0.0
 11
2371.050944
 21
1145.58999
 31
0.0
  0
CIRCLE
  5
250
  8
SIZE
  6
CONTINUOUS
 62
    30
 10
2371.050944
 20
1155.58999
 30
0.0
 40
5.0
  0
LINE
  5
251
  8
SIZE
  6
CONTINUOUS
 62
    30
 10
1786.186498
 20
1485.989997
 30
0.0
 11
1786.186498
 21
1670.910085
 31
0.0
  0
POINT
  5
252
  8
DEFPOINTS
  6
CONTINUOUS
 62
     7
 10
1786.186498
 20
1465.989997
 30
0.0
  0
POINT
  5
253
  8
DEFPOINTS
  6
CONTINUOUS
 62
     7
 10
1786.186498
 20
1465.989997
 30
0.0
  0
LINE
  5
254
  8
SIZE
  6
CONTINUOUS
 62
    30
 10
1781.186498
 20
1640.910085
 30
0.0
 11
1776.186498
 21
1640.910085
 31
0.0
  0
POINT
  5
255
  8
DEFPOINTS
  6
CONTINUOUS
 62
     7
 10
1786.186498
 20
1640.910085
 30
0.0
  0
CIRCLE
  5
256
  8
SIZE
  6
CONTINUOUS
 62
    30
 10
1786.186498
 20
1640.910085
 30
0.0
 40
5.0
  0
LINE
  5
257
  8
SIZE
  6
CONTINUOUS
 62
    30
 10
2549.638262
 20
1460.989997
 30
0.0
 11
2549.638262
 21
1455.989997
 31
0.0
  0
CIRCLE
  5
258
  8
SIZE
  6
CONTINUOUS
 62
    30
 10
2549.638262
 20
1465.989997
 30
0.0
 40
5.0
  0
ENDBLK
  5
25A
  8
0
 62
     7
  0
ENDSEC
  0
SECTION
  2
ENTITIES
  0
TEXT
  5
25C
  8
NOTE
  6
CONTINUOUS
 62
     4
 10
1123.82586
 20
-794.371177
 30
0.0
 40
64.0
  1
AH 6-%%C16
 41
0.9
  0
LINE
  5
25D
  8
NOTE
  6
CONTINUOUS
 62
     4
 10
1119.020324
 20
-813.989999
 30
0.0
 11
1546.276441
 21
-813.989999
 31
0.0
  0
LINE
  5
25E
  8
SIZE
  6
CONTINUOUS
 62
    30
 10
707.5
 20
-637.0
 30
0.0
 11
1480.951764
 21
-637.0
 31
0.0
  0
LINE
  5
25F
  8
SIZE
  6
CONTINUOUS
 62
    30
 10
707.5
 20
652.000007
 30
0.0
 11
1480.951764
 21
652.000007
 31
0.0
  0
LINE
  5
260
  8
BASIS
  6
DASHDOT
 62
     6
 10
767.5
 20
0.0
 30
0.0
 11
-727.5
 21
0.0
 31
0.0
  0
LINE
  5
261
  8
OUTLINE
  6
CONTINUOUS
 62
     3
 10
-687.5
 20
-283.4
 30
0.0
 11
687.5
 21
-283.4
 31
0.0
  0
LINE
  5
262
  8
OUTLINE
  6
CONTINUOUS
 62
     3
 10
-687.5
 20
297.6
 30
0.0
 11
687.5
 21
297.6
 31
0.0
  0
TEXT
  5
263
  8
NOTE
  6
CONTINUOUS
 62
     4
 10
-513.956202
 20
-571.424848
 30
0.0
 40
64.0
  1
RL φ15.88
 41
0.9
  0
LINE
  5
264
  8
NOTE
  6
CONTINUOUS
 62
     4
 10
-518.761738
 20
-591.043669
 30
0.0
 11
-80.370242
 21
-591.043669
 31
0.0
  0
TEXT
  5
265
  8
NOTE
  6
CONTINUOUS
 62
     4
 10
-497.49313
 20
-446.655698
 30
0.0
 40
64.0
  1
RG φ19.05
 41
0.9
  0
LINE
  5
266
  8
NOTE
  6
CONTINUOUS
 62
     4
 10
-505.971164
 20
-458.297927
 30
0.0
 11
-53.140947
 21
-458.297927
 31
0.0
  0
LINE
  5
267
  8
DETAIL
  6
CONTINUOUS
 62
     5
 10
-687.5
 20
-283.4
 30
0.0
 11
687.5
 21
-283.4
 31
0.0
  0
LINE
  5
268
  8
DETAIL
  6
CONTINUOUS
 62
     5
 10
-687.5
 20
297.6
 30
0.0
 11
687.5
 21
297.6
 31
0.0
  0
TEXT
  5
269
  8
ETC
  6
CONTINUOUS
 62
    61
 10
-717.013283
 20
962.290784
 30
0.0
 40
64.0
  1
RV-P10A_6
 41
0.9
  0
TEXT
  5
26A
  8
SIZE
  6
CONTINUOUS
 62
    30
 10
-353.64286
 20
-722.542736
 30
0.0
 40
55.0
  1
580
 41
0.9
 72
     1
 11
-290.000003
 21
-722.542736
 31
0.0
  0
LINE
  5
26B
  8
SIZE
  6
CONTINUOUS
 62
    30
 10
-10.0
 20
-737.542736
 30
0.0
 11
-570.000006
 21
-737.542736
 31
0.0
  0
LINE
  5
26C
  8
SIZE
  6
CONTINUOUS
 62
    30
 10
-677.5
 20
826.920095
 30
0.0
 11
677.5
 21
826.920095
 31
0.0
  0
POLYLINE
  5
26D
  8
OUTLINE
  6
CONTINUOUS
 62
     3
 66
     1
 10
0.0
 20
0.0
 30
0.0
 70
     1
  0
VERTEX
  5
26E
  8
OUTLINE
  6
CONTINUOUS
 62
     3
 10
-687.5
 20
652.000007
 30
0.0
  0
VERTEX
  5
26F
  8
OUTLINE
  6
CONTINUOUS
 62
     3
 10
687.5
 20
652.000007
 30
0.0
  0
VERTEX
  5
270
  8
OUTLINE
  6
CONTINUOUS
 62
     3
 10
687.5
 20
-637.0
 30
0.0
  0
VERTEX
  5
271
  8
OUTLINE
  6
CONTINUOUS
 62
     3
 10
-687.5
 20
-637.0
 30
0.0
  0
SEQEND
  5
272
  8
OUTLINE
  6
CONTINUOUS
 62
     3
  0
LINE
  5
273
  8
DETAIL
  6
CONTINUOUS
 62
     5
 10
-687.5
 20
-637.0
 30
0.0
 11
687.5
 21
-637.0
 31
0.0
  0
LINE
  5
274
  8
DETAIL
  6
CONTINUOUS
 62
     5
 10
687.5
 20
652.000007
 30
0.0
 11
-687.5
 21
652.000007
 31
0.0
  0
LINE
  5
275
  8
DETAIL
  6
CONTINUOUS
 62
     5
 10
-656.500007
 20
-327.4
 30
0.0
 11
656.500007
 21
-327.4
 31
0.0
  0
LINE
  5
276
  8
DETAIL
  6
CONTINUOUS
 62
     5
 10
-656.300015
 20
341.6
 30
0.0
 11
656.300015
 21
341.6
 31
0.0
  0
LINE
  5
277
  8
DETAIL
  6
CONTINUOUS
 62
     5
 10
-687.5
 20
-637.0
 30
0.0
 11
-687.5
 21
652.000007
 31
0.0
  0
LINE
  5
278
  8
SIZE
  6
CONTINUOUS
 62
    30
 10
-580.000006
 20
-341.671423
 30
0.0
 11
-580.000006
 21
-767.542736
 31
0.0
  0
POINT
  5
279
  8
DEFPOINTS
  6
CONTINUOUS
 62
     7
 10
-580.000006
 20
-737.542736
 30
0.0
  0
LINE
  5
27A
  8
SIZE
  6
CONTINUOUS
 62
    30
 10
-575.000006
 20
-737.542736
 30
0.0
 11
-570.000006
 21
-737.542736
 31
0.0
  0
CIRCLE
  5
27B
  8
SIZE
  6
CONTINUOUS
 62
    30
 10
-580.000006
 20
-737.542736
 30
0.0
 40
5.0
  0
LINE
  5
27C
  8
NOTE
  6
CONTINUOUS
 62
     4
 10
-874.631867
 20
-337.123285
 30
0.0
 11
-623.615734
 21
-476.469112
 31
0.0
  0
TEXT
  5
27D
  8
NOTE
  6
CONTINUOUS
 62
     4
 10
-1069.542166
 20
-321.363143
 30
0.0
 40
64.0
  1
防風板
 41
0.9
  0
LINE
  5
27E
  8
NOTE
  6
CONTINUOUS
 62
     4
 10
-874.631867
 20
-337.123285
 30
0.0
 11
-1098.68651
 21
-337.123285
 31
0.0
  0
CIRCLE
  5
27F
  8
DETAIL
  6
CONTINUOUS
 62
     5
 10
-580.000006
 20
-308.4
 30
0.0
 40
8.0
  0
CIRCLE
  5
280
  8
FIX
  6
CONTINUOUS
 62
    11
 10
-580.000006
 20
-308.4
 30
0.0
 40
10.310021
  0
LINE
  5
281
  8
NOTE
  6
CONTINUOUS
 62
     4
 10
-580.000006
 20
-321.671423
 30
0.0
 11
-580.000006
 21
-295.128578
 31
0.0
  0
LINE
  5
282
  8
DETAIL
  6
CONTINUOUS
 62
     5
 10
-687.5
 20
-296.400008
 30
0.0
 11
-656.500007
 21
-327.4
 31
0.0
  0
SOLID
  5
283
  8
NOTE
  6
CONTINUOUS
 62
     4
 10
-627.965781
 20
-476.469112
 30
0.0
 11
-627.634653
 21
-478.133803
 31
0.0
 12
-627.634653
 22
-474.804421
 32
0.0
 13
-627.634653
 23
-474.804421
 33
0.0
  0
SOLID
  5
284
  8
NOTE
  6
CONTINUOUS
 62
     4
 10
-626.691681
 20
-479.54506
 30
0.0
 11
-627.634653
 21
-474.804421
 31
0.0
 12
-627.634653
 22
-478.133803
 32
0.0
 13
-627.634653
 23
-478.133803
 33
0.0
  0
SOLID
  5
285
  8
NOTE
  6
CONTINUOUS
 62
     4
 10
-627.634653
 20
-474.804421
 30
0.0
 11
-626.691681
 21
-479.54506
 31
0.0
 12
-626.691681
 22
-473.393164
 32
0.0
 13
-626.691681
 23
-473.393164
 33
0.0
  0
SOLID
  5
286
  8
NOTE
  6
CONTINUOUS
 62
     4
 10
-625.280425
 20
-480.488031
 30
0.0
 11
-626.691681
 21
-473.393164
 31
0.0
 12
-626.691681
 22
-479.54506
 32
0.0
 13
-626.691681
 23
-479.54506
 33
0.0
  0
SOLID
  5
287
  8
NOTE
  6
CONTINUOUS
 62
     4
 10
-626.691681
 20
-473.393164
 30
0.0
 11
-625.280425
 21
-480.488031
 31
0.0
 12
-625.280425
 22
-472.450193
 32
0.0
 13
-625.280425
 23
-472.450193
 33
0.0
  0
SOLID
  5
288
  8
NOTE
  6
CONTINUOUS
 62
     4
 10
-623.615734
 20
-480.819159
 30
0.0
 11
-625.280425
 21
-472.450193
 31
0.0
 12
-625.280425
 22
-480.488031
 32
0.0
 13
-625.280425
 23
-480.488031
 33
0.0
  0
SOLID
  5
289
  8
NOTE
  6
CONTINUOUS
 62
     4
 10
-625.280425
 20
-472.450193
 30
0.0
 11
-623.615734
 21
-480.819159
 31
0.0
 12
-623.615734
 22
-472.119065
 32
0.0
 13
-623.615734
 23
-472.119065
 33
0.0
  0
SOLID
  5
28A
  8
NOTE
  6
CONTINUOUS
 62
     4
 10
-621.951043
 20
-480.488031
 30
0.0
 11
-623.615734
 21
-472.119065
 31
0.0
 12
-623.615734
 22
-480.819159
 32
0.0
 13
-623.615734
 23
-480.819159
 33
0.0
  0
SOLID
  5
28B
  8
NOTE
  6
CONTINUOUS
 62
     4
 10
-623.615734
 20
-472.119065
 30
0.0
 11
-621.951043
 21
-480.488031
 31
0.0
 12
-621.951043
 22
-472.450193
 32
0.0
 13
-621.951043
 23
-472.450193
 33
0.0
  0
SOLID
  5
28C
  8
NOTE
  6
CONTINUOUS
 62
     4
 10
-620.539786
 20
-479.54506
 30
0.0
 11
-621.951043
 21
-472.450193
 31
0.0
 12
-621.951043
 22
-480.488031
 32
0.0
 13
-621.951043
 23
-480.488031
 33
0.0
  0
SOLID
  5
28D
  8
NOTE
  6
CONTINUOUS
 62
     4
 10
-621.951043
 20
-472.450193
 30
0.0
 11
-620.539786
 21
-479.54506
 31
0.0
 12
-620.539786
 22
-473.393164
 32
0.0
 13
-620.539786
 23
-473.393164
 33
0.0
  0
SOLID
  5
28E
  8
NOTE
  6
CONTINUOUS
 62
     4
 10
-619.596814
 20
-478.133803
 30
0.0
 11
-620.539786
 21
-473.393164
 31
0.0
 12
-620.539786
 22
-479.54506
 32
0.0
 13
-620.539786
 23
-479.54506
 33
0.0
  0
SOLID
  5
28F
  8
NOTE
  6
CONTINUOUS
 62
     4
 10
-620.539786
 20
-473.393164
 30
0.0
 11
-619.596814
 21
-478.133803
 31
0.0
 12
-619.596814
 22
-474.804421
 32
0.0
 13
-619.596814
 23
-474.804421
 33
0.0
  0
SOLID
  5
290
  8
NOTE
  6
CONTINUOUS
 62
     4
 10
-619.265687
 20
-476.469112
 30
0.0
 11
-619.596814
 21
-474.804421
 31
0.0
 12
-619.596814
 22
-478.133803
 32
0.0
 13
-619.596814
 23
-478.133803
 33
0.0
  0
CIRCLE
  5
291
  8
NOTE
  6
CONTINUOUS
 62
     4
 10
-623.615734
 20
-476.469112
 30
0.0
 40
4.350047
  0
POINT
  5
292
  8
DEFPOINTS
  6
CONTINUOUS
 62
     7
 10
-580.000006
 20
-321.671423
 30
0.0
  0
LINE
  5
293
  8
NOTE
  6
CONTINUOUS
 62
     4
 10
-593.271429
 20
-308.4
 30
0.0
 11
-566.728584
 21
-308.4
 31
0.0
  0
LINE
  5
294
  8
NOTE
  6
CONTINUOUS
 62
     4
 10
-850.728947
 20
608.582103
 30
0.0
 11
-599.712813
 21
469.236276
 31
0.0
  0
LINE
  5
295
  8
NOTE
  6
CONTINUOUS
 62
     4
 10
-850.728947
 20
608.582103
 30
0.0
 11
-1074.78359
 21
608.582103
 31
0.0
  0
LINE
  5
296
  8
DETAIL
  6
CONTINUOUS
 62
     5
 10
-656.300015
 20
341.6
 30
0.0
 11
-687.5
 21
310.400014
 31
0.0
  0
CIRCLE
  5
297
  8
FIX
  6
CONTINUOUS
 62
    11
 10
-580.000006
 20
321.600007
 30
0.0
 40
10.310021
  0
LINE
  5
298
  8
NOTE
  6
CONTINUOUS
 62
     4
 10
-580.000006
 20
308.328584
 30
0.0
 11
-580.000006
 21
334.871429
 31
0.0
  0
LINE
  5
299
  8
NOTE
  6
CONTINUOUS
 62
     4
 10
-593.271429
 20
321.600007
 30
0.0
 11
-566.728584
 21
321.600007
 31
0.0
  0
CIRCLE
  5
29A
  8
DETAIL
  6
CONTINUOUS
 62
     5
 10
-580.000006
 20
321.600007
 30
0.0
 40
8.0
  0
SOLID
  5
29B
  8
NOTE
  6
CONTINUOUS
 62
     4
 10
-604.06286
 20
469.236276
 30
0.0
 11
-603.731733
 21
467.571585
 31
0.0
 12
-603.731733
 22
470.900967
 32
0.0
 13
-603.731733
 23
470.900967
 33
0.0
  0
SOLID
  5
29C
  8
NOTE
  6
CONTINUOUS
 62
     4
 10
-602.788761
 20
466.160328
 30
0.0
 11
-603.731733
 21
470.900967
 31
0.0
 12
-603.731733
 22
467.571585
 32
0.0
 13
-603.731733
 23
467.571585
 33
0.0
  0
SOLID
  5
29D
  8
NOTE
  6
CONTINUOUS
 62
     4
 10
-603.731733
 20
470.900967
 30
0.0
 11
-602.788761
 21
466.160328
 31
0.0
 12
-602.788761
 22
472.312224
 32
0.0
 13
-602.788761
 23
472.312224
 33
0.0
  0
SOLID
  5
29E
  8
NOTE
  6
CONTINUOUS
 62
     4
 10
-601.377504
 20
465.217357
 30
0.0
 11
-602.788761
 21
472.312224
 31
0.0
 12
-602.788761
 22
466.160328
 32
0.0
 13
-602.788761
 23
466.160328
 33
0.0
  0
SOLID
  5
29F
  8
NOTE
  6
CONTINUOUS
 62
     4
 10
-602.788761
 20
472.312224
 30
0.0
 11
-601.377504
 21
465.217357
 31
0.0
 12
-601.377504
 22
473.255196
 32
0.0
 13
-601.377504
 23
473.255196
 33
0.0
  0
SOLID
  5
2A0
  8
NOTE
  6
CONTINUOUS
 62
     4
 10
-599.712813
 20
464.886229
 30
0.0
 11
-601.377504
 21
473.255196
 31
0.0
 12
-601.377504
 22
465.217357
 32
0.0
 13
-601.377504
 23
465.217357
 33
0.0
  0
SOLID
  5
2A1
  8
NOTE
  6
CONTINUOUS
 62
     4
 10
-601.377504
 20
473.255196
 30
0.0
 11
-599.712813
 21
464.886229
 31
0.0
 12
-599.712813
 22
473.586323
 32
0.0
 13
-599.712813
 23
473.586323
 33
0.0
  0
SOLID
  5
2A2
  8
NOTE
  6
CONTINUOUS
 62
     4
 10
-598.048122
 20
465.217357
 30
0.0
 11
-599.712813
 21
473.586323
 31
0.0
 12
-599.712813
 22
464.886229
 32
0.0
 13
-599.712813
 23
464.886229
 33
0.0
  0
SOLID
  5
2A3
  8
NOTE
  6
CONTINUOUS
 62
     4
 10
-599.712813
 20
473.586323
 30
0.0
 11
-598.048122
 21
465.217357
 31
0.0
 12
-598.048122
 22
473.255196
 32
0.0
 13
-598.048122
 23
473.255196
 33
0.0
  0
SOLID
  5
2A4
  8
NOTE
  6
CONTINUOUS
 62
     4
 10
-596.636866
 20
466.160328
 30
0.0
 11
-598.048122
 21
473.255196
 31
0.0
 12
-598.048122
 22
465.217357
 32
0.0
 13
-598.048122
 23
465.217357
 33
0.0
  0
SOLID
  5
2A5
  8
NOTE
  6
CONTINUOUS
 62
     4
 10
-598.048122
 20
473.255196
 30
0.0
 11
-596.636866
 21
466.160328
 31
0.0
 12
-596.636866
 22
472.312224
 32
0.0
 13
-596.636866
 23
472.312224
 33
0.0
  0
SOLID
  5
2A6
  8
NOTE
  6
CONTINUOUS
 62
     4
 10
-595.693894
 20
467.571585
 30
0.0
 11
-596.636866
 21
472.312224
 31
0.0
 12
-596.636866
 22
466.160328
 32
0.0
 13
-596.636866
 23
466.160328
 33
0.0
  0
SOLID
  5
2A7
  8
NOTE
  6
CONTINUOUS
 62
     4
 10
-596.636866
 20
472.312224
 30
0.0
 11
-595.693894
 21
467.571585
 31
0.0
 12
-595.693894
 22
470.900967
 32
0.0
 13
-595.693894
 23
470.900967
 33
0.0
  0
SOLID
  5
2A8
  8
NOTE
  6
CONTINUOUS
 62
     4
 10
-595.362766
 20
469.236276
 30
0.0
 11
-595.693894
 21
470.900967
 31
0.0
 12
-595.693894
 22
467.571585
 32
0.0
 13
-595.693894
 23
467.571585
 33
0.0
  0
CIRCLE
  5
2A9
  8
NOTE
  6
CONTINUOUS
 62
     4
 10
-599.712813
 20
469.236276
 30
0.0
 40
4.350047
  0
TEXT
  5
2AA
  8
NOTE
  6
CONTINUOUS
 62
     4
 10
-1045.639246
 20
624.342245
 30
0.0
 40
64.0
  1
防風板
 41
0.9
  0
LINE
  5
2AB
  8
SIZE
  6
CONTINUOUS
 62
    30
 10
-687.5
 20
672.000007
 30
0.0
 11
-687.5
 21
856.920095
 31
0.0
  0
POINT
  5
2AC
  8
DEFPOINTS
  6
CONTINUOUS
 62
     7
 10
-687.5
 20
652.000007
 30
0.0
  0
LINE
  5
2AD
  8
SIZE
  6
CONTINUOUS
 62
    30
 10
-682.5
 20
826.920095
 30
0.0
 11
-677.5
 21
826.920095
 31
0.0
  0
CIRCLE
  5
2AE
  8
SIZE
  6
CONTINUOUS
 62
    30
 10
-687.5
 20
826.920095
 30
0.0
 40
5.0
  0
LINE
  5
2AF
  8
BASIS
  6
DASHDOT
 62
     6
 10
0.0
 20
705.693716
 30
0.0
 11
0.0
 21
-709.529794
 31
0.0
  0
CIRCLE
  5
2B0
  8
ARRANGE
  6
CONTINUOUS
 62
     1
 10
0.0
 20
0.0
 30
0.0
 40
42.5
  0
TEXT
  5
2B1
  8
SIZE
  6
CONTINUOUS
 62
    30
 10
1100.316559
 20
-57.042854
 30
0.0
 40
55.0
  1
630
 50
90.0
 41
0.9
 72
     1
 11
1100.316559
 21
6.600003
 31
0.0
  0
LINE
  5
2B2
  8
SIZE
  6
CONTINUOUS
 62
    30
 10
1115.316559
 20
-298.4
 30
0.0
 11
1115.316559
 21
311.600007
 31
0.0
  0
LINE
  5
2B3
  8
ARRANGE
  6
CONTINUOUS
 62
     1
 10
42.469199
 20
42.157106
 30
0.0
 11
-42.469199
 21
-42.157106
 31
0.0
  0
LINE
  5
2B4
  8
ARRANGE
  6
CONTINUOUS
 62
     1
 10
42.531748
 20
-42.094
 30
0.0
 11
-42.531748
 21
42.094
 31
0.0
  0
TEXT
  5
2B5
  8
SIZE
  6
CONTINUOUS
 62
    30
 10
1435.951764
 20
-76.648895
 30
0.0
 40
55.0
  1
1289
 50
90.0
 41
0.9
 72
     1
 11
1435.951764
 21
4.672534
 31
0.0
  0
LINE
  5
2B6
  8
SIZE
  6
CONTINUOUS
 62
    30
 10
1450.951764
 20
642.000007
 30
0.0
 11
1450.951764
 21
-627.0
 31
0.0
  0
TEXT
  5
2B7
  8
SIZE
  6
CONTINUOUS
 62
    30
 10
1257.364446
 20
-56.816941
 30
0.0
 40
55.0
  1
669
 50
90.0
 41
0.9
 72
     1
 11
1257.364446
 21
5.647345
 31
0.0
  0
LINE
  5
2B8
  8
SIZE
  6
CONTINUOUS
 62
    30
 10
1272.364446
 20
331.6
 30
0.0
 11
1272.364446
 21
-317.4
 31
0.0
  0
LINE
  5
2B9
  8
DETAIL
  6
CONTINUOUS
 62
     5
 10
687.5
 20
-637.0
 30
0.0
 11
687.5
 21
652.000007
 31
0.0
  0
LINE
  5
2BA
  8
SIZE
  6
CONTINUOUS
 62
    30
 10
341.106909
 20
-281.4
 30
0.0
 11
1011.186268
 21
-281.4
 31
0.0
  0
LINE
  5
2BB
  8
SIZE
  6
CONTINUOUS
 62
    30
 10
570.000006
 20
-737.542736
 30
0.0
 11
10.0
 21
-737.542736
 31
0.0
  0
LINE
  5
2BC
  8
SIZE
  6
CONTINUOUS
 62
    30
 10
677.5
 20
-542.406299
 30
0.0
 11
315.500082
 21
-542.406299
 31
0.0
  0
LINE
  5
2BD
  8
SIZE
  6
CONTINUOUS
 62
    30
 10
677.5
 20
-436.121223
 30
0.0
 11
372.500082
 21
-436.121223
 31
0.0
  0
LINE
  5
2BE
  8
SIZE
  6
CONTINUOUS
 62
    30
 10
0.0
 20
-341.671423
 30
0.0
 11
0.0
 21
-767.542736
 31
0.0
  0
LINE
  5
2BF
  8
SIZE
  6
CONTINUOUS
 62
    30
 10
0.0
 20
-341.671423
 30
0.0
 11
0.0
 21
-767.542736
 31
0.0
  0
LINE
  5
2C0
  8
SIZE
  6
CONTINUOUS
 62
    30
 10
5.0
 20
-737.542736
 30
0.0
 11
10.0
 21
-737.542736
 31
0.0
  0
LINE
  5
2C1
  8
SIZE
  6
CONTINUOUS
 62
    30
 10
-5.0
 20
-737.542736
 30
0.0
 11
-10.0
 21
-737.542736
 31
0.0
  0
CIRCLE
  5
2C2
  8
SIZE
  6
CONTINUOUS
 62
    30
 10
0.0
 20
-737.542736
 30
0.0
 40
5.0
  0
POINT
  5
2C3
  8
DEFPOINTS
  6
CONTINUOUS
 62
     7
 10
0.0
 20
-737.542736
 30
0.0
  0
CIRCLE
  5
2C4
  8
SIZE
  6
CONTINUOUS
 62
    30
 10
0.0
 20
-737.542736
 30
0.0
 40
5.0
  0
TEXT
  5
2C5
  8
SIZE
  6
CONTINUOUS
 62
    30
 10
226.357146
 20
-722.542736
 30
0.0
 40
55.0
  1
580
 41
0.9
 72
     1
 11
290.000003
 21
-722.542736
 31
0.0
  0
LINE
  5
2C6
  8
NOTE
  6
CONTINUOUS
 62
     4
 10
-53.140947
 20
-458.297927
 30
0.0
 11
305.500239
 21
-281.499939
 31
0.0
  0
LINE
  5
2C7
  8
NOTE
  6
CONTINUOUS
 62
     4
 10
-80.370242
 20
-591.043669
 30
0.0
 11
362.50014
 21
-281.399972
 31
0.0
  0
CIRCLE
  5
2C8
  8
DETAIL
  6
CONTINUOUS
 62
     5
 10
0.0
 20
-308.4
 30
0.0
 40
8.0
  0
CIRCLE
  5
2C9
  8
FIX
  6
CONTINUOUS
 62
    11
 10
0.0
 20
-308.4
 30
0.0
 40
10.310021
  0
LINE
  5
2CA
  8
NOTE
  6
CONTINUOUS
 62
     4
 10
0.0
 20
-321.671423
 30
0.0
 11
0.0
 21
-295.128578
 31
0.0
  0
LINE
  5
2CB
  8
NOTE
  6
CONTINUOUS
 62
     4
 10
-13.271422
 20
-308.4
 30
0.0
 11
13.271422
 21
-308.4
 31
0.0
  0
POINT
  5
2CC
  8
DEFPOINTS
  6
CONTINUOUS
 62
     7
 10
0.0
 20
-321.671423
 30
0.0
  0
POINT
  5
2CD
  8
DEFPOINTS
  6
CONTINUOUS
 62
     7
 10
0.0
 20
-321.671423
 30
0.0
  0
LINE
  5
2CE
  8
SIZE
  6
CONTINUOUS
 62
    30
 10
305.500082
 20
-340.606709
 30
0.0
 11
305.500082
 21
-572.406299
 31
0.0
  0
POINT
  5
2CF
  8
DEFPOINTS
  6
CONTINUOUS
 62
     7
 10
305.500082
 20
-542.406299
 30
0.0
  0
LINE
  5
2D0
  8
SIZE
  6
CONTINUOUS
 62
    30
 10
310.500082
 20
-542.406299
 30
0.0
 11
315.500082
 21
-542.406299
 31
0.0
  0
CIRCLE
  5
2D1
  8
SIZE
  6
CONTINUOUS
 62
    30
 10
305.500082
 20
-542.406299
 30
0.0
 40
5.0
  0
POINT
  5
2D2
  8
DEFPOINTS
  6
CONTINUOUS
 62
     7
 10
305.500082
 20
-320.606709
 30
0.0
  0
LINE
  5
2D3
  8
SIZE
  6
CONTINUOUS
 62
    30
 10
362.500082
 20
-340.606709
 30
0.0
 11
362.500082
 21
-466.121223
 31
0.0
  0
TEXT
  5
2D4
  8
SIZE
  6
CONTINUOUS
 62
    30
 10
432.857184
 20
-527.406299
 30
0.0
 40
55.0
  1
382
 41
0.9
 72
     1
 11
496.500041
 21
-527.406299
 31
0.0
  0
TEXT
  5
2D5
  8
SIZE
  6
CONTINUOUS
 62
    30
 10
430.126259
 20
-421.121223
 30
0.0
 40
55.0
  1
325
 41
0.9
 72
     1
 11
493.769116
 21
-421.121223
 31
0.0
  0
POINT
  5
2D6
  8
DEFPOINTS
  6
CONTINUOUS
 62
     7
 10
362.500082
 20
-436.121223
 30
0.0
  0
POINT
  5
2D7
  8
DEFPOINTS
  6
CONTINUOUS
 62
     7
 10
362.500082
 20
-320.606709
 30
0.0
  0
LINE
  5
2D8
  8
SIZE
  6
CONTINUOUS
 62
    30
 10
367.500082
 20
-436.121223
 30
0.0
 11
372.500082
 21
-436.121223
 31
0.0
  0
CIRCLE
  5
2D9
  8
SIZE
  6
CONTINUOUS
 62
    30
 10
362.500082
 20
-436.121223
 30
0.0
 40
5.0
  0
LINE
  5
2DA
  8
NOTE
  6
CONTINUOUS
 62
     4
 10
362.500143
 20
-281.399978
 30
0.0
 11
341.056188
 21
-306.919927
 31
0.0
  0
LINE
  5
2DB
  8
NOTE
  6
CONTINUOUS
 62
     4
 10
362.500143
 20
-281.399978
 30
0.0
 11
331.169158
 21
-292.778924
 31
0.0
  0
POINT
  5
2DC
  8
DEFPOINTS
  6
CONTINUOUS
 62
     7
 10
321.106909
 20
-281.4
 30
0.0
  0
LINE
  5
2DD
  8
NOTE
  6
CONTINUOUS
 62
     4
 10
305.500241
 20
-281.499946
 30
0.0
 11
272.806462
 21
-287.998243
 31
0.0
  0
LINE
  5
2DE
  8
NOTE
  6
CONTINUOUS
 62
     4
 10
305.500241
 20
-281.499946
 30
0.0
 11
280.435747
 21
-303.474526
 31
0.0
  0
LINE
  5
2DF
  8
NOTE
  6
CONTINUOUS
 62
     4
 10
305.500243
 20
-265.793334
 30
0.0
 11
305.500243
 21
-297.006666
 31
0.0
  0
LINE
  5
2E0
  8
NOTE
  6
CONTINUOUS
 62
     4
 10
321.106909
 20
-281.5
 30
0.0
 11
289.893577
 21
-281.5
 31
0.0
  0
LINE
  5
2E1
  8
NOTE
  6
CONTINUOUS
 62
     4
 10
362.500243
 20
-265.793334
 30
0.0
 11
362.500243
 21
-297.006666
 31
0.0
  0
LINE
  5
2E2
  8
NOTE
  6
CONTINUOUS
 62
     4
 10
378.106909
 20
-281.4
 30
0.0
 11
346.893577
 21
-281.4
 31
0.0
  0
LINE
  5
2E3
  8
NOTE
  6
CONTINUOUS
 62
     4
 10
1119.020324
 20
-813.989999
 30
0.0
 11
579.999917
 21
-308.40001
 31
0.0
  0
LINE
  5
2E4
  8
SIZE
  6
CONTINUOUS
 62
    30
 10
580.000006
 20
-341.671423
 30
0.0
 11
580.000006
 21
-767.542736
 31
0.0
  0
LINE
  5
2E5
  8
SIZE
  6
CONTINUOUS
 62
    30
 10
580.000006
 20
-341.671423
 30
0.0
 11
580.000006
 21
-767.542736
 31
0.0
  0
LINE
  5
2E6
  8
SIZE
  6
CONTINUOUS
 62
    30
 10
687.5
 20
-325.0
 30
0.0
 11
687.5
 21
-767.542736
 31
0.0
  0
TEXT
  5
2E7
  8
SIZE
  6
CONTINUOUS
 62
    30
 10
712.5
 20
-722.542736
 30
0.0
 40
55.0
  1
107.5
 41
0.9
 72
     1
 11
806.785714
 21
-722.542736
 31
0.0
  0
LINE
  5
2E8
  8
SIZE
  6
CONTINUOUS
 62
    30
 10
687.5
 20
-737.542736
 30
0.0
 11
916.071429
 21
-737.542736
 31
0.0
  0
LINE
  5
2E9
  8
SIZE
  6
CONTINUOUS
 62
    30
 10
682.5
 20
-737.542736
 30
0.0
 11
677.5
 21
-737.542736
 31
0.0
  0
LINE
  5
2EA
  8
SIZE
  6
CONTINUOUS
 62
    30
 10
575.000006
 20
-737.542736
 30
0.0
 11
570.000006
 21
-737.542736
 31
0.0
  0
CIRCLE
  5
2EB
  8
SIZE
  6
CONTINUOUS
 62
    30
 10
580.000006
 20
-737.542736
 30
0.0
 40
5.0
  0
POINT
  5
2EC
  8
DEFPOINTS
  6
CONTINUOUS
 62
     7
 10
580.000006
 20
-737.542736
 30
0.0
  0
LINE
  5
2ED
  8
SIZE
  6
CONTINUOUS
 62
    30
 10
585.000006
 20
-737.542736
 30
0.0
 11
590.000006
 21
-737.542736
 31
0.0
  0
CIRCLE
  5
2EE
  8
SIZE
  6
CONTINUOUS
 62
    30
 10
580.000006
 20
-737.542736
 30
0.0
 40
5.0
  0
LINE
  5
2EF
  8
SIZE
  6
CONTINUOUS
 62
    30
 10
590.000006
 20
-737.542736
 30
0.0
 11
677.5
 21
-737.542736
 31
0.0
  0
CIRCLE
  5
2F0
  8
SIZE
  6
CONTINUOUS
 62
    30
 10
687.5
 20
-737.542736
 30
0.0
 40
5.0
  0
POINT
  5
2F1
  8
DEFPOINTS
  6
CONTINUOUS
 62
     7
 10
687.5
 20
-637.0
 30
0.0
  0
POINT
  5
2F2
  8
DEFPOINTS
  6
CONTINUOUS
 62
     7
 10
1450.951764
 20
-637.0
 30
0.0
  0
LINE
  5
2F3
  8
SIZE
  6
CONTINUOUS
 62
    30
 10
1450.951764
 20
-632.0
 30
0.0
 11
1450.951764
 21
-627.0
 31
0.0
  0
CIRCLE
  5
2F4
  8
SIZE
  6
CONTINUOUS
 62
    30
 10
1450.951764
 20
-637.0
 30
0.0
 40
5.0
  0
LINE
  5
2F5
  8
SIZE
  6
CONTINUOUS
 62
    30
 10
613.271429
 20
-308.4
 30
0.0
 11
1145.316559
 21
-308.4
 31
0.0
  0
LINE
  5
2F6
  8
SIZE
  6
CONTINUOUS
 62
    30
 10
676.500007
 20
-327.4
 30
0.0
 11
1302.364446
 21
-327.4
 31
0.0
  0
LINE
  5
2F7
  8
SIZE
  6
CONTINUOUS
 62
    30
 10
613.271429
 20
-308.4
 30
0.0
 11
1145.316559
 21
-308.4
 31
0.0
  0
LINE
  5
2F8
  8
SIZE
  6
CONTINUOUS
 62
    30
 10
676.500007
 20
-327.4
 30
0.0
 11
1145.316559
 21
-327.4
 31
0.0
  0
LINE
  5
2F9
  8
SIZE
  6
CONTINUOUS
 62
    30
 10
861.232623
 20
-283.4
 30
0.0
 11
861.232623
 21
-327.4
 31
0.0
  0
LINE
  5
2FA
  8
SIZE
  6
CONTINUOUS
 62
    30
 10
981.186268
 20
-281.4
 30
0.0
 11
981.186268
 21
-327.4
 31
0.0
  0
CIRCLE
  5
2FB
  8
DETAIL
  6
CONTINUOUS
 62
     5
 10
580.000006
 20
-308.4
 30
0.0
 40
8.0
  0
CIRCLE
  5
2FC
  8
FIX
  6
CONTINUOUS
 62
    11
 10
580.000006
 20
-308.4
 30
0.0
 40
10.310021
  0
LINE
  5
2FD
  8
NOTE
  6
CONTINUOUS
 62
     4
 10
580.000006
 20
-321.671423
 30
0.0
 11
580.000006
 21
-295.128578
 31
0.0
  0
LINE
  5
2FE
  8
DETAIL
  6
CONTINUOUS
 62
     5
 10
656.500007
 20
-327.4
 30
0.0
 11
687.5
 21
-296.400008
 31
0.0
  0
LINE
  5
2FF
  8
SIZE
  6
CONTINUOUS
 62
    30
 10
676.500007
 20
-327.4
 30
0.0
 11
891.232623
 21
-327.4
 31
0.0
  0
LINE
  5
300
  8
SIZE
  6
CONTINUOUS
 62
    30
 10
676.500007
 20
-327.4
 30
0.0
 11
1011.186268
 21
-327.4
 31
0.0
  0
LINE
  5
301
  8
SIZE
  6
CONTINUOUS
 62
    30
 10
687.5
 20
-325.0
 30
0.0
 11
687.5
 21
-572.406299
 31
0.0
  0
LINE
  5
302
  8
SIZE
  6
CONTINUOUS
 62
    30
 10
687.5
 20
-325.0
 30
0.0
 11
687.5
 21
-466.121223
 31
0.0
  0
LINE
  5
303
  8
SIZE
  6
CONTINUOUS
 62
    30
 10
682.5
 20
-542.406299
 30
0.0
 11
677.5
 21
-542.406299
 31
0.0
  0
CIRCLE
  5
304
  8
SIZE
  6
CONTINUOUS
 62
    30
 10
687.5
 20
-542.406299
 30
0.0
 40
5.0
  0
LINE
  5
305
  8
SIZE
  6
CONTINUOUS
 62
    30
 10
682.5
 20
-436.121223
 30
0.0
 11
677.5
 21
-436.121223
 31
0.0
  0
POINT
  5
306
  8
DEFPOINTS
  6
CONTINUOUS
 62
     7
 10
593.271429
 20
-308.4
 30
0.0
  0
POINT
  5
307
  8
DEFPOINTS
  6
CONTINUOUS
 62
     7
 10
656.500007
 20
-327.4
 30
0.0
  0
POINT
  5
308
  8
DEFPOINTS
  6
CONTINUOUS
 62
     7
 10
656.500007
 20
-327.4
 30
0.0
  0
LINE
  5
309
  8
NOTE
  6
CONTINUOUS
 62
     4
 10
579.999923
 20
-308.400006
 30
0.0
 11
597.581428
 21
-336.719641
 31
0.0
  0
LINE
  5
30A
  8
NOTE
  6
CONTINUOUS
 62
     4
 10
579.999923
 20
-308.400006
 30
0.0
 11
609.38577
 21
-324.134776
 31
0.0
  0
POINT
  5
30B
  8
DEFPOINTS
  6
CONTINUOUS
 62
     7
 10
580.000006
 20
-321.671423
 30
0.0
  0
POINT
  5
30C
  8
DEFPOINTS
  6
CONTINUOUS
 62
     7
 10
580.000006
 20
-321.671423
 30
0.0
  0
POINT
  5
30D
  8
DEFPOINTS
  6
CONTINUOUS
 62
     7
 10
656.500007
 20
-327.4
 30
0.0
  0
POINT
  5
30E
  8
DEFPOINTS
  6
CONTINUOUS
 62
     7
 10
593.271429
 20
-308.4
 30
0.0
  0
POINT
  5
30F
  8
DEFPOINTS
  6
CONTINUOUS
 62
     7
 10
656.500007
 20
-327.4
 30
0.0
  0
LINE
  5
310
  8
NOTE
  6
CONTINUOUS
 62
     4
 10
566.728584
 20
-308.4
 30
0.0
 11
593.271429
 21
-308.4
 31
0.0
  0
CIRCLE
  5
311
  8
SIZE
  6
CONTINUOUS
 62
    30
 10
687.5
 20
-436.121223
 30
0.0
 40
5.0
  0
TEXT
  5
312
  8
SIZE
  6
CONTINUOUS
 62
    30
 10
846.232623
 20
-444.9
 30
0.0
 40
55.0
  1
44
 50
90.0
 41
0.9
 72
     1
 11
846.232623
 21
-403.65
 31
0.0
  0
LINE
  5
313
  8
SIZE
  6
CONTINUOUS
 62
    30
 10
861.232623
 20
-332.4
 30
0.0
 11
861.232623
 21
-337.4
 31
0.0
  0
CIRCLE
  5
314
  8
SIZE
  6
CONTINUOUS
 62
    30
 10
861.232623
 20
-327.4
 30
0.0
 40
5.0
  0
LINE
  5
315
  8
SIZE
  6
CONTINUOUS
 62
    30
 10
861.232623
 20
-337.4
 30
0.0
 11
861.232623
 21
-459.9
 31
0.0
  0
TEXT
  5
316
  8
SIZE
  6
CONTINUOUS
 62
    30
 10
966.186268
 20
-440.185714
 30
0.0
 40
55.0
  1
46
 50
90.0
 41
0.9
 72
     1
 11
966.186268
 21
-401.292857
 31
0.0
  0
LINE
  5
317
  8
SIZE
  6
CONTINUOUS
 62
    30
 10
981.186268
 20
-332.4
 30
0.0
 11
981.186268
 21
-337.4
 31
0.0
  0
CIRCLE
  5
318
  8
SIZE
  6
CONTINUOUS
 62
    30
 10
981.186268
 20
-327.4
 30
0.0
 40
5.0
  0
LINE
  5
319
  8
SIZE
  6
CONTINUOUS
 62
    30
 10
981.186268
 20
-337.4
 30
0.0
 11
981.186268
 21
-455.185715
 31
0.0
  0
LINE
  5
31A
  8
SIZE
  6
CONTINUOUS
 62
    30
 10
707.5
 20
-283.4
 30
0.0
 11
891.232623
 21
-283.4
 31
0.0
  0
POINT
  5
31B
  8
DEFPOINTS
  6
CONTINUOUS
 62
     7
 10
687.5
 20
-283.4
 30
0.0
  0
POINT
  5
31C
  8
DEFPOINTS
  6
CONTINUOUS
 62
     7
 10
687.5
 20
-305.0
 30
0.0
  0
POINT
  5
31D
  8
DEFPOINTS
  6
CONTINUOUS
 62
     7
 10
687.5
 20
-305.0
 30
0.0
  0
POINT
  5
31E
  8
DEFPOINTS
  6
CONTINUOUS
 62
     7
 10
687.5
 20
-305.0
 30
0.0
  0
POINT
  5
31F
  8
DEFPOINTS
  6
CONTINUOUS
 62
     7
 10
861.232623
 20
-283.4
 30
0.0
  0
LINE
  5
320
  8
SIZE
  6
CONTINUOUS
 62
    30
 10
861.232623
 20
-278.4
 30
0.0
 11
861.232623
 21
-273.4
 31
0.0
  0
CIRCLE
  5
321
  8
SIZE
  6
CONTINUOUS
 62
    30
 10
861.232623
 20
-283.4
 30
0.0
 40
5.0
  0
LINE
  5
322
  8
SIZE
  6
CONTINUOUS
 62
    30
 10
861.232623
 20
-273.4
 30
0.0
 11
861.232623
 21
-263.4
 31
0.0
  0
POINT
  5
323
  8
DEFPOINTS
  6
CONTINUOUS
 62
     7
 10
981.186268
 20
-281.4
 30
0.0
  0
LINE
  5
324
  8
SIZE
  6
CONTINUOUS
 62
    30
 10
981.186268
 20
-276.4
 30
0.0
 11
981.186268
 21
-271.4
 31
0.0
  0
CIRCLE
  5
325
  8
SIZE
  6
CONTINUOUS
 62
    30
 10
981.186268
 20
-281.4
 30
0.0
 40
5.0
  0
LINE
  5
326
  8
SIZE
  6
CONTINUOUS
 62
    30
 10
981.186268
 20
-271.4
 30
0.0
 11
981.186268
 21
-261.4
 31
0.0
  0
CIRCLE
  5
327
  8
SIZE
  6
CONTINUOUS
 62
    30
 10
1115.316559
 20
-308.4
 30
0.0
 40
5.0
  0
CIRCLE
  5
328
  8
SIZE
  6
CONTINUOUS
 62
    30
 10
1115.316559
 20
-308.4
 30
0.0
 40
5.0
  0
POINT
  5
329
  8
DEFPOINTS
  6
CONTINUOUS
 62
     7
 10
1115.316559
 20
-308.4
 30
0.0
  0
TEXT
  5
32A
  8
SIZE
  6
CONTINUOUS
 62
    30
 10
1100.316559
 20
-430.757143
 30
0.0
 40
55.0
  1
19
 50
90.0
 41
0.9
 72
     1
 11
1100.316559
 21
-396.578572
 31
0.0
  0
LINE
  5
32B
  8
SIZE
  6
CONTINUOUS
 62
    30
 10
1115.316559
 20
-332.4
 30
0.0
 11
1115.316559
 21
-337.4
 31
0.0
  0
CIRCLE
  5
32C
  8
SIZE
  6
CONTINUOUS
 62
    30
 10
1115.316559
 20
-327.4
 30
0.0
 40
5.0
  0
LINE
  5
32D
  8
SIZE
  6
CONTINUOUS
 62
    30
 10
1115.316559
 20
-308.4
 30
0.0
 11
1115.316559
 21
-327.4
 31
0.0
  0
LINE
  5
32E
  8
SIZE
  6
CONTINUOUS
 62
    30
 10
1115.316559
 20
-337.4
 30
0.0
 11
1115.316559
 21
-445.757143
 31
0.0
  0
POINT
  5
32F
  8
DEFPOINTS
  6
CONTINUOUS
 62
     7
 10
1272.364446
 20
-327.4
 30
0.0
  0
LINE
  5
330
  8
SIZE
  6
CONTINUOUS
 62
    30
 10
1272.364446
 20
-322.4
 30
0.0
 11
1272.364446
 21
-317.4
 31
0.0
  0
CIRCLE
  5
331
  8
SIZE
  6
CONTINUOUS
 62
    30
 10
1272.364446
 20
-327.4
 30
0.0
 40
5.0
  0
LINE
  5
332
  8
SIZE
  6
CONTINUOUS
 62
    30
 10
1115.316559
 20
-303.4
 30
0.0
 11
1115.316559
 21
-298.4
 31
0.0
  0
LINE
  5
333
  8
SIZE
  6
CONTINUOUS
 62
    30
 10
1115.316559
 20
-303.4
 30
0.0
 11
1115.316559
 21
-298.4
 31
0.0
  0
LINE
  5
334
  8
SIZE
  6
CONTINUOUS
 62
    30
 10
1115.316559
 20
-298.4
 30
0.0
 11
1115.316559
 21
-288.4
 31
0.0
  0
CIRCLE
  5
335
  8
FIX
  6
CONTINUOUS
 62
    11
 10
0.0
 20
321.600007
 30
0.0
 40
10.310021
  0
LINE
  5
336
  8
NOTE
  6
CONTINUOUS
 62
     4
 10
-13.271422
 20
321.600007
 30
0.0
 11
13.271422
 21
321.600007
 31
0.0
  0
CIRCLE
  5
337
  8
DETAIL
  6
CONTINUOUS
 62
     5
 10
0.0
 20
321.600007
 30
0.0
 40
8.0
  0
LINE
  5
338
  8
NOTE
  6
CONTINUOUS
 62
     4
 10
0.0
 20
308.328584
 30
0.0
 11
0.0
 21
334.871429
 31
0.0
  0
TEXT
  5
339
  8
SIZE
  6
CONTINUOUS
 62
    30
 10
-82.5
 20
841.920095
 30
0.0
 40
55.0
  1
1375
 41
0.9
 72
     1
 11
0.0
 21
841.920095
 31
0.0
  0
LINE
  5
33A
  8
SIZE
  6
CONTINUOUS
 62
    30
 10
613.271429
 20
321.600007
 30
0.0
 11
1145.316559
 21
321.600007
 31
0.0
  0
LINE
  5
33B
  8
SIZE
  6
CONTINUOUS
 62
    30
 10
676.300015
 20
341.6
 30
0.0
 11
1302.364446
 21
341.6
 31
0.0
  0
LINE
  5
33C
  8
DETAIL
  6
CONTINUOUS
 62
     5
 10
687.5
 20
310.400014
 30
0.0
 11
656.300015
 21
341.6
 31
0.0
  0
POINT
  5
33D
  8
DEFPOINTS
  6
CONTINUOUS
 62
     7
 10
593.271429
 20
321.600007
 30
0.0
  0
POINT
  5
33E
  8
DEFPOINTS
  6
CONTINUOUS
 62
     7
 10
656.300015
 20
341.6
 30
0.0
  0
CIRCLE
  5
33F
  8
FIX
  6
CONTINUOUS
 62
    11
 10
580.000006
 20
321.600007
 30
0.0
 40
10.310021
  0
LINE
  5
340
  8
NOTE
  6
CONTINUOUS
 62
     4
 10
580.000006
 20
308.328584
 30
0.0
 11
580.000006
 21
334.871429
 31
0.0
  0
LINE
  5
341
  8
NOTE
  6
CONTINUOUS
 62
     4
 10
566.728584
 20
321.600007
 30
0.0
 11
593.271429
 21
321.600007
 31
0.0
  0
CIRCLE
  5
342
  8
DETAIL
  6
CONTINUOUS
 62
     5
 10
580.000006
 20
321.600007
 30
0.0
 40
8.0
  0
POINT
  5
343
  8
DEFPOINTS
  6
CONTINUOUS
 62
     7
 10
1115.316559
 20
321.600007
 30
0.0
  0
LINE
  5
344
  8
SIZE
  6
CONTINUOUS
 62
    30
 10
1115.316559
 20
316.600007
 30
0.0
 11
1115.316559
 21
311.600007
 31
0.0
  0
CIRCLE
  5
345
  8
SIZE
  6
CONTINUOUS
 62
    30
 10
1115.316559
 20
321.600007
 30
0.0
 40
5.0
  0
LINE
  5
346
  8
SIZE
  6
CONTINUOUS
 62
    30
 10
1272.364446
 20
336.6
 30
0.0
 11
1272.364446
 21
331.6
 31
0.0
  0
CIRCLE
  5
347
  8
SIZE
  6
CONTINUOUS
 62
    30
 10
1272.364446
 20
341.6
 30
0.0
 40
5.0
  0
LINE
  5
348
  8
SIZE
  6
CONTINUOUS
 62
    30
 10
687.5
 20
672.000007
 30
0.0
 11
687.5
 21
856.920095
 31
0.0
  0
POINT
  5
349
  8
DEFPOINTS
  6
CONTINUOUS
 62
     7
 10
687.5
 20
652.000007
 30
0.0
  0
POINT
  5
34A
  8
DEFPOINTS
  6
CONTINUOUS
 62
     7
 10
687.5
 20
652.000007
 30
0.0
  0
LINE
  5
34B
  8
SIZE
  6
CONTINUOUS
 62
    30
 10
682.5
 20
826.920095
 30
0.0
 11
677.5
 21
826.920095
 31
0.0
  0
POINT
  5
34C
  8
DEFPOINTS
  6
CONTINUOUS
 62
     7
 10
687.5
 20
826.920095
 30
0.0
  0
CIRCLE
  5
34D
  8
SIZE
  6
CONTINUOUS
 62
    30
 10
687.5
 20
826.920095
 30
0.0
 40
5.0
  0
LINE
  5
34E
  8
SIZE
  6
CONTINUOUS
 62
    30
 10
1450.951764
 20
647.000007
 30
0.0
 11
1450.951764
 21
642.000007
 31
0.0
  0
CIRCLE
  5
34F
  8
SIZE
  6
CONTINUOUS
 62
    30
 10
1450.951764
 20
652.000007
 30
0.0
 40
5.0
  0
ENDSEC
  0
EOF
