  0
SECTION
  2
HEADER
  9
$ACADVER
  1
AC1009
  9
$INSBASE
 10
0.0
 20
0.0
 30
0.0
  9
$EXTMIN
 10
-1038.788065
 20
-880.744719
 30
0.0
  9
$EXTMAX
 10
1409.369691
 20
904.492558
 30
0.0
  9
$LIMMIN
 10
-4200.0
 20
-2970.0
  9
$LIMMAX
 10
4200.0
 20
2970.0
  9
$ORTHOMODE
 70
     0
  9
$REGENMODE
 70
     1
  9
$FILLMODE
 70
     1
  9
$QTEXTMODE
 70
     0
  9
$MIRRTEXT
 70
     0
  9
$DRAGMODE
 70
     2
  9
$LTSCALE
 40
20.0
  9
$OSMODE
 70
  2081
  9
$ATTMODE
 70
     1
  9
$TEXTSIZE
 40
64.0
  9
$TRACEWID
 40
0.05
  9
$TEXTSTYLE
  7
STANDARD
  9
$CLAYER
  8
SIZE
  9
$CELTYPE
  6
CONTINUOUS
  9
$CECOLOR
 62
     7
  9
$DIMSCALE
 40
1.0
  9
$DIMASZ
 40
10.0
  9
$DIMEXO
 40
20.0
  9
$DIMDLI
 40
200.0
  9
$DIMRND
 40
0.0
  9
$DIMDLE
 40
0.0
  9
$DIMEXE
 40
30.0
  9
$DIMTP
 40
0.0
  9
$DIMTM
 40
0.0
  9
$DIMTXT
 40
64.0
  9
$DIMCEN
 40
0.0
  9
$DIMTSZ
 40
0.0
  9
$DIMTOL
 70
     0
  9
$DIMLIM
 70
     0
  9
$DIMTIH
 70
     0
  9
$DIMTOH
 70
     0
  9
$DIMSE1
 70
     0
  9
$DIMSE2
 70
     0
  9
$DIMTAD
 70
     1
  9
$DIMZIN
 70
     8
  9
$DIMBLK
  1
DOTBLANK
  9
$DIMASO
 70
     1
  9
$DIMSHO
 70
     0
  9
$DIMPOST
  1

  9
$DIMAPOST
  1

  9
$DIMALT
 70
     0
  9
$DIMALTD
 70
     2
  9
$DIMALTF
 40
25.4
  9
$DIMLFAC
 40
1.0
  9
$DIMTOFL
 70
     1
  9
$DIMTVP
 40
0.0
  9
$DIMTIX
 70
     1
  9
$DIMSOXD
 70
     0
  9
$DIMSAH
 70
     0
  9
$DIMBLK1
  1

  9
$DIMBLK2
  1

  9
$DIMSTYLE
  2
STANDARD
  9
$DIMCLRD
 70
     0
  9
$DIMCLRE
 70
     0
  9
$DIMCLRT
 70
     0
  9
$DIMTFAC
 40
1.0
  9
$DIMGAP
 40
0.09
  9
$LUNITS
 70
     2
  9
$LUPREC
 70
     4
  9
$SKETCHINC
 40
0.1
  9
$FILLETRAD
 40
0.0
  9
$AUNITS
 70
     1
  9
$AUPREC
 70
     3
  9
$MENU
  1
ACAD
  9
$ELEVATION
 40
0.0
  9
$PELEVATION
 40
0.0
  9
$THICKNESS
 40
0.0
  9
$LIMCHECK
 70
     0
  9
$BLIPMODE
 70
     0
  9
$CHAMFERA
 40
0.0
  9
$CHAMFERB
 40
0.0
  9
$SKPOLY
 70
     0
  9
$TDCREATE
 40
2449761.493623
  9
$TDUPDATE
 40
2453756.427464
  9
$TDINDWG
 40
3.530571
  9
$TDUSRTIMER
 40
3.530571
  9
$USRTIMER
 70
     1
  9
$ANGBASE
 50
0.0
  9
$ANGDIR
 70
     0
  9
$PDMODE
 70
    35
  9
$PDSIZE
 40
100.0
  9
$PLINEWID
 40
0.0
  9
$COORDS
 70
     0
  9
$SPLFRAME
 70
     0
  9
$SPLINETYPE
 70
     6
  9
$SPLINESEGS
 70
     8
  9
$ATTDIA
 70
     0
  9
$ATTREQ
 70
     1
  9
$HANDLING
 70
     1
  9
$HANDSEED
  5
269
  9
$SURFTAB1
 70
     6
  9
$SURFTAB2
 70
     6
  9
$SURFTYPE
 70
     6
  9
$SURFU
 70
     6
  9
$SURFV
 70
     6
  9
$UCSNAME
  2

  9
$UCSORG
 10
0.0
 20
0.0
 30
0.0
  9
$UCSXDIR
 10
1.0
 20
0.0
 30
0.0
  9
$UCSYDIR
 10
0.0
 20
1.0
 30
0.0
  9
$PUCSNAME
  2

  9
$PUCSORG
 10
0.0
 20
0.0
 30
0.0
  9
$PUCSXDIR
 10
1.0
 20
0.0
 30
0.0
  9
$PUCSYDIR
 10
0.0
 20
1.0
 30
0.0
  9
$USERI1
 70
     0
  9
$USERI2
 70
     0
  9
$USERI3
 70
     0
  9
$USERI4
 70
     0
  9
$USERI5
 70
     0
  9
$USERR1
 40
20.0
  9
$USERR2
 40
0.0
  9
$USERR3
 40
0.0
  9
$USERR4
 40
0.0
  9
$USERR5
 40
0.0
  9
$WORLDVIEW
 70
     1
  9
$SHADEDGE
 70
     3
  9
$SHADEDIF
 70
    70
  9
$TILEMODE
 70
     1
  9
$MAXACTVP
 70
    48
  9
$PLIMCHECK
 70
     0
  9
$PEXTMIN
 10
1.000000E+020
 20
1.000000E+020
 30
1.000000E+020
  9
$PEXTMAX
 10
-1.000000E+020
 20
-1.000000E+020
 30
-1.000000E+020
  9
$PLIMMIN
 10
0.0
 20
0.0
  9
$PLIMMAX
 10
12.0
 20
9.0
  9
$UNITMODE
 70
     0
  9
$VISRETAIN
 70
     1
  9
$PLINEGEN
 70
     0
  9
$PSLTSCALE
 70
     1
  0
ENDSEC
  0
SECTION
  2
TABLES
  0
TABLE
  2
VPORT
 70
     2
  0
VPORT
  2
*ACTIVE
 70
     0
 10
0.0
 20
0.0
 11
1.0
 21
1.0
 12
1081.755319
 22
0.0
 13
0.0
 23
0.0
 14
50.0
 24
50.0
 15
100.0
 25
100.0
 16
0.0
 26
0.0
 36
1.0
 17
0.0
 27
0.0
 37
0.0
 40
5940.0
 41
1.778369
 42
50.0
 43
0.0
 44
0.0
 50
0.0
 51
0.0
 71
     0
 72
  1000
 73
     1
 74
     0
 75
     0
 76
     0
 77
     0
 78
     0
  0
ENDTAB
  0
TABLE
  2
LTYPE
 70
     2
  0
LTYPE
  2
CONTINUOUS
 70
     0
  3
実線
 72
    65
 73
     0
 40
0.0
  0
LTYPE
  2
DASHDOT
 70
     0
  3
____ _ ____ _ ____ _ ____ _ ____ _ ____ _ ____
 72
    65
 73
     4
 40
5.5
 49
4.0
 49
-0.6
 49
0.3
 49
-0.6
  0
ENDTAB
  0
TABLE
  2
LAYER
 70
    12
  0
LAYER
  2
0
 70
     0
 62
     7
  6
CONTINUOUS
  0
LAYER
  2
SIZE
 70
     0
 62
    30
  6
CONTINUOUS
  0
LAYER
  2
OUTLINE
 70
     0
 62
     3
  6
CONTINUOUS
  0
LAYER
  2
DETAIL
 70
     0
 62
     5
  6
CONTINUOUS
  0
LAYER
  2
BASIS
 70
     0
 62
     6
  6
DASHDOT
  0
LAYER
  2
NOTE
 70
     0
 62
     4
  6
CONTINUOUS
  0
LAYER
  2
ARRANGE
 70
     0
 62
     1
  6
CONTINUOUS
  0
LAYER
  2
FIX
 70
     0
 62
    11
  6
CONTINUOUS
  0
LAYER
  2
SERVICESPACE
 70
     0
 62
     2
  6
DASHDOT
  0
LAYER
  2
ETC
 70
     0
 62
    61
  6
CONTINUOUS
  0
LAYER
  2
SYMBOLLINE
 70
     0
 62
    15
  6
CONTINUOUS
  0
LAYER
  2
DEFPOINTS
 70
     0
 62
     7
  6
CONTINUOUS
  0
ENDTAB
  0
TABLE
  2
STYLE
 70
     2
  0
STYLE
  2
STANDARD
 70
     0
 40
0.0
 41
0.9
 50
0.0
 71
     0
 42
64.0
  3
SIMPLEX
  4
BIGFONT
  0
STYLE
  2
STANDARD1
 70
     0
 40
0.0
 41
1.0
 50
0.0
 71
     0
 42
3.5
  3
MONOTXT
  4
BIGFONT
  0
ENDTAB
  0
TABLE
  2
VIEW
 70
     1
  0
VIEW
  2
ALL
 70
     0
 40
6056.230032
 10
0.0
 20
58.115016
 41
8400.0
 11
0.0
 21
0.0
 31
1.0
 12
0.0
 22
0.0
 32
0.0
 42
50.0
 43
0.0
 44
0.0
 50
0.0
 71
     0
  0
ENDTAB
  0
TABLE
  2
UCS
 70
     0
  0
ENDTAB
  0
TABLE
  2
APPID
 70
     1
  0
APPID
  2
ACAD
 70
     0
  0
ENDTAB
  0
TABLE
  2
DIMSTYLE
 70
     1
  0
DIMSTYLE
  2
STANDARD
 70
     0
  3

  4

  5

  6

  7

 40
1.0
 41
0.18
 42
0.0625
 43
0.38
 44
0.18
 45
0.0
 46
0.0
 47
0.0
 48
0.0
140
0.18
141
0.09
142
0.0
143
25.4
144
1.0
145
0.0
146
1.0
147
0.09
 71
     0
 72
     0
 73
     1
 74
     1
 75
     0
 76
     0
 77
     0
 78
     0
170
     0
171
     2
172
     0
173
     0
174
     0
175
     0
176
     0
177
     0
178
     0
  0
ENDTAB
  0
ENDSEC
  0
SECTION
  2
BLOCKS
  0
BLOCK
  8
0
  2
$MODEL_SPACE
 70
     0
 10
0.0
 20
0.0
 30
0.0
  3
$MODEL_SPACE
  1

  0
ENDBLK
  5
24B
  8
0
  0
BLOCK
 67
     1
  8
0
  2
$PAPER_SPACE
 70
     0
 10
0.0
 20
0.0
 30
0.0
  3
$PAPER_SPACE
  1

  0
ENDBLK
  5
248
 67
     1
  8
0
  0
BLOCK
  8
0
  2
_DOTBLANK
 70
     0
 10
0.0
 20
0.0
 30
0.0
  3
_DOTBLANK
  1

  0
CIRCLE
  5
36
  8
0
  6
CONTINUOUS
 62
     7
 10
0.0
 20
0.0
 30
0.0
 40
0.5
  0
LINE
  5
37
  8
0
  6
CONTINUOUS
 62
     7
 10
-0.5
 20
0.0
 30
0.0
 11
-1.0
 21
0.0
 31
0.0
  0
ENDBLK
  5
38
  8
0
  0
ENDSEC
  0
SECTION
  2
ENTITIES
  0
TEXT
  5
39
  8
ETC
  6
CONTINUOUS
 62
    61
 10
-1038.788062
 20
726.955293
 30
0.0
 40
65.0
  1
RV-P2A_6
 50
0.000003
 41
0.9
  7
STANDARD1
  0
LINE
  5
3A
  8
NOTE
  6
CONTINUOUS
 62
     4
 10
-958.850891
 20
-424.838114
 30
0.0
 11
-436.024475
 21
-424.838114
 31
0.0
  0
TEXT
  5
3B
  8
NOTE
  6
CONTINUOUS
 62
     4
 10
-951.787662
 20
-410.470504
 30
0.0
 40
60.0
  1
AH 4-14×22長穴
 50
0.000003
 41
0.7
  7
STANDARD1
  0
LINE
  5
3C
  8
SIZE
  6
CONTINUOUS
 62
    30
 10
-340.0
 20
-176.0
 30
0.0
 11
-866.788564
 21
-176.0
 31
0.0
  0
LINE
  5
3D
  8
SIZE
  6
CONTINUOUS
 62
    30
 10
-340.0
 20
180.0
 30
0.0
 11
-866.788564
 21
180.0
 31
0.0
  0
LINE
  5
3E
  8
SIZE
  6
CONTINUOUS
 62
    30
 10
-836.788564
 20
-166.0
 30
0.0
 11
-836.788564
 21
170.0
 31
0.0
  0
CIRCLE
  5
3F
  8
SIZE
  6
CONTINUOUS
 62
    30
 10
-836.788564
 20
-176.0
 30
0.0
 40
5.0
  0
LINE
  5
40
  8
SIZE
  6
CONTINUOUS
 62
    30
 10
-836.788564
 20
-171.0
 30
0.0
 11
-836.788564
 21
-166.0
 31
0.0
  0
CIRCLE
  5
41
  8
SIZE
  6
CONTINUOUS
 62
    30
 10
-836.788564
 20
180.0
 30
0.0
 40
5.0
  0
LINE
  5
42
  8
SIZE
  6
CONTINUOUS
 62
    30
 10
-836.788564
 20
175.0
 30
0.0
 11
-836.788564
 21
170.0
 31
0.0
  0
TEXT
  5
43
  8
SIZE
  6
CONTINUOUS
 62
    30
 10
-856.788564
 20
-71.547512
 30
0.0
 40
64.0
  1
356
 50
90.0
 41
0.9
 72
     1
 11
-856.788564
 21
1.138202
 31
0.0
  0
POINT
  5
44
  8
DEFPOINTS
  6
CONTINUOUS
 62
     7
 10
-320.0
 20
-176.0
 30
0.0
  0
POINT
  5
45
  8
DEFPOINTS
  6
CONTINUOUS
 62
     7
 10
-320.0
 20
180.0
 30
0.0
  0
POINT
  5
46
  8
DEFPOINTS
  6
CONTINUOUS
 62
     7
 10
-836.788564
 20
180.0
 30
0.0
  0
LINE
  5
47
  8
SIZE
  6
CONTINUOUS
 62
    30
 10
-335.473774
 20
-82.0
 30
0.0
 11
-610.990459
 21
-82.0
 31
0.0
  0
LINE
  5
48
  8
SIZE
  6
CONTINUOUS
 62
    30
 10
-335.473774
 20
83.0
 30
0.0
 11
-610.990459
 21
83.0
 31
0.0
  0
LINE
  5
49
  8
SIZE
  6
CONTINUOUS
 62
    30
 10
-580.990459
 20
-92.0
 30
0.0
 11
-580.990459
 21
-102.0
 31
0.0
  0
LINE
  5
4A
  8
SIZE
  6
CONTINUOUS
 62
    30
 10
-580.990459
 20
93.0
 30
0.0
 11
-580.990459
 21
103.0
 31
0.0
  0
LINE
  5
4B
  8
SIZE
  6
CONTINUOUS
 62
    30
 10
-580.990459
 20
-82.0
 30
0.0
 11
-580.990459
 21
83.0
 31
0.0
  0
CIRCLE
  5
4C
  8
SIZE
  6
CONTINUOUS
 62
    30
 10
-580.990459
 20
-82.0
 30
0.0
 40
5.0
  0
LINE
  5
4D
  8
SIZE
  6
CONTINUOUS
 62
    30
 10
-580.990459
 20
-87.0
 30
0.0
 11
-580.990459
 21
-92.0
 31
0.0
  0
CIRCLE
  5
4E
  8
SIZE
  6
CONTINUOUS
 62
    30
 10
-580.990459
 20
83.0
 30
0.0
 40
5.0
  0
LINE
  5
4F
  8
SIZE
  6
CONTINUOUS
 62
    30
 10
-580.990459
 20
88.0
 30
0.0
 11
-580.990459
 21
93.0
 31
0.0
  0
TEXT
  5
50
  8
SIZE
  6
CONTINUOUS
 62
    30
 10
-600.990459
 20
-68.071429
 30
0.0
 40
64.0
  1
165
 50
90.0
 41
0.9
 72
     1
 11
-600.990459
 21
0.5
 31
0.0
  0
POINT
  5
51
  8
DEFPOINTS
  6
CONTINUOUS
 62
     7
 10
-315.473774
 20
-82.0
 30
0.0
  0
POINT
  5
52
  8
DEFPOINTS
  6
CONTINUOUS
 62
     7
 10
-315.473774
 20
83.0
 30
0.0
  0
POINT
  5
53
  8
DEFPOINTS
  6
CONTINUOUS
 62
     7
 10
-580.990459
 20
83.0
 30
0.0
  0
LINE
  5
54
  8
SIZE
  6
CONTINUOUS
 62
    30
 10
-340.0
 20
-176.0
 30
0.0
 11
-610.990459
 21
-176.0
 31
0.0
  0
LINE
  5
55
  8
SIZE
  6
CONTINUOUS
 62
    30
 10
-335.473774
 20
-82.0
 30
0.0
 11
-610.990459
 21
-82.0
 31
0.0
  0
LINE
  5
56
  8
SIZE
  6
CONTINUOUS
 62
    30
 10
-580.990459
 20
-92.0
 30
0.0
 11
-580.990459
 21
-166.0
 31
0.0
  0
LINE
  5
57
  8
SIZE
  6
CONTINUOUS
 62
    30
 10
-580.990459
 20
-176.0
 30
0.0
 11
-580.990459
 21
-322.0
 31
0.0
  0
CIRCLE
  5
58
  8
SIZE
  6
CONTINUOUS
 62
    30
 10
-580.990459
 20
-82.0
 30
0.0
 40
5.0
  0
LINE
  5
59
  8
SIZE
  6
CONTINUOUS
 62
    30
 10
-580.990459
 20
-87.0
 30
0.0
 11
-580.990459
 21
-92.0
 31
0.0
  0
CIRCLE
  5
5A
  8
SIZE
  6
CONTINUOUS
 62
    30
 10
-580.990459
 20
-176.0
 30
0.0
 40
5.0
  0
LINE
  5
5B
  8
SIZE
  6
CONTINUOUS
 62
    30
 10
-580.990459
 20
-171.0
 30
0.0
 11
-580.990459
 21
-166.0
 31
0.0
  0
TEXT
  5
5C
  8
SIZE
  6
CONTINUOUS
 62
    30
 10
-600.990459
 20
-302.0
 30
0.0
 40
64.0
  1
94
 50
90.0
 41
0.9
 72
     1
 11
-600.990459
 21
-254.0
 31
0.0
  0
POINT
  5
5D
  8
DEFPOINTS
  6
CONTINUOUS
 62
     7
 10
-320.0
 20
-176.0
 30
0.0
  0
POINT
  5
5E
  8
DEFPOINTS
  6
CONTINUOUS
 62
     7
 10
-315.473774
 20
-82.0
 30
0.0
  0
POINT
  5
5F
  8
DEFPOINTS
  6
CONTINUOUS
 62
     7
 10
-580.990459
 20
-82.0
 30
0.0
  0
TEXT
  5
60
  8
NOTE
  6
CONTINUOUS
 62
     4
 10
-952.407088
 20
-499.207955
 30
0.0
 40
60.0
  1
<M10ﾎﾞﾙﾄ>
 50
0.000003
 41
0.7
  7
STANDARD1
  0
LINE
  5
61
  8
SIZE
  6
CONTINUOUS
 62
    30
 10
325.000014
 20
195.0
 30
0.0
 11
325.000014
 21
850.492558
 31
0.0
  0
LINE
  5
62
  8
SIZE
  6
CONTINUOUS
 62
    30
 10
625.000014
 20
354.0
 30
0.0
 11
625.000014
 21
850.492558
 31
0.0
  0
LINE
  5
63
  8
SIZE
  6
CONTINUOUS
 62
    30
 10
315.000014
 20
820.492558
 30
0.0
 11
305.000014
 21
820.492558
 31
0.0
  0
LINE
  5
64
  8
SIZE
  6
CONTINUOUS
 62
    30
 10
635.000014
 20
820.492558
 30
0.0
 11
645.000014
 21
820.492558
 31
0.0
  0
LINE
  5
65
  8
SIZE
  6
CONTINUOUS
 62
    30
 10
325.000014
 20
820.492558
 30
0.0
 11
625.000014
 21
820.492558
 31
0.0
  0
CIRCLE
  5
66
  8
SIZE
  6
CONTINUOUS
 62
    30
 10
325.000014
 20
820.492558
 30
0.0
 40
5.0
  0
LINE
  5
67
  8
SIZE
  6
CONTINUOUS
 62
    30
 10
320.000014
 20
820.492558
 30
0.0
 11
315.000014
 21
820.492558
 31
0.0
  0
CIRCLE
  5
68
  8
SIZE
  6
CONTINUOUS
 62
    30
 10
625.000014
 20
820.492558
 30
0.0
 40
5.0
  0
LINE
  5
69
  8
SIZE
  6
CONTINUOUS
 62
    30
 10
630.000014
 20
820.492558
 30
0.0
 11
635.000014
 21
820.492558
 31
0.0
  0
TEXT
  5
6A
  8
SIZE
  6
CONTINUOUS
 62
    30
 10
331.274299
 20
840.492558
 30
0.0
 40
64.0
  1
300以上
 41
0.9
 72
     1
 11
475.000014
 21
840.492558
 31
0.0
  0
POINT
  5
6B
  8
DEFPOINTS
  6
CONTINUOUS
 62
     7
 10
325.000014
 20
175.0
 30
0.0
  0
POINT
  5
6C
  8
DEFPOINTS
  6
CONTINUOUS
 62
     7
 10
625.000014
 20
334.0
 30
0.0
  0
POINT
  5
6D
  8
DEFPOINTS
  6
CONTINUOUS
 62
     7
 10
625.000014
 20
820.492558
 30
0.0
  0
LINE
  5
6E
  8
SIZE
  6
CONTINUOUS
 62
    30
 10
-325.0
 20
195.0
 30
0.0
 11
-325.0
 21
850.492558
 31
0.0
  0
LINE
  5
6F
  8
SIZE
  6
CONTINUOUS
 62
    30
 10
325.000014
 20
195.0
 30
0.0
 11
325.000014
 21
850.492558
 31
0.0
  0
LINE
  5
70
  8
SIZE
  6
CONTINUOUS
 62
    30
 10
-315.0
 20
820.492558
 30
0.0
 11
315.000014
 21
820.492558
 31
0.0
  0
CIRCLE
  5
71
  8
SIZE
  6
CONTINUOUS
 62
    30
 10
-325.0
 20
820.492558
 30
0.0
 40
5.0
  0
LINE
  5
72
  8
SIZE
  6
CONTINUOUS
 62
    30
 10
-320.0
 20
820.492558
 30
0.0
 11
-315.0
 21
820.492558
 31
0.0
  0
CIRCLE
  5
73
  8
SIZE
  6
CONTINUOUS
 62
    30
 10
325.000014
 20
820.492558
 30
0.0
 40
5.0
  0
LINE
  5
74
  8
SIZE
  6
CONTINUOUS
 62
    30
 10
320.000014
 20
820.492558
 30
0.0
 11
315.000014
 21
820.492558
 31
0.0
  0
TEXT
  5
75
  8
SIZE
  6
CONTINUOUS
 62
    30
 10
-74.057136
 20
840.492558
 30
0.0
 40
64.0
  1
650
 41
0.9
 72
     1
 11
0.000007
 21
840.492558
 31
0.0
  0
POINT
  5
76
  8
DEFPOINTS
  6
CONTINUOUS
 62
     7
 10
-325.0
 20
175.0
 30
0.0
  0
POINT
  5
77
  8
DEFPOINTS
  6
CONTINUOUS
 62
     7
 10
325.000014
 20
175.0
 30
0.0
  0
POINT
  5
78
  8
DEFPOINTS
  6
CONTINUOUS
 62
     7
 10
325.000014
 20
820.492558
 30
0.0
  0
LINE
  5
79
  8
SIZE
  6
CONTINUOUS
 62
    30
 10
303.0
 20
115.473774
 30
0.0
 11
303.0
 21
703.938182
 31
0.0
  0
LINE
  5
7A
  8
SIZE
  6
CONTINUOUS
 62
    30
 10
325.000014
 20
195.0
 30
0.0
 11
325.000014
 21
703.938182
 31
0.0
  0
LINE
  5
7B
  8
SIZE
  6
CONTINUOUS
 62
    30
 10
293.0
 20
673.938182
 30
0.0
 11
283.0
 21
673.938182
 31
0.0
  0
LINE
  5
7C
  8
SIZE
  6
CONTINUOUS
 62
    30
 10
335.000014
 20
673.938182
 30
0.0
 11
345.000014
 21
673.938182
 31
0.0
  0
LINE
  5
7D
  8
SIZE
  6
CONTINUOUS
 62
    30
 10
516.364405
 20
673.938182
 30
0.0
 11
325.000014
 21
673.938182
 31
0.0
  0
TEXT
  5
7E
  8
SIZE
  6
CONTINUOUS
 62
    30
 10
403.107262
 20
693.938182
 30
0.0
 40
64.0
  1
22
 41
0.9
 72
     1
 11
449.735834
 21
693.938182
 31
0.0
  0
LINE
  5
7F
  8
SIZE
  6
CONTINUOUS
 62
    30
 10
303.0
 20
673.938182
 30
0.0
 11
325.000014
 21
673.938182
 31
0.0
  0
LINE
  5
80
  8
SIZE
  6
CONTINUOUS
 62
    30
 10
303.0
 20
673.938182
 30
0.0
 11
325.000014
 21
673.938182
 31
0.0
  0
CIRCLE
  5
81
  8
SIZE
  6
CONTINUOUS
 62
    30
 10
303.0
 20
673.938182
 30
0.0
 40
5.0
  0
LINE
  5
82
  8
SIZE
  6
CONTINUOUS
 62
    30
 10
298.0
 20
673.938182
 30
0.0
 11
293.0
 21
673.938182
 31
0.0
  0
CIRCLE
  5
83
  8
SIZE
  6
CONTINUOUS
 62
    30
 10
325.000014
 20
673.938182
 30
0.0
 40
5.0
  0
LINE
  5
84
  8
SIZE
  6
CONTINUOUS
 62
    30
 10
330.000014
 20
673.938182
 30
0.0
 11
335.000014
 21
673.938182
 31
0.0
  0
POINT
  5
85
  8
DEFPOINTS
  6
CONTINUOUS
 62
     7
 10
303.0
 20
95.473774
 30
0.0
  0
POINT
  5
86
  8
DEFPOINTS
  6
CONTINUOUS
 62
     7
 10
325.000014
 20
175.0
 30
0.0
  0
POINT
  5
87
  8
DEFPOINTS
  6
CONTINUOUS
 62
     7
 10
325.000014
 20
673.938182
 30
0.0
  0
LINE
  5
88
  8
SIZE
  6
CONTINUOUS
 62
    30
 10
-303.0
 20
115.473774
 30
0.0
 11
-303.0
 21
703.938182
 31
0.0
  0
LINE
  5
89
  8
SIZE
  6
CONTINUOUS
 62
    30
 10
303.0
 20
115.473774
 30
0.0
 11
303.0
 21
703.938182
 31
0.0
  0
LINE
  5
8A
  8
SIZE
  6
CONTINUOUS
 62
    30
 10
-293.0
 20
673.938182
 30
0.0
 11
293.0
 21
673.938182
 31
0.0
  0
CIRCLE
  5
8B
  8
SIZE
  6
CONTINUOUS
 62
    30
 10
-303.0
 20
673.938182
 30
0.0
 40
5.0
  0
LINE
  5
8C
  8
SIZE
  6
CONTINUOUS
 62
    30
 10
-298.0
 20
673.938182
 30
0.0
 11
-293.0
 21
673.938182
 31
0.0
  0
CIRCLE
  5
8D
  8
SIZE
  6
CONTINUOUS
 62
    30
 10
303.0
 20
673.938182
 30
0.0
 40
5.0
  0
LINE
  5
8E
  8
SIZE
  6
CONTINUOUS
 62
    30
 10
298.0
 20
673.938182
 30
0.0
 11
293.0
 21
673.938182
 31
0.0
  0
TEXT
  5
8F
  8
SIZE
  6
CONTINUOUS
 62
    30
 10
-283.885714
 20
700.700087
 30
0.0
 40
64.0
  1
606(据付ピッチ)
 41
0.9
 72
     1
 11
0.0
 21
700.700087
 31
0.0
  0
POINT
  5
90
  8
DEFPOINTS
  6
CONTINUOUS
 62
     7
 10
-303.0
 20
95.473774
 30
0.0
  0
POINT
  5
91
  8
DEFPOINTS
  6
CONTINUOUS
 62
     7
 10
303.0
 20
95.473774
 30
0.0
  0
POINT
  5
92
  8
DEFPOINTS
  6
CONTINUOUS
 62
     7
 10
303.0
 20
673.938182
 30
0.0
  0
LINE
  5
93
  8
SIZE
  6
CONTINUOUS
 62
    30
 10
306.428226
 20
-180.0
 30
0.0
 11
1258.410318
 21
-180.0
 31
0.0
  0
LINE
  5
94
  8
SIZE
  6
CONTINUOUS
 62
    30
 10
645.000014
 20
-680.0
 30
0.0
 11
1258.410318
 21
-680.0
 31
0.0
  0
LINE
  5
95
  8
SIZE
  6
CONTINUOUS
 62
    30
 10
1228.410318
 20
-190.0
 30
0.0
 11
1228.410318
 21
-670.0
 31
0.0
  0
CIRCLE
  5
96
  8
SIZE
  6
CONTINUOUS
 62
    30
 10
1228.410318
 20
-180.0
 30
0.0
 40
5.0
  0
LINE
  5
97
  8
SIZE
  6
CONTINUOUS
 62
    30
 10
1228.410318
 20
-185.0
 30
0.0
 11
1228.410318
 21
-190.0
 31
0.0
  0
CIRCLE
  5
98
  8
SIZE
  6
CONTINUOUS
 62
    30
 10
1228.410318
 20
-680.0
 30
0.0
 40
5.0
  0
LINE
  5
99
  8
SIZE
  6
CONTINUOUS
 62
    30
 10
1228.410318
 20
-675.0
 30
0.0
 11
1228.410318
 21
-670.0
 31
0.0
  0
TEXT
  5
9A
  8
SIZE
  6
CONTINUOUS
 62
    30
 10
1208.410318
 20
-573.725714
 30
0.0
 40
64.0
  1
500以上
 50
90.0
 41
0.9
 72
     1
 11
1208.410318
 21
-430.0
 31
0.0
  0
POINT
  5
9B
  8
DEFPOINTS
  6
CONTINUOUS
 62
     7
 10
286.428226
 20
-180.0
 30
0.0
  0
POINT
  5
9C
  8
DEFPOINTS
  6
CONTINUOUS
 62
     7
 10
625.000014
 20
-680.0
 30
0.0
  0
POINT
  5
9D
  8
DEFPOINTS
  6
CONTINUOUS
 62
     7
 10
1228.410318
 20
-680.0
 30
0.0
  0
LINE
  5
9E
  8
SIZE
  6
CONTINUOUS
 62
    30
 10
340.000013
 20
180.0
 30
0.0
 11
1258.410318
 21
180.0
 31
0.0
  0
LINE
  5
9F
  8
SIZE
  6
CONTINUOUS
 62
    30
 10
306.428226
 20
-180.0
 30
0.0
 11
1258.410318
 21
-180.0
 31
0.0
  0
LINE
  5
A0
  8
SIZE
  6
CONTINUOUS
 62
    30
 10
1228.410318
 20
170.0
 30
0.0
 11
1228.410318
 21
-170.0
 31
0.0
  0
CIRCLE
  5
A1
  8
SIZE
  6
CONTINUOUS
 62
    30
 10
1228.410318
 20
180.0
 30
0.0
 40
5.0
  0
LINE
  5
A2
  8
SIZE
  6
CONTINUOUS
 62
    30
 10
1228.410318
 20
175.0
 30
0.0
 11
1228.410318
 21
170.0
 31
0.0
  0
CIRCLE
  5
A3
  8
SIZE
  6
CONTINUOUS
 62
    30
 10
1228.410318
 20
-180.0
 30
0.0
 40
5.0
  0
LINE
  5
A4
  8
SIZE
  6
CONTINUOUS
 62
    30
 10
1228.410318
 20
-175.0
 30
0.0
 11
1228.410318
 21
-170.0
 31
0.0
  0
TEXT
  5
A5
  8
SIZE
  6
CONTINUOUS
 62
    30
 10
1208.410318
 20
-74.057143
 30
0.0
 40
64.0
  1
360
 50
90.0
 41
0.9
 72
     1
 11
1208.410318
 21
0.0
 31
0.0
  0
POINT
  5
A6
  8
DEFPOINTS
  6
CONTINUOUS
 62
     7
 10
320.000013
 20
180.0
 30
0.0
  0
POINT
  5
A7
  8
DEFPOINTS
  6
CONTINUOUS
 62
     7
 10
286.428226
 20
-180.0
 30
0.0
  0
POINT
  5
A8
  8
DEFPOINTS
  6
CONTINUOUS
 62
     7
 10
1228.410318
 20
-180.0
 30
0.0
  0
LINE
  5
A9
  8
SIZE
  6
CONTINUOUS
 62
    30
 10
308.800012
 20
334.0
 30
0.0
 11
1258.410318
 21
334.0
 31
0.0
  0
LINE
  5
AA
  8
SIZE
  6
CONTINUOUS
 62
    30
 10
340.000013
 20
180.0
 30
0.0
 11
1258.410318
 21
180.0
 31
0.0
  0
LINE
  5
AB
  8
SIZE
  6
CONTINUOUS
 62
    30
 10
1228.410318
 20
344.0
 30
0.0
 11
1228.410318
 21
354.0
 31
0.0
  0
LINE
  5
AC
  8
SIZE
  6
CONTINUOUS
 62
    30
 10
1228.410318
 20
170.0
 30
0.0
 11
1228.410318
 21
160.0
 31
0.0
  0
LINE
  5
AD
  8
SIZE
  6
CONTINUOUS
 62
    30
 10
1228.410318
 20
334.0
 30
0.0
 11
1228.410318
 21
180.0
 31
0.0
  0
CIRCLE
  5
AE
  8
SIZE
  6
CONTINUOUS
 62
    30
 10
1228.410318
 20
334.0
 30
0.0
 40
5.0
  0
LINE
  5
AF
  8
SIZE
  6
CONTINUOUS
 62
    30
 10
1228.410318
 20
339.0
 30
0.0
 11
1228.410318
 21
344.0
 31
0.0
  0
CIRCLE
  5
B0
  8
SIZE
  6
CONTINUOUS
 62
    30
 10
1228.410318
 20
180.0
 30
0.0
 40
5.0
  0
LINE
  5
B1
  8
SIZE
  6
CONTINUOUS
 62
    30
 10
1228.410318
 20
175.0
 30
0.0
 11
1228.410318
 21
170.0
 31
0.0
  0
TEXT
  5
B2
  8
SIZE
  6
CONTINUOUS
 62
    30
 10
1208.410318
 20
187.057143
 30
0.0
 40
64.0
  1
154
 50
90.0
 41
0.9
 72
     1
 11
1208.410318
 21
257.0
 31
0.0
  0
POINT
  5
B3
  8
DEFPOINTS
  6
CONTINUOUS
 62
     7
 10
288.800012
 20
334.0
 30
0.0
  0
POINT
  5
B4
  8
DEFPOINTS
  6
CONTINUOUS
 62
     7
 10
320.000013
 20
180.0
 30
0.0
  0
POINT
  5
B5
  8
DEFPOINTS
  6
CONTINUOUS
 62
     7
 10
1228.410318
 20
180.0
 30
0.0
  0
LINE
  5
B6
  8
SIZE
  6
CONTINUOUS
 62
    30
 10
340.000013
 20
180.0
 30
0.0
 11
1086.831828
 21
180.0
 31
0.0
  0
LINE
  5
B7
  8
SIZE
  6
CONTINUOUS
 62
    30
 10
285.380401
 20
-253.0
 30
0.0
 11
1086.831828
 21
-253.0
 31
0.0
  0
LINE
  5
B8
  8
SIZE
  6
CONTINUOUS
 62
    30
 10
1056.831828
 20
170.0
 30
0.0
 11
1056.831828
 21
-243.0
 31
0.0
  0
CIRCLE
  5
B9
  8
SIZE
  6
CONTINUOUS
 62
    30
 10
1056.831828
 20
180.0
 30
0.0
 40
5.0
  0
LINE
  5
BA
  8
SIZE
  6
CONTINUOUS
 62
    30
 10
1056.831828
 20
175.0
 30
0.0
 11
1056.831828
 21
170.0
 31
0.0
  0
CIRCLE
  5
BB
  8
SIZE
  6
CONTINUOUS
 62
    30
 10
1056.831828
 20
-253.0
 30
0.0
 40
5.0
  0
LINE
  5
BC
  8
SIZE
  6
CONTINUOUS
 62
    30
 10
1056.831828
 20
-248.0
 30
0.0
 11
1056.831828
 21
-243.0
 31
0.0
  0
TEXT
  5
BD
  8
SIZE
  6
CONTINUOUS
 62
    30
 10
1036.831828
 20
-114.727621
 30
0.0
 40
64.0
  1
433
 50
90.0
 41
0.9
 72
     1
 11
1036.831828
 21
-40.670478
 31
0.0
  0
POINT
  5
BE
  8
DEFPOINTS
  6
CONTINUOUS
 62
     7
 10
320.000013
 20
180.0
 30
0.0
  0
POINT
  5
BF
  8
DEFPOINTS
  6
CONTINUOUS
 62
     7
 10
265.380401
 20
-253.0
 30
0.0
  0
POINT
  5
C0
  8
DEFPOINTS
  6
CONTINUOUS
 62
     7
 10
1056.831828
 20
-253.0
 30
0.0
  0
LINE
  5
C1
  8
SIZE
  6
CONTINUOUS
 62
    30
 10
340.000013
 20
-176.0
 30
0.0
 11
931.571199
 21
-176.0
 31
0.0
  0
LINE
  5
C2
  8
SIZE
  6
CONTINUOUS
 62
    30
 10
405.666681
 20
128.0
 30
0.0
 11
931.571199
 21
128.0
 31
0.0
  0
LINE
  5
C3
  8
SIZE
  6
CONTINUOUS
 62
    30
 10
901.571199
 20
-166.0
 30
0.0
 11
901.571199
 21
118.0
 31
0.0
  0
CIRCLE
  5
C4
  8
SIZE
  6
CONTINUOUS
 62
    30
 10
901.571199
 20
-176.0
 30
0.0
 40
5.0
  0
LINE
  5
C5
  8
SIZE
  6
CONTINUOUS
 62
    30
 10
901.571199
 20
-171.0
 30
0.0
 11
901.571199
 21
-166.0
 31
0.0
  0
CIRCLE
  5
C6
  8
SIZE
  6
CONTINUOUS
 62
    30
 10
901.571199
 20
128.0
 30
0.0
 40
5.0
  0
LINE
  5
C7
  8
SIZE
  6
CONTINUOUS
 62
    30
 10
901.571199
 20
123.0
 30
0.0
 11
901.571199
 21
118.0
 31
0.0
  0
TEXT
  5
C8
  8
SIZE
  6
CONTINUOUS
 62
    30
 10
881.571199
 20
-99.428571
 30
0.0
 40
64.0
  1
304
 50
90.0
 41
0.9
 72
     1
 11
881.571199
 21
-24.0
 31
0.0
  0
POINT
  5
C9
  8
DEFPOINTS
  6
CONTINUOUS
 62
     7
 10
320.000013
 20
-176.0
 30
0.0
  0
POINT
  5
CA
  8
DEFPOINTS
  6
CONTINUOUS
 62
     7
 10
385.666681
 20
128.0
 30
0.0
  0
POINT
  5
CB
  8
DEFPOINTS
  6
CONTINUOUS
 62
     7
 10
901.571199
 20
128.0
 30
0.0
  0
LINE
  5
CC
  8
SIZE
  6
CONTINUOUS
 62
    30
 10
340.000013
 20
-176.0
 30
0.0
 11
786.699693
 21
-176.0
 31
0.0
  0
LINE
  5
CD
  8
SIZE
  6
CONTINUOUS
 62
    30
 10
394.666681
 20
60.0
 30
0.0
 11
786.699693
 21
60.0
 31
0.0
  0
LINE
  5
CE
  8
SIZE
  6
CONTINUOUS
 62
    30
 10
756.699693
 20
-166.0
 30
0.0
 11
756.699693
 21
50.0
 31
0.0
  0
CIRCLE
  5
CF
  8
SIZE
  6
CONTINUOUS
 62
    30
 10
756.699693
 20
-176.0
 30
0.0
 40
5.0
  0
LINE
  5
D0
  8
SIZE
  6
CONTINUOUS
 62
    30
 10
756.699693
 20
-171.0
 30
0.0
 11
756.699693
 21
-166.0
 31
0.0
  0
CIRCLE
  5
D1
  8
SIZE
  6
CONTINUOUS
 62
    30
 10
756.699693
 20
60.0
 30
0.0
 40
5.0
  0
LINE
  5
D2
  8
SIZE
  6
CONTINUOUS
 62
    30
 10
756.699693
 20
55.0
 30
0.0
 11
756.699693
 21
50.0
 31
0.0
  0
TEXT
  5
D3
  8
SIZE
  6
CONTINUOUS
 62
    30
 10
736.699693
 20
-130.685714
 30
0.0
 40
64.0
  1
236
 50
90.0
 41
0.9
 72
     1
 11
736.699693
 21
-58.0
 31
0.0
  0
POINT
  5
D4
  8
DEFPOINTS
  6
CONTINUOUS
 62
     7
 10
320.000013
 20
-176.0
 30
0.0
  0
POINT
  5
D5
  8
DEFPOINTS
  6
CONTINUOUS
 62
     7
 10
374.666681
 20
60.0
 30
0.0
  0
POINT
  5
D6
  8
DEFPOINTS
  6
CONTINUOUS
 62
     7
 10
756.699693
 20
60.0
 30
0.0
  0
LINE
  5
D7
  8
NOTE
  6
CONTINUOUS
 62
     4
 10
-436.024475
 20
-424.838114
 30
0.0
 11
-303.0
 21
-82.0
 31
0.0
  0
LINE
  5
D8
  8
SIZE
  6
CONTINUOUS
 62
    30
 10
-325.0
 20
-191.0
 30
0.0
 11
-325.0
 21
-877.254957
 31
0.0
  0
LINE
  5
D9
  8
SIZE
  6
CONTINUOUS
 62
    30
 10
399.0
 20
-157.000013
 30
0.0
 11
399.0
 21
-877.254957
 31
0.0
  0
LINE
  5
DA
  8
SIZE
  6
CONTINUOUS
 62
    30
 10
-315.0
 20
-847.254957
 30
0.0
 11
389.0
 21
-847.254957
 31
0.0
  0
CIRCLE
  5
DB
  8
SIZE
  6
CONTINUOUS
 62
    30
 10
-325.0
 20
-847.254957
 30
0.0
 40
5.0
  0
LINE
  5
DC
  8
SIZE
  6
CONTINUOUS
 62
    30
 10
-320.0
 20
-847.254957
 30
0.0
 11
-315.0
 21
-847.254957
 31
0.0
  0
CIRCLE
  5
DD
  8
SIZE
  6
CONTINUOUS
 62
    30
 10
399.0
 20
-847.254957
 30
0.0
 40
5.0
  0
LINE
  5
DE
  8
SIZE
  6
CONTINUOUS
 62
    30
 10
394.0
 20
-847.254957
 30
0.0
 11
389.0
 21
-847.254957
 31
0.0
  0
TEXT
  5
DF
  8
SIZE
  6
CONTINUOUS
 62
    30
 10
-38.428571
 20
-827.254957
 30
0.0
 40
64.0
  1
724
 41
0.9
 72
     1
 11
37.0
 21
-827.254957
 31
0.0
  0
POINT
  5
E0
  8
DEFPOINTS
  6
CONTINUOUS
 62
     7
 10
-325.0
 20
-171.0
 30
0.0
  0
POINT
  5
E1
  8
DEFPOINTS
  6
CONTINUOUS
 62
     7
 10
399.0
 20
-137.000013
 30
0.0
  0
POINT
  5
E2
  8
DEFPOINTS
  6
CONTINUOUS
 62
     7
 10
399.0
 20
-847.254957
 30
0.0
  0
LINE
  5
E3
  8
SERVICESPACE
  6
DASHDOT
 62
     2
 10
-325.0
 20
-180.0
 30
0.0
 11
625.000014
 21
-680.0
 31
0.0
  0
LINE
  5
E4
  8
SERVICESPACE
  6
DASHDOT
 62
     2
 10
625.000014
 20
-180.0
 30
0.0
 11
-325.0
 21
-680.0
 31
0.0
  0
LINE
  5
E5
  8
SERVICESPACE
  6
DASHDOT
 62
     2
 10
625.000014
 20
-680.0
 30
0.0
 11
625.000014
 21
334.0
 31
0.0
  0
LINE
  5
E6
  8
SERVICESPACE
  6
DASHDOT
 62
     2
 10
-325.0
 20
-680.0
 30
0.0
 11
-325.0
 21
-180.0
 31
0.0
  0
LINE
  5
E7
  8
SERVICESPACE
  6
DASHDOT
 62
     2
 10
-325.0
 20
-680.0
 30
0.0
 11
625.000014
 21
-680.0
 31
0.0
  0
TEXT
  5
E8
  8
NOTE
  6
CONTINUOUS
 62
     4
 10
-267.506704
 20
465.229735
 30
0.0
 40
60.0
  1
RL %%C9.52
 50
359.999997
 41
0.840476
  7
STANDARD1
  0
LINE
  5
E9
  8
NOTE
  6
CONTINUOUS
 62
     4
 10
-276.97929
 20
450.155209
 30
0.0
 11
111.806393
 21
450.155209
 31
0.0
  0
LINE
  5
EA
  8
ARRANGE
  6
CONTINUOUS
 62
     1
 10
-37.897321
 20
-37.897321
 30
0.0
 11
37.897321
 21
37.897321
 31
0.0
  0
LINE
  5
EB
  8
ARRANGE
  6
CONTINUOUS
 62
     1
 10
-37.897321
 20
37.897321
 30
0.0
 11
37.897321
 21
-37.897321
 31
0.0
  0
CIRCLE
  5
EC
  8
ARRANGE
  6
CONTINUOUS
 62
     1
 10
0.0
 20
0.0
 30
0.0
 40
34.449674
  0
LINE
  5
ED
  8
BASIS
  6
DASHDOT
 62
     6
 10
-388.000012
 20
0.0
 30
0.0
 11
487.600012
 21
0.0
 31
0.0
  0
LINE
  5
EE
  8
SERVICESPACE
  6
DASHDOT
 62
     2
 10
-325.0
 20
-180.0
 30
0.0
 11
625.000014
 21
-180.0
 31
0.0
  0
LINE
  5
EF
  8
DETAIL
  6
CONTINUOUS
 62
     5
 10
256.200011
 20
327.0
 30
0.0
 11
-256.200011
 21
327.0
 31
0.0
  0
LINE
  5
F0
  8
SIZE
  6
CONTINUOUS
 62
    30
 10
290.000002
 20
352.799995
 30
0.0
 11
290.000002
 21
576.887229
 31
0.0
  0
LINE
  5
F1
  8
SIZE
  6
CONTINUOUS
 62
    30
 10
-289.999962
 20
352.799995
 30
0.0
 11
-289.999962
 21
576.887229
 31
0.0
  0
LINE
  5
F2
  8
SIZE
  6
CONTINUOUS
 62
    30
 10
280.000002
 20
546.887229
 30
0.0
 11
-279.999962
 21
546.887229
 31
0.0
  0
CIRCLE
  5
F3
  8
SIZE
  6
CONTINUOUS
 62
    30
 10
290.000002
 20
546.887229
 30
0.0
 40
5.0
  0
LINE
  5
F4
  8
SIZE
  6
CONTINUOUS
 62
    30
 10
285.000002
 20
546.887229
 30
0.0
 11
280.000002
 21
546.887229
 31
0.0
  0
CIRCLE
  5
F5
  8
SIZE
  6
CONTINUOUS
 62
    30
 10
-289.999962
 20
546.887229
 30
0.0
 40
5.0
  0
LINE
  5
F6
  8
SIZE
  6
CONTINUOUS
 62
    30
 10
-284.999962
 20
546.887229
 30
0.0
 11
-279.999962
 21
546.887229
 31
0.0
  0
TEXT
  5
F7
  8
SIZE
  6
CONTINUOUS
 62
    30
 10
-73.166315
 20
566.887229
 30
0.0
 40
64.0
  1
580
 41
0.9
 72
     1
 11
0.890828
 21
566.887229
 31
0.0
  0
POINT
  5
F8
  8
DEFPOINTS
  6
CONTINUOUS
 62
     7
 10
290.000002
 20
332.799995
 30
0.0
  0
POINT
  5
F9
  8
DEFPOINTS
  6
CONTINUOUS
 62
     7
 10
-289.999962
 20
332.799995
 30
0.0
  0
POINT
  5
FA
  8
DEFPOINTS
  6
CONTINUOUS
 62
     7
 10
-289.999962
 20
546.887229
 30
0.0
  0
LINE
  5
FB
  8
DETAIL
  6
CONTINUOUS
 62
     5
 10
288.800012
 20
334.0
 30
0.0
 11
-288.800012
 21
334.0
 31
0.0
  0
LINE
  5
FC
  8
DETAIL
  6
CONTINUOUS
 62
     5
 10
-288.000012
 20
180.0
 30
0.0
 11
287.600012
 21
180.0
 31
0.0
  0
LINE
  5
FD
  8
DETAIL
  6
CONTINUOUS
 62
     5
 10
-287.000012
 20
180.0
 30
0.0
 11
286.600012
 21
180.0
 31
0.0
  0
LINE
  5
FE
  8
DETAIL
  6
CONTINUOUS
 62
     5
 10
-288.000012
 20
-180.0
 30
0.0
 11
287.600012
 21
-180.0
 31
0.0
  0
LINE
  5
FF
  8
DETAIL
  6
CONTINUOUS
 62
     5
 10
0.0
 20
-253.0
 30
0.0
 11
265.380401
 21
-253.0
 31
0.0
  0
LINE
  5
100
  8
BASIS
  6
DASHDOT
 62
     6
 10
0.0
 20
416.626993
 30
0.0
 11
0.0
 21
-333.4531
 31
0.0
  0
LINE
  5
101
  8
DETAIL
  6
CONTINUOUS
 62
     5
 10
-325.0
 20
175.0
 30
0.0
 11
-325.0
 21
-171.0
 31
0.0
  0
LINE
  5
102
  8
DETAIL
  6
CONTINUOUS
 62
     5
 10
-288.000012
 20
-180.0
 30
0.0
 11
-288.000012
 21
180.0
 31
0.0
  0
LINE
  5
103
  8
NOTE
  6
CONTINUOUS
 62
     4
 10
-303.0
 20
-82.0
 30
0.0
 11
-319.877156
 21
-105.054026
 31
0.0
  0
LINE
  5
104
  8
NOTE
  6
CONTINUOUS
 62
     4
 10
-315.473774
 20
83.0
 30
0.0
 11
-290.526226
 21
83.0
 31
0.0
  0
CIRCLE
  5
105
  8
FIX
  6
CONTINUOUS
 62
    11
 10
-303.0
 20
82.76553
 30
0.0
 40
11.488279
  0
LINE
  5
106
  8
DETAIL
  6
CONTINUOUS
 62
     5
 10
-289.000012
 20
-176.0
 30
0.0
 11
-320.0
 21
-176.0
 31
0.0
  0
CIRCLE
  5
107
  8
FIX
  6
CONTINUOUS
 62
    11
 10
-303.0
 20
-82.23447
 30
0.0
 40
11.488279
  0
LINE
  5
108
  8
NOTE
  6
CONTINUOUS
 62
     4
 10
-315.473774
 20
-82.0
 30
0.0
 11
-290.526226
 21
-82.0
 31
0.0
  0
LINE
  5
109
  8
DETAIL
  6
CONTINUOUS
 62
     5
 10
-325.0
 20
-171.0
 30
0.0
 11
-320.0
 21
-176.0
 31
0.0
  0
LINE
  5
10A
  8
DETAIL
  6
CONTINUOUS
 62
     5
 10
-289.000012
 20
-179.100015
 30
0.0
 11
-289.000012
 21
-176.0
 31
0.0
  0
LINE
  5
10B
  8
DETAIL
  6
CONTINUOUS
 62
     5
 10
0.0
 20
-253.0
 30
0.0
 11
-265.780401
 21
-253.0
 31
0.0
  0
LINE
  5
10C
  8
DETAIL
  6
CONTINUOUS
 62
     5
 10
-289.000012
 20
-179.100015
 30
0.0
 11
-288.000012
 21
-179.100015
 31
0.0
  0
ARC
  5
10D
  8
DETAIL
  6
CONTINUOUS
 62
     5
 10
-287.700012
 20
-181.799997
 30
0.0
 40
2.0
 50
4.232288
 51
64.157865
  0
LINE
  5
10E
  8
DETAIL
  6
CONTINUOUS
 62
     5
 10
-288.000012
 20
-180.0
 30
0.0
 11
-288.000012
 21
-179.100015
 31
0.0
  0
ARC
  5
10F
  8
DETAIL
  6
CONTINUOUS
 62
     5
 10
-265.780401
 20
-245.0
 30
0.0
 40
8.0
 50
190.530562
 51
270.0
  0
LINE
  5
110
  8
DETAIL
  6
CONTINUOUS
 62
     5
 10
-262.700096
 20
-253.0
 30
0.0
 11
-264.411339
 21
-253.0
 31
0.0
  0
ARC
  5
111
  8
DETAIL
  6
CONTINUOUS
 62
     5
 10
309.308153
 20
-104.458978
 30
0.0
 40
600.000025
 50
187.391917
 51
193.690192
  0
LINE
  5
112
  8
NOTE
  6
CONTINUOUS
 62
     4
 10
-303.0
 20
-82.0
 30
0.0
 11
-306.089032
 21
-110.403951
 31
0.0
  0
ARC
  5
113
  8
DETAIL
  6
CONTINUOUS
 62
     5
 10
-307.0
 20
-82.0
 30
0.0
 40
7.0
 50
90.0
 51
270.0
  0
LINE
  5
114
  8
DETAIL
  6
CONTINUOUS
 62
     5
 10
-299.0
 20
-89.0
 30
0.0
 11
-307.0
 21
-89.0
 31
0.0
  0
LINE
  5
115
  8
NOTE
  6
CONTINUOUS
 62
     4
 10
-303.0
 20
-71.374016
 30
0.0
 11
-303.0
 21
-93.094923
 31
0.0
  0
LINE
  5
116
  8
NOTE
  6
CONTINUOUS
 62
     4
 10
-303.0
 20
-69.526226
 30
0.0
 11
-303.0
 21
-94.473774
 31
0.0
  0
ARC
  5
117
  8
DETAIL
  6
CONTINUOUS
 62
     5
 10
-299.0
 20
-82.0
 30
0.0
 40
7.0
 50
270.0
 51
90.0
  0
LINE
  5
118
  8
DETAIL
  6
CONTINUOUS
 62
     5
 10
-299.0
 20
-75.0
 30
0.0
 11
-307.0
 21
-75.0
 31
0.0
  0
ARC
  5
119
  8
DETAIL
  6
CONTINUOUS
 62
     5
 10
-299.0
 20
83.0
 30
0.0
 40
7.0
 50
270.0
 51
90.0
  0
LINE
  5
11A
  8
NOTE
  6
CONTINUOUS
 62
     4
 10
-303.0
 20
95.473774
 30
0.0
 11
-303.0
 21
70.526226
 31
0.0
  0
LINE
  5
11B
  8
NOTE
  6
CONTINUOUS
 62
     4
 10
-303.0
 20
93.625984
 30
0.0
 11
-303.0
 21
71.905077
 31
0.0
  0
LINE
  5
11C
  8
DETAIL
  6
CONTINUOUS
 62
     5
 10
-299.0
 20
76.0
 30
0.0
 11
-307.0
 21
76.0
 31
0.0
  0
ARC
  5
11D
  8
DETAIL
  6
CONTINUOUS
 62
     5
 10
-307.0
 20
83.0
 30
0.0
 40
7.0
 50
90.0
 51
270.0
  0
LINE
  5
11E
  8
DETAIL
  6
CONTINUOUS
 62
     5
 10
-299.0
 20
90.0
 30
0.0
 11
-307.0
 21
90.0
 31
0.0
  0
LINE
  5
11F
  8
DETAIL
  6
CONTINUOUS
 62
     5
 10
-320.0
 20
180.0
 30
0.0
 11
-287.599998
 21
180.0
 31
0.0
  0
TEXT
  5
120
  8
NOTE
  6
CONTINUOUS
 62
     4
 10
-590.466167
 20
299.926852
 30
0.0
 40
60.0
  1
空気吸込
 50
0.000003
 41
0.7
  7
STANDARD1
  0
LINE
  5
121
  8
NOTE
  6
CONTINUOUS
 62
     4
 10
-347.977485
 20
276.526949
 30
0.0
 11
-374.373107
 21
302.922571
 31
0.0
  0
LINE
  5
122
  8
NOTE
  6
CONTINUOUS
 62
     4
 10
-326.651966
 20
297.852468
 30
0.0
 11
-333.21552
 21
291.288914
 31
0.0
  0
LINE
  5
123
  8
NOTE
  6
CONTINUOUS
 62
     4
 10
-329.048418
 20
272.359847
 30
0.0
 11
-326.651966
 21
297.852468
 31
0.0
  0
LINE
  5
124
  8
NOTE
  6
CONTINUOUS
 62
     4
 10
-333.21552
 20
291.288914
 30
0.0
 11
-359.611143
 21
317.684536
 31
0.0
  0
LINE
  5
125
  8
NOTE
  6
CONTINUOUS
 62
     4
 10
-329.048418
 20
272.359847
 30
0.0
 11
-354.541039
 21
269.963395
 31
0.0
  0
LINE
  5
126
  8
NOTE
  6
CONTINUOUS
 62
     4
 10
-347.977485
 20
276.526949
 30
0.0
 11
-354.541039
 21
269.963395
 31
0.0
  0
LINE
  5
127
  8
DETAIL
  6
CONTINUOUS
 62
     5
 10
-325.0
 20
175.0
 30
0.0
 11
-320.0
 21
180.0
 31
0.0
  0
LINE
  5
128
  8
NOTE
  6
CONTINUOUS
 62
     4
 10
-374.373107
 20
302.922571
 30
0.0
 11
-359.611143
 21
317.684536
 31
0.0
  0
LINE
  5
129
  8
DETAIL
  6
CONTINUOUS
 62
     5
 10
-267.100011
 20
330.5
 30
0.0
 11
-267.100011
 21
184.7
 31
0.0
  0
LINE
  5
12A
  8
DETAIL
  6
CONTINUOUS
 62
     5
 10
-264.800011
 20
330.5
 30
0.0
 11
-264.800011
 21
184.7
 31
0.0
  0
LINE
  5
12B
  8
DETAIL
  6
CONTINUOUS
 62
     5
 10
-284.400012
 20
181.2
 30
0.0
 11
-267.800011
 21
181.2
 31
0.0
  0
LINE
  5
12C
  8
DETAIL
  6
CONTINUOUS
 62
     5
 10
-284.400012
 20
181.2
 30
0.0
 11
-267.800011
 21
181.2
 31
0.0
  0
LINE
  5
12D
  8
DETAIL
  6
CONTINUOUS
 62
     5
 10
-284.400012
 20
182.4
 30
0.0
 11
-267.800011
 21
182.4
 31
0.0
  0
LINE
  5
12E
  8
DETAIL
  6
CONTINUOUS
 62
     5
 10
-284.400012
 20
182.4
 30
0.0
 11
-267.800011
 21
182.4
 31
0.0
  0
LINE
  5
12F
  8
DETAIL
  6
CONTINUOUS
 62
     5
 10
-284.800012
 20
184.7
 30
0.0
 11
-267.100011
 21
184.7
 31
0.0
  0
LINE
  5
130
  8
DETAIL
  6
CONTINUOUS
 62
     5
 10
-284.800012
 20
182.4
 30
0.0
 11
-267.100011
 21
182.4
 31
0.0
  0
ARC
  5
131
  8
DETAIL
  6
CONTINUOUS
 62
     5
 10
-284.400012
 20
180.0
 30
0.0
 40
1.2
 50
90.0
 51
180.0
  0
ARC
  5
132
  8
DETAIL
  6
CONTINUOUS
 62
     5
 10
-284.400012
 20
180.0
 30
0.0
 40
1.2
 50
90.0
 51
180.0
  0
ARC
  5
133
  8
DETAIL
  6
CONTINUOUS
 62
     5
 10
-284.400012
 20
180.0
 30
0.0
 40
2.4
 50
90.0
 51
180.0
  0
LINE
  5
134
  8
DETAIL
  6
CONTINUOUS
 62
     5
 10
-284.800012
 20
184.7
 30
0.0
 11
-284.800012
 21
182.4
 31
0.0
  0
LINE
  5
135
  8
DETAIL
  6
CONTINUOUS
 62
     5
 10
-267.800011
 20
181.2
 30
0.0
 11
-267.800011
 21
182.4
 31
0.0
  0
LINE
  5
136
  8
DETAIL
  6
CONTINUOUS
 62
     5
 10
-267.800011
 20
181.2
 30
0.0
 11
-267.800011
 21
182.4
 31
0.0
  0
ARC
  5
137
  8
DETAIL
  6
CONTINUOUS
 62
     5
 10
-267.100011
 20
184.7
 30
0.0
 40
2.3
 50
270.0
 51
0.0
  0
ARC
  5
138
  8
DETAIL
  6
CONTINUOUS
 62
     5
 10
-264.800011
 20
330.5
 30
0.0
 40
2.3
 50
90.0
 51
180.0
  0
LINE
  5
139
  8
DETAIL
  6
CONTINUOUS
 62
     5
 10
-264.800011
 20
330.5
 30
0.0
 11
-259.700011
 21
330.5
 31
0.0
  0
LINE
  5
13A
  8
DETAIL
  6
CONTINUOUS
 62
     5
 10
-262.000011
 20
332.8
 30
0.0
 11
-256.200011
 21
327.0
 31
0.0
  0
LINE
  5
13B
  8
DETAIL
  6
CONTINUOUS
 62
     5
 10
-262.000011
 20
334.0
 30
0.0
 11
-262.000011
 21
332.8
 31
0.0
  0
ARC
  5
13C
  8
DETAIL
  6
CONTINUOUS
 62
     5
 10
-288.800012
 20
332.8
 30
0.0
 40
1.2
 50
90.0
 51
180.0
  0
LINE
  5
13D
  8
DETAIL
  6
CONTINUOUS
 62
     5
 10
-288.800012
 20
327.0
 30
0.0
 11
-290.000012
 21
327.0
 31
0.0
  0
LINE
  5
13E
  8
DETAIL
  6
CONTINUOUS
 62
     5
 10
-288.800012
 20
327.0
 30
0.0
 11
-288.800012
 21
332.8
 31
0.0
  0
LINE
  5
13F
  8
DETAIL
  6
CONTINUOUS
 62
     5
 10
-290.000012
 20
327.0
 30
0.0
 11
-290.000012
 21
332.8
 31
0.0
  0
LINE
  5
140
  8
DETAIL
  6
CONTINUOUS
 62
     5
 10
-262.000011
 20
332.8
 30
0.0
 11
-288.800012
 21
332.8
 31
0.0
  0
LINE
  5
141
  8
NOTE
  6
CONTINUOUS
 62
     4
 10
111.806393
 20
450.155209
 30
0.0
 11
371.000014
 21
128.0
 31
0.0
  0
LINE
  5
142
  8
NOTE
  6
CONTINUOUS
 62
     4
 10
371.000014
 20
128.0
 30
0.0
 11
359.461566
 21
154.137918
 31
0.0
  0
LINE
  5
143
  8
SIZE
  6
CONTINUOUS
 62
    30
 10
371.000014
 20
162.666667
 30
0.0
 11
371.000014
 21
575.890591
 31
0.0
  0
LINE
  5
144
  8
SIZE
  6
CONTINUOUS
 62
    30
 10
325.000014
 20
195.0
 30
0.0
 11
325.000014
 21
575.890591
 31
0.0
  0
LINE
  5
145
  8
SIZE
  6
CONTINUOUS
 62
    30
 10
315.000014
 20
545.890591
 30
0.0
 11
305.000014
 21
545.890591
 31
0.0
  0
LINE
  5
146
  8
SIZE
  6
CONTINUOUS
 62
    30
 10
381.000014
 20
545.890591
 30
0.0
 11
521.514299
 21
545.890591
 31
0.0
  0
LINE
  5
147
  8
SIZE
  6
CONTINUOUS
 62
    30
 10
325.000014
 20
545.890591
 30
0.0
 11
371.000014
 21
545.890591
 31
0.0
  0
CIRCLE
  5
148
  8
SIZE
  6
CONTINUOUS
 62
    30
 10
325.000014
 20
545.890591
 30
0.0
 40
5.0
  0
LINE
  5
149
  8
SIZE
  6
CONTINUOUS
 62
    30
 10
320.000014
 20
545.890591
 30
0.0
 11
315.000014
 21
545.890591
 31
0.0
  0
CIRCLE
  5
14A
  8
SIZE
  6
CONTINUOUS
 62
    30
 10
371.000014
 20
545.890591
 30
0.0
 40
5.0
  0
LINE
  5
14B
  8
SIZE
  6
CONTINUOUS
 62
    30
 10
376.000014
 20
545.890591
 30
0.0
 11
381.000014
 21
545.890591
 31
0.0
  0
TEXT
  5
14C
  8
SIZE
  6
CONTINUOUS
 62
    30
 10
411.000014
 20
565.890591
 30
0.0
 40
64.0
  1
46
 41
0.9
 72
     1
 11
456.257157
 21
565.890591
 31
0.0
  0
POINT
  5
14D
  8
DEFPOINTS
  6
CONTINUOUS
 62
     7
 10
371.000014
 20
142.666667
 30
0.0
  0
POINT
  5
14E
  8
DEFPOINTS
  6
CONTINUOUS
 62
     7
 10
325.000014
 20
175.0
 30
0.0
  0
POINT
  5
14F
  8
DEFPOINTS
  6
CONTINUOUS
 62
     7
 10
325.000014
 20
545.890591
 30
0.0
  0
LINE
  5
150
  8
SIZE
  6
CONTINUOUS
 62
    30
 10
360.000014
 20
94.666667
 30
0.0
 11
360.000014
 21
457.656351
 31
0.0
  0
LINE
  5
151
  8
SIZE
  6
CONTINUOUS
 62
    30
 10
325.000014
 20
195.0
 30
0.0
 11
325.000014
 21
457.656351
 31
0.0
  0
LINE
  5
152
  8
SIZE
  6
CONTINUOUS
 62
    30
 10
370.000014
 20
427.656351
 30
0.0
 11
380.000014
 21
427.656351
 31
0.0
  0
LINE
  5
153
  8
SIZE
  6
CONTINUOUS
 62
    30
 10
315.000014
 20
427.656351
 30
0.0
 11
153.23524
 21
427.656351
 31
0.0
  0
LINE
  5
154
  8
SIZE
  6
CONTINUOUS
 62
    30
 10
360.000014
 20
427.656351
 30
0.0
 11
325.000014
 21
427.656351
 31
0.0
  0
CIRCLE
  5
155
  8
SIZE
  6
CONTINUOUS
 62
    30
 10
360.000014
 20
427.656351
 30
0.0
 40
5.0
  0
LINE
  5
156
  8
SIZE
  6
CONTINUOUS
 62
    30
 10
365.000014
 20
427.656351
 30
0.0
 11
370.000014
 21
427.656351
 31
0.0
  0
CIRCLE
  5
157
  8
SIZE
  6
CONTINUOUS
 62
    30
 10
325.000014
 20
427.656351
 30
0.0
 40
5.0
  0
LINE
  5
158
  8
SIZE
  6
CONTINUOUS
 62
    30
 10
320.000014
 20
427.656351
 30
0.0
 11
315.000014
 21
427.656351
 31
0.0
  0
TEXT
  5
159
  8
SIZE
  6
CONTINUOUS
 62
    30
 10
173.23524
 20
447.656351
 30
0.0
 40
64.0
  1
35
 41
0.9
 72
     1
 11
219.863811
 21
447.656351
 31
0.0
  0
POINT
  5
15A
  8
DEFPOINTS
  6
CONTINUOUS
 62
     7
 10
360.000014
 20
74.666667
 30
0.0
  0
POINT
  5
15B
  8
DEFPOINTS
  6
CONTINUOUS
 62
     7
 10
325.000014
 20
175.0
 30
0.0
  0
POINT
  5
15C
  8
DEFPOINTS
  6
CONTINUOUS
 62
     7
 10
325.000014
 20
427.656351
 30
0.0
  0
LINE
  5
15D
  8
SERVICESPACE
  6
DASHDOT
 62
     2
 10
325.000014
 20
-180.0
 30
0.0
 11
625.000014
 21
334.0
 31
0.0
  0
LINE
  5
15E
  8
SERVICESPACE
  6
DASHDOT
 62
     2
 10
325.000014
 20
334.0
 30
0.0
 11
625.000014
 21
-180.0
 31
0.0
  0
LINE
  5
15F
  8
SERVICESPACE
  6
DASHDOT
 62
     2
 10
325.000014
 20
-180.0
 30
0.0
 11
325.000014
 21
334.0
 31
0.0
  0
LINE
  5
160
  8
DETAIL
  6
CONTINUOUS
 62
     5
 10
287.600012
 20
-180.0
 30
0.0
 11
287.600012
 21
180.0
 31
0.0
  0
LINE
  5
161
  8
DETAIL
  6
CONTINUOUS
 62
     5
 10
325.000014
 20
132.76
 30
0.0
 11
371.000014
 21
132.76
 31
0.0
  0
LINE
  5
162
  8
DETAIL
  6
CONTINUOUS
 62
     5
 10
325.000014
 20
123.24
 30
0.0
 11
371.000014
 21
123.24
 31
0.0
  0
LINE
  5
163
  8
DETAIL
  6
CONTINUOUS
 62
     5
 10
325.000014
 20
132.76
 30
0.0
 11
371.000014
 21
132.76
 31
0.0
  0
LINE
  5
164
  8
DETAIL
  6
CONTINUOUS
 62
     5
 10
325.000014
 20
123.24
 30
0.0
 11
371.000014
 21
123.24
 31
0.0
  0
LINE
  5
165
  8
DETAIL
  6
CONTINUOUS
 62
     5
 10
325.000014
 20
110.760002
 30
0.0
 11
347.000013
 21
110.760002
 31
0.0
  0
LINE
  5
166
  8
DETAIL
  6
CONTINUOUS
 62
     5
 10
325.000014
 20
101.240002
 30
0.0
 11
347.000013
 21
101.240002
 31
0.0
  0
LINE
  5
167
  8
DETAIL
  6
CONTINUOUS
 62
     5
 10
399.0
 20
14.999993
 30
0.0
 11
325.000014
 21
14.999993
 31
0.0
  0
LINE
  5
168
  8
DETAIL
  6
CONTINUOUS
 62
     5
 10
399.0
 20
-137.000013
 30
0.0
 11
325.000014
 21
-137.000013
 31
0.0
  0
LINE
  5
169
  8
DETAIL
  6
CONTINUOUS
 62
     5
 10
288.600012
 20
-179.100015
 30
0.0
 11
288.600012
 21
-176.0
 31
0.0
  0
LINE
  5
16A
  8
DETAIL
  6
CONTINUOUS
 62
     5
 10
287.600012
 20
-179.100015
 30
0.0
 11
288.600012
 21
-179.100015
 31
0.0
  0
LINE
  5
16B
  8
DETAIL
  6
CONTINUOUS
 62
     5
 10
320.000013
 20
-176.0
 30
0.0
 11
325.000014
 21
-171.0
 31
0.0
  0
LINE
  5
16C
  8
DETAIL
  6
CONTINUOUS
 62
     5
 10
320.000013
 20
-176.0
 30
0.0
 11
288.600012
 21
-176.0
 31
0.0
  0
LINE
  5
16D
  8
DETAIL
  6
CONTINUOUS
 62
     5
 10
325.000014
 20
-137.000013
 30
0.0
 11
325.000014
 21
-171.0
 31
0.0
  0
ARC
  5
16E
  8
DETAIL
  6
CONTINUOUS
 62
     5
 10
287.300012
 20
-181.799997
 30
0.0
 40
2.0
 50
115.842135
 51
175.767712
  0
LINE
  5
16F
  8
DETAIL
  6
CONTINUOUS
 62
     5
 10
287.600012
 20
-180.0
 30
0.0
 11
287.600012
 21
-179.100015
 31
0.0
  0
LINE
  5
170
  8
DETAIL
  6
CONTINUOUS
 62
     5
 10
262.300011
 20
-253.0
 30
0.0
 11
265.380401
 21
-253.0
 31
0.0
  0
ARC
  5
171
  8
DETAIL
  6
CONTINUOUS
 62
     5
 10
265.380401
 20
-245.0
 30
0.0
 40
8.0
 50
270.0
 51
343.064829
  0
ARC
  5
172
  8
DETAIL
  6
CONTINUOUS
 62
     5
 10
-309.708153
 20
-104.458978
 30
0.0
 40
600.000025
 50
346.224458
 51
352.608083
  0
LINE
  5
173
  8
NOTE
  6
CONTINUOUS
 62
     4
 10
290.526226
 20
-82.0
 30
0.0
 11
315.473774
 21
-82.0
 31
0.0
  0
CIRCLE
  5
174
  8
FIX
  6
CONTINUOUS
 62
    11
 10
303.0
 20
-82.23447
 30
0.0
 40
11.488279
  0
LINE
  5
175
  8
NOTE
  6
CONTINUOUS
 62
     4
 10
303.0
 20
-69.526226
 30
0.0
 11
303.0
 21
-94.473774
 31
0.0
  0
LINE
  5
176
  8
NOTE
  6
CONTINUOUS
 62
     4
 10
303.0
 20
-71.374016
 30
0.0
 11
303.0
 21
-93.094923
 31
0.0
  0
CIRCLE
  5
177
  8
FIX
  6
CONTINUOUS
 62
    11
 10
303.0
 20
82.76553
 30
0.0
 40
11.488279
  0
LINE
  5
178
  8
NOTE
  6
CONTINUOUS
 62
     4
 10
290.526226
 20
83.0
 30
0.0
 11
315.473774
 21
83.0
 31
0.0
  0
ARC
  5
179
  8
DETAIL
  6
CONTINUOUS
 62
     5
 10
299.0
 20
83.0
 30
0.0
 40
7.0
 50
90.0
 51
270.0
  0
LINE
  5
17A
  8
DETAIL
  6
CONTINUOUS
 62
     5
 10
307.0
 20
76.0
 30
0.0
 11
299.0
 21
76.0
 31
0.0
  0
LINE
  5
17B
  8
NOTE
  6
CONTINUOUS
 62
     4
 10
303.0
 20
93.625984
 30
0.0
 11
303.0
 21
71.905077
 31
0.0
  0
LINE
  5
17C
  8
NOTE
  6
CONTINUOUS
 62
     4
 10
303.0
 20
95.473774
 30
0.0
 11
303.0
 21
70.526226
 31
0.0
  0
ARC
  5
17D
  8
DETAIL
  6
CONTINUOUS
 62
     5
 10
307.0
 20
83.0
 30
0.0
 40
7.0
 50
270.0
 51
90.0
  0
LINE
  5
17E
  8
DETAIL
  6
CONTINUOUS
 62
     5
 10
307.0
 20
90.0
 30
0.0
 11
299.0
 21
90.0
 31
0.0
  0
LINE
  5
17F
  8
DETAIL
  6
CONTINUOUS
 62
     5
 10
325.000014
 20
175.0
 30
0.0
 11
325.000014
 21
14.999993
 31
0.0
  0
LINE
  5
180
  8
DETAIL
  6
CONTINUOUS
 62
     5
 10
399.0
 20
-135.000013
 30
0.0
 11
399.0
 21
12.999993
 31
0.0
  0
LINE
  5
181
  8
DETAIL
  6
CONTINUOUS
 62
     5
 10
399.0
 20
-137.000013
 30
0.0
 11
399.0
 21
14.999993
 31
0.0
  0
LINE
  5
182
  8
NOTE
  6
CONTINUOUS
 62
     4
 10
371.000014
 20
128.0
 30
0.0
 11
347.938466
 21
144.866877
 31
0.0
  0
LINE
  5
183
  8
NOTE
  6
CONTINUOUS
 62
     4
 10
371.000014
 20
142.666667
 30
0.0
 11
371.000014
 21
113.333333
 31
0.0
  0
LINE
  5
184
  8
NOTE
  6
CONTINUOUS
 62
     4
 10
385.666681
 20
128.0
 30
0.0
 11
356.333346
 21
128.0
 31
0.0
  0
LINE
  5
185
  8
NOTE
  6
CONTINUOUS
 62
     4
 10
374.666681
 20
60.0
 30
0.0
 11
345.333346
 21
60.0
 31
0.0
  0
LINE
  5
186
  8
DETAIL
  6
CONTINUOUS
 62
     5
 10
354.490013
 20
70.5
 30
0.0
 11
355.240013
 21
70.5
 31
0.0
  0
LINE
  5
187
  8
DETAIL
  6
CONTINUOUS
 62
     5
 10
364.760014
 20
70.5
 30
0.0
 11
365.510014
 21
70.5
 31
0.0
  0
LINE
  5
188
  8
DETAIL
  6
CONTINUOUS
 62
     5
 10
355.240013
 20
93.000001
 30
0.0
 11
355.240013
 21
66.354998
 31
0.0
  0
LINE
  5
189
  8
DETAIL
  6
CONTINUOUS
 62
     5
 10
364.760014
 20
93.000001
 30
0.0
 11
364.760014
 21
66.354998
 31
0.0
  0
LINE
  5
18A
  8
DETAIL
  6
CONTINUOUS
 62
     5
 10
354.490013
 20
70.5
 30
0.0
 11
354.490013
 21
65.799992
 31
0.0
  0
LINE
  5
18B
  8
DETAIL
  6
CONTINUOUS
 62
     5
 10
365.510014
 20
70.5
 30
0.0
 11
365.510014
 21
65.799992
 31
0.0
  0
ARC
  5
18C
  8
DETAIL
  6
CONTINUOUS
 62
     5
 10
347.000013
 20
93.000001
 30
0.0
 40
8.24
 50
0.0
 51
90.0
  0
ARC
  5
18D
  8
DETAIL
  6
CONTINUOUS
 62
     5
 10
347.000013
 20
93.000001
 30
0.0
 40
17.760001
 50
0.0
 51
90.0
  0
LINE
  5
18E
  8
NOTE
  6
CONTINUOUS
 62
     4
 10
360.000014
 20
74.666667
 30
0.0
 11
360.000014
 21
45.333333
 31
0.0
  0
LINE
  5
18F
  8
SERVICESPACE
  6
DASHDOT
 62
     2
 10
325.000014
 20
334.0
 30
0.0
 11
625.000014
 21
334.0
 31
0.0
  0
LINE
  5
190
  8
NOTE
  6
CONTINUOUS
 62
     4
 10
343.677658
 20
272.181036
 30
0.0
 11
341.281207
 21
297.673657
 31
0.0
  0
LINE
  5
191
  8
NOTE
  6
CONTINUOUS
 62
     4
 10
341.281207
 20
297.673657
 30
0.0
 11
347.844761
 21
291.110103
 31
0.0
  0
LINE
  5
192
  8
DETAIL
  6
CONTINUOUS
 62
     5
 10
267.100011
 20
330.5
 30
0.0
 11
267.100011
 21
184.7
 31
0.0
  0
LINE
  5
193
  8
DETAIL
  6
CONTINUOUS
 62
     5
 10
264.800011
 20
330.5
 30
0.0
 11
264.800011
 21
184.7
 31
0.0
  0
LINE
  5
194
  8
DETAIL
  6
CONTINUOUS
 62
     5
 10
287.600012
 20
180.0
 30
0.0
 11
320.000013
 21
180.0
 31
0.0
  0
LINE
  5
195
  8
DETAIL
  6
CONTINUOUS
 62
     5
 10
284.400012
 20
182.4
 30
0.0
 11
267.800011
 21
182.4
 31
0.0
  0
LINE
  5
196
  8
DETAIL
  6
CONTINUOUS
 62
     5
 10
284.400012
 20
182.4
 30
0.0
 11
267.800011
 21
182.4
 31
0.0
  0
LINE
  5
197
  8
DETAIL
  6
CONTINUOUS
 62
     5
 10
284.400012
 20
181.2
 30
0.0
 11
267.800011
 21
181.2
 31
0.0
  0
LINE
  5
198
  8
DETAIL
  6
CONTINUOUS
 62
     5
 10
284.400012
 20
181.2
 30
0.0
 11
267.800011
 21
181.2
 31
0.0
  0
LINE
  5
199
  8
DETAIL
  6
CONTINUOUS
 62
     5
 10
284.400012
 20
182.4
 30
0.0
 11
267.800011
 21
182.4
 31
0.0
  0
LINE
  5
19A
  8
DETAIL
  6
CONTINUOUS
 62
     5
 10
284.400012
 20
182.4
 30
0.0
 11
267.800011
 21
182.4
 31
0.0
  0
LINE
  5
19B
  8
DETAIL
  6
CONTINUOUS
 62
     5
 10
284.800012
 20
184.7
 30
0.0
 11
267.100011
 21
184.7
 31
0.0
  0
LINE
  5
19C
  8
DETAIL
  6
CONTINUOUS
 62
     5
 10
284.800012
 20
182.4
 30
0.0
 11
267.100011
 21
182.4
 31
0.0
  0
LINE
  5
19D
  8
DETAIL
  6
CONTINUOUS
 62
     5
 10
284.800012
 20
182.4
 30
0.0
 11
267.100011
 21
182.4
 31
0.0
  0
LINE
  5
19E
  8
DETAIL
  6
CONTINUOUS
 62
     5
 10
267.800011
 20
181.2
 30
0.0
 11
267.800011
 21
182.4
 31
0.0
  0
LINE
  5
19F
  8
DETAIL
  6
CONTINUOUS
 62
     5
 10
267.800011
 20
181.2
 30
0.0
 11
267.800011
 21
182.4
 31
0.0
  0
ARC
  5
1A0
  8
DETAIL
  6
CONTINUOUS
 62
     5
 10
267.100011
 20
184.7
 30
0.0
 40
2.3
 50
180.0
 51
270.0
  0
LINE
  5
1A1
  8
DETAIL
  6
CONTINUOUS
 62
     5
 10
286.800012
 20
180.0
 30
0.0
 11
285.600012
 21
180.0
 31
0.0
  0
ARC
  5
1A2
  8
DETAIL
  6
CONTINUOUS
 62
     5
 10
284.400012
 20
180.0
 30
0.0
 40
1.2
 50
0.0
 51
90.0
  0
ARC
  5
1A3
  8
DETAIL
  6
CONTINUOUS
 62
     5
 10
284.400012
 20
180.0
 30
0.0
 40
1.2
 50
0.0
 51
90.0
  0
ARC
  5
1A4
  8
DETAIL
  6
CONTINUOUS
 62
     5
 10
284.400012
 20
180.0
 30
0.0
 40
2.4
 50
0.0
 51
90.0
  0
ARC
  5
1A5
  8
DETAIL
  6
CONTINUOUS
 62
     5
 10
284.400012
 20
180.0
 30
0.0
 40
2.4
 50
0.0
 51
90.0
  0
LINE
  5
1A6
  8
DETAIL
  6
CONTINUOUS
 62
     5
 10
284.800012
 20
184.7
 30
0.0
 11
284.800012
 21
182.4
 31
0.0
  0
LINE
  5
1A7
  8
DETAIL
  6
CONTINUOUS
 62
     5
 10
320.000013
 20
180.0
 30
0.0
 11
325.000014
 21
175.0
 31
0.0
  0
LINE
  5
1A8
  8
DETAIL
  6
CONTINUOUS
 62
     5
 10
264.800011
 20
330.5
 30
0.0
 11
259.700011
 21
330.5
 31
0.0
  0
LINE
  5
1A9
  8
DETAIL
  6
CONTINUOUS
 62
     5
 10
262.000011
 20
332.8
 30
0.0
 11
256.200011
 21
327.0
 31
0.0
  0
ARC
  5
1AA
  8
DETAIL
  6
CONTINUOUS
 62
     5
 10
264.800011
 20
330.5
 30
0.0
 40
2.3
 50
0.0
 51
90.0
  0
LINE
  5
1AB
  8
DETAIL
  6
CONTINUOUS
 62
     5
 10
262.000011
 20
334.0
 30
0.0
 11
262.000011
 21
332.8
 31
0.0
  0
ARC
  5
1AC
  8
DETAIL
  6
CONTINUOUS
 62
     5
 10
288.800012
 20
332.8
 30
0.0
 40
1.2
 50
0.0
 51
90.0
  0
LINE
  5
1AD
  8
DETAIL
  6
CONTINUOUS
 62
     5
 10
290.000012
 20
327.0
 30
0.0
 11
290.000012
 21
332.8
 31
0.0
  0
LINE
  5
1AE
  8
DETAIL
  6
CONTINUOUS
 62
     5
 10
288.800012
 20
327.0
 30
0.0
 11
290.000012
 21
327.0
 31
0.0
  0
LINE
  5
1AF
  8
DETAIL
  6
CONTINUOUS
 62
     5
 10
288.800012
 20
327.0
 30
0.0
 11
288.800012
 21
332.8
 31
0.0
  0
LINE
  5
1B0
  8
DETAIL
  6
CONTINUOUS
 62
     5
 10
262.000011
 20
332.8
 30
0.0
 11
288.800012
 21
332.8
 31
0.0
  0
TEXT
  5
1B1
  8
NOTE
  6
CONTINUOUS
 62
     4
 10
400.932311
 20
344.420967
 30
0.0
 40
60.0
  1
空気吸込
 50
0.000003
 41
0.7
  7
STANDARD1
  0
LINE
  5
1B2
  8
NOTE
  6
CONTINUOUS
 62
     4
 10
362.606725
 20
276.348139
 30
0.0
 11
389.002348
 21
302.743761
 31
0.0
  0
LINE
  5
1B3
  8
NOTE
  6
CONTINUOUS
 62
     4
 10
347.844761
 20
291.110103
 30
0.0
 11
374.240383
 21
317.505725
 31
0.0
  0
LINE
  5
1B4
  8
NOTE
  6
CONTINUOUS
 62
     4
 10
343.677658
 20
272.181036
 30
0.0
 11
369.17028
 21
269.784584
 31
0.0
  0
LINE
  5
1B5
  8
NOTE
  6
CONTINUOUS
 62
     4
 10
362.606725
 20
276.348139
 30
0.0
 11
369.17028
 21
269.784584
 31
0.0
  0
LINE
  5
1B6
  8
NOTE
  6
CONTINUOUS
 62
     4
 10
389.002348
 20
302.743761
 30
0.0
 11
374.240383
 21
317.505725
 31
0.0
  0
CIRCLE
  5
1B7
  8
DETAIL
  6
CONTINUOUS
 62
     5
 10
360.000014
 20
60.0
 30
0.0
 40
7.94
  0
CIRCLE
  5
1B8
  8
DETAIL
  6
CONTINUOUS
 62
     5
 10
371.000014
 20
128.0
 30
0.0
 40
4.76
  0
LINE
  5
1B9
  8
DETAIL
  6
CONTINUOUS
 62
     5
 10
325.000014
 20
14.999993
 30
0.0
 11
325.000014
 21
-137.000013
 31
0.0
  0
ARC
  5
1BA
  8
DETAIL
  6
CONTINUOUS
 62
     5
 10
299.0
 20
-82.23447
 30
0.0
 40
7.0
 50
90.0
 51
270.0
  0
LINE
  5
1BB
  8
DETAIL
  6
CONTINUOUS
 62
     5
 10
307.0
 20
-75.234469
 30
0.0
 11
299.0
 21
-75.234469
 31
0.0
  0
ARC
  5
1BC
  8
DETAIL
  6
CONTINUOUS
 62
     5
 10
307.0
 20
-82.23447
 30
0.0
 40
7.0
 50
270.0
 51
90.0
  0
LINE
  5
1BD
  8
DETAIL
  6
CONTINUOUS
 62
     5
 10
307.0
 20
-89.23447
 30
0.0
 11
299.0
 21
-89.23447
 31
0.0
  0
LINE
  5
1BE
  8
OUTLINE
  6
CONTINUOUS
 62
     3
 10
288.800012
 20
334.0
 30
0.0
 11
-288.800012
 21
334.0
 31
0.0
  0
LINE
  5
1BF
  8
OUTLINE
  6
CONTINUOUS
 62
     3
 10
256.200011
 20
327.0
 30
0.0
 11
-256.200011
 21
327.0
 31
0.0
  0
LINE
  5
1C0
  8
OUTLINE
  6
CONTINUOUS
 62
     3
 10
-288.000012
 20
180.0
 30
0.0
 11
287.600012
 21
180.0
 31
0.0
  0
LINE
  5
1C1
  8
OUTLINE
  6
CONTINUOUS
 62
     3
 10
-287.000012
 20
180.0
 30
0.0
 11
286.600012
 21
180.0
 31
0.0
  0
LINE
  5
1C2
  8
OUTLINE
  6
CONTINUOUS
 62
     3
 10
-288.000012
 20
-180.0
 30
0.0
 11
287.600012
 21
-180.0
 31
0.0
  0
LINE
  5
1C3
  8
OUTLINE
  6
CONTINUOUS
 62
     3
 10
0.0
 20
-253.0
 30
0.0
 11
265.380401
 21
-253.0
 31
0.0
  0
LINE
  5
1C4
  8
OUTLINE
  6
CONTINUOUS
 62
     3
 10
-288.000012
 20
-180.0
 30
0.0
 11
-288.000012
 21
180.0
 31
0.0
  0
LINE
  5
1C5
  8
OUTLINE
  6
CONTINUOUS
 62
     3
 10
-325.0
 20
175.0
 30
0.0
 11
-325.0
 21
-171.0
 31
0.0
  0
LINE
  5
1C6
  8
OUTLINE
  6
CONTINUOUS
 62
     3
 10
-289.000012
 20
-176.0
 30
0.0
 11
-320.0
 21
-176.0
 31
0.0
  0
LINE
  5
1C7
  8
OUTLINE
  6
CONTINUOUS
 62
     3
 10
-325.0
 20
-171.0
 30
0.0
 11
-320.0
 21
-176.0
 31
0.0
  0
LINE
  5
1C8
  8
OUTLINE
  6
CONTINUOUS
 62
     3
 10
0.0
 20
-253.0
 30
0.0
 11
-265.780401
 21
-253.0
 31
0.0
  0
LINE
  5
1C9
  8
OUTLINE
  6
CONTINUOUS
 62
     3
 10
-289.000012
 20
-179.100015
 30
0.0
 11
-288.000012
 21
-179.100015
 31
0.0
  0
ARC
  5
1CA
  8
OUTLINE
  6
CONTINUOUS
 62
     3
 10
-287.700012
 20
-181.799997
 30
0.0
 40
2.0
 50
4.232288
 51
64.157865
  0
LINE
  5
1CB
  8
OUTLINE
  6
CONTINUOUS
 62
     3
 10
-288.000012
 20
-180.0
 30
0.0
 11
-288.000012
 21
-179.100015
 31
0.0
  0
LINE
  5
1CC
  8
OUTLINE
  6
CONTINUOUS
 62
     3
 10
-289.000012
 20
-179.100015
 30
0.0
 11
-289.000012
 21
-176.0
 31
0.0
  0
ARC
  5
1CD
  8
OUTLINE
  6
CONTINUOUS
 62
     3
 10
-265.780401
 20
-245.0
 30
0.0
 40
8.0
 50
190.530562
 51
270.0
  0
LINE
  5
1CE
  8
OUTLINE
  6
CONTINUOUS
 62
     3
 10
-262.700096
 20
-253.0
 30
0.0
 11
-264.411339
 21
-253.0
 31
0.0
  0
ARC
  5
1CF
  8
OUTLINE
  6
CONTINUOUS
 62
     3
 10
309.308153
 20
-104.458978
 30
0.0
 40
600.000025
 50
187.391917
 51
193.690192
  0
LINE
  5
1D0
  8
OUTLINE
  6
CONTINUOUS
 62
     3
 10
-320.0
 20
180.0
 30
0.0
 11
-287.599998
 21
180.0
 31
0.0
  0
LINE
  5
1D1
  8
OUTLINE
  6
CONTINUOUS
 62
     3
 10
-325.0
 20
175.0
 30
0.0
 11
-320.0
 21
180.0
 31
0.0
  0
LINE
  5
1D2
  8
OUTLINE
  6
CONTINUOUS
 62
     3
 10
-267.100011
 20
330.5
 30
0.0
 11
-267.100011
 21
184.7
 31
0.0
  0
LINE
  5
1D3
  8
OUTLINE
  6
CONTINUOUS
 62
     3
 10
-264.800011
 20
330.5
 30
0.0
 11
-264.800011
 21
184.7
 31
0.0
  0
LINE
  5
1D4
  8
OUTLINE
  6
CONTINUOUS
 62
     3
 10
-284.400012
 20
181.2
 30
0.0
 11
-267.800011
 21
181.2
 31
0.0
  0
LINE
  5
1D5
  8
OUTLINE
  6
CONTINUOUS
 62
     3
 10
-284.400012
 20
181.2
 30
0.0
 11
-267.800011
 21
181.2
 31
0.0
  0
LINE
  5
1D6
  8
OUTLINE
  6
CONTINUOUS
 62
     3
 10
-284.400012
 20
182.4
 30
0.0
 11
-267.800011
 21
182.4
 31
0.0
  0
LINE
  5
1D7
  8
OUTLINE
  6
CONTINUOUS
 62
     3
 10
-284.400012
 20
182.4
 30
0.0
 11
-267.800011
 21
182.4
 31
0.0
  0
LINE
  5
1D8
  8
OUTLINE
  6
CONTINUOUS
 62
     3
 10
-284.800012
 20
184.7
 30
0.0
 11
-267.100011
 21
184.7
 31
0.0
  0
LINE
  5
1D9
  8
OUTLINE
  6
CONTINUOUS
 62
     3
 10
-284.800012
 20
182.4
 30
0.0
 11
-267.100011
 21
182.4
 31
0.0
  0
ARC
  5
1DA
  8
OUTLINE
  6
CONTINUOUS
 62
     3
 10
-284.400012
 20
180.0
 30
0.0
 40
1.2
 50
90.0
 51
180.0
  0
ARC
  5
1DB
  8
OUTLINE
  6
CONTINUOUS
 62
     3
 10
-284.400012
 20
180.0
 30
0.0
 40
1.2
 50
90.0
 51
180.0
  0
ARC
  5
1DC
  8
OUTLINE
  6
CONTINUOUS
 62
     3
 10
-284.400012
 20
180.0
 30
0.0
 40
2.4
 50
90.0
 51
180.0
  0
LINE
  5
1DD
  8
OUTLINE
  6
CONTINUOUS
 62
     3
 10
-284.800012
 20
184.7
 30
0.0
 11
-284.800012
 21
182.4
 31
0.0
  0
LINE
  5
1DE
  8
OUTLINE
  6
CONTINUOUS
 62
     3
 10
-267.800011
 20
181.2
 30
0.0
 11
-267.800011
 21
182.4
 31
0.0
  0
LINE
  5
1DF
  8
OUTLINE
  6
CONTINUOUS
 62
     3
 10
-267.800011
 20
181.2
 30
0.0
 11
-267.800011
 21
182.4
 31
0.0
  0
ARC
  5
1E0
  8
OUTLINE
  6
CONTINUOUS
 62
     3
 10
-267.100011
 20
184.7
 30
0.0
 40
2.3
 50
270.0
 51
0.0
  0
LINE
  5
1E1
  8
OUTLINE
  6
CONTINUOUS
 62
     3
 10
-259.700011
 20
330.5
 30
0.0
 11
-256.200011
 21
327.0
 31
0.0
  0
LINE
  5
1E2
  8
OUTLINE
  6
CONTINUOUS
 62
     3
 10
-264.800011
 20
332.8
 30
0.0
 11
-288.800012
 21
332.8
 31
0.0
  0
ARC
  5
1E3
  8
OUTLINE
  6
CONTINUOUS
 62
     3
 10
-264.800011
 20
330.5
 30
0.0
 40
2.3
 50
90.0
 51
180.0
  0
LINE
  5
1E4
  8
OUTLINE
  6
CONTINUOUS
 62
     3
 10
-264.800011
 20
330.5
 30
0.0
 11
-259.700011
 21
330.5
 31
0.0
  0
ARC
  5
1E5
  8
OUTLINE
  6
CONTINUOUS
 62
     3
 10
-288.800012
 20
332.8
 30
0.0
 40
1.2
 50
90.0
 51
180.0
  0
LINE
  5
1E6
  8
OUTLINE
  6
CONTINUOUS
 62
     3
 10
-288.800012
 20
327.0
 30
0.0
 11
-290.000012
 21
327.0
 31
0.0
  0
LINE
  5
1E7
  8
OUTLINE
  6
CONTINUOUS
 62
     3
 10
-288.800012
 20
327.0
 30
0.0
 11
-288.800012
 21
332.8
 31
0.0
  0
LINE
  5
1E8
  8
OUTLINE
  6
CONTINUOUS
 62
     3
 10
-290.000012
 20
327.0
 30
0.0
 11
-290.000012
 21
332.8
 31
0.0
  0
LINE
  5
1E9
  8
OUTLINE
  6
CONTINUOUS
 62
     3
 10
399.0
 20
-135.000013
 30
0.0
 11
399.0
 21
12.999993
 31
0.0
  0
LINE
  5
1EA
  8
OUTLINE
  6
CONTINUOUS
 62
     3
 10
399.0
 20
-137.000013
 30
0.0
 11
399.0
 21
14.999993
 31
0.0
  0
LINE
  5
1EB
  8
OUTLINE
  6
CONTINUOUS
 62
     3
 10
325.000014
 20
14.999993
 30
0.0
 11
325.000014
 21
-137.000013
 31
0.0
  0
LINE
  5
1EC
  8
OUTLINE
  6
CONTINUOUS
 62
     3
 10
287.600012
 20
-180.0
 30
0.0
 11
287.600012
 21
180.0
 31
0.0
  0
LINE
  5
1ED
  8
OUTLINE
  6
CONTINUOUS
 62
     3
 10
399.0
 20
-137.000013
 30
0.0
 11
325.000014
 21
-137.000013
 31
0.0
  0
LINE
  5
1EE
  8
OUTLINE
  6
CONTINUOUS
 62
     3
 10
320.000013
 20
-176.0
 30
0.0
 11
325.000014
 21
-171.0
 31
0.0
  0
LINE
  5
1EF
  8
OUTLINE
  6
CONTINUOUS
 62
     3
 10
287.600012
 20
-179.100015
 30
0.0
 11
288.600012
 21
-179.100015
 31
0.0
  0
LINE
  5
1F0
  8
OUTLINE
  6
CONTINUOUS
 62
     3
 10
320.000013
 20
-176.0
 30
0.0
 11
288.600012
 21
-176.0
 31
0.0
  0
ARC
  5
1F1
  8
OUTLINE
  6
CONTINUOUS
 62
     3
 10
287.300012
 20
-181.799997
 30
0.0
 40
2.0
 50
115.842135
 51
175.767712
  0
LINE
  5
1F2
  8
OUTLINE
  6
CONTINUOUS
 62
     3
 10
287.600012
 20
-180.0
 30
0.0
 11
287.600012
 21
-179.100015
 31
0.0
  0
LINE
  5
1F3
  8
OUTLINE
  6
CONTINUOUS
 62
     3
 10
288.600012
 20
-179.100015
 30
0.0
 11
288.600012
 21
-176.0
 31
0.0
  0
LINE
  5
1F4
  8
OUTLINE
  6
CONTINUOUS
 62
     3
 10
262.300011
 20
-253.0
 30
0.0
 11
265.380401
 21
-253.0
 31
0.0
  0
ARC
  5
1F5
  8
OUTLINE
  6
CONTINUOUS
 62
     3
 10
265.380401
 20
-245.0
 30
0.0
 40
8.0
 50
270.0
 51
343.064829
  0
ARC
  5
1F6
  8
OUTLINE
  6
CONTINUOUS
 62
     3
 10
-309.708153
 20
-104.458978
 30
0.0
 40
600.000025
 50
346.224458
 51
352.608083
  0
LINE
  5
1F7
  8
OUTLINE
  6
CONTINUOUS
 62
     3
 10
325.000014
 20
-137.000013
 30
0.0
 11
325.000014
 21
-171.0
 31
0.0
  0
LINE
  5
1F8
  8
OUTLINE
  6
CONTINUOUS
 62
     3
 10
399.0
 20
14.999993
 30
0.0
 11
325.000014
 21
14.999993
 31
0.0
  0
LINE
  5
1F9
  8
OUTLINE
  6
CONTINUOUS
 62
     3
 10
267.100011
 20
330.5
 30
0.0
 11
267.100011
 21
184.7
 31
0.0
  0
LINE
  5
1FA
  8
OUTLINE
  6
CONTINUOUS
 62
     3
 10
264.800011
 20
330.5
 30
0.0
 11
264.800011
 21
184.7
 31
0.0
  0
LINE
  5
1FB
  8
OUTLINE
  6
CONTINUOUS
 62
     3
 10
325.000014
 20
175.0
 30
0.0
 11
325.000014
 21
14.999993
 31
0.0
  0
LINE
  5
1FC
  8
OUTLINE
  6
CONTINUOUS
 62
     3
 10
287.600012
 20
180.0
 30
0.0
 11
320.000013
 21
180.0
 31
0.0
  0
LINE
  5
1FD
  8
OUTLINE
  6
CONTINUOUS
 62
     3
 10
284.400012
 20
182.4
 30
0.0
 11
267.800011
 21
182.4
 31
0.0
  0
LINE
  5
1FE
  8
OUTLINE
  6
CONTINUOUS
 62
     3
 10
284.400012
 20
182.4
 30
0.0
 11
267.800011
 21
182.4
 31
0.0
  0
LINE
  5
1FF
  8
OUTLINE
  6
CONTINUOUS
 62
     3
 10
284.400012
 20
181.2
 30
0.0
 11
267.800011
 21
181.2
 31
0.0
  0
LINE
  5
200
  8
OUTLINE
  6
CONTINUOUS
 62
     3
 10
284.400012
 20
181.2
 30
0.0
 11
267.800011
 21
181.2
 31
0.0
  0
LINE
  5
201
  8
OUTLINE
  6
CONTINUOUS
 62
     3
 10
284.400012
 20
182.4
 30
0.0
 11
267.800011
 21
182.4
 31
0.0
  0
LINE
  5
202
  8
OUTLINE
  6
CONTINUOUS
 62
     3
 10
284.400012
 20
182.4
 30
0.0
 11
267.800011
 21
182.4
 31
0.0
  0
LINE
  5
203
  8
OUTLINE
  6
CONTINUOUS
 62
     3
 10
284.800012
 20
184.7
 30
0.0
 11
267.100011
 21
184.7
 31
0.0
  0
LINE
  5
204
  8
OUTLINE
  6
CONTINUOUS
 62
     3
 10
284.800012
 20
182.4
 30
0.0
 11
267.100011
 21
182.4
 31
0.0
  0
LINE
  5
205
  8
OUTLINE
  6
CONTINUOUS
 62
     3
 10
284.800012
 20
182.4
 30
0.0
 11
267.100011
 21
182.4
 31
0.0
  0
LINE
  5
206
  8
OUTLINE
  6
CONTINUOUS
 62
     3
 10
267.800011
 20
181.2
 30
0.0
 11
267.800011
 21
182.4
 31
0.0
  0
LINE
  5
207
  8
OUTLINE
  6
CONTINUOUS
 62
     3
 10
267.800011
 20
181.2
 30
0.0
 11
267.800011
 21
182.4
 31
0.0
  0
ARC
  5
208
  8
OUTLINE
  6
CONTINUOUS
 62
     3
 10
267.100011
 20
184.7
 30
0.0
 40
2.3
 50
180.0
 51
270.0
  0
LINE
  5
209
  8
OUTLINE
  6
CONTINUOUS
 62
     3
 10
286.800012
 20
180.0
 30
0.0
 11
285.600012
 21
180.0
 31
0.0
  0
ARC
  5
20A
  8
OUTLINE
  6
CONTINUOUS
 62
     3
 10
284.400012
 20
180.0
 30
0.0
 40
1.2
 50
0.0
 51
90.0
  0
ARC
  5
20B
  8
OUTLINE
  6
CONTINUOUS
 62
     3
 10
284.400012
 20
180.0
 30
0.0
 40
1.2
 50
0.0
 51
90.0
  0
ARC
  5
20C
  8
OUTLINE
  6
CONTINUOUS
 62
     3
 10
284.400012
 20
180.0
 30
0.0
 40
2.4
 50
0.0
 51
90.0
  0
ARC
  5
20D
  8
OUTLINE
  6
CONTINUOUS
 62
     3
 10
284.400012
 20
180.0
 30
0.0
 40
2.4
 50
0.0
 51
90.0
  0
LINE
  5
20E
  8
OUTLINE
  6
CONTINUOUS
 62
     3
 10
284.800012
 20
184.7
 30
0.0
 11
284.800012
 21
182.4
 31
0.0
  0
LINE
  5
20F
  8
OUTLINE
  6
CONTINUOUS
 62
     3
 10
320.000013
 20
180.0
 30
0.0
 11
325.000014
 21
175.0
 31
0.0
  0
LINE
  5
210
  8
OUTLINE
  6
CONTINUOUS
 62
     3
 10
264.800011
 20
330.5
 30
0.0
 11
259.700011
 21
330.5
 31
0.0
  0
LINE
  5
211
  8
OUTLINE
  6
CONTINUOUS
 62
     3
 10
259.700011
 20
330.5
 30
0.0
 11
256.200011
 21
327.0
 31
0.0
  0
LINE
  5
212
  8
OUTLINE
  6
CONTINUOUS
 62
     3
 10
264.800011
 20
332.8
 30
0.0
 11
288.800012
 21
332.8
 31
0.0
  0
ARC
  5
213
  8
OUTLINE
  6
CONTINUOUS
 62
     3
 10
264.800011
 20
330.5
 30
0.0
 40
2.3
 50
0.0
 51
90.0
  0
ARC
  5
214
  8
OUTLINE
  6
CONTINUOUS
 62
     3
 10
288.800012
 20
332.8
 30
0.0
 40
1.2
 50
0.0
 51
90.0
  0
LINE
  5
215
  8
OUTLINE
  6
CONTINUOUS
 62
     3
 10
288.800012
 20
327.0
 30
0.0
 11
290.000012
 21
327.0
 31
0.0
  0
LINE
  5
216
  8
OUTLINE
  6
CONTINUOUS
 62
     3
 10
290.000012
 20
327.0
 30
0.0
 11
290.000012
 21
332.8
 31
0.0
  0
LINE
  5
217
  8
OUTLINE
  6
CONTINUOUS
 62
     3
 10
288.800012
 20
327.0
 30
0.0
 11
288.800012
 21
332.8
 31
0.0
  0
TEXT
  5
218
  8
NOTE
  6
CONTINUOUS
 62
     4
 10
589.584285
 20
-880.744686
 30
0.0
 40
60.0
  1
RG用ソケット先端 %%C12.7
 50
359.999997
 41
0.840476
  7
STANDARD1
  0
LINE
  5
219
  8
NOTE
  6
CONTINUOUS
 62
     4
 10
581.09617
 20
-800.07859
 30
0.0
 11
1409.369691
 21
-800.07859
 31
0.0
  0
TEXT
  5
21A
  8
NOTE
  6
CONTINUOUS
 62
     4
 10
587.965811
 20
-782.892804
 30
0.0
 40
60.0
  1
RG %%C15.88
 50
359.999997
 41
0.840476
  7
STANDARD1
  0
LINE
  5
21B
  8
NOTE
  6
CONTINUOUS
 62
     4
 10
581.09617
 20
-800.07859
 30
0.0
 11
360.000014
 21
60.0
 31
0.0
  0
LINE
  5
21C
  8
NOTE
  6
CONTINUOUS
 62
     4
 10
360.000014
 20
60.0
 30
0.0
 11
359.709093
 21
31.430053
 31
0.0
  0
LINE
  5
21D
  8
NOTE
  6
CONTINUOUS
 62
     4
 10
360.000014
 20
60.0
 30
0.0
 11
374.033043
 21
35.11224
 31
0.0
  0
LINE
  5
21E
  8
NOTE
  6
CONTINUOUS
 62
     4
 10
360.000014
 20
74.666667
 30
0.0
 11
360.000014
 21
45.333333
 31
0.0
  0
TEXT
  5
21F
  8
NOTE
  6
CONTINUOUS
 62
     4
 10
524.27
 20
-301.979576
 30
0.0
 40
60.0
  1
サービススペース兼
 50
89.999997
 41
0.840476
  7
STANDARD1
  0
TEXT
  5
220
  8
NOTE
  6
CONTINUOUS
 62
     4
 10
588.741554
 20
-128.970573
 30
0.0
 40
60.0
  1
通風スペース
 50
89.999997
 41
0.840476
  7
STANDARD1
  0
TEXT
  5
221
  8
NOTE
  6
CONTINUOUS
 62
     4
 10
-195.06725
 20
-469.576633
 30
0.0
 40
60.0
  1
サービススペース兼
 50
359.999997
 41
0.840476
  7
STANDARD1
  0
TEXT
  5
222
  8
NOTE
  6
CONTINUOUS
 62
     4
 10
-199.530498
 20
-536.942884
 30
0.0
 40
60.0
  1
通風スペース
 50
359.999997
 41
0.840476
  7
STANDARD1
  0
TEXT
  5
223
  8
SIZE
  6
CONTINUOUS
 62
    30
 10
-678.280583
 20
-163.995065
 30
0.0
 40
64.0
  1
(据付ピッチ)
 50
90.000003
 41
0.7
  7
STANDARD1
  0
LINE
  5
224
  8
NOTE
  6
CONTINUOUS
 62
     4
 10
-26.841101
 20
-308.997766
 30
0.0
 11
-26.841101
 21
-271.668719
 31
0.0
  0
LINE
  5
225
  8
NOTE
  6
CONTINUOUS
 62
     4
 10
-47.717672
 20
-308.997766
 30
0.0
 11
-47.717672
 21
-271.668719
 31
0.0
  0
LINE
  5
226
  8
NOTE
  6
CONTINUOUS
 62
     4
 10
-56.999939
 20
-308.997766
 30
0.0
 11
-47.717672
 21
-308.997766
 31
0.0
  0
LINE
  5
227
  8
NOTE
  6
CONTINUOUS
 62
     4
 10
-37.279387
 20
-325.329224
 30
0.0
 11
-56.999939
 21
-308.997766
 31
0.0
  0
LINE
  5
228
  8
NOTE
  6
CONTINUOUS
 62
     4
 10
-26.841101
 20
-271.668719
 30
0.0
 11
-47.717672
 21
-271.668719
 31
0.0
  0
LINE
  5
229
  8
NOTE
  6
CONTINUOUS
 62
     4
 10
-37.279387
 20
-325.329224
 30
0.0
 11
-17.558834
 21
-308.997766
 31
0.0
  0
LINE
  5
22A
  8
NOTE
  6
CONTINUOUS
 62
     4
 10
-26.841101
 20
-308.997766
 30
0.0
 11
-17.558834
 21
-308.997766
 31
0.0
  0
TEXT
  5
22B
  8
NOTE
  6
CONTINUOUS
 62
     4
 10
75.652429
 20
-339.214452
 30
0.0
 40
60.0
  1
空気吹出
 50
0.000003
 41
0.7
  7
STANDARD1
  0
ENDSEC
  0
EOF
