  0
SECTION
  2
HEADER
  9
$ACADVER
  1
AC1009
  9
$INSBASE
 10
0.0
 20
0.0
 30
0.0
  9
$EXTMIN
 10
-1015.237664
 20
-1041.717806
 30
0.0
  9
$EXTMAX
 10
1100.48652
 20
583.572284
 30
0.0
  9
$LIMMIN
 10
-4200.0
 20
-2970.0
  9
$LIMMAX
 10
4200.0
 20
2970.0
  9
$ORTHOMODE
 70
     1
  9
$REGENMODE
 70
     1
  9
$FILLMODE
 70
     1
  9
$QTEXTMODE
 70
     0
  9
$MIRRTEXT
 70
     0
  9
$DRAGMODE
 70
     2
  9
$LTSCALE
 40
20.0
  9
$OSMODE
 70
  2081
  9
$ATTMODE
 70
     1
  9
$TEXTSIZE
 40
64.0
  9
$TRACEWID
 40
0.05
  9
$TEXTSTYLE
  7
STANDARD
  9
$CLAYER
  8
SIZE
  9
$CELTYPE
  6
CONTINUOUS
  9
$CECOLOR
 62
     7
  9
$DIMSCALE
 40
1.0
  9
$DIMASZ
 40
10.0
  9
$DIMEXO
 40
20.0
  9
$DIMDLI
 40
200.0
  9
$DIMRND
 40
0.0
  9
$DIMDLE
 40
0.0
  9
$DIMEXE
 40
30.0
  9
$DIMTP
 40
0.0
  9
$DIMTM
 40
0.0
  9
$DIMTXT
 40
64.0
  9
$DIMCEN
 40
0.0
  9
$DIMTSZ
 40
0.0
  9
$DIMTOL
 70
     0
  9
$DIMLIM
 70
     0
  9
$DIMTIH
 70
     0
  9
$DIMTOH
 70
     0
  9
$DIMSE1
 70
     0
  9
$DIMSE2
 70
     0
  9
$DIMTAD
 70
     1
  9
$DIMZIN
 70
     8
  9
$DIMBLK
  1
DOTBLANK
  9
$DIMASO
 70
     1
  9
$DIMSHO
 70
     0
  9
$DIMPOST
  1

  9
$DIMAPOST
  1

  9
$DIMALT
 70
     0
  9
$DIMALTD
 70
     2
  9
$DIMALTF
 40
25.4
  9
$DIMLFAC
 40
1.0
  9
$DIMTOFL
 70
     1
  9
$DIMTVP
 40
0.0
  9
$DIMTIX
 70
     1
  9
$DIMSOXD
 70
     0
  9
$DIMSAH
 70
     0
  9
$DIMBLK1
  1

  9
$DIMBLK2
  1

  9
$DIMSTYLE
  2
STANDARD
  9
$DIMCLRD
 70
     0
  9
$DIMCLRE
 70
     0
  9
$DIMCLRT
 70
     0
  9
$DIMTFAC
 40
1.0
  9
$DIMGAP
 40
0.09
  9
$LUNITS
 70
     2
  9
$LUPREC
 70
     4
  9
$SKETCHINC
 40
0.1
  9
$FILLETRAD
 40
0.0
  9
$AUNITS
 70
     1
  9
$AUPREC
 70
     3
  9
$MENU
  1
ACAD
  9
$ELEVATION
 40
0.0
  9
$PELEVATION
 40
0.0
  9
$THICKNESS
 40
0.0
  9
$LIMCHECK
 70
     0
  9
$BLIPMODE
 70
     0
  9
$CHAMFERA
 40
0.0
  9
$CHAMFERB
 40
0.0
  9
$SKPOLY
 70
     0
  9
$TDCREATE
 40
2449761.493623
  9
$TDUPDATE
 40
2453756.428962
  9
$TDINDWG
 40
4.099007
  9
$TDUSRTIMER
 40
4.099007
  9
$USRTIMER
 70
     1
  9
$ANGBASE
 50
0.0
  9
$ANGDIR
 70
     0
  9
$PDMODE
 70
    35
  9
$PDSIZE
 40
100.0
  9
$PLINEWID
 40
0.0
  9
$COORDS
 70
     0
  9
$SPLFRAME
 70
     0
  9
$SPLINETYPE
 70
     6
  9
$SPLINESEGS
 70
     8
  9
$ATTDIA
 70
     0
  9
$ATTREQ
 70
     1
  9
$HANDLING
 70
     1
  9
$HANDSEED
  5
1AF
  9
$SURFTAB1
 70
     6
  9
$SURFTAB2
 70
     6
  9
$SURFTYPE
 70
     6
  9
$SURFU
 70
     6
  9
$SURFV
 70
     6
  9
$UCSNAME
  2

  9
$UCSORG
 10
0.0
 20
0.0
 30
0.0
  9
$UCSXDIR
 10
1.0
 20
0.0
 30
0.0
  9
$UCSYDIR
 10
0.0
 20
1.0
 30
0.0
  9
$PUCSNAME
  2

  9
$PUCSORG
 10
0.0
 20
0.0
 30
0.0
  9
$PUCSXDIR
 10
1.0
 20
0.0
 30
0.0
  9
$PUCSYDIR
 10
0.0
 20
1.0
 30
0.0
  9
$USERI1
 70
     0
  9
$USERI2
 70
     0
  9
$USERI3
 70
     0
  9
$USERI4
 70
     0
  9
$USERI5
 70
     0
  9
$USERR1
 40
20.0
  9
$USERR2
 40
0.0
  9
$USERR3
 40
0.0
  9
$USERR4
 40
0.0
  9
$USERR5
 40
0.0
  9
$WORLDVIEW
 70
     1
  9
$SHADEDGE
 70
     3
  9
$SHADEDIF
 70
    70
  9
$TILEMODE
 70
     1
  9
$MAXACTVP
 70
    48
  9
$PLIMCHECK
 70
     0
  9
$PEXTMIN
 10
1.000000E+020
 20
1.000000E+020
 30
1.000000E+020
  9
$PEXTMAX
 10
-1.000000E+020
 20
-1.000000E+020
 30
-1.000000E+020
  9
$PLIMMIN
 10
0.0
 20
0.0
  9
$PLIMMAX
 10
12.0
 20
9.0
  9
$UNITMODE
 70
     0
  9
$VISRETAIN
 70
     1
  9
$PLINEGEN
 70
     0
  9
$PSLTSCALE
 70
     1
  0
ENDSEC
  0
SECTION
  2
TABLES
  0
TABLE
  2
VPORT
 70
     2
  0
VPORT
  2
*ACTIVE
 70
     0
 10
0.0
 20
0.0
 11
1.0
 21
1.0
 12
1081.755319
 22
0.0
 13
0.0
 23
0.0
 14
50.0
 24
50.0
 15
100.0
 25
100.0
 16
0.0
 26
0.0
 36
1.0
 17
0.0
 27
0.0
 37
0.0
 40
5940.0
 41
1.778369
 42
50.0
 43
0.0
 44
0.0
 50
0.0
 51
0.0
 71
     0
 72
  1000
 73
     1
 74
     0
 75
     0
 76
     0
 77
     0
 78
     0
  0
ENDTAB
  0
TABLE
  2
LTYPE
 70
     2
  0
LTYPE
  2
CONTINUOUS
 70
     0
  3
実線
 72
    65
 73
     0
 40
0.0
  0
LTYPE
  2
DASHDOT
 70
     0
  3
____ _ ____ _ ____ _ ____ _ ____ _ ____ _ ____
 72
    65
 73
     4
 40
5.5
 49
4.0
 49
-0.6
 49
0.3
 49
-0.6
  0
ENDTAB
  0
TABLE
  2
LAYER
 70
    12
  0
LAYER
  2
0
 70
     0
 62
     7
  6
CONTINUOUS
  0
LAYER
  2
SIZE
 70
     0
 62
    30
  6
CONTINUOUS
  0
LAYER
  2
OUTLINE
 70
     0
 62
     3
  6
CONTINUOUS
  0
LAYER
  2
DETAIL
 70
     0
 62
     5
  6
CONTINUOUS
  0
LAYER
  2
BASIS
 70
     0
 62
     6
  6
DASHDOT
  0
LAYER
  2
NOTE
 70
     0
 62
     4
  6
CONTINUOUS
  0
LAYER
  2
ARRANGE
 70
     0
 62
     1
  6
CONTINUOUS
  0
LAYER
  2
FIX
 70
     0
 62
    11
  6
CONTINUOUS
  0
LAYER
  2
SERVICESPACE
 70
     0
 62
     2
  6
DASHDOT
  0
LAYER
  2
ETC
 70
     0
 62
    61
  6
CONTINUOUS
  0
LAYER
  2
SYMBOLLINE
 70
     0
 62
    15
  6
CONTINUOUS
  0
LAYER
  2
DEFPOINTS
 70
     0
 62
     7
  6
CONTINUOUS
  0
ENDTAB
  0
TABLE
  2
STYLE
 70
     2
  0
STYLE
  2
STANDARD
 70
     0
 40
0.0
 41
0.9
 50
0.0
 71
     0
 42
64.0
  3
SIMPLEX
  4
BIGFONT
  0
STYLE
  2
STANDARD1
 70
     0
 40
0.0
 41
1.0
 50
0.0
 71
     0
 42
3.5
  3
MONOTXT
  4
BIGFONT
  0
ENDTAB
  0
TABLE
  2
VIEW
 70
     1
  0
VIEW
  2
ALL
 70
     0
 40
6056.230032
 10
0.0
 20
58.115016
 41
8400.0
 11
0.0
 21
0.0
 31
1.0
 12
0.0
 22
0.0
 32
0.0
 42
50.0
 43
0.0
 44
0.0
 50
0.0
 71
     0
  0
ENDTAB
  0
TABLE
  2
UCS
 70
     0
  0
ENDTAB
  0
TABLE
  2
APPID
 70
     1
  0
APPID
  2
ACAD
 70
     0
  0
ENDTAB
  0
TABLE
  2
DIMSTYLE
 70
     1
  0
DIMSTYLE
  2
STANDARD
 70
     0
  3

  4

  5

  6

  7

 40
1.0
 41
0.18
 42
0.0625
 43
0.38
 44
0.18
 45
0.0
 46
0.0
 47
0.0
 48
0.0
140
0.18
141
0.09
142
0.0
143
25.4
144
1.0
145
0.0
146
1.0
147
0.09
 71
     0
 72
     0
 73
     1
 74
     1
 75
     0
 76
     0
 77
     0
 78
     0
170
     0
171
     2
172
     0
173
     0
174
     0
175
     0
176
     0
177
     0
178
     0
  0
ENDTAB
  0
ENDSEC
  0
SECTION
  2
BLOCKS
  0
BLOCK
  8
0
  2
$MODEL_SPACE
 70
     0
 10
0.0
 20
0.0
 30
0.0
  3
$MODEL_SPACE
  1

  0
ENDBLK
  5
191
  8
0
  0
BLOCK
 67
     1
  8
0
  2
$PAPER_SPACE
 70
     0
 10
0.0
 20
0.0
 30
0.0
  3
$PAPER_SPACE
  1

  0
ENDBLK
  5
18E
 67
     1
  8
0
  0
BLOCK
  8
0
  2
_DOTBLANK
 70
     0
 10
0.0
 20
0.0
 30
0.0
  3
_DOTBLANK
  1

  0
CIRCLE
  5
36
  8
0
  6
CONTINUOUS
 62
     7
 10
0.0
 20
0.0
 30
0.0
 40
0.5
  0
LINE
  5
37
  8
0
  6
CONTINUOUS
 62
     7
 10
-0.5
 20
0.0
 30
0.0
 11
-1.0
 21
0.0
 31
0.0
  0
ENDBLK
  5
38
  8
0
  0
ENDSEC
  0
SECTION
  2
ENTITIES
  0
TEXT
  5
39
  8
NOTE
  6
CONTINUOUS
 62
     4
 10
608.134392
 20
-94.282392
 30
0.0
 40
55.0
  1
横吸込口
 50
0.000003
 41
0.717708
  7
STANDARD1
  0
LINE
  5
3A
  8
NOTE
  6
CONTINUOUS
 62
     4
 10
666.744311
 20
-0.171662
 30
0.0
 11
730.615279
 21
-0.171662
 31
0.0
  0
LINE
  5
3B
  8
NOTE
  6
CONTINUOUS
 62
     4
 10
666.744311
 20
39.747693
 30
0.0
 11
730.615279
 21
39.747693
 31
0.0
  0
TEXT
  5
3C
  8
NOTE
  6
CONTINUOUS
 62
     4
 10
689.106513
 20
242.357769
 30
0.0
 40
55.0
  1
後吸込口
 50
0.000003
 41
0.863095
  7
STANDARD1
  0
LINE
  5
3D
  8
DETAIL
  6
CONTINUOUS
 62
     5
 10
-495.0
 20
-209.002016
 30
0.0
 11
-495.0
 21
209.002016
 31
0.0
  0
LINE
  5
3E
  8
DETAIL
  6
CONTINUOUS
 62
     5
 10
495.0
 20
-209.002016
 30
0.0
 11
495.0
 21
209.002016
 31
0.0
  0
ARC
  5
3F
  8
DETAIL
  6
CONTINUOUS
 62
     5
 10
45.360772
 20
-217.439608
 30
0.0
 40
149.697581
 50
186.77549
 51
204.859878
  0
ARC
  5
40
  8
DETAIL
  6
CONTINUOUS
 62
     5
 10
317.905357
 20
-217.439608
 30
0.0
 40
149.697581
 50
335.140122
 51
353.22451
  0
LINE
  5
41
  8
DETAIL
  6
CONTINUOUS
 62
     5
 10
446.487679
 20
-285.0
 30
0.0
 11
-83.22155
 21
-285.0
 31
0.0
  0
ARC
  5
42
  8
DETAIL
  6
CONTINUOUS
 62
     5
 10
-83.22155
 20
-277.016129
 30
0.0
 40
7.983871
 50
204.859878
 51
270.0
  0
LINE
  5
43
  8
NOTE
  6
CONTINUOUS
 62
     4
 10
193.397171
 20
-490.344558
 30
0.0
 11
149.48588
 21
-442.441332
 31
0.0
  0
LINE
  5
44
  8
NOTE
  6
CONTINUOUS
 62
     4
 10
193.397171
 20
-490.344558
 30
0.0
 11
237.308461
 21
-442.441332
 31
0.0
  0
TEXT
  5
45
  8
NOTE
  6
CONTINUOUS
 62
     4
 10
256.036796
 20
-456.722226
 30
0.0
 40
55.0
  1
空気吹出
 50
0.000003
 41
0.717708
  7
STANDARD1
  0
LINE
  5
46
  8
NOTE
  6
CONTINUOUS
 62
     4
 10
213.356848
 20
-378.570365
 30
0.0
 11
173.437493
 21
-378.570365
 31
0.0
  0
LINE
  5
47
  8
NOTE
  6
CONTINUOUS
 62
     4
 10
173.437493
 20
-442.441332
 30
0.0
 11
173.437493
 21
-378.570365
 31
0.0
  0
LINE
  5
48
  8
NOTE
  6
CONTINUOUS
 62
     4
 10
213.356848
 20
-442.441332
 30
0.0
 11
213.356848
 21
-378.570365
 31
0.0
  0
LINE
  5
49
  8
NOTE
  6
CONTINUOUS
 62
     4
 10
237.308461
 20
-442.441332
 30
0.0
 11
213.356848
 21
-442.441332
 31
0.0
  0
LINE
  5
4A
  8
NOTE
  6
CONTINUOUS
 62
     4
 10
173.437493
 20
-442.441332
 30
0.0
 11
149.48588
 21
-442.441332
 31
0.0
  0
ARC
  5
4B
  8
DETAIL
  6
CONTINUOUS
 62
     5
 10
446.487679
 20
-277.016129
 30
0.0
 40
7.983871
 50
270.0
 51
335.140122
  0
LINE
  5
4C
  8
DETAIL
  6
CONTINUOUS
 62
     5
 10
-105.287298
 20
-235.100806
 30
0.0
 11
468.553427
 21
-235.100806
 31
0.0
  0
LINE
  5
4D
  8
DETAIL
  6
CONTINUOUS
 62
     5
 10
-102.933911
 20
-233.104839
 30
0.0
 11
466.20004
 21
-233.104839
 31
0.0
  0
LINE
  5
4E
  8
DETAIL
  6
CONTINUOUS
 62
     5
 10
494.002016
 20
-210.0
 30
0.0
 11
-494.002016
 21
-210.0
 31
0.0
  0
LINE
  5
4F
  8
NOTE
  6
CONTINUOUS
 62
     4
 10
-454.001634
 20
-54.237291
 30
0.0
 11
-454.001634
 21
-101.762709
 31
0.0
  0
LINE
  5
50
  8
NOTE
  6
CONTINUOUS
 62
     4
 10
-417.0
 20
-72.40589
 30
0.0
 11
-417.0
 21
-113.59411
 31
0.0
  0
LINE
  5
51
  8
NOTE
  6
CONTINUOUS
 62
     4
 10
-396.40589
 20
-93.0
 30
0.0
 11
-437.59411
 21
-93.0
 31
0.0
  0
LINE
  5
52
  8
DETAIL
  6
CONTINUOUS
 62
     5
 10
-494.002016
 20
-209.002016
 30
0.0
 11
-494.002016
 21
-210.0
 31
0.0
  0
LINE
  5
53
  8
DETAIL
  6
CONTINUOUS
 62
     5
 10
-495.0
 20
-209.002016
 30
0.0
 11
-494.002016
 21
-209.002016
 31
0.0
  0
ARC
  5
54
  8
DETAIL
  6
CONTINUOUS
 62
     5
 10
-494.002016
 20
-209.002016
 30
0.0
 40
0.199597
 50
180.0
 51
270.0
  0
LINE
  5
55
  8
DETAIL
  6
CONTINUOUS
 62
     5
 10
-105.287298
 20
-233.104839
 30
0.0
 11
-104.289315
 21
-233.104839
 31
0.0
  0
LINE
  5
56
  8
DETAIL
  6
CONTINUOUS
 62
     5
 10
-104.289315
 20
-233.104839
 30
0.0
 11
-102.973407
 21
-233.104839
 31
0.0
  0
LINE
  5
57
  8
DETAIL
  6
CONTINUOUS
 62
     5
 10
-104.289315
 20
-232.306452
 30
0.0
 11
-89.319556
 21
-232.306452
 31
0.0
  0
LINE
  5
58
  8
DETAIL
  6
CONTINUOUS
 62
     5
 10
-104.289315
 20
-232.306452
 30
0.0
 11
-104.511694
 21
-232.277813
 31
0.0
  0
LINE
  5
59
  8
DETAIL
  6
CONTINUOUS
 62
     5
 10
-104.511694
 20
-232.277813
 30
0.0
 11
-104.671226
 21
-232.256552
 31
0.0
  0
LINE
  5
5A
  8
DETAIL
  6
CONTINUOUS
 62
     5
 10
-104.671226
 20
-232.256552
 30
0.0
 11
-104.843765
 21
-232.231603
 31
0.0
  0
LINE
  5
5B
  8
DETAIL
  6
CONTINUOUS
 62
     5
 10
-104.843765
 20
-232.231603
 30
0.0
 11
-104.994996
 21
-232.206653
 31
0.0
  0
LINE
  5
5C
  8
DETAIL
  6
CONTINUOUS
 62
     5
 10
-104.994996
 20
-232.206653
 30
0.0
 11
-105.119108
 21
-232.181704
 31
0.0
  0
LINE
  5
5D
  8
DETAIL
  6
CONTINUOUS
 62
     5
 10
-105.119108
 20
-232.181704
 30
0.0
 11
-105.211331
 21
-232.156754
 31
0.0
  0
LINE
  5
5E
  8
DETAIL
  6
CONTINUOUS
 62
     5
 10
-105.211331
 20
-232.156754
 30
0.0
 11
-105.268122
 21
-232.131804
 31
0.0
  0
LINE
  5
5F
  8
DETAIL
  6
CONTINUOUS
 62
     5
 10
-105.268122
 20
-232.131804
 30
0.0
 11
-105.287298
 21
-232.106855
 31
0.0
  0
LINE
  5
60
  8
DETAIL
  6
CONTINUOUS
 62
     5
 10
-105.287298
 20
-210.0
 30
0.0
 11
-105.287298
 21
-232.106855
 31
0.0
  0
LINE
  5
61
  8
DETAIL
  6
CONTINUOUS
 62
     5
 10
-105.287298
 20
-233.104839
 30
0.0
 11
-105.287298
 21
-235.100806
 31
0.0
  0
LINE
  5
62
  8
DETAIL
  6
CONTINUOUS
 62
     5
 10
-104.289315
 20
-233.104839
 30
0.0
 11
-104.289315
 21
-232.306452
 31
0.0
  0
LINE
  5
63
  8
DETAIL
  6
CONTINUOUS
 62
     5
 10
-89.319556
 20
-233.104839
 30
0.0
 11
-89.319556
 21
-232.106855
 31
0.0
  0
ARC
  5
64
  8
DETAIL
  6
CONTINUOUS
 62
     5
 10
-104.289315
 20
-232.106855
 30
0.0
 40
0.997984
 50
180.0
 51
270.0
  0
LINE
  5
65
  8
NOTE
  6
CONTINUOUS
 62
     4
 10
-430.238925
 20
-78.0
 30
0.0
 11
-477.764343
 21
-78.0
 31
0.0
  0
LINE
  5
66
  8
DETAIL
  6
CONTINUOUS
 62
     5
 10
467.75014
 20
-232.281502
 30
0.0
 11
467.555444
 21
-232.306452
 31
0.0
  0
LINE
  5
67
  8
DETAIL
  6
CONTINUOUS
 62
     5
 10
466.20004
 20
-233.104839
 30
0.0
 11
467.555444
 21
-233.104839
 31
0.0
  0
LINE
  5
68
  8
DETAIL
  6
CONTINUOUS
 62
     5
 10
467.555444
 20
-233.104839
 30
0.0
 11
468.553427
 21
-233.104839
 31
0.0
  0
LINE
  5
69
  8
DETAIL
  6
CONTINUOUS
 62
     5
 10
452.585685
 20
-232.306452
 30
0.0
 11
467.555444
 21
-232.306452
 31
0.0
  0
LINE
  5
6A
  8
DETAIL
  6
CONTINUOUS
 62
     5
 10
452.585685
 20
-233.104839
 30
0.0
 11
452.585685
 21
-232.106855
 31
0.0
  0
LINE
  5
6B
  8
DETAIL
  6
CONTINUOUS
 62
     5
 10
467.555444
 20
-233.104839
 30
0.0
 11
467.555444
 21
-232.306452
 31
0.0
  0
LINE
  5
6C
  8
DETAIL
  6
CONTINUOUS
 62
     5
 10
468.553427
 20
-210.0
 30
0.0
 11
468.553427
 21
-232.106855
 31
0.0
  0
LINE
  5
6D
  8
DETAIL
  6
CONTINUOUS
 62
     5
 10
468.553427
 20
-233.104839
 30
0.0
 11
468.553427
 21
-235.100806
 31
0.0
  0
LINE
  5
6E
  8
DETAIL
  6
CONTINUOUS
 62
     5
 10
468.553427
 20
-232.106855
 30
0.0
 11
468.534251
 21
-232.131804
 31
0.0
  0
LINE
  5
6F
  8
DETAIL
  6
CONTINUOUS
 62
     5
 10
468.534251
 20
-232.131804
 30
0.0
 11
468.47746
 21
-232.156754
 31
0.0
  0
LINE
  5
70
  8
DETAIL
  6
CONTINUOUS
 62
     5
 10
468.47746
 20
-232.156754
 30
0.0
 11
468.385237
 21
-232.181704
 31
0.0
  0
LINE
  5
71
  8
DETAIL
  6
CONTINUOUS
 62
     5
 10
468.385237
 20
-232.181704
 30
0.0
 11
468.261125
 21
-232.206653
 31
0.0
  0
LINE
  5
72
  8
DETAIL
  6
CONTINUOUS
 62
     5
 10
468.261125
 20
-232.206653
 30
0.0
 11
468.109894
 21
-232.231603
 31
0.0
  0
LINE
  5
73
  8
DETAIL
  6
CONTINUOUS
 62
     5
 10
468.109894
 20
-232.231603
 30
0.0
 11
467.937355
 21
-232.256552
 31
0.0
  0
LINE
  5
74
  8
DETAIL
  6
CONTINUOUS
 62
     5
 10
467.937355
 20
-232.256552
 30
0.0
 11
467.75014
 21
-232.281502
 31
0.0
  0
ARC
  5
75
  8
DETAIL
  6
CONTINUOUS
 62
     5
 10
467.555444
 20
-232.106855
 30
0.0
 40
0.997984
 50
270.0
 51
0.0
  0
LINE
  5
76
  8
DETAIL
  6
CONTINUOUS
 62
     5
 10
494.002016
 20
-209.002016
 30
0.0
 11
495.0
 21
-209.002016
 31
0.0
  0
LINE
  5
77
  8
DETAIL
  6
CONTINUOUS
 62
     5
 10
494.002016
 20
-210.0
 30
0.0
 11
494.002016
 21
-209.002016
 31
0.0
  0
ARC
  5
78
  8
DETAIL
  6
CONTINUOUS
 62
     5
 10
494.002016
 20
-209.002016
 30
0.0
 40
0.199597
 50
270.0
 51
0.0
  0
LINE
  5
79
  8
NOTE
  6
CONTINUOUS
 62
     4
 10
618.841086
 20
19.788015
 30
0.0
 11
666.744311
 21
-24.123275
 31
0.0
  0
LINE
  5
7A
  8
NOTE
  6
CONTINUOUS
 62
     4
 10
666.744311
 20
-0.171662
 30
0.0
 11
666.744311
 21
-24.123275
 31
0.0
  0
LINE
  5
7B
  8
DETAIL
  6
CONTINUOUS
 62
     5
 10
495.064889
 20
-76.121976
 30
0.0
 11
495.0
 21
-76.121976
 31
0.0
  0
LINE
  5
7C
  8
DETAIL
  6
CONTINUOUS
 62
     5
 10
495.0
 20
-75.123992
 30
0.0
 11
495.064889
 21
-75.123992
 31
0.0
  0
LINE
  5
7D
  8
DETAIL
  6
CONTINUOUS
 62
     5
 10
495.064889
 20
-75.123992
 30
0.0
 11
495.03802
 21
-74.828859
 31
0.0
  0
LINE
  5
7E
  8
DETAIL
  6
CONTINUOUS
 62
     5
 10
495.03802
 20
-74.828859
 30
0.0
 11
495.0
 21
-74.546911
 31
0.0
  0
LINE
  5
7F
  8
DETAIL
  6
CONTINUOUS
 62
     5
 10
495.0
 20
-76.699057
 30
0.0
 11
495.03802
 21
-76.417109
 31
0.0
  0
LINE
  5
80
  8
DETAIL
  6
CONTINUOUS
 62
     5
 10
495.03802
 20
-76.417109
 30
0.0
 11
495.064889
 21
-76.121976
 31
0.0
  0
LINE
  5
81
  8
NOTE
  6
CONTINUOUS
 62
     4
 10
618.841086
 20
19.788015
 30
0.0
 11
666.744311
 21
63.699306
 31
0.0
  0
LINE
  5
82
  8
NOTE
  6
CONTINUOUS
 62
     4
 10
666.744311
 20
63.699306
 30
0.0
 11
666.744311
 21
39.747693
 31
0.0
  0
LINE
  5
83
  8
DETAIL
  6
CONTINUOUS
 62
     5
 10
494.002016
 20
210.0
 30
0.0
 11
-494.002016
 21
210.0
 31
0.0
  0
LINE
  5
84
  8
DETAIL
  6
CONTINUOUS
 62
     5
 10
485.8125
 20
353.014113
 30
0.0
 11
-253.8125
 21
353.014113
 31
0.0
  0
LINE
  5
85
  8
DETAIL
  6
CONTINUOUS
 62
     5
 10
490.802419
 20
360.0
 30
0.0
 11
-258.802419
 21
360.0
 31
0.0
  0
LINE
  5
86
  8
DETAIL
  6
CONTINUOUS
 62
     5
 10
-240.040323
 20
353.014113
 30
0.0
 11
-240.040323
 21
210.0
 31
0.0
  0
LINE
  5
87
  8
DETAIL
  6
CONTINUOUS
 62
     5
 10
-242.335685
 20
353.014113
 30
0.0
 11
-242.335685
 21
210.0
 31
0.0
  0
TEXT
  5
88
  8
NOTE
  6
CONTINUOUS
 62
     4
 10
-581.040759
 20
246.852351
 30
0.0
 40
55.0
  1
後吸込口
 50
0.000003
 41
0.863095
  7
STANDARD1
  0
LINE
  5
89
  8
DETAIL
  6
CONTINUOUS
 62
     5
 10
-494.002016
 20
210.0
 30
0.0
 11
-494.002016
 21
209.002016
 31
0.0
  0
LINE
  5
8A
  8
DETAIL
  6
CONTINUOUS
 62
     5
 10
-494.002016
 20
209.002016
 30
0.0
 11
-495.0
 21
209.002016
 31
0.0
  0
ARC
  5
8B
  8
DETAIL
  6
CONTINUOUS
 62
     5
 10
-494.002016
 20
209.002016
 30
0.0
 40
0.199597
 50
90.0
 51
180.0
  0
LINE
  5
8C
  8
NOTE
  6
CONTINUOUS
 62
     4
 10
-303.545959
 20
308.51987
 30
0.0
 11
-355.865993
 21
345.154752
 31
0.0
  0
LINE
  5
8D
  8
NOTE
  6
CONTINUOUS
 62
     4
 10
-378.762794
 20
312.454731
 30
0.0
 11
-355.865993
 21
345.154752
 31
0.0
  0
LINE
  5
8E
  8
NOTE
  6
CONTINUOUS
 62
     4
 10
-340.180841
 20
256.199836
 30
0.0
 11
-326.44276
 21
275.819849
 31
0.0
  0
LINE
  5
8F
  8
NOTE
  6
CONTINUOUS
 62
     4
 10
-275.754334
 20
264.693698
 30
0.0
 11
-340.180841
 21
256.199836
 31
0.0
  0
LINE
  5
90
  8
NOTE
  6
CONTINUOUS
 62
     4
 10
-326.44276
 20
275.819849
 30
0.0
 11
-378.762794
 21
312.454731
 31
0.0
  0
LINE
  5
91
  8
NOTE
  6
CONTINUOUS
 62
     4
 10
-275.754334
 20
264.693698
 30
0.0
 11
-289.807878
 21
328.139883
 31
0.0
  0
LINE
  5
92
  8
NOTE
  6
CONTINUOUS
 62
     4
 10
-303.545959
 20
308.51987
 30
0.0
 11
-289.807878
 21
328.139883
 31
0.0
  0
LINE
  5
93
  8
DETAIL
  6
CONTINUOUS
 62
     5
 10
-258.802419
 20
358.004032
 30
0.0
 11
-253.8125
 21
353.014113
 31
0.0
  0
LINE
  5
94
  8
DETAIL
  6
CONTINUOUS
 62
     5
 10
-258.802419
 20
353.014113
 30
0.0
 11
-260.0
 21
353.014113
 31
0.0
  0
LINE
  5
95
  8
DETAIL
  6
CONTINUOUS
 62
     5
 10
-258.802419
 20
353.014113
 30
0.0
 11
-258.802419
 21
360.0
 31
0.0
  0
LINE
  5
96
  8
DETAIL
  6
CONTINUOUS
 62
     5
 10
475.483367
 20
353.014113
 30
0.0
 11
475.483367
 21
210.0
 31
0.0
  0
LINE
  5
97
  8
DETAIL
  6
CONTINUOUS
 62
     5
 10
473.188004
 20
353.014113
 30
0.0
 11
473.188004
 21
210.0
 31
0.0
  0
LINE
  5
98
  8
DETAIL
  6
CONTINUOUS
 62
     5
 10
493.896169
 20
209.002016
 30
0.0
 11
494.894153
 21
209.002016
 31
0.0
  0
LINE
  5
99
  8
DETAIL
  6
CONTINUOUS
 62
     5
 10
493.896169
 20
210.0
 30
0.0
 11
493.896169
 21
209.002016
 31
0.0
  0
ARC
  5
9A
  8
DETAIL
  6
CONTINUOUS
 62
     5
 10
493.896169
 20
209.002016
 30
0.0
 40
0.199597
 50
0.0
 51
90.0
  0
LINE
  5
9B
  8
NOTE
  6
CONTINUOUS
 62
     4
 10
624.795143
 20
303.529951
 30
0.0
 11
677.115177
 21
340.164833
 31
0.0
  0
LINE
  5
9C
  8
NOTE
  6
CONTINUOUS
 62
     4
 10
700.011978
 20
307.464812
 30
0.0
 11
677.115177
 21
340.164833
 31
0.0
  0
LINE
  5
9D
  8
NOTE
  6
CONTINUOUS
 62
     4
 10
661.430025
 20
251.209917
 30
0.0
 11
647.691944
 21
270.82993
 31
0.0
  0
LINE
  5
9E
  8
NOTE
  6
CONTINUOUS
 62
     4
 10
597.003518
 20
259.703779
 30
0.0
 11
661.430025
 21
251.209917
 31
0.0
  0
LINE
  5
9F
  8
NOTE
  6
CONTINUOUS
 62
     4
 10
597.003518
 20
259.703779
 30
0.0
 11
611.057062
 21
323.149963
 31
0.0
  0
LINE
  5
A0
  8
NOTE
  6
CONTINUOUS
 62
     4
 10
624.795143
 20
303.529951
 30
0.0
 11
611.057062
 21
323.149963
 31
0.0
  0
LINE
  5
A1
  8
NOTE
  6
CONTINUOUS
 62
     4
 10
647.691944
 20
270.82993
 30
0.0
 11
700.011978
 21
307.464812
 31
0.0
  0
LINE
  5
A2
  8
DETAIL
  6
CONTINUOUS
 62
     5
 10
490.802419
 20
358.004032
 30
0.0
 11
485.8125
 21
353.014113
 31
0.0
  0
LINE
  5
A3
  8
DETAIL
  6
CONTINUOUS
 62
     5
 10
490.802419
 20
360.0
 30
0.0
 11
490.802419
 21
353.014113
 31
0.0
  0
LINE
  5
A4
  8
DETAIL
  6
CONTINUOUS
 62
     5
 10
492.0
 20
353.014113
 30
0.0
 11
492.0
 21
358.802419
 31
0.0
  0
LINE
  5
A5
  8
DETAIL
  6
CONTINUOUS
 62
     5
 10
492.0
 20
353.014113
 30
0.0
 11
490.802419
 21
353.014113
 31
0.0
  0
LINE
  5
A6
  8
NOTE
  6
CONTINUOUS
 62
     4
 10
730.615279
 20
39.747693
 30
0.0
 11
730.615279
 21
-0.171662
 31
0.0
  0
LINE
  5
A7
  8
DETAIL
  6
CONTINUOUS
 62
     5
 10
-258.802419
 20
360.0
 30
0.0
 11
-260.0
 21
358.802419
 31
0.0
  0
LINE
  5
A8
  8
DETAIL
  6
CONTINUOUS
 62
     5
 10
490.802419
 20
360.0
 30
0.0
 11
492.0
 21
358.802419
 31
0.0
  0
LINE
  5
A9
  8
DETAIL
  6
CONTINUOUS
 62
     5
 10
493.896169
 20
210.0
 30
0.0
 11
494.894153
 21
209.002016
 31
0.0
  0
LINE
  5
AA
  8
DETAIL
  6
CONTINUOUS
 62
     5
 10
-494.002016
 20
210.0
 30
0.0
 11
-495.0
 21
209.002016
 31
0.0
  0
LINE
  5
AB
  8
DETAIL
  6
CONTINUOUS
 62
     5
 10
-495.0
 20
-209.002016
 30
0.0
 11
-494.002016
 21
-210.0
 31
0.0
  0
LINE
  5
AC
  8
DETAIL
  6
CONTINUOUS
 62
     5
 10
495.0
 20
-209.002016
 30
0.0
 11
494.002016
 21
-210.0
 31
0.0
  0
LINE
  5
AD
  8
SIZE
  6
CONTINUOUS
 62
    30
 10
-495.0
 20
-229.002016
 30
0.0
 11
-495.0
 21
-885.103128
 31
0.0
  0
LINE
  5
AE
  8
SIZE
  6
CONTINUOUS
 62
    30
 10
495.0
 20
-229.002016
 30
0.0
 11
495.0
 21
-885.103128
 31
0.0
  0
LINE
  5
AF
  8
SIZE
  6
CONTINUOUS
 62
    30
 10
-485.0
 20
-855.103128
 30
0.0
 11
485.0
 21
-855.103128
 31
0.0
  0
CIRCLE
  5
B0
  8
SIZE
  6
CONTINUOUS
 62
    30
 10
-495.0
 20
-855.103128
 30
0.0
 40
5.0
  0
LINE
  5
B1
  8
SIZE
  6
CONTINUOUS
 62
    30
 10
-490.0
 20
-855.103128
 30
0.0
 11
-485.0
 21
-855.103128
 31
0.0
  0
CIRCLE
  5
B2
  8
SIZE
  6
CONTINUOUS
 62
    30
 10
495.0
 20
-855.103128
 30
0.0
 40
5.0
  0
LINE
  5
B3
  8
SIZE
  6
CONTINUOUS
 62
    30
 10
490.0
 20
-855.103128
 30
0.0
 11
485.0
 21
-855.103128
 31
0.0
  0
TEXT
  5
B4
  8
SIZE
  6
CONTINUOUS
 62
    30
 10
-74.057143
 20
-835.103128
 30
0.0
 40
64.0
  1
990
 41
0.9
 72
     1
 11
0.0
 21
-835.103128
 31
0.0
  0
POINT
  5
B5
  8
DEFPOINTS
  6
CONTINUOUS
 62
     7
 10
-495.0
 20
-209.002016
 30
0.0
  0
POINT
  5
B6
  8
DEFPOINTS
  6
CONTINUOUS
 62
     7
 10
495.0
 20
-209.002016
 30
0.0
  0
POINT
  5
B7
  8
DEFPOINTS
  6
CONTINUOUS
 62
     7
 10
495.0
 20
-855.103128
 30
0.0
  0
LINE
  5
B8
  8
SIZE
  6
CONTINUOUS
 62
    30
 10
466.487679
 20
-285.0
 30
0.0
 11
1046.784003
 21
-285.0
 31
0.0
  0
LINE
  5
B9
  8
SIZE
  6
CONTINUOUS
 62
    30
 10
514.002016
 20
210.0
 30
0.0
 11
1046.784003
 21
210.0
 31
0.0
  0
LINE
  5
BA
  8
SIZE
  6
CONTINUOUS
 62
    30
 10
1016.784003
 20
-275.0
 30
0.0
 11
1016.784003
 21
200.0
 31
0.0
  0
CIRCLE
  5
BB
  8
SIZE
  6
CONTINUOUS
 62
    30
 10
1016.784003
 20
-285.0
 30
0.0
 40
5.0
  0
LINE
  5
BC
  8
SIZE
  6
CONTINUOUS
 62
    30
 10
1016.784003
 20
-280.0
 30
0.0
 11
1016.784003
 21
-275.0
 31
0.0
  0
CIRCLE
  5
BD
  8
SIZE
  6
CONTINUOUS
 62
    30
 10
1016.784003
 20
210.0
 30
0.0
 40
5.0
  0
LINE
  5
BE
  8
SIZE
  6
CONTINUOUS
 62
    30
 10
1016.784003
 20
205.0
 30
0.0
 11
1016.784003
 21
200.0
 31
0.0
  0
TEXT
  5
BF
  8
SIZE
  6
CONTINUOUS
 62
    30
 10
996.784003
 20
-111.557143
 30
0.0
 40
64.0
  1
495
 50
90.0
 41
0.9
 72
     1
 11
996.784003
 21
-37.5
 31
0.0
  0
POINT
  5
C0
  8
DEFPOINTS
  6
CONTINUOUS
 62
     7
 10
446.487679
 20
-285.0
 30
0.0
  0
POINT
  5
C1
  8
DEFPOINTS
  6
CONTINUOUS
 62
     7
 10
494.002016
 20
210.0
 30
0.0
  0
POINT
  5
C2
  8
DEFPOINTS
  6
CONTINUOUS
 62
     7
 10
1016.784003
 20
210.0
 30
0.0
  0
LINE
  5
C3
  8
SIZE
  6
CONTINUOUS
 62
    30
 10
514.002016
 20
210.0
 30
0.0
 11
1046.784003
 21
210.0
 31
0.0
  0
LINE
  5
C4
  8
SIZE
  6
CONTINUOUS
 62
    30
 10
510.908266
 20
360.0
 30
0.0
 11
1046.784003
 21
360.0
 31
0.0
  0
LINE
  5
C5
  8
SIZE
  6
CONTINUOUS
 62
    30
 10
1016.784003
 20
200.0
 30
0.0
 11
1016.784003
 21
190.0
 31
0.0
  0
LINE
  5
C6
  8
SIZE
  6
CONTINUOUS
 62
    30
 10
1016.784003
 20
370.0
 30
0.0
 11
1016.784003
 21
380.0
 31
0.0
  0
LINE
  5
C7
  8
SIZE
  6
CONTINUOUS
 62
    30
 10
1016.784003
 20
210.0
 30
0.0
 11
1016.784003
 21
360.0
 31
0.0
  0
CIRCLE
  5
C8
  8
SIZE
  6
CONTINUOUS
 62
    30
 10
1016.784003
 20
210.0
 30
0.0
 40
5.0
  0
LINE
  5
C9
  8
SIZE
  6
CONTINUOUS
 62
    30
 10
1016.784003
 20
205.0
 30
0.0
 11
1016.784003
 21
200.0
 31
0.0
  0
CIRCLE
  5
CA
  8
SIZE
  6
CONTINUOUS
 62
    30
 10
1016.784003
 20
360.0
 30
0.0
 40
5.0
  0
LINE
  5
CB
  8
SIZE
  6
CONTINUOUS
 62
    30
 10
1016.784003
 20
365.0
 30
0.0
 11
1016.784003
 21
370.0
 31
0.0
  0
TEXT
  5
CC
  8
SIZE
  6
CONTINUOUS
 62
    30
 10
996.784003
 20
216.428571
 30
0.0
 40
64.0
  1
150
 50
90.0
 41
0.9
 72
     1
 11
996.784003
 21
285.0
 31
0.0
  0
POINT
  5
CD
  8
DEFPOINTS
  6
CONTINUOUS
 62
     7
 10
494.002016
 20
210.0
 30
0.0
  0
POINT
  5
CE
  8
DEFPOINTS
  6
CONTINUOUS
 62
     7
 10
490.908266
 20
360.0
 30
0.0
  0
POINT
  5
CF
  8
DEFPOINTS
  6
CONTINUOUS
 62
     7
 10
1016.784003
 20
360.0
 30
0.0
  0
LINE
  5
D0
  8
BASIS
  6
DASHDOT
 62
     6
 10
0.0
 20
-351.880229
 30
0.0
 11
0.0
 21
422.027962
 31
0.0
  0
LINE
  5
D1
  8
BASIS
  6
DASHDOT
 62
     6
 10
558.851774
 20
0.0
 30
0.0
 11
-558.851774
 21
0.0
 31
0.0
  0
LINE
  5
D2
  8
SERVICESPACE
  6
DASHDOT
 62
     2
 10
-495.0
 20
-209.002016
 30
0.0
 11
-495.0
 21
-710.0
 31
0.0
  0
LINE
  5
D3
  8
SERVICESPACE
  6
DASHDOT
 62
     2
 10
-495.0
 20
-710.0
 30
0.0
 11
495.0
 21
-710.0
 31
0.0
  0
LINE
  5
D4
  8
SERVICESPACE
  6
DASHDOT
 62
     2
 10
495.0
 20
-710.0
 30
0.0
 11
495.0
 21
360.0
 31
0.0
  0
LINE
  5
D5
  8
SERVICESPACE
  6
DASHDOT
 62
     2
 10
-495.0
 20
-210.0
 30
0.0
 11
595.0
 21
-210.0
 31
0.0
  0
LINE
  5
D6
  8
SERVICESPACE
  6
DASHDOT
 62
     2
 10
595.0
 20
-210.0
 30
0.0
 11
595.0
 21
360.0
 31
0.0
  0
LINE
  5
D7
  8
SERVICESPACE
  6
DASHDOT
 62
     2
 10
495.0
 20
360.0
 30
0.0
 11
595.0
 21
360.0
 31
0.0
  0
LINE
  5
D8
  8
SERVICESPACE
  6
DASHDOT
 62
     2
 10
-495.0
 20
-710.0
 30
0.0
 11
495.0
 21
-210.0
 31
0.0
  0
LINE
  5
D9
  8
SERVICESPACE
  6
DASHDOT
 62
     2
 10
495.0
 20
-710.0
 30
0.0
 11
-495.0
 21
-210.0
 31
0.0
  0
LINE
  5
DA
  8
SERVICESPACE
  6
DASHDOT
 62
     2
 10
595.0
 20
360.0
 30
0.0
 11
495.0
 21
-210.0
 31
0.0
  0
LINE
  5
DB
  8
SERVICESPACE
  6
DASHDOT
 62
     2
 10
595.0
 20
-210.0
 30
0.0
 11
495.0
 21
360.0
 31
0.0
  0
TEXT
  5
DC
  8
NOTE
  6
CONTINUOUS
 62
     4
 10
-208.317853
 20
-674.093518
 30
0.0
 40
55.0
  1
サービススペース
 50
359.999997
 41
0.840476
  7
STANDARD1
  0
TEXT
  5
DD
  8
NOTE
  6
CONTINUOUS
 62
     4
 10
571.049589
 20
-169.643514
 30
0.0
 40
55.0
  1
サービススペース
 50
89.999997
 41
0.840476
  7
STANDARD1
  0
LINE
  5
DE
  8
SIZE
  6
CONTINUOUS
 62
    30
 10
495.0
 20
-229.002016
 30
0.0
 11
495.0
 21
-885.103128
 31
0.0
  0
LINE
  5
DF
  8
SIZE
  6
CONTINUOUS
 62
    30
 10
595.0
 20
-230.0
 30
0.0
 11
595.0
 21
-885.103128
 31
0.0
  0
LINE
  5
E0
  8
SIZE
  6
CONTINUOUS
 62
    30
 10
505.0
 20
-855.103128
 30
0.0
 11
585.0
 21
-855.103128
 31
0.0
  0
LINE
  5
E1
  8
SIZE
  6
CONTINUOUS
 62
    30
 10
595.0
 20
-855.103128
 30
0.0
 11
936.84
 21
-855.103128
 31
0.0
  0
CIRCLE
  5
E2
  8
SIZE
  6
CONTINUOUS
 62
    30
 10
495.0
 20
-855.103128
 30
0.0
 40
5.0
  0
LINE
  5
E3
  8
SIZE
  6
CONTINUOUS
 62
    30
 10
500.0
 20
-855.103128
 30
0.0
 11
505.0
 21
-855.103128
 31
0.0
  0
CIRCLE
  5
E4
  8
SIZE
  6
CONTINUOUS
 62
    30
 10
595.0
 20
-855.103128
 30
0.0
 40
5.0
  0
LINE
  5
E5
  8
SIZE
  6
CONTINUOUS
 62
    30
 10
590.0
 20
-855.103128
 30
0.0
 11
585.0
 21
-855.103128
 31
0.0
  0
TEXT
  5
E6
  8
SIZE
  6
CONTINUOUS
 62
    30
 10
632.68
 20
-835.103128
 30
0.0
 40
64.0
  1
100以上
 41
0.9
 72
     1
 11
770.92
 21
-835.103128
 31
0.0
  0
POINT
  5
E7
  8
DEFPOINTS
  6
CONTINUOUS
 62
     7
 10
495.0
 20
-209.002016
 30
0.0
  0
POINT
  5
E8
  8
DEFPOINTS
  6
CONTINUOUS
 62
     7
 10
595.0
 20
-210.0
 30
0.0
  0
POINT
  5
E9
  8
DEFPOINTS
  6
CONTINUOUS
 62
     7
 10
595.0
 20
-855.103128
 30
0.0
  0
LINE
  5
EA
  8
SIZE
  6
CONTINUOUS
 62
    30
 10
-514.002016
 20
210.0
 30
0.0
 11
-961.237664
 21
210.0
 31
0.0
  0
LINE
  5
EB
  8
SIZE
  6
CONTINUOUS
 62
    30
 10
-514.002016
 20
-210.0
 30
0.0
 11
-961.237664
 21
-210.0
 31
0.0
  0
LINE
  5
EC
  8
SIZE
  6
CONTINUOUS
 62
    30
 10
-931.237664
 20
200.0
 30
0.0
 11
-931.237664
 21
-200.0
 31
0.0
  0
CIRCLE
  5
ED
  8
SIZE
  6
CONTINUOUS
 62
    30
 10
-931.237664
 20
210.0
 30
0.0
 40
5.0
  0
LINE
  5
EE
  8
SIZE
  6
CONTINUOUS
 62
    30
 10
-931.237664
 20
205.0
 30
0.0
 11
-931.237664
 21
200.0
 31
0.0
  0
CIRCLE
  5
EF
  8
SIZE
  6
CONTINUOUS
 62
    30
 10
-931.237664
 20
-210.0
 30
0.0
 40
5.0
  0
LINE
  5
F0
  8
SIZE
  6
CONTINUOUS
 62
    30
 10
-931.237664
 20
-205.0
 30
0.0
 11
-931.237664
 21
-200.0
 31
0.0
  0
TEXT
  5
F1
  8
SIZE
  6
CONTINUOUS
 62
    30
 10
-951.237664
 20
-74.057143
 30
0.0
 40
64.0
  1
420
 50
90.0
 41
0.9
 72
     1
 11
-951.237664
 21
0.0
 31
0.0
  0
POINT
  5
F2
  8
DEFPOINTS
  6
CONTINUOUS
 62
     7
 10
-494.002016
 20
210.0
 30
0.0
  0
POINT
  5
F3
  8
DEFPOINTS
  6
CONTINUOUS
 62
     7
 10
-494.002016
 20
-210.0
 30
0.0
  0
POINT
  5
F4
  8
DEFPOINTS
  6
CONTINUOUS
 62
     7
 10
-931.237664
 20
-210.0
 30
0.0
  0
LINE
  5
F5
  8
SIZE
  6
CONTINUOUS
 62
    30
 10
-495.0
 20
-229.002016
 30
0.0
 11
-495.0
 21
-411.239225
 31
0.0
  0
LINE
  5
F6
  8
SIZE
  6
CONTINUOUS
 62
    30
 10
-454.001634
 20
-121.762709
 30
0.0
 11
-454.001634
 21
-411.239225
 31
0.0
  0
LINE
  5
F7
  8
SIZE
  6
CONTINUOUS
 62
    30
 10
-444.001634
 20
-381.239225
 30
0.0
 11
-434.001634
 21
-381.239225
 31
0.0
  0
LINE
  5
F8
  8
SIZE
  6
CONTINUOUS
 62
    30
 10
-505.0
 20
-381.239225
 30
0.0
 11
-623.571429
 21
-381.239225
 31
0.0
  0
LINE
  5
F9
  8
SIZE
  6
CONTINUOUS
 62
    30
 10
-454.001634
 20
-381.239225
 30
0.0
 11
-495.0
 21
-381.239225
 31
0.0
  0
CIRCLE
  5
FA
  8
SIZE
  6
CONTINUOUS
 62
    30
 10
-454.001634
 20
-381.239225
 30
0.0
 40
5.0
  0
LINE
  5
FB
  8
SIZE
  6
CONTINUOUS
 62
    30
 10
-449.001634
 20
-381.239225
 30
0.0
 11
-444.001634
 21
-381.239225
 31
0.0
  0
CIRCLE
  5
FC
  8
SIZE
  6
CONTINUOUS
 62
    30
 10
-495.0
 20
-381.239225
 30
0.0
 40
5.0
  0
LINE
  5
FD
  8
SIZE
  6
CONTINUOUS
 62
    30
 10
-500.0
 20
-381.239225
 30
0.0
 11
-505.0
 21
-381.239225
 31
0.0
  0
TEXT
  5
FE
  8
SIZE
  6
CONTINUOUS
 62
    30
 10
-603.571429
 20
-361.239225
 30
0.0
 40
64.0
  1
41
 41
0.9
 72
     1
 11
-569.285714
 21
-361.239225
 31
0.0
  0
POINT
  5
FF
  8
DEFPOINTS
  6
CONTINUOUS
 62
     7
 10
-495.0
 20
-209.002016
 30
0.0
  0
POINT
  5
100
  8
DEFPOINTS
  6
CONTINUOUS
 62
     7
 10
-454.001634
 20
-101.762709
 30
0.0
  0
POINT
  5
101
  8
DEFPOINTS
  6
CONTINUOUS
 62
     7
 10
-454.001634
 20
-381.239225
 30
0.0
  0
LINE
  5
102
  8
SIZE
  6
CONTINUOUS
 62
    30
 10
-495.0
 20
-229.002016
 30
0.0
 11
-495.0
 21
-539.019435
 31
0.0
  0
LINE
  5
103
  8
SIZE
  6
CONTINUOUS
 62
    30
 10
-417.0
 20
-133.59411
 30
0.0
 11
-417.0
 21
-539.019435
 31
0.0
  0
LINE
  5
104
  8
SIZE
  6
CONTINUOUS
 62
    30
 10
-427.0
 20
-509.019435
 30
0.0
 11
-485.0
 21
-509.019435
 31
0.0
  0
LINE
  5
105
  8
SIZE
  6
CONTINUOUS
 62
    30
 10
-495.0
 20
-509.019435
 30
0.0
 11
-638.257143
 21
-509.019435
 31
0.0
  0
CIRCLE
  5
106
  8
SIZE
  6
CONTINUOUS
 62
    30
 10
-417.0
 20
-509.019435
 30
0.0
 40
5.0
  0
LINE
  5
107
  8
SIZE
  6
CONTINUOUS
 62
    30
 10
-422.0
 20
-509.019435
 30
0.0
 11
-427.0
 21
-509.019435
 31
0.0
  0
CIRCLE
  5
108
  8
SIZE
  6
CONTINUOUS
 62
    30
 10
-495.0
 20
-509.019435
 30
0.0
 40
5.0
  0
LINE
  5
109
  8
SIZE
  6
CONTINUOUS
 62
    30
 10
-490.0
 20
-509.019435
 30
0.0
 11
-485.0
 21
-509.019435
 31
0.0
  0
TEXT
  5
10A
  8
SIZE
  6
CONTINUOUS
 62
    30
 10
-618.257143
 20
-489.019435
 30
0.0
 40
64.0
  1
78
 41
0.9
 72
     1
 11
-571.628571
 21
-489.019435
 31
0.0
  0
POINT
  5
10B
  8
DEFPOINTS
  6
CONTINUOUS
 62
     7
 10
-495.0
 20
-209.002016
 30
0.0
  0
POINT
  5
10C
  8
DEFPOINTS
  6
CONTINUOUS
 62
     7
 10
-417.0
 20
-113.59411
 30
0.0
  0
POINT
  5
10D
  8
DEFPOINTS
  6
CONTINUOUS
 62
     7
 10
-417.0
 20
-509.019435
 30
0.0
  0
LINE
  5
10E
  8
SIZE
  6
CONTINUOUS
 62
    30
 10
-514.002016
 20
-210.0
 30
0.0
 11
-961.237664
 21
-210.0
 31
0.0
  0
LINE
  5
10F
  8
SIZE
  6
CONTINUOUS
 62
    30
 10
-515.0
 20
-710.0
 30
0.0
 11
-961.237664
 21
-710.0
 31
0.0
  0
LINE
  5
110
  8
SIZE
  6
CONTINUOUS
 62
    30
 10
-931.237664
 20
-220.0
 30
0.0
 11
-931.237664
 21
-700.0
 31
0.0
  0
CIRCLE
  5
111
  8
SIZE
  6
CONTINUOUS
 62
    30
 10
-931.237664
 20
-210.0
 30
0.0
 40
5.0
  0
LINE
  5
112
  8
SIZE
  6
CONTINUOUS
 62
    30
 10
-931.237664
 20
-215.0
 30
0.0
 11
-931.237664
 21
-220.0
 31
0.0
  0
CIRCLE
  5
113
  8
SIZE
  6
CONTINUOUS
 62
    30
 10
-931.237664
 20
-710.0
 30
0.0
 40
5.0
  0
LINE
  5
114
  8
SIZE
  6
CONTINUOUS
 62
    30
 10
-931.237664
 20
-705.0
 30
0.0
 11
-931.237664
 21
-700.0
 31
0.0
  0
TEXT
  5
115
  8
SIZE
  6
CONTINUOUS
 62
    30
 10
-951.237664
 20
-603.725714
 30
0.0
 40
64.0
  1
500以上
 50
90.0
 41
0.9
 72
     1
 11
-951.237664
 21
-460.0
 31
0.0
  0
POINT
  5
116
  8
DEFPOINTS
  6
CONTINUOUS
 62
     7
 10
-494.002016
 20
-210.0
 30
0.0
  0
POINT
  5
117
  8
DEFPOINTS
  6
CONTINUOUS
 62
     7
 10
-495.0
 20
-710.0
 30
0.0
  0
POINT
  5
118
  8
DEFPOINTS
  6
CONTINUOUS
 62
     7
 10
-931.237664
 20
-710.0
 30
0.0
  0
LINE
  5
119
  8
SIZE
  6
CONTINUOUS
 62
    30
 10
-514.002016
 20
-210.0
 30
0.0
 11
-697.212796
 21
-210.0
 31
0.0
  0
LINE
  5
11A
  8
SIZE
  6
CONTINUOUS
 62
    30
 10
-457.59411
 20
-93.0
 30
0.0
 11
-697.212796
 21
-93.0
 31
0.0
  0
LINE
  5
11B
  8
SIZE
  6
CONTINUOUS
 62
    30
 10
-667.212796
 20
-103.0
 30
0.0
 11
-667.212796
 21
-200.0
 31
0.0
  0
LINE
  5
11C
  8
SIZE
  6
CONTINUOUS
 62
    30
 10
-667.212796
 20
-210.0
 30
0.0
 11
-667.212796
 21
-386.171429
 31
0.0
  0
CIRCLE
  5
11D
  8
SIZE
  6
CONTINUOUS
 62
    30
 10
-667.212796
 20
-93.0
 30
0.0
 40
5.0
  0
LINE
  5
11E
  8
SIZE
  6
CONTINUOUS
 62
    30
 10
-667.212796
 20
-98.0
 30
0.0
 11
-667.212796
 21
-103.0
 31
0.0
  0
CIRCLE
  5
11F
  8
SIZE
  6
CONTINUOUS
 62
    30
 10
-667.212796
 20
-210.0
 30
0.0
 40
5.0
  0
LINE
  5
120
  8
SIZE
  6
CONTINUOUS
 62
    30
 10
-667.212796
 20
-205.0
 30
0.0
 11
-667.212796
 21
-200.0
 31
0.0
  0
TEXT
  5
121
  8
SIZE
  6
CONTINUOUS
 62
    30
 10
-687.212796
 20
-366.171429
 30
0.0
 40
64.0
  1
117
 50
90.0
 41
0.9
 72
     1
 11
-687.212796
 21
-303.085714
 31
0.0
  0
POINT
  5
122
  8
DEFPOINTS
  6
CONTINUOUS
 62
     7
 10
-494.002016
 20
-210.0
 30
0.0
  0
POINT
  5
123
  8
DEFPOINTS
  6
CONTINUOUS
 62
     7
 10
-437.59411
 20
-93.0
 30
0.0
  0
POINT
  5
124
  8
DEFPOINTS
  6
CONTINUOUS
 62
     7
 10
-667.212796
 20
-93.0
 30
0.0
  0
LINE
  5
125
  8
SIZE
  6
CONTINUOUS
 62
    30
 10
-514.002016
 20
-210.0
 30
0.0
 11
-822.189286
 21
-210.0
 31
0.0
  0
LINE
  5
126
  8
SIZE
  6
CONTINUOUS
 62
    30
 10
-497.764343
 20
-78.0
 30
0.0
 11
-822.189286
 21
-78.0
 31
0.0
  0
LINE
  5
127
  8
SIZE
  6
CONTINUOUS
 62
    30
 10
-792.189286
 20
-88.0
 30
0.0
 11
-792.189286
 21
-200.0
 31
0.0
  0
LINE
  5
128
  8
SIZE
  6
CONTINUOUS
 62
    30
 10
-792.189286
 20
-210.0
 30
0.0
 11
-792.189286
 21
-397.142857
 31
0.0
  0
CIRCLE
  5
129
  8
SIZE
  6
CONTINUOUS
 62
    30
 10
-792.189286
 20
-78.0
 30
0.0
 40
5.0
  0
LINE
  5
12A
  8
SIZE
  6
CONTINUOUS
 62
    30
 10
-792.189286
 20
-83.0
 30
0.0
 11
-792.189286
 21
-88.0
 31
0.0
  0
CIRCLE
  5
12B
  8
SIZE
  6
CONTINUOUS
 62
    30
 10
-792.189286
 20
-210.0
 30
0.0
 40
5.0
  0
LINE
  5
12C
  8
SIZE
  6
CONTINUOUS
 62
    30
 10
-792.189286
 20
-205.0
 30
0.0
 11
-792.189286
 21
-200.0
 31
0.0
  0
TEXT
  5
12D
  8
SIZE
  6
CONTINUOUS
 62
    30
 10
-812.189286
 20
-377.142857
 30
0.0
 40
64.0
  1
132
 50
90.0
 41
0.9
 72
     1
 11
-812.189286
 21
-308.571429
 31
0.0
  0
POINT
  5
12E
  8
DEFPOINTS
  6
CONTINUOUS
 62
     7
 10
-494.002016
 20
-210.0
 30
0.0
  0
POINT
  5
12F
  8
DEFPOINTS
  6
CONTINUOUS
 62
     7
 10
-477.764343
 20
-78.0
 30
0.0
  0
POINT
  5
130
  8
DEFPOINTS
  6
CONTINUOUS
 62
     7
 10
-792.189286
 20
-78.0
 30
0.0
  0
LINE
  5
131
  8
OUTLINE
  6
CONTINUOUS
 62
     3
 10
-494.002016
 20
210.0
 30
0.0
 11
494.002016
 21
210.0
 31
0.0
  0
LINE
  5
132
  8
OUTLINE
  6
CONTINUOUS
 62
     3
 10
493.896169
 20
210.0
 30
0.0
 11
494.894153
 21
209.002016
 31
0.0
  0
LINE
  5
133
  8
OUTLINE
  6
CONTINUOUS
 62
     3
 10
495.0
 20
209.002016
 30
0.0
 11
495.0
 21
-209.002016
 31
0.0
  0
LINE
  5
134
  8
OUTLINE
  6
CONTINUOUS
 62
     3
 10
495.0
 20
-209.002016
 30
0.0
 11
494.002016
 21
-210.0
 31
0.0
  0
LINE
  5
135
  8
OUTLINE
  6
CONTINUOUS
 62
     3
 10
494.002016
 20
-210.0
 30
0.0
 11
-494.002016
 21
-210.0
 31
0.0
  0
LINE
  5
136
  8
OUTLINE
  6
CONTINUOUS
 62
     3
 10
-494.002016
 20
-210.0
 30
0.0
 11
-495.0
 21
-209.002016
 31
0.0
  0
LINE
  5
137
  8
OUTLINE
  6
CONTINUOUS
 62
     3
 10
-495.0
 20
-209.002016
 30
0.0
 11
-495.0
 21
209.002016
 31
0.0
  0
LINE
  5
138
  8
OUTLINE
  6
CONTINUOUS
 62
     3
 10
-495.0
 20
209.002016
 30
0.0
 11
-494.002016
 21
210.0
 31
0.0
  0
LINE
  5
139
  8
OUTLINE
  6
CONTINUOUS
 62
     3
 10
-240.040323
 20
210.0
 30
0.0
 11
-240.040323
 21
353.014113
 31
0.0
  0
LINE
  5
13A
  8
OUTLINE
  6
CONTINUOUS
 62
     3
 10
-242.335685
 20
210.0
 30
0.0
 11
-242.335685
 21
353.014113
 31
0.0
  0
LINE
  5
13B
  8
OUTLINE
  6
CONTINUOUS
 62
     3
 10
473.188004
 20
210.0
 30
0.0
 11
473.188004
 21
353.014113
 31
0.0
  0
LINE
  5
13C
  8
OUTLINE
  6
CONTINUOUS
 62
     3
 10
475.483367
 20
210.0
 30
0.0
 11
475.483367
 21
353.014113
 31
0.0
  0
LINE
  5
13D
  8
OUTLINE
  6
CONTINUOUS
 62
     3
 10
-253.8125
 20
353.014113
 30
0.0
 11
-258.802419
 21
358.004032
 31
0.0
  0
LINE
  5
13E
  8
OUTLINE
  6
CONTINUOUS
 62
     3
 10
-258.802419
 20
358.004032
 30
0.0
 11
-258.802419
 21
353.014113
 31
0.0
  0
LINE
  5
13F
  8
OUTLINE
  6
CONTINUOUS
 62
     3
 10
-258.802419
 20
353.014113
 30
0.0
 11
-260.0
 21
353.014113
 31
0.0
  0
LINE
  5
140
  8
OUTLINE
  6
CONTINUOUS
 62
     3
 10
-260.0
 20
353.014113
 30
0.0
 11
-260.0
 21
358.802419
 31
0.0
  0
LINE
  5
141
  8
OUTLINE
  6
CONTINUOUS
 62
     3
 10
-260.0
 20
358.802419
 30
0.0
 11
-258.802419
 21
360.0
 31
0.0
  0
LINE
  5
142
  8
OUTLINE
  6
CONTINUOUS
 62
     3
 10
-258.802419
 20
360.0
 30
0.0
 11
490.802419
 21
360.0
 31
0.0
  0
LINE
  5
143
  8
OUTLINE
  6
CONTINUOUS
 62
     3
 10
490.802419
 20
360.0
 30
0.0
 11
492.0
 21
358.802419
 31
0.0
  0
LINE
  5
144
  8
OUTLINE
  6
CONTINUOUS
 62
     3
 10
492.0
 20
358.802419
 30
0.0
 11
492.0
 21
353.014113
 31
0.0
  0
LINE
  5
145
  8
OUTLINE
  6
CONTINUOUS
 62
     3
 10
492.0
 20
353.014113
 30
0.0
 11
490.802419
 21
353.014113
 31
0.0
  0
LINE
  5
146
  8
OUTLINE
  6
CONTINUOUS
 62
     3
 10
490.802419
 20
353.014113
 30
0.0
 11
490.802419
 21
358.004032
 31
0.0
  0
LINE
  5
147
  8
OUTLINE
  6
CONTINUOUS
 62
     3
 10
490.802419
 20
358.004032
 30
0.0
 11
485.8125
 21
353.014113
 31
0.0
  0
LINE
  5
148
  8
OUTLINE
  6
CONTINUOUS
 62
     3
 10
485.8125
 20
353.014113
 30
0.0
 11
-253.8125
 21
353.014113
 31
0.0
  0
LINE
  5
149
  8
OUTLINE
  6
CONTINUOUS
 62
     3
 10
-105.287298
 20
-210.0
 30
0.0
 11
-105.287298
 21
-232.106855
 31
0.0
  0
ARC
  5
14A
  8
OUTLINE
  6
CONTINUOUS
 62
     3
 10
-104.289315
 20
-232.106855
 30
0.0
 40
0.997984
 50
180.0
 51
270.0
  0
LINE
  5
14B
  8
OUTLINE
  6
CONTINUOUS
 62
     3
 10
-104.289315
 20
-233.104839
 30
0.0
 11
-105.287298
 21
-233.104839
 31
0.0
  0
LINE
  5
14C
  8
OUTLINE
  6
CONTINUOUS
 62
     3
 10
-105.287298
 20
-233.104839
 30
0.0
 11
-105.287298
 21
-235.100806
 31
0.0
  0
LINE
  5
14D
  8
OUTLINE
  6
CONTINUOUS
 62
     3
 10
-105.287298
 20
-235.100806
 30
0.0
 11
-103.291331
 21
-235.100806
 31
0.0
  0
LINE
  5
14E
  8
OUTLINE
  6
CONTINUOUS
 62
     3
 10
468.553427
 20
-210.0
 30
0.0
 11
468.553427
 21
-232.106855
 31
0.0
  0
ARC
  5
14F
  8
OUTLINE
  6
CONTINUOUS
 62
     3
 10
467.555444
 20
-232.106855
 30
0.0
 40
0.997984
 50
270.0
 51
0.0
  0
LINE
  5
150
  8
OUTLINE
  6
CONTINUOUS
 62
     3
 10
467.555444
 20
-233.104839
 30
0.0
 11
468.553427
 21
-233.104839
 31
0.0
  0
LINE
  5
151
  8
OUTLINE
  6
CONTINUOUS
 62
     3
 10
468.553427
 20
-233.104839
 30
0.0
 11
468.553427
 21
-235.100806
 31
0.0
  0
LINE
  5
152
  8
OUTLINE
  6
CONTINUOUS
 62
     3
 10
468.553427
 20
-235.100806
 30
0.0
 11
466.55746
 21
-235.100806
 31
0.0
  0
ARC
  5
153
  8
OUTLINE
  6
CONTINUOUS
 62
     3
 10
317.905357
 20
-217.439608
 30
0.0
 40
149.697581
 50
335.140122
 51
353.22451
  0
ARC
  5
154
  8
OUTLINE
  6
CONTINUOUS
 62
     3
 10
446.487679
 20
-277.016129
 30
0.0
 40
7.983871
 50
270.0
 51
335.140122
  0
ARC
  5
155
  8
OUTLINE
  6
CONTINUOUS
 62
     3
 10
45.360772
 20
-217.439608
 30
0.0
 40
149.697581
 50
186.77549
 51
204.859878
  0
ARC
  5
156
  8
OUTLINE
  6
CONTINUOUS
 62
     3
 10
-83.22155
 20
-277.016129
 30
0.0
 40
7.983871
 50
204.859878
 51
270.0
  0
LINE
  5
157
  8
OUTLINE
  6
CONTINUOUS
 62
     3
 10
-83.22155
 20
-285.0
 30
0.0
 11
446.487679
 21
-285.0
 31
0.0
  0
LINE
  5
158
  8
NOTE
  6
CONTINUOUS
 62
     4
 10
-693.025486
 20
-1041.668289
 30
0.0
 11
-271.5296
 21
-1041.668289
 31
0.0
  0
TEXT
  5
159
  8
NOTE
  6
CONTINUOUS
 62
     4
 10
-678.176107
 20
-1029.93602
 30
0.0
 40
55.0
  1
RG %%C15.88
 50
359.999997
 41
0.840476
  7
STANDARD1
  0
LINE
  5
15A
  8
NOTE
  6
CONTINUOUS
 62
     4
 10
-454.001634
 20
-78.0
 30
0.0
 11
-271.5296
 21
-1041.668289
 31
0.0
  0
LINE
  5
15B
  8
NOTE
  6
CONTINUOUS
 62
     4
 10
-157.439779
 20
-1041.717806
 30
0.0
 11
211.471485
 21
-1041.717806
 31
0.0
  0
TEXT
  5
15C
  8
NOTE
  6
CONTINUOUS
 62
     4
 10
-141.783597
 20
-1029.257488
 30
0.0
 40
55.0
  1
RL %%C12.7
 50
359.999997
 41
0.840476
  7
STANDARD1
  0
LINE
  5
15D
  8
NOTE
  6
CONTINUOUS
 62
     4
 10
-417.0
 20
-93.0
 30
0.0
 11
-157.439779
 21
-1041.717806
 31
0.0
  0
LINE
  5
15E
  8
NOTE
  6
CONTINUOUS
 62
     4
 10
-454.001634
 20
-78.0
 30
0.0
 11
-454.816735
 21
-106.502172
 31
0.0
  0
LINE
  5
15F
  8
NOTE
  6
CONTINUOUS
 62
     4
 10
-454.001634
 20
-78.0
 30
0.0
 11
-440.456445
 21
-103.091155
 31
0.0
  0
LINE
  5
160
  8
NOTE
  6
CONTINUOUS
 62
     4
 10
-417.0
 20
-93.0
 30
0.0
 11
-415.54839
 21
-121.476851
 31
0.0
  0
LINE
  5
161
  8
NOTE
  6
CONTINUOUS
 62
     4
 10
-417.0
 20
-93.0
 30
0.0
 11
-401.504443
 21
-116.935871
 31
0.0
  0
LINE
  5
162
  8
ARRANGE
  6
CONTINUOUS
 62
     1
 10
-37.897321
 20
-37.897321
 30
0.0
 11
37.897321
 21
37.897321
 31
0.0
  0
LINE
  5
163
  8
ARRANGE
  6
CONTINUOUS
 62
     1
 10
-37.897321
 20
37.897321
 30
0.0
 11
37.897321
 21
-37.897321
 31
0.0
  0
CIRCLE
  5
164
  8
ARRANGE
  6
CONTINUOUS
 62
     1
 10
0.0
 20
0.0
 30
0.0
 40
34.449674
  0
LINE
  5
165
  8
SIZE
  6
CONTINUOUS
 62
    30
 10
-260.0
 20
378.802419
 30
0.0
 11
-260.0
 21
499.977115
 31
0.0
  0
LINE
  5
166
  8
SIZE
  6
CONTINUOUS
 62
    30
 10
492.0
 20
378.802419
 30
0.0
 11
492.0
 21
499.977115
 31
0.0
  0
LINE
  5
167
  8
SIZE
  6
CONTINUOUS
 62
    30
 10
-250.0
 20
469.977115
 30
0.0
 11
482.0
 21
469.977115
 31
0.0
  0
CIRCLE
  5
168
  8
SIZE
  6
CONTINUOUS
 62
    30
 10
-260.0
 20
469.977115
 30
0.0
 40
5.0
  0
LINE
  5
169
  8
SIZE
  6
CONTINUOUS
 62
    30
 10
-255.0
 20
469.977115
 30
0.0
 11
-250.0
 21
469.977115
 31
0.0
  0
CIRCLE
  5
16A
  8
SIZE
  6
CONTINUOUS
 62
    30
 10
492.0
 20
469.977115
 30
0.0
 40
5.0
  0
LINE
  5
16B
  8
SIZE
  6
CONTINUOUS
 62
    30
 10
487.0
 20
469.977115
 30
0.0
 11
482.0
 21
469.977115
 31
0.0
  0
TEXT
  5
16C
  8
SIZE
  6
CONTINUOUS
 62
    30
 10
41.942857
 20
489.977115
 30
0.0
 40
64.0
  1
752
 41
0.9
 72
     1
 11
116.0
 21
489.977115
 31
0.0
  0
POINT
  5
16D
  8
DEFPOINTS
  6
CONTINUOUS
 62
     7
 10
-260.0
 20
358.802419
 30
0.0
  0
POINT
  5
16E
  8
DEFPOINTS
  6
CONTINUOUS
 62
     7
 10
492.0
 20
358.802419
 30
0.0
  0
POINT
  5
16F
  8
DEFPOINTS
  6
CONTINUOUS
 62
     7
 10
492.0
 20
469.977115
 30
0.0
  0
LINE
  5
170
  8
DETAIL
  6
CONTINUOUS
 62
     5
 10
-260.0
 20
358.802419
 30
0.0
 11
-260.0
 21
353.014113
 31
0.0
  0
TEXT
  5
171
  8
ETC
  6
CONTINUOUS
 62
    61
 10
693.422026
 20
493.572267
 30
0.0
 40
90.0
  1
RV-P5A_1
 50
0.000003
 41
0.603059
  7
STANDARD1
  0
ENDSEC
  0
EOF
