  0
SECTION
  2
HEADER
  9
$ACADVER
  1
AC1009
  9
$INSBASE
 10
0.0
 20
0.0
 30
0.0
  9
$EXTMIN
 10
-1007.502536
 20
-366.563136
 30
0.0
  9
$EXTMAX
 10
1617.964272
 20
1557.756745
 30
0.0
  9
$LIMMIN
 10
-4200.0
 20
-2970.0
  9
$LIMMAX
 10
4200.0
 20
2970.0
  9
$ORTHOMODE
 70
     1
  9
$REGENMODE
 70
     1
  9
$FILLMODE
 70
     1
  9
$QTEXTMODE
 70
     0
  9
$MIRRTEXT
 70
     0
  9
$DRAGMODE
 70
     2
  9
$LTSCALE
 40
20.0
  9
$OSMODE
 70
  2081
  9
$ATTMODE
 70
     1
  9
$TEXTSIZE
 40
64.0
  9
$TRACEWID
 40
0.05
  9
$TEXTSTYLE
  7
STANDARD
  9
$CLAYER
  8
SIZE
  9
$CELTYPE
  6
CONTINUOUS
  9
$CECOLOR
 62
     7
  9
$DIMSCALE
 40
1.0
  9
$DIMASZ
 40
10.0
  9
$DIMEXO
 40
20.0
  9
$DIMDLI
 40
200.0
  9
$DIMRND
 40
0.0
  9
$DIMDLE
 40
0.0
  9
$DIMEXE
 40
30.0
  9
$DIMTP
 40
0.0
  9
$DIMTM
 40
0.0
  9
$DIMTXT
 40
64.0
  9
$DIMCEN
 40
0.0
  9
$DIMTSZ
 40
0.0
  9
$DIMTOL
 70
     0
  9
$DIMLIM
 70
     0
  9
$DIMTIH
 70
     0
  9
$DIMTOH
 70
     0
  9
$DIMSE1
 70
     0
  9
$DIMSE2
 70
     0
  9
$DIMTAD
 70
     1
  9
$DIMZIN
 70
     8
  9
$DIMBLK
  1
DOTBLANK
  9
$DIMASO
 70
     1
  9
$DIMSHO
 70
     0
  9
$DIMPOST
  1

  9
$DIMAPOST
  1

  9
$DIMALT
 70
     0
  9
$DIMALTD
 70
     2
  9
$DIMALTF
 40
25.4
  9
$DIMLFAC
 40
1.0
  9
$DIMTOFL
 70
     1
  9
$DIMTVP
 40
0.0
  9
$DIMTIX
 70
     1
  9
$DIMSOXD
 70
     0
  9
$DIMSAH
 70
     0
  9
$DIMBLK1
  1

  9
$DIMBLK2
  1

  9
$DIMSTYLE
  2
STANDARD
  9
$DIMCLRD
 70
     0
  9
$DIMCLRE
 70
     0
  9
$DIMCLRT
 70
     0
  9
$DIMTFAC
 40
1.0
  9
$DIMGAP
 40
0.09
  9
$LUNITS
 70
     2
  9
$LUPREC
 70
     4
  9
$SKETCHINC
 40
0.1
  9
$FILLETRAD
 40
0.0
  9
$AUNITS
 70
     1
  9
$AUPREC
 70
     3
  9
$MENU
  1
ACAD
  9
$ELEVATION
 40
0.0
  9
$PELEVATION
 40
0.0
  9
$THICKNESS
 40
0.0
  9
$LIMCHECK
 70
     0
  9
$BLIPMODE
 70
     0
  9
$CHAMFERA
 40
0.0
  9
$CHAMFERB
 40
0.0
  9
$SKPOLY
 70
     0
  9
$TDCREATE
 40
2449761.493623
  9
$TDUPDATE
 40
2453756.429186
  9
$TDINDWG
 40
4.099081
  9
$TDUSRTIMER
 40
4.099081
  9
$USRTIMER
 70
     1
  9
$ANGBASE
 50
0.0
  9
$ANGDIR
 70
     0
  9
$PDMODE
 70
    35
  9
$PDSIZE
 40
100.0
  9
$PLINEWID
 40
0.0
  9
$COORDS
 70
     0
  9
$SPLFRAME
 70
     0
  9
$SPLINETYPE
 70
     6
  9
$SPLINESEGS
 70
     8
  9
$ATTDIA
 70
     0
  9
$ATTREQ
 70
     1
  9
$HANDLING
 70
     1
  9
$HANDSEED
  5
1486
  9
$SURFTAB1
 70
     6
  9
$SURFTAB2
 70
     6
  9
$SURFTYPE
 70
     6
  9
$SURFU
 70
     6
  9
$SURFV
 70
     6
  9
$UCSNAME
  2

  9
$UCSORG
 10
0.0
 20
0.0
 30
0.0
  9
$UCSXDIR
 10
1.0
 20
0.0
 30
0.0
  9
$UCSYDIR
 10
0.0
 20
1.0
 30
0.0
  9
$PUCSNAME
  2

  9
$PUCSORG
 10
0.0
 20
0.0
 30
0.0
  9
$PUCSXDIR
 10
1.0
 20
0.0
 30
0.0
  9
$PUCSYDIR
 10
0.0
 20
1.0
 30
0.0
  9
$USERI1
 70
     0
  9
$USERI2
 70
     0
  9
$USERI3
 70
     0
  9
$USERI4
 70
     0
  9
$USERI5
 70
     0
  9
$USERR1
 40
20.0
  9
$USERR2
 40
0.0
  9
$USERR3
 40
0.0
  9
$USERR4
 40
0.0
  9
$USERR5
 40
0.0
  9
$WORLDVIEW
 70
     1
  9
$SHADEDGE
 70
     3
  9
$SHADEDIF
 70
    70
  9
$TILEMODE
 70
     1
  9
$MAXACTVP
 70
    48
  9
$PLIMCHECK
 70
     0
  9
$PEXTMIN
 10
1.000000E+020
 20
1.000000E+020
 30
1.000000E+020
  9
$PEXTMAX
 10
-1.000000E+020
 20
-1.000000E+020
 30
-1.000000E+020
  9
$PLIMMIN
 10
0.0
 20
0.0
  9
$PLIMMAX
 10
12.0
 20
9.0
  9
$UNITMODE
 70
     0
  9
$VISRETAIN
 70
     1
  9
$PLINEGEN
 70
     0
  9
$PSLTSCALE
 70
     1
  0
ENDSEC
  0
SECTION
  2
TABLES
  0
TABLE
  2
VPORT
 70
     2
  0
VPORT
  2
*ACTIVE
 70
     0
 10
0.0
 20
0.0
 11
1.0
 21
1.0
 12
1081.755319
 22
0.0
 13
0.0
 23
0.0
 14
50.0
 24
50.0
 15
100.0
 25
100.0
 16
0.0
 26
0.0
 36
1.0
 17
0.0
 27
0.0
 37
0.0
 40
5940.0
 41
1.778369
 42
50.0
 43
0.0
 44
0.0
 50
0.0
 51
0.0
 71
     0
 72
  1000
 73
     1
 74
     0
 75
     0
 76
     0
 77
     0
 78
     0
  0
ENDTAB
  0
TABLE
  2
LTYPE
 70
     2
  0
LTYPE
  2
CONTINUOUS
 70
     0
  3
実線
 72
    65
 73
     0
 40
0.0
  0
LTYPE
  2
DASHDOT
 70
     0
  3
____ _ ____ _ ____ _ ____ _ ____ _ ____ _ ____
 72
    65
 73
     4
 40
5.5
 49
4.0
 49
-0.6
 49
0.3
 49
-0.6
  0
ENDTAB
  0
TABLE
  2
LAYER
 70
    12
  0
LAYER
  2
0
 70
     0
 62
     7
  6
CONTINUOUS
  0
LAYER
  2
SIZE
 70
     0
 62
    30
  6
CONTINUOUS
  0
LAYER
  2
OUTLINE
 70
     0
 62
     3
  6
CONTINUOUS
  0
LAYER
  2
DETAIL
 70
     0
 62
     5
  6
CONTINUOUS
  0
LAYER
  2
BASIS
 70
     0
 62
     6
  6
DASHDOT
  0
LAYER
  2
NOTE
 70
     0
 62
     4
  6
CONTINUOUS
  0
LAYER
  2
ARRANGE
 70
     0
 62
     1
  6
CONTINUOUS
  0
LAYER
  2
FIX
 70
     0
 62
    11
  6
CONTINUOUS
  0
LAYER
  2
SERVICESPACE
 70
     0
 62
     2
  6
DASHDOT
  0
LAYER
  2
ETC
 70
     0
 62
    61
  6
CONTINUOUS
  0
LAYER
  2
SYMBOLLINE
 70
     0
 62
    15
  6
CONTINUOUS
  0
LAYER
  2
DEFPOINTS
 70
     0
 62
     7
  6
CONTINUOUS
  0
ENDTAB
  0
TABLE
  2
STYLE
 70
     2
  0
STYLE
  2
STANDARD
 70
     0
 40
0.0
 41
0.9
 50
0.0
 71
     0
 42
64.0
  3
SIMPLEX
  4
BIGFONT
  0
STYLE
  2
STANDARD1
 70
     0
 40
0.0
 41
1.0
 50
0.0
 71
     0
 42
3.5
  3
MONOTXT
  4
BIGFONT
  0
ENDTAB
  0
TABLE
  2
VIEW
 70
     1
  0
VIEW
  2
ALL
 70
     0
 40
6056.230032
 10
0.0
 20
58.115016
 41
8400.0
 11
0.0
 21
0.0
 31
1.0
 12
0.0
 22
0.0
 32
0.0
 42
50.0
 43
0.0
 44
0.0
 50
0.0
 71
     0
  0
ENDTAB
  0
TABLE
  2
UCS
 70
     0
  0
ENDTAB
  0
TABLE
  2
APPID
 70
     1
  0
APPID
  2
ACAD
 70
     0
  0
ENDTAB
  0
TABLE
  2
DIMSTYLE
 70
     1
  0
DIMSTYLE
  2
STANDARD
 70
     0
  3

  4

  5

  6

  7

 40
1.0
 41
0.18
 42
0.0625
 43
0.38
 44
0.18
 45
0.0
 46
0.0
 47
0.0
 48
0.0
140
0.18
141
0.09
142
0.0
143
25.4
144
1.0
145
0.0
146
1.0
147
0.09
 71
     0
 72
     0
 73
     1
 74
     1
 75
     0
 76
     0
 77
     0
 78
     0
170
     0
171
     2
172
     0
173
     0
174
     0
175
     0
176
     0
177
     0
178
     0
  0
ENDTAB
  0
ENDSEC
  0
SECTION
  2
BLOCKS
  0
BLOCK
  8
0
  2
$MODEL_SPACE
 70
     0
 10
0.0
 20
0.0
 30
0.0
  3
$MODEL_SPACE
  1

  0
ENDBLK
  5
1468
  8
0
  0
BLOCK
 67
     1
  8
0
  2
$PAPER_SPACE
 70
     0
 10
0.0
 20
0.0
 30
0.0
  3
$PAPER_SPACE
  1

  0
ENDBLK
  5
1465
 67
     1
  8
0
  0
BLOCK
  8
0
  2
_DOTBLANK
 70
     0
 10
0.0
 20
0.0
 30
0.0
  3
_DOTBLANK
  1

  0
CIRCLE
  5
36
  8
0
  6
CONTINUOUS
 62
     7
 10
0.0
 20
0.0
 30
0.0
 40
0.5
  0
LINE
  5
37
  8
0
  6
CONTINUOUS
 62
     7
 10
-0.5
 20
0.0
 30
0.0
 11
-1.0
 21
0.0
 31
0.0
  0
ENDBLK
  5
38
  8
0
  0
ENDSEC
  0
SECTION
  2
ENTITIES
  0
LINE
  5
3D
  8
DETAIL
  6
CONTINUOUS
 62
     5
 10
356.38004
 20
783.287929
 30
0.0
 11
356.38004
 21
1303.895538
 31
0.0
  0
LINE
  5
3E
  8
DETAIL
  6
CONTINUOUS
 62
     5
 10
358.176411
 20
783.287929
 30
0.0
 11
358.176411
 21
1303.895538
 31
0.0
  0
LINE
  5
3F
  8
DETAIL
  6
CONTINUOUS
 62
     5
 10
468.553427
 20
1323.52621
 30
0.0
 11
468.553427
 21
763.657258
 31
0.0
  0
LINE
  5
40
  8
DETAIL
  6
CONTINUOUS
 62
     5
 10
469.052419
 20
175.518656
 30
0.0
 11
469.052419
 21
1332.308468
 31
0.0
  0
LINE
  5
41
  8
DETAIL
  6
CONTINUOUS
 62
     5
 10
470.050403
 20
1332.308468
 30
0.0
 11
470.050403
 21
174.647177
 31
0.0
  0
LINE
  5
42
  8
DETAIL
  6
CONTINUOUS
 62
     5
 10
495.0
 20
1332.308468
 30
0.0
 11
495.0
 21
149.697581
 31
0.0
  0
ARC
  5
43
  8
DETAIL
  6
CONTINUOUS
 62
     5
 10
423.644153
 20
801.580645
 30
0.0
 40
17.96371
 50
270.0
 51
0.0
  0
ARC
  5
44
  8
DETAIL
  6
CONTINUOUS
 62
     5
 10
-60.378024
 20
801.580645
 30
0.0
 40
17.96371
 50
180.0
 51
270.0
  0
ARC
  5
45
  8
DETAIL
  6
CONTINUOUS
 62
     5
 10
-60.378024
 20
801.580645
 30
0.0
 40
42.913306
 50
180.0
 51
270.0
  0
ARC
  5
46
  8
DETAIL
  6
CONTINUOUS
 62
     5
 10
423.644153
 20
801.580645
 30
0.0
 40
42.913306
 50
270.0
 51
0.0
  0
LINE
  5
47
  8
DETAIL
  6
CONTINUOUS
 62
     5
 10
-106.584677
 20
1332.308468
 30
0.0
 11
-106.584677
 21
225.544355
 31
0.0
  0
LINE
  5
48
  8
DETAIL
  6
CONTINUOUS
 62
     5
 10
-105.78629
 20
174.647177
 30
0.0
 11
-105.78629
 21
1332.308468
 31
0.0
  0
LINE
  5
49
  8
DETAIL
  6
CONTINUOUS
 62
     5
 10
-105.287298
 20
763.657258
 30
0.0
 11
-105.287298
 21
1323.52621
 31
0.0
  0
LINE
  5
4A
  8
DETAIL
  6
CONTINUOUS
 62
     5
 10
5.089718
 20
783.287929
 30
0.0
 11
5.089718
 21
1303.895538
 31
0.0
  0
LINE
  5
4B
  8
DETAIL
  6
CONTINUOUS
 62
     5
 10
6.886089
 20
783.287929
 30
0.0
 11
6.886089
 21
1303.895538
 31
0.0
  0
LINE
  5
4C
  8
DETAIL
  6
CONTINUOUS
 62
     5
 10
92.912298
 20
783.287929
 30
0.0
 11
92.912298
 21
1303.895538
 31
0.0
  0
LINE
  5
4D
  8
DETAIL
  6
CONTINUOUS
 62
     5
 10
94.708669
 20
783.287929
 30
0.0
 11
94.708669
 21
1303.895538
 31
0.0
  0
LINE
  5
4E
  8
DETAIL
  6
CONTINUOUS
 62
     5
 10
180.734879
 20
783.287929
 30
0.0
 11
180.734879
 21
1303.895538
 31
0.0
  0
LINE
  5
4F
  8
DETAIL
  6
CONTINUOUS
 62
     5
 10
182.53125
 20
783.287929
 30
0.0
 11
182.53125
 21
1303.895538
 31
0.0
  0
LINE
  5
50
  8
DETAIL
  6
CONTINUOUS
 62
     5
 10
268.55746
 20
783.287929
 30
0.0
 11
268.55746
 21
1303.895538
 31
0.0
  0
LINE
  5
51
  8
DETAIL
  6
CONTINUOUS
 62
     5
 10
270.353831
 20
783.287929
 30
0.0
 11
270.353831
 21
1303.895538
 31
0.0
  0
LINE
  5
52
  8
DETAIL
  6
CONTINUOUS
 62
     5
 10
-495.0
 20
146.703629
 30
0.0
 11
-495.0
 21
1332.308468
 31
0.0
  0
LINE
  5
53
  8
DETAIL
  6
CONTINUOUS
 62
     5
 10
484.022177
 20
139.717742
 30
0.0
 11
474.042339
 21
129.737903
 31
0.0
  0
ARC
  5
54
  8
DETAIL
  6
CONTINUOUS
 62
     5
 10
403.185484
 20
120.756048
 30
0.0
 40
8.981855
 50
90.0
 51
180.0
  0
ARC
  5
55
  8
DETAIL
  6
CONTINUOUS
 62
     5
 10
-403.185484
 20
120.756048
 30
0.0
 40
8.981855
 50
0.0
 51
90.0
  0
LINE
  5
56
  8
DETAIL
  6
CONTINUOUS
 62
     5
 10
-474.042339
 20
129.737903
 30
0.0
 11
-484.022177
 21
139.717742
 31
0.0
  0
LINE
  5
57
  8
DETAIL
  6
CONTINUOUS
 62
     5
 10
484.022177
 20
0.0
 30
0.0
 11
-484.022177
 21
0.0
 31
0.0
  0
LINE
  5
58
  8
DETAIL
  6
CONTINUOUS
 62
     5
 10
484.022177
 20
2.295363
 30
0.0
 11
-484.022177
 21
2.295363
 31
0.0
  0
LINE
  5
59
  8
DETAIL
  6
CONTINUOUS
 62
     5
 10
-79.83871
 20
34.929435
 30
0.0
 11
79.83871
 21
34.929435
 31
0.0
  0
LINE
  5
5A
  8
DETAIL
  6
CONTINUOUS
 62
     5
 10
79.83871
 20
114.768145
 30
0.0
 11
-79.83871
 21
114.768145
 31
0.0
  0
ARC
  5
5B
  8
DETAIL
  6
CONTINUOUS
 62
     5
 10
-403.185484
 20
33.931452
 30
0.0
 40
8.981855
 50
270.0
 51
0.0
  0
LINE
  5
5C
  8
DETAIL
  6
CONTINUOUS
 62
     5
 10
-484.022177
 20
14.969758
 30
0.0
 11
-474.042339
 21
24.949597
 31
0.0
  0
LINE
  5
5D
  8
DETAIL
  6
CONTINUOUS
 62
     5
 10
-474.042339
 20
24.949597
 30
0.0
 11
-403.185484
 21
24.949597
 31
0.0
  0
LINE
  5
5E
  8
DETAIL
  6
CONTINUOUS
 62
     5
 10
-484.022177
 20
0.0
 30
0.0
 11
-484.022177
 21
14.969758
 31
0.0
  0
LINE
  5
5F
  8
DETAIL
  6
CONTINUOUS
 62
     5
 10
-474.042339
 20
0.0
 30
0.0
 11
-474.042339
 21
2.295363
 31
0.0
  0
LINE
  5
60
  8
DETAIL
  6
CONTINUOUS
 62
     5
 10
-474.042339
 20
129.737903
 30
0.0
 11
-403.185484
 21
129.737903
 31
0.0
  0
ARC
  5
61
  8
DETAIL
  6
CONTINUOUS
 62
     5
 10
-79.83871
 20
54.889113
 30
0.0
 40
19.959677
 50
180.0
 51
270.0
  0
ARC
  5
62
  8
DETAIL
  6
CONTINUOUS
 62
     5
 10
-169.657258
 20
54.889113
 30
0.0
 40
19.959677
 50
270.0
 51
0.0
  0
ARC
  5
63
  8
DETAIL
  6
CONTINUOUS
 62
     5
 10
-329.334677
 20
54.889113
 30
0.0
 40
19.959677
 50
180.0
 51
270.0
  0
LINE
  5
64
  8
DETAIL
  6
CONTINUOUS
 62
     5
 10
-394.203629
 20
33.931452
 30
0.0
 11
-394.203629
 21
120.756048
 31
0.0
  0
LINE
  5
65
  8
DETAIL
  6
CONTINUOUS
 62
     5
 10
-169.657258
 20
34.929435
 30
0.0
 11
-329.334677
 21
34.929435
 31
0.0
  0
CIRCLE
  5
66
  8
DETAIL
  6
CONTINUOUS
 62
     5
 10
-379.233871
 20
29.939516
 30
0.0
 40
3.492944
  0
LINE
  5
67
  8
DETAIL
  6
CONTINUOUS
 62
     5
 10
-380.041282
 20
33.332661
 30
0.0
 11
-379.233871
 21
33.332661
 31
0.0
  0
LINE
  5
68
  8
DETAIL
  6
CONTINUOUS
 62
     5
 10
-379.233871
 20
33.43246
 30
0.0
 11
-379.233871
 21
33.332661
 31
0.0
  0
LINE
  5
69
  8
DETAIL
  6
CONTINUOUS
 62
     5
 10
-329.334677
 20
114.768145
 30
0.0
 11
-169.657258
 21
114.768145
 31
0.0
  0
CIRCLE
  5
6A
  8
DETAIL
  6
CONTINUOUS
 62
     5
 10
-379.233871
 20
119.758065
 30
0.0
 40
3.492944
  0
ARC
  5
6B
  8
DETAIL
  6
CONTINUOUS
 62
     5
 10
-329.334677
 20
94.808468
 30
0.0
 40
19.959677
 50
90.0
 51
180.0
  0
LINE
  5
6C
  8
DETAIL
  6
CONTINUOUS
 62
     5
 10
-380.041282
 20
116.364919
 30
0.0
 11
-379.233871
 21
116.364919
 31
0.0
  0
LINE
  5
6D
  8
DETAIL
  6
CONTINUOUS
 62
     5
 10
-379.233871
 20
116.364919
 30
0.0
 11
-379.233871
 21
116.265121
 31
0.0
  0
LINE
  5
6E
  8
DETAIL
  6
CONTINUOUS
 62
     5
 10
-349.294355
 20
54.889113
 30
0.0
 11
-349.294355
 21
94.808468
 31
0.0
  0
ARC
  5
6F
  8
DETAIL
  6
CONTINUOUS
 62
     5
 10
-79.83871
 20
94.808468
 30
0.0
 40
19.959677
 50
90.0
 51
180.0
  0
ARC
  5
70
  8
DETAIL
  6
CONTINUOUS
 62
     5
 10
-169.657258
 20
94.808468
 30
0.0
 40
19.959677
 50
0.0
 51
90.0
  0
LINE
  5
71
  8
DETAIL
  6
CONTINUOUS
 62
     5
 10
-149.697581
 20
94.808468
 30
0.0
 11
-149.697581
 21
54.889113
 31
0.0
  0
LINE
  5
72
  8
DETAIL
  6
CONTINUOUS
 62
     5
 10
-99.798387
 20
94.808468
 30
0.0
 11
-99.798387
 21
54.889113
 31
0.0
  0
LINE
  5
73
  8
DETAIL
  6
CONTINUOUS
 62
     5
 10
329.334677
 20
34.929435
 30
0.0
 11
169.657258
 21
34.929435
 31
0.0
  0
LINE
  5
74
  8
DETAIL
  6
CONTINUOUS
 62
     5
 10
169.657258
 20
114.768145
 30
0.0
 11
329.334677
 21
114.768145
 31
0.0
  0
ARC
  5
75
  8
DETAIL
  6
CONTINUOUS
 62
     5
 10
169.657258
 20
54.889113
 30
0.0
 40
19.959677
 50
180.0
 51
270.0
  0
ARC
  5
76
  8
DETAIL
  6
CONTINUOUS
 62
     5
 10
79.83871
 20
54.889113
 30
0.0
 40
19.959677
 50
270.0
 51
0.0
  0
ARC
  5
77
  8
DETAIL
  6
CONTINUOUS
 62
     5
 10
79.83871
 20
94.808468
 30
0.0
 40
19.959677
 50
0.0
 51
90.0
  0
LINE
  5
78
  8
DETAIL
  6
CONTINUOUS
 62
     5
 10
99.798387
 20
54.889113
 30
0.0
 11
99.798387
 21
94.808468
 31
0.0
  0
ARC
  5
79
  8
DETAIL
  6
CONTINUOUS
 62
     5
 10
169.657258
 20
94.808468
 30
0.0
 40
19.959677
 50
90.0
 51
180.0
  0
LINE
  5
7A
  8
DETAIL
  6
CONTINUOUS
 62
     5
 10
149.697581
 20
54.889113
 30
0.0
 11
149.697581
 21
94.808468
 31
0.0
  0
LINE
  5
7B
  8
DETAIL
  6
CONTINUOUS
 62
     5
 10
394.203629
 20
33.931452
 30
0.0
 11
394.203629
 21
120.756048
 31
0.0
  0
ARC
  5
7C
  8
DETAIL
  6
CONTINUOUS
 62
     5
 10
329.334677
 20
54.889113
 30
0.0
 40
19.959677
 50
270.0
 51
0.0
  0
LINE
  5
7D
  8
DETAIL
  6
CONTINUOUS
 62
     5
 10
379.233871
 20
33.332661
 30
0.0
 11
379.233871
 21
33.43246
 31
0.0
  0
LINE
  5
7E
  8
DETAIL
  6
CONTINUOUS
 62
     5
 10
474.042339
 20
0.0
 30
0.0
 11
474.042339
 21
2.295363
 31
0.0
  0
LINE
  5
7F
  8
DETAIL
  6
CONTINUOUS
 62
     5
 10
484.022177
 20
0.0
 30
0.0
 11
484.022177
 21
14.969758
 31
0.0
  0
ARC
  5
80
  8
DETAIL
  6
CONTINUOUS
 62
     5
 10
403.185484
 20
33.931452
 30
0.0
 40
8.981855
 50
180.0
 51
270.0
  0
CIRCLE
  5
81
  8
DETAIL
  6
CONTINUOUS
 62
     5
 10
379.233871
 20
29.939516
 30
0.0
 40
3.492944
  0
LINE
  5
82
  8
DETAIL
  6
CONTINUOUS
 62
     5
 10
474.042339
 20
24.949597
 30
0.0
 11
484.022177
 21
14.969758
 31
0.0
  0
LINE
  5
83
  8
DETAIL
  6
CONTINUOUS
 62
     5
 10
474.042339
 20
24.949597
 30
0.0
 11
403.185484
 21
24.949597
 31
0.0
  0
LINE
  5
84
  8
DETAIL
  6
CONTINUOUS
 62
     5
 10
380.041282
 20
33.332661
 30
0.0
 11
379.233871
 21
33.332661
 31
0.0
  0
LINE
  5
85
  8
DETAIL
  6
CONTINUOUS
 62
     5
 10
349.294355
 20
94.808468
 30
0.0
 11
349.294355
 21
54.889113
 31
0.0
  0
LINE
  5
86
  8
DETAIL
  6
CONTINUOUS
 62
     5
 10
379.233871
 20
116.265121
 30
0.0
 11
379.233871
 21
116.364919
 31
0.0
  0
CIRCLE
  5
87
  8
DETAIL
  6
CONTINUOUS
 62
     5
 10
379.233871
 20
119.758065
 30
0.0
 40
3.492944
  0
ARC
  5
88
  8
DETAIL
  6
CONTINUOUS
 62
     5
 10
329.334677
 20
94.808468
 30
0.0
 40
19.959677
 50
0.0
 51
90.0
  0
LINE
  5
89
  8
DETAIL
  6
CONTINUOUS
 62
     5
 10
380.041282
 20
116.364919
 30
0.0
 11
379.233871
 21
116.364919
 31
0.0
  0
LINE
  5
8A
  8
DETAIL
  6
CONTINUOUS
 62
     5
 10
474.042339
 20
129.737903
 30
0.0
 11
403.185484
 21
129.737903
 31
0.0
  0
LINE
  5
8B
  8
NOTE
  6
CONTINUOUS
 62
     4
 10
-957.973377
 20
808.040694
 30
0.0
 11
-589.062113
 21
808.040694
 31
0.0
  0
LINE
  5
8C
  8
NOTE
  6
CONTINUOUS
 62
     4
 10
-1007.502536
 20
671.668485
 30
0.0
 11
-586.00665
 21
671.668485
 31
0.0
  0
LINE
  5
8D
  8
DETAIL
  6
CONTINUOUS
 62
     5
 10
356.38004
 20
186.892768
 30
0.0
 11
356.38004
 21
707.500377
 31
0.0
  0
LINE
  5
8E
  8
DETAIL
  6
CONTINUOUS
 62
     5
 10
358.176411
 20
186.892768
 30
0.0
 11
358.176411
 21
707.500377
 31
0.0
  0
LINE
  5
8F
  8
DETAIL
  6
CONTINUOUS
 62
     5
 10
441.607863
 20
205.185484
 30
0.0
 11
441.607863
 21
689.207661
 31
0.0
  0
LINE
  5
90
  8
DETAIL
  6
CONTINUOUS
 62
     5
 10
466.55746
 20
205.185484
 30
0.0
 11
466.55746
 21
689.207661
 31
0.0
  0
LINE
  5
91
  8
DETAIL
  6
CONTINUOUS
 62
     5
 10
468.553427
 20
727.131048
 30
0.0
 11
468.553427
 21
167.262097
 31
0.0
  0
LINE
  5
92
  8
DETAIL
  6
CONTINUOUS
 62
     5
 10
-105.287298
 20
167.262097
 30
0.0
 11
-105.287298
 21
727.131048
 31
0.0
  0
LINE
  5
93
  8
DETAIL
  6
CONTINUOUS
 62
     5
 10
-103.291331
 20
689.207661
 30
0.0
 11
-103.291331
 21
205.185484
 31
0.0
  0
LINE
  5
94
  8
DETAIL
  6
CONTINUOUS
 62
     5
 10
-78.341734
 20
689.207661
 30
0.0
 11
-78.341734
 21
205.185484
 31
0.0
  0
LINE
  5
95
  8
DETAIL
  6
CONTINUOUS
 62
     5
 10
5.089718
 20
186.892768
 30
0.0
 11
5.089718
 21
707.500377
 31
0.0
  0
LINE
  5
96
  8
DETAIL
  6
CONTINUOUS
 62
     5
 10
6.886089
 20
186.892768
 30
0.0
 11
6.886089
 21
707.500377
 31
0.0
  0
LINE
  5
97
  8
DETAIL
  6
CONTINUOUS
 62
     5
 10
92.912298
 20
186.892768
 30
0.0
 11
92.912298
 21
707.500377
 31
0.0
  0
LINE
  5
98
  8
DETAIL
  6
CONTINUOUS
 62
     5
 10
94.708669
 20
186.892768
 30
0.0
 11
94.708669
 21
707.500377
 31
0.0
  0
LINE
  5
99
  8
DETAIL
  6
CONTINUOUS
 62
     5
 10
180.734879
 20
186.892768
 30
0.0
 11
180.734879
 21
707.500377
 31
0.0
  0
LINE
  5
9A
  8
DETAIL
  6
CONTINUOUS
 62
     5
 10
182.53125
 20
186.892768
 30
0.0
 11
182.53125
 21
707.500377
 31
0.0
  0
LINE
  5
9B
  8
DETAIL
  6
CONTINUOUS
 62
     5
 10
268.55746
 20
186.892768
 30
0.0
 11
268.55746
 21
707.500377
 31
0.0
  0
LINE
  5
9C
  8
DETAIL
  6
CONTINUOUS
 62
     5
 10
270.353831
 20
186.892768
 30
0.0
 11
270.353831
 21
707.500377
 31
0.0
  0
LINE
  5
9D
  8
NOTE
  6
CONTINUOUS
 62
     4
 10
-589.062113
 20
808.040694
 30
0.0
 11
-417.0
 21
615.0
 31
0.0
  0
LINE
  5
9E
  8
NOTE
  6
CONTINUOUS
 62
     4
 10
-586.00665
 20
671.668485
 30
0.0
 11
-454.001634
 21
565.0
 31
0.0
  0
LINE
  5
9F
  8
DETAIL
  6
CONTINUOUS
 62
     5
 10
484.022177
 20
147.402218
 30
0.0
 11
-107.582661
 21
147.402218
 31
0.0
  0
LINE
  5
A0
  8
DETAIL
  6
CONTINUOUS
 62
     5
 10
-107.582661
 20
149.697581
 30
0.0
 11
495.0
 21
149.697581
 31
0.0
  0
LINE
  5
A1
  8
DETAIL
  6
CONTINUOUS
 62
     5
 10
-105.287298
 20
151.793347
 30
0.0
 11
468.553427
 21
151.793347
 31
0.0
  0
LINE
  5
A2
  8
DETAIL
  6
CONTINUOUS
 62
     5
 10
461.56754
 20
160.27621
 30
0.0
 11
-98.301411
 21
160.27621
 31
0.0
  0
LINE
  5
A3
  8
DETAIL
  6
CONTINUOUS
 62
     5
 10
-60.378024
 20
162.272177
 30
0.0
 11
423.644153
 21
162.272177
 31
0.0
  0
LINE
  5
A4
  8
DETAIL
  6
CONTINUOUS
 62
     5
 10
-60.378024
 20
187.221774
 30
0.0
 11
5.089718
 21
187.221774
 31
0.0
  0
LINE
  5
A5
  8
DETAIL
  6
CONTINUOUS
 62
     5
 10
5.089718
 20
190.353497
 30
0.0
 11
-67.363911
 21
190.353497
 31
0.0
  0
LINE
  5
A6
  8
DETAIL
  6
CONTINUOUS
 62
     5
 10
-67.363911
 20
192.589197
 30
0.0
 11
5.089718
 21
192.589197
 31
0.0
  0
LINE
  5
A7
  8
DETAIL
  6
CONTINUOUS
 62
     5
 10
-78.341734
 20
210.175403
 30
0.0
 11
5.089718
 21
210.175403
 31
0.0
  0
LINE
  5
A8
  8
DETAIL
  6
CONTINUOUS
 62
     5
 10
-78.341734
 20
216.54081
 30
0.0
 11
5.089718
 21
216.54081
 31
0.0
  0
LINE
  5
A9
  8
DETAIL
  6
CONTINUOUS
 62
     5
 10
-78.341734
 20
234.127016
 30
0.0
 11
5.089718
 21
234.127016
 31
0.0
  0
LINE
  5
AA
  8
DETAIL
  6
CONTINUOUS
 62
     5
 10
-78.341734
 20
240.492423
 30
0.0
 11
5.089718
 21
240.492423
 31
0.0
  0
LINE
  5
AB
  8
DETAIL
  6
CONTINUOUS
 62
     5
 10
-78.341734
 20
258.078629
 30
0.0
 11
5.089718
 21
258.078629
 31
0.0
  0
LINE
  5
AC
  8
DETAIL
  6
CONTINUOUS
 62
     5
 10
-78.341734
 20
264.444036
 30
0.0
 11
5.089718
 21
264.444036
 31
0.0
  0
LINE
  5
AD
  8
DETAIL
  6
CONTINUOUS
 62
     5
 10
-78.341734
 20
282.030242
 30
0.0
 11
5.089718
 21
282.030242
 31
0.0
  0
LINE
  5
AE
  8
DETAIL
  6
CONTINUOUS
 62
     5
 10
-78.341734
 20
288.395649
 30
0.0
 11
5.089718
 21
288.395649
 31
0.0
  0
LINE
  5
AF
  8
DETAIL
  6
CONTINUOUS
 62
     5
 10
-78.341734
 20
305.981855
 30
0.0
 11
5.089718
 21
305.981855
 31
0.0
  0
LINE
  5
B0
  8
DETAIL
  6
CONTINUOUS
 62
     5
 10
-78.341734
 20
312.347262
 30
0.0
 11
5.089718
 21
312.347262
 31
0.0
  0
LINE
  5
B1
  8
DETAIL
  6
CONTINUOUS
 62
     5
 10
-78.341734
 20
329.933468
 30
0.0
 11
5.089718
 21
329.933468
 31
0.0
  0
LINE
  5
B2
  8
DETAIL
  6
CONTINUOUS
 62
     5
 10
-78.341734
 20
336.298875
 30
0.0
 11
5.089718
 21
336.298875
 31
0.0
  0
LINE
  5
B3
  8
DETAIL
  6
CONTINUOUS
 62
     5
 10
-78.341734
 20
353.885081
 30
0.0
 11
5.089718
 21
353.885081
 31
0.0
  0
LINE
  5
B4
  8
DETAIL
  6
CONTINUOUS
 62
     5
 10
-78.341734
 20
360.250487
 30
0.0
 11
5.089718
 21
360.250487
 31
0.0
  0
LINE
  5
B5
  8
DETAIL
  6
CONTINUOUS
 62
     5
 10
-78.341734
 20
377.836694
 30
0.0
 11
5.089718
 21
377.836694
 31
0.0
  0
LINE
  5
B6
  8
DETAIL
  6
CONTINUOUS
 62
     5
 10
-78.341734
 20
384.2021
 30
0.0
 11
5.089718
 21
384.2021
 31
0.0
  0
LINE
  5
B7
  8
DETAIL
  6
CONTINUOUS
 62
     5
 10
-78.341734
 20
401.788306
 30
0.0
 11
5.089718
 21
401.788306
 31
0.0
  0
LINE
  5
B8
  8
DETAIL
  6
CONTINUOUS
 62
     5
 10
-78.341734
 20
408.153713
 30
0.0
 11
5.089718
 21
408.153713
 31
0.0
  0
LINE
  5
B9
  8
DETAIL
  6
CONTINUOUS
 62
     5
 10
-78.341734
 20
425.739919
 30
0.0
 11
5.089718
 21
425.739919
 31
0.0
  0
LINE
  5
BA
  8
DETAIL
  6
CONTINUOUS
 62
     5
 10
-78.341734
 20
432.105326
 30
0.0
 11
5.089718
 21
432.105326
 31
0.0
  0
LINE
  5
BB
  8
DETAIL
  6
CONTINUOUS
 62
     5
 10
-78.341734
 20
449.691532
 30
0.0
 11
5.089718
 21
449.691532
 31
0.0
  0
LINE
  5
BC
  8
DETAIL
  6
CONTINUOUS
 62
     5
 10
-78.341734
 20
456.056939
 30
0.0
 11
5.089718
 21
456.056939
 31
0.0
  0
LINE
  5
BD
  8
DETAIL
  6
CONTINUOUS
 62
     5
 10
-107.582661
 20
145.705645
 30
0.0
 11
-494.002016
 21
145.705645
 31
0.0
  0
ARC
  5
BE
  8
DETAIL
  6
CONTINUOUS
 62
     5
 10
-494.002016
 20
146.703629
 30
0.0
 40
0.199597
 50
180.0
 51
270.0
  0
CIRCLE
  5
BF
  8
DETAIL
  6
CONTINUOUS
 62
     5
 10
-442.905242
 20
160.675403
 30
0.0
 40
1.995968
  0
CIRCLE
  5
C0
  8
DETAIL
  6
CONTINUOUS
 62
     5
 10
-442.905242
 20
160.675403
 30
0.0
 40
3.492944
  0
LINE
  5
C1
  8
DETAIL
  6
CONTINUOUS
 62
     5
 10
-495.0
 20
146.703629
 30
0.0
 11
-494.002016
 21
146.703629
 31
0.0
  0
LINE
  5
C2
  8
DETAIL
  6
CONTINUOUS
 62
     5
 10
-494.002016
 20
146.703629
 30
0.0
 11
-494.002016
 21
145.705645
 31
0.0
  0
LINE
  5
C3
  8
DETAIL
  6
CONTINUOUS
 62
     5
 10
-484.022177
 20
139.717742
 30
0.0
 11
-484.022177
 21
145.705645
 31
0.0
  0
LINE
  5
C4
  8
DETAIL
  6
CONTINUOUS
 62
     5
 10
-107.582661
 20
145.705645
 30
0.0
 11
-107.582661
 21
225.544355
 31
0.0
  0
LINE
  5
C5
  8
DETAIL
  6
CONTINUOUS
 62
     5
 10
-309.620716
 20
145.705645
 30
0.0
 11
-309.620716
 21
142.212702
 31
0.0
  0
LINE
  5
C6
  8
DETAIL
  6
CONTINUOUS
 62
     5
 10
-297.644909
 20
145.705645
 30
0.0
 11
-297.644909
 21
142.212702
 31
0.0
  0
LINE
  5
C7
  8
DETAIL
  6
CONTINUOUS
 62
     5
 10
-309.620716
 20
142.212702
 30
0.0
 11
-297.644909
 21
142.212702
 31
0.0
  0
ARC
  5
C8
  8
DETAIL
  6
CONTINUOUS
 62
     5
 10
-98.301411
 20
167.262097
 30
0.0
 40
6.985887
 50
180.0
 51
270.0
  0
CIRCLE
  5
C9
  8
DETAIL
  6
CONTINUOUS
 62
     5
 10
-97.303427
 20
168.260081
 30
0.0
 40
2.993952
  0
ARC
  5
CA
  8
DETAIL
  6
CONTINUOUS
 62
     5
 10
-60.378024
 20
205.185484
 30
0.0
 40
17.96371
 50
180.0
 51
270.0
  0
ARC
  5
CB
  8
DETAIL
  6
CONTINUOUS
 62
     5
 10
-71.355847
 20
194.207661
 30
0.0
 40
3.991935
 50
0.0
 51
26.307281
  0
ARC
  5
CC
  8
DETAIL
  6
CONTINUOUS
 62
     5
 10
-60.378024
 20
205.185484
 30
0.0
 40
42.913306
 50
180.0
 51
270.0
  0
CIRCLE
  5
CD
  8
DETAIL
  6
CONTINUOUS
 62
     5
 10
-115.566532
 20
160.675403
 30
0.0
 40
2.145665
  0
CIRCLE
  5
CE
  8
DETAIL
  6
CONTINUOUS
 62
     5
 10
-97.303427
 20
168.260081
 30
0.0
 40
1.995968
  0
CIRCLE
  5
CF
  8
DETAIL
  6
CONTINUOUS
 62
     5
 10
-115.566532
 20
160.675403
 30
0.0
 40
3.492944
  0
LINE
  5
D0
  8
DETAIL
  6
CONTINUOUS
 62
     5
 10
-116.784482
 20
158.91371
 30
0.0
 11
-116.784482
 21
162.437097
 31
0.0
  0
LINE
  5
D1
  8
DETAIL
  6
CONTINUOUS
 62
     5
 10
-105.287298
 20
151.793347
 30
0.0
 11
-105.287298
 21
167.262097
 31
0.0
  0
LINE
  5
D2
  8
DETAIL
  6
CONTINUOUS
 62
     5
 10
-89.319556
 20
151.793347
 30
0.0
 11
-89.319556
 21
160.27621
 31
0.0
  0
LINE
  5
D3
  8
DETAIL
  6
CONTINUOUS
 62
     5
 10
-67.363911
 20
194.207661
 30
0.0
 11
-67.363911
 21
188.635794
 31
0.0
  0
LINE
  5
D4
  8
DETAIL
  6
CONTINUOUS
 62
     5
 10
-98.618435
 20
166.763105
 30
0.0
 11
-95.98842
 21
166.763105
 31
0.0
  0
LINE
  5
D5
  8
DETAIL
  6
CONTINUOUS
 62
     5
 10
-105.287298
 20
174.647177
 30
0.0
 11
-107.582661
 21
174.647177
 31
0.0
  0
LINE
  5
D6
  8
DETAIL
  6
CONTINUOUS
 62
     5
 10
-105.287298
 20
175.518656
 30
0.0
 11
-105.78629
 21
175.518656
 31
0.0
  0
LINE
  5
D7
  8
DETAIL
  6
CONTINUOUS
 62
     5
 10
-105.287298
 20
177.534324
 30
0.0
 11
-105.78629
 21
177.534324
 31
0.0
  0
LINE
  5
D8
  8
DETAIL
  6
CONTINUOUS
 62
     5
 10
-105.287298
 20
178.658813
 30
0.0
 11
-105.78629
 21
178.658813
 31
0.0
  0
LINE
  5
D9
  8
DETAIL
  6
CONTINUOUS
 62
     5
 10
-75.801886
 20
195.976828
 30
0.0
 11
-67.777356
 21
195.976828
 31
0.0
  0
LINE
  5
DA
  8
DETAIL
  6
CONTINUOUS
 62
     5
 10
-106.584677
 20
225.544355
 30
0.0
 11
-107.582661
 21
225.544355
 31
0.0
  0
ARC
  5
DB
  8
DETAIL
  6
CONTINUOUS
 62
     5
 10
181.633065
 20
456.378024
 30
0.0
 40
251.990927
 50
196.6482
 51
198.165303
  0
ARC
  5
DC
  8
DETAIL
  6
CONTINUOUS
 62
     5
 10
181.633065
 20
456.378024
 30
0.0
 40
253.986895
 50
196.511678
 51
198.018486
  0
LINE
  5
DD
  8
DETAIL
  6
CONTINUOUS
 62
     5
 10
-51.952734
 20
384.2021
 30
0.0
 11
-49.856345
 21
377.836694
 31
0.0
  0
ARC
  5
DE
  8
DETAIL
  6
CONTINUOUS
 62
     5
 10
181.633065
 20
456.378024
 30
0.0
 40
251.990927
 50
202.430942
 51
204.006189
  0
ARC
  5
DF
  8
DETAIL
  6
CONTINUOUS
 62
     5
 10
181.633065
 20
456.378024
 30
0.0
 40
253.986895
 50
202.241595
 51
203.807016
  0
ARC
  5
E0
  8
DETAIL
  6
CONTINUOUS
 62
     5
 10
181.633065
 20
456.378024
 30
0.0
 40
251.990927
 50
191.03522
 51
192.514885
  0
ARC
  5
E1
  8
DETAIL
  6
CONTINUOUS
 62
     5
 10
181.633065
 20
456.378024
 30
0.0
 40
251.990927
 50
185.528129
 51
186.985711
  0
ARC
  5
E2
  8
DETAIL
  6
CONTINUOUS
 62
     5
 10
181.633065
 20
456.378024
 30
0.0
 40
251.990927
 50
180.073097
 51
181.521432
  0
ARC
  5
E3
  8
DETAIL
  6
CONTINUOUS
 62
     5
 10
181.633065
 20
456.378024
 30
0.0
 40
253.986895
 50
190.946457
 51
192.415184
  0
ARC
  5
E4
  8
DETAIL
  6
CONTINUOUS
 62
     5
 10
181.633065
 20
456.378024
 30
0.0
 40
253.986895
 50
185.484259
 51
186.93047
  0
ARC
  5
E5
  8
DETAIL
  6
CONTINUOUS
 62
     5
 10
181.633065
 20
456.378024
 30
0.0
 40
253.986895
 50
180.072516
 51
181.50938
  0
LINE
  5
E6
  8
DETAIL
  6
CONTINUOUS
 62
     5
 10
-61.620479
 20
432.105326
 30
0.0
 11
-61.412814
 21
429.696969
 31
0.0
  0
LINE
  5
E7
  8
DETAIL
  6
CONTINUOUS
 62
     5
 10
-61.412814
 20
429.696969
 30
0.0
 11
-60.884882
 21
425.739919
 31
0.0
  0
LINE
  5
E8
  8
DETAIL
  6
CONTINUOUS
 62
     5
 10
-58.119519
 20
408.153713
 30
0.0
 11
-56.6826
 21
401.788306
 31
0.0
  0
LINE
  5
E9
  8
DETAIL
  6
CONTINUOUS
 62
     5
 10
-58.049152
 20
408.153713
 30
0.0
 11
-57.879856
 21
407.219198
 31
0.0
  0
LINE
  5
EA
  8
DETAIL
  6
CONTINUOUS
 62
     5
 10
-57.879856
 20
407.219198
 30
0.0
 11
-56.623005
 21
401.788306
 31
0.0
  0
LINE
  5
EB
  8
DETAIL
  6
CONTINUOUS
 62
     5
 10
-61.903956
 20
432.105326
 30
0.0
 11
-61.079215
 21
425.739919
 31
0.0
  0
LINE
  5
EC
  8
DETAIL
  6
CONTINUOUS
 62
     5
 10
-62.814935
 20
456.056939
 30
0.0
 11
-62.842113
 21
452.496421
 31
0.0
  0
LINE
  5
ED
  8
DETAIL
  6
CONTINUOUS
 62
     5
 10
-62.842113
 20
452.496421
 30
0.0
 11
-62.731941
 21
449.691532
 31
0.0
  0
LINE
  5
EE
  8
DETAIL
  6
CONTINUOUS
 62
     5
 10
-63.274596
 20
456.056939
 30
0.0
 11
-63.283054
 21
455.343275
 31
0.0
  0
LINE
  5
EF
  8
DETAIL
  6
CONTINUOUS
 62
     5
 10
-63.283054
 20
455.343275
 30
0.0
 11
-63.084021
 21
449.691532
 31
0.0
  0
ARC
  5
F0
  8
DETAIL
  6
CONTINUOUS
 62
     5
 10
181.633065
 20
456.378024
 30
0.0
 40
251.990927
 50
298.087597
 51
301.023413
  0
ARC
  5
F1
  8
DETAIL
  6
CONTINUOUS
 62
     5
 10
181.633065
 20
456.378024
 30
0.0
 40
253.986895
 50
298.923775
 51
301.766606
  0
LINE
  5
F2
  8
DETAIL
  6
CONTINUOUS
 62
     5
 10
270.353831
 20
187.221774
 30
0.0
 11
356.38004
 21
187.221774
 31
0.0
  0
LINE
  5
F3
  8
DETAIL
  6
CONTINUOUS
 62
     5
 10
356.38004
 20
190.353497
 30
0.0
 11
301.810283
 21
190.353497
 31
0.0
  0
LINE
  5
F4
  8
DETAIL
  6
CONTINUOUS
 62
     5
 10
270.353831
 20
192.589197
 30
0.0
 11
356.38004
 21
192.589197
 31
0.0
  0
LINE
  5
F5
  8
DETAIL
  6
CONTINUOUS
 62
     5
 10
270.353831
 20
210.175403
 30
0.0
 11
356.38004
 21
210.175403
 31
0.0
  0
LINE
  5
F6
  8
DETAIL
  6
CONTINUOUS
 62
     5
 10
270.353831
 20
216.54081
 30
0.0
 11
356.38004
 21
216.54081
 31
0.0
  0
LINE
  5
F7
  8
DETAIL
  6
CONTINUOUS
 62
     5
 10
270.353831
 20
234.127016
 30
0.0
 11
356.38004
 21
234.127016
 31
0.0
  0
LINE
  5
F8
  8
DETAIL
  6
CONTINUOUS
 62
     5
 10
270.353831
 20
240.492423
 30
0.0
 11
356.38004
 21
240.492423
 31
0.0
  0
LINE
  5
F9
  8
DETAIL
  6
CONTINUOUS
 62
     5
 10
270.353831
 20
258.078629
 30
0.0
 11
356.38004
 21
258.078629
 31
0.0
  0
LINE
  5
FA
  8
DETAIL
  6
CONTINUOUS
 62
     5
 10
270.353831
 20
264.444036
 30
0.0
 11
356.38004
 21
264.444036
 31
0.0
  0
LINE
  5
FB
  8
DETAIL
  6
CONTINUOUS
 62
     5
 10
270.353831
 20
282.030242
 30
0.0
 11
356.38004
 21
282.030242
 31
0.0
  0
LINE
  5
FC
  8
DETAIL
  6
CONTINUOUS
 62
     5
 10
270.353831
 20
288.395649
 30
0.0
 11
356.38004
 21
288.395649
 31
0.0
  0
ARC
  5
FD
  8
DETAIL
  6
CONTINUOUS
 62
     5
 10
181.633065
 20
456.378024
 30
0.0
 40
251.990927
 50
282.24658
 51
287.839129
  0
ARC
  5
FE
  8
DETAIL
  6
CONTINUOUS
 62
     5
 10
181.633065
 20
456.378024
 30
0.0
 40
251.990927
 50
252.160871
 51
257.75342
  0
ARC
  5
FF
  8
DETAIL
  6
CONTINUOUS
 62
     5
 10
181.633065
 20
456.378024
 30
0.0
 40
253.986895
 50
284.208482
 51
289.186063
  0
ARC
  5
100
  8
DETAIL
  6
CONTINUOUS
 62
     5
 10
181.633065
 20
456.378024
 30
0.0
 40
253.986895
 50
250.813937
 51
255.791518
  0
LINE
  5
101
  8
DETAIL
  6
CONTINUOUS
 62
     5
 10
114.269153
 20
213.636763
 30
0.0
 11
114.269153
 21
216.54081
 31
0.0
  0
LINE
  5
102
  8
DETAIL
  6
CONTINUOUS
 62
     5
 10
171.653226
 20
216.54081
 30
0.0
 11
171.653226
 21
210.175403
 31
0.0
  0
LINE
  5
103
  8
DETAIL
  6
CONTINUOUS
 62
     5
 10
191.612903
 20
210.175403
 30
0.0
 11
191.612903
 21
216.54081
 31
0.0
  0
LINE
  5
104
  8
DETAIL
  6
CONTINUOUS
 62
     5
 10
248.996976
 20
216.54081
 30
0.0
 11
248.996976
 21
213.636763
 31
0.0
  0
LINE
  5
105
  8
DETAIL
  6
CONTINUOUS
 62
     5
 10
94.708669
 20
187.221774
 30
0.0
 11
180.734879
 21
187.221774
 31
0.0
  0
LINE
  5
106
  8
DETAIL
  6
CONTINUOUS
 62
     5
 10
94.708669
 20
192.589197
 30
0.0
 11
180.734879
 21
192.589197
 31
0.0
  0
LINE
  5
107
  8
DETAIL
  6
CONTINUOUS
 62
     5
 10
126.734619
 20
189.590502
 30
0.0
 11
139.807359
 21
189.395458
 31
0.0
  0
LINE
  5
108
  8
DETAIL
  6
CONTINUOUS
 62
     5
 10
94.708669
 20
210.175403
 30
0.0
 11
180.734879
 21
210.175403
 31
0.0
  0
LINE
  5
109
  8
DETAIL
  6
CONTINUOUS
 62
     5
 10
93.810484
 20
185.225806
 30
0.0
 11
94.039482
 21
185.568751
 31
0.0
  0
LINE
  5
10A
  8
DETAIL
  6
CONTINUOUS
 62
     5
 10
94.039482
 20
185.568751
 30
0.0
 11
94.245683
 21
185.886372
 31
0.0
  0
LINE
  5
10B
  8
DETAIL
  6
CONTINUOUS
 62
     5
 10
94.245683
 20
185.886372
 30
0.0
 11
94.417959
 21
186.168394
 31
0.0
  0
LINE
  5
10C
  8
DETAIL
  6
CONTINUOUS
 62
     5
 10
94.417959
 20
186.168394
 30
0.0
 11
94.549328
 21
186.407572
 31
0.0
  0
LINE
  5
10D
  8
DETAIL
  6
CONTINUOUS
 62
     5
 10
94.549328
 20
186.407572
 30
0.0
 11
94.639637
 21
186.604703
 31
0.0
  0
LINE
  5
10E
  8
DETAIL
  6
CONTINUOUS
 62
     5
 10
94.639637
 20
186.604703
 30
0.0
 11
94.692022
 21
186.765683
 31
0.0
  0
LINE
  5
10F
  8
DETAIL
  6
CONTINUOUS
 62
     5
 10
94.692022
 20
186.765683
 30
0.0
 11
94.708669
 21
186.892768
 31
0.0
  0
LINE
  5
110
  8
DETAIL
  6
CONTINUOUS
 62
     5
 10
5.089718
 20
186.892768
 30
0.0
 11
5.102318
 21
186.783728
 31
0.0
  0
LINE
  5
111
  8
DETAIL
  6
CONTINUOUS
 62
     5
 10
5.102318
 20
186.783728
 30
0.0
 11
5.14244
 21
186.647475
 31
0.0
  0
LINE
  5
112
  8
DETAIL
  6
CONTINUOUS
 62
     5
 10
5.14244
 20
186.647475
 30
0.0
 11
5.211503
 21
186.484103
 31
0.0
  0
LINE
  5
113
  8
DETAIL
  6
CONTINUOUS
 62
     5
 10
5.211503
 20
186.484103
 30
0.0
 11
5.31049
 21
186.291639
 31
0.0
  0
LINE
  5
114
  8
DETAIL
  6
CONTINUOUS
 62
     5
 10
5.31049
 20
186.291639
 30
0.0
 11
5.440598
 21
186.067198
 31
0.0
  0
LINE
  5
115
  8
DETAIL
  6
CONTINUOUS
 62
     5
 10
5.440598
 20
186.067198
 30
0.0
 11
5.600662
 21
185.811169
 31
0.0
  0
LINE
  5
116
  8
DETAIL
  6
CONTINUOUS
 62
     5
 10
5.600662
 20
185.811169
 30
0.0
 11
5.785337
 21
185.528856
 31
0.0
  0
LINE
  5
117
  8
DETAIL
  6
CONTINUOUS
 62
     5
 10
5.785337
 20
185.528856
 30
0.0
 11
5.987903
 21
185.225806
 31
0.0
  0
LINE
  5
118
  8
DETAIL
  6
CONTINUOUS
 62
     5
 10
92.912298
 20
186.892768
 30
0.0
 11
92.924899
 21
186.783728
 31
0.0
  0
LINE
  5
119
  8
DETAIL
  6
CONTINUOUS
 62
     5
 10
92.924899
 20
186.783728
 30
0.0
 11
92.965021
 21
186.647475
 31
0.0
  0
LINE
  5
11A
  8
DETAIL
  6
CONTINUOUS
 62
     5
 10
92.965021
 20
186.647475
 30
0.0
 11
93.034084
 21
186.484103
 31
0.0
  0
LINE
  5
11B
  8
DETAIL
  6
CONTINUOUS
 62
     5
 10
93.034084
 20
186.484103
 30
0.0
 11
93.13307
 21
186.291639
 31
0.0
  0
LINE
  5
11C
  8
DETAIL
  6
CONTINUOUS
 62
     5
 10
93.13307
 20
186.291639
 30
0.0
 11
93.263178
 21
186.067198
 31
0.0
  0
LINE
  5
11D
  8
DETAIL
  6
CONTINUOUS
 62
     5
 10
93.263178
 20
186.067198
 30
0.0
 11
93.423243
 21
185.811169
 31
0.0
  0
LINE
  5
11E
  8
DETAIL
  6
CONTINUOUS
 62
     5
 10
93.423243
 20
185.811169
 30
0.0
 11
93.607918
 21
185.528856
 31
0.0
  0
LINE
  5
11F
  8
DETAIL
  6
CONTINUOUS
 62
     5
 10
93.607918
 20
185.528856
 30
0.0
 11
93.810484
 21
185.225806
 31
0.0
  0
LINE
  5
120
  8
DETAIL
  6
CONTINUOUS
 62
     5
 10
5.987903
 20
185.225806
 30
0.0
 11
6.216902
 21
185.568751
 31
0.0
  0
LINE
  5
121
  8
DETAIL
  6
CONTINUOUS
 62
     5
 10
6.216902
 20
185.568751
 30
0.0
 11
6.423102
 21
185.886372
 31
0.0
  0
LINE
  5
122
  8
DETAIL
  6
CONTINUOUS
 62
     5
 10
6.423102
 20
185.886372
 30
0.0
 11
6.595379
 21
186.168394
 31
0.0
  0
LINE
  5
123
  8
DETAIL
  6
CONTINUOUS
 62
     5
 10
6.595379
 20
186.168394
 30
0.0
 11
6.726747
 21
186.407572
 31
0.0
  0
LINE
  5
124
  8
DETAIL
  6
CONTINUOUS
 62
     5
 10
6.726747
 20
186.407572
 30
0.0
 11
6.817056
 21
186.604703
 31
0.0
  0
LINE
  5
125
  8
DETAIL
  6
CONTINUOUS
 62
     5
 10
6.817056
 20
186.604703
 30
0.0
 11
6.869441
 21
186.765683
 31
0.0
  0
LINE
  5
126
  8
DETAIL
  6
CONTINUOUS
 62
     5
 10
6.869441
 20
186.765683
 30
0.0
 11
6.886089
 21
186.892768
 31
0.0
  0
LINE
  5
127
  8
DETAIL
  6
CONTINUOUS
 62
     5
 10
6.886089
 20
187.221774
 30
0.0
 11
92.912298
 21
187.221774
 31
0.0
  0
LINE
  5
128
  8
DETAIL
  6
CONTINUOUS
 62
     5
 10
61.455846
 20
190.353497
 30
0.0
 11
6.886089
 21
190.353497
 31
0.0
  0
LINE
  5
129
  8
DETAIL
  6
CONTINUOUS
 62
     5
 10
6.886089
 20
192.589197
 30
0.0
 11
92.912298
 21
192.589197
 31
0.0
  0
LINE
  5
12A
  8
DETAIL
  6
CONTINUOUS
 62
     5
 10
61.455846
 20
190.353497
 30
0.0
 11
73.0136
 21
190.315258
 31
0.0
  0
LINE
  5
12B
  8
DETAIL
  6
CONTINUOUS
 62
     5
 10
73.0136
 20
190.315258
 30
0.0
 11
85.841752
 21
190.200196
 31
0.0
  0
LINE
  5
12C
  8
DETAIL
  6
CONTINUOUS
 62
     5
 10
85.841752
 20
190.200196
 30
0.0
 11
92.912298
 21
190.107342
 31
0.0
  0
LINE
  5
12D
  8
DETAIL
  6
CONTINUOUS
 62
     5
 10
94.708669
 20
190.083751
 30
0.0
 11
99.402831
 21
190.022105
 31
0.0
  0
LINE
  5
12E
  8
DETAIL
  6
CONTINUOUS
 62
     5
 10
99.402831
 20
190.022105
 30
0.0
 11
113.188365
 21
189.808159
 31
0.0
  0
LINE
  5
12F
  8
DETAIL
  6
CONTINUOUS
 62
     5
 10
113.188365
 20
189.808159
 30
0.0
 11
126.734619
 21
189.590502
 31
0.0
  0
LINE
  5
130
  8
DETAIL
  6
CONTINUOUS
 62
     5
 10
6.886089
 20
210.175403
 30
0.0
 11
92.912298
 21
210.175403
 31
0.0
  0
LINE
  5
131
  8
DETAIL
  6
CONTINUOUS
 62
     5
 10
181.633065
 20
185.225806
 30
0.0
 11
181.862063
 21
185.568751
 31
0.0
  0
LINE
  5
132
  8
DETAIL
  6
CONTINUOUS
 62
     5
 10
181.862063
 20
185.568751
 30
0.0
 11
182.068264
 21
185.886372
 31
0.0
  0
LINE
  5
133
  8
DETAIL
  6
CONTINUOUS
 62
     5
 10
182.068264
 20
185.886372
 30
0.0
 11
182.24054
 21
186.168394
 31
0.0
  0
LINE
  5
134
  8
DETAIL
  6
CONTINUOUS
 62
     5
 10
182.24054
 20
186.168394
 30
0.0
 11
182.371908
 21
186.407572
 31
0.0
  0
LINE
  5
135
  8
DETAIL
  6
CONTINUOUS
 62
     5
 10
182.371908
 20
186.407572
 30
0.0
 11
182.462217
 21
186.604703
 31
0.0
  0
LINE
  5
136
  8
DETAIL
  6
CONTINUOUS
 62
     5
 10
182.462217
 20
186.604703
 30
0.0
 11
182.514603
 21
186.765683
 31
0.0
  0
LINE
  5
137
  8
DETAIL
  6
CONTINUOUS
 62
     5
 10
182.514603
 20
186.765683
 30
0.0
 11
182.53125
 21
186.892768
 31
0.0
  0
LINE
  5
138
  8
DETAIL
  6
CONTINUOUS
 62
     5
 10
269.455645
 20
185.225806
 30
0.0
 11
269.684643
 21
185.568751
 31
0.0
  0
LINE
  5
139
  8
DETAIL
  6
CONTINUOUS
 62
     5
 10
269.684643
 20
185.568751
 30
0.0
 11
269.890844
 21
185.886372
 31
0.0
  0
LINE
  5
13A
  8
DETAIL
  6
CONTINUOUS
 62
     5
 10
269.890844
 20
185.886372
 30
0.0
 11
270.063121
 21
186.168394
 31
0.0
  0
LINE
  5
13B
  8
DETAIL
  6
CONTINUOUS
 62
     5
 10
270.063121
 20
186.168394
 30
0.0
 11
270.194489
 21
186.407572
 31
0.0
  0
LINE
  5
13C
  8
DETAIL
  6
CONTINUOUS
 62
     5
 10
270.194489
 20
186.407572
 30
0.0
 11
270.284798
 21
186.604703
 31
0.0
  0
LINE
  5
13D
  8
DETAIL
  6
CONTINUOUS
 62
     5
 10
270.284798
 20
186.604703
 30
0.0
 11
270.337183
 21
186.765683
 31
0.0
  0
LINE
  5
13E
  8
DETAIL
  6
CONTINUOUS
 62
     5
 10
270.337183
 20
186.765683
 30
0.0
 11
270.353831
 21
186.892768
 31
0.0
  0
LINE
  5
13F
  8
DETAIL
  6
CONTINUOUS
 62
     5
 10
180.734879
 20
186.892768
 30
0.0
 11
180.74748
 21
186.783728
 31
0.0
  0
LINE
  5
140
  8
DETAIL
  6
CONTINUOUS
 62
     5
 10
180.74748
 20
186.783728
 30
0.0
 11
180.787601
 21
186.647475
 31
0.0
  0
LINE
  5
141
  8
DETAIL
  6
CONTINUOUS
 62
     5
 10
180.787601
 20
186.647475
 30
0.0
 11
180.856665
 21
186.484103
 31
0.0
  0
LINE
  5
142
  8
DETAIL
  6
CONTINUOUS
 62
     5
 10
180.856665
 20
186.484103
 30
0.0
 11
180.955651
 21
186.291639
 31
0.0
  0
LINE
  5
143
  8
DETAIL
  6
CONTINUOUS
 62
     5
 10
180.955651
 20
186.291639
 30
0.0
 11
181.085759
 21
186.067198
 31
0.0
  0
LINE
  5
144
  8
DETAIL
  6
CONTINUOUS
 62
     5
 10
181.085759
 20
186.067198
 30
0.0
 11
181.245823
 21
185.811169
 31
0.0
  0
LINE
  5
145
  8
DETAIL
  6
CONTINUOUS
 62
     5
 10
181.245823
 20
185.811169
 30
0.0
 11
181.430498
 21
185.528856
 31
0.0
  0
LINE
  5
146
  8
DETAIL
  6
CONTINUOUS
 62
     5
 10
181.430498
 20
185.528856
 30
0.0
 11
181.633065
 21
185.225806
 31
0.0
  0
LINE
  5
147
  8
DETAIL
  6
CONTINUOUS
 62
     5
 10
268.55746
 20
186.892768
 30
0.0
 11
268.57006
 21
186.783728
 31
0.0
  0
LINE
  5
148
  8
DETAIL
  6
CONTINUOUS
 62
     5
 10
268.57006
 20
186.783728
 30
0.0
 11
268.610182
 21
186.647475
 31
0.0
  0
LINE
  5
149
  8
DETAIL
  6
CONTINUOUS
 62
     5
 10
268.610182
 20
186.647475
 30
0.0
 11
268.679245
 21
186.484103
 31
0.0
  0
LINE
  5
14A
  8
DETAIL
  6
CONTINUOUS
 62
     5
 10
268.679245
 20
186.484103
 30
0.0
 11
268.778232
 21
186.291639
 31
0.0
  0
LINE
  5
14B
  8
DETAIL
  6
CONTINUOUS
 62
     5
 10
268.778232
 20
186.291639
 30
0.0
 11
268.90834
 21
186.067198
 31
0.0
  0
LINE
  5
14C
  8
DETAIL
  6
CONTINUOUS
 62
     5
 10
268.90834
 20
186.067198
 30
0.0
 11
269.068404
 21
185.811169
 31
0.0
  0
LINE
  5
14D
  8
DETAIL
  6
CONTINUOUS
 62
     5
 10
269.068404
 20
185.811169
 30
0.0
 11
269.253079
 21
185.528856
 31
0.0
  0
LINE
  5
14E
  8
DETAIL
  6
CONTINUOUS
 62
     5
 10
269.253079
 20
185.528856
 30
0.0
 11
269.455645
 21
185.225806
 31
0.0
  0
LINE
  5
14F
  8
DETAIL
  6
CONTINUOUS
 62
     5
 10
270.353831
 20
190.107342
 30
0.0
 11
277.424345
 21
190.200195
 31
0.0
  0
LINE
  5
150
  8
DETAIL
  6
CONTINUOUS
 62
     5
 10
277.424345
 20
190.200195
 30
0.0
 11
290.252492
 21
190.315258
 31
0.0
  0
LINE
  5
151
  8
DETAIL
  6
CONTINUOUS
 62
     5
 10
290.252492
 20
190.315258
 30
0.0
 11
301.810283
 21
190.353497
 31
0.0
  0
LINE
  5
152
  8
DETAIL
  6
CONTINUOUS
 62
     5
 10
182.53125
 20
187.221774
 30
0.0
 11
268.55746
 21
187.221774
 31
0.0
  0
LINE
  5
153
  8
DETAIL
  6
CONTINUOUS
 62
     5
 10
182.53125
 20
189.08289
 30
0.0
 11
187.394061
 21
189.08289
 31
0.0
  0
LINE
  5
154
  8
DETAIL
  6
CONTINUOUS
 62
     5
 10
187.394061
 20
189.08289
 30
0.0
 11
199.027299
 21
189.135936
 31
0.0
  0
LINE
  5
155
  8
DETAIL
  6
CONTINUOUS
 62
     5
 10
199.027299
 20
189.135936
 30
0.0
 11
210.985947
 21
189.241137
 31
0.0
  0
LINE
  5
156
  8
DETAIL
  6
CONTINUOUS
 62
     5
 10
210.985947
 20
189.241137
 30
0.0
 11
223.458779
 21
189.395458
 31
0.0
  0
LINE
  5
157
  8
DETAIL
  6
CONTINUOUS
 62
     5
 10
223.458779
 20
189.395458
 30
0.0
 11
236.531523
 21
189.590502
 31
0.0
  0
LINE
  5
158
  8
DETAIL
  6
CONTINUOUS
 62
     5
 10
236.531523
 20
189.590502
 30
0.0
 11
250.077774
 21
189.808159
 31
0.0
  0
LINE
  5
159
  8
DETAIL
  6
CONTINUOUS
 62
     5
 10
250.077774
 20
189.808159
 30
0.0
 11
263.863289
 21
190.022104
 31
0.0
  0
LINE
  5
15A
  8
DETAIL
  6
CONTINUOUS
 62
     5
 10
263.863289
 20
190.022104
 30
0.0
 11
268.55746
 21
190.083751
 31
0.0
  0
LINE
  5
15B
  8
DETAIL
  6
CONTINUOUS
 62
     5
 10
182.53125
 20
192.589197
 30
0.0
 11
268.55746
 21
192.589197
 31
0.0
  0
LINE
  5
15C
  8
DETAIL
  6
CONTINUOUS
 62
     5
 10
139.807359
 20
189.395458
 30
0.0
 11
152.280187
 21
189.241137
 31
0.0
  0
LINE
  5
15D
  8
DETAIL
  6
CONTINUOUS
 62
     5
 10
152.280187
 20
189.241137
 30
0.0
 11
164.238836
 21
189.135936
 31
0.0
  0
LINE
  5
15E
  8
DETAIL
  6
CONTINUOUS
 62
     5
 10
164.238836
 20
189.135936
 30
0.0
 11
175.872076
 21
189.08289
 31
0.0
  0
LINE
  5
15F
  8
DETAIL
  6
CONTINUOUS
 62
     5
 10
175.872076
 20
189.08289
 30
0.0
 11
180.734879
 21
189.08289
 31
0.0
  0
LINE
  5
160
  8
DETAIL
  6
CONTINUOUS
 62
     5
 10
182.53125
 20
210.175403
 30
0.0
 11
268.55746
 21
210.175403
 31
0.0
  0
LINE
  5
161
  8
DETAIL
  6
CONTINUOUS
 62
     5
 10
94.708669
 20
216.54081
 30
0.0
 11
180.734879
 21
216.54081
 31
0.0
  0
LINE
  5
162
  8
DETAIL
  6
CONTINUOUS
 62
     5
 10
94.708669
 20
234.127016
 30
0.0
 11
180.734879
 21
234.127016
 31
0.0
  0
LINE
  5
163
  8
DETAIL
  6
CONTINUOUS
 62
     5
 10
94.708669
 20
240.492423
 30
0.0
 11
180.734879
 21
240.492423
 31
0.0
  0
LINE
  5
164
  8
DETAIL
  6
CONTINUOUS
 62
     5
 10
94.708669
 20
258.078629
 30
0.0
 11
180.734879
 21
258.078629
 31
0.0
  0
LINE
  5
165
  8
DETAIL
  6
CONTINUOUS
 62
     5
 10
94.708669
 20
264.444036
 30
0.0
 11
180.734879
 21
264.444036
 31
0.0
  0
LINE
  5
166
  8
DETAIL
  6
CONTINUOUS
 62
     5
 10
94.708669
 20
282.030242
 30
0.0
 11
180.734879
 21
282.030242
 31
0.0
  0
LINE
  5
167
  8
DETAIL
  6
CONTINUOUS
 62
     5
 10
94.708669
 20
288.395649
 30
0.0
 11
180.734879
 21
288.395649
 31
0.0
  0
ARC
  5
168
  8
DETAIL
  6
CONTINUOUS
 62
     5
 10
181.633065
 20
456.378024
 30
0.0
 40
251.990927
 50
238.976587
 51
241.912403
  0
ARC
  5
169
  8
DETAIL
  6
CONTINUOUS
 62
     5
 10
181.633065
 20
456.378024
 30
0.0
 40
251.990927
 50
229.618813
 51
231.909511
  0
ARC
  5
16A
  8
DETAIL
  6
CONTINUOUS
 62
     5
 10
181.633065
 20
456.378024
 30
0.0
 40
251.990927
 50
221.822649
 51
223.784473
  0
ARC
  5
16B
  8
DETAIL
  6
CONTINUOUS
 62
     5
 10
181.633065
 20
456.378024
 30
0.0
 40
253.986895
 50
238.233394
 51
241.076225
  0
ARC
  5
16C
  8
DETAIL
  6
CONTINUOUS
 62
     5
 10
181.633065
 20
456.378024
 30
0.0
 40
253.986895
 50
229.105013
 51
231.345459
  0
ARC
  5
16D
  8
DETAIL
  6
CONTINUOUS
 62
     5
 10
181.633065
 20
456.378024
 30
0.0
 40
253.986895
 50
221.417421
 51
223.36513
  0
LINE
  5
16E
  8
DETAIL
  6
CONTINUOUS
 62
     5
 10
3.999414
 20
288.395649
 30
0.0
 11
5.089718
 21
287.28354
 31
0.0
  0
LINE
  5
16F
  8
DETAIL
  6
CONTINUOUS
 62
     5
 10
6.886089
 20
285.451243
 30
0.0
 11
10.240014
 21
282.030242
 31
0.0
  0
LINE
  5
170
  8
DETAIL
  6
CONTINUOUS
 62
     5
 10
35.680019
 20
288.395649
 30
0.0
 11
35.477517
 21
282.030242
 31
0.0
  0
LINE
  5
171
  8
DETAIL
  6
CONTINUOUS
 62
     5
 10
114.269153
 20
234.127016
 30
0.0
 11
114.269153
 21
240.492423
 31
0.0
  0
LINE
  5
172
  8
DETAIL
  6
CONTINUOUS
 62
     5
 10
114.269153
 20
258.078629
 30
0.0
 11
114.269153
 21
264.444036
 31
0.0
  0
LINE
  5
173
  8
DETAIL
  6
CONTINUOUS
 62
     5
 10
114.269153
 20
282.030242
 30
0.0
 11
114.269153
 21
288.395649
 31
0.0
  0
LINE
  5
174
  8
DETAIL
  6
CONTINUOUS
 62
     5
 10
6.886089
 20
216.54081
 30
0.0
 11
92.912298
 21
216.54081
 31
0.0
  0
LINE
  5
175
  8
DETAIL
  6
CONTINUOUS
 62
     5
 10
6.886089
 20
234.127016
 30
0.0
 11
92.912298
 21
234.127016
 31
0.0
  0
LINE
  5
176
  8
DETAIL
  6
CONTINUOUS
 62
     5
 10
6.886089
 20
240.492423
 30
0.0
 11
92.912298
 21
240.492423
 31
0.0
  0
LINE
  5
177
  8
DETAIL
  6
CONTINUOUS
 62
     5
 10
6.886089
 20
258.078629
 30
0.0
 11
92.912298
 21
258.078629
 31
0.0
  0
LINE
  5
178
  8
DETAIL
  6
CONTINUOUS
 62
     5
 10
6.886089
 20
264.444036
 30
0.0
 11
92.912298
 21
264.444036
 31
0.0
  0
LINE
  5
179
  8
DETAIL
  6
CONTINUOUS
 62
     5
 10
6.886089
 20
282.030242
 30
0.0
 11
92.912298
 21
282.030242
 31
0.0
  0
LINE
  5
17A
  8
DETAIL
  6
CONTINUOUS
 62
     5
 10
6.886089
 20
288.395649
 30
0.0
 11
92.912298
 21
288.395649
 31
0.0
  0
LINE
  5
17B
  8
DETAIL
  6
CONTINUOUS
 62
     5
 10
283.383056
 20
234.127016
 30
0.0
 11
287.916249
 21
236.180747
 31
0.0
  0
LINE
  5
17C
  8
DETAIL
  6
CONTINUOUS
 62
     5
 10
287.916249
 20
236.180747
 30
0.0
 11
296.317633
 21
240.492423
 31
0.0
  0
LINE
  5
17D
  8
DETAIL
  6
CONTINUOUS
 62
     5
 10
284.924317
 20
234.127016
 30
0.0
 11
285.499926
 21
234.385067
 31
0.0
  0
LINE
  5
17E
  8
DETAIL
  6
CONTINUOUS
 62
     5
 10
285.499926
 20
234.385067
 30
0.0
 11
296.281899
 21
239.865759
 31
0.0
  0
LINE
  5
17F
  8
DETAIL
  6
CONTINUOUS
 62
     5
 10
296.281899
 20
239.865759
 30
0.0
 11
297.378434
 21
240.492423
 31
0.0
  0
LINE
  5
180
  8
DETAIL
  6
CONTINUOUS
 62
     5
 10
227.657266
 20
240.492423
 30
0.0
 11
233.554948
 21
234.127016
 31
0.0
  0
LINE
  5
181
  8
DETAIL
  6
CONTINUOUS
 62
     5
 10
232.312965
 20
240.492423
 30
0.0
 11
238.159107
 21
234.127016
 31
0.0
  0
LINE
  5
182
  8
DETAIL
  6
CONTINUOUS
 62
     5
 10
209.026559
 20
264.444036
 30
0.0
 11
212.881096
 21
258.865531
 31
0.0
  0
LINE
  5
183
  8
DETAIL
  6
CONTINUOUS
 62
     5
 10
212.881096
 20
258.865531
 30
0.0
 11
213.479461
 21
258.078629
 31
0.0
  0
LINE
  5
184
  8
DETAIL
  6
CONTINUOUS
 62
     5
 10
213.451891
 20
264.444036
 30
0.0
 11
216.089772
 21
260.573897
 31
0.0
  0
LINE
  5
185
  8
DETAIL
  6
CONTINUOUS
 62
     5
 10
216.089772
 20
260.573897
 30
0.0
 11
217.96962
 21
258.078629
 31
0.0
  0
LINE
  5
186
  8
DETAIL
  6
CONTINUOUS
 62
     5
 10
198.915419
 20
288.395649
 30
0.0
 11
202.407865
 21
282.030242
 31
0.0
  0
LINE
  5
187
  8
DETAIL
  6
CONTINUOUS
 62
     5
 10
194.618358
 20
288.395649
 30
0.0
 11
195.455618
 21
286.724128
 31
0.0
  0
LINE
  5
188
  8
DETAIL
  6
CONTINUOUS
 62
     5
 10
195.455618
 20
286.724128
 30
0.0
 11
198.090052
 21
282.030242
 31
0.0
  0
LINE
  5
189
  8
DETAIL
  6
CONTINUOUS
 62
     5
 10
171.653226
 20
288.395649
 30
0.0
 11
171.653226
 21
282.030242
 31
0.0
  0
LINE
  5
18A
  8
DETAIL
  6
CONTINUOUS
 62
     5
 10
171.653226
 20
264.444036
 30
0.0
 11
171.653226
 21
258.078629
 31
0.0
  0
LINE
  5
18B
  8
DETAIL
  6
CONTINUOUS
 62
     5
 10
171.653226
 20
240.492423
 30
0.0
 11
171.653226
 21
234.127016
 31
0.0
  0
LINE
  5
18C
  8
DETAIL
  6
CONTINUOUS
 62
     5
 10
191.612903
 20
234.127016
 30
0.0
 11
191.612903
 21
240.492423
 31
0.0
  0
LINE
  5
18D
  8
DETAIL
  6
CONTINUOUS
 62
     5
 10
191.612903
 20
258.078629
 30
0.0
 11
191.612903
 21
264.444036
 31
0.0
  0
LINE
  5
18E
  8
DETAIL
  6
CONTINUOUS
 62
     5
 10
191.612903
 20
282.030242
 30
0.0
 11
191.612903
 21
288.395649
 31
0.0
  0
LINE
  5
18F
  8
DETAIL
  6
CONTINUOUS
 62
     5
 10
182.53125
 20
216.54081
 30
0.0
 11
268.55746
 21
216.54081
 31
0.0
  0
LINE
  5
190
  8
DETAIL
  6
CONTINUOUS
 62
     5
 10
182.53125
 20
234.127016
 30
0.0
 11
268.55746
 21
234.127016
 31
0.0
  0
LINE
  5
191
  8
DETAIL
  6
CONTINUOUS
 62
     5
 10
182.53125
 20
240.492423
 30
0.0
 11
268.55746
 21
240.492423
 31
0.0
  0
LINE
  5
192
  8
DETAIL
  6
CONTINUOUS
 62
     5
 10
182.53125
 20
258.078629
 30
0.0
 11
268.55746
 21
258.078629
 31
0.0
  0
LINE
  5
193
  8
DETAIL
  6
CONTINUOUS
 62
     5
 10
182.53125
 20
264.444036
 30
0.0
 11
268.55746
 21
264.444036
 31
0.0
  0
LINE
  5
194
  8
DETAIL
  6
CONTINUOUS
 62
     5
 10
182.53125
 20
282.030242
 30
0.0
 11
268.55746
 21
282.030242
 31
0.0
  0
LINE
  5
195
  8
DETAIL
  6
CONTINUOUS
 62
     5
 10
182.53125
 20
288.395649
 30
0.0
 11
268.55746
 21
288.395649
 31
0.0
  0
LINE
  5
196
  8
DETAIL
  6
CONTINUOUS
 62
     5
 10
356.38004
 20
186.892768
 30
0.0
 11
356.392641
 21
186.783728
 31
0.0
  0
LINE
  5
197
  8
DETAIL
  6
CONTINUOUS
 62
     5
 10
356.392641
 20
186.783728
 30
0.0
 11
356.432763
 21
186.647475
 31
0.0
  0
LINE
  5
198
  8
DETAIL
  6
CONTINUOUS
 62
     5
 10
356.432763
 20
186.647475
 30
0.0
 11
356.501826
 21
186.484103
 31
0.0
  0
LINE
  5
199
  8
DETAIL
  6
CONTINUOUS
 62
     5
 10
356.501826
 20
186.484103
 30
0.0
 11
356.600812
 21
186.291639
 31
0.0
  0
LINE
  5
19A
  8
DETAIL
  6
CONTINUOUS
 62
     5
 10
356.600812
 20
186.291639
 30
0.0
 11
356.73092
 21
186.067198
 31
0.0
  0
LINE
  5
19B
  8
DETAIL
  6
CONTINUOUS
 62
     5
 10
356.73092
 20
186.067198
 30
0.0
 11
356.890985
 21
185.811169
 31
0.0
  0
LINE
  5
19C
  8
DETAIL
  6
CONTINUOUS
 62
     5
 10
356.890985
 20
185.811169
 30
0.0
 11
357.07566
 21
185.528856
 31
0.0
  0
LINE
  5
19D
  8
DETAIL
  6
CONTINUOUS
 62
     5
 10
357.07566
 20
185.528856
 30
0.0
 11
357.278226
 21
185.225806
 31
0.0
  0
LINE
  5
19E
  8
DETAIL
  6
CONTINUOUS
 62
     5
 10
430.63004
 20
188.635794
 30
0.0
 11
430.63004
 21
194.207661
 31
0.0
  0
LINE
  5
19F
  8
DETAIL
  6
CONTINUOUS
 62
     5
 10
452.585685
 20
160.27621
 30
0.0
 11
452.585685
 21
151.793347
 31
0.0
  0
LINE
  5
1A0
  8
DETAIL
  6
CONTINUOUS
 62
     5
 10
468.553427
 20
167.262097
 30
0.0
 11
468.553427
 21
151.793347
 31
0.0
  0
LINE
  5
1A1
  8
DETAIL
  6
CONTINUOUS
 62
     5
 10
471.247984
 20
149.697581
 30
0.0
 11
471.247984
 21
174.647177
 31
0.0
  0
LINE
  5
1A2
  8
DETAIL
  6
CONTINUOUS
 62
     5
 10
484.022177
 20
139.717742
 30
0.0
 11
484.022177
 21
149.697581
 31
0.0
  0
LINE
  5
1A3
  8
DETAIL
  6
CONTINUOUS
 62
     5
 10
357.278226
 20
185.225806
 30
0.0
 11
357.507224
 21
185.568751
 31
0.0
  0
LINE
  5
1A4
  8
DETAIL
  6
CONTINUOUS
 62
     5
 10
357.507224
 20
185.568751
 30
0.0
 11
357.713425
 21
185.886372
 31
0.0
  0
LINE
  5
1A5
  8
DETAIL
  6
CONTINUOUS
 62
     5
 10
357.713425
 20
185.886372
 30
0.0
 11
357.885701
 21
186.168394
 31
0.0
  0
LINE
  5
1A6
  8
DETAIL
  6
CONTINUOUS
 62
     5
 10
357.885701
 20
186.168394
 30
0.0
 11
358.01707
 21
186.407572
 31
0.0
  0
LINE
  5
1A7
  8
DETAIL
  6
CONTINUOUS
 62
     5
 10
358.01707
 20
186.407572
 30
0.0
 11
358.107379
 21
186.604703
 31
0.0
  0
LINE
  5
1A8
  8
DETAIL
  6
CONTINUOUS
 62
     5
 10
358.107379
 20
186.604703
 30
0.0
 11
358.159764
 21
186.765683
 31
0.0
  0
LINE
  5
1A9
  8
DETAIL
  6
CONTINUOUS
 62
     5
 10
358.159764
 20
186.765683
 30
0.0
 11
358.176411
 21
186.892768
 31
0.0
  0
ARC
  5
1AA
  8
DETAIL
  6
CONTINUOUS
 62
     5
 10
461.56754
 20
167.262097
 30
0.0
 40
6.985887
 50
270.0
 51
0.0
  0
CIRCLE
  5
1AB
  8
DETAIL
  6
CONTINUOUS
 62
     5
 10
460.569556
 20
168.260081
 30
0.0
 40
2.993952
  0
ARC
  5
1AC
  8
DETAIL
  6
CONTINUOUS
 62
     5
 10
423.644153
 20
205.185484
 30
0.0
 40
17.96371
 50
270.0
 51
0.0
  0
ARC
  5
1AD
  8
DETAIL
  6
CONTINUOUS
 62
     5
 10
434.621976
 20
194.207661
 30
0.0
 40
3.991935
 50
153.692719
 51
180.0
  0
ARC
  5
1AE
  8
DETAIL
  6
CONTINUOUS
 62
     5
 10
423.644153
 20
205.185484
 30
0.0
 40
42.913306
 50
270.0
 51
0.0
  0
CIRCLE
  5
1AF
  8
DETAIL
  6
CONTINUOUS
 62
     5
 10
482.02621
 20
159.677419
 30
0.0
 40
1.995968
  0
CIRCLE
  5
1B0
  8
DETAIL
  6
CONTINUOUS
 62
     5
 10
482.02621
 20
159.677419
 30
0.0
 40
3.492944
  0
CIRCLE
  5
1B1
  8
DETAIL
  6
CONTINUOUS
 62
     5
 10
460.569556
 20
168.260081
 30
0.0
 40
1.995968
  0
LINE
  5
1B2
  8
DETAIL
  6
CONTINUOUS
 62
     5
 10
459.254549
 20
166.763105
 30
0.0
 11
461.884564
 21
166.763105
 31
0.0
  0
LINE
  5
1B3
  8
DETAIL
  6
CONTINUOUS
 62
     5
 10
471.247984
 20
174.647177
 30
0.0
 11
468.553427
 21
174.647177
 31
0.0
  0
LINE
  5
1B4
  8
DETAIL
  6
CONTINUOUS
 62
     5
 10
469.052419
 20
175.518656
 30
0.0
 11
468.553427
 21
175.518656
 31
0.0
  0
LINE
  5
1B5
  8
DETAIL
  6
CONTINUOUS
 62
     5
 10
469.052419
 20
177.534324
 30
0.0
 11
468.553427
 21
177.534324
 31
0.0
  0
LINE
  5
1B6
  8
DETAIL
  6
CONTINUOUS
 62
     5
 10
469.052419
 20
178.658813
 30
0.0
 11
468.553427
 21
178.658813
 31
0.0
  0
LINE
  5
1B7
  8
DETAIL
  6
CONTINUOUS
 62
     5
 10
358.176411
 20
187.221774
 30
0.0
 11
423.644153
 21
187.221774
 31
0.0
  0
LINE
  5
1B8
  8
DETAIL
  6
CONTINUOUS
 62
     5
 10
430.63004
 20
190.353497
 30
0.0
 11
358.176411
 21
190.353497
 31
0.0
  0
LINE
  5
1B9
  8
DETAIL
  6
CONTINUOUS
 62
     5
 10
358.176411
 20
192.589197
 30
0.0
 11
430.63004
 21
192.589197
 31
0.0
  0
LINE
  5
1BA
  8
DETAIL
  6
CONTINUOUS
 62
     5
 10
431.043485
 20
195.976828
 30
0.0
 11
439.068015
 21
195.976828
 31
0.0
  0
LINE
  5
1BB
  8
DETAIL
  6
CONTINUOUS
 62
     5
 10
358.176411
 20
210.175403
 30
0.0
 11
441.607863
 21
210.175403
 31
0.0
  0
LINE
  5
1BC
  8
DETAIL
  6
CONTINUOUS
 62
     5
 10
324.551671
 20
258.078629
 30
0.0
 11
328.689949
 21
261.038701
 31
0.0
  0
LINE
  5
1BD
  8
DETAIL
  6
CONTINUOUS
 62
     5
 10
328.689949
 20
261.038701
 30
0.0
 11
332.991212
 21
264.444036
 31
0.0
  0
LINE
  5
1BE
  8
DETAIL
  6
CONTINUOUS
 62
     5
 10
325.004188
 20
258.078629
 30
0.0
 11
326.778867
 21
259.338684
 31
0.0
  0
LINE
  5
1BF
  8
DETAIL
  6
CONTINUOUS
 62
     5
 10
326.778867
 20
259.338684
 30
0.0
 11
333.272958
 21
264.444036
 31
0.0
  0
LINE
  5
1C0
  8
DETAIL
  6
CONTINUOUS
 62
     5
 10
358.176411
 20
287.308006
 30
0.0
 11
359.201058
 21
288.395649
 31
0.0
  0
LINE
  5
1C1
  8
DETAIL
  6
CONTINUOUS
 62
     5
 10
353.053726
 20
282.030242
 30
0.0
 11
355.503426
 21
284.470681
 31
0.0
  0
LINE
  5
1C2
  8
DETAIL
  6
CONTINUOUS
 62
     5
 10
355.503426
 20
284.470681
 30
0.0
 11
356.38004
 21
285.401191
 31
0.0
  0
ARC
  5
1C3
  8
DETAIL
  6
CONTINUOUS
 62
     5
 10
181.633065
 20
456.378024
 30
0.0
 40
251.990927
 50
316.215527
 51
318.177351
  0
ARC
  5
1C4
  8
DETAIL
  6
CONTINUOUS
 62
     5
 10
181.633065
 20
456.378024
 30
0.0
 40
251.990927
 50
308.090489
 51
310.381187
  0
ARC
  5
1C5
  8
DETAIL
  6
CONTINUOUS
 62
     5
 10
181.633065
 20
456.378024
 30
0.0
 40
253.986895
 50
316.63487
 51
318.582579
  0
ARC
  5
1C6
  8
DETAIL
  6
CONTINUOUS
 62
     5
 10
181.633065
 20
456.378024
 30
0.0
 40
253.986895
 50
308.654541
 51
310.894987
  0
LINE
  5
1C7
  8
DETAIL
  6
CONTINUOUS
 62
     5
 10
358.176411
 20
216.54081
 30
0.0
 11
441.607863
 21
216.54081
 31
0.0
  0
LINE
  5
1C8
  8
DETAIL
  6
CONTINUOUS
 62
     5
 10
358.176411
 20
234.127016
 30
0.0
 11
441.607863
 21
234.127016
 31
0.0
  0
LINE
  5
1C9
  8
DETAIL
  6
CONTINUOUS
 62
     5
 10
358.176411
 20
240.492423
 30
0.0
 11
441.607863
 21
240.492423
 31
0.0
  0
LINE
  5
1CA
  8
DETAIL
  6
CONTINUOUS
 62
     5
 10
358.176411
 20
258.078629
 30
0.0
 11
441.607863
 21
258.078629
 31
0.0
  0
LINE
  5
1CB
  8
DETAIL
  6
CONTINUOUS
 62
     5
 10
358.176411
 20
264.444036
 30
0.0
 11
441.607863
 21
264.444036
 31
0.0
  0
LINE
  5
1CC
  8
DETAIL
  6
CONTINUOUS
 62
     5
 10
358.176411
 20
282.030242
 30
0.0
 11
441.607863
 21
282.030242
 31
0.0
  0
LINE
  5
1CD
  8
DETAIL
  6
CONTINUOUS
 62
     5
 10
358.176411
 20
288.395649
 30
0.0
 11
441.607863
 21
288.395649
 31
0.0
  0
LINE
  5
1CE
  8
DETAIL
  6
CONTINUOUS
 62
     5
 10
270.353831
 20
305.981855
 30
0.0
 11
356.38004
 21
305.981855
 31
0.0
  0
LINE
  5
1CF
  8
DETAIL
  6
CONTINUOUS
 62
     5
 10
270.353831
 20
312.347262
 30
0.0
 11
356.38004
 21
312.347262
 31
0.0
  0
LINE
  5
1D0
  8
DETAIL
  6
CONTINUOUS
 62
     5
 10
270.353831
 20
329.933468
 30
0.0
 11
356.38004
 21
329.933468
 31
0.0
  0
LINE
  5
1D1
  8
DETAIL
  6
CONTINUOUS
 62
     5
 10
270.353831
 20
336.298875
 30
0.0
 11
356.38004
 21
336.298875
 31
0.0
  0
LINE
  5
1D2
  8
DETAIL
  6
CONTINUOUS
 62
     5
 10
270.353831
 20
353.885081
 30
0.0
 11
356.38004
 21
353.885081
 31
0.0
  0
LINE
  5
1D3
  8
DETAIL
  6
CONTINUOUS
 62
     5
 10
270.353831
 20
360.250487
 30
0.0
 11
356.38004
 21
360.250487
 31
0.0
  0
LINE
  5
1D4
  8
DETAIL
  6
CONTINUOUS
 62
     5
 10
270.353831
 20
377.836694
 30
0.0
 11
356.38004
 21
377.836694
 31
0.0
  0
LINE
  5
1D5
  8
DETAIL
  6
CONTINUOUS
 62
     5
 10
270.353831
 20
384.2021
 30
0.0
 11
356.38004
 21
384.2021
 31
0.0
  0
LINE
  5
1D6
  8
DETAIL
  6
CONTINUOUS
 62
     5
 10
270.353831
 20
401.788306
 30
0.0
 11
356.38004
 21
401.788306
 31
0.0
  0
LINE
  5
1D7
  8
DETAIL
  6
CONTINUOUS
 62
     5
 10
270.353831
 20
408.153713
 30
0.0
 11
356.38004
 21
408.153713
 31
0.0
  0
LINE
  5
1D8
  8
DETAIL
  6
CONTINUOUS
 62
     5
 10
270.353831
 20
425.739919
 30
0.0
 11
356.38004
 21
425.739919
 31
0.0
  0
LINE
  5
1D9
  8
DETAIL
  6
CONTINUOUS
 62
     5
 10
270.353831
 20
432.105326
 30
0.0
 11
356.38004
 21
432.105326
 31
0.0
  0
LINE
  5
1DA
  8
DETAIL
  6
CONTINUOUS
 62
     5
 10
270.353831
 20
449.691532
 30
0.0
 11
356.38004
 21
449.691532
 31
0.0
  0
LINE
  5
1DB
  8
DETAIL
  6
CONTINUOUS
 62
     5
 10
270.353831
 20
456.056939
 30
0.0
 11
356.38004
 21
456.056939
 31
0.0
  0
LINE
  5
1DC
  8
DETAIL
  6
CONTINUOUS
 62
     5
 10
139.21875
 20
382.914276
 30
0.0
 11
148.013382
 21
377.836694
 31
0.0
  0
LINE
  5
1DD
  8
DETAIL
  6
CONTINUOUS
 62
     5
 10
168.824644
 20
383.120777
 30
0.0
 11
169.239048
 21
377.836694
 31
0.0
  0
LINE
  5
1DE
  8
DETAIL
  6
CONTINUOUS
 62
     5
 10
173.189499
 20
383.513802
 30
0.0
 11
173.579466
 21
377.836694
 31
0.0
  0
LINE
  5
1DF
  8
DETAIL
  6
CONTINUOUS
 62
     5
 10
61.415293
 20
382.357435
 30
0.0
 11
59.050423
 21
378.15019
 31
0.0
  0
LINE
  5
1E0
  8
DETAIL
  6
CONTINUOUS
 62
     5
 10
94.708669
 20
305.981855
 30
0.0
 11
180.734879
 21
305.981855
 31
0.0
  0
LINE
  5
1E1
  8
DETAIL
  6
CONTINUOUS
 62
     5
 10
94.708669
 20
312.347262
 30
0.0
 11
180.734879
 21
312.347262
 31
0.0
  0
LINE
  5
1E2
  8
DETAIL
  6
CONTINUOUS
 62
     5
 10
94.708669
 20
329.933468
 30
0.0
 11
180.734879
 21
329.933468
 31
0.0
  0
LINE
  5
1E3
  8
DETAIL
  6
CONTINUOUS
 62
     5
 10
94.708669
 20
336.298875
 30
0.0
 11
180.734879
 21
336.298875
 31
0.0
  0
LINE
  5
1E4
  8
DETAIL
  6
CONTINUOUS
 62
     5
 10
94.708669
 20
353.885081
 30
0.0
 11
180.734879
 21
353.885081
 31
0.0
  0
LINE
  5
1E5
  8
DETAIL
  6
CONTINUOUS
 62
     5
 10
94.708669
 20
360.250487
 30
0.0
 11
180.734879
 21
360.250487
 31
0.0
  0
LINE
  5
1E6
  8
DETAIL
  6
CONTINUOUS
 62
     5
 10
94.708669
 20
377.836694
 30
0.0
 11
180.734879
 21
377.836694
 31
0.0
  0
ARC
  5
1E7
  8
DETAIL
  6
CONTINUOUS
 62
     5
 10
181.633065
 20
456.378024
 30
0.0
 40
251.990927
 50
214.860242
 51
216.656133
  0
ARC
  5
1E8
  8
DETAIL
  6
CONTINUOUS
 62
     5
 10
181.633065
 20
456.378024
 30
0.0
 40
251.990927
 50
208.464747
 51
210.128007
  0
ARC
  5
1E9
  8
DETAIL
  6
CONTINUOUS
 62
     5
 10
181.633065
 20
456.378024
 30
0.0
 40
253.986895
 50
214.556577
 51
216.313185
  0
ARC
  5
1EA
  8
DETAIL
  6
CONTINUOUS
 62
     5
 10
181.633065
 20
456.378024
 30
0.0
 40
253.986895
 50
208.215873
 51
209.866444
  0
ARC
  5
1EB
  8
DETAIL
  6
CONTINUOUS
 62
     5
 10
134.228831
 20
342.067477
 30
0.0
 40
19.959677
 50
114.243645
 51
143.657864
  0
LINE
  5
1EC
  8
DETAIL
  6
CONTINUOUS
 62
     5
 10
-15.882079
 20
312.347262
 30
0.0
 11
-11.245302
 21
306.107754
 31
0.0
  0
LINE
  5
1ED
  8
DETAIL
  6
CONTINUOUS
 62
     5
 10
-11.245302
 20
306.107754
 30
0.0
 11
-11.14253
 21
305.981855
 31
0.0
  0
LINE
  5
1EE
  8
DETAIL
  6
CONTINUOUS
 62
     5
 10
-31.299486
 20
336.298875
 30
0.0
 11
-29.945323
 21
333.832487
 31
0.0
  0
LINE
  5
1EF
  8
DETAIL
  6
CONTINUOUS
 62
     5
 10
-29.945323
 20
333.832487
 30
0.0
 11
-27.566438
 21
329.933468
 31
0.0
  0
LINE
  5
1F0
  8
DETAIL
  6
CONTINUOUS
 62
     5
 10
-43.118117
 20
360.250487
 30
0.0
 11
-40.350164
 21
353.885081
 31
0.0
  0
LINE
  5
1F1
  8
DETAIL
  6
CONTINUOUS
 62
     5
 10
114.269153
 20
305.981855
 30
0.0
 11
114.269153
 21
312.347262
 31
0.0
  0
LINE
  5
1F2
  8
DETAIL
  6
CONTINUOUS
 62
     5
 10
114.269153
 20
329.933468
 30
0.0
 11
114.269153
 21
336.298875
 31
0.0
  0
LINE
  5
1F3
  8
DETAIL
  6
CONTINUOUS
 62
     5
 10
37.748511
 20
312.347262
 30
0.0
 11
36.923975
 21
305.981855
 31
0.0
  0
LINE
  5
1F4
  8
DETAIL
  6
CONTINUOUS
 62
     5
 10
42.543771
 20
336.298875
 30
0.0
 11
42.513416
 21
336.194952
 31
0.0
  0
LINE
  5
1F5
  8
DETAIL
  6
CONTINUOUS
 62
     5
 10
42.513416
 20
336.194952
 30
0.0
 11
41.029931
 21
329.933468
 31
0.0
  0
LINE
  5
1F6
  8
DETAIL
  6
CONTINUOUS
 62
     5
 10
50.581248
 20
360.250487
 30
0.0
 11
48.257254
 21
354.366505
 31
0.0
  0
LINE
  5
1F7
  8
DETAIL
  6
CONTINUOUS
 62
     5
 10
48.257254
 20
354.366505
 30
0.0
 11
48.091892
 21
353.885081
 31
0.0
  0
LINE
  5
1F8
  8
DETAIL
  6
CONTINUOUS
 62
     5
 10
59.050423
 20
378.15019
 30
0.0
 11
58.886385
 21
377.836694
 31
0.0
  0
LINE
  5
1F9
  8
DETAIL
  6
CONTINUOUS
 62
     5
 10
6.886089
 20
305.981855
 30
0.0
 11
92.912298
 21
305.981855
 31
0.0
  0
LINE
  5
1FA
  8
DETAIL
  6
CONTINUOUS
 62
     5
 10
6.886089
 20
312.347262
 30
0.0
 11
92.912298
 21
312.347262
 31
0.0
  0
LINE
  5
1FB
  8
DETAIL
  6
CONTINUOUS
 62
     5
 10
6.886089
 20
329.933468
 30
0.0
 11
92.912298
 21
329.933468
 31
0.0
  0
LINE
  5
1FC
  8
DETAIL
  6
CONTINUOUS
 62
     5
 10
6.886089
 20
336.298875
 30
0.0
 11
92.912298
 21
336.298875
 31
0.0
  0
LINE
  5
1FD
  8
DETAIL
  6
CONTINUOUS
 62
     5
 10
6.886089
 20
353.885081
 30
0.0
 11
92.912298
 21
353.885081
 31
0.0
  0
LINE
  5
1FE
  8
DETAIL
  6
CONTINUOUS
 62
     5
 10
6.886089
 20
360.250487
 30
0.0
 11
92.912298
 21
360.250487
 31
0.0
  0
LINE
  5
1FF
  8
DETAIL
  6
CONTINUOUS
 62
     5
 10
6.886089
 20
377.836694
 30
0.0
 11
92.912298
 21
377.836694
 31
0.0
  0
ARC
  5
200
  8
DETAIL
  6
CONTINUOUS
 62
     5
 10
181.633065
 20
456.378024
 30
0.0
 40
103.790323
 50
247.86846
 51
259.895817
  0
ARC
  5
201
  8
DETAIL
  6
CONTINUOUS
 62
     5
 10
161.673387
 20
344.372395
 30
0.0
 40
9.979839
 50
72.561655
 51
79.895817
  0
LINE
  5
202
  8
DETAIL
  6
CONTINUOUS
 62
     5
 10
183.838423
 20
312.347262
 30
0.0
 11
186.112825
 21
306.528312
 31
0.0
  0
LINE
  5
203
  8
DETAIL
  6
CONTINUOUS
 62
     5
 10
186.112825
 20
306.528312
 30
0.0
 11
186.355066
 21
305.981855
 31
0.0
  0
LINE
  5
204
  8
DETAIL
  6
CONTINUOUS
 62
     5
 10
188.12661
 20
312.347262
 30
0.0
 11
189.269801
 21
309.299778
 31
0.0
  0
LINE
  5
205
  8
DETAIL
  6
CONTINUOUS
 62
     5
 10
189.269801
 20
309.299778
 30
0.0
 11
190.693649
 21
305.981855
 31
0.0
  0
LINE
  5
206
  8
DETAIL
  6
CONTINUOUS
 62
     5
 10
176.02732
 20
336.298875
 30
0.0
 11
177.846801
 21
329.933468
 31
0.0
  0
LINE
  5
207
  8
DETAIL
  6
CONTINUOUS
 62
     5
 10
180.400583
 20
336.298875
 30
0.0
 11
180.734879
 21
335.050291
 31
0.0
  0
LINE
  5
208
  8
DETAIL
  6
CONTINUOUS
 62
     5
 10
175.473045
 20
360.250487
 30
0.0
 11
176.533988
 21
353.885081
 31
0.0
  0
LINE
  5
209
  8
DETAIL
  6
CONTINUOUS
 62
     5
 10
171.653226
 20
336.298875
 30
0.0
 11
171.653226
 21
329.933468
 31
0.0
  0
LINE
  5
20A
  8
DETAIL
  6
CONTINUOUS
 62
     5
 10
171.653226
 20
312.347262
 30
0.0
 11
171.653226
 21
305.981855
 31
0.0
  0
LINE
  5
20B
  8
DETAIL
  6
CONTINUOUS
 62
     5
 10
171.15319
 20
360.250487
 30
0.0
 11
171.410689
 21
358.306449
 31
0.0
  0
LINE
  5
20C
  8
DETAIL
  6
CONTINUOUS
 62
     5
 10
171.410689
 20
358.306449
 30
0.0
 11
172.217445
 21
353.885081
 31
0.0
  0
LINE
  5
20D
  8
DETAIL
  6
CONTINUOUS
 62
     5
 10
182.53125
 20
305.981855
 30
0.0
 11
268.55746
 21
305.981855
 31
0.0
  0
LINE
  5
20E
  8
DETAIL
  6
CONTINUOUS
 62
     5
 10
182.53125
 20
312.347262
 30
0.0
 11
268.55746
 21
312.347262
 31
0.0
  0
LINE
  5
20F
  8
DETAIL
  6
CONTINUOUS
 62
     5
 10
182.53125
 20
329.933468
 30
0.0
 11
268.55746
 21
329.933468
 31
0.0
  0
LINE
  5
210
  8
DETAIL
  6
CONTINUOUS
 62
     5
 10
182.53125
 20
336.298875
 30
0.0
 11
268.55746
 21
336.298875
 31
0.0
  0
LINE
  5
211
  8
DETAIL
  6
CONTINUOUS
 62
     5
 10
182.53125
 20
353.885081
 30
0.0
 11
268.55746
 21
353.885081
 31
0.0
  0
LINE
  5
212
  8
DETAIL
  6
CONTINUOUS
 62
     5
 10
182.53125
 20
360.250487
 30
0.0
 11
268.55746
 21
360.250487
 31
0.0
  0
LINE
  5
213
  8
DETAIL
  6
CONTINUOUS
 62
     5
 10
182.53125
 20
377.836694
 30
0.0
 11
268.55746
 21
377.836694
 31
0.0
  0
ARC
  5
214
  8
DETAIL
  6
CONTINUOUS
 62
     5
 10
181.633065
 20
456.378024
 30
0.0
 40
73.351815
 50
221.144651
 51
228.093582
  0
LINE
  5
215
  8
DETAIL
  6
CONTINUOUS
 62
     5
 10
94.708669
 20
384.2021
 30
0.0
 11
180.734879
 21
384.2021
 31
0.0
  0
LINE
  5
216
  8
DETAIL
  6
CONTINUOUS
 62
     5
 10
94.708669
 20
401.788306
 30
0.0
 11
180.734879
 21
401.788306
 31
0.0
  0
LINE
  5
217
  8
DETAIL
  6
CONTINUOUS
 62
     5
 10
94.708669
 20
408.153713
 30
0.0
 11
180.734879
 21
408.153713
 31
0.0
  0
LINE
  5
218
  8
DETAIL
  6
CONTINUOUS
 62
     5
 10
94.708669
 20
425.739919
 30
0.0
 11
180.734879
 21
425.739919
 31
0.0
  0
LINE
  5
219
  8
DETAIL
  6
CONTINUOUS
 62
     5
 10
94.708669
 20
432.105326
 30
0.0
 11
180.734879
 21
432.105326
 31
0.0
  0
LINE
  5
21A
  8
DETAIL
  6
CONTINUOUS
 62
     5
 10
94.708669
 20
449.691532
 30
0.0
 11
180.734879
 21
449.691532
 31
0.0
  0
LINE
  5
21B
  8
DETAIL
  6
CONTINUOUS
 62
     5
 10
94.708669
 20
456.056939
 30
0.0
 11
180.734879
 21
456.056939
 31
0.0
  0
ARC
  5
21C
  8
DETAIL
  6
CONTINUOUS
 62
     5
 10
181.633065
 20
456.378024
 30
0.0
 40
73.351815
 50
180.251035
 51
185.236466
  0
ARC
  5
21D
  8
DETAIL
  6
CONTINUOUS
 62
     5
 10
181.633065
 20
456.378024
 30
0.0
 40
73.351815
 50
199.328899
 51
204.691983
  0
LINE
  5
21E
  8
DETAIL
  6
CONTINUOUS
 62
     5
 10
62.516439
 20
384.2021
 30
0.0
 11
61.415293
 21
382.357435
 31
0.0
  0
LINE
  5
21F
  8
DETAIL
  6
CONTINUOUS
 62
     5
 10
89.00378
 20
408.153713
 30
0.0
 11
86.704985
 21
407.850575
 31
0.0
  0
LINE
  5
220
  8
DETAIL
  6
CONTINUOUS
 62
     5
 10
86.704985
 20
407.850575
 30
0.0
 11
84.460055
 21
407.36781
 31
0.0
  0
LINE
  5
221
  8
DETAIL
  6
CONTINUOUS
 62
     5
 10
84.460055
 20
407.36781
 30
0.0
 11
82.426883
 21
406.74565
 31
0.0
  0
LINE
  5
222
  8
DETAIL
  6
CONTINUOUS
 62
     5
 10
82.426883
 20
406.74565
 30
0.0
 11
80.556136
 21
405.974179
 31
0.0
  0
LINE
  5
223
  8
DETAIL
  6
CONTINUOUS
 62
     5
 10
80.556136
 20
405.974179
 30
0.0
 11
78.83313
 21
405.041211
 31
0.0
  0
LINE
  5
224
  8
DETAIL
  6
CONTINUOUS
 62
     5
 10
78.83313
 20
405.041211
 30
0.0
 11
77.231426
 21
403.928032
 31
0.0
  0
LINE
  5
225
  8
DETAIL
  6
CONTINUOUS
 62
     5
 10
77.231426
 20
403.928032
 30
0.0
 11
75.721092
 21
402.623827
 31
0.0
  0
LINE
  5
226
  8
DETAIL
  6
CONTINUOUS
 62
     5
 10
75.721092
 20
402.623827
 30
0.0
 11
74.909774
 21
401.788306
 31
0.0
  0
LINE
  5
227
  8
DETAIL
  6
CONTINUOUS
 62
     5
 10
6.886089
 20
384.2021
 30
0.0
 11
92.912298
 21
384.2021
 31
0.0
  0
LINE
  5
228
  8
DETAIL
  6
CONTINUOUS
 62
     5
 10
6.886089
 20
401.788306
 30
0.0
 11
92.912298
 21
401.788306
 31
0.0
  0
LINE
  5
229
  8
DETAIL
  6
CONTINUOUS
 62
     5
 10
6.886089
 20
408.153713
 30
0.0
 11
92.912298
 21
408.153713
 31
0.0
  0
LINE
  5
22A
  8
DETAIL
  6
CONTINUOUS
 62
     5
 10
6.886089
 20
425.739919
 30
0.0
 11
92.912298
 21
425.739919
 31
0.0
  0
LINE
  5
22B
  8
DETAIL
  6
CONTINUOUS
 62
     5
 10
6.886089
 20
432.105326
 30
0.0
 11
92.912298
 21
432.105326
 31
0.0
  0
LINE
  5
22C
  8
DETAIL
  6
CONTINUOUS
 62
     5
 10
6.886089
 20
449.691532
 30
0.0
 11
92.912298
 21
449.691532
 31
0.0
  0
LINE
  5
22D
  8
DETAIL
  6
CONTINUOUS
 62
     5
 10
6.886089
 20
456.056939
 30
0.0
 11
92.912298
 21
456.056939
 31
0.0
  0
LINE
  5
22E
  8
DETAIL
  6
CONTINUOUS
 62
     5
 10
131.243251
 20
403.073658
 30
0.0
 11
124.303706
 21
403.887826
 31
0.0
  0
LINE
  5
22F
  8
DETAIL
  6
CONTINUOUS
 62
     5
 10
124.303706
 20
403.887826
 30
0.0
 11
118.038794
 21
404.840256
 31
0.0
  0
LINE
  5
230
  8
DETAIL
  6
CONTINUOUS
 62
     5
 10
118.038794
 20
404.840256
 30
0.0
 11
112.468752
 21
405.807971
 31
0.0
  0
LINE
  5
231
  8
DETAIL
  6
CONTINUOUS
 62
     5
 10
112.468752
 20
405.807971
 30
0.0
 11
107.485522
 21
406.699441
 31
0.0
  0
LINE
  5
232
  8
DETAIL
  6
CONTINUOUS
 62
     5
 10
107.485522
 20
406.699441
 30
0.0
 11
102.985535
 21
407.437734
 31
0.0
  0
LINE
  5
233
  8
DETAIL
  6
CONTINUOUS
 62
     5
 10
102.985535
 20
407.437734
 30
0.0
 11
98.921208
 21
407.968783
 31
0.0
  0
LINE
  5
234
  8
DETAIL
  6
CONTINUOUS
 62
     5
 10
98.921208
 20
407.968783
 30
0.0
 11
96.67838
 21
408.153713
 31
0.0
  0
ARC
  5
235
  8
DETAIL
  6
CONTINUOUS
 62
     5
 10
181.633065
 20
456.378024
 30
0.0
 40
3.991935
 50
283.007052
 51
355.381643
  0
ARC
  5
236
  8
DETAIL
  6
CONTINUOUS
 62
     5
 10
181.633065
 20
456.378024
 30
0.0
 40
3.991935
 50
184.618357
 51
256.992948
  0
ARC
  5
237
  8
DETAIL
  6
CONTINUOUS
 62
     5
 10
181.633065
 20
456.378024
 30
0.0
 40
73.351815
 50
260.140545
 51
269.328173
  0
ARC
  5
238
  8
DETAIL
  6
CONTINUOUS
 62
     5
 10
181.633065
 20
456.378024
 30
0.0
 40
73.351815
 50
270.702412
 51
280.254036
  0
ARC
  5
239
  8
DETAIL
  6
CONTINUOUS
 62
     5
 10
181.633065
 20
456.378024
 30
0.0
 40
73.351815
 50
311.82775
 51
318.835445
  0
ARC
  5
23A
  8
DETAIL
  6
CONTINUOUS
 62
     5
 10
181.633065
 20
456.378024
 30
0.0
 40
73.351815
 50
335.277668
 51
340.651535
  0
ARC
  5
23B
  8
DETAIL
  6
CONTINUOUS
 62
     5
 10
181.633065
 20
456.378024
 30
0.0
 40
73.351815
 50
354.766679
 51
359.748916
  0
ARC
  5
23C
  8
DETAIL
  6
CONTINUOUS
 62
     5
 10
181.633065
 20
456.378024
 30
0.0
 40
4.091734
 50
184.518761
 51
257.278982
  0
ARC
  5
23D
  8
DETAIL
  6
CONTINUOUS
 62
     5
 10
181.633065
 20
456.378024
 30
0.0
 40
4.091734
 50
282.730853
 51
355.50167
  0
ARC
  5
23E
  8
DETAIL
  6
CONTINUOUS
 62
     5
 10
144.208669
 20
391.55707
 30
0.0
 40
9.979839
 50
227.498869
 51
240.0
  0
LINE
  5
23F
  8
DETAIL
  6
CONTINUOUS
 62
     5
 10
265.291035
 20
408.153713
 30
0.0
 11
266.4372
 21
405.720276
 31
0.0
  0
LINE
  5
240
  8
DETAIL
  6
CONTINUOUS
 62
     5
 10
266.4372
 20
405.720276
 30
0.0
 11
267.995975
 21
402.880044
 31
0.0
  0
LINE
  5
241
  8
DETAIL
  6
CONTINUOUS
 62
     5
 10
267.995975
 20
402.880044
 30
0.0
 11
268.55746
 21
402.014817
 31
0.0
  0
LINE
  5
242
  8
DETAIL
  6
CONTINUOUS
 62
     5
 10
256.095473
 20
432.105326
 30
0.0
 11
258.045132
 21
427.120745
 31
0.0
  0
LINE
  5
243
  8
DETAIL
  6
CONTINUOUS
 62
     5
 10
258.045132
 20
427.120745
 30
0.0
 11
258.551882
 21
425.739919
 31
0.0
  0
LINE
  5
244
  8
DETAIL
  6
CONTINUOUS
 62
     5
 10
173.189499
 20
383.513802
 30
0.0
 11
168.824644
 21
383.120777
 31
0.0
  0
LINE
  5
245
  8
DETAIL
  6
CONTINUOUS
 62
     5
 10
182.53125
 20
384.2021
 30
0.0
 11
268.55746
 21
384.2021
 31
0.0
  0
LINE
  5
246
  8
DETAIL
  6
CONTINUOUS
 62
     5
 10
182.53125
 20
401.788306
 30
0.0
 11
268.55746
 21
401.788306
 31
0.0
  0
LINE
  5
247
  8
DETAIL
  6
CONTINUOUS
 62
     5
 10
182.53125
 20
408.153713
 30
0.0
 11
268.55746
 21
408.153713
 31
0.0
  0
LINE
  5
248
  8
DETAIL
  6
CONTINUOUS
 62
     5
 10
182.53125
 20
425.739919
 30
0.0
 11
268.55746
 21
425.739919
 31
0.0
  0
LINE
  5
249
  8
DETAIL
  6
CONTINUOUS
 62
     5
 10
182.53125
 20
432.105326
 30
0.0
 11
268.55746
 21
432.105326
 31
0.0
  0
LINE
  5
24A
  8
DETAIL
  6
CONTINUOUS
 62
     5
 10
182.53125
 20
449.691532
 30
0.0
 11
268.55746
 21
449.691532
 31
0.0
  0
LINE
  5
24B
  8
DETAIL
  6
CONTINUOUS
 62
     5
 10
182.53125
 20
456.056939
 30
0.0
 11
268.55746
 21
456.056939
 31
0.0
  0
LINE
  5
24C
  8
DETAIL
  6
CONTINUOUS
 62
     5
 10
413.109066
 20
377.836694
 30
0.0
 11
415.170162
 21
383.964991
 31
0.0
  0
ARC
  5
24D
  8
DETAIL
  6
CONTINUOUS
 62
     5
 10
181.633065
 20
456.378024
 30
0.0
 40
251.990927
 50
341.834697
 51
343.3518
  0
ARC
  5
24E
  8
DETAIL
  6
CONTINUOUS
 62
     5
 10
181.633065
 20
456.378024
 30
0.0
 40
253.986895
 50
341.981514
 51
343.488322
  0
LINE
  5
24F
  8
DETAIL
  6
CONTINUOUS
 62
     5
 10
403.566785
 20
353.885081
 30
0.0
 11
406.406527
 21
360.250487
 31
0.0
  0
LINE
  5
250
  8
DETAIL
  6
CONTINUOUS
 62
     5
 10
390.876802
 20
329.933468
 30
0.0
 11
391.467654
 21
330.869659
 31
0.0
  0
LINE
  5
251
  8
DETAIL
  6
CONTINUOUS
 62
     5
 10
391.467654
 20
330.869659
 30
0.0
 11
394.540957
 21
336.298875
 31
0.0
  0
LINE
  5
252
  8
DETAIL
  6
CONTINUOUS
 62
     5
 10
374.324903
 20
305.981855
 30
0.0
 11
378.462803
 21
311.322656
 31
0.0
  0
LINE
  5
253
  8
DETAIL
  6
CONTINUOUS
 62
     5
 10
378.462803
 20
311.322656
 30
0.0
 11
379.180601
 21
312.347262
 31
0.0
  0
ARC
  5
254
  8
DETAIL
  6
CONTINUOUS
 62
     5
 10
181.633065
 20
456.378024
 30
0.0
 40
251.990927
 50
335.993811
 51
337.569058
  0
ARC
  5
255
  8
DETAIL
  6
CONTINUOUS
 62
     5
 10
181.633065
 20
456.378024
 30
0.0
 40
251.990927
 50
329.871993
 51
331.535253
  0
ARC
  5
256
  8
DETAIL
  6
CONTINUOUS
 62
     5
 10
181.633065
 20
456.378024
 30
0.0
 40
251.990927
 50
323.343867
 51
325.139758
  0
ARC
  5
257
  8
DETAIL
  6
CONTINUOUS
 62
     5
 10
181.633065
 20
456.378024
 30
0.0
 40
253.986895
 50
336.192984
 51
337.758405
  0
ARC
  5
258
  8
DETAIL
  6
CONTINUOUS
 62
     5
 10
181.633065
 20
456.378024
 30
0.0
 40
253.986895
 50
330.133556
 51
331.784127
  0
ARC
  5
259
  8
DETAIL
  6
CONTINUOUS
 62
     5
 10
181.633065
 20
456.378024
 30
0.0
 40
253.986895
 50
323.686815
 51
325.443423
  0
LINE
  5
25A
  8
DETAIL
  6
CONTINUOUS
 62
     5
 10
358.176411
 20
305.981855
 30
0.0
 11
441.607863
 21
305.981855
 31
0.0
  0
LINE
  5
25B
  8
DETAIL
  6
CONTINUOUS
 62
     5
 10
358.176411
 20
312.347262
 30
0.0
 11
441.607863
 21
312.347262
 31
0.0
  0
LINE
  5
25C
  8
DETAIL
  6
CONTINUOUS
 62
     5
 10
358.176411
 20
329.933468
 30
0.0
 11
441.607863
 21
329.933468
 31
0.0
  0
LINE
  5
25D
  8
DETAIL
  6
CONTINUOUS
 62
     5
 10
358.176411
 20
336.298875
 30
0.0
 11
441.607863
 21
336.298875
 31
0.0
  0
LINE
  5
25E
  8
DETAIL
  6
CONTINUOUS
 62
     5
 10
358.176411
 20
353.885081
 30
0.0
 11
441.607863
 21
353.885081
 31
0.0
  0
LINE
  5
25F
  8
DETAIL
  6
CONTINUOUS
 62
     5
 10
358.176411
 20
360.250487
 30
0.0
 11
441.607863
 21
360.250487
 31
0.0
  0
LINE
  5
260
  8
DETAIL
  6
CONTINUOUS
 62
     5
 10
358.176411
 20
377.836694
 30
0.0
 11
441.607863
 21
377.836694
 31
0.0
  0
LINE
  5
261
  8
DETAIL
  6
CONTINUOUS
 62
     5
 10
373.198722
 20
401.788306
 30
0.0
 11
375.113364
 21
402.465012
 31
0.0
  0
LINE
  5
262
  8
DETAIL
  6
CONTINUOUS
 62
     5
 10
375.113364
 20
402.465012
 30
0.0
 11
385.094059
 21
406.604835
 31
0.0
  0
LINE
  5
263
  8
DETAIL
  6
CONTINUOUS
 62
     5
 10
385.094059
 20
406.604835
 30
0.0
 11
388.365267
 21
408.153713
 31
0.0
  0
LINE
  5
264
  8
DETAIL
  6
CONTINUOUS
 62
     5
 10
419.898865
 20
401.788306
 30
0.0
 11
420.979145
 21
406.412896
 31
0.0
  0
LINE
  5
265
  8
DETAIL
  6
CONTINUOUS
 62
     5
 10
420.979145
 20
406.412896
 30
0.0
 11
421.299908
 21
408.153713
 31
0.0
  0
LINE
  5
266
  8
DETAIL
  6
CONTINUOUS
 62
     5
 10
415.170162
 20
383.964991
 30
0.0
 11
415.237553
 21
384.2021
 31
0.0
  0
ARC
  5
267
  8
DETAIL
  6
CONTINUOUS
 62
     5
 10
181.633065
 20
456.378024
 30
0.0
 40
251.990927
 50
358.478568
 51
359.926903
  0
ARC
  5
268
  8
DETAIL
  6
CONTINUOUS
 62
     5
 10
181.633065
 20
456.378024
 30
0.0
 40
251.990927
 50
353.014289
 51
354.471871
  0
ARC
  5
269
  8
DETAIL
  6
CONTINUOUS
 62
     5
 10
181.633065
 20
456.378024
 30
0.0
 40
251.990927
 50
347.485115
 51
348.96478
  0
ARC
  5
26A
  8
DETAIL
  6
CONTINUOUS
 62
     5
 10
181.633065
 20
456.378024
 30
0.0
 40
253.986895
 50
358.49062
 51
359.927484
  0
ARC
  5
26B
  8
DETAIL
  6
CONTINUOUS
 62
     5
 10
181.633065
 20
456.378024
 30
0.0
 40
253.986895
 50
353.06953
 51
354.515741
  0
ARC
  5
26C
  8
DETAIL
  6
CONTINUOUS
 62
     5
 10
181.633065
 20
456.378024
 30
0.0
 40
253.986895
 50
347.584816
 51
349.053543
  0
LINE
  5
26D
  8
DETAIL
  6
CONTINUOUS
 62
     5
 10
358.176411
 20
384.2021
 30
0.0
 11
441.607863
 21
384.2021
 31
0.0
  0
LINE
  5
26E
  8
DETAIL
  6
CONTINUOUS
 62
     5
 10
358.176411
 20
401.788306
 30
0.0
 11
441.607863
 21
401.788306
 31
0.0
  0
LINE
  5
26F
  8
DETAIL
  6
CONTINUOUS
 62
     5
 10
358.176411
 20
408.153713
 30
0.0
 11
441.607863
 21
408.153713
 31
0.0
  0
LINE
  5
270
  8
DETAIL
  6
CONTINUOUS
 62
     5
 10
358.176411
 20
425.739919
 30
0.0
 11
441.607863
 21
425.739919
 31
0.0
  0
LINE
  5
271
  8
DETAIL
  6
CONTINUOUS
 62
     5
 10
358.176411
 20
432.105326
 30
0.0
 11
441.607863
 21
432.105326
 31
0.0
  0
LINE
  5
272
  8
DETAIL
  6
CONTINUOUS
 62
     5
 10
358.176411
 20
449.691532
 30
0.0
 11
441.607863
 21
449.691532
 31
0.0
  0
LINE
  5
273
  8
DETAIL
  6
CONTINUOUS
 62
     5
 10
358.176411
 20
456.056939
 30
0.0
 11
441.607863
 21
456.056939
 31
0.0
  0
ARC
  5
274
  8
DETAIL
  6
CONTINUOUS
 62
     5
 10
181.633065
 20
456.378024
 30
0.0
 40
253.986895
 50
151.948616
 51
153.556478
  0
LINE
  5
275
  8
DETAIL
  6
CONTINUOUS
 62
     5
 10
-78.341734
 20
497.594758
 30
0.0
 11
5.089718
 21
497.594758
 31
0.0
  0
LINE
  5
276
  8
DETAIL
  6
CONTINUOUS
 62
     5
 10
-78.341734
 20
503.960165
 30
0.0
 11
5.089718
 21
503.960165
 31
0.0
  0
LINE
  5
277
  8
DETAIL
  6
CONTINUOUS
 62
     5
 10
-78.341734
 20
521.546371
 30
0.0
 11
5.089718
 21
521.546371
 31
0.0
  0
LINE
  5
278
  8
DETAIL
  6
CONTINUOUS
 62
     5
 10
-78.341734
 20
527.911778
 30
0.0
 11
5.089718
 21
527.911778
 31
0.0
  0
LINE
  5
279
  8
DETAIL
  6
CONTINUOUS
 62
     5
 10
-78.341734
 20
545.497984
 30
0.0
 11
5.089718
 21
545.497984
 31
0.0
  0
LINE
  5
27A
  8
DETAIL
  6
CONTINUOUS
 62
     5
 10
-78.341734
 20
551.863391
 30
0.0
 11
5.089718
 21
551.863391
 31
0.0
  0
LINE
  5
27B
  8
DETAIL
  6
CONTINUOUS
 62
     5
 10
-78.341734
 20
569.449597
 30
0.0
 11
5.089718
 21
569.449597
 31
0.0
  0
LINE
  5
27C
  8
DETAIL
  6
CONTINUOUS
 62
     5
 10
-78.341734
 20
575.815004
 30
0.0
 11
5.089718
 21
575.815004
 31
0.0
  0
LINE
  5
27D
  8
DETAIL
  6
CONTINUOUS
 62
     5
 10
-78.341734
 20
593.40121
 30
0.0
 11
5.089718
 21
593.40121
 31
0.0
  0
LINE
  5
27E
  8
DETAIL
  6
CONTINUOUS
 62
     5
 10
-78.341734
 20
599.766616
 30
0.0
 11
5.089718
 21
599.766616
 31
0.0
  0
LINE
  5
27F
  8
DETAIL
  6
CONTINUOUS
 62
     5
 10
-78.341734
 20
617.352823
 30
0.0
 11
5.089718
 21
617.352823
 31
0.0
  0
LINE
  5
280
  8
DETAIL
  6
CONTINUOUS
 62
     5
 10
-78.341734
 20
623.718229
 30
0.0
 11
5.089718
 21
623.718229
 31
0.0
  0
LINE
  5
281
  8
DETAIL
  6
CONTINUOUS
 62
     5
 10
-78.341734
 20
641.304435
 30
0.0
 11
5.089718
 21
641.304435
 31
0.0
  0
LINE
  5
282
  8
DETAIL
  6
CONTINUOUS
 62
     5
 10
-78.341734
 20
647.669842
 30
0.0
 11
5.089718
 21
647.669842
 31
0.0
  0
LINE
  5
283
  8
DETAIL
  6
CONTINUOUS
 62
     5
 10
-78.341734
 20
665.256048
 30
0.0
 11
5.089718
 21
665.256048
 31
0.0
  0
LINE
  5
284
  8
DETAIL
  6
CONTINUOUS
 62
     5
 10
-78.341734
 20
671.621455
 30
0.0
 11
5.089718
 21
671.621455
 31
0.0
  0
LINE
  5
285
  8
DETAIL
  6
CONTINUOUS
 62
     5
 10
-78.341734
 20
689.207661
 30
0.0
 11
5.089718
 21
689.207661
 31
0.0
  0
LINE
  5
286
  8
DETAIL
  6
CONTINUOUS
 62
     5
 10
5.089718
 20
707.171371
 30
0.0
 11
-60.378024
 21
707.171371
 31
0.0
  0
LINE
  5
287
  8
DETAIL
  6
CONTINUOUS
 62
     5
 10
423.644153
 20
732.120968
 30
0.0
 11
-60.378024
 21
732.120968
 31
0.0
  0
LINE
  5
288
  8
DETAIL
  6
CONTINUOUS
 62
     5
 10
-98.301411
 20
734.116935
 30
0.0
 11
461.56754
 21
734.116935
 31
0.0
  0
LINE
  5
289
  8
DETAIL
  6
CONTINUOUS
 62
     5
 10
-105.287298
 20
748.188508
 30
0.0
 11
468.553427
 21
748.188508
 31
0.0
  0
LINE
  5
28A
  8
DETAIL
  6
CONTINUOUS
 62
     5
 10
461.56754
 20
756.671371
 30
0.0
 11
-98.301411
 21
756.671371
 31
0.0
  0
LINE
  5
28B
  8
DETAIL
  6
CONTINUOUS
 62
     5
 10
-60.378024
 20
758.667339
 30
0.0
 11
423.644153
 21
758.667339
 31
0.0
  0
LINE
  5
28C
  8
DETAIL
  6
CONTINUOUS
 62
     5
 10
-60.378024
 20
783.616935
 30
0.0
 11
5.089718
 21
783.616935
 31
0.0
  0
LINE
  5
28D
  8
DETAIL
  6
CONTINUOUS
 62
     5
 10
5.089718
 20
786.748659
 30
0.0
 11
-67.363911
 21
786.748659
 31
0.0
  0
LINE
  5
28E
  8
DETAIL
  6
CONTINUOUS
 62
     5
 10
-67.363911
 20
788.984358
 30
0.0
 11
5.089718
 21
788.984358
 31
0.0
  0
LINE
  5
28F
  8
DETAIL
  6
CONTINUOUS
 62
     5
 10
-78.341734
 20
473.643145
 30
0.0
 11
5.089718
 21
473.643145
 31
0.0
  0
LINE
  5
290
  8
DETAIL
  6
CONTINUOUS
 62
     5
 10
-78.341734
 20
480.008552
 30
0.0
 11
5.089718
 21
480.008552
 31
0.0
  0
LINE
  5
291
  8
NOTE
  6
CONTINUOUS
 62
     4
 10
-454.001634
 20
565.0
 30
0.0
 11
-470.320825
 21
588.382092
 31
0.0
  0
LINE
  5
292
  8
NOTE
  6
CONTINUOUS
 62
     4
 10
-454.001634
 20
565.0
 30
0.0
 11
-479.825514
 21
577.08989
 31
0.0
  0
LINE
  5
293
  8
NOTE
  6
CONTINUOUS
 62
     4
 10
-417.0
 20
615.0
 30
0.0
 11
-429.134214
 21
640.803083
 31
0.0
  0
LINE
  5
294
  8
NOTE
  6
CONTINUOUS
 62
     4
 10
-417.0
 20
615.0
 30
0.0
 11
-440.410079
 21
631.279018
 31
0.0
  0
ARC
  5
295
  8
DETAIL
  6
CONTINUOUS
 62
     5
 10
181.633065
 20
456.378024
 30
0.0
 40
251.990927
 50
163.503703
 51
165.009478
  0
ARC
  5
296
  8
DETAIL
  6
CONTINUOUS
 62
     5
 10
181.633065
 20
456.378024
 30
0.0
 40
251.990927
 50
169.113137
 51
170.583909
  0
ARC
  5
297
  8
DETAIL
  6
CONTINUOUS
 62
     5
 10
181.633065
 20
456.378024
 30
0.0
 40
251.990927
 50
174.618299
 51
176.070155
  0
ARC
  5
298
  8
DETAIL
  6
CONTINUOUS
 62
     5
 10
181.633065
 20
456.378024
 30
0.0
 40
253.986895
 50
163.63863
 51
165.128944
  0
ARC
  5
299
  8
DETAIL
  6
CONTINUOUS
 62
     5
 10
181.633065
 20
456.378024
 30
0.0
 40
253.986895
 50
169.200565
 51
170.65833
  0
ARC
  5
29A
  8
DETAIL
  6
CONTINUOUS
 62
     5
 10
181.633065
 20
456.378024
 30
0.0
 40
253.986895
 50
174.660976
 51
176.101115
  0
LINE
  5
29B
  8
DETAIL
  6
CONTINUOUS
 62
     5
 10
-61.662994
 20
480.008552
 30
0.0
 11
-62.128543
 21
475.437463
 31
0.0
  0
LINE
  5
29C
  8
DETAIL
  6
CONTINUOUS
 62
     5
 10
-62.128543
 20
475.437463
 30
0.0
 11
-62.226459
 21
473.643145
 31
0.0
  0
LINE
  5
29D
  8
DETAIL
  6
CONTINUOUS
 62
     5
 10
-62.305911
 20
480.008552
 30
0.0
 11
-62.464788
 21
478.510869
 31
0.0
  0
LINE
  5
29E
  8
DETAIL
  6
CONTINUOUS
 62
     5
 10
-62.464788
 20
478.510869
 30
0.0
 11
-62.750858
 21
473.643145
 31
0.0
  0
LINE
  5
29F
  8
DETAIL
  6
CONTINUOUS
 62
     5
 10
-58.129235
 20
503.960165
 30
0.0
 11
-59.258991
 21
498.262309
 31
0.0
  0
LINE
  5
2A0
  8
DETAIL
  6
CONTINUOUS
 62
     5
 10
-59.258991
 20
498.262309
 30
0.0
 11
-59.358929
 21
497.594758
 31
0.0
  0
LINE
  5
2A1
  8
DETAIL
  6
CONTINUOUS
 62
     5
 10
-58.981442
 20
503.960165
 30
0.0
 11
-59.466313
 21
501.570015
 31
0.0
  0
LINE
  5
2A2
  8
DETAIL
  6
CONTINUOUS
 62
     5
 10
-59.466313
 20
501.570015
 30
0.0
 11
-60.07895
 21
497.594758
 31
0.0
  0
ARC
  5
2A3
  8
DETAIL
  6
CONTINUOUS
 62
     5
 10
181.633065
 20
456.378024
 30
0.0
 40
251.990927
 50
157.726322
 51
159.285202
  0
ARC
  5
2A4
  8
DETAIL
  6
CONTINUOUS
 62
     5
 10
181.633065
 20
456.378024
 30
0.0
 40
253.986895
 50
157.913658
 51
159.453132
  0
ARC
  5
2A5
  8
DETAIL
  6
CONTINUOUS
 62
     5
 10
-60.378024
 20
689.207661
 30
0.0
 40
17.96371
 50
90.0
 51
180.0
  0
ARC
  5
2A6
  8
DETAIL
  6
CONTINUOUS
 62
     5
 10
-60.378024
 20
689.207661
 30
0.0
 40
42.913306
 50
90.0
 51
180.0
  0
LINE
  5
2A7
  8
DETAIL
  6
CONTINUOUS
 62
     5
 10
-261.272177
 20
722.041331
 30
0.0
 11
-261.272177
 21
701.083669
 31
0.0
  0
LINE
  5
2A8
  8
DETAIL
  6
CONTINUOUS
 62
     5
 10
-260.416534
 20
722.041331
 30
0.0
 11
-260.416534
 21
701.083669
 31
0.0
  0
LINE
  5
2A9
  8
DETAIL
  6
CONTINUOUS
 62
     5
 10
-253.288306
 20
722.041331
 30
0.0
 11
-253.288306
 21
701.083669
 31
0.0
  0
LINE
  5
2AA
  8
DETAIL
  6
CONTINUOUS
 62
     5
 10
-251.292339
 20
720.54798
 30
0.0
 11
-251.292339
 21
700.650317
 31
0.0
  0
LINE
  5
2AB
  8
DETAIL
  6
CONTINUOUS
 62
     5
 10
-166.46371
 20
720.54798
 30
0.0
 11
-166.46371
 21
700.650317
 31
0.0
  0
LINE
  5
2AC
  8
DETAIL
  6
CONTINUOUS
 62
     5
 10
-164.467742
 20
701.083669
 30
0.0
 11
-164.467742
 21
722.041331
 31
0.0
  0
LINE
  5
2AD
  8
DETAIL
  6
CONTINUOUS
 62
     5
 10
-157.339514
 20
701.083669
 30
0.0
 11
-157.339514
 21
722.041331
 31
0.0
  0
LINE
  5
2AE
  8
DETAIL
  6
CONTINUOUS
 62
     5
 10
-156.483871
 20
701.083669
 30
0.0
 11
-156.483871
 21
722.041331
 31
0.0
  0
LINE
  5
2AF
  8
DETAIL
  6
CONTINUOUS
 62
     5
 10
-249.296371
 20
689.107863
 30
0.0
 11
-168.459677
 21
689.107863
 31
0.0
  0
LINE
  5
2B0
  8
DETAIL
  6
CONTINUOUS
 62
     5
 10
-249.296371
 20
689.963506
 30
0.0
 11
-168.459677
 21
689.963506
 31
0.0
  0
LINE
  5
2B1
  8
DETAIL
  6
CONTINUOUS
 62
     5
 10
-246.801411
 20
695.344733
 30
0.0
 11
-170.954637
 21
695.344733
 31
0.0
  0
ARC
  5
2B2
  8
DETAIL
  6
CONTINUOUS
 62
     5
 10
-249.296371
 20
701.083669
 30
0.0
 40
11.975806
 50
180.0
 51
270.0
  0
ARC
  5
2B3
  8
DETAIL
  6
CONTINUOUS
 62
     5
 10
-249.296371
 20
701.083669
 30
0.0
 40
11.120163
 50
180.0
 51
270.0
  0
ARC
  5
2B4
  8
DETAIL
  6
CONTINUOUS
 62
     5
 10
-249.296371
 20
701.083669
 30
0.0
 40
3.991935
 50
180.0
 51
254.863702
  0
LINE
  5
2B5
  8
DETAIL
  6
CONTINUOUS
 62
     5
 10
-251.292339
 20
700.650317
 30
0.0
 11
-251.226161
 21
699.700863
 31
0.0
  0
LINE
  5
2B6
  8
DETAIL
  6
CONTINUOUS
 62
     5
 10
-251.226161
 20
699.700863
 30
0.0
 11
-251.036127
 21
698.802154
 31
0.0
  0
LINE
  5
2B7
  8
DETAIL
  6
CONTINUOUS
 62
     5
 10
-251.036127
 20
698.802154
 30
0.0
 11
-250.734816
 21
697.971511
 31
0.0
  0
LINE
  5
2B8
  8
DETAIL
  6
CONTINUOUS
 62
     5
 10
-250.734816
 20
697.971511
 30
0.0
 11
-250.33873
 21
697.230224
 31
0.0
  0
LINE
  5
2B9
  8
DETAIL
  6
CONTINUOUS
 62
     5
 10
-249.296371
 20
696.160671
 30
0.0
 11
-248.722309
 21
695.809075
 31
0.0
  0
LINE
  5
2BA
  8
DETAIL
  6
CONTINUOUS
 62
     5
 10
-248.722309
 20
695.809075
 30
0.0
 11
-248.100346
 21
695.550973
 31
0.0
  0
LINE
  5
2BB
  8
DETAIL
  6
CONTINUOUS
 62
     5
 10
-248.100346
 20
695.550973
 30
0.0
 11
-247.45097
 21
695.395428
 31
0.0
  0
LINE
  5
2BC
  8
DETAIL
  6
CONTINUOUS
 62
     5
 10
-247.45097
 20
695.395428
 30
0.0
 11
-246.801411
 21
695.344733
 31
0.0
  0
LINE
  5
2BD
  8
DETAIL
  6
CONTINUOUS
 62
     5
 10
-250.33873
 20
697.230224
 30
0.0
 11
-250.019994
 21
696.82243
 31
0.0
  0
LINE
  5
2BE
  8
DETAIL
  6
CONTINUOUS
 62
     5
 10
-250.019994
 20
696.82243
 30
0.0
 11
-249.670349
 21
696.46522
 31
0.0
  0
LINE
  5
2BF
  8
DETAIL
  6
CONTINUOUS
 62
     5
 10
-249.670349
 20
696.46522
 30
0.0
 11
-249.296371
 21
696.160671
 31
0.0
  0
ARC
  5
2C0
  8
DETAIL
  6
CONTINUOUS
 62
     5
 10
-168.459677
 20
701.083669
 30
0.0
 40
11.975806
 50
270.0
 51
0.0
  0
ARC
  5
2C1
  8
DETAIL
  6
CONTINUOUS
 62
     5
 10
-168.459677
 20
701.083669
 30
0.0
 40
3.991935
 50
285.136298
 51
0.0
  0
ARC
  5
2C2
  8
DETAIL
  6
CONTINUOUS
 62
     5
 10
-168.459677
 20
701.083669
 30
0.0
 40
11.120163
 50
270.0
 51
0.0
  0
ARC
  5
2C3
  8
DETAIL
  6
CONTINUOUS
 62
     5
 10
-71.355847
 20
700.185484
 30
0.0
 40
3.991935
 50
270.0
 51
0.0
  0
LINE
  5
2C4
  8
DETAIL
  6
CONTINUOUS
 62
     5
 10
-167.417319
 20
697.230224
 30
0.0
 11
-167.021232
 21
697.971511
 31
0.0
  0
LINE
  5
2C5
  8
DETAIL
  6
CONTINUOUS
 62
     5
 10
-167.021232
 20
697.971511
 30
0.0
 11
-166.719921
 21
698.802154
 31
0.0
  0
LINE
  5
2C6
  8
DETAIL
  6
CONTINUOUS
 62
     5
 10
-166.719921
 20
698.802154
 30
0.0
 11
-166.529887
 21
699.700863
 31
0.0
  0
LINE
  5
2C7
  8
DETAIL
  6
CONTINUOUS
 62
     5
 10
-166.529887
 20
699.700863
 30
0.0
 11
-166.46371
 21
700.650317
 31
0.0
  0
LINE
  5
2C8
  8
DETAIL
  6
CONTINUOUS
 62
     5
 10
-168.459677
 20
696.160671
 30
0.0
 11
-168.085753
 21
696.465172
 31
0.0
  0
LINE
  5
2C9
  8
DETAIL
  6
CONTINUOUS
 62
     5
 10
-168.085753
 20
696.465172
 30
0.0
 11
-167.736126
 21
696.822347
 31
0.0
  0
LINE
  5
2CA
  8
DETAIL
  6
CONTINUOUS
 62
     5
 10
-167.736126
 20
696.822347
 30
0.0
 11
-167.417319
 21
697.230224
 31
0.0
  0
LINE
  5
2CB
  8
DETAIL
  6
CONTINUOUS
 62
     5
 10
-170.954637
 20
695.344733
 30
0.0
 11
-170.306024
 21
695.39528
 31
0.0
  0
LINE
  5
2CC
  8
DETAIL
  6
CONTINUOUS
 62
     5
 10
-170.306024
 20
695.39528
 30
0.0
 11
-169.656814
 21
695.550612
 31
0.0
  0
LINE
  5
2CD
  8
DETAIL
  6
CONTINUOUS
 62
     5
 10
-169.656814
 20
695.550612
 30
0.0
 11
-169.034971
 21
695.808447
 31
0.0
  0
LINE
  5
2CE
  8
DETAIL
  6
CONTINUOUS
 62
     5
 10
-169.034971
 20
695.808447
 30
0.0
 11
-168.459677
 21
696.160671
 31
0.0
  0
LINE
  5
2CF
  8
DETAIL
  6
CONTINUOUS
 62
     5
 10
-71.355847
 20
696.193548
 30
0.0
 11
-76.927714
 21
696.193548
 31
0.0
  0
LINE
  5
2D0
  8
DETAIL
  6
CONTINUOUS
 62
     5
 10
-67.363911
 20
705.757352
 30
0.0
 11
-67.363911
 21
700.185484
 31
0.0
  0
LINE
  5
2D1
  8
DETAIL
  6
CONTINUOUS
 62
     5
 10
-173.948589
 20
728.032693
 30
0.0
 11
-243.807459
 21
728.032693
 31
0.0
  0
LINE
  5
2D2
  8
DETAIL
  6
CONTINUOUS
 62
     5
 10
-168.459677
 20
733.161494
 30
0.0
 11
-249.296371
 21
733.161494
 31
0.0
  0
LINE
  5
2D3
  8
DETAIL
  6
CONTINUOUS
 62
     5
 10
-168.459677
 20
734.017137
 30
0.0
 11
-249.296371
 21
734.017137
 31
0.0
  0
ARC
  5
2D4
  8
DETAIL
  6
CONTINUOUS
 62
     5
 10
-249.296371
 20
722.041331
 30
0.0
 40
11.975806
 50
90.0
 51
180.0
  0
ARC
  5
2D5
  8
DETAIL
  6
CONTINUOUS
 62
     5
 10
-249.296371
 20
722.041331
 30
0.0
 40
3.991935
 50
91.801487
 51
180.0
  0
ARC
  5
2D6
  8
DETAIL
  6
CONTINUOUS
 62
     5
 10
-249.296371
 20
722.041331
 30
0.0
 40
11.120163
 50
90.0
 51
180.0
  0
LINE
  5
2D7
  8
DETAIL
  6
CONTINUOUS
 62
     5
 10
-251.292339
 20
720.54798
 30
0.0
 11
-251.213296
 21
721.976486
 31
0.0
  0
LINE
  5
2D8
  8
DETAIL
  6
CONTINUOUS
 62
     5
 10
-251.213296
 20
721.976486
 30
0.0
 11
-250.97411
 21
723.229501
 31
0.0
  0
LINE
  5
2D9
  8
DETAIL
  6
CONTINUOUS
 62
     5
 10
-250.97411
 20
723.229501
 30
0.0
 11
-250.584525
 21
724.315574
 31
0.0
  0
LINE
  5
2DA
  8
DETAIL
  6
CONTINUOUS
 62
     5
 10
-250.584525
 20
724.315574
 30
0.0
 11
-250.062799
 21
725.244246
 31
0.0
  0
LINE
  5
2DB
  8
DETAIL
  6
CONTINUOUS
 62
     5
 10
-250.062799
 20
725.244246
 30
0.0
 11
-249.421864
 21
726.031293
 31
0.0
  0
LINE
  5
2DC
  8
DETAIL
  6
CONTINUOUS
 62
     5
 10
-249.296371
 20
726.156994
 30
0.0
 11
-249.359552
 21
726.094661
 31
0.0
  0
LINE
  5
2DD
  8
DETAIL
  6
CONTINUOUS
 62
     5
 10
-249.359552
 20
726.094661
 30
0.0
 11
-249.421864
 21
726.031293
 31
0.0
  0
LINE
  5
2DE
  8
DETAIL
  6
CONTINUOUS
 62
     5
 10
-243.807459
 20
728.032693
 30
0.0
 11
-245.149002
 21
727.963632
 31
0.0
  0
LINE
  5
2DF
  8
DETAIL
  6
CONTINUOUS
 62
     5
 10
-245.149002
 20
727.963632
 30
0.0
 11
-246.402759
 21
727.737363
 31
0.0
  0
LINE
  5
2E0
  8
DETAIL
  6
CONTINUOUS
 62
     5
 10
-246.402759
 20
727.737363
 30
0.0
 11
-247.524431
 21
727.347762
 31
0.0
  0
LINE
  5
2E1
  8
DETAIL
  6
CONTINUOUS
 62
     5
 10
-247.524431
 20
727.347762
 30
0.0
 11
-248.496089
 21
726.80843
 31
0.0
  0
LINE
  5
2E2
  8
DETAIL
  6
CONTINUOUS
 62
     5
 10
-248.496089
 20
726.80843
 30
0.0
 11
-249.296371
 21
726.156994
 31
0.0
  0
ARC
  5
2E3
  8
DETAIL
  6
CONTINUOUS
 62
     5
 10
-168.459677
 20
722.041331
 30
0.0
 40
11.975806
 50
0.0
 51
90.0
  0
ARC
  5
2E4
  8
DETAIL
  6
CONTINUOUS
 62
     5
 10
-168.459677
 20
722.041331
 30
0.0
 40
3.991935
 50
0.0
 51
88.198509
  0
ARC
  5
2E5
  8
DETAIL
  6
CONTINUOUS
 62
     5
 10
-168.459677
 20
722.041331
 30
0.0
 40
11.120163
 50
0.0
 51
90.0
  0
ARC
  5
2E6
  8
DETAIL
  6
CONTINUOUS
 62
     5
 10
-100.796371
 20
738.114515
 30
0.0
 40
4.989919
 50
180.0
 51
259.438017
  0
ARC
  5
2E7
  8
DETAIL
  6
CONTINUOUS
 62
     5
 10
-98.301411
 20
763.657258
 30
0.0
 40
6.985887
 50
180.0
 51
270.0
  0
CIRCLE
  5
2E8
  8
DETAIL
  6
CONTINUOUS
 62
     5
 10
-97.303427
 20
764.655242
 30
0.0
 40
2.993952
  0
ARC
  5
2E9
  8
DETAIL
  6
CONTINUOUS
 62
     5
 10
-71.355847
 20
790.602823
 30
0.0
 40
3.991935
 50
0.0
 51
26.307281
  0
ARC
  5
2EA
  8
DETAIL
  6
CONTINUOUS
 62
     5
 10
-98.301411
 20
727.131048
 30
0.0
 40
6.985887
 50
90.0
 51
180.0
  0
CIRCLE
  5
2EB
  8
DETAIL
  6
CONTINUOUS
 62
     5
 10
-97.303427
 20
726.133065
 30
0.0
 40
2.993952
  0
CIRCLE
  5
2EC
  8
DETAIL
  6
CONTINUOUS
 62
     5
 10
-97.303427
 20
764.655242
 30
0.0
 40
1.995968
  0
ARC
  5
2ED
  8
DETAIL
  6
CONTINUOUS
 62
     5
 10
-104.289315
 20
732.120968
 30
0.0
 40
0.997984
 50
90.0
 51
180.0
  0
CIRCLE
  5
2EE
  8
DETAIL
  6
CONTINUOUS
 62
     5
 10
-97.303427
 20
726.133065
 30
0.0
 40
1.995968
  0
LINE
  5
2EF
  8
DETAIL
  6
CONTINUOUS
 62
     5
 10
-168.459677
 20
726.156994
 30
0.0
 11
-169.255517
 21
726.80541
 31
0.0
  0
LINE
  5
2F0
  8
DETAIL
  6
CONTINUOUS
 62
     5
 10
-169.255517
 20
726.80541
 30
0.0
 11
-170.223522
 21
727.344142
 31
0.0
  0
LINE
  5
2F1
  8
DETAIL
  6
CONTINUOUS
 62
     5
 10
-170.223522
 20
727.344142
 30
0.0
 11
-171.34509
 21
727.735232
 31
0.0
  0
LINE
  5
2F2
  8
DETAIL
  6
CONTINUOUS
 62
     5
 10
-171.34509
 20
727.735232
 30
0.0
 11
-172.601344
 21
727.963001
 31
0.0
  0
LINE
  5
2F3
  8
DETAIL
  6
CONTINUOUS
 62
     5
 10
-172.601344
 20
727.963001
 30
0.0
 11
-173.948589
 21
728.032693
 31
0.0
  0
LINE
  5
2F4
  8
DETAIL
  6
CONTINUOUS
 62
     5
 10
-168.334184
 20
726.031293
 30
0.0
 11
-168.396491
 21
726.094655
 31
0.0
  0
LINE
  5
2F5
  8
DETAIL
  6
CONTINUOUS
 62
     5
 10
-168.396491
 20
726.094655
 30
0.0
 11
-168.459677
 21
726.156994
 31
0.0
  0
LINE
  5
2F6
  8
DETAIL
  6
CONTINUOUS
 62
     5
 10
-168.334184
 20
726.031293
 30
0.0
 11
-167.692614
 21
725.243311
 31
0.0
  0
LINE
  5
2F7
  8
DETAIL
  6
CONTINUOUS
 62
     5
 10
-167.692614
 20
725.243311
 30
0.0
 11
-167.170901
 21
724.31421
 31
0.0
  0
LINE
  5
2F8
  8
DETAIL
  6
CONTINUOUS
 62
     5
 10
-167.170901
 20
724.31421
 30
0.0
 11
-166.78159
 21
723.228223
 31
0.0
  0
LINE
  5
2F9
  8
DETAIL
  6
CONTINUOUS
 62
     5
 10
-166.78159
 20
723.228223
 30
0.0
 11
-166.542664
 21
721.975739
 31
0.0
  0
LINE
  5
2FA
  8
DETAIL
  6
CONTINUOUS
 62
     5
 10
-166.542664
 20
721.975739
 30
0.0
 11
-166.46371
 21
720.54798
 31
0.0
  0
LINE
  5
2FB
  8
DETAIL
  6
CONTINUOUS
 62
     5
 10
-105.287298
 20
727.131048
 30
0.0
 11
-105.287298
 21
732.120968
 31
0.0
  0
LINE
  5
2FC
  8
DETAIL
  6
CONTINUOUS
 62
     5
 10
-105.287298
 20
748.188508
 30
0.0
 11
-105.287298
 21
763.657258
 31
0.0
  0
LINE
  5
2FD
  8
DETAIL
  6
CONTINUOUS
 62
     5
 10
-104.289315
 20
733.118952
 30
0.0
 11
-104.289315
 21
732.320565
 31
0.0
  0
LINE
  5
2FE
  8
DETAIL
  6
CONTINUOUS
 62
     5
 10
-89.319556
 20
748.188508
 30
0.0
 11
-89.319556
 21
756.671371
 31
0.0
  0
LINE
  5
2FF
  8
DETAIL
  6
CONTINUOUS
 62
     5
 10
-104.511694
 20
732.291926
 30
0.0
 11
-104.671226
 21
732.270665
 31
0.0
  0
LINE
  5
300
  8
DETAIL
  6
CONTINUOUS
 62
     5
 10
-104.671226
 20
732.270665
 30
0.0
 11
-104.843765
 21
732.245716
 31
0.0
  0
LINE
  5
301
  8
DETAIL
  6
CONTINUOUS
 62
     5
 10
-104.843765
 20
732.245716
 30
0.0
 11
-104.994996
 21
732.220766
 31
0.0
  0
LINE
  5
302
  8
DETAIL
  6
CONTINUOUS
 62
     5
 10
-104.994996
 20
732.220766
 30
0.0
 11
-105.119108
 21
732.195817
 31
0.0
  0
LINE
  5
303
  8
DETAIL
  6
CONTINUOUS
 62
     5
 10
-105.119108
 20
732.195817
 30
0.0
 11
-105.211331
 21
732.170867
 31
0.0
  0
LINE
  5
304
  8
DETAIL
  6
CONTINUOUS
 62
     5
 10
-105.211331
 20
732.170867
 30
0.0
 11
-105.268122
 21
732.145917
 31
0.0
  0
LINE
  5
305
  8
DETAIL
  6
CONTINUOUS
 62
     5
 10
-105.268122
 20
732.145917
 30
0.0
 11
-105.287298
 21
732.120968
 31
0.0
  0
LINE
  5
306
  8
DETAIL
  6
CONTINUOUS
 62
     5
 10
-104.289315
 20
732.320565
 30
0.0
 11
-104.511694
 21
732.291926
 31
0.0
  0
LINE
  5
307
  8
DETAIL
  6
CONTINUOUS
 62
     5
 10
-104.289315
 20
732.320565
 30
0.0
 11
-102.973407
 21
732.320565
 31
0.0
  0
LINE
  5
308
  8
DETAIL
  6
CONTINUOUS
 62
     5
 10
-104.289315
 20
733.118952
 30
0.0
 11
-101.875104
 21
733.118952
 31
0.0
  0
LINE
  5
309
  8
DETAIL
  6
CONTINUOUS
 62
     5
 10
-105.78629
 20
734.116935
 30
0.0
 11
-103.775958
 21
734.116935
 31
0.0
  0
LINE
  5
30A
  8
DETAIL
  6
CONTINUOUS
 62
     5
 10
-98.618435
 20
763.158266
 30
0.0
 11
-95.98842
 21
763.158266
 31
0.0
  0
LINE
  5
30B
  8
DETAIL
  6
CONTINUOUS
 62
     5
 10
-105.287298
 20
774.041934
 30
0.0
 11
-105.78629
 21
774.041934
 31
0.0
  0
LINE
  5
30C
  8
DETAIL
  6
CONTINUOUS
 62
     5
 10
-105.287298
 20
775.053974
 30
0.0
 11
-105.78629
 21
775.053974
 31
0.0
  0
LINE
  5
30D
  8
DETAIL
  6
CONTINUOUS
 62
     5
 10
-67.363911
 20
790.602823
 30
0.0
 11
-67.363911
 21
785.030955
 31
0.0
  0
LINE
  5
30E
  8
DETAIL
  6
CONTINUOUS
 62
     5
 10
-75.801886
 20
792.371989
 30
0.0
 11
-67.777356
 21
792.371989
 31
0.0
  0
LINE
  5
30F
  8
DETAIL
  6
CONTINUOUS
 62
     5
 10
270.353831
 20
480.008552
 30
0.0
 11
356.38004
 21
480.008552
 31
0.0
  0
LINE
  5
310
  8
DETAIL
  6
CONTINUOUS
 62
     5
 10
270.353831
 20
497.594758
 30
0.0
 11
356.38004
 21
497.594758
 31
0.0
  0
LINE
  5
311
  8
DETAIL
  6
CONTINUOUS
 62
     5
 10
270.353831
 20
503.960165
 30
0.0
 11
356.38004
 21
503.960165
 31
0.0
  0
LINE
  5
312
  8
DETAIL
  6
CONTINUOUS
 62
     5
 10
270.353831
 20
521.546371
 30
0.0
 11
356.38004
 21
521.546371
 31
0.0
  0
LINE
  5
313
  8
DETAIL
  6
CONTINUOUS
 62
     5
 10
270.353831
 20
527.911778
 30
0.0
 11
356.38004
 21
527.911778
 31
0.0
  0
LINE
  5
314
  8
DETAIL
  6
CONTINUOUS
 62
     5
 10
270.353831
 20
545.497984
 30
0.0
 11
356.38004
 21
545.497984
 31
0.0
  0
LINE
  5
315
  8
DETAIL
  6
CONTINUOUS
 62
     5
 10
270.353831
 20
551.863391
 30
0.0
 11
356.38004
 21
551.863391
 31
0.0
  0
LINE
  5
316
  8
DETAIL
  6
CONTINUOUS
 62
     5
 10
270.353831
 20
569.449597
 30
0.0
 11
356.38004
 21
569.449597
 31
0.0
  0
LINE
  5
317
  8
DETAIL
  6
CONTINUOUS
 62
     5
 10
270.353831
 20
575.815004
 30
0.0
 11
356.38004
 21
575.815004
 31
0.0
  0
LINE
  5
318
  8
DETAIL
  6
CONTINUOUS
 62
     5
 10
270.353831
 20
593.40121
 30
0.0
 11
356.38004
 21
593.40121
 31
0.0
  0
LINE
  5
319
  8
DETAIL
  6
CONTINUOUS
 62
     5
 10
270.353831
 20
599.766616
 30
0.0
 11
356.38004
 21
599.766616
 31
0.0
  0
LINE
  5
31A
  8
DETAIL
  6
CONTINUOUS
 62
     5
 10
270.353831
 20
617.352823
 30
0.0
 11
356.38004
 21
617.352823
 31
0.0
  0
LINE
  5
31B
  8
DETAIL
  6
CONTINUOUS
 62
     5
 10
270.353831
 20
623.718229
 30
0.0
 11
356.38004
 21
623.718229
 31
0.0
  0
LINE
  5
31C
  8
DETAIL
  6
CONTINUOUS
 62
     5
 10
270.353831
 20
473.643145
 30
0.0
 11
356.38004
 21
473.643145
 31
0.0
  0
LINE
  5
31D
  8
DETAIL
  6
CONTINUOUS
 62
     5
 10
94.708669
 20
497.594758
 30
0.0
 11
180.734879
 21
497.594758
 31
0.0
  0
LINE
  5
31E
  8
DETAIL
  6
CONTINUOUS
 62
     5
 10
94.708669
 20
503.960165
 30
0.0
 11
180.734879
 21
503.960165
 31
0.0
  0
LINE
  5
31F
  8
DETAIL
  6
CONTINUOUS
 62
     5
 10
94.708669
 20
521.546371
 30
0.0
 11
180.734879
 21
521.546371
 31
0.0
  0
LINE
  5
320
  8
DETAIL
  6
CONTINUOUS
 62
     5
 10
94.708669
 20
527.911778
 30
0.0
 11
180.734879
 21
527.911778
 31
0.0
  0
LINE
  5
321
  8
DETAIL
  6
CONTINUOUS
 62
     5
 10
94.708669
 20
473.643145
 30
0.0
 11
180.734879
 21
473.643145
 31
0.0
  0
LINE
  5
322
  8
DETAIL
  6
CONTINUOUS
 62
     5
 10
94.708669
 20
480.008552
 30
0.0
 11
180.734879
 21
480.008552
 31
0.0
  0
ARC
  5
323
  8
DETAIL
  6
CONTINUOUS
 62
     5
 10
181.633065
 20
456.378024
 30
0.0
 40
73.351815
 50
161.18178
 51
166.366992
  0
ARC
  5
324
  8
DETAIL
  6
CONTINUOUS
 62
     5
 10
181.633065
 20
456.378024
 30
0.0
 40
73.351815
 50
139.510344
 51
145.784072
  0
LINE
  5
325
  8
DETAIL
  6
CONTINUOUS
 62
     5
 10
6.886089
 20
497.594758
 30
0.0
 11
92.912298
 21
497.594758
 31
0.0
  0
LINE
  5
326
  8
DETAIL
  6
CONTINUOUS
 62
     5
 10
6.886089
 20
503.960165
 30
0.0
 11
92.912298
 21
503.960165
 31
0.0
  0
LINE
  5
327
  8
DETAIL
  6
CONTINUOUS
 62
     5
 10
6.886089
 20
521.546371
 30
0.0
 11
92.912298
 21
521.546371
 31
0.0
  0
LINE
  5
328
  8
DETAIL
  6
CONTINUOUS
 62
     5
 10
6.886089
 20
527.911778
 30
0.0
 11
92.912298
 21
527.911778
 31
0.0
  0
LINE
  5
329
  8
DETAIL
  6
CONTINUOUS
 62
     5
 10
61.013241
 20
521.546371
 30
0.0
 11
50.437232
 21
523.304106
 31
0.0
  0
LINE
  5
32A
  8
DETAIL
  6
CONTINUOUS
 62
     5
 10
50.437232
 20
523.304106
 30
0.0
 11
39.424062
 21
524.61215
 31
0.0
  0
LINE
  5
32B
  8
DETAIL
  6
CONTINUOUS
 62
     5
 10
39.424062
 20
524.61215
 30
0.0
 11
28.4246
 21
525.382391
 31
0.0
  0
LINE
  5
32C
  8
DETAIL
  6
CONTINUOUS
 62
     5
 10
28.4246
 20
525.382391
 30
0.0
 11
17.588682
 21
525.618644
 31
0.0
  0
LINE
  5
32D
  8
DETAIL
  6
CONTINUOUS
 62
     5
 10
17.588682
 20
525.618644
 30
0.0
 11
6.886089
 21
525.319143
 31
0.0
  0
LINE
  5
32E
  8
DETAIL
  6
CONTINUOUS
 62
     5
 10
79.349405
 20
521.546371
 30
0.0
 11
70.734453
 21
523.701779
 31
0.0
  0
LINE
  5
32F
  8
DETAIL
  6
CONTINUOUS
 62
     5
 10
70.734453
 20
523.701779
 30
0.0
 11
60.310954
 21
525.796686
 31
0.0
  0
LINE
  5
330
  8
DETAIL
  6
CONTINUOUS
 62
     5
 10
60.310954
 20
525.796686
 30
0.0
 11
49.613577
 21
527.424068
 31
0.0
  0
LINE
  5
331
  8
DETAIL
  6
CONTINUOUS
 62
     5
 10
49.613577
 20
527.424068
 30
0.0
 11
45.043216
 21
527.911778
 31
0.0
  0
LINE
  5
332
  8
DETAIL
  6
CONTINUOUS
 62
     5
 10
122.75258
 20
500.122478
 30
0.0
 11
114.907794
 21
503.960165
 31
0.0
  0
LINE
  5
333
  8
DETAIL
  6
CONTINUOUS
 62
     5
 10
122.75258
 20
500.122478
 30
0.0
 11
124.530296
 21
503.960165
 31
0.0
  0
LINE
  5
334
  8
DETAIL
  6
CONTINUOUS
 62
     5
 10
-6.307319
 20
527.911778
 30
0.0
 11
-16.287608
 21
526.642053
 31
0.0
  0
LINE
  5
335
  8
DETAIL
  6
CONTINUOUS
 62
     5
 10
-16.287608
 20
526.642053
 30
0.0
 11
-27.741178
 21
524.59928
 31
0.0
  0
LINE
  5
336
  8
DETAIL
  6
CONTINUOUS
 62
     5
 10
-27.741178
 20
524.59928
 30
0.0
 11
-39.345143
 21
521.959532
 31
0.0
  0
LINE
  5
337
  8
DETAIL
  6
CONTINUOUS
 62
     5
 10
-39.345143
 20
521.959532
 30
0.0
 11
-40.825828
 21
521.546371
 31
0.0
  0
LINE
  5
338
  8
DETAIL
  6
CONTINUOUS
 62
     5
 10
5.089718
 20
525.206828
 30
0.0
 11
-5.172049
 21
524.439175
 31
0.0
  0
LINE
  5
339
  8
DETAIL
  6
CONTINUOUS
 62
     5
 10
-5.172049
 20
524.439175
 30
0.0
 11
-16.288245
 21
523.075265
 31
0.0
  0
LINE
  5
33A
  8
DETAIL
  6
CONTINUOUS
 62
     5
 10
-16.288245
 20
523.075265
 30
0.0
 11
-25.101875
 21
521.546371
 31
0.0
  0
LINE
  5
33B
  8
DETAIL
  6
CONTINUOUS
 62
     5
 10
6.886089
 20
473.643145
 30
0.0
 11
92.912298
 21
473.643145
 31
0.0
  0
LINE
  5
33C
  8
DETAIL
  6
CONTINUOUS
 62
     5
 10
6.886089
 20
480.008552
 30
0.0
 11
92.912298
 21
480.008552
 31
0.0
  0
ARC
  5
33D
  8
DETAIL
  6
CONTINUOUS
 62
     5
 10
181.633065
 20
456.378024
 30
0.0
 40
73.351815
 50
102.476601
 51
117.281025
  0
ARC
  5
33E
  8
DETAIL
  6
CONTINUOUS
 62
     5
 10
181.633065
 20
456.378024
 30
0.0
 40
73.351815
 50
62.819191
 51
77.250317
  0
ARC
  5
33F
  8
DETAIL
  6
CONTINUOUS
 62
     5
 10
181.633065
 20
456.378024
 30
0.0
 40
73.351815
 50
34.234861
 51
40.495538
  0
ARC
  5
340
  8
DETAIL
  6
CONTINUOUS
 62
     5
 10
181.633065
 20
456.378024
 30
0.0
 40
73.351815
 50
13.618172
 51
18.797091
  0
LINE
  5
341
  8
DETAIL
  6
CONTINUOUS
 62
     5
 10
182.53125
 20
497.594758
 30
0.0
 11
268.55746
 21
497.594758
 31
0.0
  0
LINE
  5
342
  8
DETAIL
  6
CONTINUOUS
 62
     5
 10
182.53125
 20
503.960165
 30
0.0
 11
268.55746
 21
503.960165
 31
0.0
  0
LINE
  5
343
  8
DETAIL
  6
CONTINUOUS
 62
     5
 10
182.53125
 20
521.546371
 30
0.0
 11
268.55746
 21
521.546371
 31
0.0
  0
LINE
  5
344
  8
DETAIL
  6
CONTINUOUS
 62
     5
 10
182.53125
 20
527.911778
 30
0.0
 11
268.55746
 21
527.911778
 31
0.0
  0
LINE
  5
345
  8
DETAIL
  6
CONTINUOUS
 62
     5
 10
158.604032
 20
527.911778
 30
0.0
 11
158.311003
 21
525.826764
 31
0.0
  0
LINE
  5
346
  8
DETAIL
  6
CONTINUOUS
 62
     5
 10
160.665036
 20
526.669065
 30
0.0
 11
161.593652
 21
527.911778
 31
0.0
  0
LINE
  5
347
  8
DETAIL
  6
CONTINUOUS
 62
     5
 10
297.84009
 20
521.546371
 30
0.0
 11
299.756033
 21
523.625711
 31
0.0
  0
LINE
  5
348
  8
DETAIL
  6
CONTINUOUS
 62
     5
 10
299.756033
 20
523.625711
 30
0.0
 11
303.27918
 21
527.911778
 31
0.0
  0
LINE
  5
349
  8
DETAIL
  6
CONTINUOUS
 62
     5
 10
292.309052
 20
521.546371
 30
0.0
 11
293.582695
 21
522.857846
 31
0.0
  0
LINE
  5
34A
  8
DETAIL
  6
CONTINUOUS
 62
     5
 10
293.582695
 20
522.857846
 30
0.0
 11
297.998197
 21
527.911778
 31
0.0
  0
LINE
  5
34B
  8
DETAIL
  6
CONTINUOUS
 62
     5
 10
270.353831
 20
501.068664
 30
0.0
 11
273.807928
 21
503.960165
 31
0.0
  0
LINE
  5
34C
  8
DETAIL
  6
CONTINUOUS
 62
     5
 10
272.940488
 20
497.594758
 30
0.0
 11
273.056137
 21
497.68464
 31
0.0
  0
LINE
  5
34D
  8
DETAIL
  6
CONTINUOUS
 62
     5
 10
273.056137
 20
497.68464
 30
0.0
 11
280.286763
 21
503.960165
 31
0.0
  0
LINE
  5
34E
  8
DETAIL
  6
CONTINUOUS
 62
     5
 10
266.009707
 20
497.594758
 30
0.0
 11
267.989418
 21
499.089362
 31
0.0
  0
LINE
  5
34F
  8
DETAIL
  6
CONTINUOUS
 62
     5
 10
267.989418
 20
499.089362
 30
0.0
 11
268.55746
 21
499.564882
 31
0.0
  0
LINE
  5
350
  8
DETAIL
  6
CONTINUOUS
 62
     5
 10
182.53125
 20
473.643145
 30
0.0
 11
268.55746
 21
473.643145
 31
0.0
  0
LINE
  5
351
  8
DETAIL
  6
CONTINUOUS
 62
     5
 10
182.53125
 20
480.008552
 30
0.0
 11
268.55746
 21
480.008552
 31
0.0
  0
LINE
  5
352
  8
DETAIL
  6
CONTINUOUS
 62
     5
 10
94.708669
 20
545.497984
 30
0.0
 11
180.734879
 21
545.497984
 31
0.0
  0
LINE
  5
353
  8
DETAIL
  6
CONTINUOUS
 62
     5
 10
94.708669
 20
551.863391
 30
0.0
 11
180.734879
 21
551.863391
 31
0.0
  0
LINE
  5
354
  8
DETAIL
  6
CONTINUOUS
 62
     5
 10
94.708669
 20
569.449597
 30
0.0
 11
180.734879
 21
569.449597
 31
0.0
  0
LINE
  5
355
  8
DETAIL
  6
CONTINUOUS
 62
     5
 10
94.708669
 20
575.815004
 30
0.0
 11
180.734879
 21
575.815004
 31
0.0
  0
LINE
  5
356
  8
DETAIL
  6
CONTINUOUS
 62
     5
 10
94.708669
 20
593.40121
 30
0.0
 11
180.734879
 21
593.40121
 31
0.0
  0
LINE
  5
357
  8
DETAIL
  6
CONTINUOUS
 62
     5
 10
94.708669
 20
599.766616
 30
0.0
 11
180.734879
 21
599.766616
 31
0.0
  0
LINE
  5
358
  8
DETAIL
  6
CONTINUOUS
 62
     5
 10
94.708669
 20
617.352823
 30
0.0
 11
180.734879
 21
617.352823
 31
0.0
  0
LINE
  5
359
  8
DETAIL
  6
CONTINUOUS
 62
     5
 10
94.708669
 20
623.718229
 30
0.0
 11
180.734879
 21
623.718229
 31
0.0
  0
ARC
  5
35A
  8
DETAIL
  6
CONTINUOUS
 62
     5
 10
181.633065
 20
456.378024
 30
0.0
 40
251.990927
 50
138.374184
 51
140.283428
  0
ARC
  5
35B
  8
DETAIL
  6
CONTINUOUS
 62
     5
 10
181.633065
 20
456.378024
 30
0.0
 40
251.990927
 50
145.315329
 51
147.049028
  0
ARC
  5
35C
  8
DETAIL
  6
CONTINUOUS
 62
     5
 10
181.633065
 20
456.378024
 30
0.0
 40
251.990927
 50
151.700006
 51
153.333292
  0
ARC
  5
35D
  8
DETAIL
  6
CONTINUOUS
 62
     5
 10
181.633065
 20
456.378024
 30
0.0
 40
253.986895
 50
138.773924
 51
140.668696
  0
ARC
  5
35E
  8
DETAIL
  6
CONTINUOUS
 62
     5
 10
181.633065
 20
456.378024
 30
0.0
 40
253.986895
 50
145.620632
 51
147.340596
  0
ARC
  5
35F
  8
DETAIL
  6
CONTINUOUS
 62
     5
 10
134.228831
 20
555.91841
 30
0.0
 40
19.959677
 50
191.732523
 51
211.503164
  0
LINE
  5
360
  8
DETAIL
  6
CONTINUOUS
 62
     5
 10
6.886089
 20
545.497984
 30
0.0
 11
92.912298
 21
545.497984
 31
0.0
  0
LINE
  5
361
  8
DETAIL
  6
CONTINUOUS
 62
     5
 10
6.886089
 20
551.863391
 30
0.0
 11
92.912298
 21
551.863391
 31
0.0
  0
LINE
  5
362
  8
DETAIL
  6
CONTINUOUS
 62
     5
 10
6.886089
 20
569.449597
 30
0.0
 11
92.912298
 21
569.449597
 31
0.0
  0
LINE
  5
363
  8
DETAIL
  6
CONTINUOUS
 62
     5
 10
6.886089
 20
575.815004
 30
0.0
 11
92.912298
 21
575.815004
 31
0.0
  0
LINE
  5
364
  8
DETAIL
  6
CONTINUOUS
 62
     5
 10
6.886089
 20
593.40121
 30
0.0
 11
92.912298
 21
593.40121
 31
0.0
  0
LINE
  5
365
  8
DETAIL
  6
CONTINUOUS
 62
     5
 10
6.886089
 20
599.766616
 30
0.0
 11
92.912298
 21
599.766616
 31
0.0
  0
LINE
  5
366
  8
DETAIL
  6
CONTINUOUS
 62
     5
 10
6.886089
 20
617.352823
 30
0.0
 11
92.912298
 21
617.352823
 31
0.0
  0
LINE
  5
367
  8
DETAIL
  6
CONTINUOUS
 62
     5
 10
6.886089
 20
623.718229
 30
0.0
 11
92.912298
 21
623.718229
 31
0.0
  0
LINE
  5
368
  8
DETAIL
  6
CONTINUOUS
 62
     5
 10
114.269153
 20
569.449597
 30
0.0
 11
114.269153
 21
575.815004
 31
0.0
  0
LINE
  5
369
  8
DETAIL
  6
CONTINUOUS
 62
     5
 10
114.269153
 20
593.40121
 30
0.0
 11
114.269153
 21
599.766616
 31
0.0
  0
LINE
  5
36A
  8
DETAIL
  6
CONTINUOUS
 62
     5
 10
121.07334
 20
617.352823
 30
0.0
 11
124.601743
 21
623.718229
 31
0.0
  0
LINE
  5
36B
  8
DETAIL
  6
CONTINUOUS
 62
     5
 10
182.53125
 20
545.497984
 30
0.0
 11
268.55746
 21
545.497984
 31
0.0
  0
LINE
  5
36C
  8
DETAIL
  6
CONTINUOUS
 62
     5
 10
182.53125
 20
551.863391
 30
0.0
 11
268.55746
 21
551.863391
 31
0.0
  0
LINE
  5
36D
  8
DETAIL
  6
CONTINUOUS
 62
     5
 10
182.53125
 20
569.449597
 30
0.0
 11
268.55746
 21
569.449597
 31
0.0
  0
LINE
  5
36E
  8
DETAIL
  6
CONTINUOUS
 62
     5
 10
182.53125
 20
575.815004
 30
0.0
 11
268.55746
 21
575.815004
 31
0.0
  0
LINE
  5
36F
  8
DETAIL
  6
CONTINUOUS
 62
     5
 10
182.53125
 20
593.40121
 30
0.0
 11
268.55746
 21
593.40121
 31
0.0
  0
LINE
  5
370
  8
DETAIL
  6
CONTINUOUS
 62
     5
 10
182.53125
 20
599.766616
 30
0.0
 11
268.55746
 21
599.766616
 31
0.0
  0
LINE
  5
371
  8
DETAIL
  6
CONTINUOUS
 62
     5
 10
182.53125
 20
617.352823
 30
0.0
 11
268.55746
 21
617.352823
 31
0.0
  0
LINE
  5
372
  8
DETAIL
  6
CONTINUOUS
 62
     5
 10
182.53125
 20
623.718229
 30
0.0
 11
268.55746
 21
623.718229
 31
0.0
  0
LINE
  5
373
  8
DETAIL
  6
CONTINUOUS
 62
     5
 10
164.362526
 20
617.352823
 30
0.0
 11
163.501748
 21
618.506646
 31
0.0
  0
LINE
  5
374
  8
DETAIL
  6
CONTINUOUS
 62
     5
 10
163.501748
 20
618.506646
 30
0.0
 11
159.246586
 21
623.718229
 31
0.0
  0
LINE
  5
375
  8
DETAIL
  6
CONTINUOUS
 62
     5
 10
179.912784
 20
593.40121
 30
0.0
 11
179.578606
 21
594.030912
 31
0.0
  0
LINE
  5
376
  8
DETAIL
  6
CONTINUOUS
 62
     5
 10
179.578606
 20
594.030912
 30
0.0
 11
177.313059
 21
598.064197
 31
0.0
  0
LINE
  5
377
  8
DETAIL
  6
CONTINUOUS
 62
     5
 10
177.313059
 20
598.064197
 30
0.0
 11
176.292688
 21
599.766616
 31
0.0
  0
LINE
  5
378
  8
DETAIL
  6
CONTINUOUS
 62
     5
 10
188.542268
 20
569.449597
 30
0.0
 11
188.547074
 21
569.489511
 31
0.0
  0
LINE
  5
379
  8
DETAIL
  6
CONTINUOUS
 62
     5
 10
188.547074
 20
569.489511
 30
0.0
 11
188.545812
 21
571.694984
 31
0.0
  0
LINE
  5
37A
  8
DETAIL
  6
CONTINUOUS
 62
     5
 10
188.545812
 20
571.694984
 30
0.0
 11
188.269382
 21
573.885416
 31
0.0
  0
LINE
  5
37B
  8
DETAIL
  6
CONTINUOUS
 62
     5
 10
188.269382
 20
573.885416
 30
0.0
 11
187.806486
 21
575.815004
 31
0.0
  0
LINE
  5
37C
  8
DETAIL
  6
CONTINUOUS
 62
     5
 10
175.732637
 20
545.497984
 30
0.0
 11
176.497017
 21
546.407362
 31
0.0
  0
LINE
  5
37D
  8
DETAIL
  6
CONTINUOUS
 62
     5
 10
176.497017
 20
546.407362
 30
0.0
 11
179.493589
 21
550.12943
 31
0.0
  0
LINE
  5
37E
  8
DETAIL
  6
CONTINUOUS
 62
     5
 10
179.493589
 20
550.12943
 30
0.0
 11
180.734879
 21
551.809986
 31
0.0
  0
ARC
  5
37F
  8
DETAIL
  6
CONTINUOUS
 62
     5
 10
181.633065
 20
456.378024
 30
0.0
 40
251.990927
 50
3.929845
 51
5.381701
  0
ARC
  5
380
  8
DETAIL
  6
CONTINUOUS
 62
     5
 10
181.633065
 20
456.378024
 30
0.0
 40
251.990927
 50
9.416091
 51
10.886863
  0
ARC
  5
381
  8
DETAIL
  6
CONTINUOUS
 62
     5
 10
181.633065
 20
456.378024
 30
0.0
 40
251.990927
 50
14.990522
 51
16.496297
  0
ARC
  5
382
  8
DETAIL
  6
CONTINUOUS
 62
     5
 10
181.633065
 20
456.378024
 30
0.0
 40
253.986895
 50
3.898885
 51
5.339024
  0
ARC
  5
383
  8
DETAIL
  6
CONTINUOUS
 62
     5
 10
181.633065
 20
456.378024
 30
0.0
 40
253.986895
 50
9.34167
 51
10.799435
  0
ARC
  5
384
  8
DETAIL
  6
CONTINUOUS
 62
     5
 10
181.633065
 20
456.378024
 30
0.0
 40
253.986895
 50
14.871056
 51
16.36137
  0
LINE
  5
385
  8
DETAIL
  6
CONTINUOUS
 62
     5
 10
358.176411
 20
480.008552
 30
0.0
 11
441.607863
 21
480.008552
 31
0.0
  0
LINE
  5
386
  8
DETAIL
  6
CONTINUOUS
 62
     5
 10
358.176411
 20
497.594758
 30
0.0
 11
441.607863
 21
497.594758
 31
0.0
  0
LINE
  5
387
  8
DETAIL
  6
CONTINUOUS
 62
     5
 10
358.176411
 20
503.960165
 30
0.0
 11
441.607863
 21
503.960165
 31
0.0
  0
LINE
  5
388
  8
DETAIL
  6
CONTINUOUS
 62
     5
 10
358.176411
 20
521.546371
 30
0.0
 11
441.607863
 21
521.546371
 31
0.0
  0
LINE
  5
389
  8
DETAIL
  6
CONTINUOUS
 62
     5
 10
358.176411
 20
527.911778
 30
0.0
 11
441.607863
 21
527.911778
 31
0.0
  0
LINE
  5
38A
  8
DETAIL
  6
CONTINUOUS
 62
     5
 10
358.176411
 20
473.643145
 30
0.0
 11
441.607863
 21
473.643145
 31
0.0
  0
LINE
  5
38B
  8
DETAIL
  6
CONTINUOUS
 62
     5
 10
349.510565
 20
617.352823
 30
0.0
 11
351.160769
 21
623.718229
 31
0.0
  0
LINE
  5
38C
  8
DETAIL
  6
CONTINUOUS
 62
     5
 10
346.072847
 20
617.352823
 30
0.0
 11
347.7451
 21
623.718229
 31
0.0
  0
LINE
  5
38D
  8
DETAIL
  6
CONTINUOUS
 62
     5
 10
337.925614
 20
593.40121
 30
0.0
 11
340.307743
 21
599.766616
 31
0.0
  0
LINE
  5
38E
  8
DETAIL
  6
CONTINUOUS
 62
     5
 10
341.63766
 20
593.40121
 30
0.0
 11
344.044672
 21
599.766616
 31
0.0
  0
LINE
  5
38F
  8
DETAIL
  6
CONTINUOUS
 62
     5
 10
330.834212
 20
569.449597
 30
0.0
 11
334.069391
 21
575.815004
 31
0.0
  0
LINE
  5
390
  8
DETAIL
  6
CONTINUOUS
 62
     5
 10
326.699557
 20
569.449597
 30
0.0
 11
327.387413
 21
570.674135
 31
0.0
  0
LINE
  5
391
  8
DETAIL
  6
CONTINUOUS
 62
     5
 10
327.387413
 20
570.674135
 30
0.0
 11
329.938621
 21
575.815004
 31
0.0
  0
LINE
  5
392
  8
DETAIL
  6
CONTINUOUS
 62
     5
 10
316.566076
 20
545.497984
 30
0.0
 11
320.749672
 21
551.863391
 31
0.0
  0
LINE
  5
393
  8
DETAIL
  6
CONTINUOUS
 62
     5
 10
311.792352
 20
545.497984
 30
0.0
 11
315.382009
 21
550.568437
 31
0.0
  0
LINE
  5
394
  8
DETAIL
  6
CONTINUOUS
 62
     5
 10
315.382009
 20
550.568437
 30
0.0
 11
316.20282
 21
551.863391
 31
0.0
  0
ARC
  5
395
  8
DETAIL
  6
CONTINUOUS
 62
     5
 10
181.633065
 20
456.378024
 30
0.0
 40
251.990927
 50
20.714798
 51
22.273678
  0
ARC
  5
396
  8
DETAIL
  6
CONTINUOUS
 62
     5
 10
181.633065
 20
456.378024
 30
0.0
 40
251.990927
 50
26.666708
 51
28.299994
  0
ARC
  5
397
  8
DETAIL
  6
CONTINUOUS
 62
     5
 10
181.633065
 20
456.378024
 30
0.0
 40
251.990927
 50
32.950972
 51
34.684671
  0
ARC
  5
398
  8
DETAIL
  6
CONTINUOUS
 62
     5
 10
181.633065
 20
456.378024
 30
0.0
 40
251.990927
 50
39.716572
 51
41.625816
  0
ARC
  5
399
  8
DETAIL
  6
CONTINUOUS
 62
     5
 10
181.633065
 20
456.378024
 30
0.0
 40
253.986895
 50
20.546868
 51
22.086342
  0
ARC
  5
39A
  8
DETAIL
  6
CONTINUOUS
 62
     5
 10
181.633065
 20
456.378024
 30
0.0
 40
253.986895
 50
26.443522
 51
28.051384
  0
ARC
  5
39B
  8
DETAIL
  6
CONTINUOUS
 62
     5
 10
181.633065
 20
456.378024
 30
0.0
 40
253.986895
 50
32.659404
 51
34.379368
  0
ARC
  5
39C
  8
DETAIL
  6
CONTINUOUS
 62
     5
 10
181.633065
 20
456.378024
 30
0.0
 40
253.986895
 50
39.331304
 51
41.226076
  0
LINE
  5
39D
  8
DETAIL
  6
CONTINUOUS
 62
     5
 10
358.176411
 20
545.497984
 30
0.0
 11
441.607863
 21
545.497984
 31
0.0
  0
LINE
  5
39E
  8
DETAIL
  6
CONTINUOUS
 62
     5
 10
358.176411
 20
551.863391
 30
0.0
 11
441.607863
 21
551.863391
 31
0.0
  0
LINE
  5
39F
  8
DETAIL
  6
CONTINUOUS
 62
     5
 10
358.176411
 20
569.449597
 30
0.0
 11
441.607863
 21
569.449597
 31
0.0
  0
LINE
  5
3A0
  8
DETAIL
  6
CONTINUOUS
 62
     5
 10
358.176411
 20
575.815004
 30
0.0
 11
441.607863
 21
575.815004
 31
0.0
  0
LINE
  5
3A1
  8
DETAIL
  6
CONTINUOUS
 62
     5
 10
358.176411
 20
593.40121
 30
0.0
 11
441.607863
 21
593.40121
 31
0.0
  0
LINE
  5
3A2
  8
DETAIL
  6
CONTINUOUS
 62
     5
 10
358.176411
 20
599.766616
 30
0.0
 11
441.607863
 21
599.766616
 31
0.0
  0
LINE
  5
3A3
  8
DETAIL
  6
CONTINUOUS
 62
     5
 10
358.176411
 20
617.352823
 30
0.0
 11
441.607863
 21
617.352823
 31
0.0
  0
LINE
  5
3A4
  8
DETAIL
  6
CONTINUOUS
 62
     5
 10
358.176411
 20
623.718229
 30
0.0
 11
441.607863
 21
623.718229
 31
0.0
  0
LINE
  5
3A5
  8
DETAIL
  6
CONTINUOUS
 62
     5
 10
270.353831
 20
641.304435
 30
0.0
 11
356.38004
 21
641.304435
 31
0.0
  0
LINE
  5
3A6
  8
DETAIL
  6
CONTINUOUS
 62
     5
 10
270.353831
 20
647.669842
 30
0.0
 11
356.38004
 21
647.669842
 31
0.0
  0
LINE
  5
3A7
  8
DETAIL
  6
CONTINUOUS
 62
     5
 10
270.353831
 20
665.256048
 30
0.0
 11
356.38004
 21
665.256048
 31
0.0
  0
LINE
  5
3A8
  8
DETAIL
  6
CONTINUOUS
 62
     5
 10
270.353831
 20
671.621455
 30
0.0
 11
356.38004
 21
671.621455
 31
0.0
  0
LINE
  5
3A9
  8
DETAIL
  6
CONTINUOUS
 62
     5
 10
270.353831
 20
689.207661
 30
0.0
 11
356.38004
 21
689.207661
 31
0.0
  0
LINE
  5
3AA
  8
DETAIL
  6
CONTINUOUS
 62
     5
 10
356.38004
 20
707.171371
 30
0.0
 11
270.353831
 21
707.171371
 31
0.0
  0
LINE
  5
3AB
  8
DETAIL
  6
CONTINUOUS
 62
     5
 10
270.353831
 20
783.616935
 30
0.0
 11
356.38004
 21
783.616935
 31
0.0
  0
LINE
  5
3AC
  8
DETAIL
  6
CONTINUOUS
 62
     5
 10
356.38004
 20
786.748659
 30
0.0
 11
301.810283
 21
786.748659
 31
0.0
  0
LINE
  5
3AD
  8
DETAIL
  6
CONTINUOUS
 62
     5
 10
270.353831
 20
788.984358
 30
0.0
 11
356.38004
 21
788.984358
 31
0.0
  0
ARC
  5
3AE
  8
DETAIL
  6
CONTINUOUS
 62
     5
 10
181.633065
 20
456.378024
 30
0.0
 40
251.990927
 50
95.521135
 51
110.180036
  0
ARC
  5
3AF
  8
DETAIL
  6
CONTINUOUS
 62
     5
 10
181.633065
 20
456.378024
 30
0.0
 40
253.986895
 50
99.024034
 51
110.016005
  0
LINE
  5
3B0
  8
DETAIL
  6
CONTINUOUS
 62
     5
 10
94.708669
 20
641.304435
 30
0.0
 11
180.734879
 21
641.304435
 31
0.0
  0
LINE
  5
3B1
  8
DETAIL
  6
CONTINUOUS
 62
     5
 10
94.708669
 20
647.669842
 30
0.0
 11
180.734879
 21
647.669842
 31
0.0
  0
LINE
  5
3B2
  8
DETAIL
  6
CONTINUOUS
 62
     5
 10
94.708669
 20
665.256048
 30
0.0
 11
180.734879
 21
665.256048
 31
0.0
  0
LINE
  5
3B3
  8
DETAIL
  6
CONTINUOUS
 62
     5
 10
94.708669
 20
671.621455
 30
0.0
 11
180.734879
 21
671.621455
 31
0.0
  0
LINE
  5
3B4
  8
DETAIL
  6
CONTINUOUS
 62
     5
 10
94.708669
 20
689.207661
 30
0.0
 11
180.734879
 21
689.207661
 31
0.0
  0
LINE
  5
3B5
  8
DETAIL
  6
CONTINUOUS
 62
     5
 10
180.734879
 20
707.171371
 30
0.0
 11
94.708669
 21
707.171371
 31
0.0
  0
LINE
  5
3B6
  8
DETAIL
  6
CONTINUOUS
 62
     5
 10
142.611924
 20
697.750264
 30
0.0
 11
130.326642
 21
695.440494
 31
0.0
  0
ARC
  5
3B7
  8
DETAIL
  6
CONTINUOUS
 62
     5
 10
181.633065
 20
456.378024
 30
0.0
 40
251.990927
 50
110.617064
 51
112.453153
  0
ARC
  5
3B8
  8
DETAIL
  6
CONTINUOUS
 62
     5
 10
181.633065
 20
456.378024
 30
0.0
 40
251.990927
 50
121.311287
 51
123.990424
  0
ARC
  5
3B9
  8
DETAIL
  6
CONTINUOUS
 62
     5
 10
181.633065
 20
456.378024
 30
0.0
 40
251.990927
 50
130.612194
 51
132.773352
  0
ARC
  5
3BA
  8
DETAIL
  6
CONTINUOUS
 62
     5
 10
181.633065
 20
456.378024
 30
0.0
 40
253.986895
 50
110.450378
 51
113.515173
  0
ARC
  5
3BB
  8
DETAIL
  6
CONTINUOUS
 62
     5
 10
181.633065
 20
456.378024
 30
0.0
 40
253.986895
 50
122.037431
 51
124.652746
  0
ARC
  5
3BC
  8
DETAIL
  6
CONTINUOUS
 62
     5
 10
181.633065
 20
456.378024
 30
0.0
 40
253.986895
 50
131.116852
 51
133.255884
  0
LINE
  5
3BD
  8
DETAIL
  6
CONTINUOUS
 62
     5
 10
6.886089
 20
641.304435
 30
0.0
 11
92.912298
 21
641.304435
 31
0.0
  0
LINE
  5
3BE
  8
DETAIL
  6
CONTINUOUS
 62
     5
 10
6.886089
 20
647.669842
 30
0.0
 11
92.912298
 21
647.669842
 31
0.0
  0
LINE
  5
3BF
  8
DETAIL
  6
CONTINUOUS
 62
     5
 10
6.886089
 20
665.256048
 30
0.0
 11
92.912298
 21
665.256048
 31
0.0
  0
LINE
  5
3C0
  8
DETAIL
  6
CONTINUOUS
 62
     5
 10
6.886089
 20
671.621455
 30
0.0
 11
92.912298
 21
671.621455
 31
0.0
  0
LINE
  5
3C1
  8
DETAIL
  6
CONTINUOUS
 62
     5
 10
6.886089
 20
689.207661
 30
0.0
 11
92.912298
 21
689.207661
 31
0.0
  0
LINE
  5
3C2
  8
DETAIL
  6
CONTINUOUS
 62
     5
 10
92.912298
 20
707.171371
 30
0.0
 11
6.886089
 21
707.171371
 31
0.0
  0
LINE
  5
3C3
  8
DETAIL
  6
CONTINUOUS
 62
     5
 10
130.326642
 20
695.440494
 30
0.0
 11
118.159655
 21
692.501516
 31
0.0
  0
LINE
  5
3C4
  8
DETAIL
  6
CONTINUOUS
 62
     5
 10
118.159655
 20
692.501516
 30
0.0
 11
107.050439
 21
689.207661
 31
0.0
  0
LINE
  5
3C5
  8
DETAIL
  6
CONTINUOUS
 62
     5
 10
5.987903
 20
709.167339
 30
0.0
 11
5.785337
 21
708.864289
 31
0.0
  0
LINE
  5
3C6
  8
DETAIL
  6
CONTINUOUS
 62
     5
 10
5.785337
 20
708.864289
 30
0.0
 11
5.600662
 21
708.581976
 31
0.0
  0
LINE
  5
3C7
  8
DETAIL
  6
CONTINUOUS
 62
     5
 10
5.600662
 20
708.581976
 30
0.0
 11
5.440598
 21
708.325947
 31
0.0
  0
LINE
  5
3C8
  8
DETAIL
  6
CONTINUOUS
 62
     5
 10
5.440598
 20
708.325947
 30
0.0
 11
5.31049
 21
708.101506
 31
0.0
  0
LINE
  5
3C9
  8
DETAIL
  6
CONTINUOUS
 62
     5
 10
5.31049
 20
708.101506
 30
0.0
 11
5.211503
 21
707.909042
 31
0.0
  0
LINE
  5
3CA
  8
DETAIL
  6
CONTINUOUS
 62
     5
 10
5.211503
 20
707.909042
 30
0.0
 11
5.14244
 21
707.74567
 31
0.0
  0
LINE
  5
3CB
  8
DETAIL
  6
CONTINUOUS
 62
     5
 10
5.14244
 20
707.74567
 30
0.0
 11
5.102318
 21
707.609417
 31
0.0
  0
LINE
  5
3CC
  8
DETAIL
  6
CONTINUOUS
 62
     5
 10
5.102318
 20
707.609417
 30
0.0
 11
5.089718
 21
707.500377
 31
0.0
  0
LINE
  5
3CD
  8
DETAIL
  6
CONTINUOUS
 62
     5
 10
111.485592
 20
665.256048
 30
0.0
 11
104.809816
 21
669.485928
 31
0.0
  0
LINE
  5
3CE
  8
DETAIL
  6
CONTINUOUS
 62
     5
 10
104.809816
 20
669.485928
 30
0.0
 11
100.969526
 21
671.621455
 31
0.0
  0
LINE
  5
3CF
  8
DETAIL
  6
CONTINUOUS
 62
     5
 10
93.810484
 20
709.167339
 30
0.0
 11
93.607918
 21
708.864289
 31
0.0
  0
LINE
  5
3D0
  8
DETAIL
  6
CONTINUOUS
 62
     5
 10
93.607918
 20
708.864289
 30
0.0
 11
93.423243
 21
708.581976
 31
0.0
  0
LINE
  5
3D1
  8
DETAIL
  6
CONTINUOUS
 62
     5
 10
93.423243
 20
708.581976
 30
0.0
 11
93.263178
 21
708.325947
 31
0.0
  0
LINE
  5
3D2
  8
DETAIL
  6
CONTINUOUS
 62
     5
 10
93.263178
 20
708.325947
 30
0.0
 11
93.13307
 21
708.101506
 31
0.0
  0
LINE
  5
3D3
  8
DETAIL
  6
CONTINUOUS
 62
     5
 10
93.13307
 20
708.101506
 30
0.0
 11
93.034084
 21
707.909042
 31
0.0
  0
LINE
  5
3D4
  8
DETAIL
  6
CONTINUOUS
 62
     5
 10
93.034084
 20
707.909042
 30
0.0
 11
92.965021
 21
707.74567
 31
0.0
  0
LINE
  5
3D5
  8
DETAIL
  6
CONTINUOUS
 62
     5
 10
92.965021
 20
707.74567
 30
0.0
 11
92.924899
 21
707.609417
 31
0.0
  0
LINE
  5
3D6
  8
DETAIL
  6
CONTINUOUS
 62
     5
 10
92.924899
 20
707.609417
 30
0.0
 11
92.912298
 21
707.500377
 31
0.0
  0
LINE
  5
3D7
  8
DETAIL
  6
CONTINUOUS
 62
     5
 10
6.886089
 20
707.500377
 30
0.0
 11
6.869441
 21
707.627462
 31
0.0
  0
LINE
  5
3D8
  8
DETAIL
  6
CONTINUOUS
 62
     5
 10
6.869441
 20
707.627462
 30
0.0
 11
6.817056
 21
707.788442
 31
0.0
  0
LINE
  5
3D9
  8
DETAIL
  6
CONTINUOUS
 62
     5
 10
6.817056
 20
707.788442
 30
0.0
 11
6.726747
 21
707.985573
 31
0.0
  0
LINE
  5
3DA
  8
DETAIL
  6
CONTINUOUS
 62
     5
 10
6.726747
 20
707.985573
 30
0.0
 11
6.595379
 21
708.224751
 31
0.0
  0
LINE
  5
3DB
  8
DETAIL
  6
CONTINUOUS
 62
     5
 10
6.595379
 20
708.224751
 30
0.0
 11
6.423102
 21
708.506773
 31
0.0
  0
LINE
  5
3DC
  8
DETAIL
  6
CONTINUOUS
 62
     5
 10
6.423102
 20
708.506773
 30
0.0
 11
6.216902
 21
708.824395
 31
0.0
  0
LINE
  5
3DD
  8
DETAIL
  6
CONTINUOUS
 62
     5
 10
6.216902
 20
708.824395
 30
0.0
 11
5.987903
 21
709.167339
 31
0.0
  0
LINE
  5
3DE
  8
DETAIL
  6
CONTINUOUS
 62
     5
 10
114.269153
 20
699.119286
 30
0.0
 11
114.269153
 21
691.347992
 31
0.0
  0
LINE
  5
3DF
  8
DETAIL
  6
CONTINUOUS
 62
     5
 10
94.708669
 20
707.500377
 30
0.0
 11
94.692022
 21
707.627462
 31
0.0
  0
LINE
  5
3E0
  8
DETAIL
  6
CONTINUOUS
 62
     5
 10
94.692022
 20
707.627462
 30
0.0
 11
94.639637
 21
707.788442
 31
0.0
  0
LINE
  5
3E1
  8
DETAIL
  6
CONTINUOUS
 62
     5
 10
94.639637
 20
707.788442
 30
0.0
 11
94.549328
 21
707.985573
 31
0.0
  0
LINE
  5
3E2
  8
DETAIL
  6
CONTINUOUS
 62
     5
 10
94.549328
 20
707.985573
 30
0.0
 11
94.417959
 21
708.224751
 31
0.0
  0
LINE
  5
3E3
  8
DETAIL
  6
CONTINUOUS
 62
     5
 10
94.417959
 20
708.224751
 30
0.0
 11
94.245683
 21
708.506773
 31
0.0
  0
LINE
  5
3E4
  8
DETAIL
  6
CONTINUOUS
 62
     5
 10
94.245683
 20
708.506773
 30
0.0
 11
94.039482
 21
708.824395
 31
0.0
  0
LINE
  5
3E5
  8
DETAIL
  6
CONTINUOUS
 62
     5
 10
94.039482
 20
708.824395
 30
0.0
 11
93.810484
 21
709.167339
 31
0.0
  0
LINE
  5
3E6
  8
DETAIL
  6
CONTINUOUS
 62
     5
 10
270.353831
 20
707.500377
 30
0.0
 11
270.337183
 21
707.627462
 31
0.0
  0
LINE
  5
3E7
  8
DETAIL
  6
CONTINUOUS
 62
     5
 10
270.337183
 20
707.627462
 30
0.0
 11
270.284798
 21
707.788442
 31
0.0
  0
LINE
  5
3E8
  8
DETAIL
  6
CONTINUOUS
 62
     5
 10
270.284798
 20
707.788442
 30
0.0
 11
270.194489
 21
707.985573
 31
0.0
  0
LINE
  5
3E9
  8
DETAIL
  6
CONTINUOUS
 62
     5
 10
270.194489
 20
707.985573
 30
0.0
 11
270.063121
 21
708.224751
 31
0.0
  0
LINE
  5
3EA
  8
DETAIL
  6
CONTINUOUS
 62
     5
 10
270.063121
 20
708.224751
 30
0.0
 11
269.890844
 21
708.506773
 31
0.0
  0
LINE
  5
3EB
  8
DETAIL
  6
CONTINUOUS
 62
     5
 10
269.890844
 20
708.506773
 30
0.0
 11
269.684643
 21
708.824395
 31
0.0
  0
LINE
  5
3EC
  8
DETAIL
  6
CONTINUOUS
 62
     5
 10
269.684643
 20
708.824395
 30
0.0
 11
269.455645
 21
709.167339
 31
0.0
  0
ARC
  5
3ED
  8
DETAIL
  6
CONTINUOUS
 62
     5
 10
181.633065
 20
456.378024
 30
0.0
 40
251.990927
 50
67.546847
 51
69.382936
  0
ARC
  5
3EE
  8
DETAIL
  6
CONTINUOUS
 62
     5
 10
181.633065
 20
456.378024
 30
0.0
 40
251.990927
 50
69.819964
 51
84.478865
  0
ARC
  5
3EF
  8
DETAIL
  6
CONTINUOUS
 62
     5
 10
181.633065
 20
456.378024
 30
0.0
 40
253.986895
 50
66.484827
 51
69.549622
  0
ARC
  5
3F0
  8
DETAIL
  6
CONTINUOUS
 62
     5
 10
181.633065
 20
456.378024
 30
0.0
 40
253.986895
 50
69.983995
 51
80.975966
  0
LINE
  5
3F1
  8
DETAIL
  6
CONTINUOUS
 62
     5
 10
182.53125
 20
641.304435
 30
0.0
 11
268.55746
 21
641.304435
 31
0.0
  0
LINE
  5
3F2
  8
DETAIL
  6
CONTINUOUS
 62
     5
 10
182.53125
 20
647.669842
 30
0.0
 11
268.55746
 21
647.669842
 31
0.0
  0
LINE
  5
3F3
  8
DETAIL
  6
CONTINUOUS
 62
     5
 10
182.53125
 20
665.256048
 30
0.0
 11
268.55746
 21
665.256048
 31
0.0
  0
LINE
  5
3F4
  8
DETAIL
  6
CONTINUOUS
 62
     5
 10
182.53125
 20
671.621455
 30
0.0
 11
268.55746
 21
671.621455
 31
0.0
  0
LINE
  5
3F5
  8
DETAIL
  6
CONTINUOUS
 62
     5
 10
182.53125
 20
689.207661
 30
0.0
 11
268.55746
 21
689.207661
 31
0.0
  0
LINE
  5
3F6
  8
DETAIL
  6
CONTINUOUS
 62
     5
 10
268.55746
 20
707.171371
 30
0.0
 11
182.53125
 21
707.171371
 31
0.0
  0
LINE
  5
3F7
  8
DETAIL
  6
CONTINUOUS
 62
     5
 10
180.734879
 20
700.860865
 30
0.0
 11
179.856639
 21
700.8768
 31
0.0
  0
LINE
  5
3F8
  8
DETAIL
  6
CONTINUOUS
 62
     5
 10
179.856639
 20
700.8768
 30
0.0
 11
167.406436
 21
700.469364
 31
0.0
  0
LINE
  5
3F9
  8
DETAIL
  6
CONTINUOUS
 62
     5
 10
167.406436
 20
700.469364
 30
0.0
 11
154.982044
 21
699.427318
 31
0.0
  0
LINE
  5
3FA
  8
DETAIL
  6
CONTINUOUS
 62
     5
 10
154.982044
 20
699.427318
 30
0.0
 11
142.611924
 21
697.750264
 31
0.0
  0
LINE
  5
3FB
  8
DETAIL
  6
CONTINUOUS
 62
     5
 10
247.133841
 20
691.946762
 30
0.0
 11
241.242553
 21
693.506238
 31
0.0
  0
LINE
  5
3FC
  8
DETAIL
  6
CONTINUOUS
 62
     5
 10
241.242553
 20
693.506238
 30
0.0
 11
229.198092
 21
696.212723
 31
0.0
  0
LINE
  5
3FD
  8
DETAIL
  6
CONTINUOUS
 62
     5
 10
229.198092
 20
696.212723
 30
0.0
 11
217.009161
 21
698.310769
 31
0.0
  0
LINE
  5
3FE
  8
DETAIL
  6
CONTINUOUS
 62
     5
 10
217.009161
 20
698.310769
 30
0.0
 11
204.7003
 21
699.793303
 31
0.0
  0
LINE
  5
3FF
  8
DETAIL
  6
CONTINUOUS
 62
     5
 10
204.7003
 20
699.793303
 30
0.0
 11
192.30184
 21
700.650989
 31
0.0
  0
LINE
  5
400
  8
DETAIL
  6
CONTINUOUS
 62
     5
 10
192.30184
 20
700.650989
 30
0.0
 11
182.53125
 21
700.828271
 31
0.0
  0
LINE
  5
401
  8
DETAIL
  6
CONTINUOUS
 62
     5
 10
253.114451
 20
690.201395
 30
0.0
 11
247.133841
 21
691.946762
 31
0.0
  0
LINE
  5
402
  8
DETAIL
  6
CONTINUOUS
 62
     5
 10
256.095142
 20
689.207661
 30
0.0
 11
253.114451
 21
690.201395
 31
0.0
  0
LINE
  5
403
  8
DETAIL
  6
CONTINUOUS
 62
     5
 10
256.400392
 20
689.207661
 30
0.0
 11
255.481149
 21
689.518035
 31
0.0
  0
LINE
  5
404
  8
DETAIL
  6
CONTINUOUS
 62
     5
 10
255.481149
 20
689.518035
 30
0.0
 11
248.14136
 21
691.667616
 31
0.0
  0
LINE
  5
405
  8
DETAIL
  6
CONTINUOUS
 62
     5
 10
308.726688
 20
665.256048
 30
0.0
 11
298.207315
 21
671.305168
 31
0.0
  0
LINE
  5
406
  8
DETAIL
  6
CONTINUOUS
 62
     5
 10
298.207315
 20
671.305168
 30
0.0
 11
297.587832
 21
671.621455
 31
0.0
  0
LINE
  5
407
  8
DETAIL
  6
CONTINUOUS
 62
     5
 10
309.537455
 20
665.256048
 30
0.0
 11
300.895027
 21
670.275187
 31
0.0
  0
LINE
  5
408
  8
DETAIL
  6
CONTINUOUS
 62
     5
 10
300.895027
 20
670.275187
 30
0.0
 11
298.284716
 21
671.621455
 31
0.0
  0
LINE
  5
409
  8
DETAIL
  6
CONTINUOUS
 62
     5
 10
142.515724
 20
641.304435
 30
0.0
 11
135.452962
 21
647.669842
 31
0.0
  0
LINE
  5
40A
  8
DETAIL
  6
CONTINUOUS
 62
     5
 10
142.834087
 20
697.780383
 30
0.0
 11
147.377495
 21
705.976909
 31
0.0
  0
LINE
  5
40B
  8
DETAIL
  6
CONTINUOUS
 62
     5
 10
134.349936
 20
641.304435
 30
0.0
 11
137.070335
 21
646.212164
 31
0.0
  0
LINE
  5
40C
  8
DETAIL
  6
CONTINUOUS
 62
     5
 10
167.132874
 20
700.44642
 30
0.0
 11
170.860575
 21
707.171371
 31
0.0
  0
LINE
  5
40D
  8
DETAIL
  6
CONTINUOUS
 62
     5
 10
181.633065
 20
709.167339
 30
0.0
 11
181.430498
 21
708.864289
 31
0.0
  0
LINE
  5
40E
  8
DETAIL
  6
CONTINUOUS
 62
     5
 10
181.430498
 20
708.864289
 30
0.0
 11
181.245823
 21
708.581976
 31
0.0
  0
LINE
  5
40F
  8
DETAIL
  6
CONTINUOUS
 62
     5
 10
181.245823
 20
708.581976
 30
0.0
 11
181.085759
 21
708.325947
 31
0.0
  0
LINE
  5
410
  8
DETAIL
  6
CONTINUOUS
 62
     5
 10
181.085759
 20
708.325947
 30
0.0
 11
180.955651
 21
708.101506
 31
0.0
  0
LINE
  5
411
  8
DETAIL
  6
CONTINUOUS
 62
     5
 10
180.955651
 20
708.101506
 30
0.0
 11
180.856665
 21
707.909042
 31
0.0
  0
LINE
  5
412
  8
DETAIL
  6
CONTINUOUS
 62
     5
 10
180.856665
 20
707.909042
 30
0.0
 11
180.787601
 21
707.74567
 31
0.0
  0
LINE
  5
413
  8
DETAIL
  6
CONTINUOUS
 62
     5
 10
180.787601
 20
707.74567
 30
0.0
 11
180.74748
 21
707.609417
 31
0.0
  0
LINE
  5
414
  8
DETAIL
  6
CONTINUOUS
 62
     5
 10
180.74748
 20
707.609417
 30
0.0
 11
180.734879
 21
707.500377
 31
0.0
  0
LINE
  5
415
  8
DETAIL
  6
CONTINUOUS
 62
     5
 10
192.405554
 20
707.171371
 30
0.0
 11
196.168115
 21
700.383532
 31
0.0
  0
LINE
  5
416
  8
DETAIL
  6
CONTINUOUS
 62
     5
 10
220.468064
 20
697.715398
 30
0.0
 11
215.888634
 21
705.976909
 31
0.0
  0
LINE
  5
417
  8
DETAIL
  6
CONTINUOUS
 62
     5
 10
182.53125
 20
707.500377
 30
0.0
 11
182.514603
 21
707.627462
 31
0.0
  0
LINE
  5
418
  8
DETAIL
  6
CONTINUOUS
 62
     5
 10
182.514603
 20
707.627462
 30
0.0
 11
182.462217
 21
707.788442
 31
0.0
  0
LINE
  5
419
  8
DETAIL
  6
CONTINUOUS
 62
     5
 10
182.462217
 20
707.788442
 30
0.0
 11
182.371908
 21
707.985573
 31
0.0
  0
LINE
  5
41A
  8
DETAIL
  6
CONTINUOUS
 62
     5
 10
182.371908
 20
707.985573
 30
0.0
 11
182.24054
 21
708.224751
 31
0.0
  0
LINE
  5
41B
  8
DETAIL
  6
CONTINUOUS
 62
     5
 10
182.24054
 20
708.224751
 30
0.0
 11
182.068264
 21
708.506773
 31
0.0
  0
LINE
  5
41C
  8
DETAIL
  6
CONTINUOUS
 62
     5
 10
182.068264
 20
708.506773
 30
0.0
 11
181.862063
 21
708.824395
 31
0.0
  0
LINE
  5
41D
  8
DETAIL
  6
CONTINUOUS
 62
     5
 10
181.862063
 20
708.824395
 30
0.0
 11
181.633065
 21
709.167339
 31
0.0
  0
LINE
  5
41E
  8
DETAIL
  6
CONTINUOUS
 62
     5
 10
248.996976
 20
699.119286
 30
0.0
 11
248.996976
 21
691.417035
 31
0.0
  0
LINE
  5
41F
  8
DETAIL
  6
CONTINUOUS
 62
     5
 10
269.455645
 20
709.167339
 30
0.0
 11
269.253079
 21
708.864289
 31
0.0
  0
LINE
  5
420
  8
DETAIL
  6
CONTINUOUS
 62
     5
 10
269.253079
 20
708.864289
 30
0.0
 11
269.068404
 21
708.581976
 31
0.0
  0
LINE
  5
421
  8
DETAIL
  6
CONTINUOUS
 62
     5
 10
269.068404
 20
708.581976
 30
0.0
 11
268.90834
 21
708.325947
 31
0.0
  0
LINE
  5
422
  8
DETAIL
  6
CONTINUOUS
 62
     5
 10
268.90834
 20
708.325947
 30
0.0
 11
268.778232
 21
708.101506
 31
0.0
  0
LINE
  5
423
  8
DETAIL
  6
CONTINUOUS
 62
     5
 10
268.778232
 20
708.101506
 30
0.0
 11
268.679245
 21
707.909042
 31
0.0
  0
LINE
  5
424
  8
DETAIL
  6
CONTINUOUS
 62
     5
 10
268.679245
 20
707.909042
 30
0.0
 11
268.610182
 21
707.74567
 31
0.0
  0
LINE
  5
425
  8
DETAIL
  6
CONTINUOUS
 62
     5
 10
268.610182
 20
707.74567
 30
0.0
 11
268.57006
 21
707.609417
 31
0.0
  0
LINE
  5
426
  8
DETAIL
  6
CONTINUOUS
 62
     5
 10
268.57006
 20
707.609417
 30
0.0
 11
268.55746
 21
707.500377
 31
0.0
  0
LINE
  5
427
  8
DETAIL
  6
CONTINUOUS
 62
     5
 10
94.708669
 20
783.616935
 30
0.0
 11
180.734879
 21
783.616935
 31
0.0
  0
LINE
  5
428
  8
DETAIL
  6
CONTINUOUS
 62
     5
 10
94.708669
 20
788.984358
 30
0.0
 11
180.734879
 21
788.984358
 31
0.0
  0
LINE
  5
429
  8
DETAIL
  6
CONTINUOUS
 62
     5
 10
126.734619
 20
785.985663
 30
0.0
 11
139.807359
 21
785.790619
 31
0.0
  0
LINE
  5
42A
  8
DETAIL
  6
CONTINUOUS
 62
     5
 10
5.987903
 20
781.620968
 30
0.0
 11
6.216902
 21
781.963912
 31
0.0
  0
LINE
  5
42B
  8
DETAIL
  6
CONTINUOUS
 62
     5
 10
6.216902
 20
781.963912
 30
0.0
 11
6.423102
 21
782.281534
 31
0.0
  0
LINE
  5
42C
  8
DETAIL
  6
CONTINUOUS
 62
     5
 10
6.423102
 20
782.281534
 30
0.0
 11
6.595379
 21
782.563555
 31
0.0
  0
LINE
  5
42D
  8
DETAIL
  6
CONTINUOUS
 62
     5
 10
6.595379
 20
782.563555
 30
0.0
 11
6.726747
 21
782.802733
 31
0.0
  0
LINE
  5
42E
  8
DETAIL
  6
CONTINUOUS
 62
     5
 10
6.726747
 20
782.802733
 30
0.0
 11
6.817056
 21
782.999864
 31
0.0
  0
LINE
  5
42F
  8
DETAIL
  6
CONTINUOUS
 62
     5
 10
6.817056
 20
782.999864
 30
0.0
 11
6.869441
 21
783.160844
 31
0.0
  0
LINE
  5
430
  8
DETAIL
  6
CONTINUOUS
 62
     5
 10
6.869441
 20
783.160844
 30
0.0
 11
6.886089
 21
783.287929
 31
0.0
  0
LINE
  5
431
  8
DETAIL
  6
CONTINUOUS
 62
     5
 10
6.886089
 20
783.616935
 30
0.0
 11
92.912298
 21
783.616935
 31
0.0
  0
LINE
  5
432
  8
DETAIL
  6
CONTINUOUS
 62
     5
 10
61.455846
 20
786.748659
 30
0.0
 11
6.886089
 21
786.748659
 31
0.0
  0
LINE
  5
433
  8
DETAIL
  6
CONTINUOUS
 62
     5
 10
6.886089
 20
788.984358
 30
0.0
 11
92.912298
 21
788.984358
 31
0.0
  0
LINE
  5
434
  8
DETAIL
  6
CONTINUOUS
 62
     5
 10
61.455846
 20
786.748659
 30
0.0
 11
73.0136
 21
786.71042
 31
0.0
  0
LINE
  5
435
  8
DETAIL
  6
CONTINUOUS
 62
     5
 10
73.0136
 20
786.71042
 30
0.0
 11
85.841752
 21
786.595357
 31
0.0
  0
LINE
  5
436
  8
DETAIL
  6
CONTINUOUS
 62
     5
 10
85.841752
 20
786.595357
 30
0.0
 11
92.912298
 21
786.502503
 31
0.0
  0
LINE
  5
437
  8
DETAIL
  6
CONTINUOUS
 62
     5
 10
94.708669
 20
786.478912
 30
0.0
 11
99.402831
 21
786.417266
 31
0.0
  0
LINE
  5
438
  8
DETAIL
  6
CONTINUOUS
 62
     5
 10
99.402831
 20
786.417266
 30
0.0
 11
113.188365
 21
786.203321
 31
0.0
  0
LINE
  5
439
  8
DETAIL
  6
CONTINUOUS
 62
     5
 10
113.188365
 20
786.203321
 30
0.0
 11
126.734619
 21
785.985663
 31
0.0
  0
LINE
  5
43A
  8
DETAIL
  6
CONTINUOUS
 62
     5
 10
93.810484
 20
781.620968
 30
0.0
 11
94.039482
 21
781.963912
 31
0.0
  0
LINE
  5
43B
  8
DETAIL
  6
CONTINUOUS
 62
     5
 10
94.039482
 20
781.963912
 30
0.0
 11
94.245683
 21
782.281534
 31
0.0
  0
LINE
  5
43C
  8
DETAIL
  6
CONTINUOUS
 62
     5
 10
94.245683
 20
782.281534
 30
0.0
 11
94.417959
 21
782.563555
 31
0.0
  0
LINE
  5
43D
  8
DETAIL
  6
CONTINUOUS
 62
     5
 10
94.417959
 20
782.563555
 30
0.0
 11
94.549328
 21
782.802733
 31
0.0
  0
LINE
  5
43E
  8
DETAIL
  6
CONTINUOUS
 62
     5
 10
94.549328
 20
782.802733
 30
0.0
 11
94.639637
 21
782.999864
 31
0.0
  0
LINE
  5
43F
  8
DETAIL
  6
CONTINUOUS
 62
     5
 10
94.639637
 20
782.999864
 30
0.0
 11
94.692022
 21
783.160844
 31
0.0
  0
LINE
  5
440
  8
DETAIL
  6
CONTINUOUS
 62
     5
 10
94.692022
 20
783.160844
 30
0.0
 11
94.708669
 21
783.287929
 31
0.0
  0
LINE
  5
441
  8
DETAIL
  6
CONTINUOUS
 62
     5
 10
5.089718
 20
783.287929
 30
0.0
 11
5.102318
 21
783.17889
 31
0.0
  0
LINE
  5
442
  8
DETAIL
  6
CONTINUOUS
 62
     5
 10
5.102318
 20
783.17889
 30
0.0
 11
5.14244
 21
783.042636
 31
0.0
  0
LINE
  5
443
  8
DETAIL
  6
CONTINUOUS
 62
     5
 10
5.14244
 20
783.042636
 30
0.0
 11
5.211503
 21
782.879264
 31
0.0
  0
LINE
  5
444
  8
DETAIL
  6
CONTINUOUS
 62
     5
 10
5.211503
 20
782.879264
 30
0.0
 11
5.31049
 21
782.6868
 31
0.0
  0
LINE
  5
445
  8
DETAIL
  6
CONTINUOUS
 62
     5
 10
5.31049
 20
782.6868
 30
0.0
 11
5.440598
 21
782.462359
 31
0.0
  0
LINE
  5
446
  8
DETAIL
  6
CONTINUOUS
 62
     5
 10
5.440598
 20
782.462359
 30
0.0
 11
5.600662
 21
782.20633
 31
0.0
  0
LINE
  5
447
  8
DETAIL
  6
CONTINUOUS
 62
     5
 10
5.600662
 20
782.20633
 30
0.0
 11
5.785337
 21
781.924017
 31
0.0
  0
LINE
  5
448
  8
DETAIL
  6
CONTINUOUS
 62
     5
 10
5.785337
 20
781.924017
 30
0.0
 11
5.987903
 21
781.620968
 31
0.0
  0
LINE
  5
449
  8
DETAIL
  6
CONTINUOUS
 62
     5
 10
92.912298
 20
783.287929
 30
0.0
 11
92.924899
 21
783.17889
 31
0.0
  0
LINE
  5
44A
  8
DETAIL
  6
CONTINUOUS
 62
     5
 10
92.924899
 20
783.17889
 30
0.0
 11
92.965021
 21
783.042636
 31
0.0
  0
LINE
  5
44B
  8
DETAIL
  6
CONTINUOUS
 62
     5
 10
92.965021
 20
783.042636
 30
0.0
 11
93.034084
 21
782.879264
 31
0.0
  0
LINE
  5
44C
  8
DETAIL
  6
CONTINUOUS
 62
     5
 10
93.034084
 20
782.879264
 30
0.0
 11
93.13307
 21
782.6868
 31
0.0
  0
LINE
  5
44D
  8
DETAIL
  6
CONTINUOUS
 62
     5
 10
93.13307
 20
782.6868
 30
0.0
 11
93.263178
 21
782.462359
 31
0.0
  0
LINE
  5
44E
  8
DETAIL
  6
CONTINUOUS
 62
     5
 10
93.263178
 20
782.462359
 30
0.0
 11
93.423243
 21
782.20633
 31
0.0
  0
LINE
  5
44F
  8
DETAIL
  6
CONTINUOUS
 62
     5
 10
93.423243
 20
782.20633
 30
0.0
 11
93.607918
 21
781.924017
 31
0.0
  0
LINE
  5
450
  8
DETAIL
  6
CONTINUOUS
 62
     5
 10
93.607918
 20
781.924017
 30
0.0
 11
93.810484
 21
781.620968
 31
0.0
  0
LINE
  5
451
  8
DETAIL
  6
CONTINUOUS
 62
     5
 10
268.55746
 20
783.287929
 30
0.0
 11
268.57006
 21
783.17889
 31
0.0
  0
LINE
  5
452
  8
DETAIL
  6
CONTINUOUS
 62
     5
 10
268.57006
 20
783.17889
 30
0.0
 11
268.610182
 21
783.042636
 31
0.0
  0
LINE
  5
453
  8
DETAIL
  6
CONTINUOUS
 62
     5
 10
268.610182
 20
783.042636
 30
0.0
 11
268.679245
 21
782.879264
 31
0.0
  0
LINE
  5
454
  8
DETAIL
  6
CONTINUOUS
 62
     5
 10
268.679245
 20
782.879264
 30
0.0
 11
268.778232
 21
782.6868
 31
0.0
  0
LINE
  5
455
  8
DETAIL
  6
CONTINUOUS
 62
     5
 10
268.778232
 20
782.6868
 30
0.0
 11
268.90834
 21
782.462359
 31
0.0
  0
LINE
  5
456
  8
DETAIL
  6
CONTINUOUS
 62
     5
 10
268.90834
 20
782.462359
 30
0.0
 11
269.068404
 21
782.20633
 31
0.0
  0
LINE
  5
457
  8
DETAIL
  6
CONTINUOUS
 62
     5
 10
269.068404
 20
782.20633
 30
0.0
 11
269.253079
 21
781.924017
 31
0.0
  0
LINE
  5
458
  8
DETAIL
  6
CONTINUOUS
 62
     5
 10
269.253079
 20
781.924017
 30
0.0
 11
269.455645
 21
781.620968
 31
0.0
  0
LINE
  5
459
  8
DETAIL
  6
CONTINUOUS
 62
     5
 10
270.353831
 20
786.502503
 30
0.0
 11
277.424345
 21
786.595357
 31
0.0
  0
LINE
  5
45A
  8
DETAIL
  6
CONTINUOUS
 62
     5
 10
277.424345
 20
786.595357
 30
0.0
 11
290.252492
 21
786.710419
 31
0.0
  0
LINE
  5
45B
  8
DETAIL
  6
CONTINUOUS
 62
     5
 10
290.252492
 20
786.710419
 30
0.0
 11
301.810283
 21
786.748659
 31
0.0
  0
LINE
  5
45C
  8
DETAIL
  6
CONTINUOUS
 62
     5
 10
182.53125
 20
783.616935
 30
0.0
 11
268.55746
 21
783.616935
 31
0.0
  0
LINE
  5
45D
  8
DETAIL
  6
CONTINUOUS
 62
     5
 10
182.53125
 20
785.478051
 30
0.0
 11
187.394061
 21
785.478051
 31
0.0
  0
LINE
  5
45E
  8
DETAIL
  6
CONTINUOUS
 62
     5
 10
187.394061
 20
785.478051
 30
0.0
 11
199.027299
 21
785.531097
 31
0.0
  0
LINE
  5
45F
  8
DETAIL
  6
CONTINUOUS
 62
     5
 10
199.027299
 20
785.531097
 30
0.0
 11
210.985947
 21
785.636299
 31
0.0
  0
LINE
  5
460
  8
DETAIL
  6
CONTINUOUS
 62
     5
 10
210.985947
 20
785.636299
 30
0.0
 11
223.458779
 21
785.790619
 31
0.0
  0
LINE
  5
461
  8
DETAIL
  6
CONTINUOUS
 62
     5
 10
223.458779
 20
785.790619
 30
0.0
 11
236.531523
 21
785.985663
 31
0.0
  0
LINE
  5
462
  8
DETAIL
  6
CONTINUOUS
 62
     5
 10
236.531523
 20
785.985663
 30
0.0
 11
250.077774
 21
786.203321
 31
0.0
  0
LINE
  5
463
  8
DETAIL
  6
CONTINUOUS
 62
     5
 10
250.077774
 20
786.203321
 30
0.0
 11
263.863289
 21
786.417266
 31
0.0
  0
LINE
  5
464
  8
DETAIL
  6
CONTINUOUS
 62
     5
 10
263.863289
 20
786.417266
 30
0.0
 11
268.55746
 21
786.478912
 31
0.0
  0
LINE
  5
465
  8
DETAIL
  6
CONTINUOUS
 62
     5
 10
182.53125
 20
788.984358
 30
0.0
 11
268.55746
 21
788.984358
 31
0.0
  0
LINE
  5
466
  8
DETAIL
  6
CONTINUOUS
 62
     5
 10
139.807359
 20
785.790619
 30
0.0
 11
152.280187
 21
785.636299
 31
0.0
  0
LINE
  5
467
  8
DETAIL
  6
CONTINUOUS
 62
     5
 10
152.280187
 20
785.636299
 30
0.0
 11
164.238836
 21
785.531097
 31
0.0
  0
LINE
  5
468
  8
DETAIL
  6
CONTINUOUS
 62
     5
 10
164.238836
 20
785.531097
 30
0.0
 11
175.872076
 21
785.478051
 31
0.0
  0
LINE
  5
469
  8
DETAIL
  6
CONTINUOUS
 62
     5
 10
175.872076
 20
785.478051
 30
0.0
 11
180.734879
 21
785.478051
 31
0.0
  0
LINE
  5
46A
  8
DETAIL
  6
CONTINUOUS
 62
     5
 10
181.633065
 20
781.620968
 30
0.0
 11
181.862063
 21
781.963912
 31
0.0
  0
LINE
  5
46B
  8
DETAIL
  6
CONTINUOUS
 62
     5
 10
181.862063
 20
781.963912
 30
0.0
 11
182.068264
 21
782.281534
 31
0.0
  0
LINE
  5
46C
  8
DETAIL
  6
CONTINUOUS
 62
     5
 10
182.068264
 20
782.281534
 30
0.0
 11
182.24054
 21
782.563555
 31
0.0
  0
LINE
  5
46D
  8
DETAIL
  6
CONTINUOUS
 62
     5
 10
182.24054
 20
782.563555
 30
0.0
 11
182.371908
 21
782.802733
 31
0.0
  0
LINE
  5
46E
  8
DETAIL
  6
CONTINUOUS
 62
     5
 10
182.371908
 20
782.802733
 30
0.0
 11
182.462217
 21
782.999864
 31
0.0
  0
LINE
  5
46F
  8
DETAIL
  6
CONTINUOUS
 62
     5
 10
182.462217
 20
782.999864
 30
0.0
 11
182.514603
 21
783.160844
 31
0.0
  0
LINE
  5
470
  8
DETAIL
  6
CONTINUOUS
 62
     5
 10
182.514603
 20
783.160844
 30
0.0
 11
182.53125
 21
783.287929
 31
0.0
  0
LINE
  5
471
  8
DETAIL
  6
CONTINUOUS
 62
     5
 10
269.455645
 20
781.620968
 30
0.0
 11
269.684643
 21
781.963912
 31
0.0
  0
LINE
  5
472
  8
DETAIL
  6
CONTINUOUS
 62
     5
 10
269.684643
 20
781.963912
 30
0.0
 11
269.890844
 21
782.281534
 31
0.0
  0
LINE
  5
473
  8
DETAIL
  6
CONTINUOUS
 62
     5
 10
269.890844
 20
782.281534
 30
0.0
 11
270.063121
 21
782.563555
 31
0.0
  0
LINE
  5
474
  8
DETAIL
  6
CONTINUOUS
 62
     5
 10
270.063121
 20
782.563555
 30
0.0
 11
270.194489
 21
782.802733
 31
0.0
  0
LINE
  5
475
  8
DETAIL
  6
CONTINUOUS
 62
     5
 10
270.194489
 20
782.802733
 30
0.0
 11
270.284798
 21
782.999864
 31
0.0
  0
LINE
  5
476
  8
DETAIL
  6
CONTINUOUS
 62
     5
 10
270.284798
 20
782.999864
 30
0.0
 11
270.337183
 21
783.160844
 31
0.0
  0
LINE
  5
477
  8
DETAIL
  6
CONTINUOUS
 62
     5
 10
270.337183
 20
783.160844
 30
0.0
 11
270.353831
 21
783.287929
 31
0.0
  0
LINE
  5
478
  8
DETAIL
  6
CONTINUOUS
 62
     5
 10
180.734879
 20
783.287929
 30
0.0
 11
180.74748
 21
783.17889
 31
0.0
  0
LINE
  5
479
  8
DETAIL
  6
CONTINUOUS
 62
     5
 10
180.74748
 20
783.17889
 30
0.0
 11
180.787601
 21
783.042636
 31
0.0
  0
LINE
  5
47A
  8
DETAIL
  6
CONTINUOUS
 62
     5
 10
180.787601
 20
783.042636
 30
0.0
 11
180.856665
 21
782.879264
 31
0.0
  0
LINE
  5
47B
  8
DETAIL
  6
CONTINUOUS
 62
     5
 10
180.856665
 20
782.879264
 30
0.0
 11
180.955651
 21
782.6868
 31
0.0
  0
LINE
  5
47C
  8
DETAIL
  6
CONTINUOUS
 62
     5
 10
180.955651
 20
782.6868
 30
0.0
 11
181.085759
 21
782.462359
 31
0.0
  0
LINE
  5
47D
  8
DETAIL
  6
CONTINUOUS
 62
     5
 10
181.085759
 20
782.462359
 30
0.0
 11
181.245823
 21
782.20633
 31
0.0
  0
LINE
  5
47E
  8
DETAIL
  6
CONTINUOUS
 62
     5
 10
181.245823
 20
782.20633
 30
0.0
 11
181.430498
 21
781.924017
 31
0.0
  0
LINE
  5
47F
  8
DETAIL
  6
CONTINUOUS
 62
     5
 10
181.430498
 20
781.924017
 30
0.0
 11
181.633065
 21
781.620968
 31
0.0
  0
ARC
  5
480
  8
DETAIL
  6
CONTINUOUS
 62
     5
 10
423.644153
 20
689.207661
 30
0.0
 40
17.96371
 50
0.0
 51
90.0
  0
ARC
  5
481
  8
DETAIL
  6
CONTINUOUS
 62
     5
 10
423.644153
 20
689.207661
 30
0.0
 40
42.913306
 50
0.0
 51
90.0
  0
LINE
  5
482
  8
DETAIL
  6
CONTINUOUS
 62
     5
 10
358.176411
 20
707.500377
 30
0.0
 11
358.159764
 21
707.627462
 31
0.0
  0
LINE
  5
483
  8
DETAIL
  6
CONTINUOUS
 62
     5
 10
358.159764
 20
707.627462
 30
0.0
 11
358.107379
 21
707.788442
 31
0.0
  0
LINE
  5
484
  8
DETAIL
  6
CONTINUOUS
 62
     5
 10
358.107379
 20
707.788442
 30
0.0
 11
358.01707
 21
707.985573
 31
0.0
  0
LINE
  5
485
  8
DETAIL
  6
CONTINUOUS
 62
     5
 10
358.01707
 20
707.985573
 30
0.0
 11
357.885701
 21
708.224751
 31
0.0
  0
LINE
  5
486
  8
DETAIL
  6
CONTINUOUS
 62
     5
 10
357.885701
 20
708.224751
 30
0.0
 11
357.713425
 21
708.506773
 31
0.0
  0
LINE
  5
487
  8
DETAIL
  6
CONTINUOUS
 62
     5
 10
357.713425
 20
708.506773
 30
0.0
 11
357.507224
 21
708.824395
 31
0.0
  0
LINE
  5
488
  8
DETAIL
  6
CONTINUOUS
 62
     5
 10
357.507224
 20
708.824395
 30
0.0
 11
357.278226
 21
709.167339
 31
0.0
  0
LINE
  5
489
  8
DETAIL
  6
CONTINUOUS
 62
     5
 10
430.63004
 20
700.185484
 30
0.0
 11
430.63004
 21
705.757352
 31
0.0
  0
ARC
  5
48A
  8
DETAIL
  6
CONTINUOUS
 62
     5
 10
181.633065
 20
456.378024
 30
0.0
 40
251.990927
 50
47.226648
 51
49.387806
  0
ARC
  5
48B
  8
DETAIL
  6
CONTINUOUS
 62
     5
 10
181.633065
 20
456.378024
 30
0.0
 40
251.990927
 50
56.009576
 51
58.688713
  0
ARC
  5
48C
  8
DETAIL
  6
CONTINUOUS
 62
     5
 10
181.633065
 20
456.378024
 30
0.0
 40
253.986895
 50
46.744116
 51
48.883148
  0
ARC
  5
48D
  8
DETAIL
  6
CONTINUOUS
 62
     5
 10
181.633065
 20
456.378024
 30
0.0
 40
253.986895
 50
55.347254
 51
57.962569
  0
ARC
  5
48E
  8
DETAIL
  6
CONTINUOUS
 62
     5
 10
434.621976
 20
700.185484
 30
0.0
 40
3.991935
 50
180.0
 51
270.0
  0
LINE
  5
48F
  8
DETAIL
  6
CONTINUOUS
 62
     5
 10
358.176411
 20
641.304435
 30
0.0
 11
441.607863
 21
641.304435
 31
0.0
  0
LINE
  5
490
  8
DETAIL
  6
CONTINUOUS
 62
     5
 10
358.176411
 20
647.669842
 30
0.0
 11
441.607863
 21
647.669842
 31
0.0
  0
LINE
  5
491
  8
DETAIL
  6
CONTINUOUS
 62
     5
 10
358.176411
 20
665.256048
 30
0.0
 11
441.607863
 21
665.256048
 31
0.0
  0
LINE
  5
492
  8
DETAIL
  6
CONTINUOUS
 62
     5
 10
358.176411
 20
671.621455
 30
0.0
 11
441.607863
 21
671.621455
 31
0.0
  0
LINE
  5
493
  8
DETAIL
  6
CONTINUOUS
 62
     5
 10
358.176411
 20
689.207661
 30
0.0
 11
441.607863
 21
689.207661
 31
0.0
  0
LINE
  5
494
  8
DETAIL
  6
CONTINUOUS
 62
     5
 10
440.193843
 20
696.193548
 30
0.0
 11
434.621976
 21
696.193548
 31
0.0
  0
LINE
  5
495
  8
DETAIL
  6
CONTINUOUS
 62
     5
 10
423.644153
 20
707.171371
 30
0.0
 11
358.176411
 21
707.171371
 31
0.0
  0
LINE
  5
496
  8
DETAIL
  6
CONTINUOUS
 62
     5
 10
341.483238
 20
641.304435
 30
0.0
 11
338.068106
 21
644.291179
 31
0.0
  0
LINE
  5
497
  8
DETAIL
  6
CONTINUOUS
 62
     5
 10
338.068106
 20
644.291179
 30
0.0
 11
333.801465
 21
647.669842
 31
0.0
  0
LINE
  5
498
  8
DETAIL
  6
CONTINUOUS
 62
     5
 10
342.752614
 20
641.304435
 30
0.0
 11
341.032365
 21
642.822309
 31
0.0
  0
LINE
  5
499
  8
DETAIL
  6
CONTINUOUS
 62
     5
 10
341.032365
 20
642.822309
 30
0.0
 11
334.964589
 21
647.669842
 31
0.0
  0
LINE
  5
49A
  8
DETAIL
  6
CONTINUOUS
 62
     5
 10
357.278226
 20
709.167339
 30
0.0
 11
357.07566
 21
708.864289
 31
0.0
  0
LINE
  5
49B
  8
DETAIL
  6
CONTINUOUS
 62
     5
 10
357.07566
 20
708.864289
 30
0.0
 11
356.890985
 21
708.581976
 31
0.0
  0
LINE
  5
49C
  8
DETAIL
  6
CONTINUOUS
 62
     5
 10
356.890985
 20
708.581976
 30
0.0
 11
356.73092
 21
708.325947
 31
0.0
  0
LINE
  5
49D
  8
DETAIL
  6
CONTINUOUS
 62
     5
 10
356.73092
 20
708.325947
 30
0.0
 11
356.600812
 21
708.101506
 31
0.0
  0
LINE
  5
49E
  8
DETAIL
  6
CONTINUOUS
 62
     5
 10
356.600812
 20
708.101506
 30
0.0
 11
356.501826
 21
707.909042
 31
0.0
  0
LINE
  5
49F
  8
DETAIL
  6
CONTINUOUS
 62
     5
 10
356.501826
 20
707.909042
 30
0.0
 11
356.432763
 21
707.74567
 31
0.0
  0
LINE
  5
4A0
  8
DETAIL
  6
CONTINUOUS
 62
     5
 10
356.432763
 20
707.74567
 30
0.0
 11
356.392641
 21
707.609417
 31
0.0
  0
LINE
  5
4A1
  8
DETAIL
  6
CONTINUOUS
 62
     5
 10
356.392641
 20
707.609417
 30
0.0
 11
356.38004
 21
707.500377
 31
0.0
  0
LINE
  5
4A2
  8
DETAIL
  6
CONTINUOUS
 62
     5
 10
468.553427
 20
732.120968
 30
0.0
 11
468.534251
 21
732.145917
 31
0.0
  0
LINE
  5
4A3
  8
DETAIL
  6
CONTINUOUS
 62
     5
 10
468.534251
 20
732.145917
 30
0.0
 11
468.47746
 21
732.170867
 31
0.0
  0
LINE
  5
4A4
  8
DETAIL
  6
CONTINUOUS
 62
     5
 10
468.47746
 20
732.170867
 30
0.0
 11
468.385237
 21
732.195817
 31
0.0
  0
LINE
  5
4A5
  8
DETAIL
  6
CONTINUOUS
 62
     5
 10
468.385237
 20
732.195817
 30
0.0
 11
468.261125
 21
732.220766
 31
0.0
  0
LINE
  5
4A6
  8
DETAIL
  6
CONTINUOUS
 62
     5
 10
468.261125
 20
732.220766
 30
0.0
 11
468.109894
 21
732.245716
 31
0.0
  0
LINE
  5
4A7
  8
DETAIL
  6
CONTINUOUS
 62
     5
 10
468.109894
 20
732.245716
 30
0.0
 11
467.937355
 21
732.270665
 31
0.0
  0
LINE
  5
4A8
  8
DETAIL
  6
CONTINUOUS
 62
     5
 10
467.937355
 20
732.270665
 30
0.0
 11
467.75014
 21
732.295615
 31
0.0
  0
LINE
  5
4A9
  8
DETAIL
  6
CONTINUOUS
 62
     5
 10
356.38004
 20
783.287929
 30
0.0
 11
356.392641
 21
783.17889
 31
0.0
  0
LINE
  5
4AA
  8
DETAIL
  6
CONTINUOUS
 62
     5
 10
356.392641
 20
783.17889
 30
0.0
 11
356.432763
 21
783.042636
 31
0.0
  0
LINE
  5
4AB
  8
DETAIL
  6
CONTINUOUS
 62
     5
 10
356.432763
 20
783.042636
 30
0.0
 11
356.501826
 21
782.879264
 31
0.0
  0
LINE
  5
4AC
  8
DETAIL
  6
CONTINUOUS
 62
     5
 10
356.501826
 20
782.879264
 30
0.0
 11
356.600812
 21
782.6868
 31
0.0
  0
LINE
  5
4AD
  8
DETAIL
  6
CONTINUOUS
 62
     5
 10
356.600812
 20
782.6868
 30
0.0
 11
356.73092
 21
782.462359
 31
0.0
  0
LINE
  5
4AE
  8
DETAIL
  6
CONTINUOUS
 62
     5
 10
356.73092
 20
782.462359
 30
0.0
 11
356.890985
 21
782.20633
 31
0.0
  0
LINE
  5
4AF
  8
DETAIL
  6
CONTINUOUS
 62
     5
 10
356.890985
 20
782.20633
 30
0.0
 11
357.07566
 21
781.924017
 31
0.0
  0
LINE
  5
4B0
  8
DETAIL
  6
CONTINUOUS
 62
     5
 10
357.07566
 20
781.924017
 30
0.0
 11
357.278226
 21
781.620968
 31
0.0
  0
LINE
  5
4B1
  8
DETAIL
  6
CONTINUOUS
 62
     5
 10
430.63004
 20
785.030955
 30
0.0
 11
430.63004
 21
790.602823
 31
0.0
  0
LINE
  5
4B2
  8
DETAIL
  6
CONTINUOUS
 62
     5
 10
452.585685
 20
756.671371
 30
0.0
 11
452.585685
 21
748.188508
 31
0.0
  0
LINE
  5
4B3
  8
DETAIL
  6
CONTINUOUS
 62
     5
 10
467.555444
 20
733.118952
 30
0.0
 11
467.555444
 21
732.320565
 31
0.0
  0
LINE
  5
4B4
  8
DETAIL
  6
CONTINUOUS
 62
     5
 10
468.553427
 20
763.657258
 30
0.0
 11
468.553427
 21
748.188508
 31
0.0
  0
LINE
  5
4B5
  8
DETAIL
  6
CONTINUOUS
 62
     5
 10
468.553427
 20
732.120968
 30
0.0
 11
468.553427
 21
727.131048
 31
0.0
  0
ARC
  5
4B6
  8
DETAIL
  6
CONTINUOUS
 62
     5
 10
464.0625
 20
738.114515
 30
0.0
 40
4.989919
 50
280.561983
 51
0.0
  0
ARC
  5
4B7
  8
DETAIL
  6
CONTINUOUS
 62
     5
 10
461.56754
 20
763.657258
 30
0.0
 40
6.985887
 50
270.0
 51
0.0
  0
CIRCLE
  5
4B8
  8
DETAIL
  6
CONTINUOUS
 62
     5
 10
460.569556
 20
764.655242
 30
0.0
 40
2.993952
  0
ARC
  5
4B9
  8
DETAIL
  6
CONTINUOUS
 62
     5
 10
434.621976
 20
790.602823
 30
0.0
 40
3.991935
 50
153.692719
 51
180.0
  0
ARC
  5
4BA
  8
DETAIL
  6
CONTINUOUS
 62
     5
 10
461.56754
 20
727.131048
 30
0.0
 40
6.985887
 50
0.0
 51
90.0
  0
CIRCLE
  5
4BB
  8
DETAIL
  6
CONTINUOUS
 62
     5
 10
460.569556
 20
726.133065
 30
0.0
 40
2.993952
  0
CIRCLE
  5
4BC
  8
DETAIL
  6
CONTINUOUS
 62
     5
 10
460.569556
 20
764.655242
 30
0.0
 40
1.995968
  0
ARC
  5
4BD
  8
DETAIL
  6
CONTINUOUS
 62
     5
 10
467.555444
 20
732.120968
 30
0.0
 40
0.997984
 50
0.0
 51
90.0
  0
CIRCLE
  5
4BE
  8
DETAIL
  6
CONTINUOUS
 62
     5
 10
460.569556
 20
726.133065
 30
0.0
 40
1.995968
  0
LINE
  5
4BF
  8
DETAIL
  6
CONTINUOUS
 62
     5
 10
466.239536
 20
732.320565
 30
0.0
 11
467.555444
 21
732.320565
 31
0.0
  0
LINE
  5
4C0
  8
DETAIL
  6
CONTINUOUS
 62
     5
 10
465.141233
 20
733.118952
 30
0.0
 11
467.555444
 21
733.118952
 31
0.0
  0
LINE
  5
4C1
  8
DETAIL
  6
CONTINUOUS
 62
     5
 10
467.042087
 20
734.116935
 30
0.0
 11
469.052419
 21
734.116935
 31
0.0
  0
LINE
  5
4C2
  8
DETAIL
  6
CONTINUOUS
 62
     5
 10
459.254549
 20
763.158266
 30
0.0
 11
461.884564
 21
763.158266
 31
0.0
  0
LINE
  5
4C3
  8
DETAIL
  6
CONTINUOUS
 62
     5
 10
469.052419
 20
774.041934
 30
0.0
 11
468.553427
 21
774.041934
 31
0.0
  0
LINE
  5
4C4
  8
DETAIL
  6
CONTINUOUS
 62
     5
 10
469.052419
 20
775.053974
 30
0.0
 11
468.553427
 21
775.053974
 31
0.0
  0
LINE
  5
4C5
  8
DETAIL
  6
CONTINUOUS
 62
     5
 10
358.176411
 20
783.616935
 30
0.0
 11
423.644153
 21
783.616935
 31
0.0
  0
LINE
  5
4C6
  8
DETAIL
  6
CONTINUOUS
 62
     5
 10
430.63004
 20
786.748659
 30
0.0
 11
358.176411
 21
786.748659
 31
0.0
  0
LINE
  5
4C7
  8
DETAIL
  6
CONTINUOUS
 62
     5
 10
358.176411
 20
788.984358
 30
0.0
 11
430.63004
 21
788.984358
 31
0.0
  0
LINE
  5
4C8
  8
DETAIL
  6
CONTINUOUS
 62
     5
 10
431.043485
 20
792.371989
 30
0.0
 11
439.068015
 21
792.371989
 31
0.0
  0
LINE
  5
4C9
  8
DETAIL
  6
CONTINUOUS
 62
     5
 10
467.75014
 20
732.295615
 30
0.0
 11
467.555444
 21
732.320565
 31
0.0
  0
LINE
  5
4CA
  8
DETAIL
  6
CONTINUOUS
 62
     5
 10
357.278226
 20
781.620968
 30
0.0
 11
357.507224
 21
781.963912
 31
0.0
  0
LINE
  5
4CB
  8
DETAIL
  6
CONTINUOUS
 62
     5
 10
357.507224
 20
781.963912
 30
0.0
 11
357.713425
 21
782.281534
 31
0.0
  0
LINE
  5
4CC
  8
DETAIL
  6
CONTINUOUS
 62
     5
 10
357.713425
 20
782.281534
 30
0.0
 11
357.885701
 21
782.563555
 31
0.0
  0
LINE
  5
4CD
  8
DETAIL
  6
CONTINUOUS
 62
     5
 10
357.885701
 20
782.563555
 30
0.0
 11
358.01707
 21
782.802733
 31
0.0
  0
LINE
  5
4CE
  8
DETAIL
  6
CONTINUOUS
 62
     5
 10
358.01707
 20
782.802733
 30
0.0
 11
358.107379
 21
782.999864
 31
0.0
  0
LINE
  5
4CF
  8
DETAIL
  6
CONTINUOUS
 62
     5
 10
358.107379
 20
782.999864
 30
0.0
 11
358.159764
 21
783.160844
 31
0.0
  0
LINE
  5
4D0
  8
DETAIL
  6
CONTINUOUS
 62
     5
 10
358.159764
 20
783.160844
 30
0.0
 11
358.176411
 21
783.287929
 31
0.0
  0
LINE
  5
4D3
  8
DETAIL
  6
CONTINUOUS
 62
     5
 10
60.310954
 20
1122.191847
 30
0.0
 11
49.613577
 21
1123.81923
 31
0.0
  0
LINE
  5
4D4
  8
DETAIL
  6
CONTINUOUS
 62
     5
 10
441.607863
 20
801.580645
 30
0.0
 11
441.607863
 21
1285.602823
 31
0.0
  0
LINE
  5
4D5
  8
DETAIL
  6
CONTINUOUS
 62
     5
 10
466.55746
 20
801.580645
 30
0.0
 11
466.55746
 21
1285.602823
 31
0.0
  0
ARC
  5
4D6
  8
DETAIL
  6
CONTINUOUS
 62
     5
 10
181.633065
 20
1052.773185
 30
0.0
 40
73.351815
 50
102.476601
 51
117.281025
  0
ARC
  5
4D7
  8
DETAIL
  6
CONTINUOUS
 62
     5
 10
181.633065
 20
1052.773185
 30
0.0
 40
73.351815
 50
62.819191
 51
77.250317
  0
ARC
  5
4D8
  8
DETAIL
  6
CONTINUOUS
 62
     5
 10
181.633065
 20
1052.773185
 30
0.0
 40
251.990927
 50
14.990522
 51
16.496297
  0
ARC
  5
4D9
  8
DETAIL
  6
CONTINUOUS
 62
     5
 10
181.633065
 20
1052.773185
 30
0.0
 40
251.990927
 50
163.503703
 51
165.009478
  0
ARC
  5
4DA
  8
DETAIL
  6
CONTINUOUS
 62
     5
 10
181.633065
 20
1052.773185
 30
0.0
 40
253.986895
 50
14.871056
 51
16.36137
  0
ARC
  5
4DB
  8
DETAIL
  6
CONTINUOUS
 62
     5
 10
181.633065
 20
1052.773185
 30
0.0
 40
253.986895
 50
163.63863
 51
165.128944
  0
LINE
  5
4DC
  8
DETAIL
  6
CONTINUOUS
 62
     5
 10
160.665036
 20
1123.064227
 30
0.0
 11
161.593652
 21
1124.306939
 31
0.0
  0
LINE
  5
4DD
  8
DETAIL
  6
CONTINUOUS
 62
     5
 10
-103.291331
 20
1285.602823
 30
0.0
 11
-103.291331
 21
801.580645
 31
0.0
  0
LINE
  5
4DE
  8
DETAIL
  6
CONTINUOUS
 62
     5
 10
-78.341734
 20
1285.602823
 30
0.0
 11
-78.341734
 21
801.580645
 31
0.0
  0
LINE
  5
4DF
  8
DETAIL
  6
CONTINUOUS
 62
     5
 10
299.756033
 20
1120.020872
 30
0.0
 11
303.27918
 21
1124.306939
 31
0.0
  0
LINE
  5
4E0
  8
DETAIL
  6
CONTINUOUS
 62
     5
 10
293.582695
 20
1119.253007
 30
0.0
 11
297.998197
 21
1124.306939
 31
0.0
  0
LINE
  5
4E1
  8
DETAIL
  6
CONTINUOUS
 62
     5
 10
158.604032
 20
1124.306939
 30
0.0
 11
158.311003
 21
1122.221925
 31
0.0
  0
LINE
  5
4E2
  8
DETAIL
  6
CONTINUOUS
 62
     5
 10
-6.307319
 20
1124.306939
 30
0.0
 11
-16.287608
 21
1123.037214
 31
0.0
  0
LINE
  5
4E3
  8
DETAIL
  6
CONTINUOUS
 62
     5
 10
-78.341734
 20
806.570565
 30
0.0
 11
5.089718
 21
806.570565
 31
0.0
  0
LINE
  5
4E4
  8
DETAIL
  6
CONTINUOUS
 62
     5
 10
-78.341734
 20
812.935971
 30
0.0
 11
5.089718
 21
812.935971
 31
0.0
  0
LINE
  5
4E5
  8
DETAIL
  6
CONTINUOUS
 62
     5
 10
-78.341734
 20
830.522177
 30
0.0
 11
5.089718
 21
830.522177
 31
0.0
  0
LINE
  5
4E6
  8
DETAIL
  6
CONTINUOUS
 62
     5
 10
-78.341734
 20
836.887584
 30
0.0
 11
5.089718
 21
836.887584
 31
0.0
  0
LINE
  5
4E7
  8
DETAIL
  6
CONTINUOUS
 62
     5
 10
-78.341734
 20
854.47379
 30
0.0
 11
5.089718
 21
854.47379
 31
0.0
  0
LINE
  5
4E8
  8
DETAIL
  6
CONTINUOUS
 62
     5
 10
-78.341734
 20
860.839197
 30
0.0
 11
5.089718
 21
860.839197
 31
0.0
  0
LINE
  5
4E9
  8
DETAIL
  6
CONTINUOUS
 62
     5
 10
-78.341734
 20
878.425403
 30
0.0
 11
5.089718
 21
878.425403
 31
0.0
  0
LINE
  5
4EA
  8
DETAIL
  6
CONTINUOUS
 62
     5
 10
-78.341734
 20
884.79081
 30
0.0
 11
5.089718
 21
884.79081
 31
0.0
  0
LINE
  5
4EB
  8
DETAIL
  6
CONTINUOUS
 62
     5
 10
-78.341734
 20
902.377016
 30
0.0
 11
5.089718
 21
902.377016
 31
0.0
  0
LINE
  5
4EC
  8
DETAIL
  6
CONTINUOUS
 62
     5
 10
-78.341734
 20
908.742423
 30
0.0
 11
5.089718
 21
908.742423
 31
0.0
  0
LINE
  5
4ED
  8
DETAIL
  6
CONTINUOUS
 62
     5
 10
-78.341734
 20
926.328629
 30
0.0
 11
5.089718
 21
926.328629
 31
0.0
  0
LINE
  5
4EE
  8
DETAIL
  6
CONTINUOUS
 62
     5
 10
-78.341734
 20
932.694036
 30
0.0
 11
5.089718
 21
932.694036
 31
0.0
  0
LINE
  5
4EF
  8
DETAIL
  6
CONTINUOUS
 62
     5
 10
-78.341734
 20
950.280242
 30
0.0
 11
5.089718
 21
950.280242
 31
0.0
  0
LINE
  5
4F0
  8
DETAIL
  6
CONTINUOUS
 62
     5
 10
-78.341734
 20
956.645649
 30
0.0
 11
5.089718
 21
956.645649
 31
0.0
  0
LINE
  5
4F1
  8
DETAIL
  6
CONTINUOUS
 62
     5
 10
-78.341734
 20
974.231855
 30
0.0
 11
5.089718
 21
974.231855
 31
0.0
  0
LINE
  5
4F2
  8
DETAIL
  6
CONTINUOUS
 62
     5
 10
-78.341734
 20
980.597262
 30
0.0
 11
5.089718
 21
980.597262
 31
0.0
  0
LINE
  5
4F3
  8
DETAIL
  6
CONTINUOUS
 62
     5
 10
-78.341734
 20
998.183468
 30
0.0
 11
5.089718
 21
998.183468
 31
0.0
  0
LINE
  5
4F4
  8
DETAIL
  6
CONTINUOUS
 62
     5
 10
-78.341734
 20
1004.548875
 30
0.0
 11
5.089718
 21
1004.548875
 31
0.0
  0
LINE
  5
4F5
  8
DETAIL
  6
CONTINUOUS
 62
     5
 10
-78.341734
 20
1022.135081
 30
0.0
 11
5.089718
 21
1022.135081
 31
0.0
  0
LINE
  5
4F6
  8
DETAIL
  6
CONTINUOUS
 62
     5
 10
-78.341734
 20
1028.500487
 30
0.0
 11
5.089718
 21
1028.500487
 31
0.0
  0
LINE
  5
4F7
  8
DETAIL
  6
CONTINUOUS
 62
     5
 10
-78.341734
 20
1046.086694
 30
0.0
 11
5.089718
 21
1046.086694
 31
0.0
  0
LINE
  5
4F8
  8
DETAIL
  6
CONTINUOUS
 62
     5
 10
-78.341734
 20
1052.4521
 30
0.0
 11
5.089718
 21
1052.4521
 31
0.0
  0
LINE
  5
4F9
  8
DETAIL
  6
CONTINUOUS
 62
     5
 10
-78.341734
 20
1070.038306
 30
0.0
 11
5.089718
 21
1070.038306
 31
0.0
  0
LINE
  5
4FA
  8
DETAIL
  6
CONTINUOUS
 62
     5
 10
-78.341734
 20
1076.403713
 30
0.0
 11
5.089718
 21
1076.403713
 31
0.0
  0
LINE
  5
4FB
  8
DETAIL
  6
CONTINUOUS
 62
     5
 10
-78.341734
 20
1093.989919
 30
0.0
 11
5.089718
 21
1093.989919
 31
0.0
  0
LINE
  5
4FC
  8
DETAIL
  6
CONTINUOUS
 62
     5
 10
-78.341734
 20
1100.355326
 30
0.0
 11
5.089718
 21
1100.355326
 31
0.0
  0
LINE
  5
4FD
  8
DETAIL
  6
CONTINUOUS
 62
     5
 10
-78.341734
 20
1117.941532
 30
0.0
 11
5.089718
 21
1117.941532
 31
0.0
  0
CIRCLE
  5
4FE
  8
DETAIL
  6
CONTINUOUS
 62
     5
 10
-115.566532
 20
814.354839
 30
0.0
 40
2.145665
  0
CIRCLE
  5
4FF
  8
DETAIL
  6
CONTINUOUS
 62
     5
 10
-115.566532
 20
814.354839
 30
0.0
 40
3.492944
  0
LINE
  5
500
  8
DETAIL
  6
CONTINUOUS
 62
     5
 10
-114.881918
 20
812.325968
 30
0.0
 11
-117.659463
 21
814.802221
 31
0.0
  0
ARC
  5
501
  8
DETAIL
  6
CONTINUOUS
 62
     5
 10
181.633065
 20
1052.773185
 30
0.0
 40
251.990927
 50
202.430942
 51
204.006189
  0
ARC
  5
502
  8
DETAIL
  6
CONTINUOUS
 62
     5
 10
181.633065
 20
1052.773185
 30
0.0
 40
253.986895
 50
202.241595
 51
203.807016
  0
ARC
  5
503
  8
DETAIL
  6
CONTINUOUS
 62
     5
 10
181.633065
 20
1052.773185
 30
0.0
 40
251.990927
 50
196.6482
 51
198.165303
  0
ARC
  5
504
  8
DETAIL
  6
CONTINUOUS
 62
     5
 10
181.633065
 20
1052.773185
 30
0.0
 40
251.990927
 50
191.03522
 51
192.514885
  0
ARC
  5
505
  8
DETAIL
  6
CONTINUOUS
 62
     5
 10
181.633065
 20
1052.773185
 30
0.0
 40
251.990927
 50
185.528129
 51
186.985711
  0
ARC
  5
506
  8
DETAIL
  6
CONTINUOUS
 62
     5
 10
181.633065
 20
1052.773185
 30
0.0
 40
253.986895
 50
196.511678
 51
198.018486
  0
ARC
  5
507
  8
DETAIL
  6
CONTINUOUS
 62
     5
 10
181.633065
 20
1052.773185
 30
0.0
 40
253.986895
 50
190.946457
 51
192.415184
  0
ARC
  5
508
  8
DETAIL
  6
CONTINUOUS
 62
     5
 10
181.633065
 20
1052.773185
 30
0.0
 40
253.986895
 50
185.484259
 51
186.93047
  0
LINE
  5
509
  8
DETAIL
  6
CONTINUOUS
 62
     5
 10
-61.620479
 20
1028.500487
 30
0.0
 11
-61.412814
 21
1026.09213
 31
0.0
  0
LINE
  5
50A
  8
DETAIL
  6
CONTINUOUS
 62
     5
 10
-61.412814
 20
1026.09213
 30
0.0
 11
-60.884882
 21
1022.135081
 31
0.0
  0
LINE
  5
50B
  8
DETAIL
  6
CONTINUOUS
 62
     5
 10
-61.903956
 20
1028.500487
 30
0.0
 11
-61.079215
 21
1022.135081
 31
0.0
  0
LINE
  5
50C
  8
DETAIL
  6
CONTINUOUS
 62
     5
 10
-51.952734
 20
980.597262
 30
0.0
 11
-49.856345
 21
974.231855
 31
0.0
  0
LINE
  5
50D
  8
DETAIL
  6
CONTINUOUS
 62
     5
 10
-58.119519
 20
1004.548875
 30
0.0
 11
-56.6826
 21
998.183468
 31
0.0
  0
LINE
  5
50E
  8
DETAIL
  6
CONTINUOUS
 62
     5
 10
-58.049152
 20
1004.548875
 30
0.0
 11
-57.879856
 21
1003.614359
 31
0.0
  0
LINE
  5
50F
  8
DETAIL
  6
CONTINUOUS
 62
     5
 10
-57.879856
 20
1003.614359
 30
0.0
 11
-56.623005
 21
998.183468
 31
0.0
  0
ARC
  5
510
  8
DETAIL
  6
CONTINUOUS
 62
     5
 10
181.633065
 20
1052.773185
 30
0.0
 40
251.990927
 50
180.073097
 51
181.521432
  0
ARC
  5
511
  8
DETAIL
  6
CONTINUOUS
 62
     5
 10
181.633065
 20
1052.773185
 30
0.0
 40
251.990927
 50
169.113137
 51
170.583909
  0
ARC
  5
512
  8
DETAIL
  6
CONTINUOUS
 62
     5
 10
181.633065
 20
1052.773185
 30
0.0
 40
251.990927
 50
174.618299
 51
176.070155
  0
ARC
  5
513
  8
DETAIL
  6
CONTINUOUS
 62
     5
 10
181.633065
 20
1052.773185
 30
0.0
 40
253.986895
 50
180.072516
 51
181.50938
  0
ARC
  5
514
  8
DETAIL
  6
CONTINUOUS
 62
     5
 10
181.633065
 20
1052.773185
 30
0.0
 40
253.986895
 50
169.200565
 51
170.65833
  0
ARC
  5
515
  8
DETAIL
  6
CONTINUOUS
 62
     5
 10
181.633065
 20
1052.773185
 30
0.0
 40
253.986895
 50
174.660976
 51
176.101115
  0
LINE
  5
516
  8
DETAIL
  6
CONTINUOUS
 62
     5
 10
-58.981442
 20
1100.355326
 30
0.0
 11
-59.466313
 21
1097.965176
 31
0.0
  0
LINE
  5
517
  8
DETAIL
  6
CONTINUOUS
 62
     5
 10
-59.466313
 20
1097.965176
 30
0.0
 11
-60.07895
 21
1093.989919
 31
0.0
  0
LINE
  5
518
  8
DETAIL
  6
CONTINUOUS
 62
     5
 10
-61.662994
 20
1076.403713
 30
0.0
 11
-62.128543
 21
1071.832624
 31
0.0
  0
LINE
  5
519
  8
DETAIL
  6
CONTINUOUS
 62
     5
 10
-62.128543
 20
1071.832624
 30
0.0
 11
-62.226459
 21
1070.038306
 31
0.0
  0
LINE
  5
51A
  8
DETAIL
  6
CONTINUOUS
 62
     5
 10
-62.305911
 20
1076.403713
 30
0.0
 11
-62.464788
 21
1074.906031
 31
0.0
  0
LINE
  5
51B
  8
DETAIL
  6
CONTINUOUS
 62
     5
 10
-62.464788
 20
1074.906031
 30
0.0
 11
-62.750858
 21
1070.038306
 31
0.0
  0
LINE
  5
51C
  8
DETAIL
  6
CONTINUOUS
 62
     5
 10
-58.129235
 20
1100.355326
 30
0.0
 11
-59.258991
 21
1094.657471
 31
0.0
  0
LINE
  5
51D
  8
DETAIL
  6
CONTINUOUS
 62
     5
 10
-59.258991
 20
1094.657471
 30
0.0
 11
-59.358929
 21
1093.989919
 31
0.0
  0
LINE
  5
51E
  8
DETAIL
  6
CONTINUOUS
 62
     5
 10
-62.814935
 20
1052.4521
 30
0.0
 11
-62.842113
 21
1048.891582
 31
0.0
  0
LINE
  5
51F
  8
DETAIL
  6
CONTINUOUS
 62
     5
 10
-62.842113
 20
1048.891582
 30
0.0
 11
-62.731941
 21
1046.086694
 31
0.0
  0
LINE
  5
520
  8
DETAIL
  6
CONTINUOUS
 62
     5
 10
-63.274596
 20
1052.4521
 30
0.0
 11
-63.283054
 21
1051.738436
 31
0.0
  0
LINE
  5
521
  8
DETAIL
  6
CONTINUOUS
 62
     5
 10
-63.283054
 20
1051.738436
 30
0.0
 11
-63.084021
 21
1046.086694
 31
0.0
  0
ARC
  5
522
  8
DETAIL
  6
CONTINUOUS
 62
     5
 10
181.633065
 20
1052.773185
 30
0.0
 40
251.990927
 50
298.087597
 51
301.023413
  0
ARC
  5
523
  8
DETAIL
  6
CONTINUOUS
 62
     5
 10
181.633065
 20
1052.773185
 30
0.0
 40
253.986895
 50
298.923775
 51
301.766606
  0
LINE
  5
524
  8
DETAIL
  6
CONTINUOUS
 62
     5
 10
270.353831
 20
806.570565
 30
0.0
 11
356.38004
 21
806.570565
 31
0.0
  0
LINE
  5
525
  8
DETAIL
  6
CONTINUOUS
 62
     5
 10
270.353831
 20
812.935971
 30
0.0
 11
356.38004
 21
812.935971
 31
0.0
  0
LINE
  5
526
  8
DETAIL
  6
CONTINUOUS
 62
     5
 10
270.353831
 20
830.522177
 30
0.0
 11
356.38004
 21
830.522177
 31
0.0
  0
LINE
  5
527
  8
DETAIL
  6
CONTINUOUS
 62
     5
 10
270.353831
 20
836.887584
 30
0.0
 11
356.38004
 21
836.887584
 31
0.0
  0
LINE
  5
528
  8
DETAIL
  6
CONTINUOUS
 62
     5
 10
270.353831
 20
854.47379
 30
0.0
 11
356.38004
 21
854.47379
 31
0.0
  0
LINE
  5
529
  8
DETAIL
  6
CONTINUOUS
 62
     5
 10
270.353831
 20
860.839197
 30
0.0
 11
356.38004
 21
860.839197
 31
0.0
  0
LINE
  5
52A
  8
DETAIL
  6
CONTINUOUS
 62
     5
 10
270.353831
 20
878.425403
 30
0.0
 11
356.38004
 21
878.425403
 31
0.0
  0
LINE
  5
52B
  8
DETAIL
  6
CONTINUOUS
 62
     5
 10
270.353831
 20
884.79081
 30
0.0
 11
356.38004
 21
884.79081
 31
0.0
  0
LINE
  5
52C
  8
DETAIL
  6
CONTINUOUS
 62
     5
 10
270.353831
 20
902.377016
 30
0.0
 11
356.38004
 21
902.377016
 31
0.0
  0
LINE
  5
52D
  8
DETAIL
  6
CONTINUOUS
 62
     5
 10
270.353831
 20
908.742423
 30
0.0
 11
356.38004
 21
908.742423
 31
0.0
  0
LINE
  5
52E
  8
DETAIL
  6
CONTINUOUS
 62
     5
 10
270.353831
 20
926.328629
 30
0.0
 11
356.38004
 21
926.328629
 31
0.0
  0
LINE
  5
52F
  8
DETAIL
  6
CONTINUOUS
 62
     5
 10
270.353831
 20
932.694036
 30
0.0
 11
356.38004
 21
932.694036
 31
0.0
  0
LINE
  5
530
  8
DETAIL
  6
CONTINUOUS
 62
     5
 10
270.353831
 20
950.280242
 30
0.0
 11
356.38004
 21
950.280242
 31
0.0
  0
LINE
  5
531
  8
DETAIL
  6
CONTINUOUS
 62
     5
 10
270.353831
 20
956.645649
 30
0.0
 11
356.38004
 21
956.645649
 31
0.0
  0
LINE
  5
532
  8
DETAIL
  6
CONTINUOUS
 62
     5
 10
94.708669
 20
806.570565
 30
0.0
 11
180.734879
 21
806.570565
 31
0.0
  0
LINE
  5
533
  8
DETAIL
  6
CONTINUOUS
 62
     5
 10
94.708669
 20
812.935971
 30
0.0
 11
180.734879
 21
812.935971
 31
0.0
  0
LINE
  5
534
  8
DETAIL
  6
CONTINUOUS
 62
     5
 10
94.708669
 20
830.522177
 30
0.0
 11
180.734879
 21
830.522177
 31
0.0
  0
LINE
  5
535
  8
DETAIL
  6
CONTINUOUS
 62
     5
 10
94.708669
 20
836.887584
 30
0.0
 11
180.734879
 21
836.887584
 31
0.0
  0
LINE
  5
536
  8
DETAIL
  6
CONTINUOUS
 62
     5
 10
94.708669
 20
854.47379
 30
0.0
 11
180.734879
 21
854.47379
 31
0.0
  0
LINE
  5
537
  8
DETAIL
  6
CONTINUOUS
 62
     5
 10
94.708669
 20
860.839197
 30
0.0
 11
180.734879
 21
860.839197
 31
0.0
  0
LINE
  5
538
  8
DETAIL
  6
CONTINUOUS
 62
     5
 10
133.575468
 20
854.47379
 30
0.0
 11
130.047066
 21
860.839197
 31
0.0
  0
ARC
  5
539
  8
DETAIL
  6
CONTINUOUS
 62
     5
 10
181.633065
 20
1052.773185
 30
0.0
 40
251.990927
 50
252.160871
 51
257.75342
  0
ARC
  5
53A
  8
DETAIL
  6
CONTINUOUS
 62
     5
 10
181.633065
 20
1052.773185
 30
0.0
 40
251.990927
 50
238.976587
 51
241.912403
  0
ARC
  5
53B
  8
DETAIL
  6
CONTINUOUS
 62
     5
 10
181.633065
 20
1052.773185
 30
0.0
 40
251.990927
 50
229.618813
 51
231.909511
  0
ARC
  5
53C
  8
DETAIL
  6
CONTINUOUS
 62
     5
 10
181.633065
 20
1052.773185
 30
0.0
 40
253.986895
 50
250.813937
 51
255.791518
  0
ARC
  5
53D
  8
DETAIL
  6
CONTINUOUS
 62
     5
 10
181.633065
 20
1052.773185
 30
0.0
 40
253.986895
 50
238.233394
 51
241.076225
  0
ARC
  5
53E
  8
DETAIL
  6
CONTINUOUS
 62
     5
 10
181.633065
 20
1052.773185
 30
0.0
 40
253.986895
 50
229.105013
 51
231.345459
  0
ARC
  5
53F
  8
DETAIL
  6
CONTINUOUS
 62
     5
 10
124.248992
 20
809.543997
 30
0.0
 40
9.979839
 50
160.103873
 51
177.232777
  0
LINE
  5
540
  8
DETAIL
  6
CONTINUOUS
 62
     5
 10
6.886089
 20
806.570565
 30
0.0
 11
92.912298
 21
806.570565
 31
0.0
  0
LINE
  5
541
  8
DETAIL
  6
CONTINUOUS
 62
     5
 10
6.886089
 20
812.935971
 30
0.0
 11
92.912298
 21
812.935971
 31
0.0
  0
LINE
  5
542
  8
DETAIL
  6
CONTINUOUS
 62
     5
 10
6.886089
 20
830.522177
 30
0.0
 11
92.912298
 21
830.522177
 31
0.0
  0
LINE
  5
543
  8
DETAIL
  6
CONTINUOUS
 62
     5
 10
6.886089
 20
836.887584
 30
0.0
 11
92.912298
 21
836.887584
 31
0.0
  0
LINE
  5
544
  8
DETAIL
  6
CONTINUOUS
 62
     5
 10
6.886089
 20
854.47379
 30
0.0
 11
92.912298
 21
854.47379
 31
0.0
  0
LINE
  5
545
  8
DETAIL
  6
CONTINUOUS
 62
     5
 10
6.886089
 20
860.839197
 30
0.0
 11
92.912298
 21
860.839197
 31
0.0
  0
ARC
  5
546
  8
DETAIL
  6
CONTINUOUS
 62
     5
 10
181.633065
 20
1052.773185
 30
0.0
 40
251.990927
 50
282.24658
 51
287.839129
  0
ARC
  5
547
  8
DETAIL
  6
CONTINUOUS
 62
     5
 10
181.633065
 20
1052.773185
 30
0.0
 40
253.986895
 50
284.208482
 51
289.186063
  0
ARC
  5
548
  8
DETAIL
  6
CONTINUOUS
 62
     5
 10
239.017137
 20
809.543997
 30
0.0
 40
9.979839
 50
2.767223
 51
19.896127
  0
LINE
  5
549
  8
DETAIL
  6
CONTINUOUS
 62
     5
 10
283.383056
 20
830.522177
 30
0.0
 11
287.916249
 21
832.575908
 31
0.0
  0
LINE
  5
54A
  8
DETAIL
  6
CONTINUOUS
 62
     5
 10
287.916249
 20
832.575908
 30
0.0
 11
296.317633
 21
836.887584
 31
0.0
  0
LINE
  5
54B
  8
DETAIL
  6
CONTINUOUS
 62
     5
 10
284.924317
 20
830.522177
 30
0.0
 11
285.499926
 21
830.780228
 31
0.0
  0
LINE
  5
54C
  8
DETAIL
  6
CONTINUOUS
 62
     5
 10
285.499926
 20
830.780228
 30
0.0
 11
296.281899
 21
836.26092
 31
0.0
  0
LINE
  5
54D
  8
DETAIL
  6
CONTINUOUS
 62
     5
 10
296.281899
 20
836.26092
 30
0.0
 11
297.378434
 21
836.887584
 31
0.0
  0
LINE
  5
54E
  8
DETAIL
  6
CONTINUOUS
 62
     5
 10
182.53125
 20
806.570565
 30
0.0
 11
268.55746
 21
806.570565
 31
0.0
  0
LINE
  5
54F
  8
DETAIL
  6
CONTINUOUS
 62
     5
 10
182.53125
 20
812.935971
 30
0.0
 11
268.55746
 21
812.935971
 31
0.0
  0
LINE
  5
550
  8
DETAIL
  6
CONTINUOUS
 62
     5
 10
182.53125
 20
830.522177
 30
0.0
 11
268.55746
 21
830.522177
 31
0.0
  0
LINE
  5
551
  8
DETAIL
  6
CONTINUOUS
 62
     5
 10
182.53125
 20
836.887584
 30
0.0
 11
268.55746
 21
836.887584
 31
0.0
  0
LINE
  5
552
  8
DETAIL
  6
CONTINUOUS
 62
     5
 10
182.53125
 20
854.47379
 30
0.0
 11
268.55746
 21
854.47379
 31
0.0
  0
LINE
  5
553
  8
DETAIL
  6
CONTINUOUS
 62
     5
 10
182.53125
 20
860.839197
 30
0.0
 11
268.55746
 21
860.839197
 31
0.0
  0
LINE
  5
554
  8
DETAIL
  6
CONTINUOUS
 62
     5
 10
219.942468
 20
836.887584
 30
0.0
 11
216.414065
 21
830.522177
 31
0.0
  0
LINE
  5
555
  8
DETAIL
  6
CONTINUOUS
 62
     5
 10
206.665872
 20
812.935971
 30
0.0
 11
203.137469
 21
806.570565
 31
0.0
  0
LINE
  5
556
  8
DETAIL
  6
CONTINUOUS
 62
     5
 10
225.958448
 20
806.570565
 30
0.0
 11
229.48685
 21
812.935971
 31
0.0
  0
LINE
  5
557
  8
DETAIL
  6
CONTINUOUS
 62
     5
 10
137.307682
 20
806.570565
 30
0.0
 11
133.779279
 21
812.935971
 31
0.0
  0
LINE
  5
558
  8
DETAIL
  6
CONTINUOUS
 62
     5
 10
160.12866
 20
806.570565
 30
0.0
 11
156.600257
 21
812.935971
 31
0.0
  0
LINE
  5
559
  8
DETAIL
  6
CONTINUOUS
 62
     5
 10
146.852064
 20
830.522177
 30
0.0
 11
143.323661
 21
836.887584
 31
0.0
  0
LINE
  5
55A
  8
DETAIL
  6
CONTINUOUS
 62
     5
 10
227.657266
 20
836.887584
 30
0.0
 11
233.554948
 21
830.522177
 31
0.0
  0
LINE
  5
55B
  8
DETAIL
  6
CONTINUOUS
 62
     5
 10
232.312965
 20
836.887584
 30
0.0
 11
238.159107
 21
830.522177
 31
0.0
  0
LINE
  5
55C
  8
DETAIL
  6
CONTINUOUS
 62
     5
 10
209.026559
 20
860.839197
 30
0.0
 11
212.881096
 21
855.260692
 31
0.0
  0
LINE
  5
55D
  8
DETAIL
  6
CONTINUOUS
 62
     5
 10
212.881096
 20
855.260692
 30
0.0
 11
213.479461
 21
854.47379
 31
0.0
  0
LINE
  5
55E
  8
DETAIL
  6
CONTINUOUS
 62
     5
 10
213.451891
 20
860.839197
 30
0.0
 11
216.089772
 21
856.969059
 31
0.0
  0
LINE
  5
55F
  8
DETAIL
  6
CONTINUOUS
 62
     5
 10
216.089772
 20
856.969059
 30
0.0
 11
217.96962
 21
854.47379
 31
0.0
  0
LINE
  5
560
  8
DETAIL
  6
CONTINUOUS
 62
     5
 10
94.708669
 20
878.425403
 30
0.0
 11
180.734879
 21
878.425403
 31
0.0
  0
LINE
  5
561
  8
DETAIL
  6
CONTINUOUS
 62
     5
 10
94.708669
 20
884.79081
 30
0.0
 11
180.734879
 21
884.79081
 31
0.0
  0
LINE
  5
562
  8
DETAIL
  6
CONTINUOUS
 62
     5
 10
94.708669
 20
902.377016
 30
0.0
 11
180.734879
 21
902.377016
 31
0.0
  0
LINE
  5
563
  8
DETAIL
  6
CONTINUOUS
 62
     5
 10
94.708669
 20
908.742423
 30
0.0
 11
180.734879
 21
908.742423
 31
0.0
  0
LINE
  5
564
  8
DETAIL
  6
CONTINUOUS
 62
     5
 10
94.708669
 20
926.328629
 30
0.0
 11
180.734879
 21
926.328629
 31
0.0
  0
LINE
  5
565
  8
DETAIL
  6
CONTINUOUS
 62
     5
 10
94.708669
 20
932.694036
 30
0.0
 11
180.734879
 21
932.694036
 31
0.0
  0
LINE
  5
566
  8
DETAIL
  6
CONTINUOUS
 62
     5
 10
94.708669
 20
950.280242
 30
0.0
 11
180.734879
 21
950.280242
 31
0.0
  0
LINE
  5
567
  8
DETAIL
  6
CONTINUOUS
 62
     5
 10
94.708669
 20
956.645649
 30
0.0
 11
180.734879
 21
956.645649
 31
0.0
  0
ARC
  5
568
  8
DETAIL
  6
CONTINUOUS
 62
     5
 10
181.633065
 20
1052.773185
 30
0.0
 40
251.990927
 50
221.822649
 51
223.784473
  0
ARC
  5
569
  8
DETAIL
  6
CONTINUOUS
 62
     5
 10
181.633065
 20
1052.773185
 30
0.0
 40
251.990927
 50
214.860242
 51
216.656133
  0
ARC
  5
56A
  8
DETAIL
  6
CONTINUOUS
 62
     5
 10
181.633065
 20
1052.773185
 30
0.0
 40
251.990927
 50
208.464747
 51
210.128007
  0
ARC
  5
56B
  8
DETAIL
  6
CONTINUOUS
 62
     5
 10
181.633065
 20
1052.773185
 30
0.0
 40
253.986895
 50
221.417421
 51
223.36513
  0
ARC
  5
56C
  8
DETAIL
  6
CONTINUOUS
 62
     5
 10
181.633065
 20
1052.773185
 30
0.0
 40
253.986895
 50
214.556577
 51
216.313185
  0
ARC
  5
56D
  8
DETAIL
  6
CONTINUOUS
 62
     5
 10
181.633065
 20
1052.773185
 30
0.0
 40
253.986895
 50
208.215873
 51
209.866444
  0
ARC
  5
56E
  8
DETAIL
  6
CONTINUOUS
 62
     5
 10
134.228831
 20
938.462639
 30
0.0
 40
19.959677
 50
114.243645
 51
143.657864
  0
LINE
  5
56F
  8
DETAIL
  6
CONTINUOUS
 62
     5
 10
42.543771
 20
932.694036
 30
0.0
 11
42.513416
 21
932.590113
 31
0.0
  0
LINE
  5
570
  8
DETAIL
  6
CONTINUOUS
 62
     5
 10
42.513416
 20
932.590113
 30
0.0
 11
41.029931
 21
926.328629
 31
0.0
  0
LINE
  5
571
  8
DETAIL
  6
CONTINUOUS
 62
     5
 10
50.581248
 20
956.645649
 30
0.0
 11
48.257254
 21
950.761666
 31
0.0
  0
LINE
  5
572
  8
DETAIL
  6
CONTINUOUS
 62
     5
 10
48.257254
 20
950.761666
 30
0.0
 11
48.091892
 21
950.280242
 31
0.0
  0
LINE
  5
573
  8
DETAIL
  6
CONTINUOUS
 62
     5
 10
35.680019
 20
884.79081
 30
0.0
 11
35.477517
 21
878.425403
 31
0.0
  0
LINE
  5
574
  8
DETAIL
  6
CONTINUOUS
 62
     5
 10
37.748511
 20
908.742423
 30
0.0
 11
36.923975
 21
902.377016
 31
0.0
  0
LINE
  5
575
  8
DETAIL
  6
CONTINUOUS
 62
     5
 10
6.886089
 20
878.425403
 30
0.0
 11
92.912298
 21
878.425403
 31
0.0
  0
LINE
  5
576
  8
DETAIL
  6
CONTINUOUS
 62
     5
 10
6.886089
 20
884.79081
 30
0.0
 11
92.912298
 21
884.79081
 31
0.0
  0
LINE
  5
577
  8
DETAIL
  6
CONTINUOUS
 62
     5
 10
6.886089
 20
902.377016
 30
0.0
 11
92.912298
 21
902.377016
 31
0.0
  0
LINE
  5
578
  8
DETAIL
  6
CONTINUOUS
 62
     5
 10
6.886089
 20
908.742423
 30
0.0
 11
92.912298
 21
908.742423
 31
0.0
  0
LINE
  5
579
  8
DETAIL
  6
CONTINUOUS
 62
     5
 10
-43.118117
 20
956.645649
 30
0.0
 11
-40.350164
 21
950.280242
 31
0.0
  0
LINE
  5
57A
  8
DETAIL
  6
CONTINUOUS
 62
     5
 10
114.269153
 20
902.377016
 30
0.0
 11
114.269153
 21
908.742423
 31
0.0
  0
LINE
  5
57B
  8
DETAIL
  6
CONTINUOUS
 62
     5
 10
114.269153
 20
926.328629
 30
0.0
 11
114.269153
 21
932.694036
 31
0.0
  0
LINE
  5
57C
  8
DETAIL
  6
CONTINUOUS
 62
     5
 10
6.886089
 20
926.328629
 30
0.0
 11
92.912298
 21
926.328629
 31
0.0
  0
LINE
  5
57D
  8
DETAIL
  6
CONTINUOUS
 62
     5
 10
6.886089
 20
932.694036
 30
0.0
 11
92.912298
 21
932.694036
 31
0.0
  0
LINE
  5
57E
  8
DETAIL
  6
CONTINUOUS
 62
     5
 10
6.886089
 20
950.280242
 30
0.0
 11
92.912298
 21
950.280242
 31
0.0
  0
LINE
  5
57F
  8
DETAIL
  6
CONTINUOUS
 62
     5
 10
6.886089
 20
956.645649
 30
0.0
 11
92.912298
 21
956.645649
 31
0.0
  0
LINE
  5
580
  8
DETAIL
  6
CONTINUOUS
 62
     5
 10
3.999414
 20
884.79081
 30
0.0
 11
5.089718
 21
883.678701
 31
0.0
  0
LINE
  5
581
  8
DETAIL
  6
CONTINUOUS
 62
     5
 10
6.886089
 20
881.846404
 30
0.0
 11
10.240014
 21
878.425403
 31
0.0
  0
LINE
  5
582
  8
DETAIL
  6
CONTINUOUS
 62
     5
 10
-15.882079
 20
908.742423
 30
0.0
 11
-11.245302
 21
902.502915
 31
0.0
  0
LINE
  5
583
  8
DETAIL
  6
CONTINUOUS
 62
     5
 10
-11.245302
 20
902.502915
 30
0.0
 11
-11.14253
 21
902.377016
 31
0.0
  0
LINE
  5
584
  8
DETAIL
  6
CONTINUOUS
 62
     5
 10
-31.299486
 20
932.694036
 30
0.0
 11
-29.945323
 21
930.227648
 31
0.0
  0
LINE
  5
585
  8
DETAIL
  6
CONTINUOUS
 62
     5
 10
-29.945323
 20
930.227648
 30
0.0
 11
-27.566438
 21
926.328629
 31
0.0
  0
LINE
  5
586
  8
DETAIL
  6
CONTINUOUS
 62
     5
 10
120.298872
 20
878.425403
 30
0.0
 11
116.77047
 21
884.79081
 31
0.0
  0
ARC
  5
587
  8
DETAIL
  6
CONTINUOUS
 62
     5
 10
181.633065
 20
1052.773185
 30
0.0
 40
103.790323
 50
247.869473
 51
261.055184
  0
LINE
  5
588
  8
DETAIL
  6
CONTINUOUS
 62
     5
 10
182.53125
 20
878.425403
 30
0.0
 11
268.55746
 21
878.425403
 31
0.0
  0
LINE
  5
589
  8
DETAIL
  6
CONTINUOUS
 62
     5
 10
182.53125
 20
884.79081
 30
0.0
 11
268.55746
 21
884.79081
 31
0.0
  0
LINE
  5
58A
  8
DETAIL
  6
CONTINUOUS
 62
     5
 10
182.53125
 20
902.377016
 30
0.0
 11
268.55746
 21
902.377016
 31
0.0
  0
LINE
  5
58B
  8
DETAIL
  6
CONTINUOUS
 62
     5
 10
182.53125
 20
908.742423
 30
0.0
 11
268.55746
 21
908.742423
 31
0.0
  0
LINE
  5
58C
  8
DETAIL
  6
CONTINUOUS
 62
     5
 10
182.53125
 20
926.328629
 30
0.0
 11
268.55746
 21
926.328629
 31
0.0
  0
LINE
  5
58D
  8
DETAIL
  6
CONTINUOUS
 62
     5
 10
182.53125
 20
932.694036
 30
0.0
 11
268.55746
 21
932.694036
 31
0.0
  0
LINE
  5
58E
  8
DETAIL
  6
CONTINUOUS
 62
     5
 10
182.53125
 20
950.280242
 30
0.0
 11
268.55746
 21
950.280242
 31
0.0
  0
LINE
  5
58F
  8
DETAIL
  6
CONTINUOUS
 62
     5
 10
182.53125
 20
956.645649
 30
0.0
 11
268.55746
 21
956.645649
 31
0.0
  0
LINE
  5
590
  8
DETAIL
  6
CONTINUOUS
 62
     5
 10
198.915419
 20
884.79081
 30
0.0
 11
202.407865
 21
878.425403
 31
0.0
  0
LINE
  5
591
  8
DETAIL
  6
CONTINUOUS
 62
     5
 10
194.618358
 20
884.79081
 30
0.0
 11
195.455618
 21
883.119289
 31
0.0
  0
LINE
  5
592
  8
DETAIL
  6
CONTINUOUS
 62
     5
 10
195.455618
 20
883.119289
 30
0.0
 11
198.090052
 21
878.425403
 31
0.0
  0
LINE
  5
593
  8
DETAIL
  6
CONTINUOUS
 62
     5
 10
183.838423
 20
908.742423
 30
0.0
 11
186.112825
 21
902.923473
 31
0.0
  0
LINE
  5
594
  8
DETAIL
  6
CONTINUOUS
 62
     5
 10
186.112825
 20
902.923473
 30
0.0
 11
186.355066
 21
902.377016
 31
0.0
  0
LINE
  5
595
  8
DETAIL
  6
CONTINUOUS
 62
     5
 10
188.12661
 20
908.742423
 30
0.0
 11
189.269801
 21
905.694939
 31
0.0
  0
LINE
  5
596
  8
DETAIL
  6
CONTINUOUS
 62
     5
 10
189.269801
 20
905.694939
 30
0.0
 11
190.693649
 21
902.377016
 31
0.0
  0
LINE
  5
597
  8
DETAIL
  6
CONTINUOUS
 62
     5
 10
176.02732
 20
932.694036
 30
0.0
 11
177.846801
 21
926.328629
 31
0.0
  0
LINE
  5
598
  8
DETAIL
  6
CONTINUOUS
 62
     5
 10
180.400583
 20
932.694036
 30
0.0
 11
180.734879
 21
931.445453
 31
0.0
  0
LINE
  5
599
  8
DETAIL
  6
CONTINUOUS
 62
     5
 10
175.473045
 20
956.645649
 30
0.0
 11
176.533988
 21
950.280242
 31
0.0
  0
LINE
  5
59A
  8
DETAIL
  6
CONTINUOUS
 62
     5
 10
171.15319
 20
956.645649
 30
0.0
 11
171.410689
 21
954.70161
 31
0.0
  0
LINE
  5
59B
  8
DETAIL
  6
CONTINUOUS
 62
     5
 10
171.410689
 20
954.70161
 30
0.0
 11
172.217445
 21
950.280242
 31
0.0
  0
ARC
  5
59C
  8
DETAIL
  6
CONTINUOUS
 62
     5
 10
181.633065
 20
1052.773185
 30
0.0
 40
251.990927
 50
308.090489
 51
310.381187
  0
ARC
  5
59D
  8
DETAIL
  6
CONTINUOUS
 62
     5
 10
181.633065
 20
1052.773185
 30
0.0
 40
253.986895
 50
308.654541
 51
310.894987
  0
LINE
  5
59E
  8
DETAIL
  6
CONTINUOUS
 62
     5
 10
358.176411
 20
806.570565
 30
0.0
 11
441.607863
 21
806.570565
 31
0.0
  0
LINE
  5
59F
  8
DETAIL
  6
CONTINUOUS
 62
     5
 10
358.176411
 20
812.935971
 30
0.0
 11
441.607863
 21
812.935971
 31
0.0
  0
LINE
  5
5A0
  8
DETAIL
  6
CONTINUOUS
 62
     5
 10
358.176411
 20
830.522177
 30
0.0
 11
441.607863
 21
830.522177
 31
0.0
  0
LINE
  5
5A1
  8
DETAIL
  6
CONTINUOUS
 62
     5
 10
358.176411
 20
836.887584
 30
0.0
 11
441.607863
 21
836.887584
 31
0.0
  0
LINE
  5
5A2
  8
DETAIL
  6
CONTINUOUS
 62
     5
 10
324.551671
 20
854.47379
 30
0.0
 11
328.689949
 21
857.433862
 31
0.0
  0
LINE
  5
5A3
  8
DETAIL
  6
CONTINUOUS
 62
     5
 10
328.689949
 20
857.433862
 30
0.0
 11
332.991212
 21
860.839197
 31
0.0
  0
LINE
  5
5A4
  8
DETAIL
  6
CONTINUOUS
 62
     5
 10
325.004188
 20
854.47379
 30
0.0
 11
326.778867
 21
855.733845
 31
0.0
  0
LINE
  5
5A5
  8
DETAIL
  6
CONTINUOUS
 62
     5
 10
326.778867
 20
855.733845
 30
0.0
 11
333.272958
 21
860.839197
 31
0.0
  0
LINE
  5
5A6
  8
DETAIL
  6
CONTINUOUS
 62
     5
 10
358.176411
 20
854.47379
 30
0.0
 11
441.607863
 21
854.47379
 31
0.0
  0
LINE
  5
5A7
  8
DETAIL
  6
CONTINUOUS
 62
     5
 10
358.176411
 20
860.839197
 30
0.0
 11
441.607863
 21
860.839197
 31
0.0
  0
ARC
  5
5A8
  8
DETAIL
  6
CONTINUOUS
 62
     5
 10
181.633065
 20
1052.773185
 30
0.0
 40
251.990927
 50
335.993811
 51
337.569058
  0
ARC
  5
5A9
  8
DETAIL
  6
CONTINUOUS
 62
     5
 10
181.633065
 20
1052.773185
 30
0.0
 40
251.990927
 50
329.871993
 51
331.535253
  0
ARC
  5
5AA
  8
DETAIL
  6
CONTINUOUS
 62
     5
 10
181.633065
 20
1052.773185
 30
0.0
 40
251.990927
 50
323.343867
 51
325.139758
  0
ARC
  5
5AB
  8
DETAIL
  6
CONTINUOUS
 62
     5
 10
181.633065
 20
1052.773185
 30
0.0
 40
251.990927
 50
316.215527
 51
318.177351
  0
ARC
  5
5AC
  8
DETAIL
  6
CONTINUOUS
 62
     5
 10
181.633065
 20
1052.773185
 30
0.0
 40
253.986895
 50
336.192984
 51
337.758405
  0
ARC
  5
5AD
  8
DETAIL
  6
CONTINUOUS
 62
     5
 10
181.633065
 20
1052.773185
 30
0.0
 40
253.986895
 50
330.133556
 51
331.784127
  0
ARC
  5
5AE
  8
DETAIL
  6
CONTINUOUS
 62
     5
 10
181.633065
 20
1052.773185
 30
0.0
 40
253.986895
 50
323.686815
 51
325.443423
  0
ARC
  5
5AF
  8
DETAIL
  6
CONTINUOUS
 62
     5
 10
181.633065
 20
1052.773185
 30
0.0
 40
253.986895
 50
316.63487
 51
318.582579
  0
LINE
  5
5B0
  8
DETAIL
  6
CONTINUOUS
 62
     5
 10
358.176411
 20
878.425403
 30
0.0
 11
441.607863
 21
878.425403
 31
0.0
  0
LINE
  5
5B1
  8
DETAIL
  6
CONTINUOUS
 62
     5
 10
358.176411
 20
884.79081
 30
0.0
 11
441.607863
 21
884.79081
 31
0.0
  0
LINE
  5
5B2
  8
DETAIL
  6
CONTINUOUS
 62
     5
 10
358.176411
 20
902.377016
 30
0.0
 11
441.607863
 21
902.377016
 31
0.0
  0
LINE
  5
5B3
  8
DETAIL
  6
CONTINUOUS
 62
     5
 10
358.176411
 20
908.742423
 30
0.0
 11
441.607863
 21
908.742423
 31
0.0
  0
LINE
  5
5B4
  8
DETAIL
  6
CONTINUOUS
 62
     5
 10
358.176411
 20
883.703167
 30
0.0
 11
359.201058
 21
884.79081
 31
0.0
  0
LINE
  5
5B5
  8
DETAIL
  6
CONTINUOUS
 62
     5
 10
353.053726
 20
878.425403
 30
0.0
 11
355.503426
 21
880.865842
 31
0.0
  0
LINE
  5
5B6
  8
DETAIL
  6
CONTINUOUS
 62
     5
 10
355.503426
 20
880.865842
 30
0.0
 11
356.38004
 21
881.796352
 31
0.0
  0
LINE
  5
5B7
  8
DETAIL
  6
CONTINUOUS
 62
     5
 10
358.176411
 20
926.328629
 30
0.0
 11
441.607863
 21
926.328629
 31
0.0
  0
LINE
  5
5B8
  8
DETAIL
  6
CONTINUOUS
 62
     5
 10
358.176411
 20
932.694036
 30
0.0
 11
441.607863
 21
932.694036
 31
0.0
  0
LINE
  5
5B9
  8
DETAIL
  6
CONTINUOUS
 62
     5
 10
358.176411
 20
950.280242
 30
0.0
 11
441.607863
 21
950.280242
 31
0.0
  0
LINE
  5
5BA
  8
DETAIL
  6
CONTINUOUS
 62
     5
 10
358.176411
 20
956.645649
 30
0.0
 11
441.607863
 21
956.645649
 31
0.0
  0
LINE
  5
5BB
  8
DETAIL
  6
CONTINUOUS
 62
     5
 10
374.324903
 20
902.377016
 30
0.0
 11
378.462803
 21
907.717817
 31
0.0
  0
LINE
  5
5BC
  8
DETAIL
  6
CONTINUOUS
 62
     5
 10
378.462803
 20
907.717817
 30
0.0
 11
379.180601
 21
908.742423
 31
0.0
  0
LINE
  5
5BD
  8
DETAIL
  6
CONTINUOUS
 62
     5
 10
390.876802
 20
926.328629
 30
0.0
 11
391.467654
 21
927.26482
 31
0.0
  0
LINE
  5
5BE
  8
DETAIL
  6
CONTINUOUS
 62
     5
 10
391.467654
 20
927.26482
 30
0.0
 11
394.540957
 21
932.694036
 31
0.0
  0
LINE
  5
5BF
  8
DETAIL
  6
CONTINUOUS
 62
     5
 10
403.566785
 20
950.280242
 30
0.0
 11
406.406527
 21
956.645649
 31
0.0
  0
LINE
  5
5C0
  8
DETAIL
  6
CONTINUOUS
 62
     5
 10
270.353831
 20
974.231855
 30
0.0
 11
356.38004
 21
974.231855
 31
0.0
  0
LINE
  5
5C1
  8
DETAIL
  6
CONTINUOUS
 62
     5
 10
270.353831
 20
980.597262
 30
0.0
 11
356.38004
 21
980.597262
 31
0.0
  0
LINE
  5
5C2
  8
DETAIL
  6
CONTINUOUS
 62
     5
 10
270.353831
 20
998.183468
 30
0.0
 11
356.38004
 21
998.183468
 31
0.0
  0
LINE
  5
5C3
  8
DETAIL
  6
CONTINUOUS
 62
     5
 10
270.353831
 20
1004.548875
 30
0.0
 11
356.38004
 21
1004.548875
 31
0.0
  0
LINE
  5
5C4
  8
DETAIL
  6
CONTINUOUS
 62
     5
 10
270.353831
 20
1022.135081
 30
0.0
 11
356.38004
 21
1022.135081
 31
0.0
  0
LINE
  5
5C5
  8
DETAIL
  6
CONTINUOUS
 62
     5
 10
270.353831
 20
1028.500487
 30
0.0
 11
356.38004
 21
1028.500487
 31
0.0
  0
LINE
  5
5C6
  8
DETAIL
  6
CONTINUOUS
 62
     5
 10
270.353831
 20
1046.086694
 30
0.0
 11
356.38004
 21
1046.086694
 31
0.0
  0
LINE
  5
5C7
  8
DETAIL
  6
CONTINUOUS
 62
     5
 10
270.353831
 20
1052.4521
 30
0.0
 11
356.38004
 21
1052.4521
 31
0.0
  0
LINE
  5
5C8
  8
DETAIL
  6
CONTINUOUS
 62
     5
 10
270.353831
 20
1070.038306
 30
0.0
 11
356.38004
 21
1070.038306
 31
0.0
  0
LINE
  5
5C9
  8
DETAIL
  6
CONTINUOUS
 62
     5
 10
270.353831
 20
1076.403713
 30
0.0
 11
356.38004
 21
1076.403713
 31
0.0
  0
LINE
  5
5CA
  8
DETAIL
  6
CONTINUOUS
 62
     5
 10
270.353831
 20
1093.989919
 30
0.0
 11
356.38004
 21
1093.989919
 31
0.0
  0
LINE
  5
5CB
  8
DETAIL
  6
CONTINUOUS
 62
     5
 10
270.353831
 20
1100.355326
 30
0.0
 11
356.38004
 21
1100.355326
 31
0.0
  0
LINE
  5
5CC
  8
DETAIL
  6
CONTINUOUS
 62
     5
 10
270.353831
 20
1117.941532
 30
0.0
 11
356.38004
 21
1117.941532
 31
0.0
  0
ARC
  5
5CD
  8
DETAIL
  6
CONTINUOUS
 62
     5
 10
181.633065
 20
1052.773185
 30
0.0
 40
73.351815
 50
221.144651
 51
228.093582
  0
LINE
  5
5CE
  8
DETAIL
  6
CONTINUOUS
 62
     5
 10
94.708669
 20
974.231855
 30
0.0
 11
180.734879
 21
974.231855
 31
0.0
  0
LINE
  5
5CF
  8
DETAIL
  6
CONTINUOUS
 62
     5
 10
94.708669
 20
980.597262
 30
0.0
 11
180.734879
 21
980.597262
 31
0.0
  0
LINE
  5
5D0
  8
DETAIL
  6
CONTINUOUS
 62
     5
 10
94.708669
 20
998.183468
 30
0.0
 11
180.734879
 21
998.183468
 31
0.0
  0
LINE
  5
5D1
  8
DETAIL
  6
CONTINUOUS
 62
     5
 10
94.708669
 20
1004.548875
 30
0.0
 11
180.734879
 21
1004.548875
 31
0.0
  0
LINE
  5
5D2
  8
DETAIL
  6
CONTINUOUS
 62
     5
 10
94.708669
 20
1022.135081
 30
0.0
 11
180.734879
 21
1022.135081
 31
0.0
  0
LINE
  5
5D3
  8
DETAIL
  6
CONTINUOUS
 62
     5
 10
94.708669
 20
1028.500487
 30
0.0
 11
180.734879
 21
1028.500487
 31
0.0
  0
ARC
  5
5D4
  8
DETAIL
  6
CONTINUOUS
 62
     5
 10
181.633065
 20
1052.773185
 30
0.0
 40
73.351815
 50
199.328899
 51
204.691983
  0
LINE
  5
5D5
  8
DETAIL
  6
CONTINUOUS
 62
     5
 10
62.516439
 20
980.597262
 30
0.0
 11
61.415293
 21
978.752596
 31
0.0
  0
LINE
  5
5D6
  8
DETAIL
  6
CONTINUOUS
 62
     5
 10
61.415293
 20
978.752596
 30
0.0
 11
59.050423
 21
974.545352
 31
0.0
  0
LINE
  5
5D7
  8
DETAIL
  6
CONTINUOUS
 62
     5
 10
59.050423
 20
974.545352
 30
0.0
 11
58.886385
 21
974.231855
 31
0.0
  0
LINE
  5
5D8
  8
DETAIL
  6
CONTINUOUS
 62
     5
 10
89.00378
 20
1004.548875
 30
0.0
 11
86.704985
 21
1004.245737
 31
0.0
  0
LINE
  5
5D9
  8
DETAIL
  6
CONTINUOUS
 62
     5
 10
86.704985
 20
1004.245737
 30
0.0
 11
84.460055
 21
1003.762971
 31
0.0
  0
LINE
  5
5DA
  8
DETAIL
  6
CONTINUOUS
 62
     5
 10
84.460055
 20
1003.762971
 30
0.0
 11
82.426883
 21
1003.140811
 31
0.0
  0
LINE
  5
5DB
  8
DETAIL
  6
CONTINUOUS
 62
     5
 10
82.426883
 20
1003.140811
 30
0.0
 11
80.556136
 21
1002.36934
 31
0.0
  0
LINE
  5
5DC
  8
DETAIL
  6
CONTINUOUS
 62
     5
 10
80.556136
 20
1002.36934
 30
0.0
 11
78.83313
 21
1001.436372
 31
0.0
  0
LINE
  5
5DD
  8
DETAIL
  6
CONTINUOUS
 62
     5
 10
78.83313
 20
1001.436372
 30
0.0
 11
77.231426
 21
1000.323193
 31
0.0
  0
LINE
  5
5DE
  8
DETAIL
  6
CONTINUOUS
 62
     5
 10
77.231426
 20
1000.323193
 30
0.0
 11
75.721092
 21
999.018989
 31
0.0
  0
LINE
  5
5DF
  8
DETAIL
  6
CONTINUOUS
 62
     5
 10
75.721092
 20
999.018989
 30
0.0
 11
74.909774
 21
998.183468
 31
0.0
  0
LINE
  5
5E0
  8
DETAIL
  6
CONTINUOUS
 62
     5
 10
6.886089
 20
974.231855
 30
0.0
 11
92.912298
 21
974.231855
 31
0.0
  0
LINE
  5
5E1
  8
DETAIL
  6
CONTINUOUS
 62
     5
 10
6.886089
 20
980.597262
 30
0.0
 11
92.912298
 21
980.597262
 31
0.0
  0
LINE
  5
5E2
  8
DETAIL
  6
CONTINUOUS
 62
     5
 10
6.886089
 20
998.183468
 30
0.0
 11
92.912298
 21
998.183468
 31
0.0
  0
LINE
  5
5E3
  8
DETAIL
  6
CONTINUOUS
 62
     5
 10
6.886089
 20
1004.548875
 30
0.0
 11
92.912298
 21
1004.548875
 31
0.0
  0
LINE
  5
5E4
  8
DETAIL
  6
CONTINUOUS
 62
     5
 10
6.886089
 20
1022.135081
 30
0.0
 11
92.912298
 21
1022.135081
 31
0.0
  0
LINE
  5
5E5
  8
DETAIL
  6
CONTINUOUS
 62
     5
 10
6.886089
 20
1028.500487
 30
0.0
 11
92.912298
 21
1028.500487
 31
0.0
  0
LINE
  5
5E6
  8
DETAIL
  6
CONTINUOUS
 62
     5
 10
131.243251
 20
999.468819
 30
0.0
 11
124.303706
 21
1000.282988
 31
0.0
  0
LINE
  5
5E7
  8
DETAIL
  6
CONTINUOUS
 62
     5
 10
124.303706
 20
1000.282988
 30
0.0
 11
118.038794
 21
1001.235417
 31
0.0
  0
LINE
  5
5E8
  8
DETAIL
  6
CONTINUOUS
 62
     5
 10
118.038794
 20
1001.235417
 30
0.0
 11
112.468752
 21
1002.203132
 31
0.0
  0
LINE
  5
5E9
  8
DETAIL
  6
CONTINUOUS
 62
     5
 10
112.468752
 20
1002.203132
 30
0.0
 11
107.485522
 21
1003.094603
 31
0.0
  0
LINE
  5
5EA
  8
DETAIL
  6
CONTINUOUS
 62
     5
 10
107.485522
 20
1003.094603
 30
0.0
 11
102.985535
 21
1003.832895
 31
0.0
  0
LINE
  5
5EB
  8
DETAIL
  6
CONTINUOUS
 62
     5
 10
102.985535
 20
1003.832895
 30
0.0
 11
98.921208
 21
1004.363944
 31
0.0
  0
LINE
  5
5EC
  8
DETAIL
  6
CONTINUOUS
 62
     5
 10
98.921208
 20
1004.363944
 30
0.0
 11
96.67838
 21
1004.548875
 31
0.0
  0
LINE
  5
5ED
  8
DETAIL
  6
CONTINUOUS
 62
     5
 10
265.291035
 20
1004.548875
 30
0.0
 11
266.4372
 21
1002.115437
 31
0.0
  0
LINE
  5
5EE
  8
DETAIL
  6
CONTINUOUS
 62
     5
 10
266.4372
 20
1002.115437
 30
0.0
 11
267.995975
 21
999.275205
 31
0.0
  0
LINE
  5
5EF
  8
DETAIL
  6
CONTINUOUS
 62
     5
 10
267.995975
 20
999.275205
 30
0.0
 11
268.55746
 21
998.409978
 31
0.0
  0
LINE
  5
5F0
  8
DETAIL
  6
CONTINUOUS
 62
     5
 10
256.095473
 20
1028.500487
 30
0.0
 11
258.045132
 21
1023.515907
 31
0.0
  0
LINE
  5
5F1
  8
DETAIL
  6
CONTINUOUS
 62
     5
 10
258.045132
 20
1023.515907
 30
0.0
 11
258.551882
 21
1022.135081
 31
0.0
  0
ARC
  5
5F2
  8
DETAIL
  6
CONTINUOUS
 62
     5
 10
181.633065
 20
1052.773185
 30
0.0
 40
73.351815
 50
260.140545
 51
269.328173
  0
ARC
  5
5F3
  8
DETAIL
  6
CONTINUOUS
 62
     5
 10
181.633065
 20
1052.773185
 30
0.0
 40
73.351815
 50
270.702412
 51
280.254036
  0
ARC
  5
5F4
  8
DETAIL
  6
CONTINUOUS
 62
     5
 10
181.633065
 20
1052.773185
 30
0.0
 40
73.351815
 50
311.82775
 51
318.835445
  0
ARC
  5
5F5
  8
DETAIL
  6
CONTINUOUS
 62
     5
 10
181.633065
 20
1052.773185
 30
0.0
 40
73.351815
 50
335.277668
 51
340.651535
  0
ARC
  5
5F6
  8
DETAIL
  6
CONTINUOUS
 62
     5
 10
144.208669
 20
987.952232
 30
0.0
 40
9.979839
 50
227.498869
 51
240.0
  0
LINE
  5
5F7
  8
DETAIL
  6
CONTINUOUS
 62
     5
 10
173.189499
 20
979.908963
 30
0.0
 11
168.824644
 21
979.515939
 31
0.0
  0
LINE
  5
5F8
  8
DETAIL
  6
CONTINUOUS
 62
     5
 10
182.53125
 20
974.231855
 30
0.0
 11
268.55746
 21
974.231855
 31
0.0
  0
LINE
  5
5F9
  8
DETAIL
  6
CONTINUOUS
 62
     5
 10
182.53125
 20
980.597262
 30
0.0
 11
268.55746
 21
980.597262
 31
0.0
  0
LINE
  5
5FA
  8
DETAIL
  6
CONTINUOUS
 62
     5
 10
182.53125
 20
998.183468
 30
0.0
 11
268.55746
 21
998.183468
 31
0.0
  0
LINE
  5
5FB
  8
DETAIL
  6
CONTINUOUS
 62
     5
 10
182.53125
 20
1004.548875
 30
0.0
 11
268.55746
 21
1004.548875
 31
0.0
  0
LINE
  5
5FC
  8
DETAIL
  6
CONTINUOUS
 62
     5
 10
182.53125
 20
1022.135081
 30
0.0
 11
268.55746
 21
1022.135081
 31
0.0
  0
LINE
  5
5FD
  8
DETAIL
  6
CONTINUOUS
 62
     5
 10
182.53125
 20
1028.500487
 30
0.0
 11
268.55746
 21
1028.500487
 31
0.0
  0
LINE
  5
5FE
  8
DETAIL
  6
CONTINUOUS
 62
     5
 10
168.824644
 20
979.515939
 30
0.0
 11
169.239048
 21
974.231855
 31
0.0
  0
LINE
  5
5FF
  8
DETAIL
  6
CONTINUOUS
 62
     5
 10
173.189499
 20
979.908963
 30
0.0
 11
173.579466
 21
974.231855
 31
0.0
  0
LINE
  5
600
  8
DETAIL
  6
CONTINUOUS
 62
     5
 10
139.21875
 20
979.309438
 30
0.0
 11
148.013382
 21
974.231855
 31
0.0
  0
LINE
  5
601
  8
DETAIL
  6
CONTINUOUS
 62
     5
 10
94.708669
 20
1046.086694
 30
0.0
 11
180.734879
 21
1046.086694
 31
0.0
  0
LINE
  5
602
  8
DETAIL
  6
CONTINUOUS
 62
     5
 10
94.708669
 20
1052.4521
 30
0.0
 11
180.734879
 21
1052.4521
 31
0.0
  0
LINE
  5
603
  8
DETAIL
  6
CONTINUOUS
 62
     5
 10
94.708669
 20
1070.038306
 30
0.0
 11
180.734879
 21
1070.038306
 31
0.0
  0
LINE
  5
604
  8
DETAIL
  6
CONTINUOUS
 62
     5
 10
94.708669
 20
1076.403713
 30
0.0
 11
180.734879
 21
1076.403713
 31
0.0
  0
LINE
  5
605
  8
DETAIL
  6
CONTINUOUS
 62
     5
 10
94.708669
 20
1093.989919
 30
0.0
 11
180.734879
 21
1093.989919
 31
0.0
  0
LINE
  5
606
  8
DETAIL
  6
CONTINUOUS
 62
     5
 10
94.708669
 20
1100.355326
 30
0.0
 11
180.734879
 21
1100.355326
 31
0.0
  0
LINE
  5
607
  8
DETAIL
  6
CONTINUOUS
 62
     5
 10
94.708669
 20
1117.941532
 30
0.0
 11
180.734879
 21
1117.941532
 31
0.0
  0
LINE
  5
608
  8
DETAIL
  6
CONTINUOUS
 62
     5
 10
61.013241
 20
1117.941532
 30
0.0
 11
50.437232
 21
1119.699267
 31
0.0
  0
LINE
  5
609
  8
DETAIL
  6
CONTINUOUS
 62
     5
 10
50.437232
 20
1119.699267
 30
0.0
 11
39.424062
 21
1121.007312
 31
0.0
  0
LINE
  5
60A
  8
DETAIL
  6
CONTINUOUS
 62
     5
 10
39.424062
 20
1121.007312
 30
0.0
 11
28.4246
 21
1121.777552
 31
0.0
  0
LINE
  5
60B
  8
DETAIL
  6
CONTINUOUS
 62
     5
 10
28.4246
 20
1121.777552
 30
0.0
 11
17.588682
 21
1122.013805
 31
0.0
  0
LINE
  5
60C
  8
DETAIL
  6
CONTINUOUS
 62
     5
 10
17.588682
 20
1122.013805
 30
0.0
 11
6.886089
 21
1121.714304
 31
0.0
  0
LINE
  5
60D
  8
DETAIL
  6
CONTINUOUS
 62
     5
 10
79.349405
 20
1117.941532
 30
0.0
 11
70.734453
 21
1120.09694
 31
0.0
  0
LINE
  5
60E
  8
DETAIL
  6
CONTINUOUS
 62
     5
 10
70.734453
 20
1120.09694
 30
0.0
 11
60.310954
 21
1122.191847
 31
0.0
  0
LINE
  5
60F
  8
DETAIL
  6
CONTINUOUS
 62
     5
 10
122.75258
 20
1096.517639
 30
0.0
 11
114.907794
 21
1100.355326
 31
0.0
  0
ARC
  5
610
  8
DETAIL
  6
CONTINUOUS
 62
     5
 10
181.633065
 20
1052.773185
 30
0.0
 40
73.351815
 50
180.251035
 51
185.236466
  0
ARC
  5
611
  8
DETAIL
  6
CONTINUOUS
 62
     5
 10
181.633065
 20
1052.773185
 30
0.0
 40
73.351815
 50
161.18178
 51
166.366992
  0
ARC
  5
612
  8
DETAIL
  6
CONTINUOUS
 62
     5
 10
181.633065
 20
1052.773185
 30
0.0
 40
73.351815
 50
139.510344
 51
145.784072
  0
LINE
  5
613
  8
DETAIL
  6
CONTINUOUS
 62
     5
 10
122.75258
 20
1096.517639
 30
0.0
 11
124.530296
 21
1100.355326
 31
0.0
  0
LINE
  5
614
  8
DETAIL
  6
CONTINUOUS
 62
     5
 10
-16.287608
 20
1123.037214
 30
0.0
 11
-27.741178
 21
1120.994441
 31
0.0
  0
LINE
  5
615
  8
DETAIL
  6
CONTINUOUS
 62
     5
 10
-27.741178
 20
1120.994441
 30
0.0
 11
-39.345143
 21
1118.354694
 31
0.0
  0
LINE
  5
616
  8
DETAIL
  6
CONTINUOUS
 62
     5
 10
-39.345143
 20
1118.354694
 30
0.0
 11
-40.825828
 21
1117.941532
 31
0.0
  0
LINE
  5
617
  8
DETAIL
  6
CONTINUOUS
 62
     5
 10
6.886089
 20
1046.086694
 30
0.0
 11
92.912298
 21
1046.086694
 31
0.0
  0
LINE
  5
618
  8
DETAIL
  6
CONTINUOUS
 62
     5
 10
6.886089
 20
1052.4521
 30
0.0
 11
92.912298
 21
1052.4521
 31
0.0
  0
LINE
  5
619
  8
DETAIL
  6
CONTINUOUS
 62
     5
 10
6.886089
 20
1070.038306
 30
0.0
 11
92.912298
 21
1070.038306
 31
0.0
  0
LINE
  5
61A
  8
DETAIL
  6
CONTINUOUS
 62
     5
 10
6.886089
 20
1076.403713
 30
0.0
 11
92.912298
 21
1076.403713
 31
0.0
  0
LINE
  5
61B
  8
DETAIL
  6
CONTINUOUS
 62
     5
 10
6.886089
 20
1093.989919
 30
0.0
 11
92.912298
 21
1093.989919
 31
0.0
  0
LINE
  5
61C
  8
DETAIL
  6
CONTINUOUS
 62
     5
 10
6.886089
 20
1100.355326
 30
0.0
 11
92.912298
 21
1100.355326
 31
0.0
  0
LINE
  5
61D
  8
DETAIL
  6
CONTINUOUS
 62
     5
 10
5.089718
 20
1121.601989
 30
0.0
 11
-5.172049
 21
1120.834337
 31
0.0
  0
LINE
  5
61E
  8
DETAIL
  6
CONTINUOUS
 62
     5
 10
-5.172049
 20
1120.834337
 30
0.0
 11
-16.288245
 21
1119.470426
 31
0.0
  0
LINE
  5
61F
  8
DETAIL
  6
CONTINUOUS
 62
     5
 10
-16.288245
 20
1119.470426
 30
0.0
 11
-25.101875
 21
1117.941532
 31
0.0
  0
LINE
  5
620
  8
DETAIL
  6
CONTINUOUS
 62
     5
 10
6.886089
 20
1117.941532
 30
0.0
 11
92.912298
 21
1117.941532
 31
0.0
  0
ARC
  5
621
  8
DETAIL
  6
CONTINUOUS
 62
     5
 10
181.633065
 20
1052.773185
 30
0.0
 40
3.991935
 50
283.007052
 51
355.381643
  0
ARC
  5
622
  8
DETAIL
  6
CONTINUOUS
 62
     5
 10
181.633065
 20
1052.773185
 30
0.0
 40
3.991935
 50
184.618357
 51
256.992948
  0
ARC
  5
623
  8
DETAIL
  6
CONTINUOUS
 62
     5
 10
181.633065
 20
1052.773185
 30
0.0
 40
73.351815
 50
34.234861
 51
40.495538
  0
ARC
  5
624
  8
DETAIL
  6
CONTINUOUS
 62
     5
 10
181.633065
 20
1052.773185
 30
0.0
 40
73.351815
 50
13.618172
 51
18.797091
  0
ARC
  5
625
  8
DETAIL
  6
CONTINUOUS
 62
     5
 10
181.633065
 20
1052.773185
 30
0.0
 40
73.351815
 50
354.766679
 51
359.748916
  0
ARC
  5
626
  8
DETAIL
  6
CONTINUOUS
 62
     5
 10
181.633065
 20
1052.773185
 30
0.0
 40
4.091734
 50
184.518761
 51
257.278982
  0
ARC
  5
627
  8
DETAIL
  6
CONTINUOUS
 62
     5
 10
181.633065
 20
1052.773185
 30
0.0
 40
4.091734
 50
282.730853
 51
355.50167
  0
LINE
  5
628
  8
DETAIL
  6
CONTINUOUS
 62
     5
 10
266.009707
 20
1093.989919
 30
0.0
 11
267.989418
 21
1095.484523
 31
0.0
  0
LINE
  5
629
  8
DETAIL
  6
CONTINUOUS
 62
     5
 10
267.989418
 20
1095.484523
 30
0.0
 11
268.55746
 21
1095.960043
 31
0.0
  0
LINE
  5
62A
  8
DETAIL
  6
CONTINUOUS
 62
     5
 10
270.353831
 20
1097.463825
 30
0.0
 11
273.807928
 21
1100.355326
 31
0.0
  0
LINE
  5
62B
  8
DETAIL
  6
CONTINUOUS
 62
     5
 10
272.940488
 20
1093.989919
 30
0.0
 11
273.056137
 21
1094.079802
 31
0.0
  0
LINE
  5
62C
  8
DETAIL
  6
CONTINUOUS
 62
     5
 10
273.056137
 20
1094.079802
 30
0.0
 11
280.286763
 21
1100.355326
 31
0.0
  0
LINE
  5
62D
  8
DETAIL
  6
CONTINUOUS
 62
     5
 10
297.84009
 20
1117.941532
 30
0.0
 11
299.756033
 21
1120.020872
 31
0.0
  0
LINE
  5
62E
  8
DETAIL
  6
CONTINUOUS
 62
     5
 10
292.309052
 20
1117.941532
 30
0.0
 11
293.582695
 21
1119.253007
 31
0.0
  0
LINE
  5
62F
  8
DETAIL
  6
CONTINUOUS
 62
     5
 10
182.53125
 20
1046.086694
 30
0.0
 11
268.55746
 21
1046.086694
 31
0.0
  0
LINE
  5
630
  8
DETAIL
  6
CONTINUOUS
 62
     5
 10
182.53125
 20
1052.4521
 30
0.0
 11
268.55746
 21
1052.4521
 31
0.0
  0
LINE
  5
631
  8
DETAIL
  6
CONTINUOUS
 62
     5
 10
182.53125
 20
1070.038306
 30
0.0
 11
268.55746
 21
1070.038306
 31
0.0
  0
LINE
  5
632
  8
DETAIL
  6
CONTINUOUS
 62
     5
 10
182.53125
 20
1076.403713
 30
0.0
 11
268.55746
 21
1076.403713
 31
0.0
  0
LINE
  5
633
  8
DETAIL
  6
CONTINUOUS
 62
     5
 10
182.53125
 20
1093.989919
 30
0.0
 11
268.55746
 21
1093.989919
 31
0.0
  0
LINE
  5
634
  8
DETAIL
  6
CONTINUOUS
 62
     5
 10
182.53125
 20
1100.355326
 30
0.0
 11
268.55746
 21
1100.355326
 31
0.0
  0
LINE
  5
635
  8
DETAIL
  6
CONTINUOUS
 62
     5
 10
182.53125
 20
1117.941532
 30
0.0
 11
268.55746
 21
1117.941532
 31
0.0
  0
LINE
  5
636
  8
DETAIL
  6
CONTINUOUS
 62
     5
 10
419.898865
 20
998.183468
 30
0.0
 11
420.979145
 21
1002.808057
 31
0.0
  0
LINE
  5
637
  8
DETAIL
  6
CONTINUOUS
 62
     5
 10
420.979145
 20
1002.808057
 30
0.0
 11
421.299908
 21
1004.548875
 31
0.0
  0
ARC
  5
638
  8
DETAIL
  6
CONTINUOUS
 62
     5
 10
181.633065
 20
1052.773185
 30
0.0
 40
251.990927
 50
353.014289
 51
354.471871
  0
ARC
  5
639
  8
DETAIL
  6
CONTINUOUS
 62
     5
 10
181.633065
 20
1052.773185
 30
0.0
 40
251.990927
 50
347.485115
 51
348.96478
  0
ARC
  5
63A
  8
DETAIL
  6
CONTINUOUS
 62
     5
 10
181.633065
 20
1052.773185
 30
0.0
 40
251.990927
 50
341.834697
 51
343.3518
  0
ARC
  5
63B
  8
DETAIL
  6
CONTINUOUS
 62
     5
 10
181.633065
 20
1052.773185
 30
0.0
 40
253.986895
 50
353.06953
 51
354.515741
  0
ARC
  5
63C
  8
DETAIL
  6
CONTINUOUS
 62
     5
 10
181.633065
 20
1052.773185
 30
0.0
 40
253.986895
 50
347.584816
 51
349.053543
  0
ARC
  5
63D
  8
DETAIL
  6
CONTINUOUS
 62
     5
 10
181.633065
 20
1052.773185
 30
0.0
 40
253.986895
 50
341.981514
 51
343.488322
  0
LINE
  5
63E
  8
DETAIL
  6
CONTINUOUS
 62
     5
 10
373.198722
 20
998.183468
 30
0.0
 11
375.113364
 21
998.860173
 31
0.0
  0
LINE
  5
63F
  8
DETAIL
  6
CONTINUOUS
 62
     5
 10
375.113364
 20
998.860173
 30
0.0
 11
385.094059
 21
1002.999996
 31
0.0
  0
LINE
  5
640
  8
DETAIL
  6
CONTINUOUS
 62
     5
 10
385.094059
 20
1002.999996
 30
0.0
 11
388.365267
 21
1004.548875
 31
0.0
  0
LINE
  5
641
  8
DETAIL
  6
CONTINUOUS
 62
     5
 10
358.176411
 20
974.231855
 30
0.0
 11
441.607863
 21
974.231855
 31
0.0
  0
LINE
  5
642
  8
DETAIL
  6
CONTINUOUS
 62
     5
 10
358.176411
 20
980.597262
 30
0.0
 11
441.607863
 21
980.597262
 31
0.0
  0
LINE
  5
643
  8
DETAIL
  6
CONTINUOUS
 62
     5
 10
358.176411
 20
998.183468
 30
0.0
 11
441.607863
 21
998.183468
 31
0.0
  0
LINE
  5
644
  8
DETAIL
  6
CONTINUOUS
 62
     5
 10
358.176411
 20
1004.548875
 30
0.0
 11
441.607863
 21
1004.548875
 31
0.0
  0
LINE
  5
645
  8
DETAIL
  6
CONTINUOUS
 62
     5
 10
358.176411
 20
1022.135081
 30
0.0
 11
441.607863
 21
1022.135081
 31
0.0
  0
LINE
  5
646
  8
DETAIL
  6
CONTINUOUS
 62
     5
 10
358.176411
 20
1028.500487
 30
0.0
 11
441.607863
 21
1028.500487
 31
0.0
  0
LINE
  5
647
  8
DETAIL
  6
CONTINUOUS
 62
     5
 10
413.109066
 20
974.231855
 30
0.0
 11
415.170162
 21
980.360152
 31
0.0
  0
LINE
  5
648
  8
DETAIL
  6
CONTINUOUS
 62
     5
 10
415.170162
 20
980.360152
 30
0.0
 11
415.237553
 21
980.597262
 31
0.0
  0
ARC
  5
649
  8
DETAIL
  6
CONTINUOUS
 62
     5
 10
181.633065
 20
1052.773185
 30
0.0
 40
251.990927
 50
358.478568
 51
359.926903
  0
ARC
  5
64A
  8
DETAIL
  6
CONTINUOUS
 62
     5
 10
181.633065
 20
1052.773185
 30
0.0
 40
251.990927
 50
3.929845
 51
5.381701
  0
ARC
  5
64B
  8
DETAIL
  6
CONTINUOUS
 62
     5
 10
181.633065
 20
1052.773185
 30
0.0
 40
251.990927
 50
9.416091
 51
10.886863
  0
ARC
  5
64C
  8
DETAIL
  6
CONTINUOUS
 62
     5
 10
181.633065
 20
1052.773185
 30
0.0
 40
253.986895
 50
358.49062
 51
359.927484
  0
ARC
  5
64D
  8
DETAIL
  6
CONTINUOUS
 62
     5
 10
181.633065
 20
1052.773185
 30
0.0
 40
253.986895
 50
3.898885
 51
5.339024
  0
ARC
  5
64E
  8
DETAIL
  6
CONTINUOUS
 62
     5
 10
181.633065
 20
1052.773185
 30
0.0
 40
253.986895
 50
9.34167
 51
10.799435
  0
LINE
  5
64F
  8
DETAIL
  6
CONTINUOUS
 62
     5
 10
358.176411
 20
1046.086694
 30
0.0
 11
441.607863
 21
1046.086694
 31
0.0
  0
LINE
  5
650
  8
DETAIL
  6
CONTINUOUS
 62
     5
 10
358.176411
 20
1052.4521
 30
0.0
 11
441.607863
 21
1052.4521
 31
0.0
  0
LINE
  5
651
  8
DETAIL
  6
CONTINUOUS
 62
     5
 10
358.176411
 20
1070.038306
 30
0.0
 11
441.607863
 21
1070.038306
 31
0.0
  0
LINE
  5
652
  8
DETAIL
  6
CONTINUOUS
 62
     5
 10
358.176411
 20
1076.403713
 30
0.0
 11
441.607863
 21
1076.403713
 31
0.0
  0
LINE
  5
653
  8
DETAIL
  6
CONTINUOUS
 62
     5
 10
358.176411
 20
1093.989919
 30
0.0
 11
441.607863
 21
1093.989919
 31
0.0
  0
LINE
  5
654
  8
DETAIL
  6
CONTINUOUS
 62
     5
 10
358.176411
 20
1100.355326
 30
0.0
 11
441.607863
 21
1100.355326
 31
0.0
  0
LINE
  5
655
  8
DETAIL
  6
CONTINUOUS
 62
     5
 10
358.176411
 20
1117.941532
 30
0.0
 11
441.607863
 21
1117.941532
 31
0.0
  0
LINE
  5
656
  8
DETAIL
  6
CONTINUOUS
 62
     5
 10
-78.341734
 20
1148.258552
 30
0.0
 11
5.089718
 21
1148.258552
 31
0.0
  0
LINE
  5
657
  8
DETAIL
  6
CONTINUOUS
 62
     5
 10
-78.341734
 20
1165.844758
 30
0.0
 11
5.089718
 21
1165.844758
 31
0.0
  0
LINE
  5
658
  8
DETAIL
  6
CONTINUOUS
 62
     5
 10
-78.341734
 20
1172.210165
 30
0.0
 11
5.089718
 21
1172.210165
 31
0.0
  0
LINE
  5
659
  8
DETAIL
  6
CONTINUOUS
 62
     5
 10
-78.341734
 20
1189.796371
 30
0.0
 11
5.089718
 21
1189.796371
 31
0.0
  0
LINE
  5
65A
  8
DETAIL
  6
CONTINUOUS
 62
     5
 10
-78.341734
 20
1196.161778
 30
0.0
 11
5.089718
 21
1196.161778
 31
0.0
  0
LINE
  5
65B
  8
DETAIL
  6
CONTINUOUS
 62
     5
 10
-78.341734
 20
1213.747984
 30
0.0
 11
5.089718
 21
1213.747984
 31
0.0
  0
LINE
  5
65C
  8
DETAIL
  6
CONTINUOUS
 62
     5
 10
-78.341734
 20
1220.113391
 30
0.0
 11
5.089718
 21
1220.113391
 31
0.0
  0
LINE
  5
65D
  8
DETAIL
  6
CONTINUOUS
 62
     5
 10
-78.341734
 20
1237.699597
 30
0.0
 11
5.089718
 21
1237.699597
 31
0.0
  0
LINE
  5
65E
  8
DETAIL
  6
CONTINUOUS
 62
     5
 10
-78.341734
 20
1244.065004
 30
0.0
 11
5.089718
 21
1244.065004
 31
0.0
  0
LINE
  5
65F
  8
DETAIL
  6
CONTINUOUS
 62
     5
 10
-78.341734
 20
1261.65121
 30
0.0
 11
5.089718
 21
1261.65121
 31
0.0
  0
LINE
  5
660
  8
DETAIL
  6
CONTINUOUS
 62
     5
 10
-78.341734
 20
1268.016616
 30
0.0
 11
5.089718
 21
1268.016616
 31
0.0
  0
LINE
  5
661
  8
DETAIL
  6
CONTINUOUS
 62
     5
 10
-78.341734
 20
1285.602823
 30
0.0
 11
5.089718
 21
1285.602823
 31
0.0
  0
LINE
  5
662
  8
DETAIL
  6
CONTINUOUS
 62
     5
 10
5.089718
 20
1303.566532
 30
0.0
 11
-60.378024
 21
1303.566532
 31
0.0
  0
LINE
  5
663
  8
DETAIL
  6
CONTINUOUS
 62
     5
 10
423.644153
 20
1328.516129
 30
0.0
 11
-60.378024
 21
1328.516129
 31
0.0
  0
LINE
  5
664
  8
DETAIL
  6
CONTINUOUS
 62
     5
 10
-105.78629
 20
1330.512097
 30
0.0
 11
469.052419
 21
1330.512097
 31
0.0
  0
LINE
  5
665
  8
DETAIL
  6
CONTINUOUS
 62
     5
 10
-495.0
 20
1332.308468
 30
0.0
 11
495.0
 21
1332.308468
 31
0.0
  0
LINE
  5
666
  8
DETAIL
  6
CONTINUOUS
 62
     5
 10
494.002016
 20
1375.0
 30
0.0
 11
-494.002016
 21
1375.0
 31
0.0
  0
ARC
  5
667
  8
DETAIL
  6
CONTINUOUS
 62
     5
 10
181.633065
 20
1052.773185
 30
0.0
 40
253.986895
 50
151.948616
 51
153.556478
  0
LINE
  5
668
  8
DETAIL
  6
CONTINUOUS
 62
     5
 10
-78.341734
 20
1124.306939
 30
0.0
 11
5.089718
 21
1124.306939
 31
0.0
  0
LINE
  5
669
  8
DETAIL
  6
CONTINUOUS
 62
     5
 10
-78.341734
 20
1141.893145
 30
0.0
 11
5.089718
 21
1141.893145
 31
0.0
  0
ARC
  5
66A
  8
DETAIL
  6
CONTINUOUS
 62
     5
 10
-60.378024
 20
1285.602823
 30
0.0
 40
17.96371
 50
90.0
 51
180.0
  0
ARC
  5
66B
  8
DETAIL
  6
CONTINUOUS
 62
     5
 10
-60.378024
 20
1285.602823
 30
0.0
 40
42.913306
 50
90.0
 51
180.0
  0
ARC
  5
66C
  8
DETAIL
  6
CONTINUOUS
 62
     5
 10
181.633065
 20
1052.773185
 30
0.0
 40
251.990927
 50
157.726322
 51
159.285202
  0
ARC
  5
66D
  8
DETAIL
  6
CONTINUOUS
 62
     5
 10
181.633065
 20
1052.773185
 30
0.0
 40
253.986895
 50
157.913658
 51
159.453132
  0
LINE
  5
66E
  8
DETAIL
  6
CONTINUOUS
 62
     5
 10
-494.002016
 20
1375.0
 30
0.0
 11
-494.002016
 21
1374.002016
 31
0.0
  0
LINE
  5
66F
  8
DETAIL
  6
CONTINUOUS
 62
     5
 10
-494.002016
 20
1374.002016
 30
0.0
 11
-495.0
 21
1374.002016
 31
0.0
  0
ARC
  5
670
  8
DETAIL
  6
CONTINUOUS
 62
     5
 10
-494.002016
 20
1374.002016
 30
0.0
 40
0.199597
 50
90.0
 51
180.0
  0
LINE
  5
671
  8
DETAIL
  6
CONTINUOUS
 62
     5
 10
-495.0
 20
1374.002016
 30
0.0
 11
-495.0
 21
1332.308468
 31
0.0
  0
CIRCLE
  5
672
  8
DETAIL
  6
CONTINUOUS
 62
     5
 10
-299.694556
 20
1347.278226
 30
0.0
 40
3.492944
  0
CIRCLE
  5
673
  8
DETAIL
  6
CONTINUOUS
 62
     5
 10
-299.694556
 20
1347.278226
 30
0.0
 40
2.295363
  0
LINE
  5
674
  8
DETAIL
  6
CONTINUOUS
 62
     5
 10
-71.355847
 20
1292.58871
 30
0.0
 11
-76.927714
 21
1292.58871
 31
0.0
  0
LINE
  5
675
  8
DETAIL
  6
CONTINUOUS
 62
     5
 10
-104.511694
 20
1328.687087
 30
0.0
 11
-104.671226
 21
1328.665827
 31
0.0
  0
LINE
  5
676
  8
DETAIL
  6
CONTINUOUS
 62
     5
 10
-104.671226
 20
1328.665827
 30
0.0
 11
-104.843765
 21
1328.640877
 31
0.0
  0
LINE
  5
677
  8
DETAIL
  6
CONTINUOUS
 62
     5
 10
-104.843765
 20
1328.640877
 30
0.0
 11
-104.994996
 21
1328.615927
 31
0.0
  0
LINE
  5
678
  8
DETAIL
  6
CONTINUOUS
 62
     5
 10
-104.994996
 20
1328.615927
 30
0.0
 11
-105.119108
 21
1328.590978
 31
0.0
  0
LINE
  5
679
  8
DETAIL
  6
CONTINUOUS
 62
     5
 10
-105.119108
 20
1328.590978
 30
0.0
 11
-105.211331
 21
1328.566028
 31
0.0
  0
LINE
  5
67A
  8
DETAIL
  6
CONTINUOUS
 62
     5
 10
-105.211331
 20
1328.566028
 30
0.0
 11
-105.268122
 21
1328.541079
 31
0.0
  0
LINE
  5
67B
  8
DETAIL
  6
CONTINUOUS
 62
     5
 10
-105.268122
 20
1328.541079
 30
0.0
 11
-105.287298
 21
1328.516129
 31
0.0
  0
LINE
  5
67C
  8
DETAIL
  6
CONTINUOUS
 62
     5
 10
-104.289315
 20
1328.715726
 30
0.0
 11
-104.511694
 21
1328.687087
 31
0.0
  0
LINE
  5
67D
  8
DETAIL
  6
CONTINUOUS
 62
     5
 10
-104.289315
 20
1328.715726
 30
0.0
 11
-102.973407
 21
1328.715726
 31
0.0
  0
LINE
  5
67E
  8
DETAIL
  6
CONTINUOUS
 62
     5
 10
-104.289315
 20
1329.514113
 30
0.0
 11
-101.875104
 21
1329.514113
 31
0.0
  0
ARC
  5
67F
  8
DETAIL
  6
CONTINUOUS
 62
     5
 10
-98.301411
 20
1323.52621
 30
0.0
 40
6.985887
 50
90.0
 51
180.0
  0
CIRCLE
  5
680
  8
DETAIL
  6
CONTINUOUS
 62
     5
 10
-97.303427
 20
1322.528226
 30
0.0
 40
2.993952
  0
ARC
  5
681
  8
DETAIL
  6
CONTINUOUS
 62
     5
 10
-71.355847
 20
1296.580645
 30
0.0
 40
3.991935
 50
270.0
 51
0.0
  0
ARC
  5
682
  8
DETAIL
  6
CONTINUOUS
 62
     5
 10
-104.289315
 20
1328.516129
 30
0.0
 40
0.997984
 50
90.0
 51
180.0
  0
CIRCLE
  5
683
  8
DETAIL
  6
CONTINUOUS
 62
     5
 10
-97.303427
 20
1322.528226
 30
0.0
 40
1.995968
  0
LINE
  5
684
  8
DETAIL
  6
CONTINUOUS
 62
     5
 10
-105.287298
 20
1323.52621
 30
0.0
 11
-105.287298
 21
1328.516129
 31
0.0
  0
LINE
  5
685
  8
DETAIL
  6
CONTINUOUS
 62
     5
 10
-104.289315
 20
1329.514113
 30
0.0
 11
-104.289315
 21
1328.715726
 31
0.0
  0
LINE
  5
686
  8
DETAIL
  6
CONTINUOUS
 62
     5
 10
-67.363911
 20
1302.152513
 30
0.0
 11
-67.363911
 21
1296.580645
 31
0.0
  0
LINE
  5
687
  8
DETAIL
  6
CONTINUOUS
 62
     5
 10
130.326642
 20
1291.835655
 30
0.0
 11
118.159655
 21
1288.896677
 31
0.0
  0
LINE
  5
688
  8
DETAIL
  6
CONTINUOUS
 62
     5
 10
247.133841
 20
1288.341924
 30
0.0
 11
241.242553
 21
1289.901399
 31
0.0
  0
ARC
  5
689
  8
DETAIL
  6
CONTINUOUS
 62
     5
 10
181.633065
 20
1052.773185
 30
0.0
 40
253.986895
 50
66.484827
 51
69.549622
  0
ARC
  5
68A
  8
DETAIL
  6
CONTINUOUS
 62
     5
 10
181.633065
 20
1052.773185
 30
0.0
 40
253.986895
 50
110.450378
 51
113.515173
  0
ARC
  5
68B
  8
DETAIL
  6
CONTINUOUS
 62
     5
 10
423.644153
 20
1285.602823
 30
0.0
 40
17.96371
 50
0.0
 51
90.0
  0
ARC
  5
68C
  8
DETAIL
  6
CONTINUOUS
 62
     5
 10
423.644153
 20
1285.602823
 30
0.0
 40
42.913306
 50
0.0
 51
90.0
  0
LINE
  5
68D
  8
DETAIL
  6
CONTINUOUS
 62
     5
 10
114.269153
 20
1287.743153
 30
0.0
 11
114.269153
 21
1295.514447
 31
0.0
  0
LINE
  5
68E
  8
DETAIL
  6
CONTINUOUS
 62
     5
 10
248.996976
 20
1295.514447
 30
0.0
 11
248.996976
 21
1287.812196
 31
0.0
  0
LINE
  5
68F
  8
DETAIL
  6
CONTINUOUS
 62
     5
 10
270.353831
 20
1148.258552
 30
0.0
 11
356.38004
 21
1148.258552
 31
0.0
  0
LINE
  5
690
  8
DETAIL
  6
CONTINUOUS
 62
     5
 10
270.353831
 20
1165.844758
 30
0.0
 11
356.38004
 21
1165.844758
 31
0.0
  0
LINE
  5
691
  8
DETAIL
  6
CONTINUOUS
 62
     5
 10
270.353831
 20
1172.210165
 30
0.0
 11
356.38004
 21
1172.210165
 31
0.0
  0
LINE
  5
692
  8
DETAIL
  6
CONTINUOUS
 62
     5
 10
270.353831
 20
1189.796371
 30
0.0
 11
356.38004
 21
1189.796371
 31
0.0
  0
LINE
  5
693
  8
DETAIL
  6
CONTINUOUS
 62
     5
 10
270.353831
 20
1196.161778
 30
0.0
 11
356.38004
 21
1196.161778
 31
0.0
  0
LINE
  5
694
  8
DETAIL
  6
CONTINUOUS
 62
     5
 10
270.353831
 20
1213.747984
 30
0.0
 11
356.38004
 21
1213.747984
 31
0.0
  0
LINE
  5
695
  8
DETAIL
  6
CONTINUOUS
 62
     5
 10
270.353831
 20
1220.113391
 30
0.0
 11
356.38004
 21
1220.113391
 31
0.0
  0
LINE
  5
696
  8
DETAIL
  6
CONTINUOUS
 62
     5
 10
270.353831
 20
1237.699597
 30
0.0
 11
356.38004
 21
1237.699597
 31
0.0
  0
LINE
  5
697
  8
DETAIL
  6
CONTINUOUS
 62
     5
 10
270.353831
 20
1244.065004
 30
0.0
 11
356.38004
 21
1244.065004
 31
0.0
  0
LINE
  5
698
  8
DETAIL
  6
CONTINUOUS
 62
     5
 10
270.353831
 20
1261.65121
 30
0.0
 11
356.38004
 21
1261.65121
 31
0.0
  0
LINE
  5
699
  8
DETAIL
  6
CONTINUOUS
 62
     5
 10
270.353831
 20
1268.016616
 30
0.0
 11
356.38004
 21
1268.016616
 31
0.0
  0
LINE
  5
69A
  8
DETAIL
  6
CONTINUOUS
 62
     5
 10
270.353831
 20
1285.602823
 30
0.0
 11
356.38004
 21
1285.602823
 31
0.0
  0
LINE
  5
69B
  8
DETAIL
  6
CONTINUOUS
 62
     5
 10
270.353831
 20
1124.306939
 30
0.0
 11
356.38004
 21
1124.306939
 31
0.0
  0
LINE
  5
69C
  8
DETAIL
  6
CONTINUOUS
 62
     5
 10
270.353831
 20
1141.893145
 30
0.0
 11
356.38004
 21
1141.893145
 31
0.0
  0
LINE
  5
69D
  8
DETAIL
  6
CONTINUOUS
 62
     5
 10
94.708669
 20
1148.258552
 30
0.0
 11
180.734879
 21
1148.258552
 31
0.0
  0
LINE
  5
69E
  8
DETAIL
  6
CONTINUOUS
 62
     5
 10
94.708669
 20
1165.844758
 30
0.0
 11
180.734879
 21
1165.844758
 31
0.0
  0
LINE
  5
69F
  8
DETAIL
  6
CONTINUOUS
 62
     5
 10
94.708669
 20
1172.210165
 30
0.0
 11
180.734879
 21
1172.210165
 31
0.0
  0
LINE
  5
6A0
  8
DETAIL
  6
CONTINUOUS
 62
     5
 10
94.708669
 20
1189.796371
 30
0.0
 11
180.734879
 21
1189.796371
 31
0.0
  0
LINE
  5
6A1
  8
DETAIL
  6
CONTINUOUS
 62
     5
 10
94.708669
 20
1196.161778
 30
0.0
 11
180.734879
 21
1196.161778
 31
0.0
  0
LINE
  5
6A2
  8
DETAIL
  6
CONTINUOUS
 62
     5
 10
94.708669
 20
1124.306939
 30
0.0
 11
180.734879
 21
1124.306939
 31
0.0
  0
LINE
  5
6A3
  8
DETAIL
  6
CONTINUOUS
 62
     5
 10
94.708669
 20
1141.893145
 30
0.0
 11
180.734879
 21
1141.893145
 31
0.0
  0
LINE
  5
6A4
  8
DETAIL
  6
CONTINUOUS
 62
     5
 10
6.886089
 20
1148.258552
 30
0.0
 11
92.912298
 21
1148.258552
 31
0.0
  0
LINE
  5
6A5
  8
DETAIL
  6
CONTINUOUS
 62
     5
 10
6.886089
 20
1165.844758
 30
0.0
 11
92.912298
 21
1165.844758
 31
0.0
  0
LINE
  5
6A6
  8
DETAIL
  6
CONTINUOUS
 62
     5
 10
49.613577
 20
1123.81923
 30
0.0
 11
45.043216
 21
1124.306939
 31
0.0
  0
LINE
  5
6A7
  8
DETAIL
  6
CONTINUOUS
 62
     5
 10
6.886089
 20
1172.210165
 30
0.0
 11
92.912298
 21
1172.210165
 31
0.0
  0
LINE
  5
6A8
  8
DETAIL
  6
CONTINUOUS
 62
     5
 10
6.886089
 20
1189.796371
 30
0.0
 11
92.912298
 21
1189.796371
 31
0.0
  0
LINE
  5
6A9
  8
DETAIL
  6
CONTINUOUS
 62
     5
 10
6.886089
 20
1196.161778
 30
0.0
 11
92.912298
 21
1196.161778
 31
0.0
  0
ARC
  5
6AA
  8
DETAIL
  6
CONTINUOUS
 62
     5
 10
181.633065
 20
1052.773185
 30
0.0
 40
251.990927
 50
145.315329
 51
147.049028
  0
ARC
  5
6AB
  8
DETAIL
  6
CONTINUOUS
 62
     5
 10
181.633065
 20
1052.773185
 30
0.0
 40
251.990927
 50
151.700006
 51
153.333292
  0
ARC
  5
6AC
  8
DETAIL
  6
CONTINUOUS
 62
     5
 10
181.633065
 20
1052.773185
 30
0.0
 40
253.986895
 50
145.620632
 51
147.340596
  0
ARC
  5
6AD
  8
DETAIL
  6
CONTINUOUS
 62
     5
 10
134.228831
 20
1157.293833
 30
0.0
 40
19.959677
 50
206.942467
 51
230.554095
  0
LINE
  5
6AE
  8
DETAIL
  6
CONTINUOUS
 62
     5
 10
114.269153
 20
1165.844758
 30
0.0
 11
114.269153
 21
1172.210165
 31
0.0
  0
LINE
  5
6AF
  8
DETAIL
  6
CONTINUOUS
 62
     5
 10
114.269153
 20
1189.796371
 30
0.0
 11
114.269153
 21
1196.161778
 31
0.0
  0
LINE
  5
6B0
  8
DETAIL
  6
CONTINUOUS
 62
     5
 10
6.886089
 20
1124.306939
 30
0.0
 11
92.912298
 21
1124.306939
 31
0.0
  0
LINE
  5
6B1
  8
DETAIL
  6
CONTINUOUS
 62
     5
 10
6.886089
 20
1141.893145
 30
0.0
 11
92.912298
 21
1141.893145
 31
0.0
  0
LINE
  5
6B2
  8
DETAIL
  6
CONTINUOUS
 62
     5
 10
182.53125
 20
1148.258552
 30
0.0
 11
268.55746
 21
1148.258552
 31
0.0
  0
LINE
  5
6B3
  8
DETAIL
  6
CONTINUOUS
 62
     5
 10
182.53125
 20
1165.844758
 30
0.0
 11
268.55746
 21
1165.844758
 31
0.0
  0
LINE
  5
6B4
  8
DETAIL
  6
CONTINUOUS
 62
     5
 10
182.53125
 20
1172.210165
 30
0.0
 11
268.55746
 21
1172.210165
 31
0.0
  0
LINE
  5
6B5
  8
DETAIL
  6
CONTINUOUS
 62
     5
 10
182.53125
 20
1189.796371
 30
0.0
 11
268.55746
 21
1189.796371
 31
0.0
  0
LINE
  5
6B6
  8
DETAIL
  6
CONTINUOUS
 62
     5
 10
182.53125
 20
1196.161778
 30
0.0
 11
268.55746
 21
1196.161778
 31
0.0
  0
LINE
  5
6B7
  8
DETAIL
  6
CONTINUOUS
 62
     5
 10
179.912784
 20
1189.796371
 30
0.0
 11
179.578606
 21
1190.426074
 31
0.0
  0
LINE
  5
6B8
  8
DETAIL
  6
CONTINUOUS
 62
     5
 10
179.578606
 20
1190.426074
 30
0.0
 11
177.313059
 21
1194.459358
 31
0.0
  0
LINE
  5
6B9
  8
DETAIL
  6
CONTINUOUS
 62
     5
 10
177.313059
 20
1194.459358
 30
0.0
 11
176.292688
 21
1196.161778
 31
0.0
  0
ARC
  5
6BA
  8
DETAIL
  6
CONTINUOUS
 62
     5
 10
181.633065
 20
1052.773185
 30
0.0
 40
94.808468
 50
90.840505
 51
109.887579
  0
LINE
  5
6BB
  8
DETAIL
  6
CONTINUOUS
 62
     5
 10
175.732637
 20
1141.893145
 30
0.0
 11
176.497017
 21
1142.802524
 31
0.0
  0
LINE
  5
6BC
  8
DETAIL
  6
CONTINUOUS
 62
     5
 10
176.497017
 20
1142.802524
 30
0.0
 11
179.493589
 21
1146.524592
 31
0.0
  0
LINE
  5
6BD
  8
DETAIL
  6
CONTINUOUS
 62
     5
 10
179.493589
 20
1146.524592
 30
0.0
 11
180.734879
 21
1148.205147
 31
0.0
  0
LINE
  5
6BE
  8
DETAIL
  6
CONTINUOUS
 62
     5
 10
188.542268
 20
1165.844758
 30
0.0
 11
188.547074
 21
1165.884673
 31
0.0
  0
LINE
  5
6BF
  8
DETAIL
  6
CONTINUOUS
 62
     5
 10
188.547074
 20
1165.884673
 30
0.0
 11
188.545812
 21
1168.090146
 31
0.0
  0
LINE
  5
6C0
  8
DETAIL
  6
CONTINUOUS
 62
     5
 10
188.545812
 20
1168.090146
 30
0.0
 11
188.269382
 21
1170.280577
 31
0.0
  0
LINE
  5
6C1
  8
DETAIL
  6
CONTINUOUS
 62
     5
 10
188.269382
 20
1170.280577
 30
0.0
 11
187.806486
 21
1172.210165
 31
0.0
  0
LINE
  5
6C2
  8
DETAIL
  6
CONTINUOUS
 62
     5
 10
182.53125
 20
1124.306939
 30
0.0
 11
268.55746
 21
1124.306939
 31
0.0
  0
LINE
  5
6C3
  8
DETAIL
  6
CONTINUOUS
 62
     5
 10
182.53125
 20
1141.893145
 30
0.0
 11
268.55746
 21
1141.893145
 31
0.0
  0
LINE
  5
6C4
  8
DETAIL
  6
CONTINUOUS
 62
     5
 10
94.708669
 20
1213.747984
 30
0.0
 11
180.734879
 21
1213.747984
 31
0.0
  0
LINE
  5
6C5
  8
DETAIL
  6
CONTINUOUS
 62
     5
 10
94.708669
 20
1220.113391
 30
0.0
 11
180.734879
 21
1220.113391
 31
0.0
  0
LINE
  5
6C6
  8
DETAIL
  6
CONTINUOUS
 62
     5
 10
94.708669
 20
1237.699597
 30
0.0
 11
180.734879
 21
1237.699597
 31
0.0
  0
LINE
  5
6C7
  8
DETAIL
  6
CONTINUOUS
 62
     5
 10
94.708669
 20
1244.065004
 30
0.0
 11
180.734879
 21
1244.065004
 31
0.0
  0
LINE
  5
6C8
  8
DETAIL
  6
CONTINUOUS
 62
     5
 10
94.708669
 20
1261.65121
 30
0.0
 11
180.734879
 21
1261.65121
 31
0.0
  0
LINE
  5
6C9
  8
DETAIL
  6
CONTINUOUS
 62
     5
 10
94.708669
 20
1268.016616
 30
0.0
 11
180.734879
 21
1268.016616
 31
0.0
  0
LINE
  5
6CA
  8
DETAIL
  6
CONTINUOUS
 62
     5
 10
94.708669
 20
1285.602823
 30
0.0
 11
180.734879
 21
1285.602823
 31
0.0
  0
LINE
  5
6CB
  8
DETAIL
  6
CONTINUOUS
 62
     5
 10
6.886089
 20
1213.747984
 30
0.0
 11
92.912298
 21
1213.747984
 31
0.0
  0
LINE
  5
6CC
  8
DETAIL
  6
CONTINUOUS
 62
     5
 10
6.886089
 20
1220.113391
 30
0.0
 11
92.912298
 21
1220.113391
 31
0.0
  0
LINE
  5
6CD
  8
DETAIL
  6
CONTINUOUS
 62
     5
 10
6.886089
 20
1237.699597
 30
0.0
 11
92.912298
 21
1237.699597
 31
0.0
  0
LINE
  5
6CE
  8
DETAIL
  6
CONTINUOUS
 62
     5
 10
6.886089
 20
1244.065004
 30
0.0
 11
92.912298
 21
1244.065004
 31
0.0
  0
LINE
  5
6CF
  8
DETAIL
  6
CONTINUOUS
 62
     5
 10
6.886089
 20
1261.65121
 30
0.0
 11
92.912298
 21
1261.65121
 31
0.0
  0
LINE
  5
6D0
  8
DETAIL
  6
CONTINUOUS
 62
     5
 10
6.886089
 20
1268.016616
 30
0.0
 11
92.912298
 21
1268.016616
 31
0.0
  0
LINE
  5
6D1
  8
DETAIL
  6
CONTINUOUS
 62
     5
 10
6.886089
 20
1285.602823
 30
0.0
 11
92.912298
 21
1285.602823
 31
0.0
  0
LINE
  5
6D2
  8
DETAIL
  6
CONTINUOUS
 62
     5
 10
118.159655
 20
1288.896677
 30
0.0
 11
107.050439
 21
1285.602823
 31
0.0
  0
LINE
  5
6D3
  8
DETAIL
  6
CONTINUOUS
 62
     5
 10
111.485592
 20
1261.65121
 30
0.0
 11
104.809816
 21
1265.881089
 31
0.0
  0
LINE
  5
6D4
  8
DETAIL
  6
CONTINUOUS
 62
     5
 10
104.809816
 20
1265.881089
 30
0.0
 11
100.969526
 21
1268.016616
 31
0.0
  0
ARC
  5
6D5
  8
DETAIL
  6
CONTINUOUS
 62
     5
 10
181.633065
 20
1052.773185
 30
0.0
 40
251.990927
 50
110.617064
 51
112.453153
  0
ARC
  5
6D6
  8
DETAIL
  6
CONTINUOUS
 62
     5
 10
181.633065
 20
1052.773185
 30
0.0
 40
251.990927
 50
121.311287
 51
123.990424
  0
ARC
  5
6D7
  8
DETAIL
  6
CONTINUOUS
 62
     5
 10
181.633065
 20
1052.773185
 30
0.0
 40
251.990927
 50
130.612194
 51
132.773352
  0
ARC
  5
6D8
  8
DETAIL
  6
CONTINUOUS
 62
     5
 10
181.633065
 20
1052.773185
 30
0.0
 40
251.990927
 50
138.374184
 51
140.283428
  0
ARC
  5
6D9
  8
DETAIL
  6
CONTINUOUS
 62
     5
 10
181.633065
 20
1052.773185
 30
0.0
 40
253.986895
 50
122.037431
 51
124.652746
  0
ARC
  5
6DA
  8
DETAIL
  6
CONTINUOUS
 62
     5
 10
181.633065
 20
1052.773185
 30
0.0
 40
253.986895
 50
131.116852
 51
133.255884
  0
ARC
  5
6DB
  8
DETAIL
  6
CONTINUOUS
 62
     5
 10
181.633065
 20
1052.773185
 30
0.0
 40
253.986895
 50
138.773924
 51
140.668696
  0
LINE
  5
6DC
  8
DETAIL
  6
CONTINUOUS
 62
     5
 10
114.269153
 20
1213.747984
 30
0.0
 11
114.269153
 21
1220.113391
 31
0.0
  0
LINE
  5
6DD
  8
DETAIL
  6
CONTINUOUS
 62
     5
 10
114.269153
 20
1237.699597
 30
0.0
 11
114.269153
 21
1244.065004
 31
0.0
  0
LINE
  5
6DE
  8
DETAIL
  6
CONTINUOUS
 62
     5
 10
182.53125
 20
1213.747984
 30
0.0
 11
268.55746
 21
1213.747984
 31
0.0
  0
LINE
  5
6DF
  8
DETAIL
  6
CONTINUOUS
 62
     5
 10
182.53125
 20
1220.113391
 30
0.0
 11
268.55746
 21
1220.113391
 31
0.0
  0
LINE
  5
6E0
  8
DETAIL
  6
CONTINUOUS
 62
     5
 10
182.53125
 20
1237.699597
 30
0.0
 11
268.55746
 21
1237.699597
 31
0.0
  0
LINE
  5
6E1
  8
DETAIL
  6
CONTINUOUS
 62
     5
 10
182.53125
 20
1244.065004
 30
0.0
 11
268.55746
 21
1244.065004
 31
0.0
  0
LINE
  5
6E2
  8
DETAIL
  6
CONTINUOUS
 62
     5
 10
182.53125
 20
1261.65121
 30
0.0
 11
268.55746
 21
1261.65121
 31
0.0
  0
LINE
  5
6E3
  8
DETAIL
  6
CONTINUOUS
 62
     5
 10
182.53125
 20
1268.016616
 30
0.0
 11
268.55746
 21
1268.016616
 31
0.0
  0
LINE
  5
6E4
  8
DETAIL
  6
CONTINUOUS
 62
     5
 10
182.53125
 20
1285.602823
 30
0.0
 11
268.55746
 21
1285.602823
 31
0.0
  0
LINE
  5
6E5
  8
DETAIL
  6
CONTINUOUS
 62
     5
 10
142.515724
 20
1237.699597
 30
0.0
 11
135.452962
 21
1244.065004
 31
0.0
  0
LINE
  5
6E6
  8
DETAIL
  6
CONTINUOUS
 62
     5
 10
164.362526
 20
1213.747984
 30
0.0
 11
163.501748
 21
1214.901808
 31
0.0
  0
LINE
  5
6E7
  8
DETAIL
  6
CONTINUOUS
 62
     5
 10
163.501748
 20
1214.901808
 30
0.0
 11
159.246586
 21
1220.113391
 31
0.0
  0
LINE
  5
6E8
  8
DETAIL
  6
CONTINUOUS
 62
     5
 10
253.114451
 20
1286.596556
 30
0.0
 11
247.133841
 21
1288.341924
 31
0.0
  0
LINE
  5
6E9
  8
DETAIL
  6
CONTINUOUS
 62
     5
 10
256.095142
 20
1285.602823
 30
0.0
 11
253.114451
 21
1286.596556
 31
0.0
  0
LINE
  5
6EA
  8
DETAIL
  6
CONTINUOUS
 62
     5
 10
256.400392
 20
1285.602823
 30
0.0
 11
255.481149
 21
1285.913196
 31
0.0
  0
LINE
  5
6EB
  8
DETAIL
  6
CONTINUOUS
 62
     5
 10
255.481149
 20
1285.913196
 30
0.0
 11
248.14136
 21
1288.062778
 31
0.0
  0
LINE
  5
6EC
  8
DETAIL
  6
CONTINUOUS
 62
     5
 10
308.726688
 20
1261.65121
 30
0.0
 11
298.207315
 21
1267.70033
 31
0.0
  0
LINE
  5
6ED
  8
DETAIL
  6
CONTINUOUS
 62
     5
 10
298.207315
 20
1267.70033
 30
0.0
 11
297.587832
 21
1268.016616
 31
0.0
  0
LINE
  5
6EE
  8
DETAIL
  6
CONTINUOUS
 62
     5
 10
309.537455
 20
1261.65121
 30
0.0
 11
300.895027
 21
1266.670348
 31
0.0
  0
LINE
  5
6EF
  8
DETAIL
  6
CONTINUOUS
 62
     5
 10
300.895027
 20
1266.670348
 30
0.0
 11
298.284716
 21
1268.016616
 31
0.0
  0
ARC
  5
6F0
  8
DETAIL
  6
CONTINUOUS
 62
     5
 10
181.633065
 20
1052.773185
 30
0.0
 40
251.990927
 50
67.546847
 51
69.382936
  0
LINE
  5
6F1
  8
DETAIL
  6
CONTINUOUS
 62
     5
 10
358.176411
 20
1141.893145
 30
0.0
 11
441.607863
 21
1141.893145
 31
0.0
  0
LINE
  5
6F2
  8
DETAIL
  6
CONTINUOUS
 62
     5
 10
358.176411
 20
1148.258552
 30
0.0
 11
441.607863
 21
1148.258552
 31
0.0
  0
LINE
  5
6F3
  8
DETAIL
  6
CONTINUOUS
 62
     5
 10
358.176411
 20
1165.844758
 30
0.0
 11
441.607863
 21
1165.844758
 31
0.0
  0
LINE
  5
6F4
  8
DETAIL
  6
CONTINUOUS
 62
     5
 10
358.176411
 20
1172.210165
 30
0.0
 11
441.607863
 21
1172.210165
 31
0.0
  0
LINE
  5
6F5
  8
DETAIL
  6
CONTINUOUS
 62
     5
 10
358.176411
 20
1189.796371
 30
0.0
 11
441.607863
 21
1189.796371
 31
0.0
  0
LINE
  5
6F6
  8
DETAIL
  6
CONTINUOUS
 62
     5
 10
358.176411
 20
1196.161778
 30
0.0
 11
441.607863
 21
1196.161778
 31
0.0
  0
ARC
  5
6F7
  8
DETAIL
  6
CONTINUOUS
 62
     5
 10
181.633065
 20
1052.773185
 30
0.0
 40
251.990927
 50
20.714798
 51
22.273678
  0
ARC
  5
6F8
  8
DETAIL
  6
CONTINUOUS
 62
     5
 10
181.633065
 20
1052.773185
 30
0.0
 40
251.990927
 50
26.666708
 51
28.299994
  0
ARC
  5
6F9
  8
DETAIL
  6
CONTINUOUS
 62
     5
 10
181.633065
 20
1052.773185
 30
0.0
 40
251.990927
 50
32.950972
 51
34.684671
  0
ARC
  5
6FA
  8
DETAIL
  6
CONTINUOUS
 62
     5
 10
181.633065
 20
1052.773185
 30
0.0
 40
253.986895
 50
20.546868
 51
22.086342
  0
ARC
  5
6FB
  8
DETAIL
  6
CONTINUOUS
 62
     5
 10
181.633065
 20
1052.773185
 30
0.0
 40
253.986895
 50
26.443522
 51
28.051384
  0
ARC
  5
6FC
  8
DETAIL
  6
CONTINUOUS
 62
     5
 10
181.633065
 20
1052.773185
 30
0.0
 40
253.986895
 50
32.659404
 51
34.379368
  0
LINE
  5
6FD
  8
DETAIL
  6
CONTINUOUS
 62
     5
 10
311.792352
 20
1141.893145
 30
0.0
 11
315.382009
 21
1146.963599
 31
0.0
  0
LINE
  5
6FE
  8
DETAIL
  6
CONTINUOUS
 62
     5
 10
315.382009
 20
1146.963599
 30
0.0
 11
316.20282
 21
1148.258552
 31
0.0
  0
LINE
  5
6FF
  8
DETAIL
  6
CONTINUOUS
 62
     5
 10
326.699557
 20
1165.844758
 30
0.0
 11
327.387413
 21
1167.069296
 31
0.0
  0
LINE
  5
700
  8
DETAIL
  6
CONTINUOUS
 62
     5
 10
327.387413
 20
1167.069296
 30
0.0
 11
329.938621
 21
1172.210165
 31
0.0
  0
LINE
  5
701
  8
DETAIL
  6
CONTINUOUS
 62
     5
 10
316.566076
 20
1141.893145
 30
0.0
 11
320.749672
 21
1148.258552
 31
0.0
  0
LINE
  5
702
  8
DETAIL
  6
CONTINUOUS
 62
     5
 10
330.834212
 20
1165.844758
 30
0.0
 11
334.069391
 21
1172.210165
 31
0.0
  0
LINE
  5
703
  8
DETAIL
  6
CONTINUOUS
 62
     5
 10
337.925614
 20
1189.796371
 30
0.0
 11
340.307743
 21
1196.161778
 31
0.0
  0
LINE
  5
704
  8
DETAIL
  6
CONTINUOUS
 62
     5
 10
341.63766
 20
1189.796371
 30
0.0
 11
344.044672
 21
1196.161778
 31
0.0
  0
LINE
  5
705
  8
DETAIL
  6
CONTINUOUS
 62
     5
 10
358.176411
 20
1124.306939
 30
0.0
 11
441.607863
 21
1124.306939
 31
0.0
  0
LINE
  5
706
  8
DETAIL
  6
CONTINUOUS
 62
     5
 10
358.176411
 20
1213.747984
 30
0.0
 11
441.607863
 21
1213.747984
 31
0.0
  0
LINE
  5
707
  8
DETAIL
  6
CONTINUOUS
 62
     5
 10
358.176411
 20
1220.113391
 30
0.0
 11
441.607863
 21
1220.113391
 31
0.0
  0
LINE
  5
708
  8
DETAIL
  6
CONTINUOUS
 62
     5
 10
358.176411
 20
1237.699597
 30
0.0
 11
441.607863
 21
1237.699597
 31
0.0
  0
LINE
  5
709
  8
DETAIL
  6
CONTINUOUS
 62
     5
 10
358.176411
 20
1244.065004
 30
0.0
 11
441.607863
 21
1244.065004
 31
0.0
  0
LINE
  5
70A
  8
DETAIL
  6
CONTINUOUS
 62
     5
 10
358.176411
 20
1261.65121
 30
0.0
 11
441.607863
 21
1261.65121
 31
0.0
  0
LINE
  5
70B
  8
DETAIL
  6
CONTINUOUS
 62
     5
 10
358.176411
 20
1268.016616
 30
0.0
 11
441.607863
 21
1268.016616
 31
0.0
  0
LINE
  5
70C
  8
DETAIL
  6
CONTINUOUS
 62
     5
 10
358.176411
 20
1285.602823
 30
0.0
 11
441.607863
 21
1285.602823
 31
0.0
  0
LINE
  5
70D
  8
DETAIL
  6
CONTINUOUS
 62
     5
 10
341.483238
 20
1237.699597
 30
0.0
 11
338.068106
 21
1240.686341
 31
0.0
  0
LINE
  5
70E
  8
DETAIL
  6
CONTINUOUS
 62
     5
 10
338.068106
 20
1240.686341
 30
0.0
 11
333.801465
 21
1244.065004
 31
0.0
  0
LINE
  5
70F
  8
DETAIL
  6
CONTINUOUS
 62
     5
 10
342.752614
 20
1237.699597
 30
0.0
 11
341.032365
 21
1239.21747
 31
0.0
  0
LINE
  5
710
  8
DETAIL
  6
CONTINUOUS
 62
     5
 10
341.032365
 20
1239.21747
 30
0.0
 11
334.964589
 21
1244.065004
 31
0.0
  0
ARC
  5
711
  8
DETAIL
  6
CONTINUOUS
 62
     5
 10
181.633065
 20
1052.773185
 30
0.0
 40
251.990927
 50
39.716572
 51
41.625816
  0
ARC
  5
712
  8
DETAIL
  6
CONTINUOUS
 62
     5
 10
181.633065
 20
1052.773185
 30
0.0
 40
251.990927
 50
47.226648
 51
49.387806
  0
ARC
  5
713
  8
DETAIL
  6
CONTINUOUS
 62
     5
 10
181.633065
 20
1052.773185
 30
0.0
 40
251.990927
 50
56.009576
 51
58.688713
  0
ARC
  5
714
  8
DETAIL
  6
CONTINUOUS
 62
     5
 10
181.633065
 20
1052.773185
 30
0.0
 40
253.986895
 50
39.331304
 51
41.226076
  0
ARC
  5
715
  8
DETAIL
  6
CONTINUOUS
 62
     5
 10
181.633065
 20
1052.773185
 30
0.0
 40
253.986895
 50
46.744116
 51
48.883148
  0
ARC
  5
716
  8
DETAIL
  6
CONTINUOUS
 62
     5
 10
181.633065
 20
1052.773185
 30
0.0
 40
253.986895
 50
55.347254
 51
57.962569
  0
LINE
  5
717
  8
DETAIL
  6
CONTINUOUS
 62
     5
 10
349.510565
 20
1213.747984
 30
0.0
 11
351.160769
 21
1220.113391
 31
0.0
  0
LINE
  5
718
  8
DETAIL
  6
CONTINUOUS
 62
     5
 10
346.072847
 20
1213.747984
 30
0.0
 11
347.7451
 21
1220.113391
 31
0.0
  0
LINE
  5
719
  8
DETAIL
  6
CONTINUOUS
 62
     5
 10
356.38004
 20
1303.566532
 30
0.0
 11
270.353831
 21
1303.566532
 31
0.0
  0
LINE
  5
71A
  8
DETAIL
  6
CONTINUOUS
 62
     5
 10
180.734879
 20
1303.566532
 30
0.0
 11
94.708669
 21
1303.566532
 31
0.0
  0
LINE
  5
71B
  8
DETAIL
  6
CONTINUOUS
 62
     5
 10
142.611924
 20
1294.145425
 30
0.0
 11
130.326642
 21
1291.835655
 31
0.0
  0
ARC
  5
71C
  8
DETAIL
  6
CONTINUOUS
 62
     5
 10
181.633065
 20
1052.773185
 30
0.0
 40
251.990927
 50
95.521135
 51
110.180036
  0
ARC
  5
71D
  8
DETAIL
  6
CONTINUOUS
 62
     5
 10
181.633065
 20
1052.773185
 30
0.0
 40
253.986895
 50
99.024034
 51
110.016005
  0
LINE
  5
71E
  8
DETAIL
  6
CONTINUOUS
 62
     5
 10
92.912298
 20
1303.566532
 30
0.0
 11
6.886089
 21
1303.566532
 31
0.0
  0
LINE
  5
71F
  8
DETAIL
  6
CONTINUOUS
 62
     5
 10
93.810484
 20
1305.5625
 30
0.0
 11
93.607918
 21
1305.25945
 31
0.0
  0
LINE
  5
720
  8
DETAIL
  6
CONTINUOUS
 62
     5
 10
93.607918
 20
1305.25945
 30
0.0
 11
93.423243
 21
1304.977137
 31
0.0
  0
LINE
  5
721
  8
DETAIL
  6
CONTINUOUS
 62
     5
 10
93.423243
 20
1304.977137
 30
0.0
 11
93.263178
 21
1304.721108
 31
0.0
  0
LINE
  5
722
  8
DETAIL
  6
CONTINUOUS
 62
     5
 10
93.263178
 20
1304.721108
 30
0.0
 11
93.13307
 21
1304.496668
 31
0.0
  0
LINE
  5
723
  8
DETAIL
  6
CONTINUOUS
 62
     5
 10
93.13307
 20
1304.496668
 30
0.0
 11
93.034084
 21
1304.304204
 31
0.0
  0
LINE
  5
724
  8
DETAIL
  6
CONTINUOUS
 62
     5
 10
93.034084
 20
1304.304204
 30
0.0
 11
92.965021
 21
1304.140832
 31
0.0
  0
LINE
  5
725
  8
DETAIL
  6
CONTINUOUS
 62
     5
 10
92.965021
 20
1304.140832
 30
0.0
 11
92.924899
 21
1304.004578
 31
0.0
  0
LINE
  5
726
  8
DETAIL
  6
CONTINUOUS
 62
     5
 10
92.924899
 20
1304.004578
 30
0.0
 11
92.912298
 21
1303.895538
 31
0.0
  0
LINE
  5
727
  8
DETAIL
  6
CONTINUOUS
 62
     5
 10
6.886089
 20
1303.895538
 30
0.0
 11
6.869441
 21
1304.022624
 31
0.0
  0
LINE
  5
728
  8
DETAIL
  6
CONTINUOUS
 62
     5
 10
6.869441
 20
1304.022624
 30
0.0
 11
6.817056
 21
1304.183603
 31
0.0
  0
LINE
  5
729
  8
DETAIL
  6
CONTINUOUS
 62
     5
 10
6.817056
 20
1304.183603
 30
0.0
 11
6.726747
 21
1304.380735
 31
0.0
  0
LINE
  5
72A
  8
DETAIL
  6
CONTINUOUS
 62
     5
 10
6.726747
 20
1304.380735
 30
0.0
 11
6.595379
 21
1304.619912
 31
0.0
  0
LINE
  5
72B
  8
DETAIL
  6
CONTINUOUS
 62
     5
 10
6.595379
 20
1304.619912
 30
0.0
 11
6.423102
 21
1304.901934
 31
0.0
  0
LINE
  5
72C
  8
DETAIL
  6
CONTINUOUS
 62
     5
 10
6.423102
 20
1304.901934
 30
0.0
 11
6.216902
 21
1305.219556
 31
0.0
  0
LINE
  5
72D
  8
DETAIL
  6
CONTINUOUS
 62
     5
 10
6.216902
 20
1305.219556
 30
0.0
 11
5.987903
 21
1305.5625
 31
0.0
  0
LINE
  5
72E
  8
DETAIL
  6
CONTINUOUS
 62
     5
 10
94.708669
 20
1303.895538
 30
0.0
 11
94.692022
 21
1304.022624
 31
0.0
  0
LINE
  5
72F
  8
DETAIL
  6
CONTINUOUS
 62
     5
 10
94.692022
 20
1304.022624
 30
0.0
 11
94.639637
 21
1304.183603
 31
0.0
  0
LINE
  5
730
  8
DETAIL
  6
CONTINUOUS
 62
     5
 10
94.639637
 20
1304.183603
 30
0.0
 11
94.549328
 21
1304.380735
 31
0.0
  0
LINE
  5
731
  8
DETAIL
  6
CONTINUOUS
 62
     5
 10
94.549328
 20
1304.380735
 30
0.0
 11
94.417959
 21
1304.619912
 31
0.0
  0
LINE
  5
732
  8
DETAIL
  6
CONTINUOUS
 62
     5
 10
94.417959
 20
1304.619912
 30
0.0
 11
94.245683
 21
1304.901934
 31
0.0
  0
LINE
  5
733
  8
DETAIL
  6
CONTINUOUS
 62
     5
 10
94.245683
 20
1304.901934
 30
0.0
 11
94.039482
 21
1305.219556
 31
0.0
  0
LINE
  5
734
  8
DETAIL
  6
CONTINUOUS
 62
     5
 10
94.039482
 20
1305.219556
 30
0.0
 11
93.810484
 21
1305.5625
 31
0.0
  0
LINE
  5
735
  8
DETAIL
  6
CONTINUOUS
 62
     5
 10
5.987903
 20
1305.5625
 30
0.0
 11
5.785337
 21
1305.25945
 31
0.0
  0
LINE
  5
736
  8
DETAIL
  6
CONTINUOUS
 62
     5
 10
5.785337
 20
1305.25945
 30
0.0
 11
5.600662
 21
1304.977137
 31
0.0
  0
LINE
  5
737
  8
DETAIL
  6
CONTINUOUS
 62
     5
 10
5.600662
 20
1304.977137
 30
0.0
 11
5.440598
 21
1304.721108
 31
0.0
  0
LINE
  5
738
  8
DETAIL
  6
CONTINUOUS
 62
     5
 10
5.440598
 20
1304.721108
 30
0.0
 11
5.31049
 21
1304.496668
 31
0.0
  0
LINE
  5
739
  8
DETAIL
  6
CONTINUOUS
 62
     5
 10
5.31049
 20
1304.496668
 30
0.0
 11
5.211503
 21
1304.304204
 31
0.0
  0
LINE
  5
73A
  8
DETAIL
  6
CONTINUOUS
 62
     5
 10
5.211503
 20
1304.304204
 30
0.0
 11
5.14244
 21
1304.140832
 31
0.0
  0
LINE
  5
73B
  8
DETAIL
  6
CONTINUOUS
 62
     5
 10
5.14244
 20
1304.140832
 30
0.0
 11
5.102318
 21
1304.004578
 31
0.0
  0
LINE
  5
73C
  8
DETAIL
  6
CONTINUOUS
 62
     5
 10
5.102318
 20
1304.004578
 30
0.0
 11
5.089718
 21
1303.895538
 31
0.0
  0
LINE
  5
73D
  8
DETAIL
  6
CONTINUOUS
 62
     5
 10
182.53125
 20
1303.895538
 30
0.0
 11
182.514603
 21
1304.022624
 31
0.0
  0
LINE
  5
73E
  8
DETAIL
  6
CONTINUOUS
 62
     5
 10
182.514603
 20
1304.022624
 30
0.0
 11
182.462217
 21
1304.183603
 31
0.0
  0
LINE
  5
73F
  8
DETAIL
  6
CONTINUOUS
 62
     5
 10
182.462217
 20
1304.183603
 30
0.0
 11
182.371908
 21
1304.380735
 31
0.0
  0
LINE
  5
740
  8
DETAIL
  6
CONTINUOUS
 62
     5
 10
182.371908
 20
1304.380735
 30
0.0
 11
182.24054
 21
1304.619912
 31
0.0
  0
LINE
  5
741
  8
DETAIL
  6
CONTINUOUS
 62
     5
 10
182.24054
 20
1304.619912
 30
0.0
 11
182.068264
 21
1304.901934
 31
0.0
  0
LINE
  5
742
  8
DETAIL
  6
CONTINUOUS
 62
     5
 10
182.068264
 20
1304.901934
 30
0.0
 11
181.862063
 21
1305.219556
 31
0.0
  0
LINE
  5
743
  8
DETAIL
  6
CONTINUOUS
 62
     5
 10
181.862063
 20
1305.219556
 30
0.0
 11
181.633065
 21
1305.5625
 31
0.0
  0
LINE
  5
744
  8
DETAIL
  6
CONTINUOUS
 62
     5
 10
270.353831
 20
1303.895538
 30
0.0
 11
270.337183
 21
1304.022624
 31
0.0
  0
LINE
  5
745
  8
DETAIL
  6
CONTINUOUS
 62
     5
 10
270.337183
 20
1304.022624
 30
0.0
 11
270.284798
 21
1304.183603
 31
0.0
  0
LINE
  5
746
  8
DETAIL
  6
CONTINUOUS
 62
     5
 10
270.284798
 20
1304.183603
 30
0.0
 11
270.194489
 21
1304.380735
 31
0.0
  0
LINE
  5
747
  8
DETAIL
  6
CONTINUOUS
 62
     5
 10
270.194489
 20
1304.380735
 30
0.0
 11
270.063121
 21
1304.619912
 31
0.0
  0
LINE
  5
748
  8
DETAIL
  6
CONTINUOUS
 62
     5
 10
270.063121
 20
1304.619912
 30
0.0
 11
269.890844
 21
1304.901934
 31
0.0
  0
LINE
  5
749
  8
DETAIL
  6
CONTINUOUS
 62
     5
 10
269.890844
 20
1304.901934
 30
0.0
 11
269.684643
 21
1305.219556
 31
0.0
  0
LINE
  5
74A
  8
DETAIL
  6
CONTINUOUS
 62
     5
 10
269.684643
 20
1305.219556
 30
0.0
 11
269.455645
 21
1305.5625
 31
0.0
  0
LINE
  5
74B
  8
DETAIL
  6
CONTINUOUS
 62
     5
 10
268.55746
 20
1303.566532
 30
0.0
 11
182.53125
 21
1303.566532
 31
0.0
  0
LINE
  5
74C
  8
DETAIL
  6
CONTINUOUS
 62
     5
 10
180.734879
 20
1297.256026
 30
0.0
 11
179.856639
 21
1297.271961
 31
0.0
  0
LINE
  5
74D
  8
DETAIL
  6
CONTINUOUS
 62
     5
 10
179.856639
 20
1297.271961
 30
0.0
 11
167.406436
 21
1296.864525
 31
0.0
  0
LINE
  5
74E
  8
DETAIL
  6
CONTINUOUS
 62
     5
 10
167.406436
 20
1296.864525
 30
0.0
 11
154.982044
 21
1295.822479
 31
0.0
  0
LINE
  5
74F
  8
DETAIL
  6
CONTINUOUS
 62
     5
 10
154.982044
 20
1295.822479
 30
0.0
 11
142.611924
 21
1294.145425
 31
0.0
  0
LINE
  5
750
  8
DETAIL
  6
CONTINUOUS
 62
     5
 10
241.242553
 20
1289.901399
 30
0.0
 11
229.198092
 21
1292.607884
 31
0.0
  0
LINE
  5
751
  8
DETAIL
  6
CONTINUOUS
 62
     5
 10
229.198092
 20
1292.607884
 30
0.0
 11
217.009161
 21
1294.70593
 31
0.0
  0
LINE
  5
752
  8
DETAIL
  6
CONTINUOUS
 62
     5
 10
217.009161
 20
1294.70593
 30
0.0
 11
204.7003
 21
1296.188465
 31
0.0
  0
LINE
  5
753
  8
DETAIL
  6
CONTINUOUS
 62
     5
 10
204.7003
 20
1296.188465
 30
0.0
 11
192.30184
 21
1297.04615
 31
0.0
  0
LINE
  5
754
  8
DETAIL
  6
CONTINUOUS
 62
     5
 10
192.30184
 20
1297.04615
 30
0.0
 11
182.53125
 21
1297.223432
 31
0.0
  0
ARC
  5
755
  8
DETAIL
  6
CONTINUOUS
 62
     5
 10
181.633065
 20
1052.773185
 30
0.0
 40
251.990927
 50
69.819964
 51
84.478865
  0
ARC
  5
756
  8
DETAIL
  6
CONTINUOUS
 62
     5
 10
181.633065
 20
1052.773185
 30
0.0
 40
253.986895
 50
69.983995
 51
80.975966
  0
CIRCLE
  5
757
  8
DETAIL
  6
CONTINUOUS
 62
     5
 10
181.633065
 20
1340.491935
 30
0.0
 40
3.492944
  0
CIRCLE
  5
758
  8
DETAIL
  6
CONTINUOUS
 62
     5
 10
181.633065
 20
1340.491935
 30
0.0
 40
3.542843
  0
CIRCLE
  5
759
  8
DETAIL
  6
CONTINUOUS
 62
     5
 10
181.633065
 20
1340.491935
 30
0.0
 40
2.095766
  0
LINE
  5
75A
  8
DETAIL
  6
CONTINUOUS
 62
     5
 10
181.633065
 20
1305.5625
 30
0.0
 11
181.430498
 21
1305.25945
 31
0.0
  0
LINE
  5
75B
  8
DETAIL
  6
CONTINUOUS
 62
     5
 10
181.430498
 20
1305.25945
 30
0.0
 11
181.245823
 21
1304.977137
 31
0.0
  0
LINE
  5
75C
  8
DETAIL
  6
CONTINUOUS
 62
     5
 10
181.245823
 20
1304.977137
 30
0.0
 11
181.085759
 21
1304.721108
 31
0.0
  0
LINE
  5
75D
  8
DETAIL
  6
CONTINUOUS
 62
     5
 10
181.085759
 20
1304.721108
 30
0.0
 11
180.955651
 21
1304.496668
 31
0.0
  0
LINE
  5
75E
  8
DETAIL
  6
CONTINUOUS
 62
     5
 10
180.955651
 20
1304.496668
 30
0.0
 11
180.856665
 21
1304.304204
 31
0.0
  0
LINE
  5
75F
  8
DETAIL
  6
CONTINUOUS
 62
     5
 10
180.856665
 20
1304.304204
 30
0.0
 11
180.787601
 21
1304.140832
 31
0.0
  0
LINE
  5
760
  8
DETAIL
  6
CONTINUOUS
 62
     5
 10
180.787601
 20
1304.140832
 30
0.0
 11
180.74748
 21
1304.004578
 31
0.0
  0
LINE
  5
761
  8
DETAIL
  6
CONTINUOUS
 62
     5
 10
180.74748
 20
1304.004578
 30
0.0
 11
180.734879
 21
1303.895538
 31
0.0
  0
LINE
  5
762
  8
DETAIL
  6
CONTINUOUS
 62
     5
 10
269.455645
 20
1305.5625
 30
0.0
 11
269.253079
 21
1305.25945
 31
0.0
  0
LINE
  5
763
  8
DETAIL
  6
CONTINUOUS
 62
     5
 10
269.253079
 20
1305.25945
 30
0.0
 11
269.068404
 21
1304.977137
 31
0.0
  0
LINE
  5
764
  8
DETAIL
  6
CONTINUOUS
 62
     5
 10
269.068404
 20
1304.977137
 30
0.0
 11
268.90834
 21
1304.721108
 31
0.0
  0
LINE
  5
765
  8
DETAIL
  6
CONTINUOUS
 62
     5
 10
268.90834
 20
1304.721108
 30
0.0
 11
268.778232
 21
1304.496668
 31
0.0
  0
LINE
  5
766
  8
DETAIL
  6
CONTINUOUS
 62
     5
 10
268.778232
 20
1304.496668
 30
0.0
 11
268.679245
 21
1304.304204
 31
0.0
  0
LINE
  5
767
  8
DETAIL
  6
CONTINUOUS
 62
     5
 10
268.679245
 20
1304.304204
 30
0.0
 11
268.610182
 21
1304.140832
 31
0.0
  0
LINE
  5
768
  8
DETAIL
  6
CONTINUOUS
 62
     5
 10
268.610182
 20
1304.140832
 30
0.0
 11
268.57006
 21
1304.004578
 31
0.0
  0
LINE
  5
769
  8
DETAIL
  6
CONTINUOUS
 62
     5
 10
268.57006
 20
1304.004578
 30
0.0
 11
268.55746
 21
1303.895538
 31
0.0
  0
LINE
  5
76A
  8
DETAIL
  6
CONTINUOUS
 62
     5
 10
494.002016
 20
1374.002016
 30
0.0
 11
494.002016
 21
1375.0
 31
0.0
  0
LINE
  5
76B
  8
DETAIL
  6
CONTINUOUS
 62
     5
 10
430.63004
 20
1296.580645
 30
0.0
 11
430.63004
 21
1302.152513
 31
0.0
  0
LINE
  5
76C
  8
DETAIL
  6
CONTINUOUS
 62
     5
 10
440.193843
 20
1292.58871
 30
0.0
 11
434.621976
 21
1292.58871
 31
0.0
  0
LINE
  5
76D
  8
DETAIL
  6
CONTINUOUS
 62
     5
 10
358.176411
 20
1303.895538
 30
0.0
 11
358.159764
 21
1304.022624
 31
0.0
  0
LINE
  5
76E
  8
DETAIL
  6
CONTINUOUS
 62
     5
 10
358.159764
 20
1304.022624
 30
0.0
 11
358.107379
 21
1304.183603
 31
0.0
  0
LINE
  5
76F
  8
DETAIL
  6
CONTINUOUS
 62
     5
 10
358.107379
 20
1304.183603
 30
0.0
 11
358.01707
 21
1304.380735
 31
0.0
  0
LINE
  5
770
  8
DETAIL
  6
CONTINUOUS
 62
     5
 10
358.01707
 20
1304.380735
 30
0.0
 11
357.885701
 21
1304.619912
 31
0.0
  0
LINE
  5
771
  8
DETAIL
  6
CONTINUOUS
 62
     5
 10
357.885701
 20
1304.619912
 30
0.0
 11
357.713425
 21
1304.901934
 31
0.0
  0
LINE
  5
772
  8
DETAIL
  6
CONTINUOUS
 62
     5
 10
357.713425
 20
1304.901934
 30
0.0
 11
357.507224
 21
1305.219556
 31
0.0
  0
LINE
  5
773
  8
DETAIL
  6
CONTINUOUS
 62
     5
 10
357.507224
 20
1305.219556
 30
0.0
 11
357.278226
 21
1305.5625
 31
0.0
  0
LINE
  5
774
  8
DETAIL
  6
CONTINUOUS
 62
     5
 10
462.326008
 20
1338.014808
 30
0.0
 11
462.326008
 21
1340.970749
 31
0.0
  0
LINE
  5
775
  8
DETAIL
  6
CONTINUOUS
 62
     5
 10
467.555444
 20
1329.514113
 30
0.0
 11
467.555444
 21
1328.715726
 31
0.0
  0
LINE
  5
776
  8
DETAIL
  6
CONTINUOUS
 62
     5
 10
468.553427
 20
1328.516129
 30
0.0
 11
468.553427
 21
1323.52621
 31
0.0
  0
LINE
  5
777
  8
DETAIL
  6
CONTINUOUS
 62
     5
 10
423.644153
 20
1303.566532
 30
0.0
 11
358.176411
 21
1303.566532
 31
0.0
  0
LINE
  5
778
  8
DETAIL
  6
CONTINUOUS
 62
     5
 10
466.239536
 20
1328.715726
 30
0.0
 11
467.555444
 21
1328.715726
 31
0.0
  0
LINE
  5
779
  8
DETAIL
  6
CONTINUOUS
 62
     5
 10
465.141233
 20
1329.514113
 30
0.0
 11
467.555444
 21
1329.514113
 31
0.0
  0
LINE
  5
77A
  8
DETAIL
  6
CONTINUOUS
 62
     5
 10
467.75014
 20
1328.690776
 30
0.0
 11
467.555444
 21
1328.715726
 31
0.0
  0
LINE
  5
77B
  8
DETAIL
  6
CONTINUOUS
 62
     5
 10
468.553427
 20
1328.516129
 30
0.0
 11
468.534251
 21
1328.541079
 31
0.0
  0
LINE
  5
77C
  8
DETAIL
  6
CONTINUOUS
 62
     5
 10
468.534251
 20
1328.541079
 30
0.0
 11
468.47746
 21
1328.566028
 31
0.0
  0
LINE
  5
77D
  8
DETAIL
  6
CONTINUOUS
 62
     5
 10
468.47746
 20
1328.566028
 30
0.0
 11
468.385237
 21
1328.590978
 31
0.0
  0
LINE
  5
77E
  8
DETAIL
  6
CONTINUOUS
 62
     5
 10
468.385237
 20
1328.590978
 30
0.0
 11
468.261125
 21
1328.615927
 31
0.0
  0
LINE
  5
77F
  8
DETAIL
  6
CONTINUOUS
 62
     5
 10
468.261125
 20
1328.615927
 30
0.0
 11
468.109894
 21
1328.640877
 31
0.0
  0
LINE
  5
780
  8
DETAIL
  6
CONTINUOUS
 62
     5
 10
468.109894
 20
1328.640877
 30
0.0
 11
467.937355
 21
1328.665827
 31
0.0
  0
LINE
  5
781
  8
DETAIL
  6
CONTINUOUS
 62
     5
 10
467.937355
 20
1328.665827
 30
0.0
 11
467.75014
 21
1328.690776
 31
0.0
  0
ARC
  5
782
  8
DETAIL
  6
CONTINUOUS
 62
     5
 10
461.56754
 20
1323.52621
 30
0.0
 40
6.985887
 50
0.0
 51
90.0
  0
CIRCLE
  5
783
  8
DETAIL
  6
CONTINUOUS
 62
     5
 10
460.569556
 20
1322.528226
 30
0.0
 40
2.993952
  0
ARC
  5
784
  8
DETAIL
  6
CONTINUOUS
 62
     5
 10
434.621976
 20
1296.580645
 30
0.0
 40
3.991935
 50
180.0
 51
270.0
  0
CIRCLE
  5
785
  8
DETAIL
  6
CONTINUOUS
 62
     5
 10
461.068548
 20
1339.499596
 30
0.0
 40
3.492944
  0
CIRCLE
  5
786
  8
DETAIL
  6
CONTINUOUS
 62
     5
 10
461.068548
 20
1339.499596
 30
0.0
 40
1.946069
  0
ARC
  5
787
  8
DETAIL
  6
CONTINUOUS
 62
     5
 10
467.555444
 20
1328.516129
 30
0.0
 40
0.997984
 50
0.0
 51
90.0
  0
CIRCLE
  5
788
  8
DETAIL
  6
CONTINUOUS
 62
     5
 10
460.569556
 20
1322.528226
 30
0.0
 40
1.995968
  0
LINE
  5
789
  8
DETAIL
  6
CONTINUOUS
 62
     5
 10
357.278226
 20
1305.5625
 30
0.0
 11
357.07566
 21
1305.25945
 31
0.0
  0
LINE
  5
78A
  8
DETAIL
  6
CONTINUOUS
 62
     5
 10
357.07566
 20
1305.25945
 30
0.0
 11
356.890985
 21
1304.977137
 31
0.0
  0
LINE
  5
78B
  8
DETAIL
  6
CONTINUOUS
 62
     5
 10
356.890985
 20
1304.977137
 30
0.0
 11
356.73092
 21
1304.721108
 31
0.0
  0
LINE
  5
78C
  8
DETAIL
  6
CONTINUOUS
 62
     5
 10
356.73092
 20
1304.721108
 30
0.0
 11
356.600812
 21
1304.496668
 31
0.0
  0
LINE
  5
78D
  8
DETAIL
  6
CONTINUOUS
 62
     5
 10
356.600812
 20
1304.496668
 30
0.0
 11
356.501826
 21
1304.304204
 31
0.0
  0
LINE
  5
78E
  8
DETAIL
  6
CONTINUOUS
 62
     5
 10
356.501826
 20
1304.304204
 30
0.0
 11
356.432763
 21
1304.140832
 31
0.0
  0
LINE
  5
78F
  8
DETAIL
  6
CONTINUOUS
 62
     5
 10
356.432763
 20
1304.140832
 30
0.0
 11
356.392641
 21
1304.004578
 31
0.0
  0
LINE
  5
790
  8
DETAIL
  6
CONTINUOUS
 62
     5
 10
356.392641
 20
1304.004578
 30
0.0
 11
356.38004
 21
1303.895538
 31
0.0
  0
LINE
  5
791
  8
DETAIL
  6
CONTINUOUS
 62
     5
 10
495.0
 20
1332.308468
 30
0.0
 11
495.0
 21
1374.002016
 31
0.0
  0
LINE
  5
792
  8
DETAIL
  6
CONTINUOUS
 62
     5
 10
495.0
 20
1374.002016
 30
0.0
 11
494.002016
 21
1374.002016
 31
0.0
  0
ARC
  5
793
  8
DETAIL
  6
CONTINUOUS
 62
     5
 10
494.002016
 20
1374.002016
 30
0.0
 40
0.199597
 50
0.0
 51
90.0
  0
LINE
  5
BB7
  8
DETAIL
  6
CONTINUOUS
 62
     5
 10
494.002016
 20
1375.0
 30
0.0
 11
495.0
 21
1374.002016
 31
0.0
  0
LINE
  5
BB8
  8
DETAIL
  6
CONTINUOUS
 62
     5
 10
-494.002016
 20
1375.0
 30
0.0
 11
-495.0
 21
1374.002016
 31
0.0
  0
LINE
  5
BB9
  8
DETAIL
  6
CONTINUOUS
 62
     5
 10
-495.0
 20
146.703629
 30
0.0
 11
-494.002016
 21
145.705645
 31
0.0
  0
LINE
  5
BE9
  8
SIZE
  6
CONTINUOUS
 62
    30
 10
514.002016
 20
1375.0
 30
0.0
 11
861.801967
 21
1375.0
 31
0.0
  0
LINE
  5
BEA
  8
SIZE
  6
CONTINUOUS
 62
    30
 10
504.022177
 20
0.0
 30
0.0
 11
861.801967
 21
0.0
 31
0.0
  0
LINE
  5
BEB
  8
SIZE
  6
CONTINUOUS
 62
    30
 10
831.801967
 20
1365.0
 30
0.0
 11
831.801967
 21
10.0
 31
0.0
  0
CIRCLE
  5
BEC
  8
SIZE
  6
CONTINUOUS
 62
    30
 10
831.801967
 20
1375.0
 30
0.0
 40
5.0
  0
LINE
  5
BED
  8
SIZE
  6
CONTINUOUS
 62
    30
 10
831.801967
 20
1370.0
 30
0.0
 11
831.801967
 21
1365.0
 31
0.0
  0
CIRCLE
  5
BEE
  8
SIZE
  6
CONTINUOUS
 62
    30
 10
831.801967
 20
0.0
 30
0.0
 40
5.0
  0
LINE
  5
BEF
  8
SIZE
  6
CONTINUOUS
 62
    30
 10
831.801967
 20
5.0
 30
0.0
 11
831.801967
 21
10.0
 31
0.0
  0
TEXT
  5
BF0
  8
SIZE
  6
CONTINUOUS
 62
    30
 10
811.801967
 20
591.5
 30
0.0
 40
64.0
  1
1375
 50
90.0
 41
0.9
 72
     1
 11
811.801967
 21
687.5
 31
0.0
  0
POINT
  5
BF1
  8
DEFPOINTS
  6
CONTINUOUS
 62
     7
 10
494.002016
 20
1375.0
 30
0.0
  0
POINT
  5
BF2
  8
DEFPOINTS
  6
CONTINUOUS
 62
     7
 10
484.022177
 20
0.0
 30
0.0
  0
POINT
  5
BF3
  8
DEFPOINTS
  6
CONTINUOUS
 62
     7
 10
831.801967
 20
0.0
 30
0.0
  0
LINE
  5
BF4
  8
BASIS
  6
DASHDOT
 62
     6
 10
0.0
 20
1446.118537
 30
0.0
 11
0.0
 21
-70.502219
 31
0.0
  0
TEXT
  5
C7B
  8
NOTE
  6
CONTINUOUS
 62
     4
 10
-992.653157
 20
683.400753
 30
0.0
 40
55.0
  1
RG %%C15.88
 50
359.999997
 41
0.840476
  7
STANDARD1
  0
TEXT
  5
C7C
  8
NOTE
  6
CONTINUOUS
 62
     4
 10
-942.317195
 20
820.501012
 30
0.0
 40
55.0
  1
RL %%C12.7
 50
359.999997
 41
0.840476
  7
STANDARD1
  0
LINE
  5
C8A
  8
NOTE
  6
CONTINUOUS
 62
     4
 10
-454.001634
 20
588.762709
 30
0.0
 11
-454.001634
 21
541.237291
 31
0.0
  0
LINE
  5
C8B
  8
NOTE
  6
CONTINUOUS
 62
     4
 10
-430.238925
 20
565.0
 30
0.0
 11
-477.764343
 21
565.0
 31
0.0
  0
LINE
  5
C8C
  8
NOTE
  6
CONTINUOUS
 62
     4
 10
-417.0
 20
635.59411
 30
0.0
 11
-417.0
 21
594.40589
 31
0.0
  0
LINE
  5
C8D
  8
NOTE
  6
CONTINUOUS
 62
     4
 10
-396.40589
 20
615.0
 30
0.0
 11
-437.59411
 21
615.0
 31
0.0
  0
LINE
  5
C8E
  8
SIZE
  6
CONTINUOUS
 62
    30
 10
-497.764343
 20
565.0
 30
0.0
 11
-736.563014
 21
565.0
 31
0.0
  0
LINE
  5
C8F
  8
SIZE
  6
CONTINUOUS
 62
    30
 10
-504.022177
 20
0.0
 30
0.0
 11
-736.563014
 21
0.0
 31
0.0
  0
LINE
  5
C90
  8
SIZE
  6
CONTINUOUS
 62
    30
 10
-706.563014
 20
555.0
 30
0.0
 11
-706.563014
 21
10.0
 31
0.0
  0
CIRCLE
  5
C91
  8
SIZE
  6
CONTINUOUS
 62
    30
 10
-706.563014
 20
565.0
 30
0.0
 40
5.0
  0
LINE
  5
C92
  8
SIZE
  6
CONTINUOUS
 62
    30
 10
-706.563014
 20
560.0
 30
0.0
 11
-706.563014
 21
555.0
 31
0.0
  0
CIRCLE
  5
C93
  8
SIZE
  6
CONTINUOUS
 62
    30
 10
-706.563014
 20
0.0
 30
0.0
 40
5.0
  0
LINE
  5
C94
  8
SIZE
  6
CONTINUOUS
 62
    30
 10
-706.563014
 20
5.0
 30
0.0
 11
-706.563014
 21
10.0
 31
0.0
  0
TEXT
  5
C95
  8
SIZE
  6
CONTINUOUS
 62
    30
 10
-726.563014
 20
208.442857
 30
0.0
 40
64.0
  1
565
 50
90.0
 41
0.9
 72
     1
 11
-726.563014
 21
282.5
 31
0.0
  0
POINT
  5
C96
  8
DEFPOINTS
  6
CONTINUOUS
 62
     7
 10
-477.764343
 20
565.0
 30
0.0
  0
POINT
  5
C97
  8
DEFPOINTS
  6
CONTINUOUS
 62
     7
 10
-484.022177
 20
0.0
 30
0.0
  0
POINT
  5
C98
  8
DEFPOINTS
  6
CONTINUOUS
 62
     7
 10
-706.563014
 20
0.0
 30
0.0
  0
LINE
  5
C99
  8
SIZE
  6
CONTINUOUS
 62
    30
 10
-504.022177
 20
0.0
 30
0.0
 11
-867.801037
 21
0.0
 31
0.0
  0
LINE
  5
C9A
  8
SIZE
  6
CONTINUOUS
 62
    30
 10
-457.59411
 20
615.0
 30
0.0
 11
-867.801037
 21
615.0
 31
0.0
  0
LINE
  5
C9B
  8
SIZE
  6
CONTINUOUS
 62
    30
 10
-837.801037
 20
10.0
 30
0.0
 11
-837.801037
 21
605.0
 31
0.0
  0
CIRCLE
  5
C9C
  8
SIZE
  6
CONTINUOUS
 62
    30
 10
-837.801037
 20
0.0
 30
0.0
 40
5.0
  0
LINE
  5
C9D
  8
SIZE
  6
CONTINUOUS
 62
    30
 10
-837.801037
 20
5.0
 30
0.0
 11
-837.801037
 21
10.0
 31
0.0
  0
CIRCLE
  5
C9E
  8
SIZE
  6
CONTINUOUS
 62
    30
 10
-837.801037
 20
615.0
 30
0.0
 40
5.0
  0
LINE
  5
C9F
  8
SIZE
  6
CONTINUOUS
 62
    30
 10
-837.801037
 20
610.0
 30
0.0
 11
-837.801037
 21
605.0
 31
0.0
  0
TEXT
  5
CA0
  8
SIZE
  6
CONTINUOUS
 62
    30
 10
-857.801037
 20
238.928571
 30
0.0
 40
64.0
  1
615
 50
90.0
 41
0.9
 72
     1
 11
-857.801037
 21
307.5
 31
0.0
  0
POINT
  5
CA1
  8
DEFPOINTS
  6
CONTINUOUS
 62
     7
 10
-484.022177
 20
0.0
 30
0.0
  0
POINT
  5
CA2
  8
DEFPOINTS
  6
CONTINUOUS
 62
     7
 10
-437.59411
 20
615.0
 30
0.0
  0
POINT
  5
CA3
  8
DEFPOINTS
  6
CONTINUOUS
 62
     7
 10
-837.801037
 20
615.0
 30
0.0
  0
LINE
  5
CB0
  8
ARRANGE
  6
CONTINUOUS
 62
     1
 10
-37.897321
 20
-37.897321
 30
0.0
 11
37.897321
 21
37.897321
 31
0.0
  0
LINE
  5
CB1
  8
ARRANGE
  6
CONTINUOUS
 62
     1
 10
-37.897321
 20
37.897321
 30
0.0
 11
37.897321
 21
-37.897321
 31
0.0
  0
CIRCLE
  5
CB2
  8
ARRANGE
  6
CONTINUOUS
 62
     1
 10
0.0
 20
0.0
 30
0.0
 40
34.449674
  0
LINE
  5
CB3
  8
SIZE
  6
CONTINUOUS
 62
    30
 10
-495.0
 20
1394.002016
 30
0.0
 11
-495.0
 21
1503.756745
 31
0.0
  0
LINE
  5
CB4
  8
SIZE
  6
CONTINUOUS
 62
    30
 10
495.0
 20
1394.002016
 30
0.0
 11
495.0
 21
1503.756745
 31
0.0
  0
LINE
  5
CB5
  8
SIZE
  6
CONTINUOUS
 62
    30
 10
-485.0
 20
1473.756745
 30
0.0
 11
485.0
 21
1473.756745
 31
0.0
  0
CIRCLE
  5
CB6
  8
SIZE
  6
CONTINUOUS
 62
    30
 10
-495.0
 20
1473.756745
 30
0.0
 40
5.0
  0
LINE
  5
CB7
  8
SIZE
  6
CONTINUOUS
 62
    30
 10
-490.0
 20
1473.756745
 30
0.0
 11
-485.0
 21
1473.756745
 31
0.0
  0
CIRCLE
  5
CB8
  8
SIZE
  6
CONTINUOUS
 62
    30
 10
495.0
 20
1473.756745
 30
0.0
 40
5.0
  0
LINE
  5
CB9
  8
SIZE
  6
CONTINUOUS
 62
    30
 10
490.0
 20
1473.756745
 30
0.0
 11
485.0
 21
1473.756745
 31
0.0
  0
TEXT
  5
CBA
  8
SIZE
  6
CONTINUOUS
 62
    30
 10
-74.057143
 20
1493.756745
 30
0.0
 40
64.0
  1
990
 41
0.9
 72
     1
 11
0.0
 21
1493.756745
 31
0.0
  0
POINT
  5
CBB
  8
DEFPOINTS
  6
CONTINUOUS
 62
     7
 10
-495.0
 20
1374.002016
 30
0.0
  0
POINT
  5
CBC
  8
DEFPOINTS
  6
CONTINUOUS
 62
     7
 10
495.0
 20
1374.002016
 30
0.0
  0
POINT
  5
CBD
  8
DEFPOINTS
  6
CONTINUOUS
 62
     7
 10
495.0
 20
1473.756745
 30
0.0
  0
TEXT
  5
CBE
  8
NOTE
  6
CONTINUOUS
 62
     4
 10
532.512986
 20
635.970604
 30
0.0
 40
55.0
  1
横吸込口
 50
0.000003
 41
0.717708
  7
STANDARD1
  0
LINE
  5
CBF
  8
NOTE
  6
CONTINUOUS
 62
     4
 10
591.122906
 20
730.081333
 30
0.0
 11
654.993874
 21
730.081333
 31
0.0
  0
LINE
  5
CC0
  8
NOTE
  6
CONTINUOUS
 62
     4
 10
591.122906
 20
770.000688
 30
0.0
 11
654.993874
 21
770.000688
 31
0.0
  0
LINE
  5
CC1
  8
NOTE
  6
CONTINUOUS
 62
     4
 10
543.21968
 20
750.041011
 30
0.0
 11
591.122906
 21
706.129721
 31
0.0
  0
LINE
  5
CC2
  8
NOTE
  6
CONTINUOUS
 62
     4
 10
591.122906
 20
730.081333
 30
0.0
 11
591.122906
 21
706.129721
 31
0.0
  0
LINE
  5
CC3
  8
NOTE
  6
CONTINUOUS
 62
     4
 10
543.21968
 20
750.041011
 30
0.0
 11
591.122906
 21
793.952301
 31
0.0
  0
LINE
  5
CC4
  8
NOTE
  6
CONTINUOUS
 62
     4
 10
591.122906
 20
793.952301
 30
0.0
 11
591.122906
 21
770.000688
 31
0.0
  0
LINE
  5
CC5
  8
NOTE
  6
CONTINUOUS
 62
     4
 10
654.993874
 20
770.000688
 30
0.0
 11
654.993874
 21
730.081333
 31
0.0
  0
LINE
  5
CC6
  8
NOTE
  6
CONTINUOUS
 62
     4
 10
-226.759217
 20
0.0
 30
0.0
 11
-271.240783
 21
0.0
 31
0.0
  0
LINE
  5
CC7
  8
NOTE
  6
CONTINUOUS
 62
     4
 10
-249.0
 20
-22.240783
 30
0.0
 11
-249.0
 21
22.240783
 31
0.0
  0
LINE
  5
CC8
  8
NOTE
  6
CONTINUOUS
 62
     4
 10
-341.759217
 20
0.0
 30
0.0
 11
-386.240783
 21
0.0
 31
0.0
  0
LINE
  5
CC9
  8
NOTE
  6
CONTINUOUS
 62
     4
 10
-364.0
 20
-22.240783
 30
0.0
 11
-364.0
 21
22.240783
 31
0.0
  0
LINE
  5
CCA
  8
NOTE
  6
CONTINUOUS
 62
     4
 10
273.240783
 20
0.0
 30
0.0
 11
228.759217
 21
0.0
 31
0.0
  0
LINE
  5
CCB
  8
NOTE
  6
CONTINUOUS
 62
     4
 10
251.0
 20
-22.240783
 30
0.0
 11
251.0
 21
22.240783
 31
0.0
  0
LINE
  5
CCC
  8
NOTE
  6
CONTINUOUS
 62
     4
 10
388.240783
 20
0.0
 30
0.0
 11
343.759217
 21
0.0
 31
0.0
  0
LINE
  5
CCD
  8
NOTE
  6
CONTINUOUS
 62
     4
 10
366.0
 20
-22.240783
 30
0.0
 11
366.0
 21
22.240783
 31
0.0
  0
LINE
  5
CCE
  8
SIZE
  6
CONTINUOUS
 62
    30
 10
-249.0
 20
-42.240783
 30
0.0
 11
-249.0
 21
-224.227748
 31
0.0
  0
LINE
  5
CCF
  8
SIZE
  6
CONTINUOUS
 62
    30
 10
251.0
 20
-42.240783
 30
0.0
 11
251.0
 21
-224.227748
 31
0.0
  0
LINE
  5
CD0
  8
SIZE
  6
CONTINUOUS
 62
    30
 10
-239.0
 20
-194.227748
 30
0.0
 11
241.0
 21
-194.227748
 31
0.0
  0
CIRCLE
  5
CD1
  8
SIZE
  6
CONTINUOUS
 62
    30
 10
-249.0
 20
-194.227748
 30
0.0
 40
5.0
  0
LINE
  5
CD2
  8
SIZE
  6
CONTINUOUS
 62
    30
 10
-244.0
 20
-194.227748
 30
0.0
 11
-239.0
 21
-194.227748
 31
0.0
  0
CIRCLE
  5
CD3
  8
SIZE
  6
CONTINUOUS
 62
    30
 10
251.0
 20
-194.227748
 30
0.0
 40
5.0
  0
LINE
  5
CD4
  8
SIZE
  6
CONTINUOUS
 62
    30
 10
246.0
 20
-194.227748
 30
0.0
 11
241.0
 21
-194.227748
 31
0.0
  0
TEXT
  5
CD5
  8
SIZE
  6
CONTINUOUS
 62
    30
 10
-73.057143
 20
-174.227748
 30
0.0
 40
64.0
  1
500
 41
0.9
 72
     1
 11
1.0
 21
-174.227748
 31
0.0
  0
POINT
  5
CD6
  8
DEFPOINTS
  6
CONTINUOUS
 62
     7
 10
-249.0
 20
-22.240783
 30
0.0
  0
POINT
  5
CD7
  8
DEFPOINTS
  6
CONTINUOUS
 62
     7
 10
251.0
 20
-22.240783
 30
0.0
  0
POINT
  5
CD8
  8
DEFPOINTS
  6
CONTINUOUS
 62
     7
 10
251.0
 20
-194.227748
 30
0.0
  0
LINE
  5
CD9
  8
SIZE
  6
CONTINUOUS
 62
    30
 10
-364.0
 20
-42.240783
 30
0.0
 11
-364.0
 21
-366.430249
 31
0.0
  0
LINE
  5
CDA
  8
SIZE
  6
CONTINUOUS
 62
    30
 10
366.0
 20
-42.240783
 30
0.0
 11
366.0
 21
-366.430249
 31
0.0
  0
LINE
  5
CDB
  8
SIZE
  6
CONTINUOUS
 62
    30
 10
-354.0
 20
-336.430249
 30
0.0
 11
356.0
 21
-336.430249
 31
0.0
  0
CIRCLE
  5
CDC
  8
SIZE
  6
CONTINUOUS
 62
    30
 10
-364.0
 20
-336.430249
 30
0.0
 40
5.0
  0
LINE
  5
CDD
  8
SIZE
  6
CONTINUOUS
 62
    30
 10
-359.0
 20
-336.430249
 30
0.0
 11
-354.0
 21
-336.430249
 31
0.0
  0
CIRCLE
  5
CDE
  8
SIZE
  6
CONTINUOUS
 62
    30
 10
366.0
 20
-336.430249
 30
0.0
 40
5.0
  0
LINE
  5
CDF
  8
SIZE
  6
CONTINUOUS
 62
    30
 10
361.0
 20
-336.430249
 30
0.0
 11
356.0
 21
-336.430249
 31
0.0
  0
TEXT
  5
CE0
  8
SIZE
  6
CONTINUOUS
 62
    30
 10
-73.057143
 20
-316.430249
 30
0.0
 40
64.0
  1
730
 41
0.9
 72
     1
 11
1.0
 21
-316.430249
 31
0.0
  0
POINT
  5
CE1
  8
DEFPOINTS
  6
CONTINUOUS
 62
     7
 10
-364.0
 20
-22.240783
 30
0.0
  0
POINT
  5
CE2
  8
DEFPOINTS
  6
CONTINUOUS
 62
     7
 10
366.0
 20
-22.240783
 30
0.0
  0
POINT
  5
CE3
  8
DEFPOINTS
  6
CONTINUOUS
 62
     7
 10
366.0
 20
-336.430249
 30
0.0
  0
LINE
  5
CE4
  8
NOTE
  6
CONTINUOUS
 62
     4
 10
1615.414797
 20
-260.914563
 30
0.0
 11
536.846813
 21
-260.914563
 31
0.0
  0
LINE
  5
CE5
  8
NOTE
  6
CONTINUOUS
 62
     4
 10
1615.414797
 20
-148.572258
 30
0.0
 11
537.521959
 21
-148.572258
 31
0.0
  0
LINE
  5
CE6
  8
NOTE
  6
CONTINUOUS
 62
     4
 10
537.521959
 20
-148.572258
 30
0.0
 11
366.0
 21
0.0
 31
0.0
  0
LINE
  5
CE7
  8
NOTE
  6
CONTINUOUS
 62
     4
 10
536.846813
 20
-260.914563
 30
0.0
 11
251.0
 21
0.0
 31
0.0
  0
LINE
  5
CE8
  8
NOTE
  6
CONTINUOUS
 62
     4
 10
366.0
 20
0.0
 30
0.0
 11
391.64077
 21
-12.473537
 31
0.0
  0
LINE
  5
CE9
  8
NOTE
  6
CONTINUOUS
 62
     4
 10
366.0
 20
0.0
 30
0.0
 11
381.96879
 21
-23.622785
 31
0.0
  0
LINE
  5
CEA
  8
NOTE
  6
CONTINUOUS
 62
     4
 10
251.0
 20
0.0
 30
0.0
 11
276.64077
 21
-12.473537
 31
0.0
  0
LINE
  5
CEB
  8
NOTE
  6
CONTINUOUS
 62
     4
 10
251.0
 20
0.0
 30
0.0
 11
266.96879
 21
-23.622785
 31
0.0
  0
LINE
  5
CEC
  8
SIZE
  6
CONTINUOUS
 62
    30
 10
-249.0
 20
-42.240783
 30
0.0
 11
-249.0
 21
-224.227748
 31
0.0
  0
LINE
  5
CED
  8
SIZE
  6
CONTINUOUS
 62
    30
 10
-495.0
 20
126.703629
 30
0.0
 11
-495.0
 21
-224.227748
 31
0.0
  0
LINE
  5
CEE
  8
SIZE
  6
CONTINUOUS
 62
    30
 10
-259.0
 20
-194.227748
 30
0.0
 11
-485.0
 21
-194.227748
 31
0.0
  0
LINE
  5
CEF
  8
SIZE
  6
CONTINUOUS
 62
    30
 10
-495.0
 20
-194.227748
 30
0.0
 11
-690.371429
 21
-194.227748
 31
0.0
  0
CIRCLE
  5
CF0
  8
SIZE
  6
CONTINUOUS
 62
    30
 10
-249.0
 20
-194.227748
 30
0.0
 40
5.0
  0
LINE
  5
CF1
  8
SIZE
  6
CONTINUOUS
 62
    30
 10
-254.0
 20
-194.227748
 30
0.0
 11
-259.0
 21
-194.227748
 31
0.0
  0
CIRCLE
  5
CF2
  8
SIZE
  6
CONTINUOUS
 62
    30
 10
-495.0
 20
-194.227748
 30
0.0
 40
5.0
  0
LINE
  5
CF3
  8
SIZE
  6
CONTINUOUS
 62
    30
 10
-490.0
 20
-194.227748
 30
0.0
 11
-485.0
 21
-194.227748
 31
0.0
  0
TEXT
  5
CF4
  8
SIZE
  6
CONTINUOUS
 62
    30
 10
-670.371429
 20
-174.227748
 30
0.0
 40
64.0
  1
246
 41
0.9
 72
     1
 11
-597.685714
 21
-174.227748
 31
0.0
  0
POINT
  5
CF5
  8
DEFPOINTS
  6
CONTINUOUS
 62
     7
 10
-249.0
 20
-22.240783
 30
0.0
  0
POINT
  5
CF6
  8
DEFPOINTS
  6
CONTINUOUS
 62
     7
 10
-495.0
 20
146.703629
 30
0.0
  0
POINT
  5
CF7
  8
DEFPOINTS
  6
CONTINUOUS
 62
     7
 10
-495.0
 20
-194.227748
 30
0.0
  0
LINE
  5
CF8
  8
SIZE
  6
CONTINUOUS
 62
    30
 10
-495.0
 20
126.703629
 30
0.0
 11
-495.0
 21
-366.563136
 31
0.0
  0
LINE
  5
CF9
  8
SIZE
  6
CONTINUOUS
 62
    30
 10
-364.0
 20
-42.240783
 30
0.0
 11
-364.0
 21
-366.563136
 31
0.0
  0
LINE
  5
CFA
  8
SIZE
  6
CONTINUOUS
 62
    30
 10
-505.0
 20
-336.563136
 30
0.0
 11
-515.0
 21
-336.563136
 31
0.0
  0
LINE
  5
CFB
  8
SIZE
  6
CONTINUOUS
 62
    30
 10
-354.0
 20
-336.563136
 30
0.0
 11
-344.0
 21
-336.563136
 31
0.0
  0
LINE
  5
CFC
  8
SIZE
  6
CONTINUOUS
 62
    30
 10
-495.0
 20
-336.563136
 30
0.0
 11
-364.0
 21
-336.563136
 31
0.0
  0
CIRCLE
  5
CFD
  8
SIZE
  6
CONTINUOUS
 62
    30
 10
-495.0
 20
-336.563136
 30
0.0
 40
5.0
  0
LINE
  5
CFE
  8
SIZE
  6
CONTINUOUS
 62
    30
 10
-500.0
 20
-336.563136
 30
0.0
 11
-505.0
 21
-336.563136
 31
0.0
  0
CIRCLE
  5
CFF
  8
SIZE
  6
CONTINUOUS
 62
    30
 10
-364.0
 20
-336.563136
 30
0.0
 40
5.0
  0
LINE
  5
D00
  8
SIZE
  6
CONTINUOUS
 62
    30
 10
-359.0
 20
-336.563136
 30
0.0
 11
-354.0
 21
-336.563136
 31
0.0
  0
TEXT
  5
D01
  8
SIZE
  6
CONTINUOUS
 62
    30
 10
-485.728571
 20
-316.563136
 30
0.0
 40
64.0
  1
131
 41
0.9
 72
     1
 11
-429.5
 21
-316.563136
 31
0.0
  0
POINT
  5
D02
  8
DEFPOINTS
  6
CONTINUOUS
 62
     7
 10
-495.0
 20
146.703629
 30
0.0
  0
POINT
  5
D03
  8
DEFPOINTS
  6
CONTINUOUS
 62
     7
 10
-364.0
 20
-22.240783
 30
0.0
  0
POINT
  5
D04
  8
DEFPOINTS
  6
CONTINUOUS
 62
     7
 10
-364.0
 20
-336.563136
 30
0.0
  0
CIRCLE
  5
F20
  8
FIX
  6
CONTINUOUS
 62
    11
 10
-364.0
 20
0.0
 30
0.0
 40
18.598564
  0
CIRCLE
  5
F21
  8
FIX
  6
CONTINUOUS
 62
    11
 10
-249.0
 20
0.0
 30
0.0
 40
18.598564
  0
CIRCLE
  5
F22
  8
FIX
  6
CONTINUOUS
 62
    11
 10
251.0
 20
0.0
 30
0.0
 40
18.598564
  0
CIRCLE
  5
F23
  8
FIX
  6
CONTINUOUS
 62
    11
 10
366.0
 20
0.0
 30
0.0
 40
18.598564
  0
LINE
  5
F46
  8
SIZE
  6
CONTINUOUS
 62
    30
 10
-454.001634
 20
521.237291
 30
0.0
 11
-454.001634
 21
373.984403
 31
0.0
  0
LINE
  5
F47
  8
SIZE
  6
CONTINUOUS
 62
    30
 10
-495.0
 20
1354.002016
 30
0.0
 11
-495.0
 21
373.984403
 31
0.0
  0
LINE
  5
F48
  8
SIZE
  6
CONTINUOUS
 62
    30
 10
-444.001634
 20
403.984403
 30
0.0
 11
-434.001634
 21
403.984403
 31
0.0
  0
LINE
  5
F49
  8
SIZE
  6
CONTINUOUS
 62
    30
 10
-505.0
 20
403.984403
 30
0.0
 11
-623.571429
 21
403.984403
 31
0.0
  0
LINE
  5
F4A
  8
SIZE
  6
CONTINUOUS
 62
    30
 10
-454.001634
 20
403.984403
 30
0.0
 11
-495.0
 21
403.984403
 31
0.0
  0
CIRCLE
  5
F4B
  8
SIZE
  6
CONTINUOUS
 62
    30
 10
-454.001634
 20
403.984403
 30
0.0
 40
5.0
  0
LINE
  5
F4C
  8
SIZE
  6
CONTINUOUS
 62
    30
 10
-449.001634
 20
403.984403
 30
0.0
 11
-444.001634
 21
403.984403
 31
0.0
  0
CIRCLE
  5
F4D
  8
SIZE
  6
CONTINUOUS
 62
    30
 10
-495.0
 20
403.984403
 30
0.0
 40
5.0
  0
LINE
  5
F4E
  8
SIZE
  6
CONTINUOUS
 62
    30
 10
-500.0
 20
403.984403
 30
0.0
 11
-505.0
 21
403.984403
 31
0.0
  0
TEXT
  5
F4F
  8
SIZE
  6
CONTINUOUS
 62
    30
 10
-603.571429
 20
423.984403
 30
0.0
 40
64.0
  1
41
 41
0.9
 72
     1
 11
-569.285714
 21
423.984403
 31
0.0
  0
POINT
  5
F50
  8
DEFPOINTS
  6
CONTINUOUS
 62
     7
 10
-454.001634
 20
541.237291
 30
0.0
  0
POINT
  5
F51
  8
DEFPOINTS
  6
CONTINUOUS
 62
     7
 10
-495.0
 20
1374.002016
 30
0.0
  0
POINT
  5
F52
  8
DEFPOINTS
  6
CONTINUOUS
 62
     7
 10
-495.0
 20
403.984403
 30
0.0
  0
LINE
  5
F53
  8
SIZE
  6
CONTINUOUS
 62
    30
 10
-417.0
 20
574.40589
 30
0.0
 11
-417.0
 21
247.451234
 31
0.0
  0
LINE
  5
F54
  8
SIZE
  6
CONTINUOUS
 62
    30
 10
-495.0
 20
1354.002016
 30
0.0
 11
-495.0
 21
247.451234
 31
0.0
  0
LINE
  5
F55
  8
SIZE
  6
CONTINUOUS
 62
    30
 10
-427.0
 20
277.451234
 30
0.0
 11
-485.0
 21
277.451234
 31
0.0
  0
LINE
  5
F56
  8
SIZE
  6
CONTINUOUS
 62
    30
 10
-495.0
 20
277.451234
 30
0.0
 11
-638.257143
 21
277.451234
 31
0.0
  0
CIRCLE
  5
F57
  8
SIZE
  6
CONTINUOUS
 62
    30
 10
-417.0
 20
277.451234
 30
0.0
 40
5.0
  0
LINE
  5
F58
  8
SIZE
  6
CONTINUOUS
 62
    30
 10
-422.0
 20
277.451234
 30
0.0
 11
-427.0
 21
277.451234
 31
0.0
  0
CIRCLE
  5
F59
  8
SIZE
  6
CONTINUOUS
 62
    30
 10
-495.0
 20
277.451234
 30
0.0
 40
5.0
  0
LINE
  5
F5A
  8
SIZE
  6
CONTINUOUS
 62
    30
 10
-490.0
 20
277.451234
 30
0.0
 11
-485.0
 21
277.451234
 31
0.0
  0
TEXT
  5
F5B
  8
SIZE
  6
CONTINUOUS
 62
    30
 10
-618.257143
 20
297.451234
 30
0.0
 40
64.0
  1
78
 41
0.9
 72
     1
 11
-571.628571
 21
297.451234
 31
0.0
  0
POINT
  5
F5C
  8
DEFPOINTS
  6
CONTINUOUS
 62
     7
 10
-417.0
 20
594.40589
 30
0.0
  0
POINT
  5
F5D
  8
DEFPOINTS
  6
CONTINUOUS
 62
     7
 10
-495.0
 20
1374.002016
 30
0.0
  0
POINT
  5
F5E
  8
DEFPOINTS
  6
CONTINUOUS
 62
     7
 10
-495.0
 20
277.451234
 30
0.0
  0
LINE
  5
F5F
  8
OUTLINE
  6
CONTINUOUS
 62
     3
 10
-494.002016
 20
1375.0
 30
0.0
 11
494.002016
 21
1375.0
 31
0.0
  0
LINE
  5
F60
  8
OUTLINE
  6
CONTINUOUS
 62
     3
 10
494.002016
 20
1375.0
 30
0.0
 11
495.0
 21
1374.002016
 31
0.0
  0
LINE
  5
F61
  8
OUTLINE
  6
CONTINUOUS
 62
     3
 10
495.0
 20
1374.002016
 30
0.0
 11
495.0
 21
149.697581
 31
0.0
  0
LINE
  5
F62
  8
OUTLINE
  6
CONTINUOUS
 62
     3
 10
495.0
 20
149.697581
 30
0.0
 11
484.022177
 21
149.697581
 31
0.0
  0
LINE
  5
F63
  8
OUTLINE
  6
CONTINUOUS
 62
     3
 10
484.022177
 20
149.697581
 30
0.0
 11
484.022177
 21
139.717742
 31
0.0
  0
LINE
  5
F64
  8
OUTLINE
  6
CONTINUOUS
 62
     3
 10
484.022177
 20
139.717742
 30
0.0
 11
474.042339
 21
129.737903
 31
0.0
  0
LINE
  5
F65
  8
OUTLINE
  6
CONTINUOUS
 62
     3
 10
474.042339
 20
129.737903
 30
0.0
 11
403.185484
 21
129.737903
 31
0.0
  0
ARC
  5
F66
  8
OUTLINE
  6
CONTINUOUS
 62
     3
 10
403.185484
 20
120.756048
 30
0.0
 40
8.981855
 50
90.0
 51
180.0
  0
LINE
  5
F67
  8
OUTLINE
  6
CONTINUOUS
 62
     3
 10
394.203629
 20
120.756048
 30
0.0
 11
394.203629
 21
33.931452
 31
0.0
  0
ARC
  5
F68
  8
OUTLINE
  6
CONTINUOUS
 62
     3
 10
403.185484
 20
33.931452
 30
0.0
 40
8.981855
 50
180.0
 51
270.0
  0
LINE
  5
F69
  8
OUTLINE
  6
CONTINUOUS
 62
     3
 10
403.185484
 20
24.949597
 30
0.0
 11
474.042339
 21
24.949597
 31
0.0
  0
LINE
  5
F6A
  8
OUTLINE
  6
CONTINUOUS
 62
     3
 10
474.042339
 20
24.949597
 30
0.0
 11
484.022177
 21
14.969758
 31
0.0
  0
LINE
  5
F6B
  8
OUTLINE
  6
CONTINUOUS
 62
     3
 10
484.022177
 20
14.969758
 30
0.0
 11
484.022177
 21
0.0
 31
0.0
  0
LINE
  5
F6C
  8
OUTLINE
  6
CONTINUOUS
 62
     3
 10
484.022177
 20
0.0
 30
0.0
 11
-484.022177
 21
0.0
 31
0.0
  0
LINE
  5
F6D
  8
OUTLINE
  6
CONTINUOUS
 62
     3
 10
-484.022177
 20
0.0
 30
0.0
 11
-484.022177
 21
14.969758
 31
0.0
  0
LINE
  5
F6E
  8
OUTLINE
  6
CONTINUOUS
 62
     3
 10
-484.022177
 20
14.969758
 30
0.0
 11
-474.042339
 21
24.949597
 31
0.0
  0
LINE
  5
F6F
  8
OUTLINE
  6
CONTINUOUS
 62
     3
 10
-474.042339
 20
24.949597
 30
0.0
 11
-403.185484
 21
24.949597
 31
0.0
  0
ARC
  5
F70
  8
OUTLINE
  6
CONTINUOUS
 62
     3
 10
-403.185484
 20
33.931452
 30
0.0
 40
8.981855
 50
270.0
 51
0.0
  0
LINE
  5
F71
  8
OUTLINE
  6
CONTINUOUS
 62
     3
 10
-394.203629
 20
33.931452
 30
0.0
 11
-394.203629
 21
120.756048
 31
0.0
  0
ARC
  5
F72
  8
OUTLINE
  6
CONTINUOUS
 62
     3
 10
-403.185484
 20
120.756048
 30
0.0
 40
8.981855
 50
0.0
 51
90.0
  0
LINE
  5
F73
  8
OUTLINE
  6
CONTINUOUS
 62
     3
 10
-403.185484
 20
129.737903
 30
0.0
 11
-474.042339
 21
129.737903
 31
0.0
  0
LINE
  5
F74
  8
OUTLINE
  6
CONTINUOUS
 62
     3
 10
-474.042339
 20
129.737903
 30
0.0
 11
-484.022177
 21
139.717742
 31
0.0
  0
LINE
  5
F75
  8
OUTLINE
  6
CONTINUOUS
 62
     3
 10
-484.022177
 20
139.717742
 30
0.0
 11
-484.022177
 21
145.705645
 31
0.0
  0
LINE
  5
F76
  8
OUTLINE
  6
CONTINUOUS
 62
     3
 10
-484.022177
 20
145.705645
 30
0.0
 11
-494.002016
 21
145.705645
 31
0.0
  0
LINE
  5
F77
  8
OUTLINE
  6
CONTINUOUS
 62
     3
 10
-494.002016
 20
145.705645
 30
0.0
 11
-495.0
 21
146.703629
 31
0.0
  0
LINE
  5
F78
  8
OUTLINE
  6
CONTINUOUS
 62
     3
 10
-495.0
 20
146.703629
 30
0.0
 11
-495.0
 21
1374.002016
 31
0.0
  0
LINE
  5
F79
  8
OUTLINE
  6
CONTINUOUS
 62
     3
 10
-495.0
 20
1374.002016
 30
0.0
 11
-494.002016
 21
1375.0
 31
0.0
  0
TEXT
  5
13E9
  8
ETC
  6
CONTINUOUS
 62
    61
 10
965.41787
 20
1462.816242
 30
0.0
 40
90.0
  1
RV-P5A_2
 50
0.000003
 41
0.603059
  7
STANDARD1
  0
TEXT
  5
142F
  8
NOTE
  6
CONTINUOUS
 62
     4
 10
544.918346
 20
-142.40507
 30
0.0
 40
55.0
  1
AH 2X2-15X22長穴 <Ｍ12ボルト>
 50
359.999997
 41
0.851962
  7
STANDARD1
  0
TEXT
  5
1430
  8
NOTE
  6
CONTINUOUS
 62
     4
 10
543.49416
 20
-255.135784
 30
0.0
 40
55.0
  1
AH 2X2-12X30長穴 <Ｍ10ボルト>
 50
359.999997
 41
0.851962
  7
STANDARD1
  0
ENDSEC
  0
EOF
