  0
SECTION
  2
HEADER
  9
$ACADVER
  1
AC1009
  9
$INSBASE
 10
0.0
 20
0.0
 30
0.0
  9
$EXTMIN
 10
-1146.5289
 20
-1041.717806
 30
0.0
  9
$EXTMAX
 10
1661.131677
 20
825.019095
 30
0.0
  9
$LIMMIN
 10
-4200.0
 20
-2970.0
  9
$LIMMAX
 10
4200.0
 20
2970.0
  9
$ORTHOMODE
 70
     1
  9
$REGENMODE
 70
     1
  9
$FILLMODE
 70
     1
  9
$QTEXTMODE
 70
     0
  9
$MIRRTEXT
 70
     0
  9
$DRAGMODE
 70
     2
  9
$LTSCALE
 40
20.0
  9
$OSMODE
 70
  2081
  9
$ATTMODE
 70
     1
  9
$TEXTSIZE
 40
64.0
  9
$TRACEWID
 40
0.05
  9
$TEXTSTYLE
  7
STANDARD
  9
$CLAYER
  8
SIZE
  9
$CELTYPE
  6
CONTINUOUS
  9
$CECOLOR
 62
     7
  9
$DIMSCALE
 40
1.0
  9
$DIMASZ
 40
10.0
  9
$DIMEXO
 40
20.0
  9
$DIMDLI
 40
200.0
  9
$DIMRND
 40
0.0
  9
$DIMDLE
 40
0.0
  9
$DIMEXE
 40
30.0
  9
$DIMTP
 40
0.0
  9
$DIMTM
 40
0.0
  9
$DIMTXT
 40
64.0
  9
$DIMCEN
 40
0.0
  9
$DIMTSZ
 40
0.0
  9
$DIMTOL
 70
     0
  9
$DIMLIM
 70
     0
  9
$DIMTIH
 70
     0
  9
$DIMTOH
 70
     0
  9
$DIMSE1
 70
     0
  9
$DIMSE2
 70
     0
  9
$DIMTAD
 70
     1
  9
$DIMZIN
 70
     8
  9
$DIMBLK
  1
DOTBLANK
  9
$DIMASO
 70
     1
  9
$DIMSHO
 70
     0
  9
$DIMPOST
  1

  9
$DIMAPOST
  1

  9
$DIMALT
 70
     0
  9
$DIMALTD
 70
     2
  9
$DIMALTF
 40
25.4
  9
$DIMLFAC
 40
1.0
  9
$DIMTOFL
 70
     1
  9
$DIMTVP
 40
0.0
  9
$DIMTIX
 70
     1
  9
$DIMSOXD
 70
     0
  9
$DIMSAH
 70
     0
  9
$DIMBLK1
  1

  9
$DIMBLK2
  1

  9
$DIMSTYLE
  2
STANDARD
  9
$DIMCLRD
 70
     0
  9
$DIMCLRE
 70
     0
  9
$DIMCLRT
 70
     0
  9
$DIMTFAC
 40
1.0
  9
$DIMGAP
 40
0.09
  9
$LUNITS
 70
     2
  9
$LUPREC
 70
     4
  9
$SKETCHINC
 40
0.1
  9
$FILLETRAD
 40
0.0
  9
$AUNITS
 70
     1
  9
$AUPREC
 70
     3
  9
$MENU
  1
ACAD
  9
$ELEVATION
 40
0.0
  9
$PELEVATION
 40
0.0
  9
$THICKNESS
 40
0.0
  9
$LIMCHECK
 70
     0
  9
$BLIPMODE
 70
     0
  9
$CHAMFERA
 40
0.0
  9
$CHAMFERB
 40
0.0
  9
$SKPOLY
 70
     0
  9
$TDCREATE
 40
2449761.493623
  9
$TDUPDATE
 40
2453756.430143
  9
$TDINDWG
 40
4.098653
  9
$TDUSRTIMER
 40
4.098652
  9
$USRTIMER
 70
     1
  9
$ANGBASE
 50
0.0
  9
$ANGDIR
 70
     0
  9
$PDMODE
 70
    35
  9
$PDSIZE
 40
100.0
  9
$PLINEWID
 40
0.0
  9
$COORDS
 70
     0
  9
$SPLFRAME
 70
     0
  9
$SPLINETYPE
 70
     6
  9
$SPLINESEGS
 70
     8
  9
$ATTDIA
 70
     0
  9
$ATTREQ
 70
     1
  9
$HANDLING
 70
     1
  9
$HANDSEED
  5
1749
  9
$SURFTAB1
 70
     6
  9
$SURFTAB2
 70
     6
  9
$SURFTYPE
 70
     6
  9
$SURFU
 70
     6
  9
$SURFV
 70
     6
  9
$UCSNAME
  2

  9
$UCSORG
 10
0.0
 20
0.0
 30
0.0
  9
$UCSXDIR
 10
1.0
 20
0.0
 30
0.0
  9
$UCSYDIR
 10
0.0
 20
1.0
 30
0.0
  9
$PUCSNAME
  2

  9
$PUCSORG
 10
0.0
 20
0.0
 30
0.0
  9
$PUCSXDIR
 10
1.0
 20
0.0
 30
0.0
  9
$PUCSYDIR
 10
0.0
 20
1.0
 30
0.0
  9
$USERI1
 70
     0
  9
$USERI2
 70
     0
  9
$USERI3
 70
     0
  9
$USERI4
 70
     0
  9
$USERI5
 70
     0
  9
$USERR1
 40
20.0
  9
$USERR2
 40
0.0
  9
$USERR3
 40
0.0
  9
$USERR4
 40
0.0
  9
$USERR5
 40
0.0
  9
$WORLDVIEW
 70
     1
  9
$SHADEDGE
 70
     3
  9
$SHADEDIF
 70
    70
  9
$TILEMODE
 70
     1
  9
$MAXACTVP
 70
    48
  9
$PLIMCHECK
 70
     0
  9
$PEXTMIN
 10
1.000000E+020
 20
1.000000E+020
 30
1.000000E+020
  9
$PEXTMAX
 10
-1.000000E+020
 20
-1.000000E+020
 30
-1.000000E+020
  9
$PLIMMIN
 10
0.0
 20
0.0
  9
$PLIMMAX
 10
12.0
 20
9.0
  9
$UNITMODE
 70
     0
  9
$VISRETAIN
 70
     1
  9
$PLINEGEN
 70
     0
  9
$PSLTSCALE
 70
     1
  0
ENDSEC
  0
SECTION
  2
TABLES
  0
TABLE
  2
VPORT
 70
     2
  0
VPORT
  2
*ACTIVE
 70
     0
 10
0.0
 20
0.0
 11
1.0
 21
1.0
 12
1081.755319
 22
0.0
 13
0.0
 23
0.0
 14
50.0
 24
50.0
 15
100.0
 25
100.0
 16
0.0
 26
0.0
 36
1.0
 17
0.0
 27
0.0
 37
0.0
 40
5940.0
 41
1.778369
 42
50.0
 43
0.0
 44
0.0
 50
0.0
 51
0.0
 71
     0
 72
  1000
 73
     1
 74
     0
 75
     0
 76
     0
 77
     0
 78
     0
  0
ENDTAB
  0
TABLE
  2
LTYPE
 70
     2
  0
LTYPE
  2
CONTINUOUS
 70
     0
  3
実線
 72
    65
 73
     0
 40
0.0
  0
LTYPE
  2
DASHDOT
 70
     0
  3
____ _ ____ _ ____ _ ____ _ ____ _ ____ _ ____
 72
    65
 73
     4
 40
5.5
 49
4.0
 49
-0.6
 49
0.3
 49
-0.6
  0
ENDTAB
  0
TABLE
  2
LAYER
 70
    12
  0
LAYER
  2
0
 70
     0
 62
     7
  6
CONTINUOUS
  0
LAYER
  2
SIZE
 70
     0
 62
    30
  6
CONTINUOUS
  0
LAYER
  2
OUTLINE
 70
     0
 62
     3
  6
CONTINUOUS
  0
LAYER
  2
DETAIL
 70
     0
 62
     5
  6
CONTINUOUS
  0
LAYER
  2
BASIS
 70
     0
 62
     6
  6
DASHDOT
  0
LAYER
  2
NOTE
 70
     0
 62
     4
  6
CONTINUOUS
  0
LAYER
  2
ARRANGE
 70
     0
 62
     1
  6
CONTINUOUS
  0
LAYER
  2
FIX
 70
     0
 62
    11
  6
CONTINUOUS
  0
LAYER
  2
SERVICESPACE
 70
     0
 62
     2
  6
DASHDOT
  0
LAYER
  2
ETC
 70
     0
 62
    61
  6
CONTINUOUS
  0
LAYER
  2
SYMBOLLINE
 70
     0
 62
    15
  6
CONTINUOUS
  0
LAYER
  2
DEFPOINTS
 70
     0
 62
     7
  6
CONTINUOUS
  0
ENDTAB
  0
TABLE
  2
STYLE
 70
     2
  0
STYLE
  2
STANDARD
 70
     0
 40
0.0
 41
0.9
 50
0.0
 71
     0
 42
64.0
  3
SIMPLEX
  4
BIGFONT
  0
STYLE
  2
STANDARD1
 70
     0
 40
0.0
 41
1.0
 50
0.0
 71
     0
 42
3.5
  3
MONOTXT
  4
BIGFONT
  0
ENDTAB
  0
TABLE
  2
VIEW
 70
     1
  0
VIEW
  2
ALL
 70
     0
 40
6056.230032
 10
0.0
 20
58.115016
 41
8400.0
 11
0.0
 21
0.0
 31
1.0
 12
0.0
 22
0.0
 32
0.0
 42
50.0
 43
0.0
 44
0.0
 50
0.0
 71
     0
  0
ENDTAB
  0
TABLE
  2
UCS
 70
     0
  0
ENDTAB
  0
TABLE
  2
APPID
 70
     1
  0
APPID
  2
ACAD
 70
     0
  0
ENDTAB
  0
TABLE
  2
DIMSTYLE
 70
     1
  0
DIMSTYLE
  2
STANDARD
 70
     0
  3

  4

  5

  6

  7

 40
1.0
 41
0.18
 42
0.0625
 43
0.38
 44
0.18
 45
0.0
 46
0.0
 47
0.0
 48
0.0
140
0.18
141
0.09
142
0.0
143
25.4
144
1.0
145
0.0
146
1.0
147
0.09
 71
     0
 72
     0
 73
     1
 74
     1
 75
     0
 76
     0
 77
     0
 78
     0
170
     0
171
     2
172
     0
173
     0
174
     0
175
     0
176
     0
177
     0
178
     0
  0
ENDTAB
  0
ENDSEC
  0
SECTION
  2
BLOCKS
  0
BLOCK
  8
0
  2
$MODEL_SPACE
 70
     0
 10
0.0
 20
0.0
 30
0.0
  3
$MODEL_SPACE
  1

  0
ENDBLK
  5
172B
  8
0
  0
BLOCK
 67
     1
  8
0
  2
$PAPER_SPACE
 70
     0
 10
0.0
 20
0.0
 30
0.0
  3
$PAPER_SPACE
  1

  0
ENDBLK
  5
1728
 67
     1
  8
0
  0
BLOCK
  8
0
  2
_DOTBLANK
 70
     0
 10
0.0
 20
0.0
 30
0.0
  3
_DOTBLANK
  1

  0
CIRCLE
  5
148B
  8
0
  6
CONTINUOUS
 62
     7
 10
0.0
 20
0.0
 30
0.0
 40
0.5
  0
LINE
  5
148C
  8
0
  6
CONTINUOUS
 62
     7
 10
-0.5
 20
0.0
 30
0.0
 11
-1.0
 21
0.0
 31
0.0
  0
ENDBLK
  5
148D
  8
0
  0
ENDSEC
  0
SECTION
  2
ENTITIES
  0
TEXT
  5
148E
  8
NOTE
  6
CONTINUOUS
 62
     4
 10
608.134392
 20
-94.282392
 30
0.0
 40
55.0
  1
横吸込口
 50
0.000003
 41
0.717708
  7
STANDARD1
  0
LINE
  5
148F
  8
NOTE
  6
CONTINUOUS
 62
     4
 10
666.744311
 20
-0.171662
 30
0.0
 11
730.615279
 21
-0.171662
 31
0.0
  0
LINE
  5
1490
  8
NOTE
  6
CONTINUOUS
 62
     4
 10
666.744311
 20
39.747693
 30
0.0
 11
730.615279
 21
39.747693
 31
0.0
  0
TEXT
  5
1491
  8
NOTE
  6
CONTINUOUS
 62
     4
 10
689.106513
 20
242.357769
 30
0.0
 40
55.0
  1
後吸込口
 50
0.000003
 41
0.863095
  7
STANDARD1
  0
LINE
  5
1492
  8
DETAIL
  6
CONTINUOUS
 62
     5
 10
-495.0
 20
-209.002016
 30
0.0
 11
-495.0
 21
209.002016
 31
0.0
  0
LINE
  5
1493
  8
NOTE
  6
CONTINUOUS
 62
     4
 10
193.397171
 20
-490.344558
 30
0.0
 11
149.48588
 21
-442.441332
 31
0.0
  0
LINE
  5
1494
  8
NOTE
  6
CONTINUOUS
 62
     4
 10
193.397171
 20
-490.344558
 30
0.0
 11
237.308461
 21
-442.441332
 31
0.0
  0
TEXT
  5
1495
  8
NOTE
  6
CONTINUOUS
 62
     4
 10
256.036796
 20
-456.722226
 30
0.0
 40
55.0
  1
空気吹出
 50
0.000003
 41
0.717708
  7
STANDARD1
  0
LINE
  5
1496
  8
NOTE
  6
CONTINUOUS
 62
     4
 10
173.437493
 20
-442.441332
 30
0.0
 11
173.437493
 21
-378.570365
 31
0.0
  0
LINE
  5
1497
  8
NOTE
  6
CONTINUOUS
 62
     4
 10
213.356848
 20
-442.441332
 30
0.0
 11
213.356848
 21
-378.570365
 31
0.0
  0
LINE
  5
1498
  8
NOTE
  6
CONTINUOUS
 62
     4
 10
237.308461
 20
-442.441332
 30
0.0
 11
213.356848
 21
-442.441332
 31
0.0
  0
LINE
  5
1499
  8
NOTE
  6
CONTINUOUS
 62
     4
 10
173.437493
 20
-442.441332
 30
0.0
 11
149.48588
 21
-442.441332
 31
0.0
  0
LINE
  5
149A
  8
NOTE
  6
CONTINUOUS
 62
     4
 10
-454.001634
 20
-54.237291
 30
0.0
 11
-454.001634
 21
-101.762709
 31
0.0
  0
LINE
  5
149B
  8
NOTE
  6
CONTINUOUS
 62
     4
 10
-417.0
 20
-72.40589
 30
0.0
 11
-417.0
 21
-113.59411
 31
0.0
  0
LINE
  5
149C
  8
DETAIL
  6
CONTINUOUS
 62
     5
 10
-394.0
 20
-27.977823
 30
0.0
 11
-394.0
 21
-146.022177
 31
0.0
  0
LINE
  5
149D
  8
NOTE
  6
CONTINUOUS
 62
     4
 10
-396.40589
 20
-93.0
 30
0.0
 11
-437.59411
 21
-93.0
 31
0.0
  0
ARC
  5
149E
  8
DETAIL
  6
CONTINUOUS
 62
     5
 10
-404.977823
 20
-146.022177
 30
0.0
 40
10.977823
 50
270.0
 51
0.0
  0
ARC
  5
149F
  8
DETAIL
  6
CONTINUOUS
 62
     5
 10
-471.022177
 20
-146.022177
 30
0.0
 40
10.977823
 50
180.0
 51
270.0
  0
LINE
  5
14A0
  8
DETAIL
  6
CONTINUOUS
 62
     5
 10
-404.977823
 20
-157.0
 30
0.0
 11
-471.022177
 21
-157.0
 31
0.0
  0
ARC
  5
14A1
  8
DETAIL
  6
CONTINUOUS
 62
     5
 10
-404.977823
 20
-27.977823
 30
0.0
 40
10.977823
 50
0.0
 51
90.0
  0
LINE
  5
14A2
  8
NOTE
  6
CONTINUOUS
 62
     4
 10
-430.238925
 20
-78.0
 30
0.0
 11
-477.764343
 21
-78.0
 31
0.0
  0
ARC
  5
14A3
  8
DETAIL
  6
CONTINUOUS
 62
     5
 10
-471.022177
 20
-27.977823
 30
0.0
 40
10.977823
 50
90.0
 51
180.0
  0
LINE
  5
14A4
  8
NOTE
  6
CONTINUOUS
 62
     4
 10
618.841086
 20
19.788015
 30
0.0
 11
666.744311
 21
-24.123275
 31
0.0
  0
LINE
  5
14A5
  8
NOTE
  6
CONTINUOUS
 62
     4
 10
666.744311
 20
-0.171662
 30
0.0
 11
666.744311
 21
-24.123275
 31
0.0
  0
LINE
  5
14A6
  8
NOTE
  6
CONTINUOUS
 62
     4
 10
618.841086
 20
19.788015
 30
0.0
 11
666.744311
 21
63.699306
 31
0.0
  0
LINE
  5
14A7
  8
NOTE
  6
CONTINUOUS
 62
     4
 10
666.744311
 20
63.699306
 30
0.0
 11
666.744311
 21
39.747693
 31
0.0
  0
LINE
  5
14A8
  8
DETAIL
  6
CONTINUOUS
 62
     5
 10
494.002016
 20
210.0
 30
0.0
 11
-494.002016
 21
210.0
 31
0.0
  0
LINE
  5
14A9
  8
DETAIL
  6
CONTINUOUS
 62
     5
 10
485.918347
 20
353.014113
 30
0.0
 11
-253.706653
 21
353.014113
 31
0.0
  0
LINE
  5
14AA
  8
DETAIL
  6
CONTINUOUS
 62
     5
 10
490.908266
 20
360.0
 30
0.0
 11
-258.696573
 21
360.0
 31
0.0
  0
LINE
  5
14AB
  8
DETAIL
  6
CONTINUOUS
 62
     5
 10
-239.934476
 20
353.014113
 30
0.0
 11
-239.934476
 21
210.0
 31
0.0
  0
LINE
  5
14AC
  8
DETAIL
  6
CONTINUOUS
 62
     5
 10
-242.229839
 20
353.014113
 30
0.0
 11
-242.229839
 21
210.0
 31
0.0
  0
TEXT
  5
14AD
  8
NOTE
  6
CONTINUOUS
 62
     4
 10
-595.685062
 20
246.852351
 30
0.0
 40
55.0
  1
後吸込口
 50
0.000003
 41
0.863095
  7
STANDARD1
  0
LINE
  5
14AE
  8
DETAIL
  6
CONTINUOUS
 62
     5
 10
-494.002016
 20
210.0
 30
0.0
 11
-494.002016
 21
209.002016
 31
0.0
  0
LINE
  5
14AF
  8
DETAIL
  6
CONTINUOUS
 62
     5
 10
-494.002016
 20
209.002016
 30
0.0
 11
-495.0
 21
209.002016
 31
0.0
  0
ARC
  5
14B0
  8
DETAIL
  6
CONTINUOUS
 62
     5
 10
-494.002016
 20
209.002016
 30
0.0
 40
0.199597
 50
90.0
 51
180.0
  0
LINE
  5
14B1
  8
NOTE
  6
CONTINUOUS
 62
     4
 10
-286.211531
 20
308.51987
 30
0.0
 11
-338.531565
 21
345.154752
 31
0.0
  0
LINE
  5
14B2
  8
NOTE
  6
CONTINUOUS
 62
     4
 10
-361.428366
 20
312.454731
 30
0.0
 11
-338.531565
 21
345.154752
 31
0.0
  0
LINE
  5
14B3
  8
NOTE
  6
CONTINUOUS
 62
     4
 10
-322.846413
 20
256.199836
 30
0.0
 11
-309.108332
 21
275.819849
 31
0.0
  0
LINE
  5
14B4
  8
NOTE
  6
CONTINUOUS
 62
     4
 10
-258.419906
 20
264.693698
 30
0.0
 11
-322.846413
 21
256.199836
 31
0.0
  0
LINE
  5
14B5
  8
NOTE
  6
CONTINUOUS
 62
     4
 10
-309.108332
 20
275.819849
 30
0.0
 11
-361.428366
 21
312.454731
 31
0.0
  0
LINE
  5
14B6
  8
NOTE
  6
CONTINUOUS
 62
     4
 10
-258.419906
 20
264.693698
 30
0.0
 11
-272.47345
 21
328.139883
 31
0.0
  0
LINE
  5
14B7
  8
NOTE
  6
CONTINUOUS
 62
     4
 10
-286.211531
 20
308.51987
 30
0.0
 11
-272.47345
 21
328.139883
 31
0.0
  0
LINE
  5
14B8
  8
DETAIL
  6
CONTINUOUS
 62
     5
 10
-258.696573
 20
358.004032
 30
0.0
 11
-253.706653
 21
353.014113
 31
0.0
  0
LINE
  5
14B9
  8
DETAIL
  6
CONTINUOUS
 62
     5
 10
-258.696573
 20
353.014113
 30
0.0
 11
-259.894153
 21
353.014113
 31
0.0
  0
LINE
  5
14BA
  8
DETAIL
  6
CONTINUOUS
 62
     5
 10
-258.696573
 20
353.014113
 30
0.0
 11
-258.696573
 21
360.0
 31
0.0
  0
LINE
  5
14BB
  8
DETAIL
  6
CONTINUOUS
 62
     5
 10
475.589214
 20
353.014113
 30
0.0
 11
475.589214
 21
210.0
 31
0.0
  0
LINE
  5
14BC
  8
DETAIL
  6
CONTINUOUS
 62
     5
 10
473.293851
 20
353.014113
 30
0.0
 11
473.293851
 21
210.0
 31
0.0
  0
LINE
  5
14BD
  8
NOTE
  6
CONTINUOUS
 62
     4
 10
624.795143
 20
303.529951
 30
0.0
 11
677.115177
 21
340.164833
 31
0.0
  0
LINE
  5
14BE
  8
NOTE
  6
CONTINUOUS
 62
     4
 10
700.011978
 20
307.464812
 30
0.0
 11
677.115177
 21
340.164833
 31
0.0
  0
LINE
  5
14BF
  8
NOTE
  6
CONTINUOUS
 62
     4
 10
661.430025
 20
251.209917
 30
0.0
 11
647.691944
 21
270.82993
 31
0.0
  0
LINE
  5
14C0
  8
NOTE
  6
CONTINUOUS
 62
     4
 10
597.003518
 20
259.703779
 30
0.0
 11
661.430025
 21
251.209917
 31
0.0
  0
LINE
  5
14C1
  8
NOTE
  6
CONTINUOUS
 62
     4
 10
597.003518
 20
259.703779
 30
0.0
 11
611.057062
 21
323.149963
 31
0.0
  0
LINE
  5
14C2
  8
NOTE
  6
CONTINUOUS
 62
     4
 10
624.795143
 20
303.529951
 30
0.0
 11
611.057062
 21
323.149963
 31
0.0
  0
LINE
  5
14C3
  8
NOTE
  6
CONTINUOUS
 62
     4
 10
647.691944
 20
270.82993
 30
0.0
 11
700.011978
 21
307.464812
 31
0.0
  0
LINE
  5
14C4
  8
DETAIL
  6
CONTINUOUS
 62
     5
 10
490.908266
 20
358.004032
 30
0.0
 11
485.918347
 21
353.014113
 31
0.0
  0
LINE
  5
14C5
  8
DETAIL
  6
CONTINUOUS
 62
     5
 10
490.908266
 20
360.0
 30
0.0
 11
490.908266
 21
353.014113
 31
0.0
  0
LINE
  5
14C6
  8
DETAIL
  6
CONTINUOUS
 62
     5
 10
492.105847
 20
353.014113
 30
0.0
 11
492.105847
 21
358.802419
 31
0.0
  0
LINE
  5
14C7
  8
DETAIL
  6
CONTINUOUS
 62
     5
 10
492.105847
 20
353.014113
 30
0.0
 11
490.908266
 21
353.014113
 31
0.0
  0
LINE
  5
14C8
  8
NOTE
  6
CONTINUOUS
 62
     4
 10
730.615279
 20
39.747693
 30
0.0
 11
730.615279
 21
-0.171662
 31
0.0
  0
LINE
  5
14C9
  8
DETAIL
  6
CONTINUOUS
 62
     5
 10
-258.696573
 20
360.0
 30
0.0
 11
-259.894153
 21
358.802419
 31
0.0
  0
LINE
  5
14CA
  8
DETAIL
  6
CONTINUOUS
 62
     5
 10
490.908266
 20
360.0
 30
0.0
 11
492.105847
 21
358.802419
 31
0.0
  0
LINE
  5
14CB
  8
DETAIL
  6
CONTINUOUS
 62
     5
 10
-494.002016
 20
210.0
 30
0.0
 11
-495.0
 21
209.002016
 31
0.0
  0
LINE
  5
14CC
  8
BASIS
  6
DASHDOT
 62
     6
 10
0.0
 20
-351.880229
 30
0.0
 11
0.0
 21
422.027962
 31
0.0
  0
LINE
  5
14CD
  8
BASIS
  6
DASHDOT
 62
     6
 10
558.851774
 20
0.0
 30
0.0
 11
-558.851774
 21
0.0
 31
0.0
  0
LINE
  5
14CE
  8
SERVICESPACE
  6
DASHDOT
 62
     2
 10
-495.0
 20
-209.002016
 30
0.0
 11
-495.0
 21
-710.0
 31
0.0
  0
LINE
  5
14CF
  8
SERVICESPACE
  6
DASHDOT
 62
     2
 10
-495.0
 20
-710.0
 30
0.0
 11
495.0
 21
-710.0
 31
0.0
  0
LINE
  5
14D0
  8
SERVICESPACE
  6
DASHDOT
 62
     2
 10
495.0
 20
-710.0
 30
0.0
 11
495.0
 21
360.0
 31
0.0
  0
LINE
  5
14D1
  8
SERVICESPACE
  6
DASHDOT
 62
     2
 10
-495.0
 20
-210.0
 30
0.0
 11
595.0
 21
-210.0
 31
0.0
  0
LINE
  5
14D2
  8
SERVICESPACE
  6
DASHDOT
 62
     2
 10
595.0
 20
-210.0
 30
0.0
 11
595.0
 21
360.0
 31
0.0
  0
LINE
  5
14D3
  8
SERVICESPACE
  6
DASHDOT
 62
     2
 10
495.0
 20
360.0
 30
0.0
 11
595.0
 21
360.0
 31
0.0
  0
LINE
  5
14D4
  8
SERVICESPACE
  6
DASHDOT
 62
     2
 10
-495.0
 20
-710.0
 30
0.0
 11
495.0
 21
-210.0
 31
0.0
  0
LINE
  5
14D5
  8
SERVICESPACE
  6
DASHDOT
 62
     2
 10
495.0
 20
-710.0
 30
0.0
 11
-495.0
 21
-210.0
 31
0.0
  0
LINE
  5
14D6
  8
SERVICESPACE
  6
DASHDOT
 62
     2
 10
595.0
 20
360.0
 30
0.0
 11
495.0
 21
-210.0
 31
0.0
  0
LINE
  5
14D7
  8
SERVICESPACE
  6
DASHDOT
 62
     2
 10
595.0
 20
-210.0
 30
0.0
 11
495.0
 21
360.0
 31
0.0
  0
LINE
  5
14D8
  8
DETAIL
  6
CONTINUOUS
 62
     5
 10
495.0
 20
-209.002016
 30
0.0
 11
495.0
 21
209.002016
 31
0.0
  0
LINE
  5
14D9
  8
NOTE
  6
CONTINUOUS
 62
     4
 10
213.356848
 20
-378.570365
 30
0.0
 11
173.437493
 21
-378.570365
 31
0.0
  0
LINE
  5
14DA
  8
DETAIL
  6
CONTINUOUS
 62
     5
 10
495.064889
 20
-76.121976
 30
0.0
 11
495.0
 21
-76.121976
 31
0.0
  0
LINE
  5
14DB
  8
DETAIL
  6
CONTINUOUS
 62
     5
 10
495.0
 20
-75.123992
 30
0.0
 11
495.064889
 21
-75.123992
 31
0.0
  0
LINE
  5
14DC
  8
DETAIL
  6
CONTINUOUS
 62
     5
 10
495.064889
 20
-75.123992
 30
0.0
 11
495.03802
 21
-74.828859
 31
0.0
  0
LINE
  5
14DD
  8
DETAIL
  6
CONTINUOUS
 62
     5
 10
495.03802
 20
-74.828859
 30
0.0
 11
495.0
 21
-74.546911
 31
0.0
  0
LINE
  5
14DE
  8
DETAIL
  6
CONTINUOUS
 62
     5
 10
495.0
 20
-76.699057
 30
0.0
 11
495.03802
 21
-76.417109
 31
0.0
  0
LINE
  5
14DF
  8
DETAIL
  6
CONTINUOUS
 62
     5
 10
495.03802
 20
-76.417109
 30
0.0
 11
495.064889
 21
-76.121976
 31
0.0
  0
LINE
  5
14E0
  8
DETAIL
  6
CONTINUOUS
 62
     5
 10
494.002016
 20
209.002016
 30
0.0
 11
495.0
 21
209.002016
 31
0.0
  0
LINE
  5
14E1
  8
DETAIL
  6
CONTINUOUS
 62
     5
 10
494.002016
 20
210.0
 30
0.0
 11
494.002016
 21
209.002016
 31
0.0
  0
ARC
  5
14E2
  8
DETAIL
  6
CONTINUOUS
 62
     5
 10
494.002016
 20
209.002016
 30
0.0
 40
0.199597
 50
0.0
 51
90.0
  0
LINE
  5
14E3
  8
DETAIL
  6
CONTINUOUS
 62
     5
 10
494.002016
 20
210.0
 30
0.0
 11
495.0
 21
209.002016
 31
0.0
  0
TEXT
  5
14E4
  8
NOTE
  6
CONTINUOUS
 62
     4
 10
-208.317853
 20
-674.093518
 30
0.0
 40
55.0
  1
サービススペース
 50
359.999997
 41
0.840476
  7
STANDARD1
  0
TEXT
  5
14E5
  8
NOTE
  6
CONTINUOUS
 62
     4
 10
571.049589
 20
-169.643514
 30
0.0
 40
55.0
  1
サービススペース
 50
89.999997
 41
0.840476
  7
STANDARD1
  0
LINE
  5
14E6
  8
SIZE
  6
CONTINUOUS
 62
    30
 10
-514.002016
 20
210.0
 30
0.0
 11
-1084.225003
 21
210.0
 31
0.0
  0
LINE
  5
14E7
  8
SIZE
  6
CONTINUOUS
 62
    30
 10
-514.002016
 20
-210.0
 30
0.0
 11
-1084.225003
 21
-210.0
 31
0.0
  0
LINE
  5
14E8
  8
SIZE
  6
CONTINUOUS
 62
    30
 10
-1054.225003
 20
200.0
 30
0.0
 11
-1054.225003
 21
-200.0
 31
0.0
  0
CIRCLE
  5
14E9
  8
SIZE
  6
CONTINUOUS
 62
    30
 10
-1054.225003
 20
210.0
 30
0.0
 40
5.0
  0
LINE
  5
14EA
  8
SIZE
  6
CONTINUOUS
 62
    30
 10
-1054.225003
 20
205.0
 30
0.0
 11
-1054.225003
 21
200.0
 31
0.0
  0
CIRCLE
  5
14EB
  8
SIZE
  6
CONTINUOUS
 62
    30
 10
-1054.225003
 20
-210.0
 30
0.0
 40
5.0
  0
LINE
  5
14EC
  8
SIZE
  6
CONTINUOUS
 62
    30
 10
-1054.225003
 20
-205.0
 30
0.0
 11
-1054.225003
 21
-200.0
 31
0.0
  0
TEXT
  5
14ED
  8
SIZE
  6
CONTINUOUS
 62
    30
 10
-1074.225003
 20
-74.057143
 30
0.0
 40
64.0
  1
420
 50
90.0
 41
0.9
 72
     1
 11
-1074.225003
 21
0.0
 31
0.0
  0
POINT
  5
14EE
  8
DEFPOINTS
  6
CONTINUOUS
 62
     7
 10
-494.002016
 20
210.0
 30
0.0
  0
POINT
  5
14EF
  8
DEFPOINTS
  6
CONTINUOUS
 62
     7
 10
-494.002016
 20
-210.0
 30
0.0
  0
POINT
  5
14F0
  8
DEFPOINTS
  6
CONTINUOUS
 62
     7
 10
-1054.225003
 20
-210.0
 30
0.0
  0
LINE
  5
14F1
  8
SIZE
  6
CONTINUOUS
 62
    30
 10
-495.0
 20
-229.002016
 30
0.0
 11
-495.0
 21
-885.103128
 31
0.0
  0
LINE
  5
14F2
  8
SIZE
  6
CONTINUOUS
 62
    30
 10
495.0
 20
-229.002016
 30
0.0
 11
495.0
 21
-885.103128
 31
0.0
  0
LINE
  5
14F3
  8
SIZE
  6
CONTINUOUS
 62
    30
 10
-485.0
 20
-855.103128
 30
0.0
 11
485.0
 21
-855.103128
 31
0.0
  0
CIRCLE
  5
14F4
  8
SIZE
  6
CONTINUOUS
 62
    30
 10
-495.0
 20
-855.103128
 30
0.0
 40
5.0
  0
LINE
  5
14F5
  8
SIZE
  6
CONTINUOUS
 62
    30
 10
-490.0
 20
-855.103128
 30
0.0
 11
-485.0
 21
-855.103128
 31
0.0
  0
CIRCLE
  5
14F6
  8
SIZE
  6
CONTINUOUS
 62
    30
 10
495.0
 20
-855.103128
 30
0.0
 40
5.0
  0
LINE
  5
14F7
  8
SIZE
  6
CONTINUOUS
 62
    30
 10
490.0
 20
-855.103128
 30
0.0
 11
485.0
 21
-855.103128
 31
0.0
  0
TEXT
  5
14F8
  8
SIZE
  6
CONTINUOUS
 62
    30
 10
-74.057143
 20
-835.103128
 30
0.0
 40
64.0
  1
990
 41
0.9
 72
     1
 11
0.0
 21
-835.103128
 31
0.0
  0
POINT
  5
14F9
  8
DEFPOINTS
  6
CONTINUOUS
 62
     7
 10
-495.0
 20
-209.002016
 30
0.0
  0
POINT
  5
14FA
  8
DEFPOINTS
  6
CONTINUOUS
 62
     7
 10
495.0
 20
-209.002016
 30
0.0
  0
POINT
  5
14FB
  8
DEFPOINTS
  6
CONTINUOUS
 62
     7
 10
495.0
 20
-855.103128
 30
0.0
  0
LINE
  5
14FC
  8
SIZE
  6
CONTINUOUS
 62
    30
 10
466.487679
 20
-285.0
 30
0.0
 11
1046.784003
 21
-285.0
 31
0.0
  0
LINE
  5
14FD
  8
SIZE
  6
CONTINUOUS
 62
    30
 10
514.002016
 20
210.0
 30
0.0
 11
1046.784003
 21
210.0
 31
0.0
  0
LINE
  5
14FE
  8
SIZE
  6
CONTINUOUS
 62
    30
 10
1016.784003
 20
-275.0
 30
0.0
 11
1016.784003
 21
200.0
 31
0.0
  0
CIRCLE
  5
14FF
  8
SIZE
  6
CONTINUOUS
 62
    30
 10
1016.784003
 20
-285.0
 30
0.0
 40
5.0
  0
LINE
  5
1500
  8
SIZE
  6
CONTINUOUS
 62
    30
 10
1016.784003
 20
-280.0
 30
0.0
 11
1016.784003
 21
-275.0
 31
0.0
  0
CIRCLE
  5
1501
  8
SIZE
  6
CONTINUOUS
 62
    30
 10
1016.784003
 20
210.0
 30
0.0
 40
5.0
  0
LINE
  5
1502
  8
SIZE
  6
CONTINUOUS
 62
    30
 10
1016.784003
 20
205.0
 30
0.0
 11
1016.784003
 21
200.0
 31
0.0
  0
TEXT
  5
1503
  8
SIZE
  6
CONTINUOUS
 62
    30
 10
996.784003
 20
-111.557143
 30
0.0
 40
64.0
  1
495
 50
90.0
 41
0.9
 72
     1
 11
996.784003
 21
-37.5
 31
0.0
  0
POINT
  5
1504
  8
DEFPOINTS
  6
CONTINUOUS
 62
     7
 10
446.487679
 20
-285.0
 30
0.0
  0
POINT
  5
1505
  8
DEFPOINTS
  6
CONTINUOUS
 62
     7
 10
494.002016
 20
210.0
 30
0.0
  0
POINT
  5
1506
  8
DEFPOINTS
  6
CONTINUOUS
 62
     7
 10
1016.784003
 20
210.0
 30
0.0
  0
LINE
  5
1507
  8
SIZE
  6
CONTINUOUS
 62
    30
 10
514.002016
 20
210.0
 30
0.0
 11
1046.784003
 21
210.0
 31
0.0
  0
LINE
  5
1508
  8
SIZE
  6
CONTINUOUS
 62
    30
 10
510.908266
 20
360.0
 30
0.0
 11
1046.784003
 21
360.0
 31
0.0
  0
LINE
  5
1509
  8
SIZE
  6
CONTINUOUS
 62
    30
 10
1016.784003
 20
200.0
 30
0.0
 11
1016.784003
 21
190.0
 31
0.0
  0
LINE
  5
150A
  8
SIZE
  6
CONTINUOUS
 62
    30
 10
1016.784003
 20
370.0
 30
0.0
 11
1016.784003
 21
380.0
 31
0.0
  0
LINE
  5
150B
  8
SIZE
  6
CONTINUOUS
 62
    30
 10
1016.784003
 20
210.0
 30
0.0
 11
1016.784003
 21
360.0
 31
0.0
  0
CIRCLE
  5
150C
  8
SIZE
  6
CONTINUOUS
 62
    30
 10
1016.784003
 20
210.0
 30
0.0
 40
5.0
  0
LINE
  5
150D
  8
SIZE
  6
CONTINUOUS
 62
    30
 10
1016.784003
 20
205.0
 30
0.0
 11
1016.784003
 21
200.0
 31
0.0
  0
CIRCLE
  5
150E
  8
SIZE
  6
CONTINUOUS
 62
    30
 10
1016.784003
 20
360.0
 30
0.0
 40
5.0
  0
LINE
  5
150F
  8
SIZE
  6
CONTINUOUS
 62
    30
 10
1016.784003
 20
365.0
 30
0.0
 11
1016.784003
 21
370.0
 31
0.0
  0
TEXT
  5
1510
  8
SIZE
  6
CONTINUOUS
 62
    30
 10
996.784003
 20
216.428571
 30
0.0
 40
64.0
  1
150
 50
90.0
 41
0.9
 72
     1
 11
996.784003
 21
285.0
 31
0.0
  0
POINT
  5
1511
  8
DEFPOINTS
  6
CONTINUOUS
 62
     7
 10
494.002016
 20
210.0
 30
0.0
  0
POINT
  5
1512
  8
DEFPOINTS
  6
CONTINUOUS
 62
     7
 10
490.908266
 20
360.0
 30
0.0
  0
POINT
  5
1513
  8
DEFPOINTS
  6
CONTINUOUS
 62
     7
 10
1016.784003
 20
360.0
 30
0.0
  0
ARC
  5
1514
  8
DETAIL
  6
CONTINUOUS
 62
     5
 10
45.360772
 20
-217.439608
 30
0.0
 40
149.697581
 50
186.77549
 51
204.859878
  0
ARC
  5
1515
  8
DETAIL
  6
CONTINUOUS
 62
     5
 10
317.905357
 20
-217.439608
 30
0.0
 40
149.697581
 50
335.140122
 51
353.22451
  0
LINE
  5
1516
  8
DETAIL
  6
CONTINUOUS
 62
     5
 10
446.487679
 20
-285.0
 30
0.0
 11
-83.22155
 21
-285.0
 31
0.0
  0
ARC
  5
1517
  8
DETAIL
  6
CONTINUOUS
 62
     5
 10
-83.22155
 20
-277.016129
 30
0.0
 40
7.983871
 50
204.859878
 51
270.0
  0
ARC
  5
1518
  8
DETAIL
  6
CONTINUOUS
 62
     5
 10
446.487679
 20
-277.016129
 30
0.0
 40
7.983871
 50
270.0
 51
335.140122
  0
LINE
  5
1519
  8
DETAIL
  6
CONTINUOUS
 62
     5
 10
-105.287298
 20
-235.100806
 30
0.0
 11
468.553427
 21
-235.100806
 31
0.0
  0
LINE
  5
151A
  8
DETAIL
  6
CONTINUOUS
 62
     5
 10
-102.933911
 20
-233.104839
 30
0.0
 11
466.20004
 21
-233.104839
 31
0.0
  0
LINE
  5
151B
  8
DETAIL
  6
CONTINUOUS
 62
     5
 10
494.002016
 20
-210.0
 30
0.0
 11
-494.002016
 21
-210.0
 31
0.0
  0
LINE
  5
151C
  8
DETAIL
  6
CONTINUOUS
 62
     5
 10
-494.002016
 20
-209.002016
 30
0.0
 11
-494.002016
 21
-210.0
 31
0.0
  0
LINE
  5
151D
  8
DETAIL
  6
CONTINUOUS
 62
     5
 10
-495.0
 20
-209.002016
 30
0.0
 11
-494.002016
 21
-209.002016
 31
0.0
  0
ARC
  5
151E
  8
DETAIL
  6
CONTINUOUS
 62
     5
 10
-494.002016
 20
-209.002016
 30
0.0
 40
0.199597
 50
180.0
 51
270.0
  0
LINE
  5
151F
  8
DETAIL
  6
CONTINUOUS
 62
     5
 10
-105.287298
 20
-233.104839
 30
0.0
 11
-104.289315
 21
-233.104839
 31
0.0
  0
LINE
  5
1520
  8
DETAIL
  6
CONTINUOUS
 62
     5
 10
-104.289315
 20
-233.104839
 30
0.0
 11
-102.973407
 21
-233.104839
 31
0.0
  0
LINE
  5
1521
  8
DETAIL
  6
CONTINUOUS
 62
     5
 10
-104.289315
 20
-232.306452
 30
0.0
 11
-89.319556
 21
-232.306452
 31
0.0
  0
LINE
  5
1522
  8
DETAIL
  6
CONTINUOUS
 62
     5
 10
-104.289315
 20
-232.306452
 30
0.0
 11
-104.511694
 21
-232.277813
 31
0.0
  0
LINE
  5
1523
  8
DETAIL
  6
CONTINUOUS
 62
     5
 10
-104.511694
 20
-232.277813
 30
0.0
 11
-104.671226
 21
-232.256552
 31
0.0
  0
LINE
  5
1524
  8
DETAIL
  6
CONTINUOUS
 62
     5
 10
-104.671226
 20
-232.256552
 30
0.0
 11
-104.843765
 21
-232.231603
 31
0.0
  0
LINE
  5
1525
  8
DETAIL
  6
CONTINUOUS
 62
     5
 10
-104.843765
 20
-232.231603
 30
0.0
 11
-104.994996
 21
-232.206653
 31
0.0
  0
LINE
  5
1526
  8
DETAIL
  6
CONTINUOUS
 62
     5
 10
-104.994996
 20
-232.206653
 30
0.0
 11
-105.119108
 21
-232.181704
 31
0.0
  0
LINE
  5
1527
  8
DETAIL
  6
CONTINUOUS
 62
     5
 10
-105.119108
 20
-232.181704
 30
0.0
 11
-105.211331
 21
-232.156754
 31
0.0
  0
LINE
  5
1528
  8
DETAIL
  6
CONTINUOUS
 62
     5
 10
-105.211331
 20
-232.156754
 30
0.0
 11
-105.268122
 21
-232.131804
 31
0.0
  0
LINE
  5
1529
  8
DETAIL
  6
CONTINUOUS
 62
     5
 10
-105.268122
 20
-232.131804
 30
0.0
 11
-105.287298
 21
-232.106855
 31
0.0
  0
LINE
  5
152A
  8
DETAIL
  6
CONTINUOUS
 62
     5
 10
-105.287298
 20
-210.0
 30
0.0
 11
-105.287298
 21
-232.106855
 31
0.0
  0
LINE
  5
152B
  8
DETAIL
  6
CONTINUOUS
 62
     5
 10
-105.287298
 20
-233.104839
 30
0.0
 11
-105.287298
 21
-235.100806
 31
0.0
  0
LINE
  5
152C
  8
DETAIL
  6
CONTINUOUS
 62
     5
 10
-104.289315
 20
-233.104839
 30
0.0
 11
-104.289315
 21
-232.306452
 31
0.0
  0
LINE
  5
152D
  8
DETAIL
  6
CONTINUOUS
 62
     5
 10
-89.319556
 20
-233.104839
 30
0.0
 11
-89.319556
 21
-232.106855
 31
0.0
  0
ARC
  5
152E
  8
DETAIL
  6
CONTINUOUS
 62
     5
 10
-104.289315
 20
-232.106855
 30
0.0
 40
0.997984
 50
180.0
 51
270.0
  0
LINE
  5
152F
  8
DETAIL
  6
CONTINUOUS
 62
     5
 10
467.75014
 20
-232.281502
 30
0.0
 11
467.555444
 21
-232.306452
 31
0.0
  0
LINE
  5
1530
  8
DETAIL
  6
CONTINUOUS
 62
     5
 10
466.20004
 20
-233.104839
 30
0.0
 11
467.555444
 21
-233.104839
 31
0.0
  0
LINE
  5
1531
  8
DETAIL
  6
CONTINUOUS
 62
     5
 10
467.555444
 20
-233.104839
 30
0.0
 11
468.553427
 21
-233.104839
 31
0.0
  0
LINE
  5
1532
  8
DETAIL
  6
CONTINUOUS
 62
     5
 10
452.585685
 20
-232.306452
 30
0.0
 11
467.555444
 21
-232.306452
 31
0.0
  0
LINE
  5
1533
  8
DETAIL
  6
CONTINUOUS
 62
     5
 10
452.585685
 20
-233.104839
 30
0.0
 11
452.585685
 21
-232.106855
 31
0.0
  0
LINE
  5
1534
  8
DETAIL
  6
CONTINUOUS
 62
     5
 10
467.555444
 20
-233.104839
 30
0.0
 11
467.555444
 21
-232.306452
 31
0.0
  0
LINE
  5
1535
  8
DETAIL
  6
CONTINUOUS
 62
     5
 10
468.553427
 20
-210.0
 30
0.0
 11
468.553427
 21
-232.106855
 31
0.0
  0
LINE
  5
1536
  8
DETAIL
  6
CONTINUOUS
 62
     5
 10
468.553427
 20
-233.104839
 30
0.0
 11
468.553427
 21
-235.100806
 31
0.0
  0
LINE
  5
1537
  8
DETAIL
  6
CONTINUOUS
 62
     5
 10
468.553427
 20
-232.106855
 30
0.0
 11
468.534251
 21
-232.131804
 31
0.0
  0
LINE
  5
1538
  8
DETAIL
  6
CONTINUOUS
 62
     5
 10
468.534251
 20
-232.131804
 30
0.0
 11
468.47746
 21
-232.156754
 31
0.0
  0
LINE
  5
1539
  8
DETAIL
  6
CONTINUOUS
 62
     5
 10
468.47746
 20
-232.156754
 30
0.0
 11
468.385237
 21
-232.181704
 31
0.0
  0
LINE
  5
153A
  8
DETAIL
  6
CONTINUOUS
 62
     5
 10
468.385237
 20
-232.181704
 30
0.0
 11
468.261125
 21
-232.206653
 31
0.0
  0
LINE
  5
153B
  8
DETAIL
  6
CONTINUOUS
 62
     5
 10
468.261125
 20
-232.206653
 30
0.0
 11
468.109894
 21
-232.231603
 31
0.0
  0
LINE
  5
153C
  8
DETAIL
  6
CONTINUOUS
 62
     5
 10
468.109894
 20
-232.231603
 30
0.0
 11
467.937355
 21
-232.256552
 31
0.0
  0
LINE
  5
153D
  8
DETAIL
  6
CONTINUOUS
 62
     5
 10
467.937355
 20
-232.256552
 30
0.0
 11
467.75014
 21
-232.281502
 31
0.0
  0
ARC
  5
153E
  8
DETAIL
  6
CONTINUOUS
 62
     5
 10
467.555444
 20
-232.106855
 30
0.0
 40
0.997984
 50
270.0
 51
0.0
  0
LINE
  5
153F
  8
DETAIL
  6
CONTINUOUS
 62
     5
 10
494.002016
 20
-209.002016
 30
0.0
 11
495.0
 21
-209.002016
 31
0.0
  0
LINE
  5
1540
  8
DETAIL
  6
CONTINUOUS
 62
     5
 10
494.002016
 20
-210.0
 30
0.0
 11
494.002016
 21
-209.002016
 31
0.0
  0
ARC
  5
1541
  8
DETAIL
  6
CONTINUOUS
 62
     5
 10
494.002016
 20
-209.002016
 30
0.0
 40
0.199597
 50
270.0
 51
0.0
  0
LINE
  5
1542
  8
DETAIL
  6
CONTINUOUS
 62
     5
 10
-495.0
 20
-209.002016
 30
0.0
 11
-494.002016
 21
-210.0
 31
0.0
  0
LINE
  5
1543
  8
DETAIL
  6
CONTINUOUS
 62
     5
 10
495.0
 20
-209.002016
 30
0.0
 11
494.002016
 21
-210.0
 31
0.0
  0
LINE
  5
1544
  8
SIZE
  6
CONTINUOUS
 62
    30
 10
495.0
 20
-229.002016
 30
0.0
 11
495.0
 21
-885.103128
 31
0.0
  0
LINE
  5
1545
  8
SIZE
  6
CONTINUOUS
 62
    30
 10
595.0
 20
-230.0
 30
0.0
 11
595.0
 21
-885.103128
 31
0.0
  0
LINE
  5
1546
  8
SIZE
  6
CONTINUOUS
 62
    30
 10
505.0
 20
-855.103128
 30
0.0
 11
585.0
 21
-855.103128
 31
0.0
  0
LINE
  5
1547
  8
SIZE
  6
CONTINUOUS
 62
    30
 10
595.0
 20
-855.103128
 30
0.0
 11
936.84
 21
-855.103128
 31
0.0
  0
CIRCLE
  5
1548
  8
SIZE
  6
CONTINUOUS
 62
    30
 10
495.0
 20
-855.103128
 30
0.0
 40
5.0
  0
LINE
  5
1549
  8
SIZE
  6
CONTINUOUS
 62
    30
 10
500.0
 20
-855.103128
 30
0.0
 11
505.0
 21
-855.103128
 31
0.0
  0
CIRCLE
  5
154A
  8
SIZE
  6
CONTINUOUS
 62
    30
 10
595.0
 20
-855.103128
 30
0.0
 40
5.0
  0
LINE
  5
154B
  8
SIZE
  6
CONTINUOUS
 62
    30
 10
590.0
 20
-855.103128
 30
0.0
 11
585.0
 21
-855.103128
 31
0.0
  0
TEXT
  5
154C
  8
SIZE
  6
CONTINUOUS
 62
    30
 10
632.68
 20
-835.103128
 30
0.0
 40
64.0
  1
100以上
 41
0.9
 72
     1
 11
770.92
 21
-835.103128
 31
0.0
  0
POINT
  5
154D
  8
DEFPOINTS
  6
CONTINUOUS
 62
     7
 10
495.0
 20
-209.002016
 30
0.0
  0
POINT
  5
154E
  8
DEFPOINTS
  6
CONTINUOUS
 62
     7
 10
595.0
 20
-210.0
 30
0.0
  0
POINT
  5
154F
  8
DEFPOINTS
  6
CONTINUOUS
 62
     7
 10
595.0
 20
-855.103128
 30
0.0
  0
LINE
  5
1550
  8
SIZE
  6
CONTINUOUS
 62
    30
 10
-495.0
 20
-229.002016
 30
0.0
 11
-495.0
 21
-553.525849
 31
0.0
  0
LINE
  5
1551
  8
SIZE
  6
CONTINUOUS
 62
    30
 10
-454.001634
 20
-121.762709
 30
0.0
 11
-454.001634
 21
-553.525849
 31
0.0
  0
LINE
  5
1552
  8
SIZE
  6
CONTINUOUS
 62
    30
 10
-444.001634
 20
-523.525849
 30
0.0
 11
-434.001634
 21
-523.525849
 31
0.0
  0
LINE
  5
1553
  8
SIZE
  6
CONTINUOUS
 62
    30
 10
-505.0
 20
-523.525849
 30
0.0
 11
-628.769887
 21
-523.525849
 31
0.0
  0
LINE
  5
1554
  8
SIZE
  6
CONTINUOUS
 62
    30
 10
-454.001634
 20
-523.525849
 30
0.0
 11
-495.0
 21
-523.525849
 31
0.0
  0
CIRCLE
  5
1555
  8
SIZE
  6
CONTINUOUS
 62
    30
 10
-454.001634
 20
-523.525849
 30
0.0
 40
5.0
  0
LINE
  5
1556
  8
SIZE
  6
CONTINUOUS
 62
    30
 10
-449.001634
 20
-523.525849
 30
0.0
 11
-444.001634
 21
-523.525849
 31
0.0
  0
CIRCLE
  5
1557
  8
SIZE
  6
CONTINUOUS
 62
    30
 10
-495.0
 20
-523.525849
 30
0.0
 40
5.0
  0
LINE
  5
1558
  8
SIZE
  6
CONTINUOUS
 62
    30
 10
-500.0
 20
-523.525849
 30
0.0
 11
-505.0
 21
-523.525849
 31
0.0
  0
TEXT
  5
1559
  8
SIZE
  6
CONTINUOUS
 62
    30
 10
-608.769887
 20
-503.525849
 30
0.0
 40
64.0
  1
41
 41
0.9
 72
     1
 11
-574.484172
 21
-503.525849
 31
0.0
  0
POINT
  5
155A
  8
DEFPOINTS
  6
CONTINUOUS
 62
     7
 10
-495.0
 20
-209.002016
 30
0.0
  0
POINT
  5
155B
  8
DEFPOINTS
  6
CONTINUOUS
 62
     7
 10
-454.001634
 20
-101.762709
 30
0.0
  0
POINT
  5
155C
  8
DEFPOINTS
  6
CONTINUOUS
 62
     7
 10
-454.001634
 20
-523.525849
 30
0.0
  0
LINE
  5
155D
  8
SIZE
  6
CONTINUOUS
 62
    30
 10
-495.0
 20
-229.002016
 30
0.0
 11
-495.0
 21
-675.106816
 31
0.0
  0
LINE
  5
155E
  8
SIZE
  6
CONTINUOUS
 62
    30
 10
-417.0
 20
-133.59411
 30
0.0
 11
-417.0
 21
-675.106816
 31
0.0
  0
LINE
  5
155F
  8
SIZE
  6
CONTINUOUS
 62
    30
 10
-427.0
 20
-645.106816
 30
0.0
 11
-485.0
 21
-645.106816
 31
0.0
  0
LINE
  5
1560
  8
SIZE
  6
CONTINUOUS
 62
    30
 10
-495.0
 20
-645.106816
 30
0.0
 11
-641.112744
 21
-645.106816
 31
0.0
  0
CIRCLE
  5
1561
  8
SIZE
  6
CONTINUOUS
 62
    30
 10
-417.0
 20
-645.106816
 30
0.0
 40
5.0
  0
LINE
  5
1562
  8
SIZE
  6
CONTINUOUS
 62
    30
 10
-422.0
 20
-645.106816
 30
0.0
 11
-427.0
 21
-645.106816
 31
0.0
  0
CIRCLE
  5
1563
  8
SIZE
  6
CONTINUOUS
 62
    30
 10
-495.0
 20
-645.106816
 30
0.0
 40
5.0
  0
LINE
  5
1564
  8
SIZE
  6
CONTINUOUS
 62
    30
 10
-490.0
 20
-645.106816
 30
0.0
 11
-485.0
 21
-645.106816
 31
0.0
  0
TEXT
  5
1565
  8
SIZE
  6
CONTINUOUS
 62
    30
 10
-621.112744
 20
-625.106816
 30
0.0
 40
64.0
  1
78
 41
0.9
 72
     1
 11
-574.484172
 21
-625.106816
 31
0.0
  0
POINT
  5
1566
  8
DEFPOINTS
  6
CONTINUOUS
 62
     7
 10
-495.0
 20
-209.002016
 30
0.0
  0
POINT
  5
1567
  8
DEFPOINTS
  6
CONTINUOUS
 62
     7
 10
-417.0
 20
-113.59411
 30
0.0
  0
POINT
  5
1568
  8
DEFPOINTS
  6
CONTINUOUS
 62
     7
 10
-417.0
 20
-645.106816
 30
0.0
  0
LINE
  5
1569
  8
SIZE
  6
CONTINUOUS
 62
    30
 10
-514.002016
 20
-210.0
 30
0.0
 11
-1084.225003
 21
-210.0
 31
0.0
  0
LINE
  5
156A
  8
SIZE
  6
CONTINUOUS
 62
    30
 10
-515.0
 20
-710.0
 30
0.0
 11
-1084.225003
 21
-710.0
 31
0.0
  0
LINE
  5
156B
  8
SIZE
  6
CONTINUOUS
 62
    30
 10
-1054.225003
 20
-220.0
 30
0.0
 11
-1054.225003
 21
-700.0
 31
0.0
  0
CIRCLE
  5
156C
  8
SIZE
  6
CONTINUOUS
 62
    30
 10
-1054.225003
 20
-210.0
 30
0.0
 40
5.0
  0
LINE
  5
156D
  8
SIZE
  6
CONTINUOUS
 62
    30
 10
-1054.225003
 20
-215.0
 30
0.0
 11
-1054.225003
 21
-220.0
 31
0.0
  0
CIRCLE
  5
156E
  8
SIZE
  6
CONTINUOUS
 62
    30
 10
-1054.225003
 20
-710.0
 30
0.0
 40
5.0
  0
LINE
  5
156F
  8
SIZE
  6
CONTINUOUS
 62
    30
 10
-1054.225003
 20
-705.0
 30
0.0
 11
-1054.225003
 21
-700.0
 31
0.0
  0
TEXT
  5
1570
  8
SIZE
  6
CONTINUOUS
 62
    30
 10
-1074.225003
 20
-603.725714
 30
0.0
 40
64.0
  1
500以上
 50
90.0
 41
0.9
 72
     1
 11
-1074.225003
 21
-460.0
 31
0.0
  0
POINT
  5
1571
  8
DEFPOINTS
  6
CONTINUOUS
 62
     7
 10
-494.002016
 20
-210.0
 30
0.0
  0
POINT
  5
1572
  8
DEFPOINTS
  6
CONTINUOUS
 62
     7
 10
-495.0
 20
-710.0
 30
0.0
  0
POINT
  5
1573
  8
DEFPOINTS
  6
CONTINUOUS
 62
     7
 10
-1054.225003
 20
-710.0
 30
0.0
  0
LINE
  5
1574
  8
SIZE
  6
CONTINUOUS
 62
    30
 10
-514.002016
 20
-210.0
 30
0.0
 11
-576.412827
 21
-210.0
 31
0.0
  0
LINE
  5
1575
  8
SIZE
  6
CONTINUOUS
 62
    30
 10
-457.59411
 20
-93.0
 30
0.0
 11
-576.412827
 21
-93.0
 31
0.0
  0
LINE
  5
1576
  8
SIZE
  6
CONTINUOUS
 62
    30
 10
-546.412827
 20
-103.0
 30
0.0
 11
-546.412827
 21
-200.0
 31
0.0
  0
LINE
  5
1577
  8
SIZE
  6
CONTINUOUS
 62
    30
 10
-546.412827
 20
-210.0
 30
0.0
 11
-546.412827
 21
-386.171429
 31
0.0
  0
CIRCLE
  5
1578
  8
SIZE
  6
CONTINUOUS
 62
    30
 10
-546.412827
 20
-93.0
 30
0.0
 40
5.0
  0
LINE
  5
1579
  8
SIZE
  6
CONTINUOUS
 62
    30
 10
-546.412827
 20
-98.0
 30
0.0
 11
-546.412827
 21
-103.0
 31
0.0
  0
CIRCLE
  5
157A
  8
SIZE
  6
CONTINUOUS
 62
    30
 10
-546.412827
 20
-210.0
 30
0.0
 40
5.0
  0
LINE
  5
157B
  8
SIZE
  6
CONTINUOUS
 62
    30
 10
-546.412827
 20
-205.0
 30
0.0
 11
-546.412827
 21
-200.0
 31
0.0
  0
TEXT
  5
157C
  8
SIZE
  6
CONTINUOUS
 62
    30
 10
-566.412827
 20
-366.171429
 30
0.0
 40
64.0
  1
117
 50
90.0
 41
0.9
 72
     1
 11
-566.412827
 21
-303.085714
 31
0.0
  0
POINT
  5
157D
  8
DEFPOINTS
  6
CONTINUOUS
 62
     7
 10
-494.002016
 20
-210.0
 30
0.0
  0
POINT
  5
157E
  8
DEFPOINTS
  6
CONTINUOUS
 62
     7
 10
-437.59411
 20
-93.0
 30
0.0
  0
POINT
  5
157F
  8
DEFPOINTS
  6
CONTINUOUS
 62
     7
 10
-546.412827
 20
-93.0
 30
0.0
  0
LINE
  5
1580
  8
SIZE
  6
CONTINUOUS
 62
    30
 10
-514.002016
 20
-210.0
 30
0.0
 11
-698.647724
 21
-210.0
 31
0.0
  0
LINE
  5
1581
  8
SIZE
  6
CONTINUOUS
 62
    30
 10
-497.764343
 20
-78.0
 30
0.0
 11
-698.647724
 21
-78.0
 31
0.0
  0
LINE
  5
1582
  8
SIZE
  6
CONTINUOUS
 62
    30
 10
-668.647724
 20
-88.0
 30
0.0
 11
-668.647724
 21
-200.0
 31
0.0
  0
LINE
  5
1583
  8
SIZE
  6
CONTINUOUS
 62
    30
 10
-668.647724
 20
-210.0
 30
0.0
 11
-668.647724
 21
-397.142857
 31
0.0
  0
CIRCLE
  5
1584
  8
SIZE
  6
CONTINUOUS
 62
    30
 10
-668.647724
 20
-78.0
 30
0.0
 40
5.0
  0
LINE
  5
1585
  8
SIZE
  6
CONTINUOUS
 62
    30
 10
-668.647724
 20
-83.0
 30
0.0
 11
-668.647724
 21
-88.0
 31
0.0
  0
CIRCLE
  5
1586
  8
SIZE
  6
CONTINUOUS
 62
    30
 10
-668.647724
 20
-210.0
 30
0.0
 40
5.0
  0
LINE
  5
1587
  8
SIZE
  6
CONTINUOUS
 62
    30
 10
-668.647724
 20
-205.0
 30
0.0
 11
-668.647724
 21
-200.0
 31
0.0
  0
TEXT
  5
1588
  8
SIZE
  6
CONTINUOUS
 62
    30
 10
-688.647724
 20
-377.142857
 30
0.0
 40
64.0
  1
132
 50
90.0
 41
0.9
 72
     1
 11
-688.647724
 21
-308.571429
 31
0.0
  0
POINT
  5
1589
  8
DEFPOINTS
  6
CONTINUOUS
 62
     7
 10
-494.002016
 20
-210.0
 30
0.0
  0
POINT
  5
158A
  8
DEFPOINTS
  6
CONTINUOUS
 62
     7
 10
-477.764343
 20
-78.0
 30
0.0
  0
POINT
  5
158B
  8
DEFPOINTS
  6
CONTINUOUS
 62
     7
 10
-668.647724
 20
-78.0
 30
0.0
  0
LINE
  5
158C
  8
DETAIL
  6
CONTINUOUS
 62
     5
 10
-404.977823
 20
-17.0
 30
0.0
 11
-471.022177
 21
-17.0
 31
0.0
  0
LINE
  5
158D
  8
DETAIL
  6
CONTINUOUS
 62
     5
 10
-482.0
 20
-27.977823
 30
0.0
 11
-482.0
 21
-146.022177
 31
0.0
  0
LINE
  5
158E
  8
OUTLINE
  6
CONTINUOUS
 62
     3
 10
-494.002016
 20
210.0
 30
0.0
 11
494.002016
 21
210.0
 31
0.0
  0
LINE
  5
158F
  8
OUTLINE
  6
CONTINUOUS
 62
     3
 10
494.002016
 20
210.0
 30
0.0
 11
495.0
 21
209.002016
 31
0.0
  0
LINE
  5
1590
  8
OUTLINE
  6
CONTINUOUS
 62
     3
 10
495.0
 20
209.002016
 30
0.0
 11
495.0
 21
-209.002016
 31
0.0
  0
LINE
  5
1591
  8
OUTLINE
  6
CONTINUOUS
 62
     3
 10
495.0
 20
-209.002016
 30
0.0
 11
494.002016
 21
-210.0
 31
0.0
  0
LINE
  5
1592
  8
OUTLINE
  6
CONTINUOUS
 62
     3
 10
494.002016
 20
-210.0
 30
0.0
 11
-494.002016
 21
-210.0
 31
0.0
  0
LINE
  5
1593
  8
OUTLINE
  6
CONTINUOUS
 62
     3
 10
-494.002016
 20
-210.0
 30
0.0
 11
-495.0
 21
-209.002016
 31
0.0
  0
LINE
  5
1594
  8
OUTLINE
  6
CONTINUOUS
 62
     3
 10
-495.0
 20
-209.002016
 30
0.0
 11
-495.0
 21
209.002016
 31
0.0
  0
LINE
  5
1595
  8
OUTLINE
  6
CONTINUOUS
 62
     3
 10
-495.0
 20
209.002016
 30
0.0
 11
-494.002016
 21
210.0
 31
0.0
  0
LINE
  5
1596
  8
OUTLINE
  6
CONTINUOUS
 62
     3
 10
-239.934476
 20
210.0
 30
0.0
 11
-239.934476
 21
353.014113
 31
0.0
  0
LINE
  5
1597
  8
OUTLINE
  6
CONTINUOUS
 62
     3
 10
-242.229839
 20
210.0
 30
0.0
 11
-242.229839
 21
353.014113
 31
0.0
  0
LINE
  5
1598
  8
OUTLINE
  6
CONTINUOUS
 62
     3
 10
473.293851
 20
210.0
 30
0.0
 11
473.293851
 21
353.014113
 31
0.0
  0
LINE
  5
1599
  8
OUTLINE
  6
CONTINUOUS
 62
     3
 10
475.589214
 20
210.0
 30
0.0
 11
475.589214
 21
353.014113
 31
0.0
  0
LINE
  5
159A
  8
OUTLINE
  6
CONTINUOUS
 62
     3
 10
-253.706653
 20
353.014113
 30
0.0
 11
-258.696573
 21
358.004032
 31
0.0
  0
LINE
  5
159B
  8
OUTLINE
  6
CONTINUOUS
 62
     3
 10
-258.696573
 20
358.004032
 30
0.0
 11
-258.696573
 21
353.014113
 31
0.0
  0
LINE
  5
159C
  8
OUTLINE
  6
CONTINUOUS
 62
     3
 10
-258.696573
 20
353.014113
 30
0.0
 11
-259.894153
 21
353.014113
 31
0.0
  0
LINE
  5
159D
  8
OUTLINE
  6
CONTINUOUS
 62
     3
 10
-259.894153
 20
353.014113
 30
0.0
 11
-259.894153
 21
358.802419
 31
0.0
  0
LINE
  5
159E
  8
OUTLINE
  6
CONTINUOUS
 62
     3
 10
-259.894153
 20
358.802419
 30
0.0
 11
-258.696573
 21
360.0
 31
0.0
  0
LINE
  5
159F
  8
OUTLINE
  6
CONTINUOUS
 62
     3
 10
-258.696573
 20
360.0
 30
0.0
 11
490.908266
 21
360.0
 31
0.0
  0
LINE
  5
15A0
  8
OUTLINE
  6
CONTINUOUS
 62
     3
 10
490.908266
 20
360.0
 30
0.0
 11
492.105847
 21
358.802419
 31
0.0
  0
LINE
  5
15A1
  8
OUTLINE
  6
CONTINUOUS
 62
     3
 10
492.105847
 20
358.802419
 30
0.0
 11
492.105847
 21
353.014113
 31
0.0
  0
LINE
  5
15A2
  8
OUTLINE
  6
CONTINUOUS
 62
     3
 10
492.105847
 20
353.014113
 30
0.0
 11
490.908266
 21
353.014113
 31
0.0
  0
LINE
  5
15A3
  8
OUTLINE
  6
CONTINUOUS
 62
     3
 10
490.908266
 20
353.014113
 30
0.0
 11
490.908266
 21
358.004032
 31
0.0
  0
LINE
  5
15A4
  8
OUTLINE
  6
CONTINUOUS
 62
     3
 10
490.908266
 20
358.004032
 30
0.0
 11
485.918347
 21
353.014113
 31
0.0
  0
LINE
  5
15A5
  8
OUTLINE
  6
CONTINUOUS
 62
     3
 10
485.918347
 20
353.014113
 30
0.0
 11
-253.706653
 21
353.014113
 31
0.0
  0
LINE
  5
15A6
  8
OUTLINE
  6
CONTINUOUS
 62
     3
 10
-105.287298
 20
-210.0
 30
0.0
 11
-105.287298
 21
-232.106855
 31
0.0
  0
ARC
  5
15A7
  8
OUTLINE
  6
CONTINUOUS
 62
     3
 10
-104.289315
 20
-232.106855
 30
0.0
 40
0.997984
 50
180.0
 51
270.0
  0
LINE
  5
15A8
  8
OUTLINE
  6
CONTINUOUS
 62
     3
 10
-104.289315
 20
-233.104839
 30
0.0
 11
-105.287298
 21
-233.104839
 31
0.0
  0
LINE
  5
15A9
  8
OUTLINE
  6
CONTINUOUS
 62
     3
 10
-105.287298
 20
-233.104839
 30
0.0
 11
-105.287298
 21
-235.100806
 31
0.0
  0
LINE
  5
15AA
  8
OUTLINE
  6
CONTINUOUS
 62
     3
 10
-105.287298
 20
-235.100806
 30
0.0
 11
-103.291331
 21
-235.100806
 31
0.0
  0
LINE
  5
15AB
  8
OUTLINE
  6
CONTINUOUS
 62
     3
 10
468.553427
 20
-210.0
 30
0.0
 11
468.553427
 21
-232.106855
 31
0.0
  0
ARC
  5
15AC
  8
OUTLINE
  6
CONTINUOUS
 62
     3
 10
467.555444
 20
-232.106855
 30
0.0
 40
0.997984
 50
270.0
 51
0.0
  0
LINE
  5
15AD
  8
OUTLINE
  6
CONTINUOUS
 62
     3
 10
467.555444
 20
-233.104839
 30
0.0
 11
468.553427
 21
-233.104839
 31
0.0
  0
LINE
  5
15AE
  8
OUTLINE
  6
CONTINUOUS
 62
     3
 10
468.553427
 20
-233.104839
 30
0.0
 11
468.553427
 21
-235.100806
 31
0.0
  0
LINE
  5
15AF
  8
OUTLINE
  6
CONTINUOUS
 62
     3
 10
468.553427
 20
-235.100806
 30
0.0
 11
466.55746
 21
-235.100806
 31
0.0
  0
ARC
  5
15B0
  8
OUTLINE
  6
CONTINUOUS
 62
     3
 10
317.905357
 20
-217.439608
 30
0.0
 40
149.697581
 50
335.140122
 51
353.22451
  0
ARC
  5
15B1
  8
OUTLINE
  6
CONTINUOUS
 62
     3
 10
446.487679
 20
-277.016129
 30
0.0
 40
7.983871
 50
270.0
 51
335.140122
  0
ARC
  5
15B2
  8
OUTLINE
  6
CONTINUOUS
 62
     3
 10
45.360772
 20
-217.439608
 30
0.0
 40
149.697581
 50
186.77549
 51
204.859878
  0
ARC
  5
15B3
  8
OUTLINE
  6
CONTINUOUS
 62
     3
 10
-83.22155
 20
-277.016129
 30
0.0
 40
7.983871
 50
204.859878
 51
270.0
  0
LINE
  5
15B4
  8
OUTLINE
  6
CONTINUOUS
 62
     3
 10
-83.22155
 20
-285.0
 30
0.0
 11
446.487679
 21
-285.0
 31
0.0
  0
LINE
  5
15B5
  8
NOTE
  6
CONTINUOUS
 62
     4
 10
-693.025486
 20
-1041.668289
 30
0.0
 11
-271.5296
 21
-1041.668289
 31
0.0
  0
TEXT
  5
15B6
  8
NOTE
  6
CONTINUOUS
 62
     4
 10
-678.176107
 20
-1029.93602
 30
0.0
 40
55.0
  1
RG %%C15.88
 50
359.999997
 41
0.840476
  7
STANDARD1
  0
LINE
  5
15B7
  8
NOTE
  6
CONTINUOUS
 62
     4
 10
-454.001634
 20
-78.0
 30
0.0
 11
-271.5296
 21
-1041.668289
 31
0.0
  0
LINE
  5
15B8
  8
NOTE
  6
CONTINUOUS
 62
     4
 10
-157.439779
 20
-1041.717806
 30
0.0
 11
211.471485
 21
-1041.717806
 31
0.0
  0
TEXT
  5
15B9
  8
NOTE
  6
CONTINUOUS
 62
     4
 10
-141.783597
 20
-1029.257488
 30
0.0
 40
55.0
  1
RL %%C12.7
 50
359.999997
 41
0.840476
  7
STANDARD1
  0
LINE
  5
15BA
  8
NOTE
  6
CONTINUOUS
 62
     4
 10
-417.0
 20
-93.0
 30
0.0
 11
-157.439779
 21
-1041.717806
 31
0.0
  0
LINE
  5
15BB
  8
NOTE
  6
CONTINUOUS
 62
     4
 10
-454.001634
 20
-78.0
 30
0.0
 11
-454.816735
 21
-106.502172
 31
0.0
  0
LINE
  5
15BC
  8
NOTE
  6
CONTINUOUS
 62
     4
 10
-454.001634
 20
-78.0
 30
0.0
 11
-440.456445
 21
-103.091155
 31
0.0
  0
LINE
  5
15BD
  8
NOTE
  6
CONTINUOUS
 62
     4
 10
-417.0
 20
-93.0
 30
0.0
 11
-415.54839
 21
-121.476851
 31
0.0
  0
LINE
  5
15BE
  8
NOTE
  6
CONTINUOUS
 62
     4
 10
-417.0
 20
-93.0
 30
0.0
 11
-401.504443
 21
-116.935871
 31
0.0
  0
LINE
  5
15BF
  8
ARRANGE
  6
CONTINUOUS
 62
     1
 10
-37.897321
 20
-37.897321
 30
0.0
 11
37.897321
 21
37.897321
 31
0.0
  0
LINE
  5
15C0
  8
ARRANGE
  6
CONTINUOUS
 62
     1
 10
-37.897321
 20
37.897321
 30
0.0
 11
37.897321
 21
-37.897321
 31
0.0
  0
CIRCLE
  5
15C1
  8
ARRANGE
  6
CONTINUOUS
 62
     1
 10
0.0
 20
0.0
 30
0.0
 40
34.449674
  0
TEXT
  5
15C2
  8
NOTE
  6
CONTINUOUS
 62
     4
 10
-1136.092896
 20
329.527702
 30
0.0
 40
55.0
  1
配管・配線用穴
 50
359.999997
 41
0.840476
  7
STANDARD1
  0
LINE
  5
15C3
  8
NOTE
  6
CONTINUOUS
 62
     4
 10
-1146.5289
 20
320.071023
 30
0.0
 11
-746.03505
 21
320.071023
 31
0.0
  0
LINE
  5
15C4
  8
NOTE
  6
CONTINUOUS
 62
     4
 10
-746.03505
 20
320.071023
 30
0.0
 11
-446.43896
 21
-40.614574
 31
0.0
  0
CIRCLE
  5
15C5
  8
NOTE
  6
CONTINUOUS
 62
     4
 10
-446.43896
 20
-40.614574
 30
0.0
 40
1.425691
  0
CIRCLE
  5
15C6
  8
NOTE
  6
CONTINUOUS
 62
     4
 10
-446.43896
 20
-40.614574
 30
0.0
 40
2.851382
  0
CIRCLE
  5
15C7
  8
NOTE
  6
CONTINUOUS
 62
     4
 10
-446.43896
 20
-40.614574
 30
0.0
 40
4.277074
  0
CIRCLE
  5
15C8
  8
NOTE
  6
CONTINUOUS
 62
     4
 10
-446.43896
 20
-40.614574
 30
0.0
 40
5.702765
  0
CIRCLE
  5
15C9
  8
NOTE
  6
CONTINUOUS
 62
     4
 10
-446.43896
 20
-40.614574
 30
0.0
 40
7.128456
  0
LINE
  5
15CA
  8
SIZE
  6
CONTINUOUS
 62
    30
 10
-259.894153
 20
378.802419
 30
0.0
 11
-259.894153
 21
497.810591
 31
0.0
  0
LINE
  5
15CB
  8
SIZE
  6
CONTINUOUS
 62
    30
 10
492.105847
 20
378.802419
 30
0.0
 11
492.105847
 21
497.810591
 31
0.0
  0
LINE
  5
15CC
  8
SIZE
  6
CONTINUOUS
 62
    30
 10
-249.894153
 20
467.810591
 30
0.0
 11
482.105847
 21
467.810591
 31
0.0
  0
CIRCLE
  5
15CD
  8
SIZE
  6
CONTINUOUS
 62
    30
 10
-259.894153
 20
467.810591
 30
0.0
 40
5.0
  0
LINE
  5
15CE
  8
SIZE
  6
CONTINUOUS
 62
    30
 10
-254.894153
 20
467.810591
 30
0.0
 11
-249.894153
 21
467.810591
 31
0.0
  0
CIRCLE
  5
15CF
  8
SIZE
  6
CONTINUOUS
 62
    30
 10
492.105847
 20
467.810591
 30
0.0
 40
5.0
  0
LINE
  5
15D0
  8
SIZE
  6
CONTINUOUS
 62
    30
 10
487.105847
 20
467.810591
 30
0.0
 11
482.105847
 21
467.810591
 31
0.0
  0
TEXT
  5
15D1
  8
SIZE
  6
CONTINUOUS
 62
    30
 10
73.193617
 20
487.810591
 30
0.0
 40
64.0
  1
752
 41
0.9
 72
     1
 11
147.25076
 21
487.810591
 31
0.0
  0
POINT
  5
15D2
  8
DEFPOINTS
  6
CONTINUOUS
 62
     7
 10
-259.894153
 20
358.802419
 30
0.0
  0
POINT
  5
15D3
  8
DEFPOINTS
  6
CONTINUOUS
 62
     7
 10
492.105847
 20
358.802419
 30
0.0
  0
POINT
  5
15D4
  8
DEFPOINTS
  6
CONTINUOUS
 62
     7
 10
492.105847
 20
467.810591
 30
0.0
  0
LINE
  5
15D5
  8
DETAIL
  6
CONTINUOUS
 62
     5
 10
-259.894153
 20
358.802419
 30
0.0
 11
-259.894153
 21
353.014113
 31
0.0
  0
LINE
  5
15D6
  8
DETAIL
  6
CONTINUOUS
 62
     5
 10
-484.820565
 20
-202.814516
 30
0.0
 11
-484.820565
 21
10.778226
 31
0.0
  0
LINE
  5
15D7
  8
DETAIL
  6
CONTINUOUS
 62
     5
 10
-484.022177
 20
-160.0
 30
0.0
 11
-484.022177
 21
-200.020161
 31
0.0
  0
LINE
  5
15D8
  8
DETAIL
  6
CONTINUOUS
 62
     5
 10
484.022177
 20
-160.0
 30
0.0
 11
484.022177
 21
-200.020161
 31
0.0
  0
LINE
  5
15D9
  8
NOTE
  6
CONTINUOUS
 62
     4
 10
-364.0
 20
-206.240783
 30
0.0
 11
-364.0
 21
-161.759217
 31
0.0
  0
LINE
  5
15DA
  8
NOTE
  6
CONTINUOUS
 62
     4
 10
366.0
 20
-206.240783
 30
0.0
 11
366.0
 21
-161.759217
 31
0.0
  0
LINE
  5
15DB
  8
NOTE
  6
CONTINUOUS
 62
     4
 10
-249.0
 20
-206.240783
 30
0.0
 11
-249.0
 21
-161.759217
 31
0.0
  0
LINE
  5
15DC
  8
NOTE
  6
CONTINUOUS
 62
     4
 10
251.0
 20
-206.240783
 30
0.0
 11
251.0
 21
-161.759217
 31
0.0
  0
ARC
  5
15DD
  8
DETAIL
  6
CONTINUOUS
 62
     5
 10
251.0
 20
-175.000006
 30
0.0
 40
6.000012
 50
0.115574
 51
179.884426
  0
LINE
  5
15DE
  8
DETAIL
  6
CONTINUOUS
 62
     5
 10
-484.022177
 20
200.020161
 30
0.0
 11
-484.022177
 21
160.0
 31
0.0
  0
LINE
  5
15DF
  8
DETAIL
  6
CONTINUOUS
 62
     5
 10
484.022177
 20
200.020161
 30
0.0
 11
484.022177
 21
160.0
 31
0.0
  0
LINE
  5
15E0
  8
DETAIL
  6
CONTINUOUS
 62
     5
 10
-484.022177
 20
200.020161
 30
0.0
 11
-474.042339
 21
210.0
 31
0.0
  0
LINE
  5
15E1
  8
DETAIL
  6
CONTINUOUS
 62
     5
 10
-484.022177
 20
210.0
 30
0.0
 11
-484.022177
 21
200.020161
 31
0.0
  0
LINE
  5
15E2
  8
NOTE
  6
CONTINUOUS
 62
     4
 10
-341.759217
 20
186.0
 30
0.0
 11
-386.240783
 21
186.0
 31
0.0
  0
LINE
  5
15E3
  8
NOTE
  6
CONTINUOUS
 62
     4
 10
-364.0
 20
163.759217
 30
0.0
 11
-364.0
 21
208.240783
 31
0.0
  0
LINE
  5
15E4
  8
NOTE
  6
CONTINUOUS
 62
     4
 10
-226.759217
 20
186.0
 30
0.0
 11
-271.240783
 21
186.0
 31
0.0
  0
LINE
  5
15E5
  8
NOTE
  6
CONTINUOUS
 62
     4
 10
-249.0
 20
163.759217
 30
0.0
 11
-249.0
 21
208.240783
 31
0.0
  0
LINE
  5
15E6
  8
NOTE
  6
CONTINUOUS
 62
     4
 10
273.240783
 20
186.0
 30
0.0
 11
228.759217
 21
186.0
 31
0.0
  0
LINE
  5
15E7
  8
NOTE
  6
CONTINUOUS
 62
     4
 10
251.0
 20
163.759217
 30
0.0
 11
251.0
 21
208.240783
 31
0.0
  0
LINE
  5
15E8
  8
DETAIL
  6
CONTINUOUS
 62
     5
 10
484.022177
 20
210.0
 30
0.0
 11
484.022177
 21
200.020161
 31
0.0
  0
LINE
  5
15E9
  8
DETAIL
  6
CONTINUOUS
 62
     5
 10
474.042339
 20
210.0
 30
0.0
 11
484.022177
 21
200.020161
 31
0.0
  0
LINE
  5
15EA
  8
NOTE
  6
CONTINUOUS
 62
     4
 10
388.240783
 20
186.0
 30
0.0
 11
343.759217
 21
186.0
 31
0.0
  0
LINE
  5
15EB
  8
NOTE
  6
CONTINUOUS
 62
     4
 10
366.0
 20
163.759217
 30
0.0
 11
366.0
 21
208.240783
 31
0.0
  0
LINE
  5
15EC
  8
DETAIL
  6
CONTINUOUS
 62
     5
 10
-484.022177
 20
160.0
 30
0.0
 11
484.022177
 21
160.0
 31
0.0
  0
LINE
  5
15ED
  8
DETAIL
  6
CONTINUOUS
 62
     5
 10
102.09375
 20
147.325605
 30
0.0
 11
-102.09375
 21
147.325605
 31
0.0
  0
LINE
  5
15EE
  8
DETAIL
  6
CONTINUOUS
 62
     5
 10
-364.264113
 20
44.210685
 30
0.0
 11
364.264113
 21
44.210685
 31
0.0
  0
LINE
  5
15EF
  8
DETAIL
  6
CONTINUOUS
 62
     5
 10
-364.264113
 20
27.444556
 30
0.0
 11
364.264113
 21
27.444556
 31
0.0
  0
LINE
  5
15F0
  8
DETAIL
  6
CONTINUOUS
 62
     5
 10
-364.264113
 20
-47.404234
 30
0.0
 11
364.264113
 21
-47.404234
 31
0.0
  0
LINE
  5
15F1
  8
DETAIL
  6
CONTINUOUS
 62
     5
 10
-364.264113
 20
-64.170363
 30
0.0
 11
364.264113
 21
-64.170363
 31
0.0
  0
LINE
  5
15F2
  8
DETAIL
  6
CONTINUOUS
 62
     5
 10
-102.09375
 20
-147.426411
 30
0.0
 11
102.09375
 21
-147.426411
 31
0.0
  0
LINE
  5
15F3
  8
DETAIL
  6
CONTINUOUS
 62
     5
 10
-484.022177
 20
-160.0
 30
0.0
 11
484.022177
 21
-160.0
 31
0.0
  0
LINE
  5
15F4
  8
DETAIL
  6
CONTINUOUS
 62
     5
 10
-394.0
 20
-160.0
 30
0.0
 11
-394.0
 21
160.0
 31
0.0
  0
LINE
  5
15F5
  8
DETAIL
  6
CONTINUOUS
 62
     5
 10
-364.264113
 20
-158.403226
 30
0.0
 11
-364.264113
 21
160.0
 31
0.0
  0
CIRCLE
  5
15F6
  8
DETAIL
  6
CONTINUOUS
 62
     5
 10
-469.052419
 20
142.137097
 30
0.0
 40
12.474798
  0
LINE
  5
15F7
  8
DETAIL
  6
CONTINUOUS
 62
     5
 10
-489.810484
 20
15.768145
 30
0.0
 11
-484.820565
 21
10.778226
 31
0.0
  0
LINE
  5
15F8
  8
DETAIL
  6
CONTINUOUS
 62
     5
 10
-495.0
 20
15.768145
 30
0.0
 11
-489.810484
 21
15.768145
 31
0.0
  0
LINE
  5
15F9
  8
DETAIL
  6
CONTINUOUS
 62
     5
 10
-351.589718
 20
147.325605
 30
0.0
 11
-147.402218
 21
147.325605
 31
0.0
  0
LINE
  5
15FA
  8
DETAIL
  6
CONTINUOUS
 62
     5
 10
-364.264113
 20
157.681452
 30
0.0
 11
-364.264113
 21
156.084677
 31
0.0
  0
LINE
  5
15FB
  8
DETAIL
  6
CONTINUOUS
 62
     5
 10
-351.589718
 20
160.0
 30
0.0
 11
-351.589718
 21
147.325605
 31
0.0
  0
LINE
  5
15FC
  8
DETAIL
  6
CONTINUOUS
 62
     5
 10
-394.0
 20
156.084677
 30
0.0
 11
-364.264113
 21
156.084677
 31
0.0
  0
CIRCLE
  5
15FD
  8
DETAIL
  6
CONTINUOUS
 62
     5
 10
-244.506048
 20
132.157258
 30
0.0
 40
12.474798
  0
LINE
  5
15FE
  8
DETAIL
  6
CONTINUOUS
 62
     5
 10
-147.402218
 20
160.0
 30
0.0
 11
-147.402218
 21
147.325605
 31
0.0
  0
LINE
  5
15FF
  8
DETAIL
  6
CONTINUOUS
 62
     5
 10
-102.09375
 20
147.325605
 30
0.0
 11
-102.09375
 21
160.0
 31
0.0
  0
CIRCLE
  5
1600
  8
DETAIL
  6
CONTINUOUS
 62
     5
 10
-204.586694
 20
132.157258
 30
0.0
 40
12.474798
  0
CIRCLE
  5
1601
  8
DETAIL
  6
CONTINUOUS
 62
     5
 10
-173.081797
 20
57.862695
 30
0.0
 40
8.981855
  0
CIRCLE
  5
1602
  8
DETAIL
  6
CONTINUOUS
 62
     5
 10
-173.081797
 20
57.862695
 30
0.0
 40
12.474798
  0
CIRCLE
  5
1603
  8
DETAIL
  6
CONTINUOUS
 62
     5
 10
-131.75424
 20
-96.373848
 30
0.0
 40
8.981855
  0
CIRCLE
  5
1604
  8
DETAIL
  6
CONTINUOUS
 62
     5
 10
-131.75424
 20
-96.373848
 30
0.0
 40
12.474798
  0
LINE
  5
1605
  8
DETAIL
  6
CONTINUOUS
 62
     5
 10
-147.402218
 20
-147.426411
 30
0.0
 11
-351.589718
 21
-147.426411
 31
0.0
  0
LINE
  5
1606
  8
DETAIL
  6
CONTINUOUS
 62
     5
 10
-364.264113
 20
-160.0
 30
0.0
 11
-364.264113
 21
-158.403226
 31
0.0
  0
LINE
  5
1607
  8
DETAIL
  6
CONTINUOUS
 62
     5
 10
-351.589718
 20
-160.0
 30
0.0
 11
-351.589718
 21
-147.426411
 31
0.0
  0
LINE
  5
1608
  8
DETAIL
  6
CONTINUOUS
 62
     5
 10
-394.0
 20
-158.403226
 30
0.0
 11
-364.264113
 21
-158.403226
 31
0.0
  0
ARC
  5
1609
  8
DETAIL
  6
CONTINUOUS
 62
     5
 10
-285.990783
 20
-140.12076
 30
0.0
 40
8.981855
 50
305.447303
 51
234.552697
  0
ARC
  5
160A
  8
DETAIL
  6
CONTINUOUS
 62
     5
 10
-285.990783
 20
-140.12076
 30
0.0
 40
12.474798
 50
324.105168
 51
215.894832
  0
LINE
  5
160B
  8
DETAIL
  6
CONTINUOUS
 62
     5
 10
-155.384172
 20
-133.342029
 30
0.0
 11
-155.384172
 21
-145.317835
 31
0.0
  0
LINE
  5
160C
  8
DETAIL
  6
CONTINUOUS
 62
     5
 10
-147.402218
 20
-160.0
 30
0.0
 11
-147.402218
 21
-147.426411
 31
0.0
  0
LINE
  5
160D
  8
DETAIL
  6
CONTINUOUS
 62
     5
 10
-143.408366
 20
-145.317835
 30
0.0
 11
-143.408366
 21
-133.342029
 31
0.0
  0
LINE
  5
160E
  8
DETAIL
  6
CONTINUOUS
 62
     5
 10
-102.09375
 20
-160.0
 30
0.0
 11
-102.09375
 21
-147.426411
 31
0.0
  0
LINE
  5
160F
  8
DETAIL
  6
CONTINUOUS
 62
     5
 10
-143.408366
 20
-133.342029
 30
0.0
 11
-155.384172
 21
-133.342029
 31
0.0
  0
LINE
  5
1610
  8
DETAIL
  6
CONTINUOUS
 62
     5
 10
-155.384172
 20
-145.317835
 30
0.0
 11
-143.408366
 21
-145.317835
 31
0.0
  0
CIRCLE
  5
1611
  8
DETAIL
  6
CONTINUOUS
 62
     5
 10
-149.396269
 20
-139.329932
 30
0.0
 40
3.991935
  0
LINE
  5
1612
  8
DETAIL
  6
CONTINUOUS
 62
     5
 10
364.264113
 20
158.403226
 30
0.0
 11
364.264113
 21
-158.403226
 31
0.0
  0
LINE
  5
1613
  8
DETAIL
  6
CONTINUOUS
 62
     5
 10
394.203629
 20
158.203629
 30
0.0
 11
394.203629
 21
-158.203629
 31
0.0
  0
LINE
  5
1614
  8
DETAIL
  6
CONTINUOUS
 62
     5
 10
147.402218
 20
147.325605
 30
0.0
 11
351.589718
 21
147.325605
 31
0.0
  0
LINE
  5
1615
  8
DETAIL
  6
CONTINUOUS
 62
     5
 10
102.09375
 20
147.325605
 30
0.0
 11
102.09375
 21
160.0
 31
0.0
  0
LINE
  5
1616
  8
DETAIL
  6
CONTINUOUS
 62
     5
 10
147.402218
 20
160.0
 30
0.0
 11
147.402218
 21
147.325605
 31
0.0
  0
LINE
  5
1617
  8
DETAIL
  6
CONTINUOUS
 62
     5
 10
393.095622
 20
158.353256
 30
0.0
 11
393.404541
 21
158.328439
 31
0.0
  0
LINE
  5
1618
  8
DETAIL
  6
CONTINUOUS
 62
     5
 10
393.404541
 20
158.328439
 30
0.0
 11
393.677484
 21
158.303427
 31
0.0
  0
LINE
  5
1619
  8
DETAIL
  6
CONTINUOUS
 62
     5
 10
393.677484
 20
158.303427
 30
0.0
 11
393.901371
 21
158.278416
 31
0.0
  0
LINE
  5
161A
  8
DETAIL
  6
CONTINUOUS
 62
     5
 10
393.901371
 20
158.278416
 30
0.0
 11
394.066506
 21
158.253599
 31
0.0
  0
LINE
  5
161B
  8
DETAIL
  6
CONTINUOUS
 62
     5
 10
394.066506
 20
158.253599
 30
0.0
 11
394.169234
 21
158.228534
 31
0.0
  0
LINE
  5
161C
  8
DETAIL
  6
CONTINUOUS
 62
     5
 10
394.169234
 20
158.228534
 30
0.0
 11
394.203629
 21
158.203629
 31
0.0
  0
LINE
  5
161D
  8
DETAIL
  6
CONTINUOUS
 62
     5
 10
392.407258
 20
158.403226
 30
0.0
 11
393.095622
 21
158.353256
 31
0.0
  0
LINE
  5
161E
  8
DETAIL
  6
CONTINUOUS
 62
     5
 10
392.407258
 20
158.403226
 30
0.0
 11
364.264113
 21
158.403226
 31
0.0
  0
LINE
  5
161F
  8
DETAIL
  6
CONTINUOUS
 62
     5
 10
351.589718
 20
160.0
 30
0.0
 11
351.589718
 21
147.325605
 31
0.0
  0
LINE
  5
1620
  8
DETAIL
  6
CONTINUOUS
 62
     5
 10
364.264113
 20
160.0
 30
0.0
 11
364.264113
 21
158.403226
 31
0.0
  0
LINE
  5
1621
  8
DETAIL
  6
CONTINUOUS
 62
     5
 10
392.407258
 20
160.0
 30
0.0
 11
392.407258
 21
158.403226
 31
0.0
  0
ARC
  5
1622
  8
DETAIL
  6
CONTINUOUS
 62
     5
 10
392.407258
 20
158.203629
 30
0.0
 40
1.796371
 50
0.0
 51
90.0
  0
CIRCLE
  5
1623
  8
DETAIL
  6
CONTINUOUS
 62
     5
 10
472.046371
 20
144.133065
 30
0.0
 40
12.474798
  0
LINE
  5
1624
  8
DETAIL
  6
CONTINUOUS
 62
     5
 10
351.589718
 20
-147.426411
 30
0.0
 11
147.402218
 21
-147.426411
 31
0.0
  0
LINE
  5
1625
  8
DETAIL
  6
CONTINUOUS
 62
     5
 10
102.09375
 20
-160.0
 30
0.0
 11
102.09375
 21
-147.426411
 31
0.0
  0
LINE
  5
1626
  8
DETAIL
  6
CONTINUOUS
 62
     5
 10
147.402218
 20
-160.0
 30
0.0
 11
147.402218
 21
-147.426411
 31
0.0
  0
LINE
  5
1627
  8
DETAIL
  6
CONTINUOUS
 62
     5
 10
392.407258
 20
-158.403226
 30
0.0
 11
364.264113
 21
-158.403226
 31
0.0
  0
LINE
  5
1628
  8
DETAIL
  6
CONTINUOUS
 62
     5
 10
392.407258
 20
-158.403226
 30
0.0
 11
393.095622
 21
-158.353256
 31
0.0
  0
LINE
  5
1629
  8
DETAIL
  6
CONTINUOUS
 62
     5
 10
393.095622
 20
-158.353256
 30
0.0
 11
393.404541
 21
-158.328439
 31
0.0
  0
LINE
  5
162A
  8
DETAIL
  6
CONTINUOUS
 62
     5
 10
393.404541
 20
-158.328439
 30
0.0
 11
393.677484
 21
-158.303427
 31
0.0
  0
LINE
  5
162B
  8
DETAIL
  6
CONTINUOUS
 62
     5
 10
393.677484
 20
-158.303427
 30
0.0
 11
393.901371
 21
-158.278416
 31
0.0
  0
LINE
  5
162C
  8
DETAIL
  6
CONTINUOUS
 62
     5
 10
393.901371
 20
-158.278416
 30
0.0
 11
394.066506
 21
-158.253599
 31
0.0
  0
LINE
  5
162D
  8
DETAIL
  6
CONTINUOUS
 62
     5
 10
394.066506
 20
-158.253599
 30
0.0
 11
394.169234
 21
-158.228534
 31
0.0
  0
LINE
  5
162E
  8
DETAIL
  6
CONTINUOUS
 62
     5
 10
394.169234
 20
-158.228534
 30
0.0
 11
394.203629
 21
-158.203629
 31
0.0
  0
LINE
  5
162F
  8
DETAIL
  6
CONTINUOUS
 62
     5
 10
351.589718
 20
-160.0
 30
0.0
 11
351.589718
 21
-147.426411
 31
0.0
  0
LINE
  5
1630
  8
DETAIL
  6
CONTINUOUS
 62
     5
 10
364.264113
 20
-158.403226
 30
0.0
 11
364.264113
 21
-160.0
 31
0.0
  0
LINE
  5
1631
  8
DETAIL
  6
CONTINUOUS
 62
     5
 10
392.407258
 20
-160.0
 30
0.0
 11
392.407258
 21
-158.403226
 31
0.0
  0
ARC
  5
1632
  8
DETAIL
  6
CONTINUOUS
 62
     5
 10
392.407258
 20
-158.203629
 30
0.0
 40
1.796371
 50
270.0
 51
0.0
  0
CIRCLE
  5
1633
  8
DETAIL
  6
CONTINUOUS
 62
     5
 10
472.046371
 20
-130.16129
 30
0.0
 40
12.474798
  0
LINE
  5
1634
  8
DETAIL
  6
CONTINUOUS
 62
     5
 10
474.042339
 20
-210.0
 30
0.0
 11
-474.042339
 21
-210.0
 31
0.0
  0
LINE
  5
1635
  8
DETAIL
  6
CONTINUOUS
 62
     5
 10
-484.022177
 20
-200.020161
 30
0.0
 11
-484.022177
 21
-202.814516
 31
0.0
  0
LINE
  5
1636
  8
DETAIL
  6
CONTINUOUS
 62
     5
 10
-474.042339
 20
-210.0
 30
0.0
 11
-484.022177
 21
-200.020161
 31
0.0
  0
LINE
  5
1637
  8
DETAIL
  6
CONTINUOUS
 62
     5
 10
-484.820565
 20
-202.814516
 30
0.0
 11
-494.002016
 21
-209.002016
 31
0.0
  0
LINE
  5
1638
  8
DETAIL
  6
CONTINUOUS
 62
     5
 10
-481.227823
 20
-202.814516
 30
0.0
 11
-484.820565
 21
-202.814516
 31
0.0
  0
LINE
  5
1639
  8
NOTE
  6
CONTINUOUS
 62
     4
 10
-341.759217
 20
-184.0
 30
0.0
 11
-386.240783
 21
-184.0
 31
0.0
  0
LINE
  5
163A
  8
NOTE
  6
CONTINUOUS
 62
     4
 10
-226.759217
 20
-184.0
 30
0.0
 11
-271.240783
 21
-184.0
 31
0.0
  0
LINE
  5
163B
  8
NOTE
  6
CONTINUOUS
 62
     4
 10
273.240783
 20
-184.0
 30
0.0
 11
228.759217
 21
-184.0
 31
0.0
  0
LINE
  5
163C
  8
NOTE
  6
CONTINUOUS
 62
     4
 10
273.240783
 20
-184.0
 30
0.0
 11
228.759217
 21
-184.0
 31
0.0
  0
LINE
  5
163D
  8
DETAIL
  6
CONTINUOUS
 62
     5
 10
245.0
 20
-192.981855
 30
0.0
 11
245.0
 21
-174.987903
 31
0.0
  0
LINE
  5
163E
  8
DETAIL
  6
CONTINUOUS
 62
     5
 10
257.0
 20
-192.981855
 30
0.0
 11
257.0
 21
-174.987903
 31
0.0
  0
LINE
  5
163F
  8
DETAIL
  6
CONTINUOUS
 62
     5
 10
474.042339
 20
-210.0
 30
0.0
 11
484.022177
 21
-210.0
 31
0.0
  0
LINE
  5
1640
  8
DETAIL
  6
CONTINUOUS
 62
     5
 10
484.022177
 20
-200.020161
 30
0.0
 11
474.042339
 21
-210.0
 31
0.0
  0
LINE
  5
1641
  8
DETAIL
  6
CONTINUOUS
 62
     5
 10
484.022177
 20
-200.020161
 30
0.0
 11
484.022177
 21
-210.0
 31
0.0
  0
LINE
  5
1642
  8
NOTE
  6
CONTINUOUS
 62
     4
 10
388.240783
 20
-184.0
 30
0.0
 11
343.759217
 21
-184.0
 31
0.0
  0
LINE
  5
1643
  8
DETAIL
  6
CONTINUOUS
 62
     5
 10
358.5
 20
-180.484879
 30
0.0
 11
358.5
 21
-187.515121
 31
0.0
  0
LINE
  5
1644
  8
DETAIL
  6
CONTINUOUS
 62
     5
 10
373.5
 20
-187.515121
 30
0.0
 11
373.5
 21
-180.484879
 31
0.0
  0
ARC
  5
1645
  8
DETAIL
  6
CONTINUOUS
 62
     5
 10
366.0
 20
-180.500008
 30
0.0
 40
7.500015
 50
0.115574
 51
179.884426
  0
ARC
  5
1646
  8
DETAIL
  6
CONTINUOUS
 62
     5
 10
366.0
 20
-187.499992
 30
0.0
 40
7.500015
 50
180.115574
 51
359.884426
  0
ARC
  5
1647
  8
DETAIL
  6
CONTINUOUS
 62
     5
 10
251.0
 20
-192.999979
 30
0.0
 40
6.000027
 50
179.82693
 51
0.17307
  0
LINE
  5
1648
  8
SIZE
  6
CONTINUOUS
 62
    30
 10
504.022177
 20
-210.0
 30
0.0
 11
926.356439
 21
-210.0
 31
0.0
  0
LINE
  5
1649
  8
SIZE
  6
CONTINUOUS
 62
    30
 10
504.022177
 20
-160.0
 30
0.0
 11
926.356439
 21
-160.0
 31
0.0
  0
LINE
  5
164A
  8
SIZE
  6
CONTINUOUS
 62
    30
 10
896.356439
 20
-220.0
 30
0.0
 11
896.356439
 21
-230.0
 31
0.0
  0
LINE
  5
164B
  8
SIZE
  6
CONTINUOUS
 62
    30
 10
896.356439
 20
-150.0
 30
0.0
 11
896.356439
 21
-6.742857
 31
0.0
  0
LINE
  5
164C
  8
SIZE
  6
CONTINUOUS
 62
    30
 10
896.356439
 20
-210.0
 30
0.0
 11
896.356439
 21
-160.0
 31
0.0
  0
CIRCLE
  5
164D
  8
SIZE
  6
CONTINUOUS
 62
    30
 10
896.356439
 20
-210.0
 30
0.0
 40
5.0
  0
LINE
  5
164E
  8
SIZE
  6
CONTINUOUS
 62
    30
 10
896.356439
 20
-215.0
 30
0.0
 11
896.356439
 21
-220.0
 31
0.0
  0
CIRCLE
  5
164F
  8
SIZE
  6
CONTINUOUS
 62
    30
 10
896.356439
 20
-160.0
 30
0.0
 40
5.0
  0
LINE
  5
1650
  8
SIZE
  6
CONTINUOUS
 62
    30
 10
896.356439
 20
-155.0
 30
0.0
 11
896.356439
 21
-150.0
 31
0.0
  0
TEXT
  5
1651
  8
SIZE
  6
CONTINUOUS
 62
    30
 10
876.356439
 20
-120.0
 30
0.0
 40
64.0
  1
50
 50
90.0
 41
0.9
 72
     1
 11
876.356439
 21
-73.371429
 31
0.0
  0
POINT
  5
1652
  8
DEFPOINTS
  6
CONTINUOUS
 62
     7
 10
484.022177
 20
-210.0
 30
0.0
  0
POINT
  5
1653
  8
DEFPOINTS
  6
CONTINUOUS
 62
     7
 10
484.022177
 20
-160.0
 30
0.0
  0
POINT
  5
1654
  8
DEFPOINTS
  6
CONTINUOUS
 62
     7
 10
896.356439
 20
-160.0
 30
0.0
  0
LINE
  5
1655
  8
SIZE
  6
CONTINUOUS
 62
    30
 10
504.022177
 20
210.0
 30
0.0
 11
926.356439
 21
210.0
 31
0.0
  0
LINE
  5
1656
  8
SIZE
  6
CONTINUOUS
 62
    30
 10
504.022177
 20
160.0
 30
0.0
 11
926.356439
 21
160.0
 31
0.0
  0
LINE
  5
1657
  8
SIZE
  6
CONTINUOUS
 62
    30
 10
896.356439
 20
220.0
 30
0.0
 11
896.356439
 21
230.0
 31
0.0
  0
LINE
  5
1658
  8
SIZE
  6
CONTINUOUS
 62
    30
 10
896.356439
 20
150.0
 30
0.0
 11
896.356439
 21
6.742857
 31
0.0
  0
LINE
  5
1659
  8
SIZE
  6
CONTINUOUS
 62
    30
 10
896.356439
 20
210.0
 30
0.0
 11
896.356439
 21
160.0
 31
0.0
  0
CIRCLE
  5
165A
  8
SIZE
  6
CONTINUOUS
 62
    30
 10
896.356439
 20
210.0
 30
0.0
 40
5.0
  0
LINE
  5
165B
  8
SIZE
  6
CONTINUOUS
 62
    30
 10
896.356439
 20
215.0
 30
0.0
 11
896.356439
 21
220.0
 31
0.0
  0
CIRCLE
  5
165C
  8
SIZE
  6
CONTINUOUS
 62
    30
 10
896.356439
 20
160.0
 30
0.0
 40
5.0
  0
LINE
  5
165D
  8
SIZE
  6
CONTINUOUS
 62
    30
 10
896.356439
 20
155.0
 30
0.0
 11
896.356439
 21
150.0
 31
0.0
  0
TEXT
  5
165E
  8
SIZE
  6
CONTINUOUS
 62
    30
 10
876.356439
 20
26.742857
 30
0.0
 40
64.0
  1
50
 50
90.0
 41
0.9
 72
     1
 11
876.356439
 21
73.371429
 31
0.0
  0
POINT
  5
165F
  8
DEFPOINTS
  6
CONTINUOUS
 62
     7
 10
484.022177
 20
210.0
 30
0.0
  0
POINT
  5
1660
  8
DEFPOINTS
  6
CONTINUOUS
 62
     7
 10
484.022177
 20
160.0
 30
0.0
  0
POINT
  5
1661
  8
DEFPOINTS
  6
CONTINUOUS
 62
     7
 10
896.356439
 20
160.0
 30
0.0
  0
LINE
  5
1662
  8
DETAIL
  6
CONTINUOUS
 62
     5
 10
474.042339
 20
210.0
 30
0.0
 11
-474.042339
 21
210.0
 31
0.0
  0
LINE
  5
1663
  8
DETAIL
  6
CONTINUOUS
 62
     5
 10
474.042339
 20
210.0
 30
0.0
 11
484.022177
 21
210.0
 31
0.0
  0
LINE
  5
1664
  8
DETAIL
  6
CONTINUOUS
 62
     5
 10
-484.022177
 20
210.0
 30
0.0
 11
-474.042339
 21
210.0
 31
0.0
  0
LINE
  5
1665
  8
SIZE
  6
CONTINUOUS
 62
    30
 10
-291.240783
 20
186.0
 30
0.0
 11
-956.237664
 21
186.0
 31
0.0
  0
LINE
  5
1666
  8
SIZE
  6
CONTINUOUS
 62
    30
 10
-291.240783
 20
-184.0
 30
0.0
 11
-956.237664
 21
-184.0
 31
0.0
  0
LINE
  5
1667
  8
SIZE
  6
CONTINUOUS
 62
    30
 10
-926.237664
 20
176.0
 30
0.0
 11
-926.237664
 21
-174.0
 31
0.0
  0
CIRCLE
  5
1668
  8
SIZE
  6
CONTINUOUS
 62
    30
 10
-926.237664
 20
186.0
 30
0.0
 40
5.0
  0
LINE
  5
1669
  8
SIZE
  6
CONTINUOUS
 62
    30
 10
-926.237664
 20
181.0
 30
0.0
 11
-926.237664
 21
176.0
 31
0.0
  0
CIRCLE
  5
166A
  8
SIZE
  6
CONTINUOUS
 62
    30
 10
-926.237664
 20
-184.0
 30
0.0
 40
5.0
  0
LINE
  5
166B
  8
SIZE
  6
CONTINUOUS
 62
    30
 10
-926.237664
 20
-179.0
 30
0.0
 11
-926.237664
 21
-174.0
 31
0.0
  0
TEXT
  5
166C
  8
SIZE
  6
CONTINUOUS
 62
    30
 10
-946.237664
 20
-73.057143
 30
0.0
 40
64.0
  1
370
 50
90.0
 41
0.9
 72
     1
 11
-946.237664
 21
1.0
 31
0.0
  0
POINT
  5
166D
  8
DEFPOINTS
  6
CONTINUOUS
 62
     7
 10
-271.240783
 20
186.0
 30
0.0
  0
POINT
  5
166E
  8
DEFPOINTS
  6
CONTINUOUS
 62
     7
 10
-271.240783
 20
-184.0
 30
0.0
  0
POINT
  5
166F
  8
DEFPOINTS
  6
CONTINUOUS
 62
     7
 10
-926.237664
 20
-184.0
 30
0.0
  0
LINE
  5
1670
  8
SIZE
  6
CONTINUOUS
 62
    30
 10
-249.0
 20
228.240783
 30
0.0
 11
-249.0
 21
633.918762
 31
0.0
  0
LINE
  5
1671
  8
SIZE
  6
CONTINUOUS
 62
    30
 10
251.0
 20
228.240783
 30
0.0
 11
251.0
 21
633.918762
 31
0.0
  0
LINE
  5
1672
  8
SIZE
  6
CONTINUOUS
 62
    30
 10
-239.0
 20
603.918762
 30
0.0
 11
241.0
 21
603.918762
 31
0.0
  0
CIRCLE
  5
1673
  8
SIZE
  6
CONTINUOUS
 62
    30
 10
-249.0
 20
603.918762
 30
0.0
 40
5.0
  0
LINE
  5
1674
  8
SIZE
  6
CONTINUOUS
 62
    30
 10
-244.0
 20
603.918762
 30
0.0
 11
-239.0
 21
603.918762
 31
0.0
  0
CIRCLE
  5
1675
  8
SIZE
  6
CONTINUOUS
 62
    30
 10
251.0
 20
603.918762
 30
0.0
 40
5.0
  0
LINE
  5
1676
  8
SIZE
  6
CONTINUOUS
 62
    30
 10
246.0
 20
603.918762
 30
0.0
 11
241.0
 21
603.918762
 31
0.0
  0
TEXT
  5
1677
  8
SIZE
  6
CONTINUOUS
 62
    30
 10
-73.057143
 20
623.918762
 30
0.0
 40
64.0
  1
500
 41
0.9
 72
     1
 11
1.0
 21
623.918762
 31
0.0
  0
POINT
  5
1678
  8
DEFPOINTS
  6
CONTINUOUS
 62
     7
 10
-249.0
 20
208.240783
 30
0.0
  0
POINT
  5
1679
  8
DEFPOINTS
  6
CONTINUOUS
 62
     7
 10
251.0
 20
208.240783
 30
0.0
  0
POINT
  5
167A
  8
DEFPOINTS
  6
CONTINUOUS
 62
     7
 10
251.0
 20
603.918762
 30
0.0
  0
LINE
  5
167B
  8
SIZE
  6
CONTINUOUS
 62
    30
 10
-249.0
 20
228.240783
 30
0.0
 11
-249.0
 21
633.918762
 31
0.0
  0
LINE
  5
167C
  8
SIZE
  6
CONTINUOUS
 62
    30
 10
-495.0
 20
229.002016
 30
0.0
 11
-495.0
 21
633.918762
 31
0.0
  0
LINE
  5
167D
  8
SIZE
  6
CONTINUOUS
 62
    30
 10
-259.0
 20
603.918762
 30
0.0
 11
-485.0
 21
603.918762
 31
0.0
  0
LINE
  5
167E
  8
SIZE
  6
CONTINUOUS
 62
    30
 10
-495.0
 20
603.918762
 30
0.0
 11
-690.371429
 21
603.918762
 31
0.0
  0
CIRCLE
  5
167F
  8
SIZE
  6
CONTINUOUS
 62
    30
 10
-249.0
 20
603.918762
 30
0.0
 40
5.0
  0
LINE
  5
1680
  8
SIZE
  6
CONTINUOUS
 62
    30
 10
-254.0
 20
603.918762
 30
0.0
 11
-259.0
 21
603.918762
 31
0.0
  0
CIRCLE
  5
1681
  8
SIZE
  6
CONTINUOUS
 62
    30
 10
-495.0
 20
603.918762
 30
0.0
 40
5.0
  0
LINE
  5
1682
  8
SIZE
  6
CONTINUOUS
 62
    30
 10
-490.0
 20
603.918762
 30
0.0
 11
-485.0
 21
603.918762
 31
0.0
  0
TEXT
  5
1683
  8
SIZE
  6
CONTINUOUS
 62
    30
 10
-670.371429
 20
623.918762
 30
0.0
 40
64.0
  1
246
 41
0.9
 72
     1
 11
-597.685714
 21
623.918762
 31
0.0
  0
POINT
  5
1684
  8
DEFPOINTS
  6
CONTINUOUS
 62
     7
 10
-249.0
 20
208.240783
 30
0.0
  0
POINT
  5
1685
  8
DEFPOINTS
  6
CONTINUOUS
 62
     7
 10
-495.0
 20
209.002016
 30
0.0
  0
POINT
  5
1686
  8
DEFPOINTS
  6
CONTINUOUS
 62
     7
 10
-495.0
 20
603.918762
 30
0.0
  0
LINE
  5
1687
  8
SIZE
  6
CONTINUOUS
 62
    30
 10
-364.0
 20
228.240783
 30
0.0
 11
-364.0
 21
771.017287
 31
0.0
  0
LINE
  5
1688
  8
SIZE
  6
CONTINUOUS
 62
    30
 10
366.0
 20
228.240783
 30
0.0
 11
366.0
 21
771.017287
 31
0.0
  0
LINE
  5
1689
  8
SIZE
  6
CONTINUOUS
 62
    30
 10
-354.0
 20
741.017287
 30
0.0
 11
356.0
 21
741.017287
 31
0.0
  0
CIRCLE
  5
168A
  8
SIZE
  6
CONTINUOUS
 62
    30
 10
-364.0
 20
741.017287
 30
0.0
 40
5.0
  0
LINE
  5
168B
  8
SIZE
  6
CONTINUOUS
 62
    30
 10
-359.0
 20
741.017287
 30
0.0
 11
-354.0
 21
741.017287
 31
0.0
  0
CIRCLE
  5
168C
  8
SIZE
  6
CONTINUOUS
 62
    30
 10
366.0
 20
741.017287
 30
0.0
 40
5.0
  0
LINE
  5
168D
  8
SIZE
  6
CONTINUOUS
 62
    30
 10
361.0
 20
741.017287
 30
0.0
 11
356.0
 21
741.017287
 31
0.0
  0
TEXT
  5
168E
  8
SIZE
  6
CONTINUOUS
 62
    30
 10
-73.057143
 20
761.017287
 30
0.0
 40
64.0
  1
730
 41
0.9
 72
     1
 11
1.0
 21
761.017287
 31
0.0
  0
POINT
  5
168F
  8
DEFPOINTS
  6
CONTINUOUS
 62
     7
 10
-364.0
 20
208.240783
 30
0.0
  0
POINT
  5
1690
  8
DEFPOINTS
  6
CONTINUOUS
 62
     7
 10
366.0
 20
208.240783
 30
0.0
  0
POINT
  5
1691
  8
DEFPOINTS
  6
CONTINUOUS
 62
     7
 10
366.0
 20
741.017287
 30
0.0
  0
LINE
  5
1692
  8
SIZE
  6
CONTINUOUS
 62
    30
 10
-364.0
 20
228.240783
 30
0.0
 11
-364.0
 21
771.019095
 31
0.0
  0
LINE
  5
1693
  8
SIZE
  6
CONTINUOUS
 62
    30
 10
-495.0
 20
229.002016
 30
0.0
 11
-495.0
 21
771.019095
 31
0.0
  0
LINE
  5
1694
  8
SIZE
  6
CONTINUOUS
 62
    30
 10
-354.0
 20
741.019095
 30
0.0
 11
-344.0
 21
741.019095
 31
0.0
  0
LINE
  5
1695
  8
SIZE
  6
CONTINUOUS
 62
    30
 10
-505.0
 20
741.019095
 30
0.0
 11
-515.0
 21
741.019095
 31
0.0
  0
LINE
  5
1696
  8
SIZE
  6
CONTINUOUS
 62
    30
 10
-364.0
 20
741.019095
 30
0.0
 11
-495.0
 21
741.019095
 31
0.0
  0
CIRCLE
  5
1697
  8
SIZE
  6
CONTINUOUS
 62
    30
 10
-364.0
 20
741.019095
 30
0.0
 40
5.0
  0
LINE
  5
1698
  8
SIZE
  6
CONTINUOUS
 62
    30
 10
-359.0
 20
741.019095
 30
0.0
 11
-354.0
 21
741.019095
 31
0.0
  0
CIRCLE
  5
1699
  8
SIZE
  6
CONTINUOUS
 62
    30
 10
-495.0
 20
741.019095
 30
0.0
 40
5.0
  0
LINE
  5
169A
  8
SIZE
  6
CONTINUOUS
 62
    30
 10
-500.0
 20
741.019095
 30
0.0
 11
-505.0
 21
741.019095
 31
0.0
  0
TEXT
  5
169B
  8
SIZE
  6
CONTINUOUS
 62
    30
 10
-485.728571
 20
761.019095
 30
0.0
 40
64.0
  1
131
 41
0.9
 72
     1
 11
-429.5
 21
761.019095
 31
0.0
  0
POINT
  5
169C
  8
DEFPOINTS
  6
CONTINUOUS
 62
     7
 10
-364.0
 20
208.240783
 30
0.0
  0
POINT
  5
169D
  8
DEFPOINTS
  6
CONTINUOUS
 62
     7
 10
-495.0
 20
209.002016
 30
0.0
  0
POINT
  5
169E
  8
DEFPOINTS
  6
CONTINUOUS
 62
     7
 10
-495.0
 20
741.019095
 30
0.0
  0
CIRCLE
  5
169F
  8
DETAIL
  6
CONTINUOUS
 62
     5
 10
-454.001634
 20
-78.0
 30
0.0
 40
7.94
  0
CIRCLE
  5
16A0
  8
DETAIL
  6
CONTINUOUS
 62
     5
 10
-417.0
 20
-93.0
 30
0.0
 40
6.35
  0
CIRCLE
  5
16A1
  8
FIX
  6
CONTINUOUS
 62
    11
 10
-249.0
 20
186.0
 30
0.0
 40
18.598564
  0
CIRCLE
  5
16A2
  8
FIX
  6
CONTINUOUS
 62
    11
 10
-364.0
 20
186.0
 30
0.0
 40
18.598564
  0
CIRCLE
  5
16A3
  8
FIX
  6
CONTINUOUS
 62
    11
 10
251.0
 20
186.0
 30
0.0
 40
18.598564
  0
CIRCLE
  5
16A4
  8
FIX
  6
CONTINUOUS
 62
    11
 10
366.0
 20
186.0
 30
0.0
 40
18.598564
  0
CIRCLE
  5
16A5
  8
FIX
  6
CONTINUOUS
 62
    11
 10
366.0
 20
-184.0
 30
0.0
 40
18.598564
  0
CIRCLE
  5
16A6
  8
FIX
  6
CONTINUOUS
 62
    11
 10
251.0
 20
-184.0
 30
0.0
 40
18.598564
  0
CIRCLE
  5
16A7
  8
FIX
  6
CONTINUOUS
 62
    11
 10
-249.0
 20
-184.0
 30
0.0
 40
18.598564
  0
CIRCLE
  5
16A8
  8
FIX
  6
CONTINUOUS
 62
    11
 10
-364.0
 20
-184.0
 30
0.0
 40
18.598564
  0
TEXT
  5
16A9
  8
NOTE
  6
CONTINUOUS
 62
     4
 10
643.881875
 20
-519.507375
 30
0.0
 40
55.0
  1
AH 4-12X30長穴 <Ｍ10ボルト>
 50
359.999997
 41
0.851962
  7
STANDARD1
  0
LINE
  5
16AA
  8
NOTE
  6
CONTINUOUS
 62
     4
 10
1656.483942
 20
-525.286154
 30
0.0
 11
637.234528
 21
-525.286154
 31
0.0
  0
TEXT
  5
16AB
  8
NOTE
  6
CONTINUOUS
 62
     4
 10
645.630696
 20
-403.528087
 30
0.0
 40
55.0
  1
AH 4-15X22長穴 <Ｍ12ボルト>
 50
359.999997
 41
0.851962
  7
STANDARD1
  0
LINE
  5
16AC
  8
NOTE
  6
CONTINUOUS
 62
     4
 10
1661.131677
 20
-409.695274
 30
0.0
 11
638.234309
 21
-409.695274
 31
0.0
  0
LINE
  5
16AD
  8
NOTE
  6
CONTINUOUS
 62
     4
 10
637.234528
 20
-525.286154
 30
0.0
 11
251.0
 21
-184.0
 31
0.0
  0
LINE
  5
16AE
  8
NOTE
  6
CONTINUOUS
 62
     4
 10
638.234309
 20
-409.695274
 30
0.0
 11
366.0
 21
-184.0
 31
0.0
  0
LINE
  5
16AF
  8
NOTE
  6
CONTINUOUS
 62
     4
 10
366.0
 20
-184.0
 30
0.0
 11
391.722876
 21
-196.303327
 31
0.0
  0
LINE
  5
16B0
  8
NOTE
  6
CONTINUOUS
 62
     4
 10
366.0
 20
-184.0
 30
0.0
 11
382.125
 21
-207.516432
 31
0.0
  0
LINE
  5
16B1
  8
NOTE
  6
CONTINUOUS
 62
     4
 10
251.0
 20
-184.0
 30
0.0
 11
276.402078
 21
-196.952709
 31
0.0
  0
LINE
  5
16B2
  8
NOTE
  6
CONTINUOUS
 62
     4
 10
251.0
 20
-184.0
 30
0.0
 11
266.52249
 21
-207.918414
 31
0.0
  0
LINE
  5
16B3
  8
DETAIL
  6
CONTINUOUS
 62
     5
 10
-371.5
 20
-180.484879
 30
0.0
 11
-371.5
 21
-187.515121
 31
0.0
  0
LINE
  5
16B4
  8
DETAIL
  6
CONTINUOUS
 62
     5
 10
-356.5
 20
-187.515121
 30
0.0
 11
-356.5
 21
-180.484879
 31
0.0
  0
ARC
  5
16B5
  8
DETAIL
  6
CONTINUOUS
 62
     5
 10
-364.0
 20
-180.500008
 30
0.0
 40
7.500015
 50
0.115574
 51
179.884426
  0
ARC
  5
16B6
  8
DETAIL
  6
CONTINUOUS
 62
     5
 10
-364.0
 20
-187.499992
 30
0.0
 40
7.500015
 50
180.115574
 51
359.884426
  0
LINE
  5
16B7
  8
DETAIL
  6
CONTINUOUS
 62
     5
 10
-371.5
 20
189.515121
 30
0.0
 11
-371.5
 21
182.484879
 31
0.0
  0
LINE
  5
16B8
  8
DETAIL
  6
CONTINUOUS
 62
     5
 10
-356.5
 20
182.484879
 30
0.0
 11
-356.5
 21
189.515121
 31
0.0
  0
ARC
  5
16B9
  8
DETAIL
  6
CONTINUOUS
 62
     5
 10
-364.0
 20
189.499992
 30
0.0
 40
7.500015
 50
0.115574
 51
179.884426
  0
ARC
  5
16BA
  8
DETAIL
  6
CONTINUOUS
 62
     5
 10
-364.0
 20
182.500008
 30
0.0
 40
7.500015
 50
180.115574
 51
359.884426
  0
LINE
  5
16BB
  8
DETAIL
  6
CONTINUOUS
 62
     5
 10
358.5
 20
189.515121
 30
0.0
 11
358.5
 21
182.484879
 31
0.0
  0
LINE
  5
16BC
  8
DETAIL
  6
CONTINUOUS
 62
     5
 10
373.5
 20
182.484879
 30
0.0
 11
373.5
 21
189.515121
 31
0.0
  0
ARC
  5
16BD
  8
DETAIL
  6
CONTINUOUS
 62
     5
 10
366.0
 20
189.499992
 30
0.0
 40
7.500015
 50
0.115574
 51
179.884426
  0
ARC
  5
16BE
  8
DETAIL
  6
CONTINUOUS
 62
     5
 10
366.0
 20
182.500008
 30
0.0
 40
7.500015
 50
180.115574
 51
359.884426
  0
ARC
  5
16BF
  8
DETAIL
  6
CONTINUOUS
 62
     5
 10
-249.0
 20
-175.000006
 30
0.0
 40
6.000012
 50
0.115574
 51
179.884426
  0
LINE
  5
16C0
  8
DETAIL
  6
CONTINUOUS
 62
     5
 10
-255.0
 20
-192.981855
 30
0.0
 11
-255.0
 21
-174.987903
 31
0.0
  0
LINE
  5
16C1
  8
DETAIL
  6
CONTINUOUS
 62
     5
 10
-243.0
 20
-192.981855
 30
0.0
 11
-243.0
 21
-174.987903
 31
0.0
  0
ARC
  5
16C2
  8
DETAIL
  6
CONTINUOUS
 62
     5
 10
-249.0
 20
-192.999979
 30
0.0
 40
6.000027
 50
179.82693
 51
0.17307
  0
ARC
  5
16C3
  8
DETAIL
  6
CONTINUOUS
 62
     5
 10
-249.0
 20
194.999994
 30
0.0
 40
6.000012
 50
0.115574
 51
179.884426
  0
LINE
  5
16C4
  8
DETAIL
  6
CONTINUOUS
 62
     5
 10
-255.0
 20
177.018145
 30
0.0
 11
-255.0
 21
195.012097
 31
0.0
  0
LINE
  5
16C5
  8
DETAIL
  6
CONTINUOUS
 62
     5
 10
-243.0
 20
177.018145
 30
0.0
 11
-243.0
 21
195.012097
 31
0.0
  0
ARC
  5
16C6
  8
DETAIL
  6
CONTINUOUS
 62
     5
 10
-249.0
 20
177.000021
 30
0.0
 40
6.000027
 50
179.82693
 51
0.17307
  0
ARC
  5
16C7
  8
DETAIL
  6
CONTINUOUS
 62
     5
 10
251.0
 20
194.999994
 30
0.0
 40
6.000012
 50
0.115574
 51
179.884426
  0
LINE
  5
16C8
  8
DETAIL
  6
CONTINUOUS
 62
     5
 10
245.0
 20
177.018145
 30
0.0
 11
245.0
 21
195.012097
 31
0.0
  0
LINE
  5
16C9
  8
DETAIL
  6
CONTINUOUS
 62
     5
 10
257.0
 20
177.018145
 30
0.0
 11
257.0
 21
195.012097
 31
0.0
  0
ARC
  5
16CA
  8
DETAIL
  6
CONTINUOUS
 62
     5
 10
251.0
 20
177.000021
 30
0.0
 40
6.000027
 50
179.82693
 51
0.17307
  0
TEXT
  5
16CB
  8
ETC
  6
CONTINUOUS
 62
    61
 10
885.840622
 20
678.808423
 30
0.0
 40
90.0
  1
RV-P5A_6
 50
0.000003
 41
0.603059
  7
STANDARD1
  0
LINE
  5
16CC
  8
SIZE
  6
CONTINUOUS
 62
    30
 10
-514.002016
 20
-210.0
 30
0.0
 11
-956.237664
 21
-210.0
 31
0.0
  0
LINE
  5
16CD
  8
SIZE
  6
CONTINUOUS
 62
    30
 10
-291.240783
 20
-184.0
 30
0.0
 11
-956.237664
 21
-184.0
 31
0.0
  0
LINE
  5
16CE
  8
SIZE
  6
CONTINUOUS
 62
    30
 10
-926.237664
 20
-174.0
 30
0.0
 11
-926.237664
 21
-164.0
 31
0.0
  0
LINE
  5
16CF
  8
SIZE
  6
CONTINUOUS
 62
    30
 10
-926.237664
 20
-220.0
 30
0.0
 11
-926.237664
 21
-360.514286
 31
0.0
  0
LINE
  5
16D0
  8
SIZE
  6
CONTINUOUS
 62
    30
 10
-926.237664
 20
-184.0
 30
0.0
 11
-926.237664
 21
-210.0
 31
0.0
  0
CIRCLE
  5
16D1
  8
SIZE
  6
CONTINUOUS
 62
    30
 10
-926.237664
 20
-184.0
 30
0.0
 40
5.0
  0
LINE
  5
16D2
  8
SIZE
  6
CONTINUOUS
 62
    30
 10
-926.237664
 20
-179.0
 30
0.0
 11
-926.237664
 21
-174.0
 31
0.0
  0
CIRCLE
  5
16D3
  8
SIZE
  6
CONTINUOUS
 62
    30
 10
-926.237664
 20
-210.0
 30
0.0
 40
5.0
  0
LINE
  5
16D4
  8
SIZE
  6
CONTINUOUS
 62
    30
 10
-926.237664
 20
-215.0
 30
0.0
 11
-926.237664
 21
-220.0
 31
0.0
  0
TEXT
  5
16D5
  8
SIZE
  6
CONTINUOUS
 62
    30
 10
-946.237664
 20
-340.514286
 30
0.0
 40
64.0
  1
26
 50
90.0
 41
0.9
 72
     1
 11
-946.237664
 21
-295.257143
 31
0.0
  0
POINT
  5
16D6
  8
DEFPOINTS
  6
CONTINUOUS
 62
     7
 10
-494.002016
 20
-210.0
 30
0.0
  0
POINT
  5
16D7
  8
DEFPOINTS
  6
CONTINUOUS
 62
     7
 10
-271.240783
 20
-184.0
 30
0.0
  0
POINT
  5
16D8
  8
DEFPOINTS
  6
CONTINUOUS
 62
     7
 10
-926.237664
 20
-184.0
 30
0.0
  0
LINE
  5
16D9
  8
SIZE
  6
CONTINUOUS
 62
    30
 10
-514.002016
 20
-210.0
 30
0.0
 11
-820.582138
 21
-210.0
 31
0.0
  0
LINE
  5
16DA
  8
SIZE
  6
CONTINUOUS
 62
    30
 10
-491.022177
 20
-157.0
 30
0.0
 11
-820.582138
 21
-157.0
 31
0.0
  0
LINE
  5
16DB
  8
SIZE
  6
CONTINUOUS
 62
    30
 10
-790.582138
 20
-147.0
 30
0.0
 11
-790.582138
 21
-137.0
 31
0.0
  0
LINE
  5
16DC
  8
SIZE
  6
CONTINUOUS
 62
    30
 10
-790.582138
 20
-220.0
 30
0.0
 11
-790.582138
 21
-363.257143
 31
0.0
  0
LINE
  5
16DD
  8
SIZE
  6
CONTINUOUS
 62
    30
 10
-790.582138
 20
-157.0
 30
0.0
 11
-790.582138
 21
-210.0
 31
0.0
  0
CIRCLE
  5
16DE
  8
SIZE
  6
CONTINUOUS
 62
    30
 10
-790.582138
 20
-157.0
 30
0.0
 40
5.0
  0
LINE
  5
16DF
  8
SIZE
  6
CONTINUOUS
 62
    30
 10
-790.582138
 20
-152.0
 30
0.0
 11
-790.582138
 21
-147.0
 31
0.0
  0
CIRCLE
  5
16E0
  8
SIZE
  6
CONTINUOUS
 62
    30
 10
-790.582138
 20
-210.0
 30
0.0
 40
5.0
  0
LINE
  5
16E1
  8
SIZE
  6
CONTINUOUS
 62
    30
 10
-790.582138
 20
-215.0
 30
0.0
 11
-790.582138
 21
-220.0
 31
0.0
  0
TEXT
  5
16E2
  8
SIZE
  6
CONTINUOUS
 62
    30
 10
-810.582138
 20
-343.257143
 30
0.0
 40
64.0
  1
53
 50
90.0
 41
0.9
 72
     1
 11
-810.582138
 21
-296.628571
 31
0.0
  0
POINT
  5
16E3
  8
DEFPOINTS
  6
CONTINUOUS
 62
     7
 10
-494.002016
 20
-210.0
 30
0.0
  0
POINT
  5
16E4
  8
DEFPOINTS
  6
CONTINUOUS
 62
     7
 10
-471.022177
 20
-157.0
 30
0.0
  0
POINT
  5
16E5
  8
DEFPOINTS
  6
CONTINUOUS
 62
     7
 10
-790.582138
 20
-157.0
 30
0.0
  0
LINE
  5
16E6
  8
SIZE
  6
CONTINUOUS
 62
    30
 10
-491.022177
 20
-157.0
 30
0.0
 11
-820.582138
 21
-157.0
 31
0.0
  0
LINE
  5
16E7
  8
SIZE
  6
CONTINUOUS
 62
    30
 10
-491.022177
 20
-17.0
 30
0.0
 11
-820.582138
 21
-17.0
 31
0.0
  0
LINE
  5
16E8
  8
SIZE
  6
CONTINUOUS
 62
    30
 10
-790.582138
 20
-167.0
 30
0.0
 11
-790.582138
 21
-177.0
 31
0.0
  0
LINE
  5
16E9
  8
SIZE
  6
CONTINUOUS
 62
    30
 10
-790.582138
 20
-7.0
 30
0.0
 11
-790.582138
 21
3.0
 31
0.0
  0
LINE
  5
16EA
  8
SIZE
  6
CONTINUOUS
 62
    30
 10
-790.582138
 20
-157.0
 30
0.0
 11
-790.582138
 21
-17.0
 31
0.0
  0
CIRCLE
  5
16EB
  8
SIZE
  6
CONTINUOUS
 62
    30
 10
-790.582138
 20
-157.0
 30
0.0
 40
5.0
  0
LINE
  5
16EC
  8
SIZE
  6
CONTINUOUS
 62
    30
 10
-790.582138
 20
-162.0
 30
0.0
 11
-790.582138
 21
-167.0
 31
0.0
  0
CIRCLE
  5
16ED
  8
SIZE
  6
CONTINUOUS
 62
    30
 10
-790.582138
 20
-17.0
 30
0.0
 40
5.0
  0
LINE
  5
16EE
  8
SIZE
  6
CONTINUOUS
 62
    30
 10
-790.582138
 20
-12.0
 30
0.0
 11
-790.582138
 21
-7.0
 31
0.0
  0
TEXT
  5
16EF
  8
SIZE
  6
CONTINUOUS
 62
    30
 10
-810.582138
 20
-155.571429
 30
0.0
 40
64.0
  1
140
 50
90.0
 41
0.9
 72
     1
 11
-810.582138
 21
-87.0
 31
0.0
  0
POINT
  5
16F0
  8
DEFPOINTS
  6
CONTINUOUS
 62
     7
 10
-471.022177
 20
-157.0
 30
0.0
  0
POINT
  5
16F1
  8
DEFPOINTS
  6
CONTINUOUS
 62
     7
 10
-471.022177
 20
-17.0
 30
0.0
  0
POINT
  5
16F2
  8
DEFPOINTS
  6
CONTINUOUS
 62
     7
 10
-790.582138
 20
-17.0
 30
0.0
  0
LINE
  5
16F3
  8
SIZE
  6
CONTINUOUS
 62
    30
 10
-495.0
 20
229.002016
 30
0.0
 11
-495.0
 21
503.967282
 31
0.0
  0
LINE
  5
16F4
  8
SIZE
  6
CONTINUOUS
 62
    30
 10
-482.0
 20
-7.977823
 30
0.0
 11
-482.0
 21
503.967282
 31
0.0
  0
LINE
  5
16F5
  8
SIZE
  6
CONTINUOUS
 62
    30
 10
-472.0
 20
473.967282
 30
0.0
 11
-462.0
 21
473.967282
 31
0.0
  0
LINE
  5
16F6
  8
SIZE
  6
CONTINUOUS
 62
    30
 10
-505.0
 20
473.967282
 30
0.0
 11
-637.285714
 21
473.967282
 31
0.0
  0
LINE
  5
16F7
  8
SIZE
  6
CONTINUOUS
 62
    30
 10
-482.0
 20
473.967282
 30
0.0
 11
-495.0
 21
473.967282
 31
0.0
  0
CIRCLE
  5
16F8
  8
SIZE
  6
CONTINUOUS
 62
    30
 10
-482.0
 20
473.967282
 30
0.0
 40
5.0
  0
LINE
  5
16F9
  8
SIZE
  6
CONTINUOUS
 62
    30
 10
-477.0
 20
473.967282
 30
0.0
 11
-472.0
 21
473.967282
 31
0.0
  0
CIRCLE
  5
16FA
  8
SIZE
  6
CONTINUOUS
 62
    30
 10
-495.0
 20
473.967282
 30
0.0
 40
5.0
  0
LINE
  5
16FB
  8
SIZE
  6
CONTINUOUS
 62
    30
 10
-500.0
 20
473.967282
 30
0.0
 11
-505.0
 21
473.967282
 31
0.0
  0
TEXT
  5
16FC
  8
SIZE
  6
CONTINUOUS
 62
    30
 10
-617.285714
 20
493.967282
 30
0.0
 40
64.0
  1
13
 41
0.9
 72
     1
 11
-576.142857
 21
493.967282
 31
0.0
  0
POINT
  5
16FD
  8
DEFPOINTS
  6
CONTINUOUS
 62
     7
 10
-495.0
 20
209.002016
 30
0.0
  0
POINT
  5
16FE
  8
DEFPOINTS
  6
CONTINUOUS
 62
     7
 10
-482.0
 20
-27.977823
 30
0.0
  0
POINT
  5
16FF
  8
DEFPOINTS
  6
CONTINUOUS
 62
     7
 10
-482.0
 20
473.967282
 30
0.0
  0
LINE
  5
1700
  8
SIZE
  6
CONTINUOUS
 62
    30
 10
-482.0
 20
-7.977823
 30
0.0
 11
-482.0
 21
503.967282
 31
0.0
  0
LINE
  5
1701
  8
SIZE
  6
CONTINUOUS
 62
    30
 10
-394.0
 20
-7.977823
 30
0.0
 11
-394.0
 21
503.967282
 31
0.0
  0
LINE
  5
1702
  8
SIZE
  6
CONTINUOUS
 62
    30
 10
-492.0
 20
473.967282
 30
0.0
 11
-502.0
 21
473.967282
 31
0.0
  0
LINE
  5
1703
  8
SIZE
  6
CONTINUOUS
 62
    30
 10
-384.0
 20
473.967282
 30
0.0
 11
-374.0
 21
473.967282
 31
0.0
  0
LINE
  5
1704
  8
SIZE
  6
CONTINUOUS
 62
    30
 10
-482.0
 20
473.967282
 30
0.0
 11
-394.0
 21
473.967282
 31
0.0
  0
CIRCLE
  5
1705
  8
SIZE
  6
CONTINUOUS
 62
    30
 10
-482.0
 20
473.967282
 30
0.0
 40
5.0
  0
LINE
  5
1706
  8
SIZE
  6
CONTINUOUS
 62
    30
 10
-487.0
 20
473.967282
 30
0.0
 11
-492.0
 21
473.967282
 31
0.0
  0
CIRCLE
  5
1707
  8
SIZE
  6
CONTINUOUS
 62
    30
 10
-394.0
 20
473.967282
 30
0.0
 40
5.0
  0
LINE
  5
1708
  8
SIZE
  6
CONTINUOUS
 62
    30
 10
-389.0
 20
473.967282
 30
0.0
 11
-384.0
 21
473.967282
 31
0.0
  0
TEXT
  5
1709
  8
SIZE
  6
CONTINUOUS
 62
    30
 10
-484.628571
 20
493.967282
 30
0.0
 40
64.0
  1
88
 41
0.9
 72
     1
 11
-438.0
 21
493.967282
 31
0.0
  0
POINT
  5
170A
  8
DEFPOINTS
  6
CONTINUOUS
 62
     7
 10
-482.0
 20
-27.977823
 30
0.0
  0
POINT
  5
170B
  8
DEFPOINTS
  6
CONTINUOUS
 62
     7
 10
-394.0
 20
-27.977823
 30
0.0
  0
POINT
  5
170C
  8
DEFPOINTS
  6
CONTINUOUS
 62
     7
 10
-394.0
 20
473.967282
 30
0.0
  0
ENDSEC
  0
EOF
