  0
SECTION
  2
HEADER
  9
$ACADVER
  1
AC1009
  9
$INSBASE
 10
0.0
 20
0.0
 30
0.0
  9
$EXTMIN
 10
-1829.7881845265949
 20
-933.71579578811725
 30
-0.0000000000112498
  9
$EXTMAX
 10
1956.3751394818239
 20
1247.0703290857739
 30
0.0000000000002956
  9
$LIMMIN
 10
-4000.0
 20
-4000.0
  9
$LIMMAX
 10
5000.0
 20
5000.0
  9
$ORTHOMODE
 70
     1
  9
$REGENMODE
 70
     1
  9
$FILLMODE
 70
     1
  9
$QTEXTMODE
 70
     0
  9
$MIRRTEXT
 70
     0
  9
$DRAGMODE
 70
     2
  9
$LTSCALE
 40
20.0
  9
$OSMODE
 70
   431
  9
$ATTMODE
 70
     1
  9
$TEXTSIZE
 40
64.0
  9
$TRACEWID
 40
0.05
  9
$TEXTSTYLE
  7
STANDARD_MODELNAME
  9
$CLAYER
  8
SYMBOLLINE
  9
$CELTYPE
  6
CONTINUOUS
  9
$CECOLOR
 62
     7
  9
$DIMSCALE
 40
1.0
  9
$DIMASZ
 40
30.0
  9
$DIMEXO
 40
20.0
  9
$DIMDLI
 40
80.0
  9
$DIMRND
 40
0.0
  9
$DIMDLE
 40
0.0
  9
$DIMEXE
 40
20.0
  9
$DIMTP
 40
0.0
  9
$DIMTM
 40
0.0
  9
$DIMTXT
 40
60.0
  9
$DIMCEN
 40
0.09
  9
$DIMTSZ
 40
0.0
  9
$DIMTOL
 70
     0
  9
$DIMLIM
 70
     0
  9
$DIMTIH
 70
     0
  9
$DIMTOH
 70
     0
  9
$DIMSE1
 70
     0
  9
$DIMSE2
 70
     0
  9
$DIMTAD
 70
     1
  9
$DIMZIN
 70
     8
  9
$DIMBLK
  1
SMALL
  9
$DIMASO
 70
     1
  9
$DIMSHO
 70
     0
  9
$DIMPOST
  1

  9
$DIMAPOST
  1

  9
$DIMALT
 70
     0
  9
$DIMALTD
 70
     2
  9
$DIMALTF
 40
25.399999999999999
  9
$DIMLFAC
 40
1.0
  9
$DIMTOFL
 70
     1
  9
$DIMTVP
 40
0.0
  9
$DIMTIX
 70
     0
  9
$DIMSOXD
 70
     0
  9
$DIMSAH
 70
     0
  9
$DIMBLK1
  1

  9
$DIMBLK2
  1

  9
$DIMSTYLE
  2
STANDARD
  9
$DIMCLRD
 70
     0
  9
$DIMCLRE
 70
     0
  9
$DIMCLRT
 70
     0
  9
$DIMTFAC
 40
1.0
  9
$DIMGAP
 40
0.09
  9
$LUNITS
 70
     2
  9
$LUPREC
 70
     4
  9
$SKETCHINC
 40
0.1
  9
$FILLETRAD
 40
7.0
  9
$AUNITS
 70
     1
  9
$AUPREC
 70
     3
  9
$MENU
  1
ACAD
  9
$ELEVATION
 40
0.0
  9
$PELEVATION
 40
0.0
  9
$THICKNESS
 40
0.0
  9
$LIMCHECK
 70
     0
  9
$BLIPMODE
 70
     0
  9
$CHAMFERA
 40
0.0
  9
$CHAMFERB
 40
0.0
  9
$SKPOLY
 70
     0
  9
$TDCREATE
 40
2450330.4399309959
  9
$TDUPDATE
 40
2455694.6555726971
  9
$TDINDWG
 40
3.8499975694000002
  9
$TDUSRTIMER
 40
3.849971713
  9
$USRTIMER
 70
     1
  9
$ANGBASE
 50
0.0
  9
$ANGDIR
 70
     0
  9
$PDMODE
 70
     3
  9
$PDSIZE
 40
-2.0
  9
$PLINEWID
 40
0.0
  9
$COORDS
 70
     0
  9
$SPLFRAME
 70
     0
  9
$SPLINETYPE
 70
     6
  9
$SPLINESEGS
 70
     8
  9
$ATTDIA
 70
     0
  9
$ATTREQ
 70
     1
  9
$HANDLING
 70
     1
  9
$HANDSEED
  5
459
  9
$SURFTAB1
 70
     6
  9
$SURFTAB2
 70
     6
  9
$SURFTYPE
 70
     6
  9
$SURFU
 70
     6
  9
$SURFV
 70
     6
  9
$UCSNAME
  2

  9
$UCSORG
 10
0.0
 20
0.0
 30
0.0
  9
$UCSXDIR
 10
1.0
 20
0.0
 30
0.0
  9
$UCSYDIR
 10
0.0
 20
1.0
 30
0.0
  9
$PUCSNAME
  2

  9
$PUCSORG
 10
0.0
 20
0.0
 30
0.0
  9
$PUCSXDIR
 10
1.0
 20
0.0
 30
0.0
  9
$PUCSYDIR
 10
0.0
 20
1.0
 30
0.0
  9
$USERI1
 70
     0
  9
$USERI2
 70
     0
  9
$USERI3
 70
     0
  9
$USERI4
 70
     0
  9
$USERI5
 70
     0
  9
$USERR1
 40
20.0
  9
$USERR2
 40
0.0
  9
$USERR3
 40
0.0
  9
$USERR4
 40
0.0
  9
$USERR5
 40
0.0
  9
$WORLDVIEW
 70
     1
  9
$SHADEDGE
 70
     3
  9
$SHADEDIF
 70
    70
  9
$TILEMODE
 70
     1
  9
$MAXACTVP
 70
    64
  9
$PLIMCHECK
 70
     0
  9
$PEXTMIN
 10
1.0000000000000000E+020
 20
1.0000000000000000E+020
 30
1.0000000000000000E+020
  9
$PEXTMAX
 10
-1.0000000000000000E+020
 20
-1.0000000000000000E+020
 30
-1.0000000000000000E+020
  9
$PLIMMIN
 10
0.0
 20
0.0
  9
$PLIMMAX
 10
12.0
 20
9.0
  9
$UNITMODE
 70
     0
  9
$VISRETAIN
 70
     1
  9
$PLINEGEN
 70
     0
  9
$PSLTSCALE
 70
     1
  0
ENDSEC
  0
SECTION
  2
TABLES
  0
TABLE
  2
VPORT
 70
     1
  0
VPORT
  2
*ACTIVE
 70
     0
 10
0.0
 20
0.0
 11
1.0
 21
1.0
 12
499.99999999999949
 22
499.99999999999949
 13
0.0
 23
0.0
 14
50.0
 24
50.0
 15
100.0
 25
100.0
 16
0.0
 26
0.0
 36
1.0
 17
0.0
 27
0.0
 37
0.0
 40
9331.7518873503086
 41
1.555979643765903
 42
50.0
 43
0.0
 44
0.0
 50
0.0
 51
0.0
 71
     0
 72
  1000
 73
     1
 74
     2
 75
     0
 76
     0
 77
     0
 78
     0
  0
ENDTAB
  0
TABLE
  2
LTYPE
 70
     3
  0
LTYPE
  2
CONTINUOUS
 70
     0
  3
実線
 72
    65
 73
     0
 40
0.0
  0
LTYPE
  2
DASHDOT
 70
     0
  3
____ _ ____ _ ____ _ ____ _ ____ _ ____ _ ____
 72
    65
 73
     4
 40
5.5
 49
4.0
 49
-0.6
 49
0.3
 49
-0.6
  0
ENDTAB
  0
TABLE
  2
LAYER
 70
    12
  0
LAYER
  2
0
 70
     0
 62
     7
  6
CONTINUOUS
  0
LAYER
  2
SYMBOLLINE
 70
     0
 62
    15
  6
CONTINUOUS
  0
LAYER
  2
DETAIL
 70
     0
 62
     5
  6
CONTINUOUS
  0
LAYER
  2
OUTLINE
 70
     0
 62
     3
  6
CONTINUOUS
  0
LAYER
  2
BASIS
 70
     0
 62
     6
  6
DASHDOT
  0
LAYER
  2
SIZE
 70
     0
 62
    30
  6
CONTINUOUS
  0
LAYER
  2
NOTE
 70
     0
 62
     4
  6
CONTINUOUS
  0
LAYER
  2
ARRANGE
 70
     0
 62
     1
  6
CONTINUOUS
  0
LAYER
  2
FIX
 70
     0
 62
    11
  6
CONTINUOUS
  0
LAYER
  2
SERVICESPACE
 70
     0
 62
     2
  6
DASHDOT
  0
LAYER
  2
ETC
 70
     0
 62
    61
  6
CONTINUOUS
  0
LAYER
  2
DEFPOINTS
 70
     0
 62
     7
  6
CONTINUOUS
  0
ENDTAB
  0
TABLE
  2
STYLE
 70
     4
  0
STYLE
  2
STANDARD
 70
     0
 40
0.0
 41
0.9
 50
0.0
 71
     0
 42
64.0
  3
SIMPLEX
  4
BIGFONT
  0
STYLE
  2
ANNOTATIVE
 70
     0
 40
0.0
 41
1.0
 50
0.0
 71
     0
 42
0.2
  3
txt
  4

  0
STYLE
  2
STANDARD_MODELNAME
 70
     0
 40
80.0
 41
0.8
 50
0.0
 71
     0
 42
64.0
  3
MONOTXT.shx
  4
BIGFONT.shx
  0
STYLE
  2
STANDARD1
 70
     0
 40
60.0
 41
0.7
 50
0.0
 71
     0
 42
64.0
  3
MONOTXT.shx
  4
BIGFONT.shx
  0
ENDTAB
  0
TABLE
  2
VIEW
 70
     6
  0
VIEW
  2
ALL
 70
     0
 40
9000.0
 10
241.50664699999999
 20
0.0
 41
12483.01
 11
0.0
 21
0.0
 31
1.0
 12
0.0
 22
0.0
 32
0.0
 42
50.0
 43
0.0
 44
0.0
 50
0.0
 71
     0
  0
ENDTAB
  0
TABLE
  2
UCS
 70
     0
  0
ENDTAB
  0
TABLE
  2
APPID
 70
     4
  0
APPID
  2
ACAD
 70
     0
  0
APPID
  2
ACADANNOTATIVE
 70
     0
  0
APPID
  2
ACAD_MLEADERVER
 70
     0
  0
APPID
  2
ACAD_EXEMPT_FROM_CAD_STANDARDS
 70
     0
  0
ENDTAB
  0
TABLE
  2
DIMSTYLE
 70
     3
  0
DIMSTYLE
  2
STANDARD
 70
     0
  3

  4

  5

  6

  7

 40
1.0
 41
0.18
 42
0.0625
 43
0.38
 44
0.18
 45
0.0
 46
0.0
 47
0.0
 48
0.0
140
0.18
141
0.09
142
0.0
143
25.399999999999999
144
1.0
145
0.0
146
1.0
147
0.09
 71
     0
 72
     0
 73
     1
 74
     1
 75
     0
 76
     0
 77
     0
 78
     0
170
     0
171
     2
172
     0
173
     0
174
     0
175
     0
176
     0
177
     0
178
     0
  0
DIMSTYLE
  2
ANNOTATIVE
 70
     0
  3

  4

  5

  6

  7

 40
1.0
 41
0.18
 42
0.0625
 43
0.38
 44
0.18
 45
0.0
 46
0.0
 47
0.0
 48
0.0
140
0.18
141
0.09
142
0.0
143
25.399999999999999
144
1.0
145
0.0
146
1.0
147
0.09
 71
     0
 72
     0
 73
     1
 74
     1
 75
     0
 76
     0
 77
     0
 78
     0
170
     0
171
     2
172
     0
173
     0
174
     0
175
     0
176
     0
177
     0
178
     0
  0
ENDTAB
  0
ENDSEC
  0
SECTION
  2
BLOCKS
  0
BLOCK
  8
0
  2
$MODEL_SPACE
 70
     0
 10
0.0
 20
0.0
 30
0.0
  3
$MODEL_SPACE
  1

  0
ENDBLK
  5
3D2
  8
0
  0
BLOCK
 67
     1
  8
0
  2
$PAPER_SPACE
 70
     0
 10
0.0
 20
0.0
 30
0.0
  3
$PAPER_SPACE
  1

  0
ENDBLK
  5
3CE
 67
     1
  8
0
  0
BLOCK
  8
0
  2
_SMALL
 70
     0
 10
0.0
 20
0.0
 30
0.0
  3
_SMALL
  1

  0
CIRCLE
  5
8D
  8
0
  6
CONTINUOUS
 62
     7
 10
0.0
 20
0.0
 30
0.0
 40
0.25
  0
ENDBLK
  5
8E
  8
0
  0
ENDSEC
  0
SECTION
  2
ENTITIES
  0
TEXT
  5
8F
  8
NOTE
  6
CONTINUOUS
 62
     4
 10
1106.109798738687
 20
717.04784353066771
 30
0.0
 40
60.0
  1
RL %%C9.52
 50
0.0000030000000082
 41
0.7
  7
STANDARD1
  0
LINE
  5
91
  8
DETAIL
  6
CONTINUOUS
 62
     5
 10
-1034.759058371711
 20
-315.78373929009911
 30
0.0
 11
1034.7959624270061
 21
-315.78373929009911
 31
0.0
  0
LINE
  5
AF
  8
DETAIL
  6
CONTINUOUS
 62
     5
 10
-999.34110000000214
 20
-315.78373929009911
 30
0.0
 11
-999.34110000000214
 21
400.00000000000159
 31
0.0
  0
LINE
  5
B6
  8
DETAIL
  6
CONTINUOUS
 62
     5
 10
-999.3042247355063
 20
-368.38495051422711
 30
0.0
 11
999.34114070808698
 21
-368.38495051422711
 31
0.0
  0
LINE
  5
B7
  8
DETAIL
  6
CONTINUOUS
 62
     5
 10
-1000.317229856578
 20
-400.00000000000068
 30
0.0
 11
1000.3541339118721
 21
-400.0
 31
0.0
  0
LINE
  5
BE
  8
DETAIL
  6
CONTINUOUS
 62
     5
 10
1049.999999999998
 20
400.0
 30
0.0
 11
-1050.0000000000009
 21
400.00000000000023
 31
0.0
  0
LINE
  5
C1
  8
DETAIL
  6
CONTINUOUS
 62
     5
 10
1049.999999999998
 20
400.0
 30
0.0
 11
1049.999999999998
 21
-334.11953359406368
 31
0.0
  0
LINE
  5
C2
  8
DETAIL
  6
CONTINUOUS
 62
     5
 10
1034.7959624270061
 20
400.0
 30
0.0
 11
1034.7959624270061
 21
-353.19002862287482
 31
0.0
  0
LINE
  5
C3
  8
DETAIL
  6
CONTINUOUS
 62
     5
 10
999.34114070808698
 20
-368.38495051422711
 30
0.0
 11
1019.6010405356531
 21
-368.38495051422711
 31
0.0
  0
ARC
  5
C4
  8
DETAIL
  6
CONTINUOUS
 62
     5
 10
1019.6010405356531
 20
-353.19002862287482
 30
0.0
 40
15.19492189135282
 50
270.0
 51
0.0
  0
LINE
  5
C7
  8
DETAIL
  6
CONTINUOUS
 62
     5
 10
999.34114070808698
 20
400.0
 30
0.0
 11
999.34114070808698
 21
-315.78373929009911
 31
0.0
  0
LINE
  5
C8
  8
DETAIL
  6
CONTINUOUS
 62
     5
 10
1045.971838966361
 20
400.0
 30
0.0
 11
1045.971838966361
 21
-362.34122645154491
 31
0.0
  0
LINE
  5
C9
  8
DETAIL
  6
CONTINUOUS
 62
     5
 10
1000.3541339118721
 20
-400.0
 30
0.0
 11
1005.452039311228
 21
-400.0
 31
0.0
  0
ARC
  5
CA
  8
DETAIL
  6
CONTINUOUS
 62
     5
 10
1004.766352359236
 20
-358.7526082583471
 30
0.0
 40
41.253090697370773
 50
270.95238385698241
 51
350.53209099116481
  0
ARC
  5
CB
  8
DETAIL
  6
CONTINUOUS
 62
     5
 10
1009.471084663226
 20
-334.11953359406368
 30
0.0
 40
40.519799655131962
 50
350.86117099997142
 51
0.0
  0
LINE
  5
CC
  8
DETAIL
  6
CONTINUOUS
 62
     5
 10
1045.4574888725349
 20
-365.53854233860233
 30
0.0
 11
1049.4765461418201
 21
-340.55517825968769
 31
0.0
  0
LINE
  5
D4
  8
DETAIL
  6
CONTINUOUS
 62
     5
 10
-1000.317229856578
 20
-400.0
 30
0.0
 11
-1005.415123338647
 21
-400.0
 31
0.0
  0
LINE
  5
DE
  8
DETAIL
  6
CONTINUOUS
 62
     5
 10
-999.3042247355063
 20
-368.38495051422711
 30
0.0
 11
-1019.564124563071
 21
-368.38495051422711
 31
0.0
  0
ARC
  5
DF
  8
DETAIL
  6
CONTINUOUS
 62
     5
 10
-1019.564124563071
 20
-353.19002862287482
 30
0.0
 40
15.19492189135282
 50
180.0
 51
270.0
  0
LINE
  5
E0
  8
DETAIL
  6
CONTINUOUS
 62
     5
 10
-1045.420584817241
 20
-365.53854233860233
 30
0.0
 11
-1050.000000000002
 21
-337.07178300667317
 31
0.0
  0
ARC
  5
E1
  8
DETAIL
  6
CONTINUOUS
 62
     5
 10
-1004.670376353083
 20
-358.68403284145199
 30
0.0
 40
41.322678886040251
 50
189.54822361500979
 51
268.96731841660858
  0
LINE
  5
EB
  8
DETAIL
  6
CONTINUOUS
 62
     5
 10
-1034.759058371711
 20
400.0
 30
0.0
 11
-1034.759058371711
 21
-353.19002862287482
 31
0.0
  0
LINE
  5
EC
  8
DETAIL
  6
CONTINUOUS
 62
     5
 10
-1045.9349229937779
 20
400.0
 30
0.0
 11
-1045.9349229937779
 21
-362.34129105161668
 31
0.0
  0
LINE
  5
F1
  8
DETAIL
  6
CONTINUOUS
 62
     5
 10
929.23999999999751
 20
400.0
 30
0.0
 11
929.23999999999808
 21
449.00000000000051
 31
0.0
  0
LINE
  5
F2
  8
DETAIL
  6
CONTINUOUS
 62
     5
 10
851.8999999999977
 20
448.99999999999972
 30
0.0
 11
874.09999999999764
 21
449.00000000000011
 31
0.0
  0
LINE
  5
F3
  8
DETAIL
  6
CONTINUOUS
 62
     5
 10
938.75999999999794
 20
448.99999999999932
 30
0.0
 11
929.23999999999808
 21
449.00000000000051
 31
0.0
  0
LINE
  5
F4
  8
DETAIL
  6
CONTINUOUS
 62
     5
 10
874.09999999999764
 20
400.0
 30
0.0
 11
874.09999999999764
 21
449.00000000000011
 31
0.0
  0
LINE
  5
F5
  8
DETAIL
  6
CONTINUOUS
 62
     5
 10
851.8999999999977
 20
400.0
 30
0.0
 11
851.8999999999977
 21
448.99999999999972
 31
0.0
  0
LINE
  5
F8
  8
SIZE
  6
CONTINUOUS
 62
    30
 10
1068.9778911145729
 20
400.0
 30
0.0
 11
1206.9941608436459
 21
400.0
 31
0.0
  0
LINE
  5
F9
  8
SIZE
  6
CONTINUOUS
 62
    30
 10
958.70998687253632
 20
449.3370550001132
 30
0.0
 11
1206.9941608436459
 21
449.33705500011291
 31
0.0
  0
LINE
  5
FA
  8
SIZE
  6
CONTINUOUS
 62
    30
 10
1186.9941608436459
 20
400.0
 30
0.0
 11
1186.9941608436459
 21
449.33705500011291
 31
0.0
  0
LINE
  5
FB
  8
SIZE
  6
CONTINUOUS
 62
    30
 10
1186.9941608436459
 20
449.33705500011291
 30
0.0
 11
1186.9941608436459
 21
604.19419785725563
 31
0.0
  0
CIRCLE
  5
FC
  8
SIZE
  6
CONTINUOUS
 62
    30
 10
1186.9941608436459
 20
400.0
 30
0.0
 40
7.5
  0
CIRCLE
  5
FD
  8
SIZE
  6
CONTINUOUS
 62
    30
 10
1186.9941608436459
 20
449.33705500011291
 30
0.0
 40
7.5
  0
TEXT
  5
FE
  8
SIZE
  6
CONTINUOUS
 62
    30
 10
1166.9941608436459
 20
499.33705500011331
 30
0.0
 40
60.0
  1
49
 50
90.0
 41
0.9
 72
     1
 11
1166.9941608436459
 21
541.76562642868475
 31
0.0
  0
POINT
  5
100
  8
DEFPOINTS
  6
CONTINUOUS
 62
     7
 10
938.75999999999794
 20
448.99999999999932
 30
0.0
  0
POINT
  5
101
  8
DEFPOINTS
  6
CONTINUOUS
 62
     7
 10
1186.9941608436459
 20
449.33705500011291
 30
0.0
  0
LINE
  5
102
  8
SIZE
  6
CONTINUOUS
 62
    30
 10
1028.9778911145729
 20
400.0
 30
0.0
 11
704.23408696284275
 21
400.0
 31
0.0
  0
LINE
  5
103
  8
SIZE
  6
CONTINUOUS
 62
    30
 10
831.85050451748816
 20
449.3370550001132
 30
0.0
 11
704.23408696284275
 21
449.3370550001132
 31
0.0
  0
LINE
  5
104
  8
SIZE
  6
CONTINUOUS
 62
    30
 10
724.23408696284275
 20
400.0
 30
0.0
 11
724.23408696284275
 21
449.3370550001132
 31
0.0
  0
LINE
  5
105
  8
SIZE
  6
CONTINUOUS
 62
    30
 10
724.23408696284275
 20
449.3370550001132
 30
0.0
 11
724.23408696284275
 21
604.19419785725609
 31
0.0
  0
CIRCLE
  5
106
  8
SIZE
  6
CONTINUOUS
 62
    30
 10
724.23408696284275
 20
400.0
 30
0.0
 40
7.5
  0
CIRCLE
  5
107
  8
SIZE
  6
CONTINUOUS
 62
    30
 10
724.23408696284275
 20
449.3370550001132
 30
0.0
 40
7.5
  0
TEXT
  5
108
  8
SIZE
  6
CONTINUOUS
 62
    30
 10
704.23408696284275
 20
499.33705500011331
 30
0.0
 40
60.0
  1
49
 50
90.0
 41
0.9
 72
     1
 11
704.23408696284275
 21
541.76562642868475
 31
0.0
  0
POINT
  5
10B
  8
DEFPOINTS
  6
CONTINUOUS
 62
     7
 10
724.23408696284275
 20
449.3370550001132
 30
0.0
  0
LINE
  5
10C
  8
SIZE
  6
CONTINUOUS
 62
    30
 10
1068.9778911145729
 20
400.0
 30
0.0
 11
1956.130603999339
 21
400.0
 31
0.0
  0
LINE
  5
10D
  8
SIZE
  6
CONTINUOUS
 62
    30
 10
1025.452039311228
 20
-399.6226973281108
 30
0.0
 11
1956.130603999339
 21
-399.62269732811109
 31
0.0
  0
LINE
  5
10E
  8
SIZE
  6
CONTINUOUS
 62
    30
 10
1936.130603999339
 20
400.38411798480632
 30
0.0
 11
1936.130603999339
 21
-399.62269732811109
 31
0.0
  0
CIRCLE
  5
10F
  8
SIZE
  6
CONTINUOUS
 62
    30
 10
1936.130603999339
 20
400.38411798480632
 30
0.0
 40
7.5
  0
CIRCLE
  5
110
  8
SIZE
  6
CONTINUOUS
 62
    30
 10
1936.130603999339
 20
-399.62269732811109
 30
0.0
 40
7.5
  0
TEXT
  5
111
  8
SIZE
  6
CONTINUOUS
 62
    30
 10
1916.1306039993401
 20
-69.047861100223372
 30
0.0
 40
60.0
  1
800
 50
90.0
 41
0.9
 72
     1
 11
1916.1306039993401
 21
0.380710328348053
 31
0.0
  0
POINT
  5
114
  8
DEFPOINTS
  6
CONTINUOUS
 62
     7
 10
1936.130603999339
 20
-399.62269732811109
 30
0.0
  0
LINE
  5
115
  8
SIZE
  6
CONTINUOUS
 62
    30
 10
1068.9778911145729
 20
400.0
 30
0.0
 11
1814.8700756498761
 21
400.0
 31
0.0
  0
LINE
  5
130
  8
NOTE
  6
CONTINUOUS
 62
     4
 10
933.99999999999761
 20
465.71665212396317
 30
0.0
 11
933.99999999999761
 21
432.28334787603649
 31
0.0
  0
LINE
  5
131
  8
NOTE
  6
CONTINUOUS
 62
     4
 10
950.71665212396067
 20
448.99999999999972
 30
0.0
 11
917.28334787603467
 21
448.99999999999972
 31
0.0
  0
LINE
  5
132
  8
NOTE
  6
CONTINUOUS
 62
     4
 10
862.99999999999795
 20
465.71665212396317
 30
0.0
 11
862.99999999999795
 21
432.28334787603711
 31
0.0
  0
LINE
  5
133
  8
NOTE
  6
CONTINUOUS
 62
     4
 10
879.71665212396078
 20
449.00000000000011
 30
0.0
 11
846.28334787603455
 21
449.00000000000011
 31
0.0
  0
LINE
  5
138
  8
NOTE
  6
CONTINUOUS
 62
     4
 10
1060.230113074454
 20
704.81247605735643
 30
0.0
 11
1434.735522366891
 21
704.81247605735848
 31
0.0
  0
LINE
  5
139
  8
NOTE
  6
CONTINUOUS
 62
     4
 10
950.28673376230574
 20
467.53688201920062
 30
0.0
 11
933.99999999999761
 21
448.99999999999972
 31
0.0
  0
LINE
  5
13A
  8
NOTE
  6
CONTINUOUS
 62
     4
 10
933.99999999999761
 20
448.99999999999972
 30
0.0
 11
938.83628428299949
 21
473.19677759479691
 31
0.0
  0
LINE
  5
13B
  8
NOTE
  6
CONTINUOUS
 62
     4
 10
933.99999999999795
 20
449.00000000000011
 30
0.0
 11
1060.230113074454
 21
704.81247605735643
 31
0.0
  0
LINE
  5
13F
  8
NOTE
  6
CONTINUOUS
 62
     4
 10
736.67037831557013
 20
704.81247605735643
 30
0.0
 11
362.16496902313338
 21
704.81247605735848
 31
0.0
  0
TEXT
  5
140
  8
NOTE
  6
CONTINUOUS
 62
     4
 10
380.80489997470801
 20
715.56938399504634
 30
0.0
 40
60.0
  1
RG %%C22.2
 50
0.0000030000000082
 41
0.7
  7
STANDARD1
  0
LINE
  5
141
  8
NOTE
  6
CONTINUOUS
 62
     4
 10
846.71326623768971
 20
467.53688201920102
 30
0.0
 11
862.99999999999795
 21
449.00000000000011
 31
0.0
  0
LINE
  5
142
  8
NOTE
  6
CONTINUOUS
 62
     4
 10
862.99999999999795
 20
449.00000000000011
 30
0.0
 11
858.16371571699642
 21
473.19677759479691
 31
0.0
  0
LINE
  5
143
  8
NOTE
  6
CONTINUOUS
 62
     4
 10
862.99999999999795
 20
449.00000000000011
 30
0.0
 11
736.67037831557013
 21
704.81247605735643
 31
0.0
  0
LINE
  5
144
  8
SIZE
  6
CONTINUOUS
 62
    30
 10
1049.9908843183589
 20
419.37112478102142
 30
0.0
 11
1049.9908843183589
 21
879.7904035193759
 31
0.0
  0
LINE
  5
145
  8
SIZE
  6
CONTINUOUS
 62
    30
 10
933.9499868725361
 20
486.05370712407682
 30
0.0
 11
933.9499868725361
 21
879.7904035193759
 31
0.0
  0
LINE
  5
146
  8
SIZE
  6
CONTINUOUS
 62
    30
 10
933.9499868725361
 20
859.79040351937601
 30
0.0
 11
1049.9908843183589
 21
859.79040351937601
 31
0.0
  0
LINE
  5
147
  8
SIZE
  6
CONTINUOUS
 62
    30
 10
1049.9908843183589
 20
859.79040351937601
 30
0.0
 11
1235.705170032644
 21
859.79040351937601
 31
0.0
  0
CIRCLE
  5
148
  8
SIZE
  6
CONTINUOUS
 62
    30
 10
933.9499868725361
 20
859.79040351937601
 30
0.0
 40
7.5
  0
CIRCLE
  5
149
  8
SIZE
  6
CONTINUOUS
 62
    30
 10
1049.9908843183589
 20
859.79040351937601
 30
0.0
 40
7.5
  0
TEXT
  5
14A
  8
SIZE
  6
CONTINUOUS
 62
    30
 10
1099.9908843183589
 20
879.7904035193759
 30
0.0
 40
60.0
  1
116
 41
0.9
 72
     1
 11
1157.848027175502
 21
879.7904035193759
 31
0.0
  0
POINT
  5
14C
  8
DEFPOINTS
  6
CONTINUOUS
 62
     7
 10
933.99999999999761
 20
465.71665212396317
 30
0.0
  0
POINT
  5
14D
  8
DEFPOINTS
  6
CONTINUOUS
 62
     7
 10
933.9499868725361
 20
859.79040351937601
 30
0.0
  0
LINE
  5
14E
  8
SIZE
  6
CONTINUOUS
 62
    30
 10
1049.9908843183589
 20
419.37112478102142
 30
0.0
 11
1049.9908843183589
 21
981.85707215344235
 31
0.0
  0
LINE
  5
14F
  8
SIZE
  6
CONTINUOUS
 62
    30
 10
862.95050451748818
 20
486.05370712407682
 30
0.0
 11
862.95050451748818
 21
981.85707215344235
 31
0.0
  0
LINE
  5
150
  8
SIZE
  6
CONTINUOUS
 62
    30
 10
1049.9908843183589
 20
961.85707215344246
 30
0.0
 11
862.95050451748818
 21
961.85707215344246
 31
0.0
  0
CIRCLE
  5
151
  8
SIZE
  6
CONTINUOUS
 62
    30
 10
1049.9908843183589
 20
961.85707215344246
 30
0.0
 40
7.5
  0
CIRCLE
  5
152
  8
SIZE
  6
CONTINUOUS
 62
    30
 10
862.95050451748818
 20
961.85707215344246
 30
0.0
 40
7.5
  0
TEXT
  5
153
  8
SIZE
  6
CONTINUOUS
 62
    30
 10
892.18498013220915
 20
981.857072153442
 30
0.0
 40
60.0
  1
187
 41
0.9
 72
     1
 11
956.47069441792348
 21
981.857072153442
 31
0.0
  0
POINT
  5
156
  8
DEFPOINTS
  6
CONTINUOUS
 62
     7
 10
862.95050451748818
 20
961.85707215344246
 30
0.0
  0
LINE
  5
161
  8
DETAIL
  6
CONTINUOUS
 62
     5
 10
-1050.000000000002
 20
400.0
 30
0.0
 11
-1050.000000000002
 21
-337.07178300667317
 31
0.0
  0
LINE
  5
162
  8
SIZE
  6
CONTINUOUS
 62
    30
 10
-1050.000000000002
 20
-357.07178300667317
 30
0.0
 11
-1050.000000000002
 21
-933.6862843572045
 31
0.0
  0
LINE
  5
163
  8
SIZE
  6
CONTINUOUS
 62
    30
 10
1049.9908843183589
 20
-354.1195335940638
 30
0.0
 11
1049.9908843183589
 21
-933.6862843572045
 31
0.0
  0
LINE
  5
164
  8
SIZE
  6
CONTINUOUS
 62
    30
 10
-1050.000000000002
 20
-913.68628435720461
 30
0.0
 11
1049.9908843183589
 21
-913.68628435720461
 31
0.0
  0
CIRCLE
  5
165
  8
SIZE
  6
CONTINUOUS
 62
    30
 10
-1050.000000000002
 20
-913.68628435720461
 30
0.0
 40
7.5
  0
CIRCLE
  5
166
  8
SIZE
  6
CONTINUOUS
 62
    30
 10
1049.9908843183589
 20
-913.68628435720461
 30
0.0
 40
7.5
  0
TEXT
  5
167
  8
SIZE
  6
CONTINUOUS
 62
    30
 10
-90.004557840821519
 20
-893.68628435720416
 30
0.0
 40
60.0
  1
2100
 41
0.9
 72
     1
 11
-0.0045578408215192
 21
-893.68628435720416
 31
0.0
  0
POINT
  5
16A
  8
DEFPOINTS
  6
CONTINUOUS
 62
     7
 10
1049.9908843183589
 20
-913.68628435720461
 30
0.0
  0
LINE
  5
17F
  8
BASIS
  6
DASHDOT
 62
     6
 10
-0.000000000001819
 20
450.00000000000182
 30
0.0
 11
-0.000000000001819
 21
-449.99999999999818
 31
0.0
  0
LINE
  5
180
  8
BASIS
  6
DASHDOT
 62
     6
 10
-1100.0
 20
0.0000000000018119
 30
0.0
 11
1100.0
 21
0.0000000000018119
 31
0.0
  0
CIRCLE
  5
181
  8
ARRANGE
  6
CONTINUOUS
 62
     1
 10
0.0
 20
0.0
 30
0.0
 40
50.0
  0
LINE
  5
182
  8
ARRANGE
  6
CONTINUOUS
 62
     1
 10
50.037350031328963
 20
-49.522353150325202
 30
0.0
 11
-50.037350031328963
 21
49.522353150325202
 31
0.0
  0
LINE
  5
183
  8
ARRANGE
  6
CONTINUOUS
 62
     1
 10
49.963763310501221
 20
49.596594797985738
 30
0.0
 11
-49.963763310501221
 21
-49.596594797982121
 31
0.0
  0
LINE
  5
184
  8
SERVICESPACE
  6
DASHDOT
 62
     2
 10
1549.999999999998
 20
-400.0
 30
0.0
 11
1549.999999999998
 21
400.0
 31
0.0
  0
LINE
  5
185
  8
SERVICESPACE
  6
DASHDOT
 62
     2
 10
-1250.000000000002
 20
-400.0
 30
0.0
 11
-1250.000000000002
 21
400.0
 31
0.0
  0
LINE
  5
186
  8
SERVICESPACE
  6
DASHDOT
 62
     2
 10
1549.999999999998
 20
400.0
 30
0.0
 11
1049.999999999998
 21
400.0
 31
0.0
  0
LINE
  5
187
  8
SERVICESPACE
  6
DASHDOT
 62
     2
 10
-1050.000000000002
 20
400.0
 30
0.0
 11
-1250.000000000002
 21
400.0
 31
0.0
  0
LINE
  5
188
  8
SERVICESPACE
  6
DASHDOT
 62
     2
 10
-1050.000000000002
 20
-400.0
 30
0.0
 11
-1050.000000000002
 21
400.0
 31
0.0
  0
LINE
  5
189
  8
SERVICESPACE
  6
DASHDOT
 62
     2
 10
1049.999999999998
 20
-400.0
 30
0.0
 11
1049.999999999998
 21
400.0
 31
0.0
  0
LINE
  5
18A
  8
SERVICESPACE
  6
DASHDOT
 62
     2
 10
1549.999999999998
 20
-400.0
 30
0.0
 11
1049.999999999998
 21
-400.0
 31
0.0
  0
LINE
  5
18B
  8
SERVICESPACE
  6
DASHDOT
 62
     2
 10
-1050.000000000002
 20
-400.0
 30
0.0
 11
-1250.000000000002
 21
-400.0
 31
0.0
  0
LINE
  5
18C
  8
SERVICESPACE
  6
DASHDOT
 62
     2
 10
-1250.000000000002
 20
400.0
 30
0.0
 11
-1050.000000000002
 21
-400.0
 31
0.0
  0
LINE
  5
18D
  8
SERVICESPACE
  6
DASHDOT
 62
     2
 10
-1250.000000000002
 20
-400.0
 30
0.0
 11
-1050.0000000000009
 21
400.0
 31
0.0
  0
LINE
  5
18E
  8
SERVICESPACE
  6
DASHDOT
 62
     2
 10
1049.999999999998
 20
400.0
 30
0.0
 11
1549.999999999998
 21
-400.0
 31
0.0
  0
LINE
  5
18F
  8
SERVICESPACE
  6
DASHDOT
 62
     2
 10
1049.999999999998
 20
-400.0
 30
0.0
 11
1549.999999999998
 21
400.0
 31
0.0
  0
TEXT
  5
190
  8
NOTE
  6
CONTINUOUS
 62
     4
 10
1130.238797348331
 20
-379.09088258965397
 30
0.0
 40
50.0
  1
サービススペース
 50
0.0000025044165917
 41
0.7
  7
STANDARD1
  0
TEXT
  5
191
  8
NOTE
  6
CONTINUOUS
 62
     4
 10
-1832.0383996467281
 20
-272.0472931179537
 30
0.0
 40
60.0
  1
サービススペース
 50
359.99999749558327
 41
0.7
  7
STANDARD1
  0
LINE
  5
192
  8
NOTE
  6
CONTINUOUS
 62
     4
 10
-1257.990134635776
 20
-42.165104760228978
 30
0.0
 11
-1250.000000000002
 21
-18.985627059696458
 31
0.0
  0
LINE
  5
193
  8
NOTE
  6
CONTINUOUS
 62
     4
 10
-1250.000000000002
 20
-18.985627059696458
 30
0.0
 11
-1268.509398351563
 21
-35.064576360894492
 31
0.0
  0
LINE
  5
194
  8
NOTE
  6
CONTINUOUS
 62
     4
 10
-1250.000000000002
 20
-18.985627059696458
 30
0.0
 11
-1426.1733621379151
 21
-279.98226728143612
 31
0.0
  0
LINE
  5
195
  8
NOTE
  6
CONTINUOUS
 62
     4
 10
-1426.1733621379151
 20
-279.98226728143612
 30
0.0
 11
-1820.4879134055459
 21
-279.98226728143612
 31
0.0
  0
LINE
  5
197
  8
OUTLINE
  6
CONTINUOUS
 62
     3
 10
-1000.317229856578
 20
-400.00000000000068
 30
0.0
 11
1000.3541339118721
 21
-400.0
 31
0.0
  0
LINE
  5
19B
  8
OUTLINE
  6
CONTINUOUS
 62
     3
 10
1049.999999999998
 20
400.0
 30
0.0
 11
-1050.0000000000009
 21
400.00000000000023
 31
0.0
  0
LINE
  5
19D
  8
OUTLINE
  6
CONTINUOUS
 62
     3
 10
1049.999999999998
 20
400.0
 30
0.0
 11
1049.999999999998
 21
-334.11953359406368
 31
0.0
  0
LINE
  5
19E
  8
OUTLINE
  6
CONTINUOUS
 62
     3
 10
1000.3541339118721
 20
-400.00000000000068
 30
0.0
 11
1005.452039311228
 21
-400.00000000000068
 31
0.0
  0
ARC
  5
19F
  8
OUTLINE
  6
CONTINUOUS
 62
     3
 10
1004.766352359236
 20
-358.7526082583471
 30
0.0
 40
41.253090697370773
 50
270.95238385698241
 51
350.53209099116481
  0
ARC
  5
1A0
  8
OUTLINE
  6
CONTINUOUS
 62
     3
 10
1009.471084663226
 20
-334.11953359406368
 30
0.0
 40
40.519799655131962
 50
350.861171000024
 51
0.0
  0
LINE
  5
1A1
  8
OUTLINE
  6
CONTINUOUS
 62
     3
 10
1045.4574888725349
 20
-365.53854233860233
 30
0.0
 11
1049.4765461418201
 21
-340.55517825968769
 31
0.0
  0
LINE
  5
1A3
  8
OUTLINE
  6
CONTINUOUS
 62
     3
 10
-1000.317229856578
 20
-400.00000000000068
 30
0.0
 11
-1005.415123338647
 21
-400.00000000000068
 31
0.0
  0
LINE
  5
1A4
  8
OUTLINE
  6
CONTINUOUS
 62
     3
 10
-1045.420584817241
 20
-365.53854233860233
 30
0.0
 11
-1050.000000000002
 21
-337.07178300667408
 31
0.0
  0
ARC
  5
1A5
  8
OUTLINE
  6
CONTINUOUS
 62
     3
 10
-1004.670376353083
 20
-358.68403284145199
 30
0.0
 40
41.322678886040251
 50
189.54822361500979
 51
268.96731841660858
  0
LINE
  5
1A6
  8
OUTLINE
  6
CONTINUOUS
 62
     3
 10
-1050.0000000000009
 20
400.0
 30
0.0
 11
-1050.000000000002
 21
-337.07178300667408
 31
0.0
  0
TEXT
  5
1A7
  8
ETC
  6
CONTINUOUS
 62
    61
 10
1106.3774100004171
 20
1166.8303769612201
 30
0.0
 40
80.0
  1
UCH-N5SNA_6
 50
0.0000029998804485
 41
0.8
  7
STANDARD_MODELNAME
  0
LINE
  5
1A8
  8
NOTE
  6
CONTINUOUS
 62
     4
 10
186.2229879538213
 20
-569.33954283776859
 30
0.0
 11
210.36780407161541
 21
-569.33954283776859
 31
0.0
  0
LINE
  5
1A9
  8
NOTE
  6
CONTINUOUS
 62
     4
 10
92.246864084931545
 20
-569.33954283776859
 30
0.0
 11
116.3916802027256
 21
-569.33954283776859
 31
0.0
  0
LINE
  5
1AA
  8
NOTE
  6
CONTINUOUS
 62
     4
 10
210.36780407161541
 20
-569.33954283776859
 30
0.0
 11
151.30732811963071
 21
-618.89716246059015
 31
0.0
  0
LINE
  5
1AB
  8
NOTE
  6
CONTINUOUS
 62
     4
 10
92.246864084931545
 20
-569.33954283776859
 30
0.0
 11
151.30732811963071
 21
-618.89716246059015
 31
0.0
  0
LINE
  5
1AC
  8
NOTE
  6
CONTINUOUS
 62
     4
 10
116.3916802027256
 20
-569.33954283776859
 30
0.0
 11
116.3916802027256
 21
-504.82988754375822
 31
0.0
  0
LINE
  5
1AD
  8
NOTE
  6
CONTINUOUS
 62
     4
 10
186.2229879538213
 20
-504.82988754375822
 30
0.0
 11
186.2229879538213
 21
-569.33954283776859
 31
0.0
  0
LINE
  5
1AE
  8
NOTE
  6
CONTINUOUS
 62
     4
 10
186.2229879538213
 20
-504.82988754375822
 30
0.0
 11
116.3916802027256
 21
-504.82988754375822
 31
0.0
  0
LINE
  5
1AF
  8
NOTE
  6
CONTINUOUS
 62
     4
 10
186.2229879538213
 20
570.32447788109948
 30
0.0
 11
210.36780407161541
 21
570.32447788109948
 31
0.0
  0
LINE
  5
1B0
  8
NOTE
  6
CONTINUOUS
 62
     4
 10
92.246864084931545
 20
570.32447788109948
 30
0.0
 11
116.3916802027256
 21
570.32447788109948
 31
0.0
  0
LINE
  5
1B1
  8
NOTE
  6
CONTINUOUS
 62
     4
 10
210.36780407161541
 20
570.32447788109948
 30
0.0
 11
151.30732811963071
 21
520.76685825827815
 31
0.0
  0
LINE
  5
1B2
  8
NOTE
  6
CONTINUOUS
 62
     4
 10
92.246864084931545
 20
570.32447788109948
 30
0.0
 11
151.30732811963071
 21
520.76685825827815
 31
0.0
  0
LINE
  5
1B3
  8
NOTE
  6
CONTINUOUS
 62
     4
 10
116.3916802027256
 20
570.32447788109948
 30
0.0
 11
116.3916802027256
 21
634.83413317511156
 31
0.0
  0
LINE
  5
1B4
  8
NOTE
  6
CONTINUOUS
 62
     4
 10
186.2229879538213
 20
634.83413317511156
 30
0.0
 11
186.2229879538213
 21
570.32447788109948
 31
0.0
  0
LINE
  5
1B5
  8
NOTE
  6
CONTINUOUS
 62
     4
 10
186.2229879538213
 20
634.83413317511156
 30
0.0
 11
116.3916802027256
 21
634.83413317511156
 31
0.0
  0
TEXT
  5
1B6
  8
NOTE
  6
CONTINUOUS
 62
     4
 10
239.60988976803171
 20
556.41421290313792
 30
0.0
 40
60.0
  1
吸込
 50
0.0000030000000082
 41
0.7
  7
STANDARD1
  0
TEXT
  5
1B7
  8
NOTE
  6
CONTINUOUS
 62
     4
 10
259.9413200720706
 20
-588.77085169524685
 30
0.0
 40
60.0
  1
吹出
 50
0.0000030000000082
 41
0.7
  7
STANDARD1
  0
LINE
  5
1B8
  8
SIZE
  6
CONTINUOUS
 62
    30
 10
-1250.000000000002
 20
-419.61587009790549
 30
0.0
 11
-1250.000000000002
 21
-933.6862843572045
 31
0.0
  0
LINE
  5
1B9
  8
SIZE
  6
CONTINUOUS
 62
    30
 10
-1050.000000000002
 20
-419.61587009790549
 30
0.0
 11
-1050.000000000002
 21
-933.6862843572045
 31
0.0
  0
LINE
  5
1BA
  8
SIZE
  6
CONTINUOUS
 62
    30
 10
-1250.000000000002
 20
-913.68628435720461
 30
0.0
 11
-1050.000000000002
 21
-913.68628435720461
 31
0.0
  0
CIRCLE
  5
1BB
  8
SIZE
  6
CONTINUOUS
 62
    30
 10
-1250.000000000002
 20
-913.68628435720461
 30
0.0
 40
7.5
  0
CIRCLE
  5
1BC
  8
SIZE
  6
CONTINUOUS
 62
    30
 10
-1050.000000000002
 20
-913.68628435720461
 30
0.0
 40
7.5
  0
TEXT
  5
1BD
  8
SIZE
  6
CONTINUOUS
 62
    30
 10
-1219.4285714285729
 20
-893.68628435720416
 30
0.0
 40
60.0
  1
200
 41
0.9
 72
     1
 11
-1150.000000000002
 21
-893.68628435720416
 31
0.0
  0
POINT
  5
1C0
  8
DEFPOINTS
  6
CONTINUOUS
 62
     7
 10
-1050.000000000002
 20
-913.68628435720461
 30
0.0
  0
LINE
  5
1C1
  8
SIZE
  6
CONTINUOUS
 62
    30
 10
1049.9908843183589
 20
-419.62269732811069
 30
0.0
 11
1049.9908843183589
 21
-933.6862843572045
 31
0.0
  0
LINE
  5
1C2
  8
SIZE
  6
CONTINUOUS
 62
    30
 10
1549.9908843183589
 20
-419.61587009790549
 30
0.0
 11
1549.9908843183589
 21
-933.6862843572045
 31
0.0
  0
LINE
  5
1C3
  8
SIZE
  6
CONTINUOUS
 62
    30
 10
1049.9908843183589
 20
-913.68628435720461
 30
0.0
 11
1549.9908843183589
 21
-913.68628435720461
 31
0.0
  0
CIRCLE
  5
1C4
  8
SIZE
  6
CONTINUOUS
 62
    30
 10
1049.9908843183589
 20
-913.68628435720461
 30
0.0
 40
7.5
  0
CIRCLE
  5
1C5
  8
SIZE
  6
CONTINUOUS
 62
    30
 10
1549.9908843183589
 20
-913.68628435720461
 30
0.0
 40
7.5
  0
TEXT
  5
1C6
  8
SIZE
  6
CONTINUOUS
 62
    30
 10
1230.5623128897871
 20
-893.68628435720416
 30
0.0
 40
60.0
  1
500
 41
0.9
 72
     1
 11
1299.990884318358
 21
-893.68628435720416
 31
0.0
  0
POINT
  5
1C9
  8
DEFPOINTS
  6
CONTINUOUS
 62
     7
 10
1549.9908843183589
 20
-913.68628435720461
 30
0.0
  0
LINE
  5
1CA
  8
DETAIL
  6
CONTINUOUS
 62
     5
 10
938.75999999999749
 20
400.0
 30
0.0
 11
938.75999999999794
 21
448.99999999999932
 31
0.0
  0
ENDSEC
  0
EOF
