  0
SECTION
  2
HEADER
  9
$ACADVER
  1
AC1009
  9
$INSBASE
 10
0.0
 20
0.0
 30
0.0
  9
$EXTMIN
 10
-1166.381802
 20
-580.902074
 30
-0.001526
  9
$EXTMAX
 10
1343.078636
 20
791.015642
 30
0.0
  9
$LIMMIN
 10
-6000.0
 20
-4500.0
  9
$LIMMAX
 10
6000.0
 20
4500.0
  9
$ORTHOMODE
 70
     0
  9
$REGENMODE
 70
     1
  9
$FILLMODE
 70
     1
  9
$QTEXTMODE
 70
     0
  9
$MIRRTEXT
 70
     0
  9
$DRAGMODE
 70
     2
  9
$LTSCALE
 40
20.0
  9
$OSMODE
 70
    37
  9
$ATTMODE
 70
     1
  9
$TEXTSIZE
 40
64.0
  9
$TRACEWID
 40
0.05
  9
$TEXTSTYLE
  7
STANDARD
  9
$CLAYER
  8
0
  9
$CELTYPE
  6
CONTINUOUS
  9
$CECOLOR
 62
     7
  9
$DIMSCALE
 40
1.0
  9
$DIMASZ
 40
10.0
  9
$DIMEXO
 40
20.0
  9
$DIMDLI
 40
200.0
  9
$DIMRND
 40
0.0
  9
$DIMDLE
 40
0.0
  9
$DIMEXE
 40
30.0
  9
$DIMTP
 40
0.0
  9
$DIMTM
 40
0.0
  9
$DIMTXT
 40
64.0
  9
$DIMCEN
 40
0.0
  9
$DIMTSZ
 40
0.0
  9
$DIMTOL
 70
     0
  9
$DIMLIM
 70
     0
  9
$DIMTIH
 70
     0
  9
$DIMTOH
 70
     0
  9
$DIMSE1
 70
     0
  9
$DIMSE2
 70
     0
  9
$DIMTAD
 70
     1
  9
$DIMZIN
 70
     8
  9
$DIMBLK
  1

  9
$DIMASO
 70
     1
  9
$DIMSHO
 70
     0
  9
$DIMPOST
  1

  9
$DIMAPOST
  1

  9
$DIMALT
 70
     0
  9
$DIMALTD
 70
     2
  9
$DIMALTF
 40
25.4
  9
$DIMLFAC
 40
1.0
  9
$DIMTOFL
 70
     1
  9
$DIMTVP
 40
0.0
  9
$DIMTIX
 70
     1
  9
$DIMSOXD
 70
     0
  9
$DIMSAH
 70
     1
  9
$DIMBLK1
  1

  9
$DIMBLK2
  1

  9
$DIMSTYLE
  2
STANDARD
  9
$DIMCLRD
 70
     0
  9
$DIMCLRE
 70
     0
  9
$DIMCLRT
 70
     0
  9
$DIMTFAC
 40
1.0
  9
$DIMGAP
 40
0.09
  9
$LUNITS
 70
     2
  9
$LUPREC
 70
     4
  9
$SKETCHINC
 40
0.1
  9
$FILLETRAD
 40
10.0
  9
$AUNITS
 70
     1
  9
$AUPREC
 70
     3
  9
$MENU
  1
ACAD
  9
$ELEVATION
 40
0.0
  9
$PELEVATION
 40
0.0
  9
$THICKNESS
 40
0.0
  9
$LIMCHECK
 70
     0
  9
$BLIPMODE
 70
     0
  9
$CHAMFERA
 40
0.0
  9
$CHAMFERB
 40
0.0
  9
$SKPOLY
 70
     0
  9
$TDCREATE
 40
2450330.439931
  9
$TDUPDATE
 40
2452236.798419
  9
$TDINDWG
 40
1.355595
  9
$TDUSRTIMER
 40
1.355595
  9
$USRTIMER
 70
     1
  9
$ANGBASE
 50
0.0
  9
$ANGDIR
 70
     0
  9
$PDMODE
 70
     3
  9
$PDSIZE
 40
-2.0
  9
$PLINEWID
 40
0.0
  9
$COORDS
 70
     2
  9
$SPLFRAME
 70
     0
  9
$SPLINETYPE
 70
     6
  9
$SPLINESEGS
 70
     8
  9
$ATTDIA
 70
     0
  9
$ATTREQ
 70
     1
  9
$HANDLING
 70
     1
  9
$HANDSEED
  5
1B1
  9
$SURFTAB1
 70
     6
  9
$SURFTAB2
 70
     6
  9
$SURFTYPE
 70
     6
  9
$SURFU
 70
     6
  9
$SURFV
 70
     6
  9
$UCSNAME
  2

  9
$UCSORG
 10
0.0
 20
0.0
 30
0.0
  9
$UCSXDIR
 10
1.0
 20
0.0
 30
0.0
  9
$UCSYDIR
 10
0.0
 20
1.0
 30
0.0
  9
$PUCSNAME
  2

  9
$PUCSORG
 10
0.0
 20
0.0
 30
0.0
  9
$PUCSXDIR
 10
1.0
 20
0.0
 30
0.0
  9
$PUCSYDIR
 10
0.0
 20
1.0
 30
0.0
  9
$USERI1
 70
     0
  9
$USERI2
 70
     0
  9
$USERI3
 70
     0
  9
$USERI4
 70
     0
  9
$USERI5
 70
     0
  9
$USERR1
 40
20.0
  9
$USERR2
 40
0.0
  9
$USERR3
 40
0.0
  9
$USERR4
 40
0.0
  9
$USERR5
 40
0.0
  9
$WORLDVIEW
 70
     1
  9
$SHADEDGE
 70
     3
  9
$SHADEDIF
 70
    70
  9
$TILEMODE
 70
     1
  9
$MAXACTVP
 70
    48
  9
$PLIMCHECK
 70
     0
  9
$PEXTMIN
 10
1.000000E+020
 20
1.000000E+020
 30
1.000000E+020
  9
$PEXTMAX
 10
-1.000000E+020
 20
-1.000000E+020
 30
-1.000000E+020
  9
$PLIMMIN
 10
0.0
 20
0.0
  9
$PLIMMAX
 10
12.0
 20
9.0
  9
$UNITMODE
 70
     0
  9
$VISRETAIN
 70
     1
  9
$PLINEGEN
 70
     0
  9
$PSLTSCALE
 70
     1
  0
ENDSEC
  0
SECTION
  2
TABLES
  0
TABLE
  2
VPORT
 70
     2
  0
VPORT
  2
*ACTIVE
 70
     0
 10
0.0
 20
0.0
 11
1.0
 21
1.0
 12
616.27907
 22
0.0
 13
0.0
 23
0.0
 14
50.0
 24
50.0
 15
100.0
 25
100.0
 16
0.0
 26
0.0
 36
1.0
 17
0.0
 27
0.0
 37
0.0
 40
9000.0
 41
1.470284
 42
50.0
 43
0.0
 44
0.0
 50
0.0
 51
0.0
 71
     0
 72
  1000
 73
     1
 74
     0
 75
     0
 76
     0
 77
     0
 78
     0
  0
ENDTAB
  0
TABLE
  2
LTYPE
 70
     2
  0
LTYPE
  2
CONTINUOUS
 70
     0
  3
実線
 72
    65
 73
     0
 40
0.0
  0
LTYPE
  2
DASHDOT
 70
     0
  3
____ _ ____ _ ____ _ ____ _ ____ _ ____ _ ____
 72
    65
 73
     4
 40
5.5
 49
4.0
 49
-0.6
 49
0.3
 49
-0.6
  0
ENDTAB
  0
TABLE
  2
LAYER
 70
    12
  0
LAYER
  2
0
 70
     0
 62
     7
  6
CONTINUOUS
  0
LAYER
  2
OUTLINE
 70
     0
 62
     3
  6
CONTINUOUS
  0
LAYER
  2
DETAIL
 70
     0
 62
     5
  6
CONTINUOUS
  0
LAYER
  2
BASIS
 70
     0
 62
     6
  6
DASHDOT
  0
LAYER
  2
SIZE
 70
     0
 62
    30
  6
CONTINUOUS
  0
LAYER
  2
NOTE
 70
     0
 62
     4
  6
CONTINUOUS
  0
LAYER
  2
ARRANGE
 70
     0
 62
     1
  6
CONTINUOUS
  0
LAYER
  2
FIX
 70
     0
 62
    11
  6
CONTINUOUS
  0
LAYER
  2
SERVICESPACE
 70
     0
 62
     2
  6
DASHDOT
  0
LAYER
  2
ETC
 70
     0
 62
    61
  6
CONTINUOUS
  0
LAYER
  2
SYMBOLLINE
 70
     0
 62
    15
  6
CONTINUOUS
  0
LAYER
  2
DEFPOINTS
 70
     0
 62
     7
  6
CONTINUOUS
  0
ENDTAB
  0
TABLE
  2
STYLE
 70
     1
  0
STYLE
  2
STANDARD
 70
     0
 40
0.0
 41
0.9
 50
0.0
 71
     0
 42
64.0
  3
SIMPLEX
  4
BIGFONT
  0
ENDTAB
  0
TABLE
  2
VIEW
 70
     1
  0
VIEW
  2
ALL
 70
     0
 40
9000.0
 10
241.506647
 20
0.0
 41
12483.01
 11
0.0
 21
0.0
 31
1.0
 12
0.0
 22
0.0
 32
0.0
 42
50.0
 43
0.0
 44
0.0
 50
0.0
 71
     0
  0
ENDTAB
  0
TABLE
  2
UCS
 70
     0
  0
ENDTAB
  0
TABLE
  2
APPID
 70
     1
  0
APPID
  2
ACAD
 70
     0
  0
ENDTAB
  0
TABLE
  2
DIMSTYLE
 70
     1
  0
DIMSTYLE
  2
STANDARD
 70
     0
  3

  4

  5

  6

  7

 40
1.0
 41
0.18
 42
0.0625
 43
0.38
 44
0.18
 45
0.0
 46
0.0
 47
0.0
 48
0.0
140
0.18
141
0.09
142
0.0
143
25.4
144
1.0
145
0.0
146
1.0
147
0.09
 71
     0
 72
     0
 73
     1
 74
     1
 75
     0
 76
     0
 77
     0
 78
     0
170
     0
171
     2
172
     0
173
     0
174
     0
175
     0
176
     0
177
     0
178
     0
  0
ENDTAB
  0
ENDSEC
  0
SECTION
  2
BLOCKS
  0
BLOCK
  8
0
  2
$MODEL_SPACE
 70
     0
 10
0.0
 20
0.0
 30
0.0
  3
$MODEL_SPACE
  1

  0
ENDBLK
  5
197
  8
0
  0
BLOCK
 67
     1
  8
0
  2
$PAPER_SPACE
 70
     0
 10
0.0
 20
0.0
 30
0.0
  3
$PAPER_SPACE
  1

  0
ENDBLK
  5
194
 67
     1
  8
0
  0
ENDSEC
  0
SECTION
  2
ENTITIES
  0
LINE
  5
2E
  8
NOTE
  6
CONTINUOUS
 62
     4
 10
1308.889886
 20
468.386039
 30
0.0
 11
883.289631
 21
468.386039
 31
0.0
  0
LINE
  5
2F
  8
SIZE
  6
CONTINUOUS
 62
    30
 10
610.001037
 20
-241.5
 30
0.0
 11
1115.623382
 21
-241.5
 31
0.0
  0
LINE
  5
30
  8
SIZE
  6
CONTINUOUS
 62
    30
 10
810.001037
 20
-184.5
 30
0.0
 11
1115.623382
 21
-184.5
 31
0.0
  0
LINE
  5
31
  8
SIZE
  6
CONTINUOUS
 62
    30
 10
1085.623382
 20
-174.5
 30
0.0
 11
1085.623382
 21
-164.5
 31
0.0
  0
LINE
  5
32
  8
SIZE
  6
CONTINUOUS
 62
    30
 10
1085.623382
 20
-251.5
 30
0.0
 11
1085.623382
 21
-394.757143
 31
0.0
  0
LINE
  5
33
  8
SIZE
  6
CONTINUOUS
 62
    30
 10
1085.623382
 20
-184.5
 30
0.0
 11
1085.623382
 21
-241.5
 31
0.0
  0
CIRCLE
  5
34
  8
SIZE
  6
CONTINUOUS
 62
    30
 10
1085.623382
 20
-184.5
 30
0.0
 40
5.0
  0
LINE
  5
35
  8
SIZE
  6
CONTINUOUS
 62
    30
 10
1085.623382
 20
-179.5
 30
0.0
 11
1085.623382
 21
-174.5
 31
0.0
  0
CIRCLE
  5
36
  8
SIZE
  6
CONTINUOUS
 62
    30
 10
1085.623382
 20
-241.5
 30
0.0
 40
5.0
  0
LINE
  5
37
  8
SIZE
  6
CONTINUOUS
 62
    30
 10
1085.623382
 20
-246.5
 30
0.0
 11
1085.623382
 21
-251.5
 31
0.0
  0
TEXT
  5
38
  8
SIZE
  6
CONTINUOUS
 62
    30
 10
1065.623382
 20
-374.757142
 30
0.0
 40
64.0
  1
57
 50
90.0
 41
0.9
 72
     1
 11
1065.623382
 21
-328.128571
 31
0.0
  0
POINT
  5
39
  8
DEFPOINTS
  6
CONTINUOUS
 62
     7
 10
590.001037
 20
-241.5
 30
0.0
  0
POINT
  5
3A
  8
DEFPOINTS
  6
CONTINUOUS
 62
     7
 10
790.001037
 20
-184.5
 30
0.0
  0
POINT
  5
3B
  8
DEFPOINTS
  6
CONTINUOUS
 62
     7
 10
1085.623382
 20
-184.5
 30
0.0
  0
LINE
  5
3C
  8
SIZE
  6
CONTINUOUS
 62
    30
 10
749.351037
 20
228.5
 30
0.0
 11
967.128684
 21
228.5
 31
0.0
  0
LINE
  5
3D
  8
SIZE
  6
CONTINUOUS
 62
    30
 10
815.001037
 20
184.5
 30
0.0
 11
967.128684
 21
184.5
 31
0.0
  0
LINE
  5
3E
  8
SIZE
  6
CONTINUOUS
 62
    30
 10
937.128684
 20
238.5
 30
0.0
 11
937.128684
 21
248.5
 31
0.0
  0
LINE
  5
3F
  8
SIZE
  6
CONTINUOUS
 62
    30
 10
937.128684
 20
174.5
 30
0.0
 11
937.128684
 21
28.5
 31
0.0
  0
LINE
  5
40
  8
SIZE
  6
CONTINUOUS
 62
    30
 10
937.128684
 20
228.5
 30
0.0
 11
937.128684
 21
184.5
 31
0.0
  0
CIRCLE
  5
41
  8
SIZE
  6
CONTINUOUS
 62
    30
 10
937.128684
 20
228.5
 30
0.0
 40
5.0
  0
LINE
  5
42
  8
SIZE
  6
CONTINUOUS
 62
    30
 10
937.128684
 20
233.5
 30
0.0
 11
937.128684
 21
238.5
 31
0.0
  0
CIRCLE
  5
43
  8
SIZE
  6
CONTINUOUS
 62
    30
 10
937.128684
 20
184.5
 30
0.0
 40
5.0
  0
LINE
  5
44
  8
SIZE
  6
CONTINUOUS
 62
    30
 10
937.128684
 20
179.5
 30
0.0
 11
937.128684
 21
174.5
 31
0.0
  0
TEXT
  5
45
  8
SIZE
  6
CONTINUOUS
 62
    30
 10
917.128684
 20
48.5
 30
0.0
 40
64.0
  1
44
 50
90.0
 41
0.9
 72
     1
 11
917.128684
 21
96.5
 31
0.0
  0
POINT
  5
46
  8
DEFPOINTS
  6
CONTINUOUS
 62
     7
 10
729.351037
 20
228.5
 30
0.0
  0
POINT
  5
47
  8
DEFPOINTS
  6
CONTINUOUS
 62
     7
 10
795.001037
 20
184.5
 30
0.0
  0
POINT
  5
48
  8
DEFPOINTS
  6
CONTINUOUS
 62
     7
 10
937.128684
 20
184.5
 30
0.0
  0
LINE
  5
49
  8
SIZE
  6
CONTINUOUS
 62
    30
 10
692.701037
 20
266.5
 30
0.0
 11
1115.827809
 21
266.5
 31
0.0
  0
LINE
  5
4A
  8
SIZE
  6
CONTINUOUS
 62
    30
 10
815.001037
 20
184.5
 30
0.0
 11
1115.827809
 21
184.5
 31
0.0
  0
LINE
  5
4B
  8
SIZE
  6
CONTINUOUS
 62
    30
 10
1085.827809
 20
194.5
 30
0.0
 11
1085.827809
 21
256.5
 31
0.0
  0
LINE
  5
4C
  8
SIZE
  6
CONTINUOUS
 62
    30
 10
1085.827809
 20
266.5
 30
0.0
 11
1085.827809
 21
409.757143
 31
0.0
  0
CIRCLE
  5
4D
  8
SIZE
  6
CONTINUOUS
 62
    30
 10
1085.827809
 20
184.5
 30
0.0
 40
5.0
  0
LINE
  5
4E
  8
SIZE
  6
CONTINUOUS
 62
    30
 10
1085.827809
 20
189.5
 30
0.0
 11
1085.827809
 21
194.5
 31
0.0
  0
CIRCLE
  5
4F
  8
SIZE
  6
CONTINUOUS
 62
    30
 10
1085.827809
 20
266.5
 30
0.0
 40
5.0
  0
LINE
  5
50
  8
SIZE
  6
CONTINUOUS
 62
    30
 10
1085.827809
 20
261.5
 30
0.0
 11
1085.827809
 21
256.5
 31
0.0
  0
TEXT
  5
51
  8
SIZE
  6
CONTINUOUS
 62
    30
 10
1065.827809
 20
296.5
 30
0.0
 40
64.0
  1
82
 50
90.0
 41
0.9
 72
     1
 11
1065.827809
 21
343.128571
 31
0.0
  0
POINT
  5
52
  8
DEFPOINTS
  6
CONTINUOUS
 62
     7
 10
672.701037
 20
266.5
 30
0.0
  0
POINT
  5
53
  8
DEFPOINTS
  6
CONTINUOUS
 62
     7
 10
795.001037
 20
184.5
 30
0.0
  0
POINT
  5
54
  8
DEFPOINTS
  6
CONTINUOUS
 62
     7
 10
1085.827809
 20
184.5
 30
0.0
  0
LINE
  5
55
  8
SIZE
  6
CONTINUOUS
 62
    30
 10
815.001037
 20
184.5
 30
0.0
 11
1115.623382
 21
184.5
 31
0.0
  0
LINE
  5
56
  8
SIZE
  6
CONTINUOUS
 62
    30
 10
815.001037
 20
-184.5
 30
0.0
 11
1115.623382
 21
-184.5
 31
0.0
  0
LINE
  5
57
  8
SIZE
  6
CONTINUOUS
 62
    30
 10
1085.623382
 20
174.5
 30
0.0
 11
1085.623382
 21
-174.5
 31
0.0
  0
CIRCLE
  5
58
  8
SIZE
  6
CONTINUOUS
 62
    30
 10
1085.623382
 20
184.5
 30
0.0
 40
5.0
  0
LINE
  5
59
  8
SIZE
  6
CONTINUOUS
 62
    30
 10
1085.623382
 20
179.5
 30
0.0
 11
1085.623382
 21
174.5
 31
0.0
  0
CIRCLE
  5
5A
  8
SIZE
  6
CONTINUOUS
 62
    30
 10
1085.623382
 20
-184.5
 30
0.0
 40
5.0
  0
LINE
  5
5B
  8
SIZE
  6
CONTINUOUS
 62
    30
 10
1085.623382
 20
-179.5
 30
0.0
 11
1085.623382
 21
-174.5
 31
0.0
  0
TEXT
  5
5C
  8
SIZE
  6
CONTINUOUS
 62
    30
 10
1065.623382
 20
-86.185714
 30
0.0
 40
64.0
  1
369
 50
90.0
 41
0.9
 72
     1
 11
1065.623382
 21
-13.5
 31
0.0
  0
POINT
  5
5D
  8
DEFPOINTS
  6
CONTINUOUS
 62
     7
 10
795.001037
 20
184.5
 30
0.0
  0
POINT
  5
5E
  8
DEFPOINTS
  6
CONTINUOUS
 62
     7
 10
795.001037
 20
-184.5
 30
0.0
  0
POINT
  5
5F
  8
DEFPOINTS
  6
CONTINUOUS
 62
     7
 10
1085.623382
 20
-184.5
 30
0.0
  0
TEXT
  5
60
  8
NOTE
  6
CONTINUOUS
 62
     4
 10
897.74516
 20
489.056608
 30
0.0
 40
64.0
  1
RL %%C 15.88
 41
0.9
  0
LINE
  5
61
  8
BASIS
  6
DASHDOT
 62
     6
 10
-899.80493
 20
0.0
 30
0.0
 11
887.145431
 21
0.0
 31
0.0
  0
LINE
  5
62
  8
SIZE
  6
CONTINUOUS
 62
    30
 10
790.001037
 20
204.5
 30
0.0
 11
790.001037
 21
559.707184
 31
0.0
  0
LINE
  5
63
  8
SIZE
  6
CONTINUOUS
 62
    30
 10
665.0
 20
306.5
 30
0.0
 11
665.0
 21
559.707184
 31
0.0
  0
LINE
  5
64
  8
SIZE
  6
CONTINUOUS
 62
    30
 10
780.001037
 20
529.707184
 30
0.0
 11
675.001037
 21
529.707184
 31
0.0
  0
TEXT
  5
65
  8
SIZE
  6
CONTINUOUS
 62
    30
 10
655.69678
 20
580.783009
 30
0.0
 40
64.0
  1
125
 41
0.9
 72
     1
 11
724.268209
 21
580.783009
 31
0.0
  0
CIRCLE
  5
66
  8
SIZE
  6
CONTINUOUS
 62
    30
 10
790.001037
 20
529.707184
 30
0.0
 40
5.0
  0
LINE
  5
67
  8
SIZE
  6
CONTINUOUS
 62
    30
 10
785.001037
 20
529.707184
 30
0.0
 11
780.001037
 21
529.707184
 31
0.0
  0
CIRCLE
  5
68
  8
SIZE
  6
CONTINUOUS
 62
    30
 10
665.0
 20
529.707184
 30
0.0
 40
5.0
  0
LINE
  5
69
  8
SIZE
  6
CONTINUOUS
 62
    30
 10
670.0
 20
529.707184
 30
0.0
 11
675.001037
 21
529.707184
 31
0.0
  0
POINT
  5
6A
  8
DEFPOINTS
  6
CONTINUOUS
 62
     7
 10
790.001037
 20
184.5
 30
0.0
  0
POINT
  5
6B
  8
DEFPOINTS
  6
CONTINUOUS
 62
     7
 10
665.0
 20
286.5
 30
0.0
  0
POINT
  5
6C
  8
DEFPOINTS
  6
CONTINUOUS
 62
     7
 10
665.0
 20
529.707184
 30
0.0
  0
LINE
  5
6D
  8
SIZE
  6
CONTINUOUS
 62
    30
 10
790.001037
 20
204.5
 30
0.0
 11
790.001037
 21
427.369213
 31
0.0
  0
LINE
  5
6E
  8
SIZE
  6
CONTINUOUS
 62
    30
 10
723.001037
 20
221.5
 30
0.0
 11
723.001037
 21
427.369213
 31
0.0
  0
LINE
  5
6F
  8
SIZE
  6
CONTINUOUS
 62
    30
 10
780.001037
 20
397.369213
 30
0.0
 11
733.001037
 21
397.369213
 31
0.0
  0
TEXT
  5
70
  8
SIZE
  6
CONTINUOUS
 62
    30
 10
690.299172
 20
441.647501
 30
0.0
 40
64.0
  1
67
 41
0.9
 72
     1
 11
736.927743
 21
441.647501
 31
0.0
  0
CIRCLE
  5
71
  8
SIZE
  6
CONTINUOUS
 62
    30
 10
790.001037
 20
397.369213
 30
0.0
 40
5.0
  0
LINE
  5
72
  8
SIZE
  6
CONTINUOUS
 62
    30
 10
785.001037
 20
397.369213
 30
0.0
 11
780.001037
 21
397.369213
 31
0.0
  0
CIRCLE
  5
73
  8
SIZE
  6
CONTINUOUS
 62
    30
 10
723.001037
 20
397.369213
 30
0.0
 40
5.0
  0
LINE
  5
74
  8
SIZE
  6
CONTINUOUS
 62
    30
 10
728.001037
 20
397.369213
 30
0.0
 11
733.001037
 21
397.369213
 31
0.0
  0
POINT
  5
75
  8
DEFPOINTS
  6
CONTINUOUS
 62
     7
 10
790.001037
 20
184.5
 30
0.0
  0
POINT
  5
76
  8
DEFPOINTS
  6
CONTINUOUS
 62
     7
 10
723.001037
 20
201.5
 30
0.0
  0
POINT
  5
77
  8
DEFPOINTS
  6
CONTINUOUS
 62
     7
 10
723.001037
 20
397.369213
 30
0.0
  0
LINE
  5
78
  8
SIZE
  6
CONTINUOUS
 62
    30
 10
590.001037
 20
-261.5
 30
0.0
 11
590.001037
 21
-580.85729
 31
0.0
  0
LINE
  5
79
  8
SIZE
  6
CONTINUOUS
 62
    30
 10
-749.998963
 20
-281.5
 30
0.0
 11
-749.998963
 21
-580.85729
 31
0.0
  0
LINE
  5
7A
  8
SIZE
  6
CONTINUOUS
 62
    30
 10
580.001037
 20
-550.85729
 30
0.0
 11
-739.998963
 21
-550.85729
 31
0.0
  0
CIRCLE
  5
7B
  8
SIZE
  6
CONTINUOUS
 62
    30
 10
590.001037
 20
-550.85729
 30
0.0
 40
5.0
  0
LINE
  5
7C
  8
SIZE
  6
CONTINUOUS
 62
    30
 10
585.001037
 20
-550.85729
 30
0.0
 11
580.001037
 21
-550.85729
 31
0.0
  0
CIRCLE
  5
7D
  8
SIZE
  6
CONTINUOUS
 62
    30
 10
-749.998963
 20
-550.85729
 30
0.0
 40
5.0
  0
LINE
  5
7E
  8
SIZE
  6
CONTINUOUS
 62
    30
 10
-744.998963
 20
-550.85729
 30
0.0
 11
-739.998963
 21
-550.85729
 31
0.0
  0
TEXT
  5
7F
  8
SIZE
  6
CONTINUOUS
 62
    30
 10
-117.291768
 20
-530.85729
 30
0.0
 40
64.0
  1
1340
 41
0.9
 72
     1
 11
-21.291768
 21
-530.85729
 31
0.0
  0
POINT
  5
80
  8
DEFPOINTS
  6
CONTINUOUS
 62
     7
 10
590.001037
 20
-241.5
 30
0.0
  0
POINT
  5
81
  8
DEFPOINTS
  6
CONTINUOUS
 62
     7
 10
-749.998963
 20
-261.5
 30
0.0
  0
POINT
  5
82
  8
DEFPOINTS
  6
CONTINUOUS
 62
     7
 10
-749.998963
 20
-550.85729
 30
0.0
  0
LINE
  5
83
  8
DETAIL
  6
CONTINUOUS
 62
     5
 10
-794.998963
 20
-192.5
 30
0.0
 11
795.001037
 21
-192.5
 31
0.0
  0
LINE
  5
84
  8
DETAIL
  6
CONTINUOUS
 62
     5
 10
-794.998963
 20
184.5
 30
0.0
 11
795.001037
 21
184.5
 31
0.0
  0
LINE
  5
85
  8
DETAIL
  6
CONTINUOUS
 62
     5
 10
-789.998963
 20
-184.5
 30
0.0
 11
790.001037
 21
-184.5
 31
0.0
  0
LINE
  5
86
  8
SIZE
  6
CONTINUOUS
 62
    30
 10
-789.998963
 20
218.5
 30
0.0
 11
-957.404218
 21
218.5
 31
0.0
  0
LINE
  5
87
  8
SIZE
  6
CONTINUOUS
 62
    30
 10
-769.998963
 20
-241.5
 30
0.0
 11
-957.404218
 21
-241.5
 31
0.0
  0
LINE
  5
88
  8
SIZE
  6
CONTINUOUS
 62
    30
 10
-927.404218
 20
208.5
 30
0.0
 11
-927.404218
 21
-231.5
 31
0.0
  0
CIRCLE
  5
89
  8
SIZE
  6
CONTINUOUS
 62
    30
 10
-927.404218
 20
218.5
 30
0.0
 40
5.0
  0
LINE
  5
8A
  8
SIZE
  6
CONTINUOUS
 62
    30
 10
-927.404218
 20
213.5
 30
0.0
 11
-927.404218
 21
208.5
 31
0.0
  0
CIRCLE
  5
8B
  8
SIZE
  6
CONTINUOUS
 62
    30
 10
-927.404218
 20
-241.5
 30
0.0
 40
5.0
  0
LINE
  5
8C
  8
SIZE
  6
CONTINUOUS
 62
    30
 10
-927.404218
 20
-236.5
 30
0.0
 11
-927.404218
 21
-231.5
 31
0.0
  0
TEXT
  5
8D
  8
SIZE
  6
CONTINUOUS
 62
    30
 10
-947.404218
 20
-66.750898
 30
0.0
 40
64.0
  1
460
 50
90.0
 41
0.9
 72
     1
 11
-947.404218
 21
7.306245
 31
0.0
  0
POINT
  5
8E
  8
DEFPOINTS
  6
CONTINUOUS
 62
     7
 10
-769.998963
 20
218.5
 30
0.0
  0
POINT
  5
8F
  8
DEFPOINTS
  6
CONTINUOUS
 62
     7
 10
-749.998963
 20
-241.5
 30
0.0
  0
POINT
  5
90
  8
DEFPOINTS
  6
CONTINUOUS
 62
     7
 10
-927.404218
 20
-241.5
 30
0.0
  0
LINE
  5
91
  8
DETAIL
  6
CONTINUOUS
 62
     5
 10
-789.998963
 20
184.5
 30
0.0
 11
-789.998963
 21
-184.5
 31
0.0
  0
LINE
  5
92
  8
DETAIL
  6
CONTINUOUS
 62
     5
 10
-794.998963
 20
184.5
 30
0.0
 11
-794.998963
 21
-192.5
 31
0.0
  0
LINE
  5
93
  8
SIZE
  6
CONTINUOUS
 62
    30
 10
-749.998963
 20
-266.5
 30
0.0
 11
-749.998963
 21
-580.349927
 31
0.0
  0
LINE
  5
94
  8
SIZE
  6
CONTINUOUS
 62
    30
 10
-789.998963
 20
-204.5
 30
0.0
 11
-789.998963
 21
-580.349927
 31
0.0
  0
LINE
  5
95
  8
SIZE
  6
CONTINUOUS
 62
    30
 10
-739.998963
 20
-550.349927
 30
0.0
 11
-729.998963
 21
-550.349927
 31
0.0
  0
LINE
  5
96
  8
SIZE
  6
CONTINUOUS
 62
    30
 10
-799.998963
 20
-550.349927
 30
0.0
 11
-943.256105
 21
-550.349927
 31
0.0
  0
LINE
  5
97
  8
SIZE
  6
CONTINUOUS
 62
    30
 10
-749.998963
 20
-550.349927
 30
0.0
 11
-789.998963
 21
-550.349927
 31
0.0
  0
CIRCLE
  5
98
  8
SIZE
  6
CONTINUOUS
 62
    30
 10
-749.998963
 20
-550.349927
 30
0.0
 40
5.0
  0
LINE
  5
99
  8
SIZE
  6
CONTINUOUS
 62
    30
 10
-744.998963
 20
-550.349927
 30
0.0
 11
-739.998963
 21
-550.349927
 31
0.0
  0
CIRCLE
  5
9A
  8
SIZE
  6
CONTINUOUS
 62
    30
 10
-789.998963
 20
-550.349927
 30
0.0
 40
5.0
  0
LINE
  5
9B
  8
SIZE
  6
CONTINUOUS
 62
    30
 10
-794.998963
 20
-550.349927
 30
0.0
 11
-799.998963
 21
-550.349927
 31
0.0
  0
TEXT
  5
9C
  8
SIZE
  6
CONTINUOUS
 62
    30
 10
-923.256105
 20
-530.349927
 30
0.0
 40
64.0
  1
40
 41
0.9
 72
     1
 11
-876.627534
 21
-530.349927
 31
0.0
  0
POINT
  5
9D
  8
DEFPOINTS
  6
CONTINUOUS
 62
     7
 10
-749.998963
 20
-246.5
 30
0.0
  0
POINT
  5
9E
  8
DEFPOINTS
  6
CONTINUOUS
 62
     7
 10
-789.998963
 20
-184.5
 30
0.0
  0
POINT
  5
9F
  8
DEFPOINTS
  6
CONTINUOUS
 62
     7
 10
-789.998963
 20
-550.349927
 30
0.0
  0
LINE
  5
A0
  8
SIZE
  6
CONTINUOUS
 62
    30
 10
-769.998963
 20
-241.5
 30
0.0
 11
-957.428828
 21
-241.5
 31
0.0
  0
LINE
  5
A1
  8
SIZE
  6
CONTINUOUS
 62
    30
 10
-769.998963
 20
-261.5
 30
0.0
 11
-957.428828
 21
-261.5
 31
0.0
  0
LINE
  5
A2
  8
SIZE
  6
CONTINUOUS
 62
    30
 10
-927.428828
 20
-231.5
 30
0.0
 11
-927.428828
 21
-221.5
 31
0.0
  0
LINE
  5
A3
  8
SIZE
  6
CONTINUOUS
 62
    30
 10
-927.428828
 20
-271.5
 30
0.0
 11
-927.428828
 21
-414.757143
 31
0.0
  0
LINE
  5
A4
  8
SIZE
  6
CONTINUOUS
 62
    30
 10
-927.428828
 20
-241.5
 30
0.0
 11
-927.428828
 21
-261.5
 31
0.0
  0
CIRCLE
  5
A5
  8
SIZE
  6
CONTINUOUS
 62
    30
 10
-927.428828
 20
-241.5
 30
0.0
 40
5.0
  0
LINE
  5
A6
  8
SIZE
  6
CONTINUOUS
 62
    30
 10
-927.428828
 20
-236.5
 30
0.0
 11
-927.428828
 21
-231.5
 31
0.0
  0
CIRCLE
  5
A7
  8
SIZE
  6
CONTINUOUS
 62
    30
 10
-927.428828
 20
-261.5
 30
0.0
 40
5.0
  0
LINE
  5
A8
  8
SIZE
  6
CONTINUOUS
 62
    30
 10
-927.428828
 20
-266.5
 30
0.0
 11
-927.428828
 21
-271.5
 31
0.0
  0
TEXT
  5
A9
  8
SIZE
  6
CONTINUOUS
 62
    30
 10
-947.428828
 20
-394.757142
 30
0.0
 40
64.0
  1
20
 50
90.0
 41
0.9
 72
     1
 11
-947.428828
 21
-348.128571
 31
0.0
  0
POINT
  5
AA
  8
DEFPOINTS
  6
CONTINUOUS
 62
     7
 10
-749.998963
 20
-241.5
 30
0.0
  0
POINT
  5
AB
  8
DEFPOINTS
  6
CONTINUOUS
 62
     7
 10
-749.998963
 20
-261.5
 30
0.0
  0
POINT
  5
AC
  8
DEFPOINTS
  6
CONTINUOUS
 62
     7
 10
-927.428828
 20
-261.5
 30
0.0
  0
LINE
  5
AD
  8
DETAIL
  6
CONTINUOUS
 62
     5
 10
-734.998963
 20
-256.5
 30
0.0
 11
-739.998963
 21
-261.5
 31
0.0
  0
LINE
  5
AE
  8
DETAIL
  6
CONTINUOUS
 62
     5
 10
-764.998963
 20
-256.5
 30
0.0
 11
-759.998963
 21
-261.5
 31
0.0
  0
CIRCLE
  5
AF
  8
DETAIL
  6
CONTINUOUS
 62
     5
 10
-749.998963
 20
-241.5
 30
0.0
 40
6.0
  0
LINE
  5
B0
  8
NOTE
  6
CONTINUOUS
 62
     4
 10
-749.998963
 20
-261.5
 30
0.0
 11
-749.998963
 21
-221.5
 31
0.0
  0
LINE
  5
B1
  8
NOTE
  6
CONTINUOUS
 62
     4
 10
-729.998963
 20
-241.5
 30
0.0
 11
-769.998963
 21
-241.5
 31
0.0
  0
CIRCLE
  5
B2
  8
FIX
  6
CONTINUOUS
 62
    11
 10
-749.998963
 20
-241.5
 30
0.0
 40
20.0
  0
LINE
  5
B3
  8
DETAIL
  6
CONTINUOUS
 62
     5
 10
-759.998963
 20
-261.5
 30
0.0
 11
-739.998963
 21
-261.5
 31
0.0
  0
LINE
  5
B4
  8
DETAIL
  6
CONTINUOUS
 62
     5
 10
-764.998963
 20
-184.5
 30
0.0
 11
-764.998963
 21
-256.5
 31
0.0
  0
LINE
  5
B5
  8
DETAIL
  6
CONTINUOUS
 62
     5
 10
-734.998963
 20
-184.5
 30
0.0
 11
-734.998963
 21
-256.5
 31
0.0
  0
ARC
  5
B6
  8
DETAIL
  6
CONTINUOUS
 62
     5
 10
-749.998963
 20
218.5
 30
0.0
 40
6.0
 50
180.0
 51
0.0
  0
CIRCLE
  5
B7
  8
FIX
  6
CONTINUOUS
 62
    11
 10
-749.998963
 20
218.5
 30
0.0
 40
20.0
  0
LINE
  5
B8
  8
NOTE
  6
CONTINUOUS
 62
     4
 10
-749.998963
 20
238.5
 30
0.0
 11
-749.998963
 21
198.5
 31
0.0
  0
LINE
  5
B9
  8
NOTE
  6
CONTINUOUS
 62
     4
 10
-729.998963
 20
218.5
 30
0.0
 11
-769.998963
 21
218.5
 31
0.0
  0
LINE
  5
BA
  8
DETAIL
  6
CONTINUOUS
 62
     5
 10
-764.998963
 20
184.5
 30
0.0
 11
-764.998963
 21
227.5
 31
0.0
  0
LINE
  5
BB
  8
DETAIL
  6
CONTINUOUS
 62
     5
 10
-734.998963
 20
184.5
 30
0.0
 11
-734.998963
 21
227.5
 31
0.0
  0
LINE
  5
BC
  8
DETAIL
  6
CONTINUOUS
 62
     5
 10
-743.998963
 20
232.5
 30
0.0
 11
-739.998963
 21
232.5
 31
0.0
  0
LINE
  5
BD
  8
DETAIL
  6
CONTINUOUS
 62
     5
 10
-743.998963
 20
218.5
 30
0.0
 11
-743.998963
 21
232.5
 31
0.0
  0
LINE
  5
BE
  8
DETAIL
  6
CONTINUOUS
 62
     5
 10
-755.998963
 20
218.5
 30
0.0
 11
-755.998963
 21
232.5
 31
0.0
  0
LINE
  5
BF
  8
DETAIL
  6
CONTINUOUS
 62
     5
 10
-764.998963
 20
227.5
 30
0.0
 11
-759.998963
 21
232.5
 31
0.0
  0
LINE
  5
C0
  8
DETAIL
  6
CONTINUOUS
 62
     5
 10
-734.998963
 20
227.5
 30
0.0
 11
-739.998963
 21
232.5
 31
0.0
  0
LINE
  5
C1
  8
DETAIL
  6
CONTINUOUS
 62
     5
 10
-759.998963
 20
232.5
 30
0.0
 11
-755.998963
 21
232.5
 31
0.0
  0
LINE
  5
C2
  8
DETAIL
  6
CONTINUOUS
 62
     5
 10
790.001037
 20
184.5
 30
0.0
 11
790.001037
 21
-184.5
 31
0.0
  0
LINE
  5
C3
  8
DETAIL
  6
CONTINUOUS
 62
     5
 10
795.001037
 20
184.5
 30
0.0
 11
795.001037
 21
-192.5
 31
0.0
  0
TEXT
  5
C4
  8
NOTE
  6
CONTINUOUS
 62
     4
 10
-585.625647
 20
-419.494656
 30
0.0
 40
64.0
  1
AH 2-%%C 12
 41
0.9
  0
LINE
  5
C5
  8
NOTE
  6
CONTINUOUS
 62
     4
 10
-603.240923
 20
-436.058865
 30
0.0
 11
-127.827019
 21
-436.058865
 31
0.0
  0
LINE
  5
C6
  8
DETAIL
  6
CONTINUOUS
 62
     5
 10
-606.091842
 20
-214.5
 30
0.0
 11
-203.467472
 21
-214.5
 31
0.0
  0
LINE
  5
C7
  8
DETAIL
  6
CONTINUOUS
 62
     5
 10
-612.321114
 20
-204.5
 30
0.0
 11
-197.238201
 21
-204.5
 31
0.0
  0
LINE
  5
C8
  8
DETAIL
  6
CONTINUOUS
 62
     5
 10
-618.550385
 20
-194.5
 30
0.0
 11
-191.008929
 21
-194.5
 31
0.0
  0
LINE
  5
C9
  8
DETAIL
  6
CONTINUOUS
 62
     5
 10
-110.216348
 20
-184.5
 30
0.0
 11
340.23767
 21
-184.5
 31
0.0
  0
LINE
  5
CA
  8
DETAIL
  6
CONTINUOUS
 62
     5
 10
-599.86257
 20
-224.5
 30
0.0
 11
-209.696744
 21
-224.5
 31
0.0
  0
LINE
  5
CB
  8
DETAIL
  6
CONTINUOUS
 62
     5
 10
-593.633298
 20
-234.5
 30
0.0
 11
-215.926016
 21
-234.5
 31
0.0
  0
LINE
  5
CC
  8
DETAIL
  6
CONTINUOUS
 62
     5
 10
-587.404027
 20
-244.5
 30
0.0
 11
-222.155288
 21
-244.5
 31
0.0
  0
LINE
  5
CD
  8
DETAIL
  6
CONTINUOUS
 62
     5
 10
-584.912318
 20
-248.5
 30
0.0
 11
-224.646996
 21
-248.5
 31
0.0
  0
LINE
  5
CE
  8
SIZE
  6
CONTINUOUS
 62
    30
 10
790.001037
 20
-204.5
 30
0.0
 11
790.001037
 21
-580.802812
 31
0.0
  0
LINE
  5
CF
  8
SIZE
  6
CONTINUOUS
 62
    30
 10
590.001037
 20
-281.5
 30
0.0
 11
590.001037
 21
-580.802812
 31
0.0
  0
LINE
  5
D0
  8
SIZE
  6
CONTINUOUS
 62
    30
 10
800.001037
 20
-550.802812
 30
0.0
 11
810.001037
 21
-550.802812
 31
0.0
  0
LINE
  5
D1
  8
SIZE
  6
CONTINUOUS
 62
    30
 10
580.001037
 20
-550.802812
 30
0.0
 11
570.001037
 21
-550.802812
 31
0.0
  0
LINE
  5
D2
  8
SIZE
  6
CONTINUOUS
 62
    30
 10
790.001037
 20
-550.802812
 30
0.0
 11
590.001037
 21
-550.802812
 31
0.0
  0
CIRCLE
  5
D3
  8
SIZE
  6
CONTINUOUS
 62
    30
 10
790.001037
 20
-550.802812
 30
0.0
 40
5.0
  0
LINE
  5
D4
  8
SIZE
  6
CONTINUOUS
 62
    30
 10
795.001037
 20
-550.802812
 30
0.0
 11
800.001037
 21
-550.802812
 31
0.0
  0
CIRCLE
  5
D5
  8
SIZE
  6
CONTINUOUS
 62
    30
 10
590.001037
 20
-550.802812
 30
0.0
 40
5.0
  0
LINE
  5
D6
  8
SIZE
  6
CONTINUOUS
 62
    30
 10
585.001037
 20
-550.802812
 30
0.0
 11
580.001037
 21
-550.802812
 31
0.0
  0
TEXT
  5
D7
  8
SIZE
  6
CONTINUOUS
 62
    30
 10
618.850184
 20
-530.802812
 30
0.0
 40
64.0
  1
200
 41
0.9
 72
     1
 11
692.907327
 21
-530.802812
 31
0.0
  0
POINT
  5
D8
  8
DEFPOINTS
  6
CONTINUOUS
 62
     7
 10
790.001037
 20
-184.5
 30
0.0
  0
POINT
  5
D9
  8
DEFPOINTS
  6
CONTINUOUS
 62
     7
 10
590.001037
 20
-261.5
 30
0.0
  0
POINT
  5
DA
  8
DEFPOINTS
  6
CONTINUOUS
 62
     7
 10
590.001037
 20
-550.802812
 30
0.0
  0
LINE
  5
DB
  8
DETAIL
  6
CONTINUOUS
 62
     5
 10
625.001037
 20
-270.5
 30
0.0
 11
775.001037
 21
-270.5
 31
0.0
  0
LINE
  5
DC
  8
SIZE
  6
CONTINUOUS
 62
    30
 10
575.001037
 20
-274.728757
 30
0.0
 11
575.001037
 21
-388.387244
 31
0.0
  0
LINE
  5
DD
  8
SIZE
  6
CONTINUOUS
 62
    30
 10
605.001037
 20
-274.728757
 30
0.0
 11
605.001037
 21
-388.387244
 31
0.0
  0
LINE
  5
DE
  8
SIZE
  6
CONTINUOUS
 62
    30
 10
615.001037
 20
-358.387244
 30
0.0
 11
625.001037
 21
-358.387244
 31
0.0
  0
LINE
  5
DF
  8
SIZE
  6
CONTINUOUS
 62
    30
 10
565.001037
 20
-358.387244
 30
0.0
 11
421.743895
 21
-358.387244
 31
0.0
  0
LINE
  5
E0
  8
SIZE
  6
CONTINUOUS
 62
    30
 10
605.001037
 20
-358.387244
 30
0.0
 11
575.001037
 21
-358.387244
 31
0.0
  0
CIRCLE
  5
E1
  8
SIZE
  6
CONTINUOUS
 62
    30
 10
605.001037
 20
-358.387244
 30
0.0
 40
5.0
  0
LINE
  5
E2
  8
SIZE
  6
CONTINUOUS
 62
    30
 10
610.001037
 20
-358.387244
 30
0.0
 11
615.001037
 21
-358.387244
 31
0.0
  0
CIRCLE
  5
E3
  8
SIZE
  6
CONTINUOUS
 62
    30
 10
575.001037
 20
-358.387244
 30
0.0
 40
5.0
  0
LINE
  5
E4
  8
SIZE
  6
CONTINUOUS
 62
    30
 10
570.001037
 20
-358.387244
 30
0.0
 11
565.001037
 21
-358.387244
 31
0.0
  0
TEXT
  5
E5
  8
SIZE
  6
CONTINUOUS
 62
    30
 10
441.743895
 20
-338.387244
 30
0.0
 40
64.0
  1
30
 41
0.9
 72
     1
 11
488.372466
 21
-338.387244
 31
0.0
  0
POINT
  5
E6
  8
DEFPOINTS
  6
CONTINUOUS
 62
     7
 10
575.001037
 20
-254.728757
 30
0.0
  0
POINT
  5
E7
  8
DEFPOINTS
  6
CONTINUOUS
 62
     7
 10
605.001037
 20
-254.728757
 30
0.0
  0
POINT
  5
E8
  8
DEFPOINTS
  6
CONTINUOUS
 62
     7
 10
605.001037
 20
-358.387244
 30
0.0
  0
LINE
  5
E9
  8
DETAIL
  6
CONTINUOUS
 62
     5
 10
625.001037
 20
-184.5
 30
0.0
 11
625.001037
 21
-270.5
 31
0.0
  0
CIRCLE
  5
EA
  8
FIX
  6
CONTINUOUS
 62
    11
 10
590.001037
 20
-241.5
 30
0.0
 40
20.0
  0
LINE
  5
EB
  8
NOTE
  6
CONTINUOUS
 62
     4
 10
590.001037
 20
-261.5
 30
0.0
 11
590.001037
 21
-221.5
 31
0.0
  0
LINE
  5
EC
  8
NOTE
  6
CONTINUOUS
 62
     4
 10
610.001037
 20
-241.5
 30
0.0
 11
570.001037
 21
-241.5
 31
0.0
  0
CIRCLE
  5
ED
  8
DETAIL
  6
CONTINUOUS
 62
     5
 10
590.001037
 20
-241.5
 30
0.0
 40
6.0
  0
LINE
  5
EE
  8
DETAIL
  6
CONTINUOUS
 62
     5
 10
575.001037
 20
-256.5
 30
0.0
 11
580.001037
 21
-261.5
 31
0.0
  0
LINE
  5
EF
  8
DETAIL
  6
CONTINUOUS
 62
     5
 10
605.001037
 20
-256.5
 30
0.0
 11
600.001037
 21
-261.5
 31
0.0
  0
LINE
  5
F0
  8
DETAIL
  6
CONTINUOUS
 62
     5
 10
580.001037
 20
-261.5
 30
0.0
 11
600.001037
 21
-261.5
 31
0.0
  0
LINE
  5
F1
  8
DETAIL
  6
CONTINUOUS
 62
     5
 10
575.001037
 20
-184.5
 30
0.0
 11
575.001037
 21
-256.5
 31
0.0
  0
LINE
  5
F2
  8
DETAIL
  6
CONTINUOUS
 62
     5
 10
605.001037
 20
-184.5
 30
0.0
 11
605.001037
 21
-256.5
 31
0.0
  0
LINE
  5
F3
  8
DETAIL
  6
CONTINUOUS
 62
     5
 10
775.001037
 20
-184.5
 30
0.0
 11
775.001037
 21
-270.5
 31
0.0
  0
LINE
  5
F4
  8
NOTE
  6
CONTINUOUS
 62
     4
 10
665.0
 20
286.5
 30
0.0
 11
665.0
 21
246.5
 31
0.0
  0
LINE
  5
F5
  8
NOTE
  6
CONTINUOUS
 62
     4
 10
685.001037
 20
266.5
 30
0.0
 11
645.001037
 21
266.5
 31
0.0
  0
LINE
  5
F6
  8
NOTE
  6
CONTINUOUS
 62
     4
 10
590.001037
 20
238.5
 30
0.0
 11
590.001037
 21
198.5
 31
0.0
  0
LINE
  5
F7
  8
NOTE
  6
CONTINUOUS
 62
     4
 10
610.001037
 20
218.5
 30
0.0
 11
570.001037
 21
218.5
 31
0.0
  0
CIRCLE
  5
F8
  8
FIX
  6
CONTINUOUS
 62
    11
 10
590.001037
 20
218.5
 30
0.0
 40
20.0
  0
ARC
  5
F9
  8
DETAIL
  6
CONTINUOUS
 62
     5
 10
590.001037
 20
218.5
 30
0.0
 40
6.0
 50
180.0
 51
0.0
  0
LINE
  5
FA
  8
DETAIL
  6
CONTINUOUS
 62
     5
 10
575.001037
 20
184.5
 30
0.0
 11
575.001037
 21
227.5
 31
0.0
  0
LINE
  5
FB
  8
DETAIL
  6
CONTINUOUS
 62
     5
 10
605.001037
 20
184.5
 30
0.0
 11
605.001037
 21
227.5
 31
0.0
  0
LINE
  5
FC
  8
DETAIL
  6
CONTINUOUS
 62
     5
 10
605.001037
 20
227.5
 30
0.0
 11
600.001037
 21
232.5
 31
0.0
  0
LINE
  5
FD
  8
DETAIL
  6
CONTINUOUS
 62
     5
 10
575.001037
 20
227.5
 30
0.0
 11
580.001037
 21
232.5
 31
0.0
  0
LINE
  5
FE
  8
DETAIL
  6
CONTINUOUS
 62
     5
 10
580.001037
 20
232.5
 30
0.0
 11
584.001037
 21
232.5
 31
0.0
  0
LINE
  5
FF
  8
DETAIL
  6
CONTINUOUS
 62
     5
 10
596.001037
 20
232.5
 30
0.0
 11
600.001037
 21
232.5
 31
0.0
  0
LINE
  5
100
  8
DETAIL
  6
CONTINUOUS
 62
     5
 10
584.001037
 20
218.5
 30
0.0
 11
584.001037
 21
232.5
 31
0.0
  0
LINE
  5
101
  8
DETAIL
  6
CONTINUOUS
 62
     5
 10
596.001037
 20
218.5
 30
0.0
 11
596.001037
 21
232.5
 31
0.0
  0
LINE
  5
102
  8
NOTE
  6
CONTINUOUS
 62
     4
 10
723.001037
 20
248.5
 30
0.0
 11
723.001037
 21
208.5
 31
0.0
  0
LINE
  5
103
  8
NOTE
  6
CONTINUOUS
 62
     4
 10
743.001037
 20
228.5
 30
0.0
 11
703.001037
 21
228.5
 31
0.0
  0
LINE
  5
104
  8
DETAIL
  6
CONTINUOUS
 62
     5
 10
680.876
 20
266.5
 30
0.0
 11
680.876
 21
184.5
 31
0.0
  0
LINE
  5
105
  8
DETAIL
  6
CONTINUOUS
 62
     5
 10
649.126
 20
266.5
 30
0.0
 11
649.126
 21
184.5
 31
0.0
  0
LINE
  5
106
  8
DETAIL
  6
CONTINUOUS
 62
     5
 10
730.941
 20
228.5
 30
0.0
 11
730.941
 21
184.5
 31
0.0
  0
LINE
  5
107
  8
DETAIL
  6
CONTINUOUS
 62
     5
 10
715.061
 20
228.5
 30
0.0
 11
715.061
 21
184.5
 31
0.0
  0
LINE
  5
108
  8
DETAIL
  6
CONTINUOUS
 62
     5
 10
715.061
 20
218.5
 30
0.0
 11
730.941
 21
218.5
 31
0.0
  0
LINE
  5
109
  8
DETAIL
  6
CONTINUOUS
 62
     5
 10
649.126
 20
241.5
 30
0.0
 11
680.876
 21
241.5
 31
0.0
  0
LINE
  5
10A
  8
DETAIL
  6
CONTINUOUS
 62
     5
 10
649.126
 20
266.5
 30
0.0
 11
680.876
 21
266.5
 31
0.0
  0
LINE
  5
10B
  8
DETAIL
  6
CONTINUOUS
 62
     5
 10
715.061
 20
228.5
 30
0.0
 11
730.941
 21
228.5
 31
0.0
  0
TEXT
  5
10C
  8
NOTE
  6
CONTINUOUS
 62
     4
 10
40.252459
 20
517.892647
 30
0.0
 40
64.0
  1
RG %%C 31.75
 41
0.9
  0
TEXT
  5
10D
  8
ETC
  6
CONTINUOUS
 62
    61
 10
732.129489
 20
726.900929
 30
0.0
 40
64.0
  1
UCL-P8VHB_1
 41
0.9
  0
LINE
  5
10F
  8
DETAIL
  6
CONTINUOUS
 62
     5
 10
-624.779657
 20
-184.5
 30
0.0
 11
-584.912318
 21
-248.5
 31
0.0
  0
LINE
  5
110
  8
DETAIL
  6
CONTINUOUS
 62
     5
 10
-184.779657
 20
-184.5
 30
0.0
 11
-224.646996
 21
-248.5
 31
0.0
  0
LINE
  5
111
  8
BASIS
  6
DASHDOT
 62
     6
 10
-404.780174
 20
-161.548586
 30
0.0
 11
-404.781349
 21
-282.203423
 31
0.0
  0
LINE
  5
112
  8
BASIS
  6
DASHDOT
 62
     6
 10
245.514022
 20
-159.548586
 30
0.0
 11
245.515198
 21
-280.203423
 31
0.0
  0
LINE
  5
113
  8
DETAIL
  6
CONTINUOUS
 62
     5
 10
31.233817
 20
-194.5
 30
0.0
 11
458.775273
 21
-194.5
 31
0.0
  0
LINE
  5
114
  8
DETAIL
  6
CONTINUOUS
 62
     5
 10
37.463088
 20
-204.5
 30
0.0
 11
452.546001
 21
-204.5
 31
0.0
  0
LINE
  5
115
  8
DETAIL
  6
CONTINUOUS
 62
     5
 10
43.69236
 20
-214.5
 30
0.0
 11
446.31673
 21
-214.5
 31
0.0
  0
LINE
  5
116
  8
DETAIL
  6
CONTINUOUS
 62
     5
 10
49.921632
 20
-224.5
 30
0.0
 11
440.087458
 21
-224.5
 31
0.0
  0
LINE
  5
117
  8
DETAIL
  6
CONTINUOUS
 62
     5
 10
56.150904
 20
-234.5
 30
0.0
 11
433.858186
 21
-234.5
 31
0.0
  0
LINE
  5
118
  8
DETAIL
  6
CONTINUOUS
 62
     5
 10
62.380175
 20
-244.5
 30
0.0
 11
427.628914
 21
-244.5
 31
0.0
  0
LINE
  5
119
  8
DETAIL
  6
CONTINUOUS
 62
     5
 10
64.871884
 20
-248.5
 30
0.0
 11
425.137206
 21
-248.5
 31
0.0
  0
LINE
  5
11A
  8
DETAIL
  6
CONTINUOUS
 62
     5
 10
25.004545
 20
-184.5
 30
0.0
 11
64.871884
 21
-248.5
 31
0.0
  0
LINE
  5
11B
  8
DETAIL
  6
CONTINUOUS
 62
     5
 10
465.004545
 20
-184.5
 30
0.0
 11
425.137206
 21
-248.5
 31
0.0
  0
POLYLINE
  5
11C
  8
NOTE
  6
CONTINUOUS
 62
     4
 66
     1
 10
0.0
 20
0.0
 30
0.0
  0
VERTEX
  5
11D
  8
NOTE
  6
CONTINUOUS
 62
     4
 10
735.858746
 20
266.377161
 30
0.0
  0
VERTEX
  5
11E
  8
NOTE
  6
CONTINUOUS
 62
     4
 10
723.001037
 20
228.5
 30
0.0
  0
VERTEX
  5
11F
  8
NOTE
  6
CONTINUOUS
 62
     4
 10
753.07472
 20
254.873729
 30
0.0
  0
SEQEND
  5
120
  8
NOTE
  6
CONTINUOUS
 62
     4
  0
LINE
  5
121
  8
NOTE
  6
CONTINUOUS
 62
     4
 10
723.001037
 20
228.5
 30
0.0
 11
883.289631
 21
468.386039
 31
0.0
  0
LINE
  5
122
  8
NOTE
  6
CONTINUOUS
 62
     4
 10
665.0
 20
266.5
 30
0.0
 11
504.647498
 21
506.34263
 31
0.0
  0
POLYLINE
  5
123
  8
NOTE
  6
CONTINUOUS
 62
     4
 66
     1
 10
0.0
 20
0.0
 30
0.0
  0
VERTEX
  5
124
  8
NOTE
  6
CONTINUOUS
 62
     4
 10
634.920112
 20
292.865469
 30
0.0
  0
VERTEX
  5
125
  8
NOTE
  6
CONTINUOUS
 62
     4
 10
665.001037
 20
266.5
 30
0.0
  0
VERTEX
  5
126
  8
NOTE
  6
CONTINUOUS
 62
     4
 10
652.132926
 20
304.373628
 30
0.0
  0
SEQEND
  5
127
  8
NOTE
  6
CONTINUOUS
 62
     4
  0
LINE
  5
128
  8
NOTE
  6
CONTINUOUS
 62
     4
 10
504.647498
 20
506.34263
 30
0.0
 11
29.9768
 21
506.34263
 31
0.0
  0
LINE
  5
129
  8
NOTE
  6
CONTINUOUS
 62
     4
 10
-749.998963
 20
-241.5
 30
0.0
 11
-603.240923
 21
-436.058865
 31
0.0
  0
POLYLINE
  5
12A
  8
NOTE
  6
CONTINUOUS
 62
     4
 66
     1
 10
0.0
 20
0.0
 30
0.0
  0
VERTEX
  5
12B
  8
NOTE
  6
CONTINUOUS
 62
     4
 10
-718.466591
 20
-266.111167
 30
0.0
  0
VERTEX
  5
12C
  8
NOTE
  6
CONTINUOUS
 62
     4
 10
-749.998963
 20
-241.5
 30
0.0
  0
VERTEX
  5
12D
  8
NOTE
  6
CONTINUOUS
 62
     4
 10
-734.996711
 20
-278.580081
 30
0.0
  0
SEQEND
  5
12E
  8
NOTE
  6
CONTINUOUS
 62
     4
  0
CIRCLE
  5
12F
  8
ARRANGE
  6
CONTINUOUS
 62
     1
 10
0.0
 20
0.0
 30
0.0
 40
40.0
  0
POINT
  5
130
  8
ARRANGE
  6
CONTINUOUS
 62
     1
 10
0.0
 20
0.0
 30
0.0
  0
LINE
  5
131
  8
BASIS
  6
DASHDOT
 62
     6
 10
0.001453
 20
239.463364
 30
0.0
 11
-0.001876
 21
-309.201379
 31
0.0
  0
LINE
  5
132
  8
OUTLINE
  6
CONTINUOUS
 62
     3
 10
795.001037
 20
184.5
 30
0.0
 11
795.001037
 21
-192.5
 31
0.0
  0
LINE
  5
133
  8
OUTLINE
  6
CONTINUOUS
 62
     3
 10
-794.998963
 20
184.5
 30
0.0
 11
795.001037
 21
184.5
 31
0.0
  0
LINE
  5
134
  8
OUTLINE
  6
CONTINUOUS
 62
     3
 10
-794.998963
 20
-192.5
 30
0.0
 11
795.001037
 21
-192.5
 31
0.0
  0
LINE
  5
135
  8
OUTLINE
  6
CONTINUOUS
 62
     3
 10
-794.998963
 20
184.5
 30
0.0
 11
-794.998963
 21
-192.5
 31
0.0
  0
LINE
  5
136
  8
NOTE
  6
CONTINUOUS
 62
     4
 10
-749.998963
 20
218.5
 30
0.0
 11
-627.800431
 21
346.098484
 31
0.0
  0
POLYLINE
  5
137
  8
NOTE
  6
CONTINUOUS
 62
     4
 66
     1
 10
0.0
 20
0.0
 30
0.0
  0
VERTEX
  5
138
  8
NOTE
  6
CONTINUOUS
 62
     4
 10
-730.752375
 20
253.565208
 30
0.0
  0
VERTEX
  5
139
  8
NOTE
  6
CONTINUOUS
 62
     4
 10
-749.998963
 20
218.5
 30
0.0
  0
VERTEX
  5
13A
  8
NOTE
  6
CONTINUOUS
 62
     4
 10
-715.798325
 20
239.244067
 30
0.0
  0
SEQEND
  5
13B
  8
NOTE
  6
CONTINUOUS
 62
     4
  0
LINE
  5
13C
  8
NOTE
  6
CONTINUOUS
 62
     4
 10
101.395667
 20
346.087347
 30
0.0
 11
-627.800431
 21
346.098484
 31
0.0
  0
TEXT
  5
13D
  8
NOTE
  6
CONTINUOUS
 62
     4
 10
-610.979757
 20
357.001032
 30
0.0
 40
64.0
  1
AH 2-U切穴 %%C 12
 50
359.998889
 41
0.9
 72
     2
 11
72.540243
 21
356.987778
 31
0.0
  0
LINE
  5
13E
  8
SIZE
  6
CONTINUOUS
 62
    30
 10
-779.998963
 20
-261.5
 30
0.0
 11
-1111.622725
 21
-261.5
 31
0.0
  0
LINE
  5
13F
  8
SIZE
  6
CONTINUOUS
 62
    30
 10
-779.998963
 20
232.5
 30
0.0
 11
-1111.622725
 21
232.5
 31
0.0
  0
LINE
  5
140
  8
SIZE
  6
CONTINUOUS
 62
    30
 10
-1081.622725
 20
-251.5
 30
0.0
 11
-1081.622725
 21
222.5
 31
0.0
  0
CIRCLE
  5
141
  8
SIZE
  6
CONTINUOUS
 62
    30
 10
-1081.622725
 20
-261.5
 30
0.0
 40
5.0
  0
LINE
  5
142
  8
SIZE
  6
CONTINUOUS
 62
    30
 10
-1081.622725
 20
-256.5
 30
0.0
 11
-1081.622725
 21
-251.5
 31
0.0
  0
CIRCLE
  5
143
  8
SIZE
  6
CONTINUOUS
 62
    30
 10
-1081.622725
 20
232.5
 30
0.0
 40
5.0
  0
LINE
  5
144
  8
SIZE
  6
CONTINUOUS
 62
    30
 10
-1081.622725
 20
227.5
 30
0.0
 11
-1081.622725
 21
222.5
 31
0.0
  0
TEXT
  5
145
  8
SIZE
  6
CONTINUOUS
 62
    30
 10
-1101.622725
 20
-89.928571
 30
0.0
 40
64.0
  1
494
 50
90.0
 41
0.9
 72
     1
 11
-1101.622725
 21
-14.5
 31
0.0
  0
POINT
  5
146
  8
DEFPOINTS
  6
CONTINUOUS
 62
     7
 10
-759.998963
 20
-261.5
 30
0.0
  0
POINT
  5
147
  8
DEFPOINTS
  6
CONTINUOUS
 62
     7
 10
-759.998963
 20
232.5
 30
0.0
  0
POINT
  5
148
  8
DEFPOINTS
  6
CONTINUOUS
 62
     7
 10
-1081.622725
 20
232.5
 30
0.0
  0
ENDSEC
  0
EOF
